  0
SECTION
  2
HEADER
  9
$ACADVER
  1
AC1021
  9
$ACADMAINTVER
 70
    25
  9
$DWGCODEPAGE
  3
ANSI_1257
  9
$LASTSAVEDBY
  1
mariusbitinas
  9
$INSBASE
 10
0.0
 20
0.0
 30
0.0
  9
$EXTMIN
 10
-644.3641125370591
 20
-523.8198696283
 30
0.0
  9
$EXTMAX
 10
1129.858411396122
 20
401.0840818332
 30
0.0
  9
$LIMMIN
 10
0.0
 20
0.0
  9
$LIMMAX
 10
420.0
 20
297.0
  9
$ORTHOMODE
 70
     0
  9
$REGENMODE
 70
     1
  9
$FILLMODE
 70
     1
  9
$QTEXTMODE
 70
     0
  9
$MIRRTEXT
 70
     1
  9
$LTSCALE
 40
1.0
  9
$ATTMODE
 70
     1
  9
$TEXTSIZE
 40
5.6444444444
  9
$TRACEWID
 40
1.0
  9
$TEXTSTYLE
  7
Standard
  9
$CLAYER
  8
0
  9
$CELTYPE
  6
ByLayer
  9
$CECOLOR
 62
   256
  9
$CELTSCALE
 40
1.0
  9
$DISPSILH
 70
     0
  9
$DIMSCALE
 40
1.0
  9
$DIMASZ
 40
3.175
  9
$DIMEXO
 40
1.0
  9
$DIMDLI
 40
3.75
  9
$DIMRND
 40
0.0
  9
$DIMDLE
 40
0.0
  9
$DIMEXE
 40
1.0
  9
$DIMTP
 40
0.0
  9
$DIMTM
 40
0.0
  9
$DIMTXT
 40
4.9388888889
  9
$DIMCEN
 40
2.5
  9
$DIMTSZ
 40
0.0
  9
$DIMTOL
 70
     0
  9
$DIMLIM
 70
     0
  9
$DIMTIH
 70
     1
  9
$DIMTOH
 70
     1
  9
$DIMSE1
 70
     0
  9
$DIMSE2
 70
     0
  9
$DIMTAD
 70
     1
  9
$DIMZIN
 70
     0
  9
$DIMBLK
  1

  9
$DIMASO
 70
     1
  9
$DIMSHO
 70
     1
  9
$DIMPOST
  1

  9
$DIMAPOST
  1

  9
$DIMALT
 70
     0
  9
$DIMALTD
 70
     3
  9
$DIMALTF
 40
0.0393700787
  9
$DIMLFAC
 40
1.0
  9
$DIMTOFL
 70
     1
  9
$DIMTVP
 40
0.0
  9
$DIMTIX
 70
     0
  9
$DIMSOXD
 70
     0
  9
$DIMSAH
 70
     0
  9
$DIMBLK1
  1

  9
$DIMBLK2
  1

  9
$DIMSTYLE
  2
ISO-25
  9
$DIMCLRD
 70
     0
  9
$DIMCLRE
 70
     0
  9
$DIMCLRT
 70
     0
  9
$DIMTFAC
 40
1.0
  9
$DIMGAP
 40
1.524
  9
$DIMJUST
 70
     0
  9
$DIMSD1
 70
     0
  9
$DIMSD2
 70
     0
  9
$DIMTOLJ
 70
     0
  9
$DIMTZIN
 70
     0
  9
$DIMALTZ
 70
     0
  9
$DIMALTTZ
 70
     0
  9
$DIMUPT
 70
     0
  9
$DIMDEC
 70
     1
  9
$DIMTDEC
 70
     1
  9
$DIMALTU
 70
     2
  9
$DIMALTTD
 70
     3
  9
$DIMTXSTY
  7
Standard
  9
$DIMAUNIT
 70
     0
  9
$DIMADEC
 70
     1
  9
$DIMALTRND
 40
0.0
  9
$DIMAZIN
 70
     0
  9
$DIMDSEP
 70
    44
  9
$DIMATFIT
 70
     3
  9
$DIMFRAC
 70
     0
  9
$DIMLDRBLK
  1

  9
$DIMLUNIT
 70
     2
  9
$DIMLWD
 70
    -2
  9
$DIMLWE
 70
    -2
  9
$DIMTMOVE
 70
     0
  9
$DIMFXL
 40
1.0
  9
$DIMFXLON
 70
     0
  9
$DIMJOGANG
 40
0.7853981633974483
  9
$DIMTFILL
 70
     0
  9
$DIMTFILLCLR
 70
     0
  9
$DIMARCSYM
 70
     0
  9
$DIMLTYPE
  6

  9
$DIMLTEX1
  6

  9
$DIMLTEX2
  6

  9
$LUNITS
 70
     2
  9
$LUPREC
 70
     1
  9
$SKETCHINC
 40
1.0
  9
$FILLETRAD
 40
10.0
  9
$AUNITS
 70
     0
  9
$AUPREC
 70
     1
  9
$MENU
  1
.
  9
$ELEVATION
 40
0.0
  9
$PELEVATION
 40
0.0
  9
$THICKNESS
 40
0.0
  9
$LIMCHECK
 70
     0
  9
$CHAMFERA
 40
0.0
  9
$CHAMFERB
 40
0.0
  9
$CHAMFERC
 40
0.0
  9
$CHAMFERD
 40
0.0
  9
$SKPOLY
 70
     0
  9
$TDCREATE
 40
2459177.516683704
  9
$TDUCREATE
 40
2459177.43335037
  9
$TDUPDATE
 40
2459177.525477164
  9
$TDUUPDATE
 40
2459177.442143831
  9
$TDINDWG
 40
0.0080039931
  9
$TDUSRTIMER
 40
0.0033632986
  9
$USRTIMER
 70
     1
  9
$ANGBASE
 50
0.0
  9
$ANGDIR
 70
     0
  9
$PDMODE
 70
     0
  9
$PDSIZE
 40
-1.0
  9
$PLINEWID
 40
0.0
  9
$SPLFRAME
 70
     0
  9
$SPLINETYPE
 70
     6
  9
$SPLINESEGS
 70
     8
  9
$HANDSEED
  5
7D2
  9
$SURFTAB1
 70
     6
  9
$SURFTAB2
 70
     6
  9
$SURFTYPE
 70
     6
  9
$SURFU
 70
     6
  9
$SURFV
 70
     6
  9
$UCSBASE
  2

  9
$UCSNAME
  2

  9
$UCSORG
 10
0.0
 20
0.0
 30
0.0
  9
$UCSXDIR
 10
1.0
 20
0.0
 30
0.0
  9
$UCSYDIR
 10
0.0
 20
1.0
 30
0.0
  9
$UCSORTHOREF
  2

  9
$UCSORTHOVIEW
 70
     0
  9
$UCSORGTOP
 10
0.0
 20
0.0
 30
0.0
  9
$UCSORGBOTTOM
 10
0.0
 20
0.0
 30
0.0
  9
$UCSORGLEFT
 10
0.0
 20
0.0
 30
0.0
  9
$UCSORGRIGHT
 10
0.0
 20
0.0
 30
0.0
  9
$UCSORGFRONT
 10
0.0
 20
0.0
 30
0.0
  9
$UCSORGBACK
 10
0.0
 20
0.0
 30
0.0
  9
$PUCSBASE
  2

  9
$PUCSNAME
  2

  9
$PUCSORG
 10
0.0
 20
0.0
 30
0.0
  9
$PUCSXDIR
 10
1.0
 20
0.0
 30
0.0
  9
$PUCSYDIR
 10
0.0
 20
1.0
 30
0.0
  9
$PUCSORTHOREF
  2

  9
$PUCSORTHOVIEW
 70
     0
  9
$PUCSORGTOP
 10
0.0
 20
0.0
 30
0.0
  9
$PUCSORGBOTTOM
 10
0.0
 20
0.0
 30
0.0
  9
$PUCSORGLEFT
 10
0.0
 20
0.0
 30
0.0
  9
$PUCSORGRIGHT
 10
0.0
 20
0.0
 30
0.0
  9
$PUCSORGFRONT
 10
0.0
 20
0.0
 30
0.0
  9
$PUCSORGBACK
 10
0.0
 20
0.0
 30
0.0
  9
$USERI1
 70
     0
  9
$USERI2
 70
     0
  9
$USERI3
 70
     0
  9
$USERI4
 70
     0
  9
$USERI5
 70
     0
  9
$USERR1
 40
0.0
  9
$USERR2
 40
0.0
  9
$USERR3
 40
0.0
  9
$USERR4
 40
0.0
  9
$USERR5
 40
0.0
  9
$WORLDVIEW
 70
     1
  9
$SHADEDGE
 70
     3
  9
$SHADEDIF
 70
    70
  9
$TILEMODE
 70
     1
  9
$MAXACTVP
 70
    64
  9
$PINSBASE
 10
0.0
 20
0.0
 30
0.0
  9
$PLIMCHECK
 70
     0
  9
$PEXTMIN
 10
1.000000000000000E+20
 20
1.000000000000000E+20
 30
1.000000000000000E+20
  9
$PEXTMAX
 10
-1.000000000000000E+20
 20
-1.000000000000000E+20
 30
-1.000000000000000E+20
  9
$PLIMMIN
 10
0.0
 20
0.0
  9
$PLIMMAX
 10
0.0
 20
0.0
  9
$UNITMODE
 70
     0
  9
$VISRETAIN
 70
     1
  9
$PLINEGEN
 70
     0
  9
$PSLTSCALE
 70
     1
  9
$TREEDEPTH
 70
  3020
  9
$CMLSTYLE
  2
Standard
  9
$CMLJUST
 70
     0
  9
$CMLSCALE
 40
20.0
  9
$PROXYGRAPHICS
 70
     1
  9
$MEASUREMENT
 70
     1
  9
$CELWEIGHT
370
    -1
  9
$ENDCAPS
280
     0
  9
$JOINSTYLE
280
     0
  9
$LWDISPLAY
290
     1
  9
$INSUNITS
 70
     4
  9
$HYPERLINKBASE
  1

  9
$STYLESHEET
  1

  9
$XEDIT
290
     1
  9
$CEPSNTYPE
380
     0
  9
$PSTYLEMODE
290
     1
  9
$FINGERPRINTGUID
  2
{31828d2c-e079-4841-ad98-57aee79a005d}
  9
$VERSIONGUID
  2
{FAEB1C32-E019-11D5-929B-00C0DF256EC4}
  9
$EXTNAMES
290
     1
  9
$PSVPSCALE
 40
0.0
  9
$OLESTARTUP
290
     0
  9
$SORTENTS
280
   127
  9
$INDEXCTL
280
     0
  9
$HIDETEXT
280
     1
  9
$XCLIPFRAME
290
     0
  9
$HALOGAP
280
     0
  9
$OBSCOLOR
 70
   257
  9
$OBSLTYPE
280
     0
  9
$INTERSECTIONDISPLAY
280
     0
  9
$INTERSECTIONCOLOR
 70
   257
  9
$DIMASSOC
280
     2
  9
$PROJECTNAME
  1

  9
$CAMERADISPLAY
290
     0
  9
$LENSLENGTH
 40
50.0
  9
$CAMERAHEIGHT
 40
0.0
  9
$STEPSPERSEC
 40
2.0
  9
$STEPSIZE
 40
6.0
  9
$3DDWFPREC
 40
2.0
  9
$PSOLWIDTH
 40
0.25
  9
$PSOLHEIGHT
 40
4.0
  9
$LOFTANG1
 40
1.570796326794897
  9
$LOFTANG2
 40
1.570796326794897
  9
$LOFTMAG1
 40
0.0
  9
$LOFTMAG2
 40
0.0
  9
$LOFTPARAM
 70
     7
  9
$LOFTNORMALS
280
     1
  9
$LATITUDE
 40
37.795
  9
$LONGITUDE
 40
-122.394
  9
$NORTHDIRECTION
 40
0.0
  9
$TIMEZONE
 70
 -8000
  9
$LIGHTGLYPHDISPLAY
280
     1
  9
$TILEMODELIGHTSYNCH
280
     1
  9
$SOLIDHIST
280
     0
  9
$SHOWHIST
280
     1
  9
$DWFFRAME
280
     2
  9
$DGNFRAME
280
     2
  9
$REALWORLDSCALE
290
     1
  9
$INTERFERECOLOR
 62
   256
  9
$CSHADOW
280
     0
  9
$SHADOWPLANELOCATION
 40
0.0
  0
ENDSEC
  0
SECTION
  2
CLASSES
  0
CLASS
  1
ACDBDICTIONARYWDFLT
  2
AcDbDictionaryWithDefault
  3
ObjectDBX Classes
 90
        0
 91
        3
280
     0
281
     0
  0
CLASS
  1
VISUALSTYLE
  2
AcDbVisualStyle
  3
ObjectDBX Classes
 90
     4095
 91
        3
280
     0
281
     0
  0
CLASS
  1
MATERIAL
  2
AcDbMaterial
  3
ObjectDBX Classes
 90
     1153
 91
        3
280
     0
281
     0
  0
CLASS
  1
SCALE
  2
AcDbScale
  3
ObjectDBX Classes
 90
     1153
 91
        3
280
     0
281
     0
  0
CLASS
  1
TABLESTYLE
  2
AcDbTableStyle
  3
ObjectDBX Classes
 90
     4095
 91
        3
280
     0
281
     0
  0
CLASS
  1
MLEADERSTYLE
  2
AcDbMLeaderStyle
  3
ACDB_MLEADERSTYLE_CLASS
 90
     4095
 91
        3
280
     0
281
     0
  0
CLASS
  1
SUN
  2
AcDbSun
  3
SCENEOE
 90
     1153
 91
        3
280
     0
281
     0
  0
CLASS
  1
ACDBPLACEHOLDER
  2
AcDbPlaceHolder
  3
ObjectDBX Classes
 90
        0
 91
        1
280
     0
281
     0
  0
CLASS
  1
LAYOUT
  2
AcDbLayout
  3
ObjectDBX Classes
 90
        0
 91
        1
280
     0
281
     0
  0
CLASS
  1
DICTIONARYVAR
  2
AcDbDictionaryVar
  3
ObjectDBX Classes
 90
        0
 91
        3
280
     0
281
     0
  0
CLASS
  1
CELLSTYLEMAP
  2
AcDbCellStyleMap
  3
ObjectDBX Classes
 90
     1152
 91
        3
280
     0
281
     0
  0
ENDSEC
  0
SECTION
  2
TABLES
  0
TABLE
  2
VPORT
  5
8
330
0
100
AcDbSymbolTable
 70
     1
  0
VPORT
  5
29
330
8
100
AcDbSymbolTableRecord
100
AcDbViewportTableRecord
  2
*Active
 70
     0
 10
0.0
 20
0.0
 11
1.0
 21
1.0
 12
636.9208609653813
 22
42.29350722797142
 13
0.0
 23
0.0
 14
10.0
 24
10.0
 15
10.0
 25
10.0
 16
0.0
 26
0.0
 36
1.0
 17
0.0
 27
0.0
 37
0.0
 40
2149.942237014863
 41
1.644036697247707
 42
50.0
 43
0.0
 44
0.0
 50
0.0
 51
0.0
 71
    16
 72
  2000
 73
     1
 74
     3
 75
     0
 76
     0
 77
     0
 78
     0
281
     0
 65
     1
110
0.0
120
0.0
130
0.0
111
1.0
121
0.0
131
0.0
112
0.0
122
1.0
132
0.0
 79
     0
146
0.0
348
686
 60
     3
 61
     5
292
     1
282
     1
141
0.0
142
0.0
 63
   250
  0
ENDTAB
  0
TABLE
  2
LTYPE
  5
5
330
0
100
AcDbSymbolTable
 70
     6
  0
LTYPE
  5
14
330
5
100
AcDbSymbolTableRecord
100
AcDbLinetypeTableRecord
  2
ByBlock
 70
     0
  3

 72
    65
 73
     0
 40
0.0
  0
LTYPE
  5
15
330
5
100
AcDbSymbolTableRecord
100
AcDbLinetypeTableRecord
  2
ByLayer
 70
     0
  3

 72
    65
 73
     0
 40
0.0
  0
LTYPE
  5
16
330
5
100
AcDbSymbolTableRecord
100
AcDbLinetypeTableRecord
  2
Continuous
 70
     0
  3
Solid line
 72
    65
 73
     0
 40
0.0
  0
LTYPE
  5
6E
330
5
100
AcDbSymbolTableRecord
100
AcDbLinetypeTableRecord
  2
HIDDEN
 70
     0
  3
Hidden __ __ __ __ __ __ __ __ __ __ __ __ __ __
 72
    65
 73
     2
 40
1.905
 49
1.27
 74
     0
 49
-0.635
 74
     0
  0
LTYPE
  5
6F
330
5
100
AcDbSymbolTableRecord
100
AcDbLinetypeTableRecord
  2
PHANTOM
 70
     0
  3
Phantom ______  __  __  ______  __  __  ______
 72
    65
 73
     6
 40
12.7
 49
6.35
 74
     0
 49
-1.27
 74
     0
 49
1.27
 74
     0
 49
-1.27
 74
     0
 49
1.27
 74
     0
 49
-1.27
 74
     0
  0
LTYPE
  5
70
330
5
100
AcDbSymbolTableRecord
100
AcDbLinetypeTableRecord
  2
CENTER
 70
     0
  3
Center ____ _ ____ _ ____ _ ____ _ ____ _ ____
 72
    65
 73
     4
 40
10.16
 49
6.35
 74
     0
 49
-1.27
 74
     0
 49
1.27
 74
     0
 49
-1.27
 74
     0
  0
LTYPE
  5
71
330
5
100
AcDbSymbolTableRecord
100
AcDbLinetypeTableRecord
  2
CENTERX2
 70
     0
  3
Center (2x) ________  __  ________  __  _____
 72
    65
 73
     4
 40
20.32
 49
12.7
 74
     0
 49
-2.54
 74
     0
 49
2.54
 74
     0
 49
-2.54
 74
     0
  0
LTYPE
  5
72
330
5
100
AcDbSymbolTableRecord
100
AcDbLinetypeTableRecord
  2
DOT2
 70
     0
  3
Dot (.5x) ........................................
 72
    65
 73
     2
 40
0.635
 49
0.0
 74
     0
 49
-0.635
 74
     0
  0
ENDTAB
  0
TABLE
  2
LAYER
  5
2
330
0
100
AcDbSymbolTable
 70
     2
  0
LAYER
  5
10
330
2
100
AcDbSymbolTableRecord
100
AcDbLayerTableRecord
  2
0
 70
     0
 62
     7
  6
Continuous
370
    -3
390
F
347
69D
  0
LAYER
  5
73
330
2
100
AcDbSymbolTableRecord
100
AcDbLayerTableRecord
  2
LENKIMO
 70
     0
 62
     1
  6
CENTERX2
370
    -3
390
F
347
69D
  0
ENDTAB
  0
TABLE
  2
STYLE
  5
3
330
0
100
AcDbSymbolTable
 70
     1
  0
STYLE
  5
11
330
3
100
AcDbSymbolTableRecord
100
AcDbTextStyleTableRecord
  2
Standard
 70
     0
 40
0.0
 41
1.0
 50
0.0
 71
     0
 42
5.6444444444
  3
txt
  4

  0
ENDTAB
  0
TABLE
  2
VIEW
  5
6
330
0
100
AcDbSymbolTable
 70
     0
  0
ENDTAB
  0
TABLE
  2
UCS
  5
7
330
0
100
AcDbSymbolTable
 70
     0
  0
ENDTAB
  0
TABLE
  2
APPID
  5
9
330
0
100
AcDbSymbolTable
 70
     2
  0
APPID
  5
12
330
9
100
AcDbSymbolTableRecord
100
AcDbRegAppTableRecord
  2
ACAD
 70
     0
  0
APPID
  5
7D0
330
9
100
AcDbSymbolTableRecord
100
AcDbRegAppTableRecord
  2
ACAD_MLEADERVER
 70
     0
  0
ENDTAB
  0
TABLE
  2
DIMSTYLE
  5
A
330
0
100
AcDbSymbolTable
 70
     5
100
AcDbDimStyleTable
  0
DIMSTYLE
105
27
330
A
100
AcDbSymbolTableRecord
100
AcDbDimStyleTableRecord
  2
ISO-25
 70
     0
 41
2.5
 42
0.625
 43
3.75
 44
1.25
 73
     0
 74
     0
 77
     1
 78
     8
140
2.5
141
2.5
143
0.0393700787
147
0.625
171
     3
172
     1
178
     0
271
     2
272
     2
274
     3
278
    44
283
     0
284
     8
340
11
  0
DIMSTYLE
105
6C8
330
A
100
AcDbSymbolTableRecord
100
AcDbDimStyleTableRecord
  2
SLDDIMSTYLE1
 70
     0
 41
4.0
 44
0.0
 45
0.000000001
 73
     0
 77
     1
 78
    12
140
2.6458333333
144
10.0
147
0.6614583333000001
173
     1
178
     0
340
11
  0
DIMSTYLE
105
6C9
330
A
100
AcDbSymbolTableRecord
100
AcDbDimStyleTableRecord
  2
SLDDIMSTYLE2
 70
     0
 41
4.0
 44
0.0
 45
0.000000001
 73
     0
 77
     1
 78
    12
140
2.6458333333
144
10.0
147
0.6614583333000001
173
     1
178
     0
340
11
  0
DIMSTYLE
105
6CA
330
A
100
AcDbSymbolTableRecord
100
AcDbDimStyleTableRecord
  2
SLDDIMSTYLE3
 70
     0
 41
4.0
 44
0.0
 45
0.000000001
146
4.0
147
0.0
173
     1
178
     0
340
11
  0
DIMSTYLE
105
6CB
330
A
100
AcDbSymbolTableRecord
100
AcDbDimStyleTableRecord
  2
SLDDIMSTYLE4
 70
     0
 41
4.0
 44
0.0
 73
     0
 77
     1
 78
    12
140
2.6458333333
144
7.5
147
0.6614583333000001
173
     1
178
     0
340
11
  0
ENDTAB
  0
TABLE
  2
BLOCK_RECORD
  5
1
330
0
100
AcDbSymbolTable
 70
     6
  0
BLOCK_RECORD
  5
1F
102
{ACAD_XDICTIONARY
360
6B0
102
}
330
1
100
AcDbSymbolTableRecord
100
AcDbBlockTableRecord
  2
*Model_Space
340
22
 70
     0
280
     1
281
     0
  0
BLOCK_RECORD
  5
1B
330
1
100
AcDbSymbolTableRecord
100
AcDbBlockTableRecord
  2
*Paper_Space
340
1E
 70
     0
280
     1
281
     0
  0
BLOCK_RECORD
  5
23
330
1
100
AcDbSymbolTableRecord
100
AcDbBlockTableRecord
  2
*Paper_Space0
340
26
 70
     0
280
     1
281
     0
  0
BLOCK_RECORD
  5
74
330
1
100
AcDbSymbolTableRecord
100
AcDbBlockTableRecord
  2
Block11_2
340
0
 70
     0
280
     1
281
     0
  0
BLOCK_RECORD
  5
6E4
330
1
100
AcDbSymbolTableRecord
100
AcDbBlockTableRecord
  2
*U3
340
0
102
{BLKREFS
331
6E3
331
6EE
331
0
331
705
102
}
 70
     0
280
     1
281
     0
  0
BLOCK_RECORD
  5
6E9
330
1
100
AcDbSymbolTableRecord
100
AcDbBlockTableRecord
  2
*U4
340
0
102
{BLKREFS
331
6E8
331
6ED
331
0
331
704
102
}
 70
     0
280
     1
281
     0
  0
BLOCK_RECORD
  5
794
330
1
100
AcDbSymbolTableRecord
100
AcDbBlockTableRecord
  2
*U6
340
0
102
{BLKREFS
331
793
331
7A3
102
}
 70
     0
280
     1
281
     0
  0
BLOCK_RECORD
  5
7BE
330
1
100
AcDbSymbolTableRecord
100
AcDbBlockTableRecord
  2
*U8
340
0
102
{BLKREFS
331
7BD
331
7CD
102
}
 70
     0
280
     1
281
     0
  0
ENDTAB
  0
ENDSEC
  0
SECTION
  2
BLOCKS
  0
BLOCK
  5
20
330
1F
100
AcDbEntity
  8
0
100
AcDbBlockBegin
  2
*Model_Space
 70
     0
 10
0.0
 20
0.0
 30
0.0
  3
*Model_Space
  1

  0
ENDBLK
  5
21
330
1F
100
AcDbEntity
  8
0
100
AcDbBlockEnd
  0
BLOCK
  5
1C
330
1B
100
AcDbEntity
 67
     1
  8
0
100
AcDbBlockBegin
  2
*Paper_Space
 70
     0
 10
0.0
 20
0.0
 30
0.0
  3
*Paper_Space
  1

  0
ENDBLK
  5
1D
330
1B
100
AcDbEntity
 67
     1
  8
0
100
AcDbBlockEnd
  0
BLOCK
  5
24
330
23
100
AcDbEntity
  8
0
100
AcDbBlockBegin
  2
*Paper_Space0
 70
     0
 10
0.0
 20
0.0
 30
0.0
  3
*Paper_Space0
  1

  0
ENDBLK
  5
25
330
23
100
AcDbEntity
  8
0
100
AcDbBlockEnd
  0
BLOCK
  5
75
330
74
100
AcDbEntity
  8
0
100
AcDbBlockBegin
  2
Block11_2
 70
     0
 10
0.0
 20
0.0
 30
0.0
  3
Block11_2
  1

  0
LINE
  5
77
330
74
100
AcDbEntity
  8
0
  6
Continuous
100
AcDbLine
 10
-15.7956326374
 20
2.3055746011
 30
0.0
 11
-18.0649288667
 21
1.8146036087
 31
0.0
  0
LINE
  5
78
330
74
100
AcDbEntity
  8
0
  6
Continuous
100
AcDbLine
 10
-15.6988785554
 20
-9.1195335787
 30
0.0
 11
-10.2261014967
 21
-7.9354771524
 31
0.0
  0
LINE
  5
79
330
74
100
AcDbEntity
  8
0
  6
Continuous
100
AcDbLine
 10
-10.2261014967
 20
-7.9354771524
 30
0.0
 11
-10.6655808869
 21
-5.9041780766
 31
0.0
  0
LINE
  5
7A
330
74
100
AcDbEntity
  8
0
  6
Continuous
100
AcDbLine
 10
-10.6655808869
 20
-5.9041780766
 30
0.0
 11
-13.8699456036
 21
-6.5974547429
 31
0.0
  0
LINE
  5
7B
330
74
100
AcDbEntity
  8
0
  6
Continuous
100
AcDbLine
 10
-8.296070931
 20
1.802048972
 30
0.0
 11
-6.9198111955
 21
2.0998080743
 31
0.0
  0
LINE
  5
7C
330
74
100
AcDbEntity
  8
0
  6
Continuous
100
AcDbLine
 10
-5.4333831358
 20
-4.7719736412
 30
0.0
 11
-6.8095376466
 21
-5.0697099777
 31
0.0
  0
LINE
  5
7D
330
74
100
AcDbEntity
  8
0
  6
Continuous
100
AcDbLine
 10
-11.0044904538
 20
3.3421566929
 30
0.0
 11
-8.6388294738
 21
-7.5920647278
 31
0.0
  0
LINE
  5
7E
330
74
100
AcDbEntity
  8
0
  6
Continuous
100
AcDbLine
 10
-8.6388294738
 20
-7.5920647278
 30
0.0
 11
-8.6384401425
 21
-7.5919804944
 31
0.0
  0
LINE
  5
7F
330
74
100
AcDbEntity
  8
0
  6
Continuous
100
AcDbLine
 10
-8.6384401425
 20
-7.5919804944
 30
0.0
 11
-4.4940245505
 21
-6.6953201952
 31
0.0
  0
LINE
  5
80
330
74
100
AcDbEntity
  8
0
  6
Continuous
100
AcDbLine
 10
-6.8595855671
 20
4.238922853
 30
0.0
 11
-11.0044904538
 21
3.3421566929
 31
0.0
  0
LINE
  5
81
330
74
100
AcDbEntity
  8
0
  6
Continuous
100
AcDbLine
 10
-32.9933593229
 20
-3.3005605139
 30
0.0
 11
-32.8591663041
 21
-3.2715273367
 31
0.0
  0
LINE
  5
82
330
74
100
AcDbEntity
  8
0
  6
Continuous
100
AcDbLine
 10
-31.5697721187
 20
-3.9678201523
 30
0.0
 11
-29.2969561243
 21
-3.4760876451
 31
0.0
  0
LINE
  5
83
330
74
100
AcDbEntity
  8
0
  6
Continuous
100
AcDbLine
 10
-33.2794920496
 20
-1.2667721217
 30
0.0
 11
-33.3448839193
 21
-1.2809199049
 31
0.0
  0
LINE
  5
84
330
74
100
AcDbEntity
  8
0
  6
Continuous
100
AcDbLine
 10
-31.3289079349
 20
-10.5856399919
 30
0.0
 11
-31.4650581325
 21
-10.6150966123
 31
0.0
  0
LINE
  5
85
330
74
100
AcDbEntity
  8
0
  6
Continuous
100
AcDbLine
 10
-32.8822392925
 20
-9.9377601564
 30
0.0
 11
-35.1888692339
 21
-10.4368084414
 31
0.0
  0
LINE
  5
86
330
74
100
AcDbEntity
  8
0
  6
Continuous
100
AcDbLine
 10
-31.5949683304
 20
-12.7295787952
 30
0.0
 11
-30.2063920476
 21
-12.4291549603
 31
0.0
  0
LINE
  5
87
330
74
100
AcDbEntity
  8
0
  6
Continuous
100
AcDbLine
 10
6.262509235
 20
-4.3681026205
 30
0.0
 11
8.6370616994
 21
-3.8543590356
 31
0.0
  0
LINE
  5
88
330
74
100
AcDbEntity
  8
0
  6
Continuous
100
AcDbLine
 10
8.6370616994
 20
-3.8543590356
 30
0.0
 11
3.9059396663
 21
6.5680857621
 31
0.0
  0
LINE
  5
89
330
74
100
AcDbEntity
  8
0
  6
Continuous
100
AcDbLine
 10
3.9059396663
 20
6.5680857621
 30
0.0
 11
0.0
 21
5.7230206493
 31
0.0
  0
LINE
  5
8A
330
74
100
AcDbEntity
  8
0
  6
Continuous
100
AcDbLine
 10
0.0
 20
5.7230206493
 30
0.0
 11
0.0
 21
-5.7230206493
 31
0.0
  0
LINE
  5
8B
330
74
100
AcDbEntity
  8
0
  6
Continuous
100
AcDbLine
 10
0.0
 20
-5.7230206493
 30
0.0
 11
2.3746576891
 21
-5.2092542987
 31
0.0
  0
LINE
  5
8C
330
74
100
AcDbEntity
  8
0
  6
Continuous
100
AcDbLine
 10
2.3746576891
 20
-5.2092542987
 30
0.0
 11
2.3747844598
 21
-3.0912381741
 31
0.0
  0
LINE
  5
8D
330
74
100
AcDbEntity
  8
0
  6
Continuous
100
AcDbLine
 10
2.3747844598
 20
-3.0912381741
 30
0.0
 11
4.0318309599
 21
-2.7327297722
 31
0.0
  0
LINE
  5
8E
330
74
100
AcDbEntity
  8
0
  6
Continuous
100
AcDbLine
 10
4.0318309599
 20
-2.7327297722
 30
0.0
 11
3.5923515697
 21
-0.7014306964
 31
0.0
  0
LINE
  5
8F
330
74
100
AcDbEntity
  8
0
  6
Continuous
100
AcDbLine
 10
3.5923515697
 20
-0.7014306964
 30
0.0
 11
2.3750284336
 21
-0.9648032524
 31
0.0
  0
LINE
  5
90
330
74
100
AcDbEntity
  8
0
  6
Continuous
100
AcDbLine
 10
2.3750284336
 20
-0.9648032524
 30
0.0
 11
2.3752084601
 21
4.1936873712
 31
0.0
  0
LINE
  5
91
330
74
100
AcDbEntity
  8
0
  6
Continuous
100
AcDbLine
 10
2.3752084601
 20
4.1936873712
 30
0.0
 11
6.262509235
 21
-4.3681026205
 31
0.0
  0
LINE
  5
92
330
74
100
AcDbEntity
  8
0
  6
Continuous
100
AcDbLine
 10
-53.0629352118
 20
-11.4801779454
 30
0.0
 11
-50.7945341276
 21
-8.0228043203
 31
0.0
  0
LINE
  5
93
330
74
100
AcDbEntity
  8
0
  6
Continuous
100
AcDbLine
 10
-50.7945341276
 20
-8.0228043203
 30
0.0
 11
-54.2891069366
 21
-5.8122833411
 31
0.0
  0
LINE
  5
94
330
74
100
AcDbEntity
  8
0
  6
Continuous
100
AcDbLine
 10
-54.2891069366
 20
-5.8122833411
 30
0.0
 11
-51.4073820962
 21
-5.1888110564
 31
0.0
  0
LINE
  5
95
330
74
100
AcDbEntity
  8
0
  6
Continuous
100
AcDbLine
 10
-51.4073820962
 20
-5.1888110564
 30
0.0
 11
-47.9127327975
 21
-7.3992273667
 31
0.0
  0
LINE
  5
96
330
74
100
AcDbEntity
  8
0
  6
Continuous
100
AcDbLine
 10
-47.9127327975
 20
-7.3992273667
 30
0.0
 11
-50.1813587974
 21
-10.8569360435
 31
0.0
  0
LINE
  5
97
330
74
100
AcDbEntity
  8
0
  6
Continuous
100
AcDbLine
 10
-50.1813587974
 20
-10.8569360435
 30
0.0
 11
-53.0628942334
 21
-11.4803673498
 31
0.0
  0
LINE
  5
98
330
74
100
AcDbEntity
  8
0
  6
Continuous
100
AcDbLine
 10
-53.0628942334
 20
-11.4803673498
 30
0.0
 11
-53.0629352118
 21
-11.4801779454
 31
0.0
  0
LINE
  5
99
330
74
100
AcDbEntity
  8
0
  6
Continuous
100
AcDbLine
 10
-42.7624916815
 20
-3.31845567
 30
0.0
 11
-45.0307950789
 21
-6.7757971452
 31
0.0
  0
LINE
  5
9A
330
74
100
AcDbEntity
  8
0
  6
Continuous
100
AcDbLine
 10
-45.0307950789
 20
-6.7757971452
 30
0.0
 11
-48.5254573289
 21
-4.5652955168
 31
0.0
  0
LINE
  5
9B
330
74
100
AcDbEntity
  8
0
  6
Continuous
100
AcDbLine
 10
-48.5254573289
 20
-4.5652955168
 30
0.0
 11
-48.5257466967
 21
-4.5653581227
 31
0.0
  0
LINE
  5
9C
330
74
100
AcDbEntity
  8
0
  6
Continuous
100
AcDbLine
 10
-48.5257466967
 20
-4.5653581227
 30
0.0
 11
-47.9126146215
 21
-7.399289919
 31
0.0
  0
LINE
  5
9D
330
74
100
AcDbEntity
  8
0
  6
Continuous
100
AcDbLine
 10
-47.9126146215
 20
-7.399289919
 30
0.0
 11
-44.4177372167
 21
-9.6098441329
 31
0.0
  0
LINE
  5
9E
330
74
100
AcDbEntity
  8
0
  6
Continuous
100
AcDbLine
 10
-44.4177372167
 20
-9.6098441329
 30
0.0
 11
-42.1490649772
 21
-6.1523237222
 31
0.0
  0
LINE
  5
9F
330
74
100
AcDbEntity
  8
0
  6
Continuous
100
AcDbLine
 10
-42.1490649772
 20
-6.1523237222
 30
0.0
 11
-42.7621970524
 21
-3.3183919259
 31
0.0
  0
LINE
  5
A0
330
74
100
AcDbEntity
  8
0
  6
Continuous
100
AcDbLine
 10
-42.7621970524
 20
-3.3183919259
 30
0.0
 11
-42.7624916815
 21
-3.31845567
 31
0.0
  0
LINE
  5
A1
330
74
100
AcDbEntity
  8
0
  6
Continuous
100
AcDbLine
 10
-41.535889647
 20
-8.9864554454
 30
0.0
 11
-43.8045413973
 21
-12.4440705583
 31
0.0
  0
LINE
  5
A2
330
74
100
AcDbEntity
  8
0
  6
Continuous
100
AcDbLine
 10
-43.8045413973
 20
-12.4440705583
 30
0.0
 11
-40.3564529382
 21
-14.625159785
 31
0.0
  0
LINE
  5
A3
330
74
100
AcDbEntity
  8
0
  6
Continuous
100
AcDbLine
 10
-40.3564529382
 20
-14.625159785
 30
0.0
 11
-43.2382724808
 21
-15.2486525588
 31
0.0
  0
LINE
  5
A4
330
74
100
AcDbEntity
  8
0
  6
Continuous
100
AcDbLine
 10
-43.2382724808
 20
-15.2486525588
 30
0.0
 11
-46.686243472
 21
-13.0676480676
 31
0.0
  0
LINE
  5
A5
330
74
100
AcDbEntity
  8
0
  6
Continuous
100
AcDbLine
 10
-46.686243472
 20
-13.0676480676
 30
0.0
 11
-44.4177144509
 21
-9.6099493576
 31
0.0
  0
LINE
  5
A6
330
74
100
AcDbEntity
  8
0
  6
Continuous
100
AcDbLine
 10
-44.4177144509
 20
-9.6099493576
 30
0.0
 11
-41.535889647
 21
-8.9864554454
 31
0.0
  0
LINE
  5
A7
330
74
100
AcDbEntity
  8
0
  6
Continuous
100
AcDbLine
 10
-51.8063383656
 20
-17.1023866618
 30
0.0
 11
-49.5681857438
 21
-13.6910572443
 31
0.0
  0
LINE
  5
A8
330
74
100
AcDbEntity
  8
0
  6
Continuous
100
AcDbLine
 10
-49.5681857438
 20
-13.6910572443
 30
0.0
 11
-46.1199973213
 21
-15.8721248435
 31
0.0
  0
LINE
  5
A9
330
74
100
AcDbEntity
  8
0
  6
Continuous
100
AcDbLine
 10
-46.1199973213
 20
-15.8721248435
 30
0.0
 11
-46.0813956519
 21
-15.8637732234
 31
0.0
  0
LINE
  5
AA
330
74
100
AcDbEntity
  8
0
  6
Continuous
100
AcDbLine
 10
-46.0813956519
 20
-15.8637732234
 30
0.0
 11
-46.6863662012
 21
-13.0675644704
 31
0.0
  0
LINE
  5
AB
330
74
100
AcDbEntity
  8
0
  6
Continuous
100
AcDbLine
 10
-46.6863662012
 20
-13.0675644704
 30
0.0
 11
-50.1813587974
 21
-10.8569360435
 31
0.0
  0
LINE
  5
AC
330
74
100
AcDbEntity
  8
0
  6
Continuous
100
AcDbLine
 10
-50.1813587974
 20
-10.8569360435
 30
0.0
 11
-52.4497621582
 21
-14.3142991462
 31
0.0
  0
LINE
  5
AD
330
74
100
AcDbEntity
  8
0
  6
Continuous
100
AcDbLine
 10
-52.4497621582
 20
-14.3142991462
 30
0.0
 11
-51.8447506306
 21
-17.1106973035
 31
0.0
  0
LINE
  5
AE
330
74
100
AcDbEntity
  8
0
  6
Continuous
100
AcDbLine
 10
-51.8447506306
 20
-17.1106973035
 30
0.0
 11
-51.8063383656
 21
-17.1023866618
 31
0.0
  0
LINE
  5
AF
330
74
100
AcDbEntity
  8
0
  6
Continuous
100
AcDbLine
 10
-20.0432683672
 20
-10.0594590717
 30
0.0
 11
-17.6687053803
 21
-9.5457132103
 31
0.0
  0
LINE
  5
B0
330
74
100
AcDbEntity
  8
0
  6
Continuous
100
AcDbLine
 10
-17.6687053803
 20
-9.5457132103
 30
0.0
 11
-22.3998379359
 21
0.8767293109
 31
0.0
  0
LINE
  5
B1
330
74
100
AcDbEntity
  8
0
  6
Continuous
100
AcDbLine
 10
-22.3998379359
 20
0.8767293109
 30
0.0
 11
-26.3058670432
 21
0.0316448472
 31
0.0
  0
LINE
  5
B2
330
74
100
AcDbEntity
  8
0
  6
Continuous
100
AcDbLine
 10
-26.3058670432
 20
0.0316448472
 30
0.0
 11
-26.3056723775
 21
-11.4143543348
 31
0.0
  0
LINE
  5
B3
330
74
100
AcDbEntity
  8
0
  6
Continuous
100
AcDbLine
 10
-26.3056723775
 20
-11.4143543348
 30
0.0
 11
-23.9311146519
 21
-10.9006096116
 31
0.0
  0
LINE
  5
B4
330
74
100
AcDbEntity
  8
0
  6
Continuous
100
AcDbLine
 10
-23.9311146519
 20
-10.9006096116
 30
0.0
 11
-23.9309931424
 21
-8.7825946253
 31
0.0
  0
LINE
  5
B5
330
74
100
AcDbEntity
  8
0
  6
Continuous
100
AcDbLine
 10
-23.9309931424
 20
-8.7825946253
 30
0.0
 11
-22.2738308951
 21
-8.4240611811
 31
0.0
  0
LINE
  5
B6
330
74
100
AcDbEntity
  8
0
  6
Continuous
100
AcDbLine
 10
-22.2738308951
 20
-8.4240611811
 30
0.0
 11
-22.7133102854
 21
-6.3927621053
 31
0.0
  0
LINE
  5
B7
330
74
100
AcDbEntity
  8
0
  6
Continuous
100
AcDbLine
 10
-22.7133102854
 20
-6.3927621053
 30
0.0
 11
-23.9308333483
 21
-6.6561779162
 31
0.0
  0
LINE
  5
B8
330
74
100
AcDbEntity
  8
0
  6
Continuous
100
AcDbLine
 10
-23.9308333483
 20
-6.6561779162
 30
0.0
 11
-23.9305586196
 21
-1.4976668035
 31
0.0
  0
LINE
  5
B9
330
74
100
AcDbEntity
  8
0
  6
Continuous
100
AcDbLine
 10
-23.9305586196
 20
-1.4976668035
 30
0.0
 11
-20.0432683672
 21
-10.0594590717
 31
0.0
  0
SPLINE
  5
BA
330
74
100
AcDbEntity
  8
0
100
AcDbSpline
210
0.0
220
0.0
230
1.0
 70
     8
 71
     3
 72
     8
 73
     4
 74
     0
 42
0.000000001
 43
0.00000001
 40
0.0
 40
0.0
 40
0.0
 40
0.0
 40
1.0
 40
1.0
 40
1.0
 40
1.0
 10
-13.86994560355125
 20
-6.597454742918429
 30
0.0
 10
-13.88373254946556
 20
-6.53373068413859
 30
0.0
 10
-15.11365515797402
 20
-0.8489574873494021
 30
0.0
 10
-15.79563263740206
 20
2.305574601061459
 30
0.0
  0
SPLINE
  5
BB
330
74
100
AcDbEntity
  8
0
100
AcDbSpline
210
0.0
220
0.0
230
1.0
 70
     8
 71
     3
 72
     8
 73
     4
 74
     0
 42
0.000000001
 43
0.00000001
 40
2.0
 40
2.0
 40
2.0
 40
2.0
 40
3.0
 40
3.0
 40
3.0
 40
3.0
 10
-18.06492886668426
 20
1.814603608696524
 30
0.0
 10
-17.24003965005502
 20
-1.995739949107536
 30
0.0
 10
-15.71186186991051
 20
-9.059523950669432
 30
0.0
 10
-15.69887855542093
 20
-9.119533578677906
 30
0.0
  0
SPLINE
  5
BC
330
74
100
AcDbEntity
  8
0
100
AcDbSpline
210
0.0
220
0.0
230
1.0
 70
     8
 71
     3
 72
     8
 73
     4
 74
     0
 42
0.000000001
 43
0.00000001
 40
0.0
 40
0.0
 40
0.0
 40
0.0
 40
1.0
 40
1.0
 40
1.0
 40
1.0
 10
-6.809537646582547
 20
-5.069709977697404
 30
0.0
 10
-7.284290309572815
 20
-2.875375801708635
 30
0.0
 10
-7.897830097865885
 20
-0.0390758678013329
 30
0.0
 10
-8.296070930952649
 20
1.80204897196991
 30
0.0
  0
SPLINE
  5
BD
330
74
100
AcDbEntity
  8
0
100
AcDbSpline
210
0.0
220
0.0
230
1.0
 70
     8
 71
     3
 72
     8
 73
     4
 74
     0
 42
0.000000001
 43
0.00000001
 40
2.0
 40
2.0
 40
2.0
 40
2.0
 40
3.0
 40
3.0
 40
3.0
 40
3.0
 10
-6.919811195494074
 20
2.099808074263809
 30
0.0
 10
-6.228016878711183
 20
2.249480443098069
 30
0.0
 10
-5.547633595833446
 20
1.815851349115847
 30
0.0
 10
-5.399398884916104
 20
1.130701970100344
 30
0.0
  0
SPLINE
  5
BE
330
74
100
AcDbEntity
  8
0
100
AcDbSpline
210
0.0
220
0.0
230
1.0
 70
     8
 71
     3
 72
     8
 73
     4
 74
     0
 42
0.000000001
 43
0.00000001
 40
3.0
 40
3.0
 40
3.0
 40
3.0
 40
4.0
 40
4.0
 40
4.0
 40
4.0
 10
-5.399398884916104
 20
1.130701970100344
 30
0.0
 10
-5.107009087764085
 20
-0.2207405274728672
 30
0.0
 10
-4.711497421058354
 20
-2.048334586467611
 30
0.0
 10
-4.449160707297047
 20
-3.260870000165379
 30
0.0
  0
SPLINE
  5
BF
330
74
100
AcDbEntity
  8
0
100
AcDbSpline
210
0.0
220
0.0
230
1.0
 70
     8
 71
     3
 72
     8
 73
     4
 74
     0
 42
0.000000001
 43
0.00000001
 40
4.0
 40
4.0
 40
4.0
 40
4.0
 40
5.0
 40
5.0
 40
5.0
 40
5.0
 10
-4.449160707297047
 20
-3.260870000165379
 30
0.0
 10
-4.300905507193207
 20
-3.946114081381999
 30
0.0
 10
-4.741570606399121
 20
-4.622385452066122
 30
0.0
 10
-5.433383135791953
 20
-4.771973641166296
 30
0.0
  0
SPLINE
  5
C0
330
74
100
AcDbEntity
  8
0
100
AcDbSpline
210
0.0
220
0.0
230
1.0
 70
     8
 71
     3
 72
     8
 73
     4
 74
     0
 42
0.000000001
 43
0.00000001
 40
3.0
 40
3.0
 40
3.0
 40
3.0
 40
4.0
 40
4.0
 40
4.0
 40
4.0
 10
-4.494024550545999
 20
-6.695320195210662
 30
0.0
 10
-2.825524345390513
 20
-6.334333740063992
 30
0.0
 10
-1.762658323115034
 20
-4.702068307882374
 30
0.0
 10
-2.120071189640999
 20
-3.049576315093403
 30
0.0
  0
SPLINE
  5
C1
330
74
100
AcDbEntity
  8
0
100
AcDbSpline
210
0.0
220
0.0
230
1.0
 70
     8
 71
     3
 72
     8
 73
     4
 74
     0
 42
0.000000001
 43
0.00000001
 40
4.0
 40
4.0
 40
4.0
 40
4.0
 40
5.0
 40
5.0
 40
5.0
 40
5.0
 10
-2.120071189640999
 20
-3.049576315093403
 30
0.0
 10
-2.485983017556096
 20
-1.358310753073632
 30
0.0
 10
-2.867352798370483
 20
0.4044023583376265
 30
0.0
 10
-3.190995488197396
 20
1.900704823656681
 30
0.0
  0
SPLINE
  5
C2
330
74
100
AcDbEntity
  8
0
100
AcDbSpline
210
0.0
220
0.0
230
1.0
 70
     8
 71
     3
 72
     8
 73
     4
 74
     0
 42
0.000000001
 43
0.00000001
 40
5.0
 40
5.0
 40
5.0
 40
5.0
 40
6.0
 40
6.0
 40
6.0
 40
6.0
 10
-3.190995488197396
 20
1.900704823656681
 30
0.0
 10
-3.54857504695031
 20
3.553458157285876
 30
0.0
 10
-5.190901218780231
 20
4.599949148191988
 30
0.0
 10
-6.859585567104196
 20
4.238922852960538
 30
0.0
  0
SPLINE
  5
C3
330
74
100
AcDbEntity
  8
0
100
AcDbSpline
210
0.0
220
0.0
230
1.0
 70
     8
 71
     3
 72
     8
 73
     4
 74
     0
 42
0.000000001
 43
0.00000001
 40
0.0
 40
0.0
 40
0.0
 40
0.0
 40
1.0
 40
1.0
 40
1.0
 40
1.0
 10
-30.23703582864644
 20
-6.251438951366732
 30
0.0
 10
-30.9104300186728
 20
-6.015603382360459
 30
0.0
 10
-31.40848551125485
 20
-5.893156856121871
 30
0.0
 10
-32.67210357750635
 20
-5.496689523479785
 30
0.0
  0
SPLINE
  5
C4
330
74
100
AcDbEntity
  8
0
100
AcDbSpline
210
0.0
220
0.0
230
1.0
 70
     8
 71
     3
 72
     8
 73
     4
 74
     0
 42
0.000000001
 43
0.00000001
 40
1.0
 40
1.0
 40
1.0
 40
1.0
 40
2.0
 40
2.0
 40
2.0
 40
2.0
 10
-32.67210357750635
 20
-5.496689523479785
 30
0.0
 10
-33.03332194555517
 20
-5.383421617718132
 30
0.0
 10
-33.81210282496122
 20
-5.206692347750555
 30
0.0
 10
-33.94849250952588
 20
-4.576291363356936
 30
0.0
  0
SPLINE
  5
C5
330
74
100
AcDbEntity
  8
0
100
AcDbSpline
210
0.0
220
0.0
230
1.0
 70
     8
 71
     3
 72
     8
 73
     4
 74
     0
 42
0.000000001
 43
0.00000001
 40
2.0
 40
2.0
 40
2.0
 40
2.0
 40
3.0
 40
3.0
 40
3.0
 40
3.0
 10
-33.94849250952588
 20
-4.576291363356936
 30
0.0
 10
-34.11622381965225
 20
-3.801027578894063
 30
0.0
 10
-33.67528356585564
 20
-3.448097454184924
 30
0.0
 10
-32.99335932290604
 20
-3.30056051389548
 30
0.0
  0
SPLINE
  5
C6
330
74
100
AcDbEntity
  8
0
100
AcDbSpline
210
0.0
220
0.0
230
1.0
 70
     8
 71
     3
 72
     8
 73
     4
 74
     0
 42
0.000000001
 43
0.00000001
 40
4.0
 40
4.0
 40
4.0
 40
4.0
 40
5.0
 40
5.0
 40
5.0
 40
5.0
 10
-32.85916630414497
 20
-3.271527336675416
 30
0.0
 10
-32.2786944245911
 20
-3.14594000653005
 30
0.0
 10
-31.77109773641243
 20
-3.328116480283148
 30
0.0
 10
-31.56977211870437
 20
-3.967820152272103
 30
0.0
  0
SPLINE
  5
C7
330
74
100
AcDbEntity
  8
0
100
AcDbSpline
210
0.0
220
0.0
230
1.0
 70
     8
 71
     3
 72
     8
 73
     4
 74
     0
 42
0.000000001
 43
0.00000001
 40
6.0
 40
6.0
 40
6.0
 40
6.0
 40
7.0
 40
7.0
 40
7.0
 40
7.0
 10
-29.29695612428625
 20
-3.476087645143529
 30
0.0
 10
-29.68810071971012
 20
-1.866802583842748
 30
0.0
 10
-30.87776107222441
 20
-0.7599478056671497
 30
0.0
 10
-33.27949204955325
 20
-1.266772121690862
 30
0.0
  0
SPLINE
  5
C8
330
74
100
AcDbEntity
  8
0
100
AcDbSpline
210
0.0
220
0.0
230
1.0
 70
     8
 71
     3
 72
     8
 73
     4
 74
     0
 42
0.000000001
 43
0.00000001
 40
8.0
 40
8.0
 40
8.0
 40
8.0
 40
9.0
 40
9.0
 40
9.0
 40
9.0
 10
-33.34488391931659
 20
-1.280919904944554
 30
0.0
 10
-35.81152992452102
 20
-1.828202838410209
 30
0.0
 10
-36.33378487826545
 20
-3.54465012997844
 30
0.0
 10
-36.09207577942843
 20
-4.962606301827474
 30
0.0
  0
SPLINE
  5
C9
330
74
100
AcDbEntity
  8
0
100
AcDbSpline
210
0.0
220
0.0
230
1.0
 70
     8
 71
     3
 72
     8
 73
     4
 74
     0
 42
0.000000001
 43
0.00000001
 40
9.0
 40
9.0
 40
9.0
 40
9.0
 40
10.0
 40
10.0
 40
10.0
 40
10.0
 10
-36.09207577942843
 20
-4.962606301827474
 30
0.0
 10
-35.83736690020325
 20
-6.457652824126185
 30
0.0
 10
-34.96800490008025
 20
-7.196828812263726
 30
0.0
 10
-33.99931718292642
 20
-7.502708028683521
 30
0.0
  0
SPLINE
  5
CA
330
74
100
AcDbEntity
  8
0
100
AcDbSpline
210
0.0
220
0.0
230
1.0
 70
     8
 71
     3
 72
     8
 73
     4
 74
     0
 42
0.000000001
 43
0.00000001
 40
10.0
 40
10.0
 40
10.0
 40
10.0
 40
11.0
 40
11.0
 40
11.0
 40
11.0
 10
-33.99931718292642
 20
-7.502708028683521
 30
0.0
 10
-33.40907414696034
 20
-7.689011641945549
 30
0.0
 10
-32.48616403135102
 20
-7.975318844696811
 30
0.0
 10
-31.47547483016511
 20
-8.271505052332133
 30
0.0
  0
SPLINE
  5
CB
330
74
100
AcDbEntity
  8
0
100
AcDbSpline
210
0.0
220
0.0
230
1.0
 70
     8
 71
     3
 72
     8
 73
     4
 74
     0
 42
0.000000001
 43
0.00000001
 40
11.0
 40
11.0
 40
11.0
 40
11.0
 40
12.0
 40
12.0
 40
12.0
 40
12.0
 10
-31.47547483016511
 20
-8.271505052332133
 30
0.0
 10
-31.11213516930565
 20
-8.377980375833697
 30
0.0
 10
-30.40258052645035
 20
-8.55729511966404
 30
0.0
 10
-30.28870163819746
 20
-9.336631754491275
 30
0.0
  0
SPLINE
  5
CC
330
74
100
AcDbEntity
  8
0
100
AcDbSpline
210
0.0
220
0.0
230
1.0
 70
     8
 71
     3
 72
     8
 73
     4
 74
     0
 42
0.000000001
 43
0.00000001
 40
12.0
 40
12.0
 40
12.0
 40
12.0
 40
13.0
 40
13.0
 40
13.0
 40
13.0
 10
-30.28870163819746
 20
-9.336631754491275
 30
0.0
 10
-30.1883718252622
 20
-10.02498578462436
 30
0.0
 10
-30.64014408852681
 20
-10.43662327702193
 30
0.0
 10
-31.32890793487913
 20
-10.58563999188937
 30
0.0
  0
SPLINE
  5
CD
330
74
100
AcDbEntity
  8
0
100
AcDbSpline
210
0.0
220
0.0
230
1.0
 70
     8
 71
     3
 72
     8
 73
     4
 74
     0
 42
0.000000001
 43
0.00000001
 40
14.0
 40
14.0
 40
14.0
 40
14.0
 40
15.0
 40
15.0
 40
15.0
 40
15.0
 10
-31.46505813246006
 20
-10.61509661229636
 30
0.0
 10
-32.05208024758041
 20
-10.74210111117219
 30
0.0
 10
-32.71260096537058
 20
-10.55064660173623
 30
0.0
 10
-32.8822392924921
 20
-9.937760156430087
 30
0.0
  0
SPLINE
  5
CE
330
74
100
AcDbEntity
  8
0
100
AcDbSpline
210
0.0
220
0.0
230
1.0
 70
     8
 71
     3
 72
     8
 73
     4
 74
     0
 42
0.000000001
 43
0.00000001
 40
16.0
 40
16.0
 40
16.0
 40
16.0
 40
17.0
 40
17.0
 40
17.0
 40
17.0
 10
-35.1888692338865
 20
-10.43680844141459
 30
0.0
 10
-34.81471685749703
 20
-11.8843133271045
 30
0.0
 10
-33.72975075395794
 20
-12.95131992706823
 30
0.0
 10
-31.59496833044066
 20
-12.72957879515504
 30
0.0
  0
SPLINE
  5
CF
330
74
100
AcDbEntity
  8
0
100
AcDbSpline
210
0.0
220
0.0
230
1.0
 70
     8
 71
     3
 72
     8
 73
     4
 74
     0
 42
0.000000001
 43
0.00000001
 40
18.0
 40
18.0
 40
18.0
 40
18.0
 40
19.0
 40
19.0
 40
19.0
 40
19.0
 10
-30.20639204762402
 20
-12.42915496033268
 30
0.0
 10
-28.36320980349184
 20
-11.79454394754582
 30
0.0
 10
-27.78707037380765
 20
-10.41512978795686
 30
0.0
 10
-27.91988511866083
 20
-9.073464993912006
 30
0.0
  0
SPLINE
  5
D0
330
74
100
AcDbEntity
  8
0
100
AcDbSpline
210
0.0
220
0.0
230
1.0
 70
     8
 71
     3
 72
     8
 73
     4
 74
     0
 42
0.000000001
 43
0.00000001
 40
19.0
 40
19.0
 40
19.0
 40
19.0
 40
20.0
 40
20.0
 40
20.0
 40
20.0
 10
-27.91988511866083
 20
-9.073464993912006
 30
0.0
 10
-28.12563217330358
 20
-6.994152508733083
 30
0.0
 10
-29.51271678483619
 20
-6.50510505043454
 30
0.0
 10
-30.23703582864644
 20
-6.251438951366732
 30
0.0
  0
HATCH
  5
D1
330
74
100
AcDbEntity
  8
0
100
AcDbHatch
 10
0.0
 20
0.0
 30
0.0
210
0.0
220
0.0
230
1.0
  2
SOLID
 70
     1
 71
     0
 91
        1
 92
        0
 93
        7
 72
     1
 10
-53.06293521179145
 20
-11.48017794540906
 11
-53.0628942334185
 21
-11.48036734981106
 72
     1
 10
-53.0628942334185
 20
-11.48036734981106
 11
-50.18135879739363
 21
-10.85693604353014
 72
     1
 10
-50.18135879739363
 20
-10.85693604353014
 11
-47.91273279754322
 21
-7.399227366744369
 72
     1
 10
-47.91273279754322
 20
-7.399227366744369
 11
-51.40738209617635
 21
-5.188811056417426
 72
     1
 10
-51.40738209617635
 20
-5.188811056417426
 11
-54.28910693660305
 21
-5.812283341071309
 72
     1
 10
-54.28910693660305
 20
-5.812283341071309
 11
-50.79453412756107
 21
-8.022804320319173
 72
     1
 10
-50.79453412756107
 20
-8.022804320319173
 11
-53.06293521179145
 21
-11.48017794540906
 97
        0
 75
     0
 76
     1
 98
        1
 10
0.0
 20
0.0
  0
HATCH
  5
D2
330
74
100
AcDbEntity
  8
0
100
AcDbHatch
 10
0.0
 20
0.0
 30
0.0
210
0.0
220
0.0
230
1.0
  2
SOLID
 70
     1
 71
     0
 91
        1
 92
        0
 93
        6
 72
     1
 10
-41.53588964704281
 20
-8.986455445432597
 11
-44.41771445090438
 21
-9.609949357561213
 72
     1
 10
-44.41771445090438
 20
-9.609949357561213
 11
-46.68624347197728
 21
-13.06764806762683
 72
     1
 10
-46.68624347197728
 20
-13.06764806762683
 11
-43.23827248082917
 21
-15.24865255879992
 72
     1
 10
-43.23827248082917
 20
-15.24865255879992
 11
-40.35645293820115
 21
-14.62515978495947
 72
     1
 10
-40.35645293820115
 20
-14.62515978495947
 11
-43.80454139731328
 21
-12.44407055830516
 72
     1
 10
-43.80454139731328
 20
-12.44407055830516
 11
-41.53588964704281
 21
-8.986455445432597
 97
        0
 75
     0
 76
     1
 98
        1
 10
0.0
 20
0.0
  0
HATCH
  5
D3
330
74
100
AcDbEntity
  8
0
100
AcDbHatch
 10
0.0
 20
0.0
 30
0.0
210
0.0
220
0.0
230
1.0
  2
SOLID
 70
     1
 71
     0
 91
        1
 92
        0
 93
       20
 72
     4
 94
        3
 73
     1
 74
     0
 95
        8
 96
        4
 40
18.0
 40
18.0
 40
18.0
 40
18.0
 40
19.0
 40
19.0
 40
19.0
 40
19.0
 10
-30.20639204762402
 20
-12.42915496033267
 42
1.0
 10
-28.36320980349188
 20
-11.79454394754584
 42
1.0
 10
-27.78707037380775
 20
-10.41512978795687
 42
1.0
 10
-27.91988511866085
 20
-9.073464993912015
 42
1.0
 72
     4
 94
        3
 73
     1
 74
     0
 95
        8
 96
        4
 40
19.0
 40
19.0
 40
19.0
 40
19.0
 40
20.0
 40
20.0
 40
20.0
 40
20.0
 10
-27.91988511866085
 20
-9.073464993912015
 42
1.0
 10
-28.1256321733036
 20
-6.994152508733093
 42
1.0
 10
-29.51271678483624
 20
-6.505105050434554
 42
1.0
 10
-30.23703582864647
 20
-6.251438951366739
 42
1.0
 72
     4
 94
        3
 73
     1
 74
     0
 95
        8
 96
        4
 40
0.0
 40
0.0
 40
0.0
 40
0.0
 40
1.0
 40
1.0
 40
1.0
 40
1.0
 10
-30.23703582864647
 20
-6.251438951366739
 42
1.0
 10
-30.91043001867278
 20
-6.015603382360466
 42
1.0
 10
-31.40848551125484
 20
-5.893156856121866
 42
1.0
 10
-32.67210357750633
 20
-5.496689523479784
 42
1.0
 72
     4
 94
        3
 73
     1
 74
     0
 95
        8
 96
        4
 40
1.0
 40
1.0
 40
1.0
 40
1.0
 40
2.0
 40
2.0
 40
2.0
 40
2.0
 10
-32.67210357750633
 20
-5.496689523479784
 42
1.0
 10
-33.03332194555515
 20
-5.383421617718138
 42
1.0
 10
-33.81210282496121
 20
-5.206692347750558
 42
1.0
 10
-33.94849250952591
 20
-4.576291363356954
 42
1.0
 72
     4
 94
        3
 73
     1
 74
     0
 95
        8
 96
        4
 40
2.0
 40
2.0
 40
2.0
 40
2.0
 40
3.0
 40
3.0
 40
3.0
 40
3.0
 10
-33.94849250952591
 20
-4.576291363356954
 42
1.0
 10
-34.11622381965228
 20
-3.801027578894066
 42
1.0
 10
-33.67528356585566
 20
-3.448097454184939
 42
1.0
 10
-32.99335932290605
 20
-3.300560513895483
 42
1.0
 72
     1
 10
-32.99335932290605
 20
-3.300560513895483
 11
-32.85916630414502
 21
-3.271527336675422
 72
     4
 94
        3
 73
     1
 74
     0
 95
        8
 96
        4
 40
4.0
 40
4.0
 40
4.0
 40
4.0
 40
5.0
 40
5.0
 40
5.0
 40
5.0
 10
-32.85916630414502
 20
-3.271527336675422
 42
1.0
 10
-32.27869442459117
 20
-3.145940006530068
 42
1.0
 10
-31.77109773641243
 20
-3.328116480283154
 42
1.0
 10
-31.5697721187044
 20
-3.967820152272114
 42
1.0
 72
     1
 10
-31.5697721187044
 20
-3.967820152272114
 11
-29.29695612428624
 21
-3.476087645143523
 72
     4
 94
        3
 73
     1
 74
     0
 95
        8
 96
        4
 40
6.0
 40
6.0
 40
6.0
 40
6.0
 40
7.0
 40
7.0
 40
7.0
 40
7.0
 10
-29.2969561242863
 20
-3.476087645143538
 42
1.0
 10
-29.6881007197101
 20
-1.866802583842747
 42
1.0
 10
-30.87776107222446
 20
-0.7599478056671519
 42
1.0
 10
-33.27949204955327
 20
-1.266772121690873
 42
1.0
 72
     1
 10
-33.27949204955321
 20
-1.266772121690857
 11
-33.3448839193166
 21
-1.280919904944549
 72
     4
 94
        3
 73
     1
 74
     0
 95
        8
 96
        4
 40
8.0
 40
8.0
 40
8.0
 40
8.0
 40
9.0
 40
9.0
 40
9.0
 40
9.0
 10
-33.34488391931666
 20
-1.280919904944565
 42
1.0
 10
-35.8115299245211
 20
-1.828202838410234
 42
1.0
 10
-36.3337848782655
 20
-3.544650129978449
 42
1.0
 10
-36.09207577942846
 20
-4.962606301827486
 42
1.0
 72
     4
 94
        3
 73
     1
 74
     0
 95
        8
 96
        4
 40
9.0
 40
9.0
 40
9.0
 40
9.0
 40
10.0
 40
10.0
 40
10.0
 40
10.0
 10
-36.09207577942846
 20
-4.962606301827486
 42
1.0
 10
-35.83736690020323
 20
-6.457652824126184
 42
1.0
 10
-34.96800490008029
 20
-7.196828812263736
 42
1.0
 10
-33.99931718292643
 20
-7.502708028683525
 42
1.0
 72
     4
 94
        3
 73
     1
 74
     0
 95
        8
 96
        4
 40
10.0
 40
10.0
 40
10.0
 40
10.0
 40
11.0
 40
11.0
 40
11.0
 40
11.0
 10
-33.99931718292643
 20
-7.502708028683525
 42
1.0
 10
-33.40907414696031
 20
-7.689011641945555
 42
1.0
 10
-32.48616403135106
 20
-7.975318844696822
 42
1.0
 10
-31.47547483016516
 20
-8.27150505233215
 42
1.0
 72
     4
 94
        3
 73
     1
 74
     0
 95
        8
 96
        4
 40
11.0
 40
11.0
 40
11.0
 40
11.0
 40
12.0
 40
12.0
 40
12.0
 40
12.0
 10
-31.47547483016516
 20
-8.27150505233215
 42
1.0
 10
-31.11213516930568
 20
-8.377980375833708
 42
1.0
 10
-30.40258052645039
 20
-8.557295119664056
 42
1.0
 10
-30.28870163819752
 20
-9.336631754491272
 42
1.0
 72
     4
 94
        3
 73
     1
 74
     0
 95
        8
 96
        4
 40
12.0
 40
12.0
 40
12.0
 40
12.0
 40
13.0
 40
13.0
 40
13.0
 40
13.0
 10
-30.28870163819752
 20
-9.336631754491272
 42
1.0
 10
-30.18837182526216
 20
-10.02498578462435
 42
1.0
 10
-30.64014408852681
 20
-10.43662327702195
 42
1.0
 10
-31.32890793487914
 20
-10.58563999188937
 42
1.0
 72
     1
 10
-31.32890793487914
 20
-10.58563999188937
 11
-31.46505813246008
 21
-10.61509661229637
 72
     4
 94
        3
 73
     1
 74
     0
 95
        8
 96
        4
 40
14.0
 40
14.0
 40
14.0
 40
14.0
 40
15.0
 40
15.0
 40
15.0
 40
15.0
 10
-31.46505813246008
 20
-10.61509661229637
 42
1.0
 10
-32.05208024758041
 20
-10.7421011111722
 42
1.0
 10
-32.71260096537064
 20
-10.55064660173623
 42
1.0
 10
-32.88223929249212
 20
-9.937760156430087
 42
1.0
 72
     1
 10
-32.88223929249212
 20
-9.937760156430087
 11
-35.18886923388655
 21
-10.43680844141459
 72
     4
 94
        3
 73
     1
 74
     0
 95
        8
 96
        4
 40
16.0
 40
16.0
 40
16.0
 40
16.0
 40
17.0
 40
17.0
 40
17.0
 40
17.0
 10
-35.18886923388649
 20
-10.43680844141459
 42
1.0
 10
-34.81471685749708
 20
-11.88431332710451
 42
1.0
 10
-33.72975075395801
 20
-12.95131992706824
 42
1.0
 10
-31.59496833044075
 20
-12.72957879515506
 42
1.0
 72
     1
 10
-31.59496833044068
 20
-12.72957879515504
 11
-30.20639204762409
 21
-12.42915496033269
 97
        0
 75
     0
 76
     1
 98
        1
 10
0.0
 20
0.0
  0
HATCH
  5
D4
330
74
100
AcDbEntity
  8
0
100
AcDbHatch
 10
0.0
 20
0.0
 30
0.0
210
0.0
220
0.0
230
1.0
  2
SOLID
 70
     1
 71
     0
 91
        1
 92
        0
 93
       11
 72
     1
 10
-23.93083334830058
 20
-6.656177916224847
 11
-23.9305586195879
 21
-1.497666803489873
 72
     1
 10
-23.9305586195879
 20
-1.497666803489873
 11
-20.04326836721582
 21
-10.05945907169815
 72
     1
 10
-20.04326836721582
 20
-10.05945907169815
 11
-17.66870538033285
 21
-9.545713210289948
 72
     1
 10
-17.66870538033285
 20
-9.545713210289948
 11
-22.39983793591613
 21
0.8767293108990284
 72
     1
 10
-22.39983793591613
 20
0.8767293108990277
 11
-26.30586704316552
 21
0.0316448471579831
 72
     1
 10
-26.30586704316552
 20
0.0316448471579831
 11
-26.30567237753049
 21
-11.41435433475813
 72
     1
 10
-26.30567237753049
 20
-11.41435433475813
 11
-23.93111465188077
 21
-10.90060961163804
 72
     1
 10
-23.93111465188077
 20
-10.90060961163804
 11
-23.93099314235586
 21
-8.782594625323274
 72
     1
 10
-23.93099314235586
 20
-8.782594625323274
 11
-22.27383089514867
 21
-8.42406118111162
 72
     1
 10
-22.27383089514867
 20
-8.42406118111162
 11
-22.7133102853523
 21
-6.392762105309743
 72
     1
 10
-22.7133102853523
 20
-6.392762105309743
 11
-23.93083334830058
 21
-6.656177916224847
 97
        0
 75
     0
 76
     1
 98
        1
 10
0.0
 20
0.0
  0
HATCH
  5
D5
330
74
100
AcDbEntity
  8
0
100
AcDbHatch
 10
0.0
 20
0.0
 30
0.0
210
0.0
220
0.0
230
1.0
  2
SOLID
 70
     1
 71
     0
 91
        1
 92
        0
 93
        6
 72
     1
 10
-15.79563263740209
 20
2.305574601061446
 11
-18.06492886668423
 21
1.814603608696526
 72
     4
 94
        3
 73
     1
 74
     0
 95
        8
 96
        4
 40
2.0
 40
2.0
 40
2.0
 40
2.0
 40
3.0
 40
3.0
 40
3.0
 40
3.0
 10
-18.06492886668423
 20
1.814603608696526
 42
1.0
 10
-17.240039650055
 20
-1.995739949107533
 42
1.0
 10
-15.71186186991055
 20
-9.059523950669437
 42
1.0
 10
-15.69887855542098
 20
-9.119533578677919
 42
1.0
 72
     1
 10
-15.69887855542092
 20
-9.119533578677903
 11
-10.22610149671526
 21
-7.93547715235816
 72
     1
 10
-10.22610149671526
 20
-7.93547715235816
 11
-10.66558088691882
 21
-5.904178076556605
 72
     1
 10
-10.66558088691882
 20
-5.904178076556605
 11
-13.86994560355126
 21
-6.597454742918437
 72
     4
 94
        3
 73
     1
 74
     0
 95
        8
 96
        4
 40
0.0
 40
0.0
 40
0.0
 40
0.0
 40
1.0
 40
1.0
 40
1.0
 40
1.0
 10
-13.86994560355126
 20
-6.597454742918437
 42
1.0
 10
-13.88373254946556
 20
-6.533730684138598
 42
1.0
 10
-15.1136551579741
 20
-0.8489574873494129
 42
1.0
 10
-15.79563263740209
 20
2.305574601061446
 42
1.0
 97
        0
 75
     0
 76
     1
 98
        1
 10
0.0
 20
0.0
  0
HATCH
  5
D6
330
74
100
AcDbEntity
  8
0
100
AcDbHatch
 10
0.0
 20
0.0
 30
0.0
210
0.0
220
0.0
230
1.0
  2
SOLID
 70
     1
 71
     0
 91
        1
 92
        0
 93
       11
 72
     1
 10
2.375028433631206
 20
-0.9648032523823513
 11
2.375208460142868
 21
4.193687371166118
 72
     1
 10
2.375208460142868
 20
4.193687371166118
 11
6.262509234981617
 21
-4.368102620465918
 72
     1
 10
6.262509234981617
 20
-4.368102620465917
 11
8.637061699398163
 21
-3.854359035633896
 72
     1
 10
8.637061699398163
 20
-3.854359035633896
 11
3.905939666281055
 21
6.568085762131229
 72
     1
 10
3.905939666281055
 20
6.56808576213123
 11
-0.0000000000001235
 21
5.723020649288631
 72
     1
 10
-0.0000000000001234
 20
5.723020649288631
 11
-0.000000000000185
 21
-5.723020649288537
 72
     1
 10
-0.000000000000185
 20
-5.723020649288538
 11
2.37465768908423
 21
-5.20925429869377
 72
     1
 10
2.37465768908423
 20
-5.20925429869377
 11
2.374784459841949
 21
-3.091238174090979
 72
     1
 10
2.374784459841949
 20
-3.091238174090979
 11
4.031830959914354
 21
-2.732729772218408
 72
     1
 10
4.031830959914354
 20
-2.732729772218408
 11
3.592351569710606
 21
-0.701430696416514
 72
     1
 10
3.592351569710606
 20
-0.7014306964165138
 11
2.375028433631206
 21
-0.9648032523823513
 97
        0
 75
     0
 76
     1
 98
        1
 10
0.0
 20
0.0
  0
HATCH
  5
D7
330
74
100
AcDbEntity
  8
0
100
AcDbHatch
 10
0.0
 20
0.0
 30
0.0
210
0.0
220
0.0
230
1.0
  2
SOLID
 70
     1
 71
     0
 91
        1
 92
        0
 93
        8
 72
     1
 10
-42.14906497721024
 20
-6.152323722221632
 11
-42.76219705242848
 21
-3.318391925879333
 72
     1
 10
-42.76219705242848
 20
-3.318391925879333
 11
-42.76249168149826
 21
-3.318455670015027
 72
     1
 10
-42.76249168149826
 20
-3.318455670015027
 11
-45.03079507887072
 21
-6.775797145163721
 72
     1
 10
-45.03079507887072
 20
-6.775797145163721
 11
-48.52545732888054
 21
-4.565295516814268
 72
     1
 10
-48.52545732888054
 20
-4.565295516814268
 11
-48.52574669671678
 21
-4.565358122661792
 72
     1
 10
-48.52574669671678
 20
-4.565358122661792
 11
-47.91261462149855
 21
-7.39928991900409
 72
     1
 10
-47.91261462149855
 20
-7.39928991900409
 11
-44.41773721666716
 21
-9.60984413289331
 72
     1
 10
-44.41773721666716
 20
-9.60984413289331
 11
-42.14906497721024
 21
-6.152323722221632
 97
        0
 75
     0
 76
     1
 98
        1
 10
0.0
 20
0.0
  0
HATCH
  5
D8
330
74
100
AcDbEntity
  8
0
100
AcDbHatch
 10
0.0
 20
0.0
 30
0.0
210
0.0
220
0.0
230
1.0
  2
SOLID
 70
     1
 71
     0
 91
        1
 92
        0
 93
        8
 72
     1
 10
-46.11999732125613
 20
-15.87212484345383
 11
-46.08139565189786
 21
-15.8637732233933
 72
     1
 10
-46.08139565189786
 20
-15.8637732233933
 11
-46.68636620117444
 21
-13.06756447043367
 72
     1
 10
-46.68636620117444
 20
-13.06756447043367
 11
-50.18135879739361
 21
-10.85693604353009
 72
     1
 10
-50.18135879739361
 20
-10.85693604353009
 11
-52.44976215820033
 21
-14.31429914615315
 72
     1
 10
-52.44976215820033
 20
-14.31429914615315
 11
-51.84475063055083
 21
-17.11069730351469
 72
     1
 10
-51.84475063055083
 20
-17.11069730351469
 11
-51.80633836559459
 21
-17.1023866618271
 72
     1
 10
-51.80633836559459
 20
-17.1023866618271
 11
-49.56818574380249
 21
-13.69105724427409
 72
     1
 10
-49.56818574380249
 20
-13.69105724427409
 11
-46.11999732125613
 21
-15.87212484345383
 97
        0
 75
     0
 76
     1
 98
        1
 10
0.0
 20
0.0
  0
HATCH
  5
D9
330
74
100
AcDbEntity
  8
0
100
AcDbHatch
 10
0.0
 20
0.0
 30
0.0
210
0.0
220
0.0
230
1.0
  2
SOLID
 70
     1
 71
     0
 91
        2
 92
        0
 93
        7
 72
     1
 10
-6.859585567104196
 20
4.238922852960538
 11
-11.00449045380928
 21
3.342156692939393
 72
     1
 10
-11.00449045380928
 20
3.342156692939393
 11
-8.638829473816639
 21
-7.592064727757184
 72
     1
 10
-8.638829473816639
 20
-7.592064727757185
 11
-8.63844014254617
 21
-7.591980494435086
 72
     1
 10
-8.63844014254617
 20
-7.591980494435086
 11
-4.494024550545999
 21
-6.695320195210662
 72
     4
 94
        3
 73
     1
 74
     0
 95
        8
 96
        4
 40
3.0
 40
3.0
 40
3.0
 40
3.0
 40
4.0
 40
4.0
 40
4.0
 40
4.0
 10
-4.494024550545999
 20
-6.695320195210662
 42
1.0
 10
-2.825524345390513
 20
-6.334333740063992
 42
1.0
 10
-1.762658323115034
 20
-4.702068307882374
 42
1.0
 10
-2.120071189640999
 20
-3.049576315093403
 42
1.0
 72
     4
 94
        3
 73
     1
 74
     0
 95
        8
 96
        4
 40
4.0
 40
4.0
 40
4.0
 40
4.0
 40
5.0
 40
5.0
 40
5.0
 40
5.0
 10
-2.120071189640999
 20
-3.049576315093403
 42
1.0
 10
-2.485983017556096
 20
-1.358310753073632
 42
1.0
 10
-2.867352798370483
 20
0.4044023583376265
 42
1.0
 10
-3.190995488197396
 20
1.900704823656681
 42
1.0
 72
     4
 94
        3
 73
     1
 74
     0
 95
        8
 96
        4
 40
5.0
 40
5.0
 40
5.0
 40
5.0
 40
6.0
 40
6.0
 40
6.0
 40
6.0
 10
-3.190995488197396
 20
1.900704823656681
 42
1.0
 10
-3.54857504695031
 20
3.553458157285876
 42
1.0
 10
-5.190901218780231
 20
4.599949148191988
 42
1.0
 10
-6.859585567104196
 20
4.238922852960538
 42
1.0
 97
        0
 92
        0
 93
        6
 72
     4
 94
        3
 73
     1
 74
     0
 95
        8
 96
        4
 40
2.0
 40
2.0
 40
2.0
 40
2.0
 40
3.0
 40
3.0
 40
3.0
 40
3.0
 10
-6.919811195494074
 20
2.099808074263809
 42
1.0
 10
-6.228016878711183
 20
2.249480443098069
 42
1.0
 10
-5.547633595833446
 20
1.815851349115847
 42
1.0
 10
-5.399398884916104
 20
1.130701970100344
 42
1.0
 72
     4
 94
        3
 73
     1
 74
     0
 95
        8
 96
        4
 40
3.0
 40
3.0
 40
3.0
 40
3.0
 40
4.0
 40
4.0
 40
4.0
 40
4.0
 10
-5.399398884916104
 20
1.130701970100344
 42
1.0
 10
-5.107009087764085
 20
-0.2207405274728672
 42
1.0
 10
-4.711497421058354
 20
-2.048334586467611
 42
1.0
 10
-4.449160707297047
 20
-3.260870000165379
 42
1.0
 72
     4
 94
        3
 73
     1
 74
     0
 95
        8
 96
        4
 40
4.0
 40
4.0
 40
4.0
 40
4.0
 40
5.0
 40
5.0
 40
5.0
 40
5.0
 10
-4.449160707297047
 20
-3.260870000165379
 42
1.0
 10
-4.300905507193207
 20
-3.946114081381999
 42
1.0
 10
-4.741570606399121
 20
-4.622385452066122
 42
1.0
 10
-5.433383135791953
 20
-4.771973641166296
 42
1.0
 72
     1
 10
-5.433383135791953
 20
-4.771973641166296
 11
-6.809537646582547
 21
-5.069709977697404
 72
     4
 94
        3
 73
     1
 74
     0
 95
        8
 96
        4
 40
0.0
 40
0.0
 40
0.0
 40
0.0
 40
1.0
 40
1.0
 40
1.0
 40
1.0
 10
-6.809537646582547
 20
-5.069709977697404
 42
1.0
 10
-7.284290309572815
 20
-2.875375801708635
 42
1.0
 10
-7.897830097865885
 20
-0.0390758678013329
 42
1.0
 10
-8.296070930952649
 20
1.80204897196991
 42
1.0
 72
     1
 10
-8.296070930952649
 20
1.80204897196991
 11
-6.919811195494074
 21
2.099808074263809
 97
        0
 75
     0
 76
     1
 98
        1
 10
0.0
 20
0.0
  0
ENDBLK
  5
76
330
74
100
AcDbEntity
  8
0
100
AcDbBlockEnd
  0
BLOCK
  5
6E5
330
6E4
100
AcDbEntity
  8
0
100
AcDbBlockBegin
  2
*U3
 70
     1
 10
0.0
 20
0.0
 30
0.0
  3
*U3
  1

  0
TEXT
  5
6E6
330
6E4
100
AcDbEntity
  8
LENKIMO
  6
CENTERX2
100
AcDbText
 10
801.2712978691851
 20
1410.897389739665
 30
0.0
 40
100.0
  1
B
100
AcDbText
  0
ENDBLK
  5
6E7
330
6E4
100
AcDbEntity
  8
0
100
AcDbBlockEnd
  0
BLOCK
  5
6EA
330
6E9
100
AcDbEntity
  8
0
100
AcDbBlockBegin
  2
*U4
 70
     1
 10
0.0
 20
0.0
 30
0.0
  3
*U4
  1

  0
TEXT
  5
6EB
330
6E9
100
AcDbEntity
  8
LENKIMO
  6
CENTERX2
100
AcDbText
 10
799.0717146298566
 20
1100.336970457902
 30
0.0
 40
100.0
  1
A
100
AcDbText
  0
ENDBLK
  5
6EC
330
6E9
100
AcDbEntity
  8
0
100
AcDbBlockEnd
  0
BLOCK
  5
795
330
794
100
AcDbEntity
  8
0
100
AcDbBlockBegin
  2
*U6
 70
     1
 10
0.0
 20
0.0
 30
0.0
  3
*U6
  1

  0
TEXT
  5
796
330
794
100
AcDbEntity
  8
LENKIMO
  6
CENTERX2
100
AcDbText
 10
799.0717146298566
 20
1100.336970457902
 30
0.0
 40
100.0
  1
A
100
AcDbText
  0
ENDBLK
  5
797
330
794
100
AcDbEntity
  8
0
100
AcDbBlockEnd
  0
BLOCK
  5
7BF
330
7BE
100
AcDbEntity
  8
0
100
AcDbBlockBegin
  2
*U8
 70
     1
 10
0.0
 20
0.0
 30
0.0
  3
*U8
  1

  0
TEXT
  5
7C0
330
7BE
100
AcDbEntity
  8
LENKIMO
  6
CENTERX2
100
AcDbText
 10
801.2712978691851
 20
1410.897389739665
 30
0.0
 40
100.0
  1
B
100
AcDbText
  0
ENDBLK
  5
7C1
330
7BE
100
AcDbEntity
  8
0
100
AcDbBlockEnd
  0
ENDSEC
  0
SECTION
  2
ENTITIES
  0
ARC
  5
DA
330
1F
100
AcDbEntity
  8
0
100
AcDbCircle
 10
20.265404556
 20
398.6729267298
 30
0.0
 40
0.2000000000000343
100
AcDbArc
 50
121.6579514612
 51
180.0
  0
ARC
  5
DB
330
1F
100
AcDbEntity
  8
0
100
AcDbCircle
 10
35.865404556
 20
398.6729267298
 30
0.0
 40
0.2000000000000028
100
AcDbArc
 50
0.0
 51
58.34204853879999
  0
LINE
  5
DC
330
1F
100
AcDbEntity
  8
0
100
AcDbLine
 10
36.065404556
 20
398.5840818332
 30
0.0
 11
36.065404556
 21
398.6729267298
 31
0.0
  0
LINE
  5
DD
330
1F
100
AcDbEntity
  8
0
100
AcDbLine
 10
20.065404556
 20
398.6729267298
 30
0.0
 11
20.065404556
 21
398.5840818332
 31
0.0
  0
ARC
  5
DE
330
1F
100
AcDbEntity
  8
0
100
AcDbCircle
 10
28.066404556
 20
386.0245163984
 30
0.0
 40
15.0595654347826
100
AcDbArc
 50
58.34204853879999
 51
90.0
  0
ARC
  5
DF
330
1F
100
AcDbEntity
  8
0
100
AcDbCircle
 10
28.064404556
 20
386.0245163984
 30
0.0
 40
15.0595654347826
100
AcDbArc
 50
90.0
 51
121.6579514612
  0
LINE
  5
E0
330
1F
100
AcDbEntity
  8
0
100
AcDbLine
 10
386.065404556
 20
398.5840818332
 30
0.0
 11
386.065404556
 21
398.6729267298
 31
0.0
  0
LINE
  5
E1
330
1F
100
AcDbEntity
  8
0
100
AcDbLine
 10
370.065404556
 20
398.6729267298
 30
0.0
 11
370.065404556
 21
398.5840818332
 31
0.0
  0
ARC
  5
E2
330
1F
100
AcDbEntity
  8
0
100
AcDbCircle
 10
370.265404556
 20
398.6729267298
 30
0.0
 40
0.199999999999997
100
AcDbArc
 50
121.6579514612
 51
180.0
  0
ARC
  5
E3
330
1F
100
AcDbEntity
  8
0
100
AcDbCircle
 10
385.865404556
 20
398.6729267298
 30
0.0
 40
0.1999999999999886
100
AcDbArc
 50
0.0
 51
58.34204853879999
  0
ARC
  5
E4
330
1F
100
AcDbEntity
  8
0
100
AcDbCircle
 10
378.066404556
 20
386.0245163984
 30
0.0
 40
15.0595654347826
100
AcDbArc
 50
58.34204853879999
 51
90.0
  0
ARC
  5
E5
330
1F
100
AcDbEntity
  8
0
100
AcDbCircle
 10
378.064404556
 20
386.0245163984
 30
0.0
 40
15.0595654347826
100
AcDbArc
 50
90.0
 51
121.6579514612
  0
LINE
  5
E6
330
1F
100
AcDbEntity
  8
0
100
AcDbLine
 10
386.065404556
 20
397.5840818332
 30
0.0
 11
386.065404556
 21
398.5840818332
 31
0.0
  0
LINE
  5
E7
330
1F
100
AcDbEntity
  8
0
100
AcDbLine
 10
370.065404556
 20
398.5840818332
 30
0.0
 11
370.065404556
 21
397.5840818332
 31
0.0
  0
LINE
  5
E8
330
1F
100
AcDbEntity
  8
0
100
AcDbLine
 10
36.065404556
 20
397.5840818332
 30
0.0
 11
36.065404556
 21
398.5840818332
 31
0.0
  0
LINE
  5
E9
330
1F
100
AcDbEntity
  8
0
100
AcDbLine
 10
20.065404556
 20
398.5840818332
 30
0.0
 11
20.065404556
 21
397.5840818332
 31
0.0
  0
LINE
  5
EA
330
1F
100
AcDbEntity
  8
0
100
AcDbLine
 10
408.965404556
 20
324.5940818332
 30
0.0
 11
409.465404556
 21
325.0940818332
 31
0.0
  0
LINE
  5
EB
330
1F
100
AcDbEntity
  8
0
100
AcDbLine
 10
409.465404556
 20
332.3940818332
 30
0.0
 11
408.965404556
 21
332.8940818332
 31
0.0
  0
LINE
  5
EC
330
1F
100
AcDbEntity
  8
0
100
AcDbLine
 10
408.965404556
 20
332.8940818332
 30
0.0
 11
404.465404556
 21
332.8940818332
 31
0.0
  0
LINE
  5
ED
330
1F
100
AcDbEntity
  8
0
100
AcDbLine
 10
404.465404556
 20
324.5940818332
 30
0.0
 11
408.965404556
 21
324.5940818332
 31
0.0
  0
LINE
  5
EE
330
1F
100
AcDbEntity
  8
0
100
AcDbLine
 10
-2.834595444
 20
324.6140818332
 30
0.0
 11
1.665404556
 21
324.6140818332
 31
0.0
  0
LINE
  5
EF
330
1F
100
AcDbEntity
  8
0
100
AcDbLine
 10
1.665404556
 20
332.9140818332
 30
0.0
 11
-2.834595444
 21
332.9140818332
 31
0.0
  0
LINE
  5
F0
330
1F
100
AcDbEntity
  8
0
100
AcDbLine
 10
-2.834595444
 20
332.9140818332
 30
0.0
 11
-3.334595444
 21
332.4140818332
 31
0.0
  0
LINE
  5
F1
330
1F
100
AcDbEntity
  8
0
100
AcDbLine
 10
-3.334595444
 20
325.1140818332
 30
0.0
 11
-2.834595444
 21
324.6140818332
 31
0.0
  0
ARC
  5
108
330
1F
100
AcDbEntity
  8
0
100
AcDbCircle
 10
2.665404556
 20
324.2640818332
 30
0.0
 40
1.000000000000001
100
AcDbArc
 50
180.0
 51
270.0
  0
ARC
  5
109
330
1F
100
AcDbEntity
  8
0
100
AcDbCircle
 10
2.665404556
 20
333.2640818332
 30
0.0
 40
1.000000000000001
100
AcDbArc
 50
90.0
 51
180.0
  0
LINE
  5
10A
330
1F
100
AcDbEntity
  8
0
100
AcDbLine
 10
3.065404556
 20
334.2640818332
 30
0.0
 11
2.665404556
 21
334.2640818332
 31
0.0
  0
LINE
  5
10B
330
1F
100
AcDbEntity
  8
0
100
AcDbLine
 10
2.665404556
 20
323.2640818332
 30
0.0
 11
3.065404556
 21
323.2640818332
 31
0.0
  0
LINE
  5
110
330
1F
100
AcDbEntity
  8
0
100
AcDbLine
 10
3.065404556
 20
113.5640818332
 30
0.0
 11
2.665404556
 21
113.5640818332
 31
0.0
  0
LINE
  5
111
330
1F
100
AcDbEntity
  8
0
100
AcDbLine
 10
2.665404556
 20
102.5640818332
 30
0.0
 11
3.065404556
 21
102.5640818332
 31
0.0
  0
ARC
  5
112
330
1F
100
AcDbEntity
  8
0
100
AcDbCircle
 10
2.665404556
 20
103.5640818332
 30
0.0
 40
1.0
100
AcDbArc
 50
233.1301023542
 51
270.0
  0
ARC
  5
113
330
1F
100
AcDbEntity
  8
0
100
AcDbCircle
 10
2.665404556
 20
112.5640818332
 30
0.0
 40
1.0
100
AcDbArc
 50
90.0
 51
126.8698976458
  0
LINE
  5
114
330
1F
100
AcDbEntity
  8
0
100
AcDbLine
 10
403.065404556
 20
102.5640818332
 30
0.0
 11
403.465404556
 21
102.5640818332
 31
0.0
  0
LINE
  5
115
330
1F
100
AcDbEntity
  8
0
100
AcDbLine
 10
403.465404556
 20
113.5640818332
 30
0.0
 11
403.065404556
 21
113.5640818332
 31
0.0
  0
ARC
  5
116
330
1F
100
AcDbEntity
  8
0
100
AcDbCircle
 10
403.465404556
 20
112.5640818332
 30
0.0
 40
1.000000000000011
100
AcDbArc
 50
53.1301023541
 51
90.0
  0
ARC
  5
117
330
1F
100
AcDbEntity
  8
0
100
AcDbCircle
 10
403.465404556
 20
103.5640818332
 30
0.0
 40
1.000000000000023
100
AcDbArc
 50
270.0
 51
306.8698976459
  0
ARC
  5
118
330
1F
100
AcDbEntity
  8
0
100
AcDbCircle
 10
403.465404556
 20
333.2440818332
 30
0.0
 40
1.0
100
AcDbArc
 50
360.0
 51
90.0
  0
ARC
  5
119
330
1F
100
AcDbEntity
  8
0
100
AcDbCircle
 10
403.465404556
 20
324.2440818332
 30
0.0
 40
1.0
100
AcDbArc
 50
270.0
 51
0.0
  0
LINE
  5
11A
330
1F
100
AcDbEntity
  8
0
100
AcDbLine
 10
403.065404556
 20
323.2440818332
 30
0.0
 11
403.465404556
 21
323.2440818332
 31
0.0
  0
LINE
  5
11B
330
1F
100
AcDbEntity
  8
0
100
AcDbLine
 10
403.465404556
 20
334.2440818332
 30
0.0
 11
403.065404556
 21
334.2440818332
 31
0.0
  0
LINE
  5
120
330
1F
100
AcDbEntity
  8
0
100
AcDbLine
 10
-3.334595444
 20
330.0140818332
 30
0.0
 11
-4.6453045963
 21
330.0140818332
 31
0.0
  0
LINE
  5
121
330
1F
100
AcDbEntity
  8
0
100
AcDbLine
 10
-4.6453045963
 20
205.0140818332
 30
0.0
 11
3.065404556
 21
205.0140818332
 31
0.0
  0
LINE
  5
122
330
1F
100
AcDbEntity
  8
0
100
AcDbLine
 10
-4.6453045963
 20
330.0140818332
 30
0.0
 11
-7.2159710084
 21
328.2140818332
 31
0.0
  0
LINE
  5
123
330
1F
100
AcDbEntity
  8
0
100
AcDbLine
 10
-7.2159710084
 20
206.8140818332
 30
0.0
 11
-4.6453045963
 21
205.0140818332
 31
0.0
  0
LINE
  5
124
330
1F
100
AcDbEntity
  8
0
100
AcDbLine
 10
-20.034595444
 20
330.0140818332
 30
0.0
 11
-23.784595444
 21
330.0140818332
 31
0.0
  0
LINE
  5
125
330
1F
100
AcDbEntity
  8
0
100
AcDbLine
 10
-23.784595444
 20
205.0140818332
 30
0.0
 11
-20.034595444
 21
205.0140818332
 31
0.0
  0
ARC
  5
126
330
1F
100
AcDbEntity
  8
0
100
AcDbCircle
 10
-23.784595444
 20
328.7640818332
 30
0.0
 40
1.249999999999972
100
AcDbArc
 50
90.0
 51
180.0
  0
ARC
  5
127
330
1F
100
AcDbEntity
  8
0
100
AcDbCircle
 10
-23.784595444
 20
206.2640818332
 30
0.0
 40
1.250000000000028
100
AcDbArc
 50
180.0
 51
270.0
  0
LINE
  5
128
330
1F
100
AcDbEntity
  8
0
100
AcDbLine
 10
-25.034595444
 20
328.7640818332
 30
0.0
 11
-25.034595444
 21
206.2640818332
 31
0.0
  0
LINE
  5
129
330
1F
100
AcDbEntity
  8
0
100
AcDbLine
 10
-19.7348029822
 20
329.2140818332
 30
0.0
 11
-20.034595444
 21
329.2140818332
 31
0.0
  0
LINE
  5
12A
330
1F
100
AcDbEntity
  8
0
100
AcDbLine
 10
-20.034595444
 20
205.8140818332
 30
0.0
 11
-19.7348029822
 21
205.8140818332
 31
0.0
  0
LINE
  5
12B
330
1F
100
AcDbEntity
  8
0
100
AcDbLine
 10
-7.2159710084
 20
328.2140818332
 30
0.0
 11
-13.57504193
 21
328.2140818332
 31
0.0
  0
LINE
  5
12C
330
1F
100
AcDbEntity
  8
0
100
AcDbLine
 10
-13.57504193
 20
206.8140818332
 30
0.0
 11
-7.2159710084
 21
206.8140818332
 31
0.0
  0
LINE
  5
131
330
1F
100
AcDbEntity
  8
0
100
AcDbLine
 10
426.165404556
 20
205.0140818332
 30
0.0
 11
429.915404556
 21
205.0140818332
 31
0.0
  0
LINE
  5
132
330
1F
100
AcDbEntity
  8
0
100
AcDbLine
 10
429.915404556
 20
330.0140818332
 30
0.0
 11
426.165404556
 21
330.0140818332
 31
0.0
  0
ARC
  5
133
330
1F
100
AcDbEntity
  8
0
100
AcDbCircle
 10
429.915404556
 20
206.2640818332
 30
0.0
 40
1.25
100
AcDbArc
 50
270.0
 51
0.0
  0
ARC
  5
134
330
1F
100
AcDbEntity
  8
0
100
AcDbCircle
 10
429.915404556
 20
328.7640818332
 30
0.0
 40
1.25
100
AcDbArc
 50
0.0
 51
90.0
  0
LINE
  5
135
330
1F
100
AcDbEntity
  8
0
100
AcDbLine
 10
431.165404556
 20
206.2640818332
 30
0.0
 11
431.165404556
 21
328.7640818332
 31
0.0
  0
LINE
  5
136
330
1F
100
AcDbEntity
  8
0
100
AcDbLine
 10
403.065404556
 20
205.0140818332
 30
0.0
 11
410.7761137082
 21
205.0140818332
 31
0.0
  0
LINE
  5
137
330
1F
100
AcDbEntity
  8
0
100
AcDbLine
 10
410.7761137082
 20
330.0140818332
 30
0.0
 11
409.465404556
 21
330.0140818332
 31
0.0
  0
LINE
  5
138
330
1F
100
AcDbEntity
  8
0
100
AcDbLine
 10
410.7761137082
 20
205.0140818332
 30
0.0
 11
413.3467801203
 21
206.8140818332
 31
0.0
  0
LINE
  5
139
330
1F
100
AcDbEntity
  8
0
100
AcDbLine
 10
413.3467801203
 20
328.2140818332
 30
0.0
 11
410.7761137082
 21
330.0140818332
 31
0.0
  0
LINE
  5
13A
330
1F
100
AcDbEntity
  8
0
100
AcDbLine
 10
425.8656120942
 20
205.8140818332
 30
0.0
 11
426.165404556
 21
205.8140818332
 31
0.0
  0
LINE
  5
13B
330
1F
100
AcDbEntity
  8
0
100
AcDbLine
 10
426.165404556
 20
329.2140818332
 30
0.0
 11
425.8656120942
 21
329.2140818332
 31
0.0
  0
LINE
  5
13C
330
1F
100
AcDbEntity
  8
0
100
AcDbLine
 10
413.3467801203
 20
206.8140818332
 30
0.0
 11
419.705851042
 21
206.8140818332
 31
0.0
  0
LINE
  5
13D
330
1F
100
AcDbEntity
  8
0
100
AcDbLine
 10
419.705851042
 20
328.2140818332
 30
0.0
 11
413.3467801203
 21
328.2140818332
 31
0.0
  0
ARC
  5
144
330
1F
100
AcDbEntity
  8
0
100
AcDbCircle
 10
264.2742271396
 20
351.0132173226
 30
0.0
 40
4.999999999999959
100
AcDbArc
 50
223.3006884732
 51
260.3421313067
  0
ARC
  5
145
330
1F
100
AcDbEntity
  8
0
100
AcDbCircle
 10
264.7965819723
 20
351.0132173226
 30
0.0
 40
4.999999999999962
100
AcDbArc
 50
279.6578686933
 51
316.6993115268
  0
ARC
  5
152
330
1F
100
AcDbEntity
  8
0
100
AcDbCircle
 10
141.3342271396
 20
351.0132173226
 30
0.0
 40
5.000000000000101
100
AcDbArc
 50
223.3006884732
 51
260.3421313067
  0
ARC
  5
153
330
1F
100
AcDbEntity
  8
0
100
AcDbCircle
 10
141.8565819723
 20
351.0132173226
 30
0.0
 40
5.000000000000023
100
AcDbArc
 50
279.6578686933
 51
316.6993115268
  0
LINE
  5
156
330
1F
100
AcDbEntity
  8
0
100
AcDbLine
 10
4.4689579466
 20
97.5640818332
 30
0.0
 11
401.6618511654
 21
97.5640818332
 31
0.0
  0
LINE
  5
157
330
1F
100
AcDbEntity
  8
0
100
AcDbLine
 10
3.065404556
 20
342.3640818332
 30
0.0
 11
3.065404556
 21
98.9676352238
 31
0.0
  0
LINE
  5
158
330
1F
100
AcDbEntity
  8
0
100
AcDbLine
 10
403.065404556
 20
98.9676352238
 30
0.0
 11
403.065404556
 21
342.3640818332
 31
0.0
  0
LINE
  5
159
330
1F
100
AcDbEntity
  8
0
100
AcDbLine
 10
437.065404556
 20
325.8640818332
 30
0.0
 11
437.065404556
 21
334.8640818332
 31
0.0
  0
LINE
  5
15A
330
1F
100
AcDbEntity
  8
0
100
AcDbLine
 10
437.065404556
 20
334.8640818332
 30
0.0
 11
444.065404556
 21
334.8640818332
 31
0.0
  0
LINE
  5
15B
330
1F
100
AcDbEntity
  8
0
100
AcDbLine
 10
445.065404556
 20
333.8640818332
 30
0.0
 11
445.065404556
 21
325.8640818332
 31
0.0
  0
ARC
  5
15C
330
1F
100
AcDbEntity
  8
0
100
AcDbCircle
 10
444.065404556
 20
333.8640818332
 30
0.0
 40
1.0
100
AcDbArc
 50
0.0
 51
90.0
  0
LINE
  5
15D
330
1F
100
AcDbEntity
  8
0
100
AcDbLine
 10
438.065404556
 20
270.8640818332
 30
0.0
 11
437.065404556
 21
270.8640818332
 31
0.0
  0
LINE
  5
15E
330
1F
100
AcDbEntity
  8
0
100
AcDbLine
 10
437.065404556
 20
314.8640818332
 30
0.0
 11
437.065404556
 21
270.8640818332
 31
0.0
  0
LINE
  5
15F
330
1F
100
AcDbEntity
  8
0
100
AcDbLine
 10
438.065404556
 20
322.8640818332
 30
0.0
 11
437.065404556
 21
322.8640818332
 31
0.0
  0
LINE
  5
160
330
1F
100
AcDbEntity
  8
0
100
AcDbLine
 10
437.065404556
 20
325.8640818332
 30
0.0
 11
437.065404556
 21
322.8640818332
 31
0.0
  0
LINE
  5
161
330
1F
100
AcDbEntity
  8
0
100
AcDbLine
 10
437.065404556
 20
262.8640818332
 30
0.0
 11
437.065404556
 21
259.8640818332
 31
0.0
  0
LINE
  5
162
330
1F
100
AcDbEntity
  8
0
100
AcDbLine
 10
437.065404556
 20
262.8640818332
 30
0.0
 11
438.065404556
 21
262.8640818332
 31
0.0
  0
LINE
  5
163
330
1F
100
AcDbEntity
  8
0
100
AcDbLine
 10
438.065404556
 20
262.8640818332
 30
0.0
 11
438.065404556
 21
270.8640818332
 31
0.0
  0
LINE
  5
164
330
1F
100
AcDbEntity
  8
0
100
AcDbLine
 10
437.065404556
 20
314.8640818332
 30
0.0
 11
438.065404556
 21
314.8640818332
 31
0.0
  0
LINE
  5
165
330
1F
100
AcDbEntity
  8
0
100
AcDbLine
 10
438.065404556
 20
314.8640818332
 30
0.0
 11
438.065404556
 21
322.8640818332
 31
0.0
  0
LINE
  5
166
330
1F
100
AcDbEntity
  8
0
100
AcDbLine
 10
445.065404556
 20
325.8640818332
 30
0.0
 11
445.065404556
 21
259.8640818332
 31
0.0
  0
LINE
  5
167
330
1F
100
AcDbEntity
  8
0
100
AcDbLine
 10
444.065404556
 20
250.8640818332
 30
0.0
 11
437.065404556
 21
250.8640818332
 31
0.0
  0
LINE
  5
168
330
1F
100
AcDbEntity
  8
0
100
AcDbLine
 10
437.065404556
 20
250.8640818332
 30
0.0
 11
437.065404556
 21
259.8640818332
 31
0.0
  0
LINE
  5
169
330
1F
100
AcDbEntity
  8
0
100
AcDbLine
 10
445.065404556
 20
259.8640818332
 30
0.0
 11
445.065404556
 21
251.8640818332
 31
0.0
  0
ARC
  5
16A
330
1F
100
AcDbEntity
  8
0
100
AcDbCircle
 10
444.065404556
 20
251.8640818332
 30
0.0
 40
1.0
100
AcDbArc
 50
270.0
 51
0.0
  0
LINE
  5
16B
330
1F
100
AcDbEntity
  8
0
100
AcDbLine
 10
437.065404556
 20
334.8640818332
 30
0.0
 11
435.065404556
 21
334.8640818332
 31
0.0
  0
LINE
  5
16C
330
1F
100
AcDbEntity
  8
0
100
AcDbLine
 10
435.065404556
 20
334.8640818332
 30
0.0
 11
435.065404556
 21
325.8640818332
 31
0.0
  0
LINE
  5
16D
330
1F
100
AcDbEntity
  8
0
100
AcDbLine
 10
437.065404556
 20
325.8640818332
 30
0.0
 11
437.065404556
 21
259.8640818332
 31
0.0
  0
LINE
  5
16E
330
1F
100
AcDbEntity
  8
0
100
AcDbLine
 10
435.065404556
 20
325.8640818332
 30
0.0
 11
435.065404556
 21
259.8640818332
 31
0.0
  0
LINE
  5
16F
330
1F
100
AcDbEntity
  8
0
100
AcDbLine
 10
437.065404556
 20
250.8640818332
 30
0.0
 11
435.065404556
 21
250.8640818332
 31
0.0
  0
LINE
  5
170
330
1F
100
AcDbEntity
  8
0
100
AcDbLine
 10
435.065404556
 20
259.8640818332
 30
0.0
 11
435.065404556
 21
250.8640818332
 31
0.0
  0
LINE
  5
171
330
1F
100
AcDbEntity
  8
0
100
AcDbLine
 10
408.995404556
 20
332.8640818332
 30
0.0
 11
419.705851042
 21
332.8640818332
 31
0.0
  0
LINE
  5
172
330
1F
100
AcDbEntity
  8
0
100
AcDbLine
 10
419.705851042
 20
332.8640818332
 30
0.0
 11
435.065404556
 21
332.8640818332
 31
0.0
  0
LINE
  5
173
330
1F
100
AcDbEntity
  8
0
100
AcDbLine
 10
435.065404556
 20
252.8640818332
 30
0.0
 11
431.165404556
 21
252.8640818332
 31
0.0
  0
ARC
  5
174
330
1F
100
AcDbEntity
  8
0
100
AcDbCircle
 10
49.565404556
 20
344.8640818332
 30
0.0
 40
6.000000000000007
100
AcDbArc
 50
153.0422508607
 51
180.0
  0
LINE
  5
177
330
1F
100
AcDbEntity
  8
0
100
AcDbLine
 10
43.565404556
 20
344.8640818332
 30
0.0
 11
43.565404556
 21
343.5640818332
 31
0.0
  0
LINE
  5
178
330
1F
100
AcDbEntity
  8
0
100
AcDbLine
 10
43.6907471191
 20
346.0840818332
 30
0.0
 11
30.565404556
 21
346.0840818332
 31
0.0
  0
LINE
  5
179
330
1F
100
AcDbEntity
  8
0
100
AcDbLine
 10
25.565404556
 20
346.0840818332
 30
0.0
 11
20.365404556
 21
346.0840818332
 31
0.0
  0
LINE
  5
17A
330
1F
100
AcDbEntity
  8
0
100
AcDbLine
 10
18.1654045559
 20
346.0840818332
 30
0.0
 11
16.165404556
 21
346.0840818332
 31
0.0
  0
LINE
  5
17B
330
1F
100
AcDbEntity
  8
0
100
AcDbLine
 10
13.9654045559
 20
346.0840818332
 30
0.0
 11
3.065404556
 21
346.0840818332
 31
0.0
  0
LINE
  5
17C
330
1F
100
AcDbEntity
  8
0
100
AcDbLine
 10
4.265404556
 20
347.5840818332
 30
0.0
 11
3.065404556
 21
347.5840818332
 31
0.0
  0
LINE
  5
17D
330
1F
100
AcDbEntity
  8
0
100
AcDbLine
 10
0.565404556
 20
337.8840818332
 30
0.0
 11
2.065404556
 21
337.8840818332
 31
0.0
  0
LINE
  5
17E
330
1F
100
AcDbEntity
  8
0
100
AcDbLine
 10
0.565404556
 20
345.0840818332
 30
0.0
 11
0.565404556
 21
337.8840818332
 31
0.0
  0
LINE
  5
17F
330
1F
100
AcDbEntity
  8
0
100
AcDbLine
 10
2.065404556
 20
345.0840818332
 30
0.0
 11
2.065404556
 21
337.8840818332
 31
0.0
  0
ARC
  5
180
330
1F
100
AcDbEntity
  8
0
100
AcDbCircle
 10
3.065404556
 20
345.0840818332
 30
0.0
 40
2.499999999999974
100
AcDbArc
 50
90.0
 51
180.0
  0
ARC
  5
181
330
1F
100
AcDbEntity
  8
0
100
AcDbCircle
 10
3.065404556
 20
345.0840818332
 30
0.0
 40
1.0
100
AcDbArc
 50
90.0
 51
180.0
  0
LINE
  5
182
330
1F
100
AcDbEntity
  8
0
100
AcDbLine
 10
0.565404556
 20
332.9140818332
 30
0.0
 11
0.565404556
 21
337.8840818332
 31
0.0
  0
LINE
  5
183
330
1F
100
AcDbEntity
  8
0
100
AcDbLine
 10
2.065404556
 20
334.0640818332
 30
0.0
 11
2.065404556
 21
337.8840818332
 31
0.0
  0
LINE
  5
184
330
1F
100
AcDbEntity
  8
0
100
AcDbLine
 10
2.8456324493
 20
346.0394552036
 30
0.0
 11
2.7725113371
 21
345.0840818332
 31
0.0
  0
SPLINE
  5
185
330
1F
100
AcDbEntity
  8
0
100
AcDbSpline
210
0.0
220
0.0
230
1.0
 70
     8
 71
     3
 72
    11
 73
     7
 74
     0
 42
0.000000001
 43
0.00000001
 40
0.0
 40
0.0
 40
0.0
 40
0.0
 40
0.2500000000000102
 40
0.4999999999999949
 40
0.7500000000000068
 40
1.0
 40
1.0
 40
1.0
 40
1.0
 10
3.065404555963353
 20
346.0840818331955
 30
0.0
 10
3.040996787728928
 20
346.0690502604082
 30
0.0
 10
2.992181251259995
 20
346.0389871148336
 30
0.0
 10
2.918957946556666
 20
345.8077379017112
 30
0.0
 10
2.845734641853226
 20
345.4771929646143
 30
0.0
 10
2.796919105384349
 20
345.2151188770017
 30
0.0
 10
2.772511337149897
 20
345.0840818331955
 30
0.0
  0
LINE
  5
186
330
1F
100
AcDbEntity
  8
0
100
AcDbLine
 10
2.7725113371
 20
345.0840818332
 30
0.0
 11
2.7725113371
 21
337.8840818332
 31
0.0
  0
LINE
  5
187
330
1F
100
AcDbEntity
  8
0
100
AcDbLine
 10
2.7725113371
 20
337.8840818332
 30
0.0
 11
3.065404556
 21
337.8840818332
 31
0.0
  0
LINE
  5
188
330
1F
100
AcDbEntity
  8
0
100
AcDbLine
 10
405.565404556
 20
345.0840818332
 30
0.0
 11
405.565404556
 21
337.8840818332
 31
0.0
  0
LINE
  5
189
330
1F
100
AcDbEntity
  8
0
100
AcDbLine
 10
405.565404556
 20
337.8840818332
 30
0.0
 11
404.065404556
 21
337.8840818332
 31
0.0
  0
LINE
  5
18A
330
1F
100
AcDbEntity
  8
0
100
AcDbLine
 10
404.065404556
 20
345.0840818332
 30
0.0
 11
404.065404556
 21
337.8840818332
 31
0.0
  0
ARC
  5
18B
330
1F
100
AcDbEntity
  8
0
100
AcDbCircle
 10
403.065404556
 20
345.0840818332
 30
0.0
 40
2.500000000000171
100
AcDbArc
 50
0.0
 51
90.0
  0
ARC
  5
18C
330
1F
100
AcDbEntity
  8
0
100
AcDbCircle
 10
403.065404556
 20
345.0840818332
 30
0.0
 40
1.0
100
AcDbArc
 50
0.0
 51
90.0
  0
LINE
  5
18D
330
1F
100
AcDbEntity
  8
0
100
AcDbLine
 10
380.565404556
 20
346.0840818332
 30
0.0
 11
385.7654045559
 21
346.0840818332
 31
0.0
  0
LINE
  5
18E
330
1F
100
AcDbEntity
  8
0
100
AcDbLine
 10
387.965404556
 20
346.0840818332
 30
0.0
 11
389.9654045559
 21
346.0840818332
 31
0.0
  0
LINE
  5
18F
330
1F
100
AcDbEntity
  8
0
100
AcDbLine
 10
392.165404556
 20
346.0840818332
 30
0.0
 11
403.065404556
 21
346.0840818332
 31
0.0
  0
LINE
  5
190
330
1F
100
AcDbEntity
  8
0
100
AcDbLine
 10
401.865404556
 20
347.5840818332
 30
0.0
 11
403.065404556
 21
347.5840818332
 31
0.0
  0
LINE
  5
192
330
1F
100
AcDbEntity
  8
0
100
AcDbLine
 10
405.565404556
 20
337.8840818332
 30
0.0
 11
405.565404556
 21
332.8940818332
 31
0.0
  0
LINE
  5
193
330
1F
100
AcDbEntity
  8
0
100
AcDbLine
 10
404.065404556
 20
337.8840818332
 30
0.0
 11
404.065404556
 21
334.0440818332
 31
0.0
  0
SPLINE
  5
194
330
1F
100
AcDbEntity
  8
0
100
AcDbSpline
210
0.0
220
0.0
230
1.0
 70
     8
 71
     3
 72
    11
 73
     7
 74
     0
 42
0.000000001
 43
0.00000001
 40
0.0
 40
0.0
 40
0.0
 40
0.0
 40
0.2499999999999899
 40
0.4999999999999951
 40
0.7499999999999797
 40
1.0
 40
1.0
 40
1.0
 40
1.0
 10
403.3582977747768
 20
345.0840818331977
 30
0.0
 10
403.3338900065424
 20
345.2151188770039
 30
0.0
 10
403.2850744700735
 20
345.4771929646164
 30
0.0
 10
403.2118511653701
 20
345.8077379017134
 30
0.0
 10
403.1386278606668
 20
346.0389871148357
 30
0.0
 10
403.0898123241979
 20
346.0690502604103
 30
0.0
 10
403.0654045559634
 20
346.0840818331977
 30
0.0
  0
SPLINE
  5
195
330
1F
100
AcDbEntity
  8
0
100
AcDbSpline
210
0.0
220
0.0
230
1.0
 70
     8
 71
     3
 72
     9
 73
     5
 74
     0
 42
0.000000001
 43
0.00000001
 40
0.0
 40
0.0
 40
0.0
 40
0.0
 40
0.9970986461280388
 40
1.0
 40
1.0
 40
1.0
 40
1.0
 10
403.3582977747768
 20
345.0840818331977
 30
0.0
 10
403.3338900065426
 20
345.4271892978452
 30
0.0
 10
403.3094112166766
 20
345.7712951352965
 30
0.0
 10
403.28493242681
 20
346.0423639621058
 30
0.0
 10
403.2848614051782
 20
346.043150428696
 30
0.0
  0
LINE
  5
196
330
1F
100
AcDbEntity
  8
0
100
AcDbLine
 10
403.3582977748
 20
337.8840818332
 30
0.0
 11
403.065404556
 21
337.8840818332
 31
0.0
  0
LINE
  5
197
330
1F
100
AcDbEntity
  8
0
100
AcDbLine
 10
403.3582977748
 20
345.0840818332
 30
0.0
 11
403.3582977748
 21
337.8840818332
 31
0.0
  0
LINE
  5
19C
330
1F
100
AcDbEntity
  8
0
100
AcDbLine
 10
21.3680517213
 20
398.5840818332
 30
0.0
 11
36.065404556
 21
398.5840818332
 31
0.0
  0
LINE
  5
19D
330
1F
100
AcDbEntity
  8
0
100
AcDbLine
 10
20.065404556
 20
398.5840818332
 30
0.0
 11
21.3680517213
 21
398.5840818332
 31
0.0
  0
LINE
  5
19E
330
1F
100
AcDbEntity
  8
0
100
AcDbLine
 10
28.066404556
 20
401.0840818332
 30
0.0
 11
28.064404556
 21
401.0840818332
 31
0.0
  0
LINE
  5
19F
330
1F
100
AcDbEntity
  8
0
100
AcDbLine
 10
371.3680517213
 20
398.5840818332
 30
0.0
 11
386.065404556
 21
398.5840818332
 31
0.0
  0
LINE
  5
1A0
330
1F
100
AcDbEntity
  8
0
100
AcDbLine
 10
370.065404556
 20
398.5840818332
 30
0.0
 11
371.3680517213
 21
398.5840818332
 31
0.0
  0
LINE
  5
1A1
330
1F
100
AcDbEntity
  8
0
100
AcDbLine
 10
378.066404556
 20
401.0840818332
 30
0.0
 11
378.064404556
 21
401.0840818332
 31
0.0
  0
LINE
  5
1A2
330
1F
100
AcDbEntity
  8
0
100
AcDbLine
 10
386.065404556
 20
398.5840818332
 30
0.0
 11
370.065404556
 21
398.5840818332
 31
0.0
  0
LINE
  5
1A3
330
1F
100
AcDbEntity
  8
0
100
AcDbLine
 10
36.065404556
 20
398.5840818332
 30
0.0
 11
20.065404556
 21
398.5840818332
 31
0.0
  0
LINE
  5
1A4
330
1F
100
AcDbEntity
  8
0
100
AcDbLine
 10
396.865404556
 20
347.5840818332
 30
0.0
 11
9.265404556
 21
347.5840818332
 31
0.0
  0
LINE
  5
1A5
330
1F
100
AcDbEntity
  8
0
100
AcDbLine
 10
396.865404556
 20
348.2840818332
 30
0.0
 11
9.265404556
 21
348.2840818332
 31
0.0
  0
LINE
  5
1A6
330
1F
100
AcDbEntity
  8
0
100
AcDbLine
 10
401.865404556
 20
348.2840818332
 30
0.0
 11
401.865404556
 21
347.5840818332
 31
0.0
  0
LINE
  5
1A7
330
1F
100
AcDbEntity
  8
0
100
AcDbLine
 10
396.865404556
 20
348.2840818332
 30
0.0
 11
398.265404556
 21
348.2840818332
 31
0.0
  0
LINE
  5
1A8
330
1F
100
AcDbEntity
  8
0
100
AcDbLine
 10
401.865404556
 20
347.5840818332
 30
0.0
 11
396.865404556
 21
347.5840818332
 31
0.0
  0
LINE
  5
1A9
330
1F
100
AcDbEntity
  8
0
100
AcDbLine
 10
4.265404556
 20
347.5840818332
 30
0.0
 11
4.265404556
 21
348.2840818332
 31
0.0
  0
LINE
  5
1AA
330
1F
100
AcDbEntity
  8
0
100
AcDbLine
 10
7.8654045559
 20
348.2840818332
 30
0.0
 11
9.265404556
 21
348.2840818332
 31
0.0
  0
LINE
  5
1AB
330
1F
100
AcDbEntity
  8
0
100
AcDbLine
 10
9.265404556
 20
347.5840818332
 30
0.0
 11
4.265404556
 21
347.5840818332
 31
0.0
  0
LINE
  5
1B3
330
1F
100
AcDbEntity
  8
0
100
AcDbLine
 10
403.065404556
 20
349.0547925113
 30
0.0
 11
403.065404556
 21
367.5840818332
 31
0.0
  0
LINE
  5
1B4
330
1F
100
AcDbEntity
  8
0
100
AcDbLine
 10
3.8361152341
 20
348.2840818332
 30
0.0
 11
7.8654045559
 21
348.2840818332
 31
0.0
  0
LINE
  5
1B5
330
1F
100
AcDbEntity
  8
0
100
AcDbLine
 10
398.265404556
 20
348.2840818332
 30
0.0
 11
402.2946938778
 21
348.2840818332
 31
0.0
  0
LINE
  5
1BC
330
1F
100
AcDbEntity
  8
0
100
AcDbLine
 10
3.065404556
 20
367.5840818332
 30
0.0
 11
3.065404556
 21
349.0547925113
 31
0.0
  0
LINE
  5
1C0
330
1F
100
AcDbEntity
  8
0
100
AcDbLine
 10
4.265404556
 20
397.5840818332
 30
0.0
 11
401.865404556
 21
397.5840818332
 31
0.0
  0
LINE
  5
1C2
330
1F
100
AcDbEntity
  8
0
100
AcDbLine
 10
403.065404556
 20
394.5840818332
 30
0.0
 11
403.065404556
 21
367.5840818332
 31
0.0
  0
LINE
  5
1C5
330
1F
100
AcDbEntity
  8
0
100
AcDbLine
 10
3.065404556
 20
394.5840818332
 30
0.0
 11
3.065404556
 21
367.5840818332
 31
0.0
  0
SPLINE
  5
1C7
330
1F
100
AcDbEntity
  8
0
100
AcDbSpline
210
0.0
220
0.0
230
1.0
 70
     8
 71
     3
 72
    11
 73
     7
 74
     0
 42
0.000000001
 43
0.00000001
 40
0.0
 40
0.0
 40
0.0
 40
0.0
 40
0.0305946447102489
 40
0.4999999999988403
 40
0.9694053552874317
 40
1.0
 40
1.0
 40
1.0
 40
1.0
 10
402.2946938778435
 20
348.3694727884994
 30
0.0
 10
402.3047135594362
 20
348.3713488557651
 30
0.0
 10
402.4684625045139
 20
348.4020089154495
 30
0.0
 10
402.7195305440246
 20
348.6299558451307
 30
0.0
 10
402.9474774737068
 20
348.8810238846427
 30
0.0
 10
402.9781375333908
 20
349.0447728297209
 30
0.0
 10
402.9800136006566
 20
349.0547925113143
 30
0.0
  0
SPLINE
  5
1C9
330
1F
100
AcDbEntity
  8
0
100
AcDbSpline
210
0.0
220
0.0
230
1.0
 70
     8
 71
     3
 72
    11
 73
     7
 74
     0
 42
0.000000001
 43
0.00000001
 40
0.0
 40
0.0
 40
0.0
 40
0.0
 40
0.0305946447119736
 40
0.5000000000009949
 40
0.9694053552900023
 40
1.0
 40
1.0
 40
1.0
 40
1.0
 10
3.150795511268206
 20
349.0547925113123
 30
0.0
 10
3.152671578533994
 20
349.044772829719
 30
0.0
 10
3.183331638218045
 20
348.8810238846408
 30
0.0
 10
3.411278567900078
 20
348.6299558451297
 30
0.0
 10
3.662346607410605
 20
348.4020089154476
 30
0.0
 10
3.826095552488279
 20
348.3713488557638
 30
0.0
 10
3.836115234080839
 20
348.3694727884982
 30
0.0
  0
LINE
  5
1CB
330
1F
100
AcDbEntity
  8
0
100
AcDbLine
 10
403.065404556
 20
396.3840818332
 30
0.0
 11
403.065404556
 21
394.5840818332
 31
0.0
  0
ARC
  5
1CD
330
1F
100
AcDbEntity
  8
0
100
AcDbCircle
 10
401.865404556
 20
396.3840818332
 30
0.0
 40
1.199999999999989
100
AcDbArc
 50
0.0
 51
90.0
  0
ARC
  5
1D2
330
1F
100
AcDbEntity
  8
0
100
AcDbCircle
 10
4.265404556
 20
396.3840818332
 30
0.0
 40
1.200000000000102
100
AcDbArc
 50
90.0
 51
180.0
  0
LINE
  5
1D3
330
1F
100
AcDbEntity
  8
0
100
AcDbLine
 10
3.065404556
 20
394.5840818332
 30
0.0
 11
3.065404556
 21
396.3840818332
 31
0.0
  0
LINE
  5
1D5
330
1F
100
AcDbEntity
  8
0
100
AcDbLine
 10
409.465404556
 20
332.3940818332
 30
0.0
 11
409.465404556
 21
325.0940818332
 31
0.0
  0
LINE
  5
1D6
330
1F
100
AcDbEntity
  8
0
100
AcDbLine
 10
408.965404556
 20
324.5940818332
 30
0.0
 11
408.965404556
 21
332.8940818332
 31
0.0
  0
LINE
  5
1D7
330
1F
100
AcDbEntity
  8
0
100
AcDbLine
 10
-2.834595444
 20
332.9140818332
 30
0.0
 11
-2.834595444
 21
324.6140818332
 31
0.0
  0
LINE
  5
1D8
330
1F
100
AcDbEntity
  8
0
100
AcDbLine
 10
-3.334595444
 20
325.1140818332
 30
0.0
 11
-3.334595444
 21
332.4140818332
 31
0.0
  0
LINE
  5
1E5
330
1F
100
AcDbEntity
  8
0
100
AcDbLine
 10
0.065404556
 20
111.0640818332
 30
0.0
 11
0.065404556
 21
99.0640818332
 31
0.0
  0
LINE
  5
1E6
330
1F
100
AcDbEntity
  8
0
100
AcDbLine
 10
2.065404556
 20
111.0640818332
 30
0.0
 11
2.065404556
 21
99.0640818332
 31
0.0
  0
LINE
  5
1E7
330
1F
100
AcDbEntity
  8
0
100
AcDbLine
 10
0.065404556
 20
116.0640818332
 30
0.0
 11
2.065404556
 21
116.0640818332
 31
0.0
  0
LINE
  5
1E8
330
1F
100
AcDbEntity
  8
0
100
AcDbLine
 10
0.065404556
 20
111.0640818332
 30
0.0
 11
0.065404556
 21
116.0640818332
 31
0.0
  0
LINE
  5
1E9
330
1F
100
AcDbEntity
  8
0
100
AcDbLine
 10
2.065404556
 20
116.0640818332
 30
0.0
 11
2.065404556
 21
111.0640818332
 31
0.0
  0
ARC
  5
1EA
330
1F
100
AcDbEntity
  8
0
100
AcDbCircle
 10
-0.934595444
 20
99.0640818332
 30
0.0
 40
1.000000000000112
100
AcDbArc
 50
270.0
 51
0.0
  0
ARC
  5
1EB
330
1F
100
AcDbEntity
  8
0
100
AcDbCircle
 10
-0.934595444
 20
99.0640818332
 30
0.0
 40
3.000000000000171
100
AcDbArc
 50
270.0
 51
360.0
  0
LINE
  5
1EC
330
1F
100
AcDbEntity
  8
0
100
AcDbLine
 10
-31.934595444
 20
96.0640818332
 30
0.0
 11
-31.934595444
 21
98.0640818332
 31
0.0
  0
LINE
  5
1ED
330
1F
100
AcDbEntity
  8
0
100
AcDbLine
 10
-31.934595444
 20
98.0640818332
 30
0.0
 11
-26.934595444
 21
98.0640818332
 31
0.0
  0
LINE
  5
1EE
330
1F
100
AcDbEntity
  8
0
100
AcDbLine
 10
-26.934595444
 20
96.0640818332
 30
0.0
 11
-31.934595444
 21
96.0640818332
 31
0.0
  0
LINE
  5
1EF
330
1F
100
AcDbEntity
  8
0
100
AcDbLine
 10
-0.934595444
 20
96.0640818332
 30
0.0
 11
-26.934595444
 21
96.0640818332
 31
0.0
  0
LINE
  5
1F0
330
1F
100
AcDbEntity
  8
0
100
AcDbLine
 10
-0.934595444
 20
98.0640818332
 30
0.0
 11
-26.934595444
 21
98.0640818332
 31
0.0
  0
LINE
  5
1F1
330
1F
100
AcDbEntity
  8
0
100
AcDbLine
 10
433.065404556
 20
98.0640818332
 30
0.0
 11
438.065404556
 21
98.0640818332
 31
0.0
  0
LINE
  5
1F2
330
1F
100
AcDbEntity
  8
0
100
AcDbLine
 10
438.065404556
 20
98.0640818332
 30
0.0
 11
438.065404556
 21
96.0640818332
 31
0.0
  0
LINE
  5
1F3
330
1F
100
AcDbEntity
  8
0
100
AcDbLine
 10
438.065404556
 20
96.0640818332
 30
0.0
 11
433.065404556
 21
96.0640818332
 31
0.0
  0
ARC
  5
1F4
330
1F
100
AcDbEntity
  8
0
100
AcDbCircle
 10
407.065404556
 20
99.0640818332
 30
0.0
 40
1.000000000000227
100
AcDbArc
 50
180.0
 51
270.0
  0
ARC
  5
1F5
330
1F
100
AcDbEntity
  8
0
100
AcDbCircle
 10
407.065404556
 20
99.0640818332
 30
0.0
 40
3.000000000000227
100
AcDbArc
 50
180.0
 51
270.0
  0
LINE
  5
1F6
330
1F
100
AcDbEntity
  8
0
100
AcDbLine
 10
404.065404556
 20
111.0640818332
 30
0.0
 11
404.065404556
 21
99.0640818332
 31
0.0
  0
LINE
  5
1F7
330
1F
100
AcDbEntity
  8
0
100
AcDbLine
 10
406.065404556
 20
111.0640818332
 30
0.0
 11
406.065404556
 21
99.0640818332
 31
0.0
  0
LINE
  5
1F8
330
1F
100
AcDbEntity
  8
0
100
AcDbLine
 10
407.065404556
 20
98.0640818332
 30
0.0
 11
433.065404556
 21
98.0640818332
 31
0.0
  0
LINE
  5
1F9
330
1F
100
AcDbEntity
  8
0
100
AcDbLine
 10
407.065404556
 20
96.0640818332
 30
0.0
 11
433.065404556
 21
96.0640818332
 31
0.0
  0
LINE
  5
1FA
330
1F
100
AcDbEntity
  8
0
100
AcDbLine
 10
404.065404556
 20
111.0640818332
 30
0.0
 11
404.065404556
 21
116.0640818332
 31
0.0
  0
LINE
  5
1FB
330
1F
100
AcDbEntity
  8
0
100
AcDbLine
 10
404.065404556
 20
116.0640818332
 30
0.0
 11
406.065404556
 21
116.0640818332
 31
0.0
  0
LINE
  5
1FC
330
1F
100
AcDbEntity
  8
0
100
AcDbLine
 10
406.065404556
 20
116.0640818332
 30
0.0
 11
406.065404556
 21
111.0640818332
 31
0.0
  0
LINE
  5
1FF
330
1F
100
AcDbEntity
  8
0
100
AcDbLine
 10
1.665404556
 20
328.7640818332
 30
0.0
 11
1.665404556
 21
333.2640818332
 31
0.0
  0
LINE
  5
200
330
1F
100
AcDbEntity
  8
0
100
AcDbLine
 10
1.665404556
 20
324.2640818332
 30
0.0
 11
1.665404556
 21
328.7640818332
 31
0.0
  0
LINE
  5
203
330
1F
100
AcDbEntity
  8
0
100
AcDbLine
 10
404.465404556
 20
328.7440818332
 30
0.0
 11
404.465404556
 21
324.2440818332
 31
0.0
  0
LINE
  5
204
330
1F
100
AcDbEntity
  8
0
100
AcDbLine
 10
404.465404556
 20
333.2440818332
 30
0.0
 11
404.465404556
 21
328.7440818332
 31
0.0
  0
LINE
  5
207
330
1F
100
AcDbEntity
  8
0
100
AcDbLine
 10
-19.7348029822
 20
329.2140818332
 30
0.0
 11
-19.7348029822
 21
205.8140818332
 31
0.0
  0
LINE
  5
208
330
1F
100
AcDbEntity
  8
0
100
AcDbLine
 10
-4.6453045963
 20
330.0140818332
 30
0.0
 11
-4.6453045963
 21
205.0140818332
 31
0.0
  0
LINE
  5
209
330
1F
100
AcDbEntity
  8
0
100
AcDbLine
 10
-7.2159710084
 20
328.2140818332
 30
0.0
 11
-7.2159710084
 21
206.8140818332
 31
0.0
  0
LINE
  5
20A
330
1F
100
AcDbEntity
  8
0
100
AcDbLine
 10
-20.034595444
 20
330.0140818332
 30
0.0
 11
-20.034595444
 21
205.0140818332
 31
0.0
  0
LINE
  5
20B
330
1F
100
AcDbEntity
  8
0
100
AcDbLine
 10
425.8656120942
 20
326.4212586023
 30
0.0
 11
425.8656120942
 21
329.2140818332
 31
0.0
  0
LINE
  5
20C
330
1F
100
AcDbEntity
  8
0
100
AcDbLine
 10
425.8656120942
 20
205.8140818332
 30
0.0
 11
425.8656120942
 21
326.4212586023
 31
0.0
  0
LINE
  5
211
330
1F
100
AcDbEntity
  8
0
100
AcDbLine
 10
426.165404556
 20
327.1850469558
 30
0.0
 11
426.165404556
 21
330.0140818332
 31
0.0
  0
LINE
  5
212
330
1F
100
AcDbEntity
  8
0
100
AcDbLine
 10
426.165404556
 20
205.0140818332
 30
0.0
 11
426.165404556
 21
327.1850469558
 31
0.0
  0
LINE
  5
213
330
1F
100
AcDbEntity
  8
0
100
AcDbLine
 10
410.7761137082
 20
327.1850469558
 30
0.0
 11
410.7761137082
 21
330.0140818332
 31
0.0
  0
LINE
  5
214
330
1F
100
AcDbEntity
  8
0
100
AcDbLine
 10
410.7761137082
 20
205.0140818332
 30
0.0
 11
410.7761137082
 21
327.1850469558
 31
0.0
  0
LINE
  5
215
330
1F
100
AcDbEntity
  8
0
100
AcDbLine
 10
413.3467801203
 20
325.4665231603
 30
0.0
 11
413.3467801203
 21
328.2140818332
 31
0.0
  0
LINE
  5
216
330
1F
100
AcDbEntity
  8
0
100
AcDbLine
 10
413.3467801203
 20
206.8140818332
 30
0.0
 11
413.3467801203
 21
325.4665231603
 31
0.0
  0
LINE
  5
219
330
1F
100
AcDbEntity
  8
0
100
AcDbLine
 10
18.165404556
 20
346.0840818332
 30
0.0
 11
20.365404556
 21
346.0840818332
 31
0.0
  0
LINE
  5
21A
330
1F
100
AcDbEntity
  8
0
100
AcDbLine
 10
13.965404556
 20
346.0840818332
 30
0.0
 11
16.165404556
 21
346.0840818332
 31
0.0
  0
LINE
  5
21B
330
1F
100
AcDbEntity
  8
0
100
AcDbLine
 10
263.435404556
 20
346.0840818332
 30
0.0
 11
265.635404556
 21
346.0840818332
 31
0.0
  0
LINE
  5
21D
330
1F
100
AcDbEntity
  8
0
100
AcDbLine
 10
385.765404556
 20
346.0840818332
 30
0.0
 11
387.965404556
 21
346.0840818332
 31
0.0
  0
LINE
  5
21F
330
1F
100
AcDbEntity
  8
0
100
AcDbLine
 10
389.965404556
 20
346.0840818332
 30
0.0
 11
392.165404556
 21
346.0840818332
 31
0.0
  0
LINE
  5
220
330
1F
100
AcDbEntity
  8
0
100
AcDbLine
 10
140.495404556
 20
346.0840818332
 30
0.0
 11
142.695404556
 21
346.0840818332
 31
0.0
  0
SPLINE
  5
224
330
1F
100
AcDbEntity
  8
0
100
AcDbSpline
210
0.0
220
0.0
230
1.0
 70
     8
 71
     3
 72
    10
 73
     6
 74
     0
 42
0.000000001
 43
0.00000001
 40
0.0
 40
0.0
 40
0.0
 40
0.0
 40
0.3276882617822805
 40
0.8143352596697901
 40
1.0
 40
1.0
 40
1.0
 40
1.0
 10
4.115404555959184
 20
342.8342449780897
 30
0.0
 10
4.011158512481849
 20
342.8199214718383
 30
0.0
 10
3.752097573212959
 20
342.7843262505776
 30
0.0
 10
3.460651481050653
 20
342.6000349091466
 30
0.0
 10
3.348582041502151
 20
342.4151417021698
 30
0.0
 10
3.317633089981759
 20
342.3640818331972
 30
0.0
  0
LINE
  5
225
330
1F
100
AcDbEntity
  8
0
100
AcDbLine
 10
4.115404556
 20
342.3640818332
 30
0.0
 11
4.115404556
 21
343.5640818332
 31
0.0
  0
LINE
  5
226
330
1F
100
AcDbEntity
  8
0
100
AcDbLine
 10
402.015404556
 20
343.5640818332
 30
0.0
 11
4.115404556
 21
343.5640818332
 31
0.0
  0
LINE
  5
22B
330
1F
100
AcDbEntity
  8
0
100
AcDbLine
 10
3.065404556
 20
342.3640818332
 30
0.0
 11
4.115404556
 21
342.3640818332
 31
0.0
  0
LINE
  5
230
330
1F
100
AcDbEntity
  8
0
100
AcDbLine
 10
4.115404556
 20
97.5640818332
 30
0.0
 11
402.015404556
 21
97.5640818332
 31
0.0
  0
ARC
  5
231
330
1F
100
AcDbEntity
  8
0
100
AcDbCircle
 10
4.115404556
 20
98.6140818332
 30
0.0
 40
1.04999999999999
100
AcDbArc
 50
163.7021747875
 51
270.0
  0
ARC
  5
233
330
1F
100
AcDbEntity
  8
0
100
AcDbCircle
 10
402.015404556
 20
98.6140818332
 30
0.0
 40
1.049999999999989
100
AcDbArc
 50
270.0
 51
16.1230740836
  0
LINE
  5
239
330
1F
100
AcDbEntity
  8
0
100
AcDbLine
 10
408.965404556
 20
-118.1698696283
 30
0.0
 11
405.565404556
 21
-118.1698696283
 31
0.0
  0
LINE
  5
23A
330
1F
100
AcDbEntity
  8
0
100
AcDbLine
 10
405.565404556
 20
-126.4698696283
 30
0.0
 11
408.965404556
 21
-126.4698696283
 31
0.0
  0
LINE
  5
23B
330
1F
100
AcDbEntity
  8
0
100
AcDbLine
 10
408.965404556
 20
-126.4698696283
 30
0.0
 11
409.465404556
 21
-125.9698696283
 31
0.0
  0
LINE
  5
23C
330
1F
100
AcDbEntity
  8
0
100
AcDbLine
 10
409.465404556
 20
-118.6698696283
 30
0.0
 11
408.965404556
 21
-118.1698696283
 31
0.0
  0
LINE
  5
241
330
1F
100
AcDbEntity
  8
0
100
AcDbLine
 10
-2.834595444
 20
-126.4698696283
 30
0.0
 11
0.565404556
 21
-126.4698696283
 31
0.0
  0
LINE
  5
242
330
1F
100
AcDbEntity
  8
0
100
AcDbLine
 10
0.565404556
 20
-118.1698696283
 30
0.0
 11
-2.834595444
 21
-118.1698696283
 31
0.0
  0
LINE
  5
243
330
1F
100
AcDbEntity
  8
0
100
AcDbLine
 10
-2.834595444
 20
-118.1698696283
 30
0.0
 11
-3.334595444
 21
-118.6698696283
 31
0.0
  0
LINE
  5
244
330
1F
100
AcDbEntity
  8
0
100
AcDbLine
 10
-3.334595444
 20
-125.9698696283
 30
0.0
 11
-2.834595444
 21
-126.4698696283
 31
0.0
  0
LINE
  5
247
330
1F
100
AcDbEntity
  8
0
100
AcDbLine
 10
-3.334595444
 20
-123.8198696283
 30
0.0
 11
-3.434595444
 21
-123.8198696283
 31
0.0
  0
LINE
  5
24E
330
1F
100
AcDbEntity
  8
0
100
AcDbLine
 10
409.565404556
 20
-123.8198696283
 30
0.0
 11
409.465404556
 21
-123.8198696283
 31
0.0
  0
LINE
  5
266
330
1F
100
AcDbEntity
  8
0
100
AcDbLine
 10
2.665404556
 20
-464.3198696283
 30
0.0
 11
3.065404556
 21
-464.3198696283
 31
0.0
  0
ARC
  5
267
330
1F
100
AcDbEntity
  8
0
100
AcDbCircle
 10
2.665404556
 20
-463.3198696283
 30
0.0
 40
1.0
100
AcDbArc
 50
233.1301023542
 51
270.0
  0
ARC
  5
268
330
1F
100
AcDbEntity
  8
0
100
AcDbCircle
 10
2.665404556
 20
-454.3198696283
 30
0.0
 40
1.0
100
AcDbArc
 50
90.0
 51
126.8698976458
  0
LINE
  5
269
330
1F
100
AcDbEntity
  8
0
100
AcDbLine
 10
3.065404556
 20
-509.8198696283
 30
0.0
 11
2.665404556
 21
-509.8198696283
 31
0.0
  0
LINE
  5
26A
330
1F
100
AcDbEntity
  8
0
100
AcDbLine
 10
2.665404556
 20
-520.8198696283
 30
0.0
 11
3.065404556
 21
-520.8198696283
 31
0.0
  0
ARC
  5
26B
330
1F
100
AcDbEntity
  8
0
100
AcDbCircle
 10
2.665404556
 20
-519.8198696283
 30
0.0
 40
1.000000000000001
100
AcDbArc
 50
180.0
 51
270.0
  0
ARC
  5
26C
330
1F
100
AcDbEntity
  8
0
100
AcDbCircle
 10
2.665404556
 20
-510.8198696283
 30
0.0
 40
1.000000000000001
100
AcDbArc
 50
90.0
 51
180.0
  0
LINE
  5
26D
330
1F
100
AcDbEntity
  8
0
100
AcDbLine
 10
3.065404556
 20
-503.3198696283
 30
0.0
 11
2.665404556
 21
-503.3198696283
 31
0.0
  0
ARC
  5
26E
330
1F
100
AcDbEntity
  8
0
100
AcDbCircle
 10
2.665404556
 20
-504.3198696283
 30
0.0
 40
1.0
100
AcDbArc
 50
90.0
 51
126.8698976458
  0
LINE
  5
26F
330
1F
100
AcDbEntity
  8
0
100
AcDbLine
 10
403.465404556
 20
-503.3198696283
 30
0.0
 11
403.065404556
 21
-503.3198696283
 31
0.0
  0
ARC
  5
270
330
1F
100
AcDbEntity
  8
0
100
AcDbCircle
 10
403.465404556
 20
-504.3198696283
 30
0.0
 40
1.000000000000114
100
AcDbArc
 50
53.1301023541
 51
90.0
  0
LINE
  5
271
330
1F
100
AcDbEntity
  8
0
100
AcDbLine
 10
403.065404556
 20
-464.3198696283
 30
0.0
 11
403.465404556
 21
-464.3198696283
 31
0.0
  0
ARC
  5
272
330
1F
100
AcDbEntity
  8
0
100
AcDbCircle
 10
403.465404556
 20
-454.3198696283
 30
0.0
 40
1.000000000000034
100
AcDbArc
 50
53.1301023541
 51
90.0
  0
ARC
  5
273
330
1F
100
AcDbEntity
  8
0
100
AcDbCircle
 10
403.465404556
 20
-463.3198696283
 30
0.0
 40
1.0
100
AcDbArc
 50
270.0
 51
306.8698976459
  0
LINE
  5
274
330
1F
100
AcDbEntity
  8
0
100
AcDbLine
 10
403.065404556
 20
-520.8198696283
 30
0.0
 11
403.465404556
 21
-520.8198696283
 31
0.0
  0
LINE
  5
275
330
1F
100
AcDbEntity
  8
0
100
AcDbLine
 10
403.465404556
 20
-509.8198696283
 30
0.0
 11
403.065404556
 21
-509.8198696283
 31
0.0
  0
ARC
  5
276
330
1F
100
AcDbEntity
  8
0
100
AcDbCircle
 10
403.465404556
 20
-510.8198696283
 30
0.0
 40
1.0
100
AcDbArc
 50
360.0
 51
90.0
  0
ARC
  5
277
330
1F
100
AcDbEntity
  8
0
100
AcDbCircle
 10
403.465404556
 20
-519.8198696283
 30
0.0
 40
1.0
100
AcDbArc
 50
270.0
 51
0.0
  0
LINE
  5
27C
330
1F
100
AcDbEntity
  8
0
100
AcDbLine
 10
3.065404556
 20
-328.3198696283
 30
0.0
 11
-4.6453045963
 21
-328.3198696283
 31
0.0
  0
LINE
  5
27D
330
1F
100
AcDbEntity
  8
0
100
AcDbLine
 10
-4.6453045963
 20
-453.3198696283
 30
0.0
 11
3.065404556
 21
-453.3198696283
 31
0.0
  0
LINE
  5
27E
330
1F
100
AcDbEntity
  8
0
100
AcDbLine
 10
-4.6453045963
 20
-328.3198696283
 30
0.0
 11
-7.2159710084
 21
-330.1198696283
 31
0.0
  0
LINE
  5
27F
330
1F
100
AcDbEntity
  8
0
100
AcDbLine
 10
-7.2159710084
 20
-451.5198696283
 30
0.0
 11
-4.6453045963
 21
-453.3198696283
 31
0.0
  0
LINE
  5
280
330
1F
100
AcDbEntity
  8
0
100
AcDbLine
 10
-20.034595444
 20
-328.3198696283
 30
0.0
 11
-23.784595444
 21
-328.3198696283
 31
0.0
  0
LINE
  5
281
330
1F
100
AcDbEntity
  8
0
100
AcDbLine
 10
-23.784595444
 20
-453.3198696283
 30
0.0
 11
-20.034595444
 21
-453.3198696283
 31
0.0
  0
ARC
  5
282
330
1F
100
AcDbEntity
  8
0
100
AcDbCircle
 10
-23.784595444
 20
-329.5698696283
 30
0.0
 40
1.250000000000057
100
AcDbArc
 50
90.0
 51
180.0
  0
ARC
  5
283
330
1F
100
AcDbEntity
  8
0
100
AcDbCircle
 10
-23.784595444
 20
-452.0698696283
 30
0.0
 40
1.25
100
AcDbArc
 50
180.0
 51
270.0
  0
LINE
  5
284
330
1F
100
AcDbEntity
  8
0
100
AcDbLine
 10
-25.034595444
 20
-329.5698696283
 30
0.0
 11
-25.034595444
 21
-452.0698696283
 31
0.0
  0
LINE
  5
285
330
1F
100
AcDbEntity
  8
0
100
AcDbLine
 10
-19.7348029822
 20
-329.1198696283
 30
0.0
 11
-20.034595444
 21
-329.1198696283
 31
0.0
  0
LINE
  5
286
330
1F
100
AcDbEntity
  8
0
100
AcDbLine
 10
-20.034595444
 20
-452.5198696283
 30
0.0
 11
-19.7348029822
 21
-452.5198696283
 31
0.0
  0
LINE
  5
287
330
1F
100
AcDbEntity
  8
0
100
AcDbLine
 10
-7.2159710084
 20
-330.1198696283
 30
0.0
 11
-13.57504193
 21
-330.1198696283
 31
0.0
  0
LINE
  5
288
330
1F
100
AcDbEntity
  8
0
100
AcDbLine
 10
-13.57504193
 20
-451.5198696283
 30
0.0
 11
-7.2159710084
 21
-451.5198696283
 31
0.0
  0
LINE
  5
28D
330
1F
100
AcDbEntity
  8
0
100
AcDbLine
 10
403.065404556
 20
-453.3198696283
 30
0.0
 11
410.7761137082
 21
-453.3198696283
 31
0.0
  0
LINE
  5
28E
330
1F
100
AcDbEntity
  8
0
100
AcDbLine
 10
410.7761137082
 20
-328.3198696283
 30
0.0
 11
403.065404556
 21
-328.3198696283
 31
0.0
  0
LINE
  5
28F
330
1F
100
AcDbEntity
  8
0
100
AcDbLine
 10
426.165404556
 20
-453.3198696283
 30
0.0
 11
429.915404556
 21
-453.3198696283
 31
0.0
  0
LINE
  5
290
330
1F
100
AcDbEntity
  8
0
100
AcDbLine
 10
429.915404556
 20
-328.3198696283
 30
0.0
 11
426.165404556
 21
-328.3198696283
 31
0.0
  0
ARC
  5
291
330
1F
100
AcDbEntity
  8
0
100
AcDbCircle
 10
429.915404556
 20
-452.0698696283
 30
0.0
 40
1.25
100
AcDbArc
 50
270.0
 51
0.0
  0
ARC
  5
292
330
1F
100
AcDbEntity
  8
0
100
AcDbCircle
 10
429.915404556
 20
-329.5698696283
 30
0.0
 40
1.25
100
AcDbArc
 50
0.0
 51
90.0
  0
LINE
  5
293
330
1F
100
AcDbEntity
  8
0
100
AcDbLine
 10
431.165404556
 20
-452.0698696283
 30
0.0
 11
431.165404556
 21
-329.5698696283
 31
0.0
  0
LINE
  5
294
330
1F
100
AcDbEntity
  8
0
100
AcDbLine
 10
410.7761137082
 20
-453.3198696283
 30
0.0
 11
413.3467801203
 21
-451.5198696283
 31
0.0
  0
LINE
  5
295
330
1F
100
AcDbEntity
  8
0
100
AcDbLine
 10
413.3467801203
 20
-330.1198696283
 30
0.0
 11
410.7761137082
 21
-328.3198696283
 31
0.0
  0
LINE
  5
296
330
1F
100
AcDbEntity
  8
0
100
AcDbLine
 10
425.8656120942
 20
-452.5198696283
 30
0.0
 11
426.165404556
 21
-452.5198696283
 31
0.0
  0
LINE
  5
297
330
1F
100
AcDbEntity
  8
0
100
AcDbLine
 10
426.165404556
 20
-329.1198696283
 30
0.0
 11
425.8656120942
 21
-329.1198696283
 31
0.0
  0
LINE
  5
298
330
1F
100
AcDbEntity
  8
0
100
AcDbLine
 10
413.3467801203
 20
-451.5198696283
 30
0.0
 11
419.705851042
 21
-451.5198696283
 31
0.0
  0
LINE
  5
299
330
1F
100
AcDbEntity
  8
0
100
AcDbLine
 10
419.705851042
 20
-330.1198696283
 30
0.0
 11
413.3467801203
 21
-330.1198696283
 31
0.0
  0
LINE
  5
29A
330
1F
100
AcDbEntity
  8
0
100
AcDbLine
 10
438.065404556
 20
-204.6198696283
 30
0.0
 11
437.065404556
 21
-204.6198696283
 31
0.0
  0
LINE
  5
29B
330
1F
100
AcDbEntity
  8
0
100
AcDbLine
 10
437.065404556
 20
-160.6198696283
 30
0.0
 11
438.065404556
 21
-160.6198696283
 31
0.0
  0
LINE
  5
29C
330
1F
100
AcDbEntity
  8
0
100
AcDbLine
 10
438.065404556
 20
-160.6198696283
 30
0.0
 11
438.065404556
 21
-152.6198696283
 31
0.0
  0
LINE
  5
29D
330
1F
100
AcDbEntity
  8
0
100
AcDbLine
 10
438.065404556
 20
-152.6198696283
 30
0.0
 11
437.065404556
 21
-152.6198696283
 31
0.0
  0
LINE
  5
29E
330
1F
100
AcDbEntity
  8
0
100
AcDbLine
 10
437.065404556
 20
-212.6198696283
 30
0.0
 11
438.065404556
 21
-212.6198696283
 31
0.0
  0
LINE
  5
29F
330
1F
100
AcDbEntity
  8
0
100
AcDbLine
 10
438.065404556
 20
-212.6198696283
 30
0.0
 11
438.065404556
 21
-204.6198696283
 31
0.0
  0
LINE
  5
2A0
330
1F
100
AcDbEntity
  8
0
100
AcDbLine
 10
437.065404556
 20
-149.6198696283
 30
0.0
 11
437.065404556
 21
-152.6198696283
 31
0.0
  0
LINE
  5
2A1
330
1F
100
AcDbEntity
  8
0
100
AcDbLine
 10
437.065404556
 20
-160.6198696283
 30
0.0
 11
437.065404556
 21
-204.6198696283
 31
0.0
  0
LINE
  5
2A2
330
1F
100
AcDbEntity
  8
0
100
AcDbLine
 10
437.065404556
 20
-212.6198696283
 30
0.0
 11
437.065404556
 21
-215.6198696283
 31
0.0
  0
LINE
  5
2A3
330
1F
100
AcDbEntity
  8
0
100
AcDbLine
 10
437.065404556
 20
-140.6198696283
 30
0.0
 11
444.065404556
 21
-140.6198696283
 31
0.0
  0
LINE
  5
2A4
330
1F
100
AcDbEntity
  8
0
100
AcDbLine
 10
437.065404556
 20
-149.6198696283
 30
0.0
 11
437.065404556
 21
-140.6198696283
 31
0.0
  0
LINE
  5
2A5
330
1F
100
AcDbEntity
  8
0
100
AcDbLine
 10
445.065404556
 20
-149.6198696283
 30
0.0
 11
445.065404556
 21
-215.6198696283
 31
0.0
  0
LINE
  5
2A6
330
1F
100
AcDbEntity
  8
0
100
AcDbLine
 10
445.065404556
 20
-141.6198696283
 30
0.0
 11
445.065404556
 21
-149.6198696283
 31
0.0
  0
ARC
  5
2A7
330
1F
100
AcDbEntity
  8
0
100
AcDbCircle
 10
444.065404556
 20
-141.6198696283
 30
0.0
 40
1.0
100
AcDbArc
 50
0.0
 51
90.0
  0
LINE
  5
2A8
330
1F
100
AcDbEntity
  8
0
100
AcDbLine
 10
445.065404556
 20
-215.6198696283
 30
0.0
 11
445.065404556
 21
-223.6198696283
 31
0.0
  0
ARC
  5
2A9
330
1F
100
AcDbEntity
  8
0
100
AcDbCircle
 10
444.065404556
 20
-223.6198696283
 30
0.0
 40
1.0
100
AcDbArc
 50
270.0
 51
0.0
  0
LINE
  5
2AA
330
1F
100
AcDbEntity
  8
0
100
AcDbLine
 10
444.065404556
 20
-224.6198696283
 30
0.0
 11
437.065404556
 21
-224.6198696283
 31
0.0
  0
LINE
  5
2AB
330
1F
100
AcDbEntity
  8
0
100
AcDbLine
 10
437.065404556
 20
-224.6198696283
 30
0.0
 11
437.065404556
 21
-215.6198696283
 31
0.0
  0
LINE
  5
2AC
330
1F
100
AcDbEntity
  8
0
100
AcDbLine
 10
437.065404556
 20
-149.6198696283
 30
0.0
 11
437.065404556
 21
-215.6198696283
 31
0.0
  0
LINE
  5
2AD
330
1F
100
AcDbEntity
  8
0
100
AcDbLine
 10
435.065404556
 20
-149.6198696283
 30
0.0
 11
435.065404556
 21
-215.6198696283
 31
0.0
  0
LINE
  5
2AE
330
1F
100
AcDbEntity
  8
0
100
AcDbLine
 10
437.065404556
 20
-140.6198696283
 30
0.0
 11
435.065404556
 21
-140.6198696283
 31
0.0
  0
LINE
  5
2AF
330
1F
100
AcDbEntity
  8
0
100
AcDbLine
 10
435.065404556
 20
-140.6198696283
 30
0.0
 11
435.065404556
 21
-149.6198696283
 31
0.0
  0
LINE
  5
2B0
330
1F
100
AcDbEntity
  8
0
100
AcDbLine
 10
437.065404556
 20
-224.6198696283
 30
0.0
 11
435.065404556
 21
-224.6198696283
 31
0.0
  0
LINE
  5
2B1
330
1F
100
AcDbEntity
  8
0
100
AcDbLine
 10
435.065404556
 20
-215.6198696283
 30
0.0
 11
435.065404556
 21
-224.6198696283
 31
0.0
  0
LINE
  5
2B2
330
1F
100
AcDbEntity
  8
0
100
AcDbLine
 10
406.065404556
 20
-142.6198696283
 30
0.0
 11
405.565404556
 21
-142.6618297367
 31
0.0
  0
LINE
  5
2B3
330
1F
100
AcDbEntity
  8
0
100
AcDbLine
 10
406.065404556
 20
-142.6198696283
 30
0.0
 11
435.065404556
 21
-142.6198696283
 31
0.0
  0
ARC
  5
2B4
330
1F
100
AcDbEntity
  8
0
100
AcDbCircle
 10
406.065404556
 20
-219.6198696283
 30
0.0
 40
3.0
100
AcDbArc
 50
180.0
 51
270.0
  0
LINE
  5
2B5
330
1F
100
AcDbEntity
  8
0
100
AcDbLine
 10
435.065404556
 20
-222.6198696283
 30
0.0
 11
406.065404556
 21
-222.6198696283
 31
0.0
  0
SPLINE
  5
2B6
330
1F
100
AcDbEntity
  8
0
100
AcDbSpline
210
0.0
220
0.0
230
1.0
 70
     8
 71
     3
 72
    11
 73
     7
 74
     0
 42
0.000000001
 43
0.00000001
 40
0.0
 40
0.0
 40
0.0
 40
0.0
 40
0.2499999999999947
 40
0.4999999999999961
 40
0.7499999999999981
 40
1.0
 40
1.0
 40
1.0
 40
1.0
 10
3.065404555963325
 20
-114.2198696282999
 30
0.0
 10
3.0409967877289
 20
-113.8922770187843
 30
0.0
 10
2.992181251259912
 20
-113.237091799753
 30
0.0
 10
2.918957946556611
 20
-112.4107294570108
 30
0.0
 10
2.845734641853142
 20
-111.8326064242048
 30
0.0
 10
2.796919105384349
 20
-111.7574485602682
 30
0.0
 10
2.772511337149925
 20
-111.7198696282999
 30
0.0
  0
LINE
  5
2B7
330
1F
100
AcDbEntity
  8
0
100
AcDbLine
 10
2.7725113371
 20
-111.7198696283
 30
0.0
 11
80.565404556
 21
-111.7198696283
 31
0.0
  0
LINE
  5
2B8
330
1F
100
AcDbEntity
  8
0
100
AcDbLine
 10
80.565404556
 20
-111.7198696283
 30
0.0
 11
80.565404556
 21
-113.8198696283
 31
0.0
  0
LINE
  5
2B9
330
1F
100
AcDbEntity
  8
0
100
AcDbLine
 10
3.065404556
 20
-195.2198696283
 30
0.0
 11
0.565404556
 21
-195.2198696283
 31
0.0
  0
LINE
  5
2BA
330
1F
100
AcDbEntity
  8
0
100
AcDbLine
 10
0.565404556
 20
-195.2198696283
 30
0.0
 11
0.565404556
 21
-113.9269764095
 31
0.0
  0
SPLINE
  5
2BB
330
1F
100
AcDbEntity
  8
0
100
AcDbSpline
210
0.0
220
0.0
230
1.0
 70
     8
 71
     3
 72
    11
 73
     7
 74
     0
 42
0.000000001
 43
0.00000001
 40
0.0
 40
0.0
 40
0.0
 40
0.0
 40
0.2499999999999979
 40
0.4999999999999983
 40
0.7499999999999994
 40
1.0
 40
1.0
 40
1.0
 40
1.0
 10
0.565404555963378
 20
-113.9269764094864
 30
0.0
 10
0.6029834879315854
 20
-113.9513841777208
 30
0.0
 10
0.6781413518682222
 20
-114.0001997141898
 30
0.0
 10
1.256264384674244
 20
-114.0734230188931
 30
0.0
 10
2.082626727416437
 20
-114.1466463235965
 30
0.0
 10
2.737811946447705
 20
-114.1954618600654
 30
0.0
 10
3.065404555963325
 20
-114.2198696282999
 30
0.0
  0
LINE
  5
2BC
330
1F
100
AcDbEntity
  8
0
100
AcDbLine
 10
0.565404556
 20
-113.9269764095
 30
0.0
 11
2.065404556
 21
-113.9269764095
 31
0.0
  0
SPLINE
  5
2BD
330
1F
100
AcDbEntity
  8
0
100
AcDbSpline
210
0.0
220
0.0
230
1.0
 70
     8
 71
     3
 72
    11
 73
     7
 74
     0
 42
0.000000001
 43
0.00000001
 40
0.0
 40
0.0
 40
0.0
 40
0.0
 40
0.2499999999999916
 40
0.5000000000000085
 40
0.7499999999999983
 40
1.0
 40
1.0
 40
1.0
 40
1.0
 10
2.065404555963379
 20
-113.9269764094864
 30
0.0
 10
2.08043612875064
 20
-113.9513841777209
 30
0.0
 10
2.110499274325217
 20
-114.0001997141897
 30
0.0
 10
2.34174848744767
 20
-114.0734230188932
 30
0.0
 10
2.672293424544614
 20
-114.1466463235964
 30
0.0
 10
2.934367512157088
 20
-114.1954618600654
 30
0.0
 10
3.065404555963325
 20
-114.2198696282999
 30
0.0
  0
SPLINE
  5
2BE
330
1F
100
AcDbEntity
  8
0
100
AcDbSpline
210
0.0
220
0.0
230
1.0
 70
     8
 71
     3
 72
    11
 73
     7
 74
     0
 42
0.000000001
 43
0.00000001
 40
0.0
 40
0.0
 40
0.0
 40
0.0
 40
0.2500000000000102
 40
0.4999999999999949
 40
0.7500000000000068
 40
1.0
 40
1.0
 40
1.0
 40
1.0
 10
3.065404555963325
 20
-114.2198696282999
 30
0.0
 10
3.040996787728845
 20
-114.0888325844936
 30
0.0
 10
2.99218125125994
 20
-113.8267584968811
 30
0.0
 10
2.918957946556666
 20
-113.4962135597843
 30
0.0
 10
2.845734641853198
 20
-113.2649643466618
 30
0.0
 10
2.796919105384349
 20
-113.2349012010872
 30
0.0
 10
2.772511337149869
 20
-113.2198696282999
 30
0.0
  0
LINE
  5
2BF
330
1F
100
AcDbEntity
  8
0
100
AcDbLine
 10
2.7725113371
 20
-111.7198696283
 30
0.0
 11
2.7725113371
 21
-113.2198696283
 31
0.0
  0
SPLINE
  5
2C0
330
1F
100
AcDbEntity
  8
0
100
AcDbSpline
210
0.0
220
0.0
230
1.0
 70
     8
 71
     3
 72
    11
 73
     7
 74
     0
 42
0.000000001
 43
0.00000001
 40
0.0
 40
0.0
 40
0.0
 40
0.0
 40
0.2499999999999901
 40
0.499999999999987
 40
0.7499999999999845
 40
1.0
 40
1.0
 40
1.0
 40
1.0
 10
403.0654045559634
 20
-114.2198696283013
 30
0.0
 10
403.392997165479
 20
-114.1954618600669
 30
0.0
 10
404.0481823845103
 20
-114.146646323598
 30
0.0
 10
404.8745447272525
 20
-114.0734230188946
 30
0.0
 10
405.4526677600584
 20
-114.0001997141912
 30
0.0
 10
405.5278256239951
 20
-113.9513841777224
 30
0.0
 10
405.5654045559635
 20
-113.9269764094878
 30
0.0
  0
LINE
  5
2C1
330
1F
100
AcDbEntity
  8
0
100
AcDbLine
 10
405.565404556
 20
-113.9269764095
 30
0.0
 11
405.565404556
 21
-195.2198696283
 31
0.0
  0
LINE
  5
2C2
330
1F
100
AcDbEntity
  8
0
100
AcDbLine
 10
405.565404556
 20
-195.2198696283
 30
0.0
 11
403.065404556
 21
-195.2198696283
 31
0.0
  0
SPLINE
  5
2C3
330
1F
100
AcDbEntity
  8
0
100
AcDbSpline
210
0.0
220
0.0
230
1.0
 70
     8
 71
     3
 72
    11
 73
     7
 74
     0
 42
0.000000001
 43
0.00000001
 40
0.0
 40
0.0
 40
0.0
 40
0.0
 40
0.2499999999999977
 40
0.4999999999999898
 40
0.7499999999999866
 40
1.0
 40
1.0
 40
1.0
 40
1.0
 10
403.3582977747769
 20
-111.7198696283013
 30
0.0
 10
403.3338900065424
 20
-111.7574485602696
 30
0.0
 10
403.2850744700734
 20
-111.8326064242063
 30
0.0
 10
403.2118511653701
 20
-112.4107294570122
 30
0.0
 10
403.1386278606668
 20
-113.2370917997544
 30
0.0
 10
403.0898123241979
 20
-113.8922770187857
 30
0.0
 10
403.0654045559634
 20
-114.2198696283013
 30
0.0
  0
LINE
  5
2C4
330
1F
100
AcDbEntity
  8
0
100
AcDbLine
 10
403.3582977748
 20
-111.7198696283
 30
0.0
 11
403.3582977748
 21
-113.2198696283
 31
0.0
  0
SPLINE
  5
2C5
330
1F
100
AcDbEntity
  8
0
100
AcDbSpline
210
0.0
220
0.0
230
1.0
 70
     8
 71
     3
 72
    11
 73
     7
 74
     0
 42
0.000000001
 43
0.00000001
 40
0.0
 40
0.0
 40
0.0
 40
0.0
 40
0.2499999999999899
 40
0.4999999999999951
 40
0.7499999999999797
 40
1.0
 40
1.0
 40
1.0
 40
1.0
 10
403.3582977747769
 20
-113.2198696283013
 30
0.0
 10
403.3338900065424
 20
-113.2349012010886
 30
0.0
 10
403.2850744700735
 20
-113.2649643466632
 30
0.0
 10
403.2118511653701
 20
-113.4962135597856
 30
0.0
 10
403.1386278606668
 20
-113.8267584968826
 30
0.0
 10
403.0898123241979
 20
-114.0888325844951
 30
0.0
 10
403.0654045559635
 20
-114.2198696283013
 30
0.0
  0
SPLINE
  5
2C6
330
1F
100
AcDbEntity
  8
0
100
AcDbSpline
210
0.0
220
0.0
230
1.0
 70
     8
 71
     3
 72
    11
 73
     7
 74
     0
 42
0.000000001
 43
0.00000001
 40
0.0
 40
0.0
 40
0.0
 40
0.0
 40
0.2499999999999648
 40
0.4999999999999646
 40
0.7499999999999851
 40
1.0
 40
1.0
 40
1.0
 40
1.0
 10
403.0654045559635
 20
-114.2198696283013
 30
0.0
 10
403.1964415997696
 20
-114.1954618600669
 30
0.0
 10
403.4585156873821
 20
-114.146646323598
 30
0.0
 10
403.7890606244791
 20
-114.0734230188946
 30
0.0
 10
404.0203098376014
 20
-114.0001997141913
 30
0.0
 10
404.0503729831761
 20
-113.9513841777223
 30
0.0
 10
404.0654045559634
 20
-113.9269764094878
 30
0.0
  0
LINE
  5
2C7
330
1F
100
AcDbEntity
  8
0
100
AcDbLine
 10
405.565404556
 20
-113.9269764095
 30
0.0
 11
404.065404556
 21
-113.9269764095
 31
0.0
  0
LINE
  5
2C8
330
1F
100
AcDbEntity
  8
0
100
AcDbLine
 10
325.565404556
 20
-113.8198696283
 30
0.0
 11
325.565404556
 21
-111.7198696283
 31
0.0
  0
LINE
  5
2C9
330
1F
100
AcDbEntity
  8
0
100
AcDbLine
 10
403.3582977748
 20
-111.7198696283
 30
0.0
 11
325.565404556
 21
-111.7198696283
 31
0.0
  0
CIRCLE
  5
2D2
330
1F
100
AcDbEntity
  8
0
100
AcDbCircle
 10
28.065404556
 20
-478.8198696283
 30
0.0
 40
8.000000000000027
  0
CIRCLE
  5
2D3
330
1F
100
AcDbEntity
  8
0
100
AcDbCircle
 10
378.065404556
 20
-478.8198696283
 30
0.0
 40
8.000000000000146
  0
LINE
  5
2D5
330
1F
100
AcDbEntity
  8
0
100
AcDbLine
 10
401.865404556
 20
-113.8198696283
 30
0.0
 11
4.265404556
 21
-113.8198696283
 31
0.0
  0
LINE
  5
2D8
330
1F
100
AcDbEntity
  8
0
100
AcDbLine
 10
403.065404556
 20
-493.8198696283
 30
0.0
 11
403.065404556
 21
-143.8198696283
 31
0.0
  0
LINE
  5
2DB
330
1F
100
AcDbEntity
  8
0
100
AcDbLine
 10
3.065404556
 20
-143.8198696283
 30
0.0
 11
3.065404556
 21
-493.8198696283
 31
0.0
  0
LINE
  5
2DE
330
1F
100
AcDbEntity
  8
0
100
AcDbLine
 10
4.265404556
 20
-523.8198696283
 30
0.0
 11
401.865404556
 21
-523.8198696283
 31
0.0
  0
LINE
  5
2E2
330
1F
100
AcDbEntity
  8
0
100
AcDbLine
 10
403.065404556
 20
-143.8198696283
 30
0.0
 11
403.065404556
 21
-116.9198696283
 31
0.0
  0
LINE
  5
2E5
330
1F
100
AcDbEntity
  8
0
100
AcDbLine
 10
3.065404556
 20
-143.8198696283
 30
0.0
 11
3.065404556
 21
-116.9198696283
 31
0.0
  0
LINE
  5
2E8
330
1F
100
AcDbEntity
  8
0
100
AcDbLine
 10
403.065404556
 20
-493.8198696283
 30
0.0
 11
403.065404556
 21
-520.7198696283
 31
0.0
  0
LINE
  5
2EB
330
1F
100
AcDbEntity
  8
0
100
AcDbLine
 10
3.065404556
 20
-493.8198696283
 30
0.0
 11
3.065404556
 21
-520.7198696283
 31
0.0
  0
ARC
  5
2ED
330
1F
100
AcDbEntity
  8
0
100
AcDbCircle
 10
401.865404556
 20
-115.0198696283
 30
0.0
 40
1.200000000000045
100
AcDbArc
 50
0.0
 51
90.0
  0
LINE
  5
2EF
330
1F
100
AcDbEntity
  8
0
100
AcDbLine
 10
403.065404556
 20
-115.0198696283
 30
0.0
 11
403.065404556
 21
-116.8198696283
 31
0.0
  0
LINE
  5
2F2
330
1F
100
AcDbEntity
  8
0
100
AcDbLine
 10
3.065404556
 20
-116.8198696283
 30
0.0
 11
3.065404556
 21
-115.0198696283
 31
0.0
  0
ARC
  5
2F4
330
1F
100
AcDbEntity
  8
0
100
AcDbCircle
 10
4.265404556
 20
-115.0198696283
 30
0.0
 40
1.200000000000031
100
AcDbArc
 50
90.0
 51
180.0
  0
LINE
  5
2F7
330
1F
100
AcDbEntity
  8
0
100
AcDbLine
 10
403.065404556
 20
-520.8198696283
 30
0.0
 11
403.065404556
 21
-522.6198696283
 31
0.0
  0
ARC
  5
2F9
330
1F
100
AcDbEntity
  8
0
100
AcDbCircle
 10
401.865404556
 20
-522.6198696283
 30
0.0
 40
1.200000000000045
100
AcDbArc
 50
270.0
 51
0.0
  0
LINE
  5
2FD
330
1F
100
AcDbEntity
  8
0
100
AcDbLine
 10
3.065404556
 20
-522.6198696283
 30
0.0
 11
3.065404556
 21
-520.8198696283
 31
0.0
  0
ARC
  5
2FE
330
1F
100
AcDbEntity
  8
0
100
AcDbCircle
 10
4.265404556
 20
-522.6198696283
 30
0.0
 40
1.199999999999868
100
AcDbArc
 50
180.0
 51
270.0
  0
LINE
  5
312
330
1F
100
AcDbEntity
  8
0
100
AcDbLine
 10
408.965404556
 20
-122.3198696283
 30
0.0
 11
408.965404556
 21
-118.1698696283
 31
0.0
  0
LINE
  5
313
330
1F
100
AcDbEntity
  8
0
100
AcDbLine
 10
408.965404556
 20
-126.4698696283
 30
0.0
 11
408.965404556
 21
-122.3198696283
 31
0.0
  0
LINE
  5
314
330
1F
100
AcDbEntity
  8
0
100
AcDbLine
 10
409.465404556
 20
-122.3198696283
 30
0.0
 11
409.465404556
 21
-125.9698696283
 31
0.0
  0
LINE
  5
315
330
1F
100
AcDbEntity
  8
0
100
AcDbLine
 10
409.465404556
 20
-118.6698696283
 30
0.0
 11
409.465404556
 21
-122.3198696283
 31
0.0
  0
LINE
  5
318
330
1F
100
AcDbEntity
  8
0
100
AcDbLine
 10
-2.834595444
 20
-118.1698696283
 30
0.0
 11
-2.834595444
 21
-126.4698696283
 31
0.0
  0
LINE
  5
319
330
1F
100
AcDbEntity
  8
0
100
AcDbLine
 10
-3.334595444
 20
-125.9698696283
 30
0.0
 11
-3.334595444
 21
-118.6698696283
 31
0.0
  0
LINE
  5
32D
330
1F
100
AcDbEntity
  8
0
100
AcDbLine
 10
0.065404556
 20
-519.4698696283
 30
0.0
 11
0.065404556
 21
-453.3198696283
 31
0.0
  0
LINE
  5
32E
330
1F
100
AcDbEntity
  8
0
100
AcDbLine
 10
2.065404556
 20
-510.0198696283
 30
0.0
 11
2.065404556
 21
-453.3198696283
 31
0.0
  0
LINE
  5
32F
330
1F
100
AcDbEntity
  8
0
100
AcDbLine
 10
2.065404556
 20
-523.8198696283
 30
0.0
 11
0.065404556
 21
-523.8198696283
 31
0.0
  0
LINE
  5
330
330
1F
100
AcDbEntity
  8
0
100
AcDbLine
 10
0.065404556
 20
-523.8198696283
 30
0.0
 11
0.065404556
 21
-519.4698696283
 31
0.0
  0
LINE
  5
331
330
1F
100
AcDbEntity
  8
0
100
AcDbLine
 10
2.065404556
 20
-520.6198696283
 30
0.0
 11
2.065404556
 21
-523.8198696283
 31
0.0
  0
LINE
  5
332
330
1F
100
AcDbEntity
  8
0
100
AcDbLine
 10
0.065404556
 20
-523.8198696283
 30
0.0
 11
-0.934595444
 21
-523.8198696283
 31
0.0
  0
ARC
  5
333
330
1F
100
AcDbEntity
  8
0
100
AcDbCircle
 10
-26.934595444
 20
-448.8198696283
 30
0.0
 40
4.999999999999893
100
AcDbArc
 50
90.0
 51
180.0
  0
LINE
  5
334
330
1F
100
AcDbEntity
  8
0
100
AcDbLine
 10
-25.034595444
 20
-443.8198696283
 30
0.0
 11
-26.934595444
 21
-443.8198696283
 31
0.0
  0
LINE
  5
335
330
1F
100
AcDbEntity
  8
0
100
AcDbLine
 10
-0.934595444
 20
-523.8198696283
 30
0.0
 11
-26.934595444
 21
-523.8198696283
 31
0.0
  0
ARC
  5
336
330
1F
100
AcDbEntity
  8
0
100
AcDbCircle
 10
-26.934595444
 20
-518.8198696283
 30
0.0
 40
5.000000000000004
100
AcDbArc
 50
180.0
 51
270.0
  0
LINE
  5
337
330
1F
100
AcDbEntity
  8
0
100
AcDbLine
 10
-31.934595444
 20
-518.8198696283
 30
0.0
 11
-31.934595444
 21
-448.8198696283
 31
0.0
  0
CIRCLE
  5
338
330
1F
100
AcDbEntity
  8
0
100
AcDbCircle
 10
-16.934595444
 20
-483.8198696283
 30
0.0
 40
6.25
  0
LINE
  5
339
330
1F
100
AcDbEntity
  8
0
100
AcDbLine
 10
406.065404556
 20
-453.3198696283
 30
0.0
 11
406.065404556
 21
-519.4698696283
 31
0.0
  0
LINE
  5
33A
330
1F
100
AcDbEntity
  8
0
100
AcDbLine
 10
404.065404556
 20
-453.3198696283
 30
0.0
 11
404.065404556
 21
-510.0198696283
 31
0.0
  0
LINE
  5
33B
330
1F
100
AcDbEntity
  8
0
100
AcDbLine
 10
406.065404556
 20
-523.8198696283
 30
0.0
 11
404.065404556
 21
-523.8198696283
 31
0.0
  0
LINE
  5
33C
330
1F
100
AcDbEntity
  8
0
100
AcDbLine
 10
406.065404556
 20
-519.4698696283
 30
0.0
 11
406.065404556
 21
-523.8198696283
 31
0.0
  0
LINE
  5
33D
330
1F
100
AcDbEntity
  8
0
100
AcDbLine
 10
404.065404556
 20
-523.8198696283
 30
0.0
 11
404.065404556
 21
-520.6198696283
 31
0.0
  0
LINE
  5
33E
330
1F
100
AcDbEntity
  8
0
100
AcDbLine
 10
406.065404556
 20
-523.8198696283
 30
0.0
 11
407.065404556
 21
-523.8198696283
 31
0.0
  0
ARC
  5
33F
330
1F
100
AcDbEntity
  8
0
100
AcDbCircle
 10
433.065404556
 20
-518.8198696283
 30
0.0
 40
5.0
100
AcDbArc
 50
270.0
 51
360.0
  0
LINE
  5
340
330
1F
100
AcDbEntity
  8
0
100
AcDbLine
 10
407.065404556
 20
-523.8198696283
 30
0.0
 11
433.065404556
 21
-523.8198696283
 31
0.0
  0
LINE
  5
341
330
1F
100
AcDbEntity
  8
0
100
AcDbLine
 10
431.165404556
 20
-443.8198696283
 30
0.0
 11
433.065404556
 21
-443.8198696283
 31
0.0
  0
ARC
  5
342
330
1F
100
AcDbEntity
  8
0
100
AcDbCircle
 10
433.065404556
 20
-448.8198696283
 30
0.0
 40
4.999999999999943
100
AcDbArc
 50
360.0
 51
90.0
  0
LINE
  5
343
330
1F
100
AcDbEntity
  8
0
100
AcDbLine
 10
438.065404556
 20
-448.8198696283
 30
0.0
 11
438.065404556
 21
-518.8198696283
 31
0.0
  0
CIRCLE
  5
344
330
1F
100
AcDbEntity
  8
0
100
AcDbCircle
 10
423.065404556
 20
-483.8198696283
 30
0.0
 40
6.249999999999943
  0
LINE
  5
345
330
1F
100
AcDbEntity
  8
0
100
AcDbLine
 10
0.065404556
 20
-113.8198696283
 30
0.0
 11
2.065404556
 21
-113.8198696283
 31
0.0
  0
LINE
  5
346
330
1F
100
AcDbEntity
  8
0
100
AcDbLine
 10
2.065404556
 20
-113.8198696283
 30
0.0
 11
2.065404556
 21
-113.9269764095
 31
0.0
  0
LINE
  5
347
330
1F
100
AcDbEntity
  8
0
100
AcDbLine
 10
0.065404556
 20
-118.1698696283
 30
0.0
 11
0.065404556
 21
-113.8198696283
 31
0.0
  0
LINE
  5
348
330
1F
100
AcDbEntity
  8
0
100
AcDbLine
 10
0.065404556
 20
-188.8198696283
 30
0.0
 11
0.065404556
 21
-126.4698696283
 31
0.0
  0
LINE
  5
349
330
1F
100
AcDbEntity
  8
0
100
AcDbLine
 10
0.565404556
 20
-193.8198696283
 30
0.0
 11
0.065404556
 21
-193.8198696283
 31
0.0
  0
LINE
  5
34A
330
1F
100
AcDbEntity
  8
0
100
AcDbLine
 10
0.065404556
 20
-193.8198696283
 30
0.0
 11
0.065404556
 21
-188.8198696283
 31
0.0
  0
LINE
  5
34B
330
1F
100
AcDbEntity
  8
0
100
AcDbLine
 10
0.065404556
 20
-193.8198696283
 30
0.0
 11
-0.934595444
 21
-193.8198696283
 31
0.0
  0
LINE
  5
34C
330
1F
100
AcDbEntity
  8
0
100
AcDbLine
 10
0.065404556
 20
-113.8198696283
 30
0.0
 11
-0.934595444
 21
-113.8198696283
 31
0.0
  0
ARC
  5
34D
330
1F
100
AcDbEntity
  8
0
100
AcDbCircle
 10
-26.934595444
 20
-118.8198696283
 30
0.0
 40
4.999999999999893
100
AcDbArc
 50
90.0
 51
180.0
  0
LINE
  5
34E
330
1F
100
AcDbEntity
  8
0
100
AcDbLine
 10
-0.934595444
 20
-113.8198696283
 30
0.0
 11
-26.934595444
 21
-113.8198696283
 31
0.0
  0
LINE
  5
34F
330
1F
100
AcDbEntity
  8
0
100
AcDbLine
 10
-0.934595444
 20
-193.8198696283
 30
0.0
 11
-26.934595444
 21
-193.8198696283
 31
0.0
  0
ARC
  5
350
330
1F
100
AcDbEntity
  8
0
100
AcDbCircle
 10
-26.934595444
 20
-188.8198696283
 30
0.0
 40
5.000000000000004
100
AcDbArc
 50
180.0
 51
270.0
  0
LINE
  5
351
330
1F
100
AcDbEntity
  8
0
100
AcDbLine
 10
-31.934595444
 20
-188.8198696283
 30
0.0
 11
-31.934595444
 21
-118.8198696283
 31
0.0
  0
CIRCLE
  5
352
330
1F
100
AcDbEntity
  8
0
100
AcDbCircle
 10
-16.934595444
 20
-153.8198696283
 30
0.0
 40
6.25
  0
LINE
  5
353
330
1F
100
AcDbEntity
  8
0
100
AcDbLine
 10
404.065404556
 20
-113.8198696283
 30
0.0
 11
406.065404556
 21
-113.8198696283
 31
0.0
  0
LINE
  5
354
330
1F
100
AcDbEntity
  8
0
100
AcDbLine
 10
406.065404556
 20
-113.8198696283
 30
0.0
 11
406.065404556
 21
-118.1698696283
 31
0.0
  0
LINE
  5
355
330
1F
100
AcDbEntity
  8
0
100
AcDbLine
 10
404.065404556
 20
-113.9269764095
 30
0.0
 11
404.065404556
 21
-113.8198696283
 31
0.0
  0
LINE
  5
356
330
1F
100
AcDbEntity
  8
0
100
AcDbLine
 10
406.065404556
 20
-126.4698696283
 30
0.0
 11
406.065404556
 21
-142.6198696283
 31
0.0
  0
LINE
  5
357
330
1F
100
AcDbEntity
  8
0
100
AcDbLine
 10
406.065404556
 20
-113.8198696283
 30
0.0
 11
407.065404556
 21
-113.8198696283
 31
0.0
  0
LINE
  5
358
330
1F
100
AcDbEntity
  8
0
100
AcDbLine
 10
407.065404556
 20
-113.8198696283
 30
0.0
 11
433.065404556
 21
-113.8198696283
 31
0.0
  0
ARC
  5
359
330
1F
100
AcDbEntity
  8
0
100
AcDbCircle
 10
433.065404556
 20
-118.8198696283
 30
0.0
 40
5.0
100
AcDbArc
 50
360.0
 51
90.0
  0
LINE
  5
35A
330
1F
100
AcDbEntity
  8
0
100
AcDbLine
 10
438.065404556
 20
-118.8198696283
 30
0.0
 11
438.065404556
 21
-140.6198696283
 31
0.0
  0
LINE
  5
35B
330
1F
100
AcDbEntity
  8
0
100
AcDbLine
 10
3.065404556
 20
-520.7198696283
 30
0.0
 11
3.065404556
 21
-520.8198696283
 31
0.0
  0
LINE
  5
35C
330
1F
100
AcDbEntity
  8
0
100
AcDbLine
 10
1.665404556
 20
-519.8198696283
 30
0.0
 11
1.665404556
 21
-510.8198696283
 31
0.0
  0
LINE
  5
35D
330
1F
100
AcDbEntity
  8
0
100
AcDbLine
 10
403.065404556
 20
-520.8198696283
 30
0.0
 11
403.065404556
 21
-520.7198696283
 31
0.0
  0
LINE
  5
35E
330
1F
100
AcDbEntity
  8
0
100
AcDbLine
 10
404.465404556
 20
-510.8198701703
 30
0.0
 11
404.465404556
 21
-519.8198696283
 31
0.0
  0
LINE
  5
363
330
1F
100
AcDbEntity
  8
0
100
AcDbLine
 10
-19.7348029822
 20
-340.3850670616
 30
0.0
 11
-19.7348029822
 21
-452.5198696283
 31
0.0
  0
LINE
  5
364
330
1F
100
AcDbEntity
  8
0
100
AcDbLine
 10
-19.7348029822
 20
-329.1198696283
 30
0.0
 11
-19.7348029822
 21
-340.3850670616
 31
0.0
  0
LINE
  5
365
330
1F
100
AcDbEntity
  8
0
100
AcDbLine
 10
-4.6453045963
 20
-339.7311312098
 30
0.0
 11
-4.6453045963
 21
-453.3198696283
 31
0.0
  0
LINE
  5
366
330
1F
100
AcDbEntity
  8
0
100
AcDbLine
 10
-4.6453045963
 20
-328.3198696283
 30
0.0
 11
-4.6453045963
 21
-339.7311312098
 31
0.0
  0
LINE
  5
367
330
1F
100
AcDbEntity
  8
0
100
AcDbLine
 10
-7.2159710084
 20
-341.2024868763
 30
0.0
 11
-7.2159710084
 21
-451.5198696283
 31
0.0
  0
LINE
  5
368
330
1F
100
AcDbEntity
  8
0
100
AcDbLine
 10
-7.2159710084
 20
-330.1198696283
 30
0.0
 11
-7.2159710084
 21
-341.2024868763
 31
0.0
  0
LINE
  5
369
330
1F
100
AcDbEntity
  8
0
100
AcDbLine
 10
-20.034595444
 20
-339.7311312098
 30
0.0
 11
-20.034595444
 21
-453.3198696283
 31
0.0
  0
LINE
  5
36A
330
1F
100
AcDbEntity
  8
0
100
AcDbLine
 10
-20.034595444
 20
-328.3198696283
 30
0.0
 11
-20.034595444
 21
-339.7311312098
 31
0.0
  0
LINE
  5
36F
330
1F
100
AcDbEntity
  8
0
100
AcDbLine
 10
425.8656120942
 20
-409.1729218295
 30
0.0
 11
425.8656120942
 21
-329.1198696283
 31
0.0
  0
LINE
  5
370
330
1F
100
AcDbEntity
  8
0
100
AcDbLine
 10
425.8656120942
 20
-452.5198696283
 30
0.0
 11
425.8656120942
 21
-409.1729218295
 31
0.0
  0
LINE
  5
371
330
1F
100
AcDbEntity
  8
0
100
AcDbLine
 10
410.7761137082
 20
-409.4108868499
 30
0.0
 11
410.7761137082
 21
-328.3198696283
 31
0.0
  0
LINE
  5
372
330
1F
100
AcDbEntity
  8
0
100
AcDbLine
 10
410.7761137082
 20
-453.3198696283
 30
0.0
 11
410.7761137082
 21
-409.4108868499
 31
0.0
  0
LINE
  5
373
330
1F
100
AcDbEntity
  8
0
100
AcDbLine
 10
426.165404556
 20
-409.4108868499
 30
0.0
 11
426.165404556
 21
-328.3198696283
 31
0.0
  0
LINE
  5
374
330
1F
100
AcDbEntity
  8
0
100
AcDbLine
 10
426.165404556
 20
-453.3198696283
 30
0.0
 11
426.165404556
 21
-409.4108868499
 31
0.0
  0
LINE
  5
375
330
1F
100
AcDbEntity
  8
0
100
AcDbLine
 10
413.3467801203
 20
-408.8754655539
 30
0.0
 11
413.3467801203
 21
-330.1198696283
 31
0.0
  0
LINE
  5
376
330
1F
100
AcDbEntity
  8
0
100
AcDbLine
 10
413.3467801203
 20
-451.5198696283
 30
0.0
 11
413.3467801203
 21
-408.8754655539
 31
0.0
  0
LINE
  5
379
330
1F
100
AcDbEntity
  8
0
100
AcDbLine
 10
403.0057308457
 20
-520.8198696283
 30
0.0
 11
403.065404556
 21
-520.5198696283
 31
0.0
  0
LINE
  5
37A
330
1F
100
AcDbEntity
  8
0
100
AcDbLine
 10
3.065404556
 20
-520.5198696283
 30
0.0
 11
3.1250782662
 21
-520.8198696283
 31
0.0
  0
LINE
  5
37D
330
1F
100
AcDbEntity
  8
0
100
AcDbLine
 10
4.115404556
 20
-523.8198696283
 30
0.0
 11
4.115404556
 21
-523.8104578621
 31
0.0
  0
LINE
  5
37E
330
1F
100
AcDbEntity
  8
0
100
AcDbLine
 10
4.115404556
 20
-523.8198696283
 30
0.0
 11
4.265404556
 21
-523.8198696283
 31
0.0
  0
LINE
  5
37F
330
1F
100
AcDbEntity
  8
0
100
AcDbLine
 10
401.865404556
 20
-523.8198696283
 30
0.0
 11
402.015404556
 21
-523.8198696283
 31
0.0
  0
LINE
  5
380
330
1F
100
AcDbEntity
  8
0
100
AcDbLine
 10
402.015404556
 20
-523.8104578621
 30
0.0
 11
402.015404556
 21
-523.8198696283
 31
0.0
  0
ARC
  5
381
330
1F
100
AcDbEntity
  8
0
100
AcDbCircle
 10
402.015404556
 20
-522.7698696283
 30
0.0
 40
1.050000000000068
100
AcDbArc
 50
270.0
 51
3.959346968400001
  0
ARC
  5
384
330
1F
100
AcDbEntity
  8
0
100
AcDbCircle
 10
4.115404556
 20
-522.7698696283
 30
0.0
 40
1.050000000000068
100
AcDbArc
 50
176.0405123171
 51
270.0
  0
ARC
  5
388
330
1F
100
AcDbEntity
  8
0
100
AcDbCircle
 10
1077.0584113624
 20
398.6729267298
 30
0.0
 40
0.2000000000002728
100
AcDbArc
 50
121.6579514612
 51
180.0
  0
ARC
  5
389
330
1F
100
AcDbEntity
  8
0
100
AcDbCircle
 10
1092.6584113624
 20
398.6729267298
 30
0.0
 40
0.199999999999997
100
AcDbArc
 50
0.0
 51
58.34204853879999
  0
LINE
  5
38A
330
1F
100
AcDbEntity
  8
0
100
AcDbLine
 10
1092.8584113624
 20
398.5840818332
 30
0.0
 11
1092.8584113624
 21
398.6729267298
 31
0.0
  0
LINE
  5
38B
330
1F
100
AcDbEntity
  8
0
100
AcDbLine
 10
1076.8584113624
 20
398.6729267298
 30
0.0
 11
1076.8584113624
 21
398.5840818332
 31
0.0
  0
ARC
  5
38C
330
1F
100
AcDbEntity
  8
0
100
AcDbCircle
 10
1084.8594113624
 20
386.0245163984
 30
0.0
 40
15.0595654347826
100
AcDbArc
 50
58.34204853879999
 51
90.0
  0
ARC
  5
38D
330
1F
100
AcDbEntity
  8
0
100
AcDbCircle
 10
1084.8574113624
 20
386.0245163984
 30
0.0
 40
15.0595654347826
100
AcDbArc
 50
90.0
 51
121.6579514612
  0
LINE
  5
38E
330
1F
100
AcDbEntity
  8
0
100
AcDbLine
 10
1092.8584113624
 20
397.5840818332
 30
0.0
 11
1092.8584113624
 21
398.5840818332
 31
0.0
  0
LINE
  5
38F
330
1F
100
AcDbEntity
  8
0
100
AcDbLine
 10
1076.8584113624
 20
398.5840818332
 30
0.0
 11
1076.8584113624
 21
397.5840818332
 31
0.0
  0
LINE
  5
392
330
1F
100
AcDbEntity
  8
0
100
AcDbLine
 10
1090.3584113624
 20
343.5640818332
 30
0.0
 11
1090.3584113624
 21
343.9640818332
 31
0.0
  0
LINE
  5
393
330
1F
100
AcDbEntity
  8
0
100
AcDbLine
 10
1079.3584113624
 20
343.9640818332
 30
0.0
 11
1079.3584113624
 21
343.5640818332
 31
0.0
  0
ARC
  5
3AD
330
1F
100
AcDbEntity
  8
0
100
AcDbCircle
 10
728.2584113625
 20
328.3340818332
 30
0.0
 40
7.0
100
AcDbArc
 50
180.0
 51
270.0
  0
LINE
  5
3AE
330
1F
100
AcDbEntity
  8
0
100
AcDbLine
 10
721.2584113625
 20
337.8840818332
 30
0.0
 11
721.2584113625
 21
328.3340818332
 31
0.0
  0
LINE
  5
3AF
330
1F
100
AcDbEntity
  8
0
100
AcDbLine
 10
721.2584113625
 20
337.8840818332
 30
0.0
 11
719.9655181436
 21
337.8840818332
 31
0.0
  0
LINE
  5
3B0
330
1F
100
AcDbEntity
  8
0
100
AcDbLine
 10
719.9655181436
 20
337.8840818332
 30
0.0
 11
719.9655181436
 21
345.0840818332
 31
0.0
  0
LINE
  5
3B1
330
1F
100
AcDbEntity
  8
0
100
AcDbLine
 10
801.2584113625
 20
345.0840818332
 30
0.0
 11
801.2584113625
 21
337.8840818332
 31
0.0
  0
LINE
  5
3B2
330
1F
100
AcDbEntity
  8
0
100
AcDbLine
 10
801.2584113625
 20
337.8840818332
 30
0.0
 11
741.8220438056
 21
337.8840818332
 31
0.0
  0
LINE
  5
3B3
330
1F
100
AcDbEntity
  8
0
100
AcDbLine
 10
735.6777977261
 20
325.7258152777
 30
0.0
 11
741.8220438056
 21
337.8840818332
 31
0.0
  0
ARC
  5
3B4
330
1F
100
AcDbEntity
  8
0
100
AcDbCircle
 10
728.537740831
 20
329.3340818332
 30
0.0
 40
8.000000000000096
100
AcDbArc
 50
270.0
 51
333.19
  0
LINE
  5
3B5
330
1F
100
AcDbEntity
  8
0
100
AcDbLine
 10
728.2584113625
 20
321.3340818332
 30
0.0
 11
728.537740831
 21
321.3340818332
 31
0.0
  0
CIRCLE
  5
3B6
330
1F
100
AcDbEntity
  8
0
100
AcDbCircle
 10
728.3584113625
 20
328.7640818332
 30
0.0
 40
4.25
  0
SPLINE
  5
3B7
330
1F
100
AcDbEntity
  8
0
100
AcDbSpline
210
0.0
220
0.0
230
1.0
 70
     8
 71
     3
 72
    11
 73
     7
 74
     0
 42
0.000000001
 43
0.00000001
 40
0.0
 40
0.0
 40
0.0
 40
0.0
 40
0.2499999999999958
 40
0.499999999999997
 40
0.7499999999999988
 40
1.0
 40
1.0
 40
1.0
 40
1.0
 10
719.9655181436381
 20
345.0840818331955
 30
0.0
 10
719.9899259118725
 20
345.4116744427112
 30
0.0
 10
720.0387414483414
 20
346.0668596617425
 30
0.0
 10
720.1119647530448
 20
346.8932220044845
 30
0.0
 10
720.1851880577481
 20
347.4713450372907
 30
0.0
 10
720.234003594217
 20
347.5465029012273
 30
0.0
 10
720.2584113624515
 20
347.5840818331956
 30
0.0
  0
LINE
  5
3B8
330
1F
100
AcDbEntity
  8
0
100
AcDbLine
 10
720.2584113625
 20
347.5840818332
 30
0.0
 11
801.2584113625
 21
347.5840818332
 31
0.0
  0
LINE
  5
3B9
330
1F
100
AcDbEntity
  8
0
100
AcDbLine
 10
801.2584113625
 20
347.5840818332
 30
0.0
 11
801.2584113625
 21
345.0840818332
 31
0.0
  0
SPLINE
  5
3BA
330
1F
100
AcDbEntity
  8
0
100
AcDbSpline
210
0.0
220
0.0
230
1.0
 70
     8
 71
     3
 72
    11
 73
     7
 74
     0
 42
0.000000001
 43
0.00000001
 40
0.0
 40
0.0
 40
0.0
 40
0.0
 40
0.2499999999999953
 40
0.4999999999999969
 40
0.7499999999999984
 40
1.0
 40
1.0
 40
1.0
 40
1.0
 10
720.2584113624515
 20
347.5840818331956
 30
0.0
 10
719.9308187529359
 20
347.5465029012273
 30
0.0
 10
719.2756335339047
 20
347.4713450372906
 30
0.0
 10
718.4492711911624
 20
346.8932220044846
 30
0.0
 10
717.8711481583564
 20
346.0668596617423
 30
0.0
 10
717.7959902944199
 20
345.4116744427112
 30
0.0
 10
717.7584113624515
 20
345.0840818331955
 30
0.0
  0
SPLINE
  5
3BB
330
1F
100
AcDbEntity
  8
0
100
AcDbSpline
210
0.0
220
0.0
230
1.0
 70
     8
 71
     3
 72
    11
 73
     7
 74
     0
 42
0.000000001
 43
0.00000001
 40
0.0
 40
0.0
 40
0.0
 40
0.0
 40
0.1243158762668452
 40
0.4162105841778843
 40
0.7081052920889511
 40
1.0
 40
1.0
 40
1.0
 40
1.0
 10
720.0387100772028
 20
346.0403805304304
 30
0.0
 10
719.983472185927
 20
346.0322831982025
 30
0.0
 10
719.7985352680762
 20
346.0051732627861
 30
0.0
 10
719.5359903867646
 20
345.8040631044179
 30
0.0
 10
719.3031973076063
 20
345.4781116639376
 30
0.0
 10
719.2733400108365
 20
345.2154251101095
 30
0.0
 10
719.2584113624515
 20
345.0840818331955
 30
0.0
  0
LINE
  5
3BC
330
1F
100
AcDbEntity
  8
0
100
AcDbLine
 10
717.7584113625
 20
345.0840818332
 30
0.0
 11
719.2584113625
 21
345.0840818332
 31
0.0
  0
LINE
  5
3BD
330
1F
100
AcDbEntity
  8
0
100
AcDbLine
 10
717.7584113625
 20
337.8840818332
 30
0.0
 11
717.7584113625
 21
345.0840818332
 31
0.0
  0
LINE
  5
3BE
330
1F
100
AcDbEntity
  8
0
100
AcDbLine
 10
719.2584113625
 20
345.0840818332
 30
0.0
 11
719.2584113625
 21
337.8840818332
 31
0.0
  0
LINE
  5
3BF
330
1F
100
AcDbEntity
  8
0
100
AcDbLine
 10
719.2584113625
 20
337.8840818332
 30
0.0
 11
717.7584113625
 21
337.8840818332
 31
0.0
  0
SPLINE
  5
3C0
330
1F
100
AcDbEntity
  8
0
100
AcDbSpline
210
0.0
220
0.0
230
1.0
 70
     8
 71
     3
 72
    11
 73
     7
 74
     0
 42
0.000000001
 43
0.00000001
 40
0.0
 40
0.0
 40
0.0
 40
0.0
 40
0.2499999999999481
 40
0.4999999999999413
 40
0.749999999999955
 40
1.0
 40
1.0
 40
1.0
 40
1.0
 10
720.2584113624531
 20
346.0840818331977
 30
0.0
 10
720.2340035942186
 20
346.0690502604103
 30
0.0
 10
720.1851880577497
 20
346.0389871148358
 30
0.0
 10
720.1119647530463
 20
345.8077379017135
 30
0.0
 10
720.038741448343
 20
345.4771929646164
 30
0.0
 10
719.9899259118739
 20
345.2151188770039
 30
0.0
 10
719.9655181436395
 20
345.0840818331977
 30
0.0
  0
LINE
  5
3C5
330
1F
100
AcDbEntity
  8
0
100
AcDbLine
 10
1089.2339644713
 20
398.5840818332
 30
0.0
 11
1092.8584113624
 21
398.5840818332
 31
0.0
  0
LINE
  5
3C6
330
1F
100
AcDbEntity
  8
0
100
AcDbLine
 10
1076.8584113624
 20
398.5840818332
 30
0.0
 11
1089.2339644713
 21
398.5840818332
 31
0.0
  0
LINE
  5
3C7
330
1F
100
AcDbEntity
  8
0
100
AcDbLine
 10
1084.8594113624
 20
401.0840818332
 30
0.0
 11
1084.8574113624
 21
401.0840818332
 31
0.0
  0
LINE
  5
3C8
330
1F
100
AcDbEntity
  8
0
100
AcDbLine
 10
1092.8584113625
 20
398.5840818332
 30
0.0
 11
1076.8584113625
 21
398.5840818332
 31
0.0
  0
LINE
  5
3C9
330
1F
100
AcDbEntity
  8
0
100
AcDbLine
 10
721.2584113625
 20
347.5840818332
 30
0.0
 11
721.2584113625
 21
348.2840818332
 31
0.0
  0
LINE
  5
3CA
330
1F
100
AcDbEntity
  8
0
100
AcDbLine
 10
1123.8584113625
 20
348.2840818332
 30
0.0
 11
726.2584113625
 21
348.2840818332
 31
0.0
  0
LINE
  5
3CB
330
1F
100
AcDbEntity
  8
0
100
AcDbLine
 10
1123.8584113625
 20
347.5840818332
 30
0.0
 11
801.2584113625
 21
347.5840818332
 31
0.0
  0
LINE
  5
3CC
330
1F
100
AcDbEntity
  8
0
100
AcDbLine
 10
1128.8584113625
 20
348.2840818332
 30
0.0
 11
1128.8584113625
 21
347.5840818332
 31
0.0
  0
LINE
  5
3CD
330
1F
100
AcDbEntity
  8
0
100
AcDbLine
 10
1128.6584113625
 20
348.2840818332
 30
0.0
 11
1128.8584113625
 21
348.2840818332
 31
0.0
  0
LINE
  5
3CE
330
1F
100
AcDbEntity
  8
0
100
AcDbLine
 10
1128.8584113625
 20
347.5840818332
 30
0.0
 11
1123.8584113625
 21
347.5840818332
 31
0.0
  0
LINE
  5
3D1
330
1F
100
AcDbEntity
  8
0
100
AcDbLine
 10
719.8584113625
 20
349.4840818332
 30
0.0
 11
719.8584113625
 21
367.5840818332
 31
0.0
  0
LINE
  5
3DA
330
1F
100
AcDbEntity
  8
0
100
AcDbLine
 10
1129.8584113625
 20
367.5840818332
 30
0.0
 11
1129.8584113625
 21
349.4840818332
 31
0.0
  0
LINE
  5
3E3
330
1F
100
AcDbEntity
  8
0
100
AcDbLine
 10
1099.8584113625
 20
397.5840818332
 30
0.0
 11
749.8584113625
 21
397.5840818332
 31
0.0
  0
LINE
  5
3E5
330
1F
100
AcDbEntity
  8
0
100
AcDbLine
 10
723.8169900062
 20
348.2840818332
 30
0.0
 11
1125.8998327187
 21
348.2840818332
 31
0.0
  0
LINE
  5
3E8
330
1F
100
AcDbEntity
  8
0
100
AcDbLine
 10
1128.6584113625
 20
348.2840818332
 30
0.0
 11
1125.8998327187
 21
348.2840818332
 31
0.0
  0
SPLINE
  5
3EA
330
1F
100
AcDbEntity
  8
0
100
AcDbSpline
210
0.0
220
0.0
230
1.0
 70
     8
 71
     3
 72
    11
 73
     7
 74
     0
 42
0.000000001
 43
0.00000001
 40
0.0
 40
0.0
 40
0.0
 40
0.0
 40
0.2499998720723701
 40
0.4999999147149126
 40
0.7499999573574551
 40
0.9999999999999999
 40
0.9999999999999999
 40
0.9999999999999999
 40
0.9999999999999999
 10
1128.658411687954
 20
348.2840817995222
 30
0.0
 10
1128.815656031177
 20
348.3021197053361
 30
0.0
 10
1129.13014482491
 20
348.3381955292708
 30
0.0
 10
1129.526798668687
 20
348.6156945257851
 30
0.0
 10
1129.804297732656
 20
349.012348462459
 30
0.0
 10
1129.8403735083
 20
349.3268373762809
 30
0.0
 10
1129.858411396122
 20
349.4840818331918
 30
0.0
  0
SPLINE
  5
3EE
330
1F
100
AcDbEntity
  8
0
100
AcDbSpline
210
0.0
220
0.0
230
1.0
 70
     8
 71
     3
 72
    11
 73
     7
 74
     0
 42
0.000000001
 43
0.00000001
 40
0.0
 40
0.0
 40
0.0
 40
0.0
 40
0.2499999999999077
 40
0.499999999999907
 40
0.7499999999999337
 40
1.0
 40
1.0
 40
1.0
 40
1.0
 10
719.8584113287819
 20
349.4840818331928
 30
0.0
 10
719.876449209943
 20
349.3268374047947
 30
0.0
 10
719.9125249722654
 20
349.0123485479987
 30
0.0
 10
720.190023939608
 20
348.6156946581202
 30
0.0
 10
720.5866777503103
 20
348.3381955776034
 30
0.0
 10
720.9011665968131
 20
348.3021197255507
 30
0.0
 10
721.0584110200647
 20
348.2840817995243
 30
0.0
  0
LINE
  5
3F0
330
1F
100
AcDbEntity
  8
0
100
AcDbLine
 10
721.0584113625
 20
348.2840818332
 30
0.0
 11
723.8169900062
 21
348.2840818332
 31
0.0
  0
ARC
  5
3F1
330
1F
100
AcDbEntity
  8
0
100
AcDbCircle
 10
749.8584113625
 20
367.5840818332
 30
0.0
 40
30.0
100
AcDbArc
 50
90.0
 51
180.0
  0
ARC
  5
3F3
330
1F
100
AcDbEntity
  8
0
100
AcDbCircle
 10
1099.8584113625
 20
367.5840818332
 30
0.0
 40
30.00000000000023
100
AcDbArc
 50
0.0
 51
90.0
  0
LINE
  5
3FD
330
1F
100
AcDbEntity
  8
0
100
AcDbLine
 10
726.0490102857
 20
328.7640818332
 30
0.0
 11
727.2037108241
 21
326.7640818332
 31
0.0
  0
LINE
  5
3FE
330
1F
100
AcDbEntity
  8
0
100
AcDbLine
 10
727.2037108241
 20
326.7640818332
 30
0.0
 11
729.5131119008
 21
326.7640818332
 31
0.0
  0
LINE
  5
3FF
330
1F
100
AcDbEntity
  8
0
100
AcDbLine
 10
729.5131119008
 20
326.7640818332
 30
0.0
 11
730.6678124392
 21
328.7640818332
 31
0.0
  0
LINE
  5
400
330
1F
100
AcDbEntity
  8
0
100
AcDbLine
 10
730.6678124392
 20
328.7640818332
 30
0.0
 11
729.5131119008
 21
330.7640818332
 31
0.0
  0
LINE
  5
401
330
1F
100
AcDbEntity
  8
0
100
AcDbLine
 10
729.5131119008
 20
330.7640818332
 30
0.0
 11
727.2037108241
 21
330.7640818332
 31
0.0
  0
LINE
  5
402
330
1F
100
AcDbEntity
  8
0
100
AcDbLine
 10
727.2037108241
 20
330.7640818332
 30
0.0
 11
726.0490102857
 21
328.7640818332
 31
0.0
  0
CIRCLE
  5
403
330
1F
100
AcDbEntity
  8
0
100
AcDbCircle
 10
728.3584113624
 20
328.7640818332
 30
0.0
 40
3.650000000000034
  0
CIRCLE
  5
404
330
1F
100
AcDbEntity
  8
0
100
AcDbCircle
 10
728.3584113624
 20
328.7640818332
 30
0.0
 40
4.149999999999977
  0
LINE
  5
499
330
1F
100
AcDbEntity
  8
0
100
AcDbLine
 10
1124.8584113624
 20
98.0640818332
 30
0.0
 11
1054.8584113624
 21
98.0640818332
 31
0.0
  0
LINE
  5
49A
330
1F
100
AcDbEntity
  8
0
100
AcDbLine
 10
1124.8584113624
 20
96.0640818332
 30
0.0
 11
1054.8584113624
 21
96.0640818332
 31
0.0
  0
LINE
  5
49B
330
1F
100
AcDbEntity
  8
0
100
AcDbLine
 10
1049.8584113624
 20
96.0640818332
 30
0.0
 11
1049.8584113624
 21
98.0640818332
 31
0.0
  0
LINE
  5
49C
330
1F
100
AcDbEntity
  8
0
100
AcDbLine
 10
1049.8584113624
 20
98.0640818332
 30
0.0
 11
1054.8584113624
 21
98.0640818332
 31
0.0
  0
LINE
  5
49D
330
1F
100
AcDbEntity
  8
0
100
AcDbLine
 10
1054.8584113624
 20
96.0640818332
 30
0.0
 11
1049.8584113624
 21
96.0640818332
 31
0.0
  0
LINE
  5
49E
330
1F
100
AcDbEntity
  8
0
100
AcDbLine
 10
1129.8584113624
 20
98.0640818332
 30
0.0
 11
1129.8584113624
 21
96.0640818332
 31
0.0
  0
LINE
  5
49F
330
1F
100
AcDbEntity
  8
0
100
AcDbLine
 10
1124.8584113624
 20
98.0640818332
 30
0.0
 11
1129.8584113624
 21
98.0640818332
 31
0.0
  0
LINE
  5
4A0
330
1F
100
AcDbEntity
  8
0
100
AcDbLine
 10
1129.8584113624
 20
96.0640818332
 30
0.0
 11
1124.8584113624
 21
96.0640818332
 31
0.0
  0
LINE
  5
4A1
330
1F
100
AcDbEntity
  8
0
100
AcDbLine
 10
1129.8584113624
 20
99.0640818332
 30
0.0
 11
1129.8584113624
 21
98.0640818332
 31
0.0
  0
LINE
  5
4A2
330
1F
100
AcDbEntity
  8
0
100
AcDbLine
 10
1049.8584113624
 20
99.0640818332
 30
0.0
 11
1049.8584113624
 21
98.0640818332
 31
0.0
  0
LINE
  5
4A3
330
1F
100
AcDbEntity
  8
0
100
AcDbLine
 10
1049.8584113624
 20
111.0640818332
 30
0.0
 11
1049.8584113624
 21
99.0640818332
 31
0.0
  0
ARC
  5
4A4
330
1F
100
AcDbEntity
  8
0
100
AcDbCircle
 10
1054.8584113624
 20
111.0640818332
 30
0.0
 40
4.999999999999943
100
AcDbArc
 50
90.0
 51
180.0
  0
LINE
  5
4A5
330
1F
100
AcDbEntity
  8
0
100
AcDbLine
 10
1124.8584113624
 20
116.0640818332
 30
0.0
 11
1054.8584113624
 21
116.0640818332
 31
0.0
  0
ARC
  5
4A6
330
1F
100
AcDbEntity
  8
0
100
AcDbCircle
 10
1124.8584113624
 20
111.0640818332
 30
0.0
 40
4.999999999999773
100
AcDbArc
 50
0.0
 51
90.0
  0
LINE
  5
4A7
330
1F
100
AcDbEntity
  8
0
100
AcDbLine
 10
1129.8584113624
 20
111.0640818332
 30
0.0
 11
1129.8584113624
 21
99.0640818332
 31
0.0
  0
LINE
  5
4A8
330
1F
100
AcDbEntity
  8
0
100
AcDbLine
 10
794.8584113625
 20
98.0640818332
 30
0.0
 11
724.8584113625
 21
98.0640818332
 31
0.0
  0
LINE
  5
4A9
330
1F
100
AcDbEntity
  8
0
100
AcDbLine
 10
794.8584113625
 20
96.0640818332
 30
0.0
 11
724.8584113625
 21
96.0640818332
 31
0.0
  0
LINE
  5
4AA
330
1F
100
AcDbEntity
  8
0
100
AcDbLine
 10
719.8584113625
 20
96.0640818332
 30
0.0
 11
719.8584113625
 21
98.0640818332
 31
0.0
  0
LINE
  5
4AB
330
1F
100
AcDbEntity
  8
0
100
AcDbLine
 10
719.8584113625
 20
98.0640818332
 30
0.0
 11
724.8584113625
 21
98.0640818332
 31
0.0
  0
LINE
  5
4AC
330
1F
100
AcDbEntity
  8
0
100
AcDbLine
 10
724.8584113625
 20
96.0640818332
 30
0.0
 11
719.8584113625
 21
96.0640818332
 31
0.0
  0
LINE
  5
4AD
330
1F
100
AcDbEntity
  8
0
100
AcDbLine
 10
799.8584113625
 20
98.0640818332
 30
0.0
 11
799.8584113625
 21
96.0640818332
 31
0.0
  0
LINE
  5
4AE
330
1F
100
AcDbEntity
  8
0
100
AcDbLine
 10
794.8584113625
 20
98.0640818332
 30
0.0
 11
799.8584113625
 21
98.0640818332
 31
0.0
  0
LINE
  5
4AF
330
1F
100
AcDbEntity
  8
0
100
AcDbLine
 10
799.8584113625
 20
96.0640818332
 30
0.0
 11
794.8584113625
 21
96.0640818332
 31
0.0
  0
LINE
  5
4B0
330
1F
100
AcDbEntity
  8
0
100
AcDbLine
 10
799.8584113625
 20
99.0640818332
 30
0.0
 11
799.8584113625
 21
98.0640818332
 31
0.0
  0
LINE
  5
4B1
330
1F
100
AcDbEntity
  8
0
100
AcDbLine
 10
719.8584113625
 20
99.0640818332
 30
0.0
 11
719.8584113625
 21
98.0640818332
 31
0.0
  0
LINE
  5
4B2
330
1F
100
AcDbEntity
  8
0
100
AcDbLine
 10
719.8584113625
 20
111.0640818332
 30
0.0
 11
719.8584113625
 21
99.0640818332
 31
0.0
  0
ARC
  5
4B3
330
1F
100
AcDbEntity
  8
0
100
AcDbCircle
 10
724.8584113625
 20
111.0640818332
 30
0.0
 40
4.999999999999943
100
AcDbArc
 50
90.0
 51
180.0
  0
LINE
  5
4B4
330
1F
100
AcDbEntity
  8
0
100
AcDbLine
 10
794.8584113625
 20
116.0640818332
 30
0.0
 11
724.8584113625
 21
116.0640818332
 31
0.0
  0
ARC
  5
4B5
330
1F
100
AcDbEntity
  8
0
100
AcDbCircle
 10
794.8584113625
 20
111.0640818332
 30
0.0
 40
5.0
100
AcDbArc
 50
0.0
 51
90.0
  0
LINE
  5
4B6
330
1F
100
AcDbEntity
  8
0
100
AcDbLine
 10
799.8584113625
 20
111.0640818332
 30
0.0
 11
799.8584113625
 21
99.0640818332
 31
0.0
  0
CIRCLE
  5
4B9
330
1F
100
AcDbEntity
  8
0
100
AcDbCircle
 10
996.8584113624
 20
267.5140818332
 30
0.0
 40
60.00000000000006
  0
CIRCLE
  5
4BA
330
1F
100
AcDbEntity
  8
0
100
AcDbCircle
 10
996.8584113624
 20
267.5140818332
 30
0.0
 40
62.50000000000004
  0
CIRCLE
  5
4BC
330
1F
100
AcDbEntity
  8
0
100
AcDbCircle
 10
996.8584113624
 20
267.5140818332
 30
0.0
 40
59.50000000000004
  0
LINE
  5
4C6
330
1F
100
AcDbEntity
  8
0
100
AcDbLine
 10
801.2584113625
 20
342.8640818332
 30
0.0
 11
986.6228689988
 21
342.8640818332
 31
0.0
  0
LINE
  5
4C7
330
1F
100
AcDbEntity
  8
0
100
AcDbLine
 10
986.6228689988
 20
342.8640818332
 30
0.0
 11
1082.4428867843
 21
342.8640818332
 31
0.0
  0
LINE
  5
4CC
330
1F
100
AcDbEntity
  8
0
100
AcDbLine
 10
1129.8584113624
 20
111.0640818332
 30
0.0
 11
1129.8584113624
 21
342.3640818332
 31
0.0
  0
LINE
  5
4CD
330
1F
100
AcDbEntity
  8
0
100
AcDbLine
 10
1083.6584113624
 20
342.8640818332
 30
0.0
 11
1082.4428867843
 21
342.8640818332
 31
0.0
  0
LINE
  5
4CE
330
1F
100
AcDbEntity
  8
0
100
AcDbLine
 10
1078.6584113624
 20
342.8640818332
 30
0.0
 11
1078.6584113624
 21
343.5640818332
 31
0.0
  0
LINE
  5
4CF
330
1F
100
AcDbEntity
  8
0
100
AcDbLine
 10
1078.6584113624
 20
343.5640818332
 30
0.0
 11
1083.6584113624
 21
343.5640818332
 31
0.0
  0
LINE
  5
4D1
330
1F
100
AcDbEntity
  8
0
100
AcDbLine
 10
1083.6584113624
 20
343.5640818332
 30
0.0
 11
1128.6584113624
 21
343.5640818332
 31
0.0
  0
ARC
  5
4D2
330
1F
100
AcDbEntity
  8
0
100
AcDbCircle
 10
1128.6584113624
 20
342.3640818332
 30
0.0
 40
1.199999999999932
100
AcDbArc
 50
0.0
 51
90.0
  0
LINE
  5
4D4
330
1F
100
AcDbEntity
  8
0
100
AcDbLine
 10
719.8584113624
 20
342.3640818332
 30
0.0
 11
719.9655181436
 21
342.3640818332
 31
0.0
  0
LINE
  5
4D6
330
1F
100
AcDbEntity
  8
0
100
AcDbLine
 10
719.8584113624
 20
342.3640818332
 30
0.0
 11
719.8584113624
 21
111.0640818332
 31
0.0
  0
ARC
  5
4D7
330
1F
100
AcDbEntity
  8
0
100
AcDbCircle
 10
721.0584113624
 20
342.3640818332
 30
0.0
 40
1.200000000000045
100
AcDbArc
 50
155.6084185518
 51
180.0
  0
LINE
  5
4D9
330
1F
100
AcDbEntity
  8
0
100
AcDbLine
 10
799.8584113624
 20
97.5640818332
 30
0.0
 11
1049.8584113624
 21
97.5640818332
 31
0.0
  0
LINE
  5
4E4
330
1F
100
AcDbEntity
  8
0
100
AcDbLine
 10
-591.3641125034
 20
398.5840818332
 30
0.0
 11
-591.3641125034
 21
398.6729267298
 31
0.0
  0
LINE
  5
4E5
330
1F
100
AcDbEntity
  8
0
100
AcDbLine
 10
-607.3641125034
 20
398.6729267298
 30
0.0
 11
-607.3641125034
 21
398.5840818332
 31
0.0
  0
ARC
  5
4E6
330
1F
100
AcDbEntity
  8
0
100
AcDbCircle
 10
-607.1641125034
 20
398.6729267298
 30
0.0
 40
0.2000000000001164
100
AcDbArc
 50
121.6579514612
 51
180.0
  0
ARC
  5
4E7
330
1F
100
AcDbEntity
  8
0
100
AcDbCircle
 10
-591.5641125034
 20
398.6729267298
 30
0.0
 40
0.199999999999997
100
AcDbArc
 50
0.0
 51
58.34204853879999
  0
ARC
  5
4E8
330
1F
100
AcDbEntity
  8
0
100
AcDbCircle
 10
-599.3631125034
 20
386.0245163984
 30
0.0
 40
15.0595654347826
100
AcDbArc
 50
58.34204853879999
 51
90.0
  0
ARC
  5
4E9
330
1F
100
AcDbEntity
  8
0
100
AcDbCircle
 10
-599.3651125034
 20
386.0245163984
 30
0.0
 40
15.05956543478261
100
AcDbArc
 50
90.0
 51
121.6579514612
  0
LINE
  5
4EA
330
1F
100
AcDbEntity
  8
0
100
AcDbLine
 10
-591.3641125034
 20
397.5840818332
 30
0.0
 11
-591.3641125034
 21
398.5840818332
 31
0.0
  0
LINE
  5
4EB
330
1F
100
AcDbEntity
  8
0
100
AcDbLine
 10
-607.3641125034
 20
398.5840818332
 30
0.0
 11
-607.3641125034
 21
397.5840818332
 31
0.0
  0
ARC
  5
544
330
1F
100
AcDbEntity
  8
0
100
AcDbCircle
 10
-270.1641125034
 20
259.8640818332
 30
0.0
 40
9.000000000000028
100
AcDbArc
 50
270.0
 51
0.0
  0
ARC
  5
545
330
1F
100
AcDbEntity
  8
0
100
AcDbCircle
 10
-270.1641125034
 20
325.8640818332
 30
0.0
 40
9.0
100
AcDbArc
 50
0.0
 51
90.0
  0
LINE
  5
546
330
1F
100
AcDbEntity
  8
0
100
AcDbLine
 10
-308.1641125034
 20
327.8640818332
 30
0.0
 11
-308.1641125034
 21
257.8640818332
 31
0.0
  0
LINE
  5
547
330
1F
100
AcDbEntity
  8
0
100
AcDbLine
 10
-308.1641125034
 20
257.8640818332
 30
0.0
 11
-298.1641125034
 21
257.8640818332
 31
0.0
  0
LINE
  5
548
330
1F
100
AcDbEntity
  8
0
100
AcDbLine
 10
-298.1641125034
 20
257.8640818332
 30
0.0
 11
-298.1641125034
 21
327.8640818332
 31
0.0
  0
LINE
  5
549
330
1F
100
AcDbEntity
  8
0
100
AcDbLine
 10
-298.1641125034
 20
327.8640818332
 30
0.0
 11
-308.1641125034
 21
327.8640818332
 31
0.0
  0
LINE
  5
54A
330
1F
100
AcDbEntity
  8
0
100
AcDbLine
 10
-261.1641125034
 20
325.8640818332
 30
0.0
 11
-261.1641125034
 21
259.8640818332
 31
0.0
  0
LINE
  5
54B
330
1F
100
AcDbEntity
  8
0
100
AcDbLine
 10
-336.1641125034
 20
334.8640818332
 30
0.0
 11
-270.1641125034
 21
334.8640818332
 31
0.0
  0
LINE
  5
54C
330
1F
100
AcDbEntity
  8
0
100
AcDbLine
 10
-270.1641125034
 20
250.8640818332
 30
0.0
 11
-336.1641125034
 21
250.8640818332
 31
0.0
  0
ARC
  5
54D
330
1F
100
AcDbEntity
  8
0
100
AcDbCircle
 10
-336.1641125034
 20
325.8640818332
 30
0.0
 40
9.0
100
AcDbArc
 50
90.0
 51
180.0
  0
ARC
  5
54E
330
1F
100
AcDbEntity
  8
0
100
AcDbCircle
 10
-336.1641125034
 20
259.8640818332
 30
0.0
 40
9.000000000000028
100
AcDbArc
 50
180.0
 51
270.0
  0
LINE
  5
54F
330
1F
100
AcDbEntity
  8
0
100
AcDbLine
 10
-345.1641125034
 20
259.8640818332
 30
0.0
 11
-345.1641125034
 21
325.8640818332
 31
0.0
  0
SPLINE
  5
551
330
1F
100
AcDbEntity
  8
0
100
AcDbSpline
210
0.0
220
0.0
230
1.0
 70
     8
 71
     3
 72
    11
 73
     7
 74
     0
 42
0.000000001
 43
0.00000001
 40
0.0
 40
0.0
 40
0.0
 40
0.0
 40
0.2499999999999816
 40
0.5000000000000018
 40
0.749999999999995
 40
0.9999999999999999
 40
0.9999999999999999
 40
0.9999999999999999
 40
0.9999999999999999
 10
-234.4712192845743
 20
345.0840818331955
 30
0.0
 10
-234.4956270528087
 20
345.2151188770017
 30
0.0
 10
-234.5444425892777
 20
345.4771929646142
 30
0.0
 10
-234.617665893981
 20
345.8077379017113
 30
0.0
 10
-234.6908891986844
 20
346.0389871148335
 30
0.0
 10
-234.7397047351533
 20
346.0690502604082
 30
0.0
 10
-234.7641125033877
 20
346.0840818331955
 30
0.0
  0
LINE
  5
552
330
1F
100
AcDbEntity
  8
0
100
AcDbLine
 10
-315.7641125034
 20
337.8840818332
 30
0.0
 11
-256.3277449465
 21
337.8840818332
 31
0.0
  0
LINE
  5
553
330
1F
100
AcDbEntity
  8
0
100
AcDbLine
 10
-315.7641125034
 20
345.0840818332
 30
0.0
 11
-315.7641125034
 21
337.8840818332
 31
0.0
  0
LINE
  5
554
330
1F
100
AcDbEntity
  8
0
100
AcDbLine
 10
-234.4712192846
 20
337.8840818332
 30
0.0
 11
-234.4712192846
 21
345.0840818332
 31
0.0
  0
LINE
  5
555
330
1F
100
AcDbEntity
  8
0
100
AcDbLine
 10
-235.7641125034
 20
337.8840818332
 30
0.0
 11
-234.4712192846
 21
337.8840818332
 31
0.0
  0
LINE
  5
556
330
1F
100
AcDbEntity
  8
0
100
AcDbLine
 10
-235.7641125034
 20
328.3340818332
 30
0.0
 11
-235.7641125034
 21
337.8840818332
 31
0.0
  0
ARC
  5
557
330
1F
100
AcDbEntity
  8
0
100
AcDbCircle
 10
-242.7641125034
 20
328.3340818332
 30
0.0
 40
7.0
100
AcDbArc
 50
270.0
 51
0.0
  0
LINE
  5
558
330
1F
100
AcDbEntity
  8
0
100
AcDbLine
 10
-243.043441972
 20
321.3340818332
 30
0.0
 11
-242.7641125034
 21
321.3340818332
 31
0.0
  0
ARC
  5
559
330
1F
100
AcDbEntity
  8
0
100
AcDbCircle
 10
-243.043441972
 20
329.3340818332
 30
0.0
 40
7.999999999999941
100
AcDbArc
 50
206.81
 51
270.0
  0
LINE
  5
55A
330
1F
100
AcDbEntity
  8
0
100
AcDbLine
 10
-256.3277449465
 20
337.8840818332
 30
0.0
 11
-250.183498867
 21
325.7258152777
 31
0.0
  0
ARC
  5
55B
330
1F
100
AcDbEntity
  8
0
100
AcDbCircle
 10
-242.8641125034
 20
328.7640818332
 30
0.0
 40
4.25
100
AcDbArc
 50
0.0
 51
266.2149477456
  0
ARC
  5
55C
330
1F
100
AcDbEntity
  8
0
100
AcDbCircle
 10
-242.8641125034
 20
328.7640818332
 30
0.0
 40
4.25
100
AcDbArc
 50
289.2198041391999
 51
0.0
  0
SPLINE
  5
55D
330
1F
100
AcDbEntity
  8
0
100
AcDbSpline
210
0.0
220
0.0
230
1.0
 70
     8
 71
     3
 72
    11
 73
     7
 74
     0
 42
0.000000001
 43
0.00000001
 40
0.0
 40
0.0
 40
0.0
 40
0.0
 40
0.2499999999999785
 40
0.4999999999999699
 40
0.7499999999999613
 40
1.0
 40
1.0
 40
1.0
 40
1.0
 10
-234.7641125033892
 20
347.5840818331978
 30
0.0
 10
-234.7397047351548
 20
347.5465029012295
 30
0.0
 10
-234.6908891986859
 20
347.4713450372929
 30
0.0
 10
-234.6176658939825
 20
346.8932220044869
 30
0.0
 10
-234.5444425892791
 20
346.0668596617447
 30
0.0
 10
-234.4956270528101
 20
345.4116744427135
 30
0.0
 10
-234.4712192845757
 20
345.0840818331977
 30
0.0
  0
LINE
  5
55E
330
1F
100
AcDbEntity
  8
0
100
AcDbLine
 10
-315.7641125034
 20
345.0840818332
 30
0.0
 11
-315.7641125034
 21
347.5840818332
 31
0.0
  0
LINE
  5
55F
330
1F
100
AcDbEntity
  8
0
100
AcDbLine
 10
-315.7641125034
 20
347.5840818332
 30
0.0
 11
-234.7641125034
 21
347.5840818332
 31
0.0
  0
LINE
  5
560
330
1F
100
AcDbEntity
  8
0
100
AcDbLine
 10
-233.7641125034
 20
345.0840818332
 30
0.0
 11
-233.7641125034
 21
337.8840818332
 31
0.0
  0
LINE
  5
561
330
1F
100
AcDbEntity
  8
0
100
AcDbLine
 10
-232.2641125034
 20
345.0840818332
 30
0.0
 11
-233.7641125034
 21
345.0840818332
 31
0.0
  0
LINE
  5
562
330
1F
100
AcDbEntity
  8
0
100
AcDbLine
 10
-232.2641125034
 20
345.0840818332
 30
0.0
 11
-232.2641125034
 21
337.8840818332
 31
0.0
  0
LINE
  5
563
330
1F
100
AcDbEntity
  8
0
100
AcDbLine
 10
-232.2641125034
 20
337.8840818332
 30
0.0
 11
-233.7641125034
 21
337.8840818332
 31
0.0
  0
SPLINE
  5
564
330
1F
100
AcDbEntity
  8
0
100
AcDbSpline
210
0.0
220
0.0
230
1.0
 70
     8
 71
     3
 72
    11
 73
     7
 74
     0
 42
0.000000001
 43
0.00000001
 40
0.0
 40
0.0
 40
0.0
 40
0.0
 40
0.2499999999999977
 40
0.4999999999999898
 40
0.7499999999999866
 40
1.0
 40
1.0
 40
1.0
 40
1.0
 10
-232.2641125033891
 20
345.0840818331977
 30
0.0
 10
-232.3016914353574
 20
345.4116744427133
 30
0.0
 10
-232.3768492992942
 20
346.0668596617443
 30
0.0
 10
-232.9549723321001
 20
346.8932220044868
 30
0.0
 10
-233.7813346748422
 20
347.4713450372928
 30
0.0
 10
-234.4365198938736
 20
347.5465029012295
 30
0.0
 10
-234.7641125033892
 20
347.5840818331978
 30
0.0
  0
SPLINE
  5
565
330
1F
100
AcDbEntity
  8
0
100
AcDbSpline
210
0.0
220
0.0
230
1.0
 70
     8
 71
     3
 72
    11
 73
     7
 74
     0
 42
0.000000001
 43
0.00000001
 40
0.0
 40
0.0
 40
0.0
 40
0.0
 40
0.2918947079110188
 40
0.5837894158220706
 40
0.8756841237330871
 40
0.9999999999999999
 40
0.9999999999999999
 40
0.9999999999999999
 40
0.9999999999999999
 10
-233.7641125033891
 20
345.0840818331977
 30
0.0
 10
-233.779041151774
 20
345.2154251101118
 30
0.0
 10
-233.8088984485439
 20
345.4781116639398
 30
0.0
 10
-234.0416915277025
 20
345.8040631044198
 30
0.0
 10
-234.3042364090137
 20
346.0051732627884
 30
0.0
 10
-234.4891733268646
 20
346.0322831982047
 30
0.0
 10
-234.5444112181406
 20
346.0403805304325
 30
0.0
  0
LINE
  5
56A
330
1F
100
AcDbEntity
  8
0
100
AcDbLine
 10
-607.3641125034
 20
398.5840818332
 30
0.0
 11
-591.3641125034
 21
398.5840818332
 31
0.0
  0
LINE
  5
56B
330
1F
100
AcDbEntity
  8
0
100
AcDbLine
 10
-599.3635655592
 20
401.0840818332
 30
0.0
 11
-599.3651125034
 21
401.0840818332
 31
0.0
  0
LINE
  5
56C
330
1F
100
AcDbEntity
  8
0
100
AcDbLine
 10
-599.3631125034
 20
401.0840818332
 30
0.0
 11
-599.3635655592
 21
401.0840818332
 31
0.0
  0
LINE
  5
56D
330
1F
100
AcDbEntity
  8
0
100
AcDbLine
 10
-594.9885593946
 20
398.5840818332
 30
0.0
 11
-607.3641125034
 21
398.5840818332
 31
0.0
  0
LINE
  5
56E
330
1F
100
AcDbEntity
  8
0
100
AcDbLine
 10
-591.3641125034
 20
398.5840818332
 30
0.0
 11
-594.9885593946
 21
398.5840818332
 31
0.0
  0
LINE
  5
56F
330
1F
100
AcDbEntity
  8
0
100
AcDbLine
 10
-235.7641125034
 20
348.2840818332
 30
0.0
 11
-235.7641125034
 21
347.5840818332
 31
0.0
  0
LINE
  5
570
330
1F
100
AcDbEntity
  8
0
100
AcDbLine
 10
-315.7641125034
 20
347.5840818332
 30
0.0
 11
-638.3641125034
 21
347.5840818332
 31
0.0
  0
LINE
  5
571
330
1F
100
AcDbEntity
  8
0
100
AcDbLine
 10
-240.7641125034
 20
348.2840818332
 30
0.0
 11
-638.3641125034
 21
348.2840818332
 31
0.0
  0
LINE
  5
572
330
1F
100
AcDbEntity
  8
0
100
AcDbLine
 10
-643.3641125034
 20
347.5840818332
 30
0.0
 11
-643.3641125034
 21
348.2840818332
 31
0.0
  0
LINE
  5
573
330
1F
100
AcDbEntity
  8
0
100
AcDbLine
 10
-638.3641125034
 20
347.5840818332
 30
0.0
 11
-643.3641125034
 21
347.5840818332
 31
0.0
  0
LINE
  5
574
330
1F
100
AcDbEntity
  8
0
100
AcDbLine
 10
-643.3641125034
 20
348.2840818332
 30
0.0
 11
-643.1641125034
 21
348.2840818332
 31
0.0
  0
LINE
  5
57A
330
1F
100
AcDbEntity
  8
0
100
AcDbLine
 10
-644.3641125034
 20
349.4840818332
 30
0.0
 11
-644.3641125034
 21
367.5840818332
 31
0.0
  0
LINE
  5
57F
330
1F
100
AcDbEntity
  8
0
100
AcDbLine
 10
-234.3641125034
 20
367.5840818332
 30
0.0
 11
-234.3641125034
 21
349.4840818332
 31
0.0
  0
LINE
  5
588
330
1F
100
AcDbEntity
  8
0
100
AcDbLine
 10
-238.3226911472
 20
348.2840818332
 30
0.0
 11
-640.4055338596
 21
348.2840818332
 31
0.0
  0
LINE
  5
58B
330
1F
100
AcDbEntity
  8
0
100
AcDbLine
 10
-264.3641125034
 20
397.5840818332
 30
0.0
 11
-614.3641125034
 21
397.5840818332
 31
0.0
  0
SPLINE
  5
58E
330
1F
100
AcDbEntity
  8
0
100
AcDbSpline
210
0.0
220
0.0
230
1.0
 70
     8
 71
     3
 72
    11
 73
     7
 74
     0
 42
0.000000001
 43
0.00000001
 40
0.0
 40
0.0
 40
0.0
 40
0.0
 40
0.2500000000000429
 40
0.5000000000000779
 40
0.7500000000000873
 40
0.9999999999999999
 40
0.9999999999999999
 40
0.9999999999999999
 40
0.9999999999999999
 10
-235.5641121610019
 20
348.2840817995257
 30
0.0
 10
-235.4068677377506
 20
348.3021197255521
 30
0.0
 10
-235.0923788912481
 20
348.3381955776048
 30
0.0
 10
-234.6957250805461
 20
348.615694658121
 30
0.0
 10
-234.4182261132034
 20
349.012348547999
 30
0.0
 10
-234.3821503508806
 20
349.3268374047946
 30
0.0
 10
-234.3641124697193
 20
349.4840818331922
 30
0.0
  0
LINE
  5
590
330
1F
100
AcDbEntity
  8
0
100
AcDbLine
 10
-235.5641125034
 20
348.2840818332
 30
0.0
 11
-238.3226911472
 21
348.2840818332
 31
0.0
  0
LINE
  5
594
330
1F
100
AcDbEntity
  8
0
100
AcDbLine
 10
-643.1641125034
 20
348.2840818332
 30
0.0
 11
-640.4055338596
 21
348.2840818332
 31
0.0
  0
SPLINE
  5
596
330
1F
100
AcDbEntity
  8
0
100
AcDbSpline
210
0.0
220
0.0
230
1.0
 70
     8
 71
     3
 72
    11
 73
     7
 74
     0
 42
0.000000001
 43
0.00000001
 40
0.0
 40
0.0
 40
0.0
 40
0.0
 40
0.2500000426425374
 40
0.5000000852850739
 40
0.7500001279276078
 40
0.9999999999999999
 40
0.9999999999999999
 40
0.9999999999999999
 40
0.9999999999999999
 10
-644.3641125370591
 20
349.4840818331939
 30
0.0
 10
-644.3460746492373
 20
349.3268373762829
 30
0.0
 10
-644.3099988735939
 20
349.012348462461
 30
0.0
 10
-644.0324998096244
 20
348.6156945257867
 30
0.0
 10
-643.6358459658478
 20
348.3381955292725
 30
0.0
 10
-643.321357172115
 20
348.3021197053376
 30
0.0
 10
-643.1641128288911
 20
348.2840817995237
 30
0.0
  0
ARC
  5
597
330
1F
100
AcDbEntity
  8
0
100
AcDbCircle
 10
-264.3641125034
 20
367.5840818332
 30
0.0
 40
30.00000000000006
100
AcDbArc
 50
0.0
 51
90.0
  0
ARC
  5
599
330
1F
100
AcDbEntity
  8
0
100
AcDbCircle
 10
-614.3641125034
 20
367.5840818332
 30
0.0
 40
30.00000000000006
100
AcDbArc
 50
90.0
 51
180.0
  0
LINE
  5
5A3
330
1F
100
AcDbEntity
  8
0
100
AcDbLine
 10
-244.0188130418
 20
330.7440818332
 30
0.0
 11
-245.1735135801
 21
328.7440818332
 31
0.0
  0
LINE
  5
5A4
330
1F
100
AcDbEntity
  8
0
100
AcDbLine
 10
-245.1735135801
 20
328.7440818332
 30
0.0
 11
-244.0188130418
 21
326.7440818332
 31
0.0
  0
LINE
  5
5A5
330
1F
100
AcDbEntity
  8
0
100
AcDbLine
 10
-244.0188130418
 20
326.7440818332
 30
0.0
 11
-241.709411965
 21
326.7440818332
 31
0.0
  0
LINE
  5
5A6
330
1F
100
AcDbEntity
  8
0
100
AcDbLine
 10
-241.709411965
 20
326.7440818332
 30
0.0
 11
-240.5547114266
 21
328.7440818332
 31
0.0
  0
CIRCLE
  5
5A7
330
1F
100
AcDbEntity
  8
0
100
AcDbCircle
 10
-242.8641125034
 20
328.7440818332
 30
0.0
 40
3.650000000000034
  0
LINE
  5
5A8
330
1F
100
AcDbEntity
  8
0
100
AcDbLine
 10
-241.709411965
 20
330.7440818332
 30
0.0
 11
-244.0188130418
 21
330.7440818332
 31
0.0
  0
LINE
  5
5A9
330
1F
100
AcDbEntity
  8
0
100
AcDbLine
 10
-240.5547114266
 20
328.7440818332
 30
0.0
 11
-241.709411965
 21
330.7440818332
 31
0.0
  0
CIRCLE
  5
5AA
330
1F
100
AcDbEntity
  8
0
100
AcDbCircle
 10
-242.8641125034
 20
328.7440818332
 30
0.0
 40
4.149999999999977
  0
LINE
  5
63F
330
1F
100
AcDbEntity
  8
0
100
AcDbLine
 10
-569.3641125034
 20
98.0640818332
 30
0.0
 11
-564.3641125034
 21
98.0640818332
 31
0.0
  0
LINE
  5
640
330
1F
100
AcDbEntity
  8
0
100
AcDbLine
 10
-564.3641125034
 20
98.0640818332
 30
0.0
 11
-564.3641125034
 21
96.0640818332
 31
0.0
  0
LINE
  5
641
330
1F
100
AcDbEntity
  8
0
100
AcDbLine
 10
-564.3641125034
 20
96.0640818332
 30
0.0
 11
-569.3641125034
 21
96.0640818332
 31
0.0
  0
LINE
  5
642
330
1F
100
AcDbEntity
  8
0
100
AcDbLine
 10
-569.3641125034
 20
98.0640818332
 30
0.0
 11
-639.3641125034
 21
98.0640818332
 31
0.0
  0
LINE
  5
643
330
1F
100
AcDbEntity
  8
0
100
AcDbLine
 10
-569.3641125034
 20
96.0640818332
 30
0.0
 11
-639.3641125034
 21
96.0640818332
 31
0.0
  0
LINE
  5
644
330
1F
100
AcDbEntity
  8
0
100
AcDbLine
 10
-644.3641125034
 20
96.0640818332
 30
0.0
 11
-644.3641125034
 21
98.0640818332
 31
0.0
  0
LINE
  5
645
330
1F
100
AcDbEntity
  8
0
100
AcDbLine
 10
-644.3641125034
 20
98.0640818332
 30
0.0
 11
-639.3641125034
 21
98.0640818332
 31
0.0
  0
LINE
  5
646
330
1F
100
AcDbEntity
  8
0
100
AcDbLine
 10
-639.3641125034
 20
96.0640818332
 30
0.0
 11
-644.3641125034
 21
96.0640818332
 31
0.0
  0
LINE
  5
647
330
1F
100
AcDbEntity
  8
0
100
AcDbLine
 10
-564.3641125034
 20
99.0640818332
 30
0.0
 11
-564.3641125034
 21
98.0640818332
 31
0.0
  0
LINE
  5
648
330
1F
100
AcDbEntity
  8
0
100
AcDbLine
 10
-644.3641125034
 20
99.0640818332
 30
0.0
 11
-644.3641125034
 21
98.0640818332
 31
0.0
  0
LINE
  5
649
330
1F
100
AcDbEntity
  8
0
100
AcDbLine
 10
-644.3641125034
 20
111.0640818332
 30
0.0
 11
-644.3641125034
 21
99.0640818332
 31
0.0
  0
ARC
  5
64A
330
1F
100
AcDbEntity
  8
0
100
AcDbCircle
 10
-639.3641125034
 20
111.0640818332
 30
0.0
 40
4.999999999999986
100
AcDbArc
 50
90.0
 51
180.0
  0
LINE
  5
64B
330
1F
100
AcDbEntity
  8
0
100
AcDbLine
 10
-569.3641125034
 20
116.0640818332
 30
0.0
 11
-639.3641125034
 21
116.0640818332
 31
0.0
  0
ARC
  5
64C
330
1F
100
AcDbEntity
  8
0
100
AcDbCircle
 10
-569.3641125034
 20
111.0640818332
 30
0.0
 40
5.000000000000114
100
AcDbArc
 50
0.0
 51
90.0
  0
LINE
  5
64D
330
1F
100
AcDbEntity
  8
0
100
AcDbLine
 10
-564.3641125034
 20
111.0640818332
 30
0.0
 11
-564.3641125034
 21
99.0640818332
 31
0.0
  0
LINE
  5
64E
330
1F
100
AcDbEntity
  8
0
100
AcDbLine
 10
-239.3641125034
 20
98.0640818332
 30
0.0
 11
-234.3641125034
 21
98.0640818332
 31
0.0
  0
LINE
  5
64F
330
1F
100
AcDbEntity
  8
0
100
AcDbLine
 10
-234.3641125034
 20
98.0640818332
 30
0.0
 11
-234.3641125034
 21
96.0640818332
 31
0.0
  0
LINE
  5
650
330
1F
100
AcDbEntity
  8
0
100
AcDbLine
 10
-234.3641125034
 20
96.0640818332
 30
0.0
 11
-239.3641125034
 21
96.0640818332
 31
0.0
  0
LINE
  5
651
330
1F
100
AcDbEntity
  8
0
100
AcDbLine
 10
-239.3641125034
 20
98.0640818332
 30
0.0
 11
-309.3641125034
 21
98.0640818332
 31
0.0
  0
LINE
  5
652
330
1F
100
AcDbEntity
  8
0
100
AcDbLine
 10
-239.3641125034
 20
96.0640818332
 30
0.0
 11
-309.3641125034
 21
96.0640818332
 31
0.0
  0
LINE
  5
653
330
1F
100
AcDbEntity
  8
0
100
AcDbLine
 10
-314.3641125034
 20
96.0640818332
 30
0.0
 11
-314.3641125034
 21
98.0640818332
 31
0.0
  0
LINE
  5
654
330
1F
100
AcDbEntity
  8
0
100
AcDbLine
 10
-314.3641125034
 20
98.0640818332
 30
0.0
 11
-309.3641125034
 21
98.0640818332
 31
0.0
  0
LINE
  5
655
330
1F
100
AcDbEntity
  8
0
100
AcDbLine
 10
-309.3641125034
 20
96.0640818332
 30
0.0
 11
-314.3641125034
 21
96.0640818332
 31
0.0
  0
LINE
  5
656
330
1F
100
AcDbEntity
  8
0
100
AcDbLine
 10
-234.3641125034
 20
99.0640818332
 30
0.0
 11
-234.3641125034
 21
98.0640818332
 31
0.0
  0
LINE
  5
657
330
1F
100
AcDbEntity
  8
0
100
AcDbLine
 10
-314.3641125034
 20
99.0640818332
 30
0.0
 11
-314.3641125034
 21
98.0640818332
 31
0.0
  0
LINE
  5
658
330
1F
100
AcDbEntity
  8
0
100
AcDbLine
 10
-314.3641125034
 20
111.0640818332
 30
0.0
 11
-314.3641125034
 21
99.0640818332
 31
0.0
  0
ARC
  5
659
330
1F
100
AcDbEntity
  8
0
100
AcDbCircle
 10
-309.3641125034
 20
111.0640818332
 30
0.0
 40
4.999999999999943
100
AcDbArc
 50
90.0
 51
180.0
  0
LINE
  5
65A
330
1F
100
AcDbEntity
  8
0
100
AcDbLine
 10
-239.3641125034
 20
116.0640818332
 30
0.0
 11
-309.3641125034
 21
116.0640818332
 31
0.0
  0
ARC
  5
65B
330
1F
100
AcDbEntity
  8
0
100
AcDbCircle
 10
-239.3641125034
 20
111.0640818332
 30
0.0
 40
5.000000000000114
100
AcDbArc
 50
0.0
 51
90.0
  0
LINE
  5
65C
330
1F
100
AcDbEntity
  8
0
100
AcDbLine
 10
-234.3641125034
 20
111.0640818332
 30
0.0
 11
-234.3641125034
 21
99.0640818332
 31
0.0
  0
CIRCLE
  5
663
330
1F
100
AcDbEntity
  8
0
100
AcDbCircle
 10
-511.3641125034
 20
267.5140818332
 30
0.0
 40
60.00000000000008
  0
CIRCLE
  5
664
330
1F
100
AcDbEntity
  8
0
100
AcDbCircle
 10
-511.3641125034
 20
267.5140818332
 30
0.0
 40
62.50000000000008
  0
CIRCLE
  5
666
330
1F
100
AcDbEntity
  8
0
100
AcDbCircle
 10
-511.3641125034
 20
267.5140818332
 30
0.0
 40
59.50000000000001
  0
LINE
  5
66D
330
1F
100
AcDbEntity
  8
0
100
AcDbLine
 10
-596.9485879253
 20
342.8640818332
 30
0.0
 11
-501.1285701397
 21
342.8640818332
 31
0.0
  0
LINE
  5
66E
330
1F
100
AcDbEntity
  8
0
100
AcDbLine
 10
-501.1285701397
 20
342.8640818332
 30
0.0
 11
-315.7641125034
 21
342.8640818332
 31
0.0
  0
LINE
  5
672
330
1F
100
AcDbEntity
  8
0
100
AcDbLine
 10
-644.3641125034
 20
342.3640818332
 30
0.0
 11
-644.3641125034
 21
111.0640818332
 31
0.0
  0
LINE
  5
673
330
1F
100
AcDbEntity
  8
0
100
AcDbLine
 10
-593.1641125034
 20
343.5640818332
 30
0.0
 11
-593.1641125034
 21
342.8640818332
 31
0.0
  0
LINE
  5
674
330
1F
100
AcDbEntity
  8
0
100
AcDbLine
 10
-598.1641125034
 20
343.5640818332
 30
0.0
 11
-593.1641125034
 21
343.5640818332
 31
0.0
  0
LINE
  5
675
330
1F
100
AcDbEntity
  8
0
100
AcDbLine
 10
-596.9485879253
 20
342.8640818332
 30
0.0
 11
-598.1641125034
 21
342.8640818332
 31
0.0
  0
LINE
  5
676
330
1F
100
AcDbEntity
  8
0
100
AcDbLine
 10
-643.1641125034
 20
343.5640818332
 30
0.0
 11
-598.1641125034
 21
343.5640818332
 31
0.0
  0
LINE
  5
677
330
1F
100
AcDbEntity
  8
0
100
AcDbLine
 10
-643.1641125034
 20
342.8640818332
 30
0.0
 11
-598.1641125034
 21
342.8640818332
 31
0.0
  0
ARC
  5
678
330
1F
100
AcDbEntity
  8
0
100
AcDbCircle
 10
-643.1641125034
 20
342.3640818332
 30
0.0
 40
1.199999999999989
100
AcDbArc
 50
90.0
 51
180.0
  0
ARC
  5
679
330
1F
100
AcDbEntity
  8
0
100
AcDbCircle
 10
-643.1641125034
 20
342.3640818332
 30
0.0
 40
0.5000000000000568
100
AcDbArc
 50
90.0
 51
180.0
  0
LINE
  5
67B
330
1F
100
AcDbEntity
  8
0
100
AcDbLine
 10
-234.4712192846
 20
342.3640818332
 30
0.0
 11
-234.3641125034
 21
342.3640818332
 31
0.0
  0
LINE
  5
67C
330
1F
100
AcDbEntity
  8
0
100
AcDbLine
 10
-234.3641125034
 20
111.0640818332
 30
0.0
 11
-234.3641125034
 21
342.3640818332
 31
0.0
  0
ARC
  5
67D
330
1F
100
AcDbEntity
  8
0
100
AcDbCircle
 10
-235.5641125034
 20
342.3640818332
 30
0.0
 40
1.200000000000027
100
AcDbArc
 50
0.0
 51
24.391581448
  0
LINE
  5
67F
330
1F
100
AcDbEntity
  8
0
100
AcDbLine
 10
-564.3641125034
 20
97.5640818332
 30
0.0
 11
-314.3641125034
 21
97.5640818332
 31
0.0
  0
LINE
  5
6A3
330
1F
100
AcDbEntity
  8
0
100
AcDbLine
 10
-19.7348029822
 20
329.2140818332
 30
0.0
 11
-13.57504193
 21
328.2140818332
 31
0.0
  0
LINE
  5
6A5
330
1F
100
AcDbEntity
  8
0
100
AcDbLine
 10
-19.7348029822
 20
205.8140818332
 30
0.0
 11
-13.57504193
 21
206.8140818332
 31
0.0
  0
LINE
  5
6A6
330
1F
100
AcDbEntity
  8
0
100
AcDbLine
 10
-13.57504193
 20
206.8140818332
 30
0.0
 11
-13.57504193
 21
328.2140818332
 31
0.0
  0
LINE
  5
6A7
330
1F
100
AcDbEntity
  8
0
100
AcDbLine
 10
419.705851042
 20
328.2140818332
 30
0.0
 11
425.8656120942
 21
329.2140818332
 31
0.0
  0
LINE
  5
6A8
330
1F
100
AcDbEntity
  8
0
100
AcDbLine
 10
419.705851042
 20
206.8140818332
 30
0.0
 11
425.8656120942
 21
205.8140818332
 31
0.0
  0
LINE
  5
6A9
330
1F
100
AcDbEntity
  8
0
100
AcDbLine
 10
419.705851042
 20
206.8140818332
 30
0.0
 11
419.705851042
 21
328.2140818332
 31
0.0
  0
LINE
  5
6AA
330
1F
100
AcDbEntity
  8
0
100
AcDbLine
 10
-13.57504193
 20
-451.5198696283
 30
0.0
 11
-19.7348029822
 21
-452.5198696283
 31
0.0
  0
LINE
  5
6AB
330
1F
100
AcDbEntity
  8
0
100
AcDbLine
 10
-19.7348029822
 20
-329.1198696283
 30
0.0
 11
-13.57504193
 21
-330.1198696283
 31
0.0
  0
LINE
  5
6AC
330
1F
100
AcDbEntity
  8
0
100
AcDbLine
 10
-13.57504193
 20
-330.1198696283
 30
0.0
 11
-13.57504193
 21
-451.5198696283
 31
0.0
  0
LINE
  5
6AD
330
1F
100
AcDbEntity
  8
0
100
AcDbLine
 10
419.705851042
 20
-451.5198696283
 30
0.0
 11
425.8656120942
 21
-452.5198696283
 31
0.0
  0
LINE
  5
6AE
330
1F
100
AcDbEntity
  8
0
100
AcDbLine
 10
419.705851042
 20
-330.1198696283
 30
0.0
 11
425.8656120942
 21
-329.1198696283
 31
0.0
  0
LINE
  5
6AF
330
1F
100
AcDbEntity
  8
0
100
AcDbLine
 10
419.705851042
 20
-330.1198696283
 30
0.0
 11
419.705851042
 21
-451.5198696283
 31
0.0
  0
INSERT
  5
704
330
1F
100
AcDbEntity
  8
LENKIMO
  6
CENTERX2
100
AcDbBlockReference
  2
*U4
 10
-1010.106048505326
 20
-416.9281412050462
 30
0.0
 41
0.6
 42
0.6
 43
0.6
  0
INSERT
  5
705
330
1F
100
AcDbEntity
  8
LENKIMO
  6
CENTERX2
100
AcDbBlockReference
  2
*U3
 10
496.3085377695713
 20
-608.894714213206
 30
0.0
 41
0.6
 42
0.6
 43
0.6
  0
LINE
  5
79B
330
1F
100
AcDbEntity
  8
0
100
AcDbLine
 10
687.1889687842176
 20
-310.5367511425464
 30
0.0
 11
687.1889687842176
 21
-350.5367511425469
 31
0.0
  0
LINE
  5
79C
330
1F
100
AcDbEntity
  8
0
100
AcDbLine
 10
787.1889687842176
 20
-390.5367511425469
 30
0.0
 11
687.1889687842176
 21
-470.5367511425464
 31
0.0
  0
LINE
  5
79D
330
1F
100
AcDbEntity
  8
0
100
AcDbLine
 10
787.1889687842176
 20
-390.5367511425469
 30
0.0
 11
687.1889687842176
 21
-310.5367511425464
 31
0.0
  0
LINE
  5
79E
330
1F
100
AcDbEntity
  8
0
100
AcDbLine
 10
687.1889687842176
 20
-430.5367511425464
 30
0.0
 11
587.1889687842179
 21
-430.5367511425464
 31
0.0
  0
LINE
  5
79F
330
1F
100
AcDbEntity
  8
0
100
AcDbLine
 10
687.1889687842176
 20
-350.5367511425469
 30
0.0
 11
587.1889687842179
 21
-350.5367511425469
 31
0.0
  0
LINE
  5
7A0
330
1F
100
AcDbEntity
  8
0
100
AcDbLine
 10
687.1889687842176
 20
-430.5367511425464
 30
0.0
 11
687.1889687842176
 21
-470.5367511425464
 31
0.0
  0
LINE
  5
7A1
330
1F
100
AcDbEntity
  8
0
100
AcDbLine
 10
587.1889687842179
 20
-350.5367511425469
 30
0.0
 11
587.1889687842179
 21
-430.5367511425464
 31
0.0
  0
MTEXT
  5
7A2
330
1F
100
AcDbEntity
  8
0
100
AcDbMText
 10
603.5073185762787
 20
-374.4892027958612
 30
0.0
 40
35.0
 41
20.96613465302437
 46
35.595
 71
     1
 72
     5
  1
{SUP}
 73
     1
 44
1.0
1001
ACAD
1000
ACAD_MTEXT_DEFINED_HEIGHT_BEGIN
1070
    46
1040
35.595
1000
ACAD_MTEXT_DEFINED_HEIGHT_END
  0
INSERT
  5
7A3
330
1F
100
AcDbEntity
  8
LENKIMO
  6
CENTERX2
100
AcDbBlockReference
  2
*U6
 10
-310.0826589636631
 20
-1542.982271732514
 30
0.0
  0
LINE
  5
7C5
330
1F
100
AcDbEntity
  8
0
100
AcDbLine
 10
-237.4566299386023
 20
-308.5643270718907
 30
0.0
 11
-237.4566299386023
 21
-348.5643270718907
 31
0.0
  0
LINE
  5
7C6
330
1F
100
AcDbEntity
  8
0
100
AcDbLine
 10
-137.4566299386034
 20
-388.5643270718906
 30
0.0
 11
-237.4566299386023
 21
-468.5643270718907
 31
0.0
  0
LINE
  5
7C7
330
1F
100
AcDbEntity
  8
0
100
AcDbLine
 10
-137.4566299386034
 20
-388.5643270718906
 30
0.0
 11
-237.4566299386023
 21
-308.5643270718907
 31
0.0
  0
LINE
  5
7C8
330
1F
100
AcDbEntity
  8
0
100
AcDbLine
 10
-237.4566299386023
 20
-428.5643270718907
 30
0.0
 11
-337.4566299386023
 21
-428.5643270718907
 31
0.0
  0
LINE
  5
7C9
330
1F
100
AcDbEntity
  8
0
100
AcDbLine
 10
-237.4566299386023
 20
-348.5643270718907
 30
0.0
 11
-337.4566299386023
 21
-348.5643270718907
 31
0.0
  0
LINE
  5
7CA
330
1F
100
AcDbEntity
  8
0
100
AcDbLine
 10
-237.4566299386023
 20
-428.5643270718907
 30
0.0
 11
-237.4566299386023
 21
-468.5643270718907
 31
0.0
  0
LINE
  5
7CB
330
1F
100
AcDbEntity
  8
0
100
AcDbLine
 10
-337.4566299386023
 20
-348.5643270718907
 30
0.0
 11
-337.4566299386023
 21
-428.5643270718907
 31
0.0
  0
MTEXT
  5
7CC
330
1F
100
AcDbEntity
  8
0
100
AcDbMText
 10
-321.1382801465423
 20
-372.5167787252054
 30
0.0
 40
35.0
 41
20.96613465302437
 46
35.595
 71
     1
 72
     5
  1
{ODA}
 73
     1
 44
1.0
1001
ACAD
1000
ACAD_MTEXT_DEFINED_HEIGHT_BEGIN
1070
    46
1040
35.595
1000
ACAD_MTEXT_DEFINED_HEIGHT_END
  0
INSERT
  5
7CD
330
1F
100
AcDbEntity
  8
LENKIMO
  6
CENTERX2
100
AcDbBlockReference
  2
*U8
 10
-937.4583953918224
 20
-1848.206593134171
 30
0.0
  0
ENDSEC
  0
SECTION
  2
OBJECTS
  0
DICTIONARY
  5
C
330
0
100
AcDbDictionary
281
     1
  3
ACAD_DETAILVIEWSTYLE
350
6BB
  3
ACAD_GROUP
350
D
  3
ACAD_LAYOUT
350
1A
  3
ACAD_MATERIAL
350
69A
  3
ACAD_MLEADERSTYLE
350
6A0
  3
ACAD_MLINESTYLE
350
17
  3
ACAD_PLOTSETTINGS
350
19
  3
ACAD_PLOTSTYLENAME
350
E
  3
ACAD_SCALELIST
350
47
  3
ACAD_SECTIONVIEWSTYLE
350
6BC
  3
ACAD_TABLESTYLE
350
69E
  3
ACAD_VISUALSTYLE
350
681
  3
ACDB_RECOMPOSE_DATA
350
7D1
  3
AcDbVariableDictionary
350
6B2
  3
APPDATA
350
6A2
  0
DICTIONARY
  5
6B0
330
1F
100
AcDbDictionary
280
     1
281
     1
  3
DIM_BOUNDING_BOXES_V1
360
6B1
  0
DICTIONARY
  5
6BB
102
{ACAD_REACTORS
330
C
102
}
330
C
100
AcDbDictionary
281
     1
  0
DICTIONARY
  5
D
102
{ACAD_REACTORS
330
C
102
}
330
C
100
AcDbDictionary
281
     1
  0
DICTIONARY
  5
1A
102
{ACAD_REACTORS
330
C
102
}
330
C
100
AcDbDictionary
281
     1
  3
Layout1
350
1E
  3
Layout2
350
26
  3
Model
350
22
  0
DICTIONARY
  5
69A
102
{ACAD_REACTORS
330
C
102
}
330
C
100
AcDbDictionary
281
     1
  3
ByBlock
350
69C
  3
ByLayer
350
69B
  3
Global
350
69D
  0
DICTIONARY
  5
6A0
102
{ACAD_REACTORS
330
C
102
}
330
C
100
AcDbDictionary
281
     1
  3
Standard
350
6A1
  0
DICTIONARY
  5
17
102
{ACAD_REACTORS
330
C
102
}
330
C
100
AcDbDictionary
281
     1
  3
Standard
350
18
  0
DICTIONARY
  5
19
102
{ACAD_REACTORS
330
C
102
}
330
C
100
AcDbDictionary
281
     1
  0
ACDBDICTIONARYWDFLT
  5
E
102
{ACAD_REACTORS
330
C
102
}
330
C
100
AcDbDictionary
281
     1
  3
Normal
350
F
100
AcDbDictionaryWithDefault
340
F
  0
DICTIONARY
  5
47
102
{ACAD_REACTORS
330
C
102
}
330
C
100
AcDbDictionary
281
     1
  3
A0
350
48
  3
A1
350
49
  3
A2
350
4A
  3
A3
350
4B
  3
A4
350
4C
  3
A5
350
4D
  3
A6
350
4E
  3
A7
350
4F
  3
A8
350
50
  3
A9
350
51
  3
B0
350
52
  3
B1
350
53
  3
B2
350
54
  3
B3
350
55
  3
B4
350
56
  3
B5
350
57
  3
B6
350
58
  3
B7
350
59
  3
B8
350
5A
  3
B9
350
5B
  3
C0
350
5C
  3
C1
350
5D
  3
C2
350
5E
  3
C3
350
5F
  3
C4
350
60
  3
C5
350
61
  3
C6
350
62
  3
C7
350
63
  3
C8
350
64
  3
C9
350
65
  3
D0
350
66
  3
D1
350
67
  3
D2
350
68
  0
DICTIONARY
  5
6BC
102
{ACAD_REACTORS
330
C
102
}
330
C
100
AcDbDictionary
281
     1
  0
DICTIONARY
  5
69E
102
{ACAD_REACTORS
330
C
102
}
330
C
100
AcDbDictionary
281
     1
  3
Standard
350
69F
  0
DICTIONARY
  5
681
102
{ACAD_REACTORS
330
C
102
}
330
C
100
AcDbDictionary
281
     1
  3
2dWireframe
350
686
  3
Basic
350
689
  3
Brighten
350
68D
  3
ColorChange
350
691
  3
Conceptual
350
68B
  3
Dim
350
68C
  3
EdgeColorOff
350
694
  3
Facepattern
350
690
  3
Flat
350
682
  3
FlatWithEdges
350
683
  3
Gouraud
350
684
  3
GouraudWithEdges
350
685
  3
Hidden
350
688
  3
JitterOff
350
692
  3
Linepattern
350
68F
  3
OverhangOff
350
693
  3
Realistic
350
68A
  3
Shaded
350
699
  3
Shaded with edges
350
698
  3
Shades of Gray
350
695
  3
Sketchy
350
696
  3
Thicken
350
68E
  3
Wireframe
350
687
  3
X-Ray
350
697
  0
XRECORD
  5
7D1
102
{ACAD_REACTORS
330
C
102
}
330
C
100
AcDbXrecord
280
     1
 90
        1
330
69F
  0
DICTIONARY
  5
6B2
102
{ACAD_REACTORS
330
C
102
}
330
C
100
AcDbDictionary
281
     1
  3
CANNOSCALE
350
6B3
  3
CMLEADERSTYLE
350
6B9
  3
CTABLESTYLE
350
6B8
  3
MSLTSCALE
350
6BA
  0
DICTIONARY
  5
6A2
102
{ACAD_REACTORS
330
C
102
}
330
C
100
AcDbDictionary
281
     1
  0
DICTIONARY
  5
6B1
102
{ACAD_REACTORS
330
6B0
102
}
330
6B0
100
AcDbDictionary
281
     1
  0
LAYOUT
  5
1E
102
{ACAD_REACTORS
330
1A
102
}
330
1A
100
AcDbPlotSettings
  1

  2
none_device
  4

  6

 40
0.0
 41
0.0
 42
0.0
 43
0.0
 44
0.0
 45
0.0
 46
0.0
 47
0.0
 48
0.0
 49
0.0
140
0.0
141
0.0
142
1.0
143
1.0
 70
   688
 72
     1
 73
     0
 74
     5
  7

 75
    16
 76
     0
 77
     2
 78
   300
147
1.0
148
0.0
149
0.0
100
AcDbLayout
  1
Layout1
 70
     1
 71
     1
 10
0.0
 20
0.0
 11
420.0
 21
297.0
 12
0.0
 22
0.0
 32
0.0
 14
1.000000000000000E+20
 24
1.000000000000000E+20
 34
1.000000000000000E+20
 15
-1.000000000000000E+20
 25
-1.000000000000000E+20
 35
-1.000000000000000E+20
146
0.0
 13
0.0
 23
0.0
 33
0.0
 16
1.0
 26
0.0
 36
0.0
 17
0.0
 27
1.0
 37
0.0
 76
     0
330
1B
  0
LAYOUT
  5
26
102
{ACAD_REACTORS
330
1A
102
}
330
1A
100
AcDbPlotSettings
  1

  2
none_device
  4

  6

 40
0.0
 41
0.0
 42
0.0
 43
0.0
 44
0.0
 45
0.0
 46
0.0
 47
0.0
 48
0.0
 49
0.0
140
0.0
141
0.0
142
1.0
143
1.0
 70
   688
 72
     1
 73
     0
 74
     5
  7

 75
    16
 76
     0
 77
     2
 78
   300
147
1.0
148
0.0
149
0.0
100
AcDbLayout
  1
Layout2
 70
     1
 71
     2
 10
0.0
 20
0.0
 11
0.0
 21
0.0
 12
0.0
 22
0.0
 32
0.0
 14
0.0
 24
0.0
 34
0.0
 15
0.0
 25
0.0
 35
0.0
146
0.0
 13
0.0
 23
0.0
 33
0.0
 16
1.0
 26
0.0
 36
0.0
 17
0.0
 27
1.0
 37
0.0
 76
     0
330
23
  0
LAYOUT
  5
22
102
{ACAD_REACTORS
330
1A
102
}
330
1A
100
AcDbPlotSettings
  1

  2
none_device
  4
Letter_(8.50_x_11.00_Inches)
  6

 40
6.35
 41
6.35
 42
6.35000508
 43
6.35000508
 44
215.9
 45
279.4
 46
0.0
 47
0.0
 48
0.0
 49
0.0
140
0.0
141
0.0
142
1.0
143
1.0
 70
  1712
 72
     1
 73
     0
 74
     0
  7

 75
     0
 76
     0
 77
     2
 78
   300
147
1.0
148
0.0
149
0.0
100
AcDbLayout
  1
Model
 70
     1
 71
     0
 10
0.0
 20
0.0
 11
420.0
 21
297.0
 12
0.0
 22
0.0
 32
0.0
 14
-644.3641125370591
 24
-523.8198696283
 34
0.0
 15
1129.858411396122
 25
401.0840818332
 35
0.0
146
0.0
 13
0.0
 23
0.0
 33
0.0
 16
1.0
 26
0.0
 36
0.0
 17
0.0
 27
1.0
 37
0.0
 76
     0
330
1F
331
29
  0
MATERIAL
  5
69C
102
{ACAD_REACTORS
330
69A
102
}
330
69A
100
AcDbMaterial
  1
ByBlock
 72
     1
 94
      127
  0
MATERIAL
  5
69B
102
{ACAD_REACTORS
330
69A
102
}
330
69A
100
AcDbMaterial
  1
ByLayer
 72
     1
 94
      127
  0
MATERIAL
  5
69D
102
{ACAD_REACTORS
330
69A
102
}
330
69A
100
AcDbMaterial
  1
Global
 72
     1
 94
      127
  0
MLEADERSTYLE
  5
6A1
102
{ACAD_REACTORS
330
6A0
102
}
330
6A0
100
AcDbMLeaderStyle
170
     2
171
     1
172
     0
 90
        2
 40
0.0
 41
0.0
173
     1
 91
-1056964608
340
14
 92
       -2
290
     1
 42
2.0
291
     1
 43
8.0
  3
Standard
341
0
 44
4.0
300

342
11
174
     1
178
     1
175
     1
176
     0
 93
-1056964608
 45
4.0
292
     0
297
     0
 46
4.0
343
0
 94
-1056964608
 47
1.0
 49
1.0
140
1.0
293
     1
141
0.0
294
     1
177
     0
142
1.0
295
     0
296
     0
143
3.75
1001
ACAD_MLEADERVER
1070
     2
  0
MLINESTYLE
  5
18
102
{ACAD_REACTORS
330
17
102
}
330
17
100
AcDbMlineStyle
  2
Standard
 70
     0
  3

 62
   256
 51
90.0
 52
90.0
 71
     2
 49
0.5
 62
   256
  6
BYLAYER
 49
-0.5
 62
   256
  6
BYLAYER
  0
ACDBPLACEHOLDER
  5
F
102
{ACAD_REACTORS
330
E
102
}
330
E
  0
SCALE
  5
48
102
{ACAD_REACTORS
330
47
102
}
330
47
100
AcDbScale
 70
     0
300
1:1
140
1.0
141
1.0
290
     1
  0
SCALE
  5
49
102
{ACAD_REACTORS
330
47
102
}
330
47
100
AcDbScale
 70
     0
300
1:2
140
1.0
141
2.0
290
     0
  0
SCALE
  5
4A
102
{ACAD_REACTORS
330
47
102
}
330
47
100
AcDbScale
 70
     0
300
1:4
140
1.0
141
4.0
290
     0
  0
SCALE
  5
4B
102
{ACAD_REACTORS
330
47
102
}
330
47
100
AcDbScale
 70
     0
300
1:5
140
1.0
141
5.0
290
     0
  0
SCALE
  5
4C
102
{ACAD_REACTORS
330
47
102
}
330
47
100
AcDbScale
 70
     0
300
1:8
140
1.0
141
8.0
290
     0
  0
SCALE
  5
4D
102
{ACAD_REACTORS
330
47
102
}
330
47
100
AcDbScale
 70
     0
300
1:10
140
1.0
141
10.0
290
     0
  0
SCALE
  5
4E
102
{ACAD_REACTORS
330
47
102
}
330
47
100
AcDbScale
 70
     0
300
1:16
140
1.0
141
16.0
290
     0
  0
SCALE
  5
4F
102
{ACAD_REACTORS
330
47
102
}
330
47
100
AcDbScale
 70
     0
300
1:20
140
1.0
141
20.0
290
     0
  0
SCALE
  5
50
102
{ACAD_REACTORS
330
47
102
}
330
47
100
AcDbScale
 70
     0
300
1:30
140
1.0
141
30.0
290
     0
  0
SCALE
  5
51
102
{ACAD_REACTORS
330
47
102
}
330
47
100
AcDbScale
 70
     0
300
1:40
140
1.0
141
40.0
290
     0
  0
SCALE
  5
52
102
{ACAD_REACTORS
330
47
102
}
330
47
100
AcDbScale
 70
     0
300
1:50
140
1.0
141
50.0
290
     0
  0
SCALE
  5
53
102
{ACAD_REACTORS
330
47
102
}
330
47
100
AcDbScale
 70
     0
300
1:100
140
1.0
141
100.0
290
     0
  0
SCALE
  5
54
102
{ACAD_REACTORS
330
47
102
}
330
47
100
AcDbScale
 70
     0
300
2:1
140
2.0
141
1.0
290
     0
  0
SCALE
  5
55
102
{ACAD_REACTORS
330
47
102
}
330
47
100
AcDbScale
 70
     0
300
4:1
140
4.0
141
1.0
290
     0
  0
SCALE
  5
56
102
{ACAD_REACTORS
330
47
102
}
330
47
100
AcDbScale
 70
     0
300
8:1
140
8.0
141
1.0
290
     0
  0
SCALE
  5
57
102
{ACAD_REACTORS
330
47
102
}
330
47
100
AcDbScale
 70
     0
300
10:1
140
10.0
141
1.0
290
     0
  0
SCALE
  5
58
102
{ACAD_REACTORS
330
47
102
}
330
47
100
AcDbScale
 70
     0
300
100:1
140
100.0
141
1.0
290
     0
  0
SCALE
  5
59
102
{ACAD_REACTORS
330
47
102
}
330
47
100
AcDbScale
 70
     0
300
1/128" = 1'-0"
140
0.0078125
141
12.0
290
     0
  0
SCALE
  5
5A
102
{ACAD_REACTORS
330
47
102
}
330
47
100
AcDbScale
 70
     0
300
1/64" = 1'-0"
140
0.015625
141
12.0
290
     0
  0
SCALE
  5
5B
102
{ACAD_REACTORS
330
47
102
}
330
47
100
AcDbScale
 70
     0
300
1/32" = 1'-0"
140
0.03125
141
12.0
290
     0
  0
SCALE
  5
5C
102
{ACAD_REACTORS
330
47
102
}
330
47
100
AcDbScale
 70
     0
300
1/16" = 1'-0"
140
0.0625
141
12.0
290
     0
  0
SCALE
  5
5D
102
{ACAD_REACTORS
330
47
102
}
330
47
100
AcDbScale
 70
     0
300
3/32" = 1'-0"
140
0.09375
141
12.0
290
     0
  0
SCALE
  5
5E
102
{ACAD_REACTORS
330
47
102
}
330
47
100
AcDbScale
 70
     0
300
1/8" = 1'-0"
140
0.125
141
12.0
290
     0
  0
SCALE
  5
5F
102
{ACAD_REACTORS
330
47
102
}
330
47
100
AcDbScale
 70
     0
300
3/16" = 1'-0"
140
0.1875
141
12.0
290
     0
  0
SCALE
  5
60
102
{ACAD_REACTORS
330
47
102
}
330
47
100
AcDbScale
 70
     0
300
1/4" = 1'-0"
140
0.25
141
12.0
290
     0
  0
SCALE
  5
61
102
{ACAD_REACTORS
330
47
102
}
330
47
100
AcDbScale
 70
     0
300
3/8" = 1'-0"
140
0.375
141
12.0
290
     0
  0
SCALE
  5
62
102
{ACAD_REACTORS
330
47
102
}
330
47
100
AcDbScale
 70
     0
300
1/2" = 1'-0"
140
0.5
141
12.0
290
     0
  0
SCALE
  5
63
102
{ACAD_REACTORS
330
47
102
}
330
47
100
AcDbScale
 70
     0
300
3/4" = 1'-0"
140
0.75
141
12.0
290
     0
  0
SCALE
  5
64
102
{ACAD_REACTORS
330
47
102
}
330
47
100
AcDbScale
 70
     0
300
1" = 1'-0"
140
1.0
141
12.0
290
     0
  0
SCALE
  5
65
102
{ACAD_REACTORS
330
47
102
}
330
47
100
AcDbScale
 70
     0
300
1-1/2" = 1'-0"
140
1.5
141
12.0
290
     0
  0
SCALE
  5
66
102
{ACAD_REACTORS
330
47
102
}
330
47
100
AcDbScale
 70
     0
300
3" = 1'-0"
140
3.0
141
12.0
290
     0
  0
SCALE
  5
67
102
{ACAD_REACTORS
330
47
102
}
330
47
100
AcDbScale
 70
     0
300
6" = 1'-0"
140
6.0
141
12.0
290
     0
  0
SCALE
  5
68
102
{ACAD_REACTORS
330
47
102
}
330
47
100
AcDbScale
 70
     0
300
1'-0" = 1'-0"
140
12.0
141
12.0
290
     0
  0
TABLESTYLE
  5
69F
102
{ACAD_REACTORS
330
69E
102
}
102
{ACAD_XDICTIONARY
360
7CE
102
}
330
69E
100
AcDbTableStyle
  3
Standard
 70
     0
 71
     0
 40
0.06
 41
0.06
280
     0
281
     0
  7
Standard
140
4.5
170
     2
 62
     0
 63
   257
283
     0
 90
        4
 91
        0
  1

274
    -2
284
     1
 64
     0
275
    -2
285
     1
 65
     0
276
    -2
286
     1
 66
     0
277
    -2
287
     1
 67
     0
278
    -2
288
     1
 68
     0
279
    -2
289
     1
 69
     0
  7
Standard
140
6.0
170
     5
 62
     0
 63
   257
283
     0
 90
        4
 91
        0
  1

274
    -2
284
     1
 64
     0
275
    -2
285
     1
 65
     0
276
    -2
286
     1
 66
     0
277
    -2
287
     1
 67
     0
278
    -2
288
     1
 68
     0
279
    -2
289
     1
 69
     0
  7
Standard
140
4.5
170
     5
 62
     0
 63
   257
283
     0
 90
        4
 91
        0
  1

274
    -2
284
     1
 64
     0
275
    -2
285
     1
 65
     0
276
    -2
286
     1
 66
     0
277
    -2
287
     1
 67
     0
278
    -2
288
     1
 68
     0
279
    -2
289
     1
 69
     0
  0
VISUALSTYLE
  5
686
102
{ACAD_REACTORS
330
681
102
}
330
681
100
AcDbVisualStyle
  2
2dWireframe
 70
     4
 71
     0
 72
     2
 73
     0
 90
        0
 40
0.6
 41
30.0
 62
     5
 63
     7
421
 16777215
 74
     1
 91
        4
 64
     7
 65
   257
 75
     1
175
     1
 42
1.0
 92
        0
 66
   257
 43
1.0
 76
     1
 77
     6
 78
     2
 67
     7
 79
     5
170
     0
171
     0
290
     0
174
     0
 93
        1
 44
0.0
173
     0
291
     0
 45
0.0
  0
VISUALSTYLE
  5
689
102
{ACAD_REACTORS
330
681
102
}
330
681
100
AcDbVisualStyle
  2
Basic
 70
     7
 71
     1
 72
     0
 73
     1
 90
        0
 40
0.6
 41
30.0
 62
     5
 63
     7
421
 16777215
 74
     0
 91
        4
 64
     7
 65
   257
 75
     1
175
     1
 42
1.0
 92
        8
 66
     7
 43
1.0
 76
     1
 77
     6
 78
     2
 67
     7
 79
     5
170
     0
171
     0
290
     0
174
     0
 93
        1
 44
0.0
173
     0
291
     1
 45
0.0
  0
VISUALSTYLE
  5
68D
102
{ACAD_REACTORS
330
681
102
}
330
681
100
AcDbVisualStyle
  2
Brighten
 70
    12
 71
     2
 72
     2
 73
     0
 90
        0
 40
0.6
 41
30.0
 62
     5
 63
     7
421
 16777215
 74
     1
 91
        4
 64
     7
 65
   257
 75
     1
175
     1
 42
1.0
 92
        8
 66
     7
 43
1.0
 76
     1
 77
     6
 78
     2
 67
     7
 79
     5
170
     0
171
     0
290
     0
174
     0
 93
        1
 44
50.0
173
     0
291
     1
 45
0.0
  0
VISUALSTYLE
  5
691
102
{ACAD_REACTORS
330
681
102
}
330
681
100
AcDbVisualStyle
  2
ColorChange
 70
    16
 71
     2
 72
     2
 73
     3
 90
        0
 40
0.6
 41
30.0
 62
     5
 63
     8
421
  8421504
 74
     1
 91
        4
 64
     7
 65
   257
 75
     1
175
     1
 42
1.0
 92
        8
 66
     8
424
  8421504
 43
1.0
 76
     1
 77
     6
 78
     2
 67
     7
 79
     5
170
     0
171
     0
290
     0
174
     0
 93
        1
 44
0.0
173
     0
291
     1
 45
0.0
  0
VISUALSTYLE
  5
68B
102
{ACAD_REACTORS
330
681
102
}
330
681
100
AcDbVisualStyle
  2
Conceptual
 70
     9
 71
     3
 72
     2
 73
     0
 90
        0
 40
0.6
 41
30.0
 62
     5
 63
     7
421
 16777215
 74
     2
 91
        2
 64
     7
 65
   257
 75
     1
175
     1
 42
179.0
 92
        8
 66
     7
 43
1.0
 76
     1
 77
     6
 78
     2
 67
     7
 79
     3
170
     0
171
     0
290
     0
174
     0
 93
        1
 44
0.0
173
     0
291
     0
 45
0.0
  0
VISUALSTYLE
  5
68C
102
{ACAD_REACTORS
330
681
102
}
330
681
100
AcDbVisualStyle
  2
Dim
 70
    11
 71
     2
 72
     2
 73
     0
 90
        0
 40
0.6
 41
30.0
 62
     5
 63
     7
421
 16777215
 74
     1
 91
        4
 64
     7
 65
   257
 75
     1
175
     1
 42
1.0
 92
        8
 66
     7
 43
1.0
 76
     1
 77
     6
 78
     2
 67
     7
 79
     5
170
     0
171
     0
290
     0
174
     0
 93
        1
 44
-50.0
173
     0
291
     1
 45
0.0
  0
VISUALSTYLE
  5
694
102
{ACAD_REACTORS
330
681
102
}
330
681
100
AcDbVisualStyle
  2
EdgeColorOff
 70
    22
 71
     2
 72
     2
 73
     0
 90
        0
 40
0.6
 41
30.0
 62
     5
 63
     7
421
 16777215
 74
     1
 91
        4
 64
     7
 65
   257
 75
     1
175
     1
 42
1.0
 92
        8
 66
     7
 43
1.0
 76
     1
 77
     6
 78
     2
 67
     7
 79
     5
170
     0
171
     0
290
     0
174
     0
 93
        1
 44
0.0
173
     0
291
     1
 45
0.0
  0
VISUALSTYLE
  5
690
102
{ACAD_REACTORS
330
681
102
}
330
681
100
AcDbVisualStyle
  2
Facepattern
 70
    15
 71
     2
 72
     2
 73
     0
 90
        0
 40
0.6
 41
30.0
 62
     5
 63
     7
421
 16777215
 74
     1
 91
        4
 64
     7
 65
   257
 75
     1
175
     1
 42
1.0
 92
        8
 66
     7
 43
1.0
 76
     1
 77
     6
 78
     2
 67
     7
 79
     5
170
     0
171
     0
290
     0
174
     0
 93
        1
 44
0.0
173
     0
291
     1
 45
0.0
  0
VISUALSTYLE
  5
682
102
{ACAD_REACTORS
330
681
102
}
330
681
100
AcDbVisualStyle
  2
Flat
 70
     0
 71
     2
 72
     1
 73
     1
 90
        2
 40
0.6
 41
30.0
 62
     5
 63
     7
421
 16777215
 74
     0
 91
        0
 64
     7
 65
   257
 75
     1
175
     1
 42
1.0
 92
        8
 66
     7
 43
1.0
 76
     1
 77
     6
 78
     2
 67
     7
 79
     5
170
     0
171
     0
290
     0
174
     0
 93
       13
 44
0.0
173
     0
291
     1
 45
0.0
  0
VISUALSTYLE
  5
683
102
{ACAD_REACTORS
330
681
102
}
330
681
100
AcDbVisualStyle
  2
FlatWithEdges
 70
     1
 71
     2
 72
     1
 73
     1
 90
        2
 40
0.6
 41
30.0
 62
     5
 63
     7
421
 16777215
 74
     1
 91
        0
 64
     7
 65
   257
 75
     1
175
     1
 42
1.0
 92
        0
 66
   257
 43
1.0
 76
     1
 77
     6
 78
     2
 67
     7
 79
     5
170
     0
171
     0
290
     0
174
     0
 93
       13
 44
0.0
173
     0
291
     1
 45
0.0
  0
VISUALSTYLE
  5
684
102
{ACAD_REACTORS
330
681
102
}
330
681
100
AcDbVisualStyle
  2
Gouraud
 70
     2
 71
     2
 72
     2
 73
     1
 90
        2
 40
0.6
 41
30.0
 62
     5
 63
     7
421
 16777215
 74
     0
 91
        0
 64
     7
 65
   257
 75
     1
175
     1
 42
1.0
 92
        0
 66
     7
 43
1.0
 76
     1
 77
     6
 78
     2
 67
     7
 79
     5
170
     0
171
     0
290
     0
174
     0
 93
       13
 44
0.0
173
     0
291
     1
 45
0.0
  0
VISUALSTYLE
  5
685
102
{ACAD_REACTORS
330
681
102
}
330
681
100
AcDbVisualStyle
  2
GouraudWithEdges
 70
     3
 71
     2
 72
     2
 73
     1
 90
        2
 40
0.6
 41
30.0
 62
     5
 63
     7
421
 16777215
 74
     1
 91
        0
 64
     7
 65
   257
 75
     1
175
     1
 42
1.0
 92
        0
 66
   257
 43
1.0
 76
     1
 77
     6
 78
     2
 67
     7
 79
     5
170
     0
171
     0
290
     0
174
     0
 93
       13
 44
0.0
173
     0
291
     1
 45
0.0
  0
VISUALSTYLE
  5
688
102
{ACAD_REACTORS
330
681
102
}
330
681
100
AcDbVisualStyle
  2
Hidden
 70
     6
 71
     1
 72
     2
 73
     2
 90
        0
 40
0.6
 41
30.0
 62
     5
 63
     7
421
 16777215
 74
     2
 91
        2
 64
     7
 65
   257
 75
     2
175
     1
 42
40.0
 92
        0
 66
   257
 43
1.0
 76
     1
 77
     6
 78
     2
 67
     7
 79
     3
170
     0
171
     0
290
     0
174
     0
 93
        1
 44
0.0
173
     0
291
     0
 45
0.0
  0
VISUALSTYLE
  5
692
102
{ACAD_REACTORS
330
681
102
}
330
681
100
AcDbVisualStyle
  2
JitterOff
 70
    20
 71
     2
 72
     2
 73
     0
 90
        0
 40
0.6
 41
30.0
 62
     5
 63
     7
421
 16777215
 74
     1
 91
        4
 64
     7
 65
   257
 75
     1
175
     1
 42
1.0
 92
       10
 66
     7
 43
1.0
 76
     1
 77
     6
 78
     2
 67
     7
 79
     5
170
     0
171
     0
290
     0
174
     0
 93
        1
 44
0.0
173
     0
291
     1
 45
0.0
  0
VISUALSTYLE
  5
68F
102
{ACAD_REACTORS
330
681
102
}
330
681
100
AcDbVisualStyle
  2
Linepattern
 70
    14
 71
     2
 72
     2
 73
     0
 90
        0
 40
0.6
 41
30.0
 62
     5
 63
     7
421
 16777215
 74
     1
 91
        4
 64
     7
 65
   257
 75
     7
175
     7
 42
1.0
 92
        8
 66
     7
 43
1.0
 76
     1
 77
     6
 78
     2
 67
     7
 79
     5
170
     0
171
     0
290
     0
174
     0
 93
        1
 44
0.0
173
     0
291
     1
 45
0.0
  0
VISUALSTYLE
  5
693
102
{ACAD_REACTORS
330
681
102
}
330
681
100
AcDbVisualStyle
  2
OverhangOff
 70
    21
 71
     2
 72
     2
 73
     0
 90
        0
 40
0.6
 41
30.0
 62
     5
 63
     7
421
 16777215
 74
     1
 91
        4
 64
     7
 65
   257
 75
     1
175
     1
 42
1.0
 92
        9
 66
     7
 43
1.0
 76
     1
 77
     6
 78
     2
 67
     7
 79
     5
170
     0
171
     0
290
     0
174
     0
 93
        1
 44
0.0
173
     0
291
     1
 45
0.0
  0
VISUALSTYLE
  5
68A
102
{ACAD_REACTORS
330
681
102
}
330
681
100
AcDbVisualStyle
  2
Realistic
 70
     8
 71
     2
 72
     3
 73
     0
 90
        2
 40
0.6
 41
30.0
 62
     5
 63
     7
421
 16777215
 74
     0
 91
        0
 64
     7
 65
   257
 75
     1
175
     1
 42
1.0
 92
        8
 66
   257
 43
1.0
 76
     1
 77
     6
 78
     2
 67
     7
 79
     3
170
     0
171
     0
290
     0
174
     0
 93
       13
 44
0.0
173
     0
291
     0
 45
0.0
  0
VISUALSTYLE
  5
699
102
{ACAD_REACTORS
330
681
102
}
330
681
100
AcDbVisualStyle
  2
Shaded
 70
    27
 71
     2
 72
     2
 73
     1
 90
        2
 40
0.6
 41
30.0
 62
     5
 63
     7
421
 16777215
 74
     0
 91
        4
 64
     7
 65
   257
 75
     1
175
     1
 42
1.0
 92
        8
 66
   257
 43
1.0
 76
     1
 77
     6
 78
     2
 67
     8
425
  7895160
 79
     3
170
     0
171
     0
290
     0
174
     0
 93
        5
 44
0.0
173
     0
291
     0
 45
0.0
  0
VISUALSTYLE
  5
698
102
{ACAD_REACTORS
330
681
102
}
330
681
100
AcDbVisualStyle
  2
Shaded with edges
 70
    26
 71
     2
 72
     2
 73
     1
 90
        2
 40
0.6
 41
30.0
 62
     5
 63
     7
421
 16777215
 74
     1
 91
       10
 64
     7
 65
   257
 75
     2
175
     1
 42
1.0
 92
        8
 66
   257
 43
1.0
 76
     1
 77
     6
 78
     2
 67
     7
 79
     3
170
     0
171
     0
290
     0
174
     0
 93
        5
 44
0.0
173
     0
291
     0
 45
0.0
  0
VISUALSTYLE
  5
695
102
{ACAD_REACTORS
330
681
102
}
330
681
100
AcDbVisualStyle
  2
Shades of Gray
 70
    23
 71
     2
 72
     2
 73
     3
 90
        0
 40
0.6
 41
30.0
 62
     5
 63
     7
421
 16777215
 74
     2
 91
        2
 64
     7
 65
     7
 75
     1
175
     1
 42
40.0
 92
        8
 66
     7
 43
1.0
 76
     1
 77
     6
 78
     2
 67
     7
 79
     3
170
     0
171
     0
290
     0
174
     0
 93
        1
 44
0.0
173
     0
291
     0
 45
0.0
  0
VISUALSTYLE
  5
696
102
{ACAD_REACTORS
330
681
102
}
330
681
100
AcDbVisualStyle
  2
Sketchy
 70
    24
 71
     1
 72
     2
 73
     2
 90
        0
 40
0.6
 41
30.0
 62
     5
 63
     7
421
 16777215
 74
     2
 91
        2
 64
     7
 65
     7
 75
     1
175
     1
 42
40.0
 92
       11
 66
     7
 43
1.0
 76
     1
 77
     6
 78
     2
 67
     7
 79
     6
170
     0
171
     0
290
     0
174
     0
 93
        1
 44
0.0
173
     0
291
     0
 45
0.0
  0
VISUALSTYLE
  5
68E
102
{ACAD_REACTORS
330
681
102
}
330
681
100
AcDbVisualStyle
  2
Thicken
 70
    13
 71
     2
 72
     2
 73
     0
 90
        0
 40
0.6
 41
30.0
 62
     5
 63
     7
421
 16777215
 74
     1
 91
        4
 64
     7
 65
   257
 75
     1
175
     1
 42
1.0
 92
       12
 66
     7
 43
1.0
 76
     1
 77
     6
 78
     2
 67
     7
 79
     5
170
     0
171
     0
290
     0
174
     0
 93
        1
 44
0.0
173
     0
291
     1
 45
0.0
  0
VISUALSTYLE
  5
687
102
{ACAD_REACTORS
330
681
102
}
330
681
100
AcDbVisualStyle
  2
Wireframe
 70
     5
 71
     0
 72
     2
 73
     0
 90
        0
 40
0.6
 41
30.0
 62
     5
 63
     7
421
 16777215
 74
     1
 91
        4
 64
     7
 65
   257
 75
     1
175
     1
 42
1.0
 92
        0
 66
   257
 43
1.0
 76
     1
 77
     6
 78
     2
 67
     7
 79
     3
170
     0
171
     0
290
     0
174
     0
 93
        1
 44
0.0
173
     0
291
     0
 45
0.0
  0
VISUALSTYLE
  5
697
102
{ACAD_REACTORS
330
681
102
}
330
681
100
AcDbVisualStyle
  2
X-Ray
 70
    25
 71
     2
 72
     2
 73
     1
 90
        1
 40
0.5
 41
30.0
 62
     5
 63
     7
421
 16777215
 74
     1
 91
        0
 64
     7
 65
   257
 75
     1
175
     1
 42
1.0
 92
        8
 66
     7
 43
1.0
 76
     1
 77
     6
 78
     2
 67
     7
 79
     3
170
     0
171
     0
290
     0
174
     0
 93
       13
 44
0.0
173
     0
291
     0
 45
0.0
  0
DICTIONARYVAR
  5
6B3
102
{ACAD_REACTORS
330
6B2
102
}
330
6B2
100
DictionaryVariables
280
     0
  1
1:1
  0
DICTIONARYVAR
  5
6B9
102
{ACAD_REACTORS
330
6B2
102
}
330
6B2
100
DictionaryVariables
280
     0
  1
Standard
  0
DICTIONARYVAR
  5
6B8
102
{ACAD_REACTORS
330
6B2
102
}
330
6B2
100
DictionaryVariables
280
     0
  1
Standard
  0
DICTIONARYVAR
  5
6BA
102
{ACAD_REACTORS
330
6B2
102
}
330
6B2
100
DictionaryVariables
280
     0
  1
0
  0
DICTIONARY
  5
7CE
330
69F
100
AcDbDictionary
280
     1
281
     1
  3
ACAD_ROUNDTRIP_2008_TABLESTYLE_CELLSTYLEMAP
360
7CF
  0
CELLSTYLEMAP
  5
7CF
102
{ACAD_REACTORS
330
7CE
102
}
330
7CE
100
AcDbCellStyleMap
 90
        3
300
CELLSTYLE
  1
TABLEFORMAT_BEGIN
 90
        5
170
     1
 91
        0
 92
    32768
 62
   257
 93
        1
300
CONTENTFORMAT
  1
CONTENTFORMAT_BEGIN
 90
        0
 91
        0
 92
        4
 93
        0
300

 40
0.0
140
1.0
 94
        5
 62
     0
340
11
144
6.0
309
CONTENTFORMAT_END
171
     1
301
MARGIN
  1
CELLMARGIN_BEGIN
 40
1.5
 40
1.5
 40
1.5
 40
1.5
 40
1.5
 40
1.5
309
CELLMARGIN_END
 94
        6
 95
        1
302
GRIDFORMAT
  1
GRIDFORMAT_BEGIN
 90
        0
 91
        1
 62
     0
 92
       -2
340
14
 93
        0
 40
0.045
309
GRIDFORMAT_END
 95
        2
302
GRIDFORMAT
  1
GRIDFORMAT_BEGIN
 90
        0
 91
        1
 62
     0
 92
       -2
340
14
 93
        0
 40
0.045
309
GRIDFORMAT_END
 95
        4
302
GRIDFORMAT
  1
GRIDFORMAT_BEGIN
 90
        0
 91
        1
 62
     0
 92
       -2
340
14
 93
        0
 40
0.045
309
GRIDFORMAT_END
 95
        8
302
GRIDFORMAT
  1
GRIDFORMAT_BEGIN
 90
        0
 91
        1
 62
     0
 92
       -2
340
14
 93
        0
 40
0.045
309
GRIDFORMAT_END
 95
       16
302
GRIDFORMAT
  1
GRIDFORMAT_BEGIN
 90
        0
 91
        1
 62
     0
 92
       -2
340
14
 93
        0
 40
0.045
309
GRIDFORMAT_END
 95
       32
302
GRIDFORMAT
  1
GRIDFORMAT_BEGIN
 90
        0
 91
        1
 62
     0
 92
       -2
340
14
 93
        0
 40
0.045
309
GRIDFORMAT_END
309
TABLEFORMAT_END
  1
CELLSTYLE_BEGIN
 90
        1
 91
        1
300
_TITLE
309
CELLSTYLE_END
300
CELLSTYLE
  1
TABLEFORMAT_BEGIN
 90
        5
170
     1
 91
        0
 92
        0
 62
   257
 93
        1
300
CONTENTFORMAT
  1
CONTENTFORMAT_BEGIN
 90
        0
 91
        0
 92
        4
 93
        0
300

 40
0.0
140
1.0
 94
        5
 62
     0
340
11
144
4.5
309
CONTENTFORMAT_END
171
     1
301
MARGIN
  1
CELLMARGIN_BEGIN
 40
1.5
 40
1.5
 40
1.5
 40
1.5
 40
1.5
 40
1.5
309
CELLMARGIN_END
 94
        6
 95
        1
302
GRIDFORMAT
  1
GRIDFORMAT_BEGIN
 90
        0
 91
        1
 62
     0
 92
       -2
340
14
 93
        0
 40
0.045
309
GRIDFORMAT_END
 95
        2
302
GRIDFORMAT
  1
GRIDFORMAT_BEGIN
 90
        0
 91
        1
 62
     0
 92
       -2
340
14
 93
        0
 40
0.045
309
GRIDFORMAT_END
 95
        4
302
GRIDFORMAT
  1
GRIDFORMAT_BEGIN
 90
        0
 91
        1
 62
     0
 92
       -2
340
14
 93
        0
 40
0.045
309
GRIDFORMAT_END
 95
        8
302
GRIDFORMAT
  1
GRIDFORMAT_BEGIN
 90
        0
 91
        1
 62
     0
 92
       -2
340
14
 93
        0
 40
0.045
309
GRIDFORMAT_END
 95
       16
302
GRIDFORMAT
  1
GRIDFORMAT_BEGIN
 90
        0
 91
        1
 62
     0
 92
       -2
340
14
 93
        0
 40
0.045
309
GRIDFORMAT_END
 95
       32
302
GRIDFORMAT
  1
GRIDFORMAT_BEGIN
 90
        0
 91
        1
 62
     0
 92
       -2
340
14
 93
        0
 40
0.045
309
GRIDFORMAT_END
309
TABLEFORMAT_END
  1
CELLSTYLE_BEGIN
 90
        2
 91
        1
300
_HEADER
309
CELLSTYLE_END
300
CELLSTYLE
  1
TABLEFORMAT_BEGIN
 90
        5
170
     1
 91
        0
 92
        0
 62
   257
 93
        1
300
CONTENTFORMAT
  1
CONTENTFORMAT_BEGIN
 90
        0
 91
        0
 92
        4
 93
        0
300

 40
0.0
140
1.0
 94
        2
 62
     0
340
11
144
4.5
309
CONTENTFORMAT_END
171
     1
301
MARGIN
  1
CELLMARGIN_BEGIN
 40
1.5
 40
1.5
 40
1.5
 40
1.5
 40
1.5
 40
1.5
309
CELLMARGIN_END
 94
        6
 95
        1
302
GRIDFORMAT
  1
GRIDFORMAT_BEGIN
 90
        0
 91
        1
 62
     0
 92
       -2
340
14
 93
        0
 40
0.045
309
GRIDFORMAT_END
 95
        2
302
GRIDFORMAT
  1
GRIDFORMAT_BEGIN
 90
        0
 91
        1
 62
     0
 92
       -2
340
14
 93
        0
 40
0.045
309
GRIDFORMAT_END
 95
        4
302
GRIDFORMAT
  1
GRIDFORMAT_BEGIN
 90
        0
 91
        1
 62
     0
 92
       -2
340
14
 93
        0
 40
0.045
309
GRIDFORMAT_END
 95
        8
302
GRIDFORMAT
  1
GRIDFORMAT_BEGIN
 90
        0
 91
        1
 62
     0
 92
       -2
340
14
 93
        0
 40
0.045
309
GRIDFORMAT_END
 95
       16
302
GRIDFORMAT
  1
GRIDFORMAT_BEGIN
 90
        0
 91
        1
 62
     0
 92
       -2
340
14
 93
        0
 40
0.045
309
GRIDFORMAT_END
 95
       32
302
GRIDFORMAT
  1
GRIDFORMAT_BEGIN
 90
        0
 91
        1
 62
     0
 92
       -2
340
14
 93
        0
 40
0.045
309
GRIDFORMAT_END
309
TABLEFORMAT_END
  1
CELLSTYLE_BEGIN
 90
        3
 91
        2
300
_DATA
309
CELLSTYLE_END
  0
ENDSEC
  0
EOF
