  0
SECTION
  2
HEADER
  9
$ACADVER
  1
AC1021
  9
$ACADMAINTVER
 70
    25
  9
$DWGCODEPAGE
  3
ANSI_1257
  9
$LASTSAVEDBY
  1
mariusbitinas
  9
$INSBASE
 10
0.0
 20
0.0
 30
0.0
  9
$EXTMIN
 10
-830.305631562966
 20
-472.4867318781
 30
0.0
  9
$EXTMAX
 10
1182.284702786184
 20
412.7313991997
 30
0.0
  9
$LIMMIN
 10
0.0
 20
0.0
  9
$LIMMAX
 10
420.0
 20
297.0
  9
$ORTHOMODE
 70
     1
  9
$REGENMODE
 70
     1
  9
$FILLMODE
 70
     1
  9
$QTEXTMODE
 70
     0
  9
$MIRRTEXT
 70
     1
  9
$LTSCALE
 40
1.0
  9
$ATTMODE
 70
     1
  9
$TEXTSIZE
 40
5.6444444444
  9
$TRACEWID
 40
1.0
  9
$TEXTSTYLE
  7
Standard
  9
$CLAYER
  8
0
  9
$CELTYPE
  6
ByLayer
  9
$CECOLOR
 62
   256
  9
$CELTSCALE
 40
1.0
  9
$DISPSILH
 70
     0
  9
$DIMSCALE
 40
1.0
  9
$DIMASZ
 40
3.175
  9
$DIMEXO
 40
1.0
  9
$DIMDLI
 40
3.75
  9
$DIMRND
 40
0.0
  9
$DIMDLE
 40
0.0
  9
$DIMEXE
 40
1.0
  9
$DIMTP
 40
0.0
  9
$DIMTM
 40
0.0
  9
$DIMTXT
 40
4.9388888889
  9
$DIMCEN
 40
2.5
  9
$DIMTSZ
 40
0.0
  9
$DIMTOL
 70
     0
  9
$DIMLIM
 70
     0
  9
$DIMTIH
 70
     1
  9
$DIMTOH
 70
     1
  9
$DIMSE1
 70
     0
  9
$DIMSE2
 70
     0
  9
$DIMTAD
 70
     1
  9
$DIMZIN
 70
     0
  9
$DIMBLK
  1

  9
$DIMASO
 70
     1
  9
$DIMSHO
 70
     1
  9
$DIMPOST
  1

  9
$DIMAPOST
  1

  9
$DIMALT
 70
     0
  9
$DIMALTD
 70
     3
  9
$DIMALTF
 40
0.0393700787
  9
$DIMLFAC
 40
1.0
  9
$DIMTOFL
 70
     1
  9
$DIMTVP
 40
0.0
  9
$DIMTIX
 70
     0
  9
$DIMSOXD
 70
     0
  9
$DIMSAH
 70
     0
  9
$DIMBLK1
  1

  9
$DIMBLK2
  1

  9
$DIMSTYLE
  2
ISO-25
  9
$DIMCLRD
 70
     0
  9
$DIMCLRE
 70
     0
  9
$DIMCLRT
 70
     0
  9
$DIMTFAC
 40
1.0
  9
$DIMGAP
 40
1.524
  9
$DIMJUST
 70
     0
  9
$DIMSD1
 70
     0
  9
$DIMSD2
 70
     0
  9
$DIMTOLJ
 70
     0
  9
$DIMTZIN
 70
     0
  9
$DIMALTZ
 70
     0
  9
$DIMALTTZ
 70
     0
  9
$DIMUPT
 70
     0
  9
$DIMDEC
 70
     1
  9
$DIMTDEC
 70
     1
  9
$DIMALTU
 70
     2
  9
$DIMALTTD
 70
     3
  9
$DIMTXSTY
  7
Standard
  9
$DIMAUNIT
 70
     0
  9
$DIMADEC
 70
     1
  9
$DIMALTRND
 40
0.0
  9
$DIMAZIN
 70
     0
  9
$DIMDSEP
 70
    44
  9
$DIMATFIT
 70
     3
  9
$DIMFRAC
 70
     0
  9
$DIMLDRBLK
  1

  9
$DIMLUNIT
 70
     2
  9
$DIMLWD
 70
    -2
  9
$DIMLWE
 70
    -2
  9
$DIMTMOVE
 70
     0
  9
$DIMFXL
 40
1.0
  9
$DIMFXLON
 70
     0
  9
$DIMJOGANG
 40
0.7853981633974483
  9
$DIMTFILL
 70
     0
  9
$DIMTFILLCLR
 70
     0
  9
$DIMARCSYM
 70
     0
  9
$DIMLTYPE
  6

  9
$DIMLTEX1
  6

  9
$DIMLTEX2
  6

  9
$LUNITS
 70
     2
  9
$LUPREC
 70
     1
  9
$SKETCHINC
 40
1.0
  9
$FILLETRAD
 40
10.0
  9
$AUNITS
 70
     0
  9
$AUPREC
 70
     1
  9
$MENU
  1
.
  9
$ELEVATION
 40
0.0
  9
$PELEVATION
 40
0.0
  9
$THICKNESS
 40
0.0
  9
$LIMCHECK
 70
     0
  9
$CHAMFERA
 40
0.0
  9
$CHAMFERB
 40
0.0
  9
$CHAMFERC
 40
0.0
  9
$CHAMFERD
 40
0.0
  9
$SKPOLY
 70
     0
  9
$TDCREATE
 40
2459177.555590451
  9
$TDUCREATE
 40
2459177.472257118
  9
$TDUPDATE
 40
2459177.56210228
  9
$TDUUPDATE
 40
2459177.478768947
  9
$TDINDWG
 40
0.0037838079
  9
$TDUSRTIMER
 40
0.0006004282
  9
$USRTIMER
 70
     1
  9
$ANGBASE
 50
0.0
  9
$ANGDIR
 70
     0
  9
$PDMODE
 70
     0
  9
$PDSIZE
 40
-1.0
  9
$PLINEWID
 40
0.0
  9
$SPLFRAME
 70
     0
  9
$SPLINETYPE
 70
     6
  9
$SPLINESEGS
 70
     8
  9
$HANDSEED
  5
71B
  9
$SURFTAB1
 70
     6
  9
$SURFTAB2
 70
     6
  9
$SURFTYPE
 70
     6
  9
$SURFU
 70
     6
  9
$SURFV
 70
     6
  9
$UCSBASE
  2

  9
$UCSNAME
  2

  9
$UCSORG
 10
0.0
 20
0.0
 30
0.0
  9
$UCSXDIR
 10
1.0
 20
0.0
 30
0.0
  9
$UCSYDIR
 10
0.0
 20
1.0
 30
0.0
  9
$UCSORTHOREF
  2

  9
$UCSORTHOVIEW
 70
     0
  9
$UCSORGTOP
 10
0.0
 20
0.0
 30
0.0
  9
$UCSORGBOTTOM
 10
0.0
 20
0.0
 30
0.0
  9
$UCSORGLEFT
 10
0.0
 20
0.0
 30
0.0
  9
$UCSORGRIGHT
 10
0.0
 20
0.0
 30
0.0
  9
$UCSORGFRONT
 10
0.0
 20
0.0
 30
0.0
  9
$UCSORGBACK
 10
0.0
 20
0.0
 30
0.0
  9
$PUCSBASE
  2

  9
$PUCSNAME
  2

  9
$PUCSORG
 10
0.0
 20
0.0
 30
0.0
  9
$PUCSXDIR
 10
1.0
 20
0.0
 30
0.0
  9
$PUCSYDIR
 10
0.0
 20
1.0
 30
0.0
  9
$PUCSORTHOREF
  2

  9
$PUCSORTHOVIEW
 70
     0
  9
$PUCSORGTOP
 10
0.0
 20
0.0
 30
0.0
  9
$PUCSORGBOTTOM
 10
0.0
 20
0.0
 30
0.0
  9
$PUCSORGLEFT
 10
0.0
 20
0.0
 30
0.0
  9
$PUCSORGRIGHT
 10
0.0
 20
0.0
 30
0.0
  9
$PUCSORGFRONT
 10
0.0
 20
0.0
 30
0.0
  9
$PUCSORGBACK
 10
0.0
 20
0.0
 30
0.0
  9
$USERI1
 70
     0
  9
$USERI2
 70
     0
  9
$USERI3
 70
     0
  9
$USERI4
 70
     0
  9
$USERI5
 70
     0
  9
$USERR1
 40
0.0
  9
$USERR2
 40
0.0
  9
$USERR3
 40
0.0
  9
$USERR4
 40
0.0
  9
$USERR5
 40
0.0
  9
$WORLDVIEW
 70
     1
  9
$SHADEDGE
 70
     3
  9
$SHADEDIF
 70
    70
  9
$TILEMODE
 70
     1
  9
$MAXACTVP
 70
    64
  9
$PINSBASE
 10
0.0
 20
0.0
 30
0.0
  9
$PLIMCHECK
 70
     0
  9
$PEXTMIN
 10
1.000000000000000E+20
 20
1.000000000000000E+20
 30
1.000000000000000E+20
  9
$PEXTMAX
 10
-1.000000000000000E+20
 20
-1.000000000000000E+20
 30
-1.000000000000000E+20
  9
$PLIMMIN
 10
0.0
 20
0.0
  9
$PLIMMAX
 10
0.0
 20
0.0
  9
$UNITMODE
 70
     0
  9
$VISRETAIN
 70
     1
  9
$PLINEGEN
 70
     0
  9
$PSLTSCALE
 70
     1
  9
$TREEDEPTH
 70
  3020
  9
$CMLSTYLE
  2
Standard
  9
$CMLJUST
 70
     0
  9
$CMLSCALE
 40
20.0
  9
$PROXYGRAPHICS
 70
     1
  9
$MEASUREMENT
 70
     1
  9
$CELWEIGHT
370
    -1
  9
$ENDCAPS
280
     0
  9
$JOINSTYLE
280
     0
  9
$LWDISPLAY
290
     1
  9
$INSUNITS
 70
     4
  9
$HYPERLINKBASE
  1

  9
$STYLESHEET
  1

  9
$XEDIT
290
     1
  9
$CEPSNTYPE
380
     0
  9
$PSTYLEMODE
290
     1
  9
$FINGERPRINTGUID
  2
{19b06f1d-8757-446d-949b-dfd6f965fe3e}
  9
$VERSIONGUID
  2
{FAEB1C32-E019-11D5-929B-00C0DF256EC4}
  9
$EXTNAMES
290
     1
  9
$PSVPSCALE
 40
0.0
  9
$OLESTARTUP
290
     0
  9
$SORTENTS
280
   127
  9
$INDEXCTL
280
     0
  9
$HIDETEXT
280
     1
  9
$XCLIPFRAME
290
     0
  9
$HALOGAP
280
     0
  9
$OBSCOLOR
 70
   257
  9
$OBSLTYPE
280
     0
  9
$INTERSECTIONDISPLAY
280
     0
  9
$INTERSECTIONCOLOR
 70
   257
  9
$DIMASSOC
280
     2
  9
$PROJECTNAME
  1

  9
$CAMERADISPLAY
290
     0
  9
$LENSLENGTH
 40
50.0
  9
$CAMERAHEIGHT
 40
0.0
  9
$STEPSPERSEC
 40
2.0
  9
$STEPSIZE
 40
6.0
  9
$3DDWFPREC
 40
2.0
  9
$PSOLWIDTH
 40
0.25
  9
$PSOLHEIGHT
 40
4.0
  9
$LOFTANG1
 40
1.570796326794897
  9
$LOFTANG2
 40
1.570796326794897
  9
$LOFTMAG1
 40
0.0
  9
$LOFTMAG2
 40
0.0
  9
$LOFTPARAM
 70
     7
  9
$LOFTNORMALS
280
     1
  9
$LATITUDE
 40
37.795
  9
$LONGITUDE
 40
-122.394
  9
$NORTHDIRECTION
 40
0.0
  9
$TIMEZONE
 70
 -8000
  9
$LIGHTGLYPHDISPLAY
280
     1
  9
$TILEMODELIGHTSYNCH
280
     1
  9
$SOLIDHIST
280
     0
  9
$SHOWHIST
280
     1
  9
$DWFFRAME
280
     2
  9
$DGNFRAME
280
     2
  9
$REALWORLDSCALE
290
     1
  9
$INTERFERECOLOR
 62
   256
  9
$CSHADOW
280
     0
  9
$SHADOWPLANELOCATION
 40
0.0
  0
ENDSEC
  0
SECTION
  2
CLASSES
  0
CLASS
  1
ACDBDICTIONARYWDFLT
  2
AcDbDictionaryWithDefault
  3
ObjectDBX Classes
 90
        0
 91
        3
280
     0
281
     0
  0
CLASS
  1
VISUALSTYLE
  2
AcDbVisualStyle
  3
ObjectDBX Classes
 90
     4095
 91
        3
280
     0
281
     0
  0
CLASS
  1
MATERIAL
  2
AcDbMaterial
  3
ObjectDBX Classes
 90
     1153
 91
        3
280
     0
281
     0
  0
CLASS
  1
SCALE
  2
AcDbScale
  3
ObjectDBX Classes
 90
     1153
 91
        3
280
     0
281
     0
  0
CLASS
  1
TABLESTYLE
  2
AcDbTableStyle
  3
ObjectDBX Classes
 90
     4095
 91
        3
280
     0
281
     0
  0
CLASS
  1
MLEADERSTYLE
  2
AcDbMLeaderStyle
  3
ACDB_MLEADERSTYLE_CLASS
 90
     4095
 91
        3
280
     0
281
     0
  0
CLASS
  1
SUN
  2
AcDbSun
  3
SCENEOE
 90
     1153
 91
        3
280
     0
281
     0
  0
CLASS
  1
ACDBPLACEHOLDER
  2
AcDbPlaceHolder
  3
ObjectDBX Classes
 90
        0
 91
        1
280
     0
281
     0
  0
CLASS
  1
LAYOUT
  2
AcDbLayout
  3
ObjectDBX Classes
 90
        0
 91
        1
280
     0
281
     0
  0
CLASS
  1
DICTIONARYVAR
  2
AcDbDictionaryVar
  3
ObjectDBX Classes
 90
        0
 91
        3
280
     0
281
     0
  0
CLASS
  1
CELLSTYLEMAP
  2
AcDbCellStyleMap
  3
ObjectDBX Classes
 90
     1152
 91
        3
280
     0
281
     0
  0
ENDSEC
  0
SECTION
  2
TABLES
  0
TABLE
  2
VPORT
  5
8
330
0
100
AcDbSymbolTable
 70
     1
  0
VPORT
  5
29
330
8
100
AcDbSymbolTableRecord
100
AcDbViewportTableRecord
  2
*Active
 70
     0
 10
0.0
 20
0.0
 11
1.0
 21
1.0
 12
55.94061178089339
 22
269.0784091750129
 13
0.0
 23
0.0
 14
10.0
 24
10.0
 15
10.0
 25
10.0
 16
0.0
 26
0.0
 36
1.0
 17
0.0
 27
0.0
 37
0.0
 40
2212.822437286377
 41
1.644036697247707
 42
50.0
 43
0.0
 44
0.0
 50
0.0
 51
0.0
 71
    16
 72
  2000
 73
     1
 74
     3
 75
     0
 76
     0
 77
     0
 78
     0
281
     0
 65
     1
110
0.0
120
0.0
130
0.0
111
1.0
121
0.0
131
0.0
112
0.0
122
1.0
132
0.0
 79
     0
146
0.0
348
696
 60
     3
 61
     5
292
     1
282
     1
141
0.0
142
0.0
 63
   250
  0
ENDTAB
  0
TABLE
  2
LTYPE
  5
5
330
0
100
AcDbSymbolTable
 70
     6
  0
LTYPE
  5
14
330
5
100
AcDbSymbolTableRecord
100
AcDbLinetypeTableRecord
  2
ByBlock
 70
     0
  3

 72
    65
 73
     0
 40
0.0
  0
LTYPE
  5
15
330
5
100
AcDbSymbolTableRecord
100
AcDbLinetypeTableRecord
  2
ByLayer
 70
     0
  3

 72
    65
 73
     0
 40
0.0
  0
LTYPE
  5
16
330
5
100
AcDbSymbolTableRecord
100
AcDbLinetypeTableRecord
  2
Continuous
 70
     0
  3
Solid line
 72
    65
 73
     0
 40
0.0
  0
LTYPE
  5
6E
330
5
100
AcDbSymbolTableRecord
100
AcDbLinetypeTableRecord
  2
HIDDEN
 70
     0
  3
Hidden __ __ __ __ __ __ __ __ __ __ __ __ __ __
 72
    65
 73
     2
 40
1.905
 49
1.27
 74
     0
 49
-0.635
 74
     0
  0
LTYPE
  5
6F
330
5
100
AcDbSymbolTableRecord
100
AcDbLinetypeTableRecord
  2
PHANTOM
 70
     0
  3
Phantom ______  __  __  ______  __  __  ______
 72
    65
 73
     6
 40
12.7
 49
6.35
 74
     0
 49
-1.27
 74
     0
 49
1.27
 74
     0
 49
-1.27
 74
     0
 49
1.27
 74
     0
 49
-1.27
 74
     0
  0
LTYPE
  5
70
330
5
100
AcDbSymbolTableRecord
100
AcDbLinetypeTableRecord
  2
CENTER
 70
     0
  3
Center ____ _ ____ _ ____ _ ____ _ ____ _ ____
 72
    65
 73
     4
 40
10.16
 49
6.35
 74
     0
 49
-1.27
 74
     0
 49
1.27
 74
     0
 49
-1.27
 74
     0
  0
LTYPE
  5
71
330
5
100
AcDbSymbolTableRecord
100
AcDbLinetypeTableRecord
  2
CENTERX2
 70
     0
  3
Center (2x) ________  __  ________  __  _____
 72
    65
 73
     4
 40
20.32
 49
12.7
 74
     0
 49
-2.54
 74
     0
 49
2.54
 74
     0
 49
-2.54
 74
     0
  0
LTYPE
  5
72
330
5
100
AcDbSymbolTableRecord
100
AcDbLinetypeTableRecord
  2
DOT2
 70
     0
  3
Dot (.5x) ........................................
 72
    65
 73
     2
 40
0.635
 49
0.0
 74
     0
 49
-0.635
 74
     0
  0
ENDTAB
  0
TABLE
  2
LAYER
  5
2
330
0
100
AcDbSymbolTable
 70
     2
  0
LAYER
  5
10
330
2
100
AcDbSymbolTableRecord
100
AcDbLayerTableRecord
  2
0
 70
     0
 62
     7
  6
Continuous
370
    -3
390
F
347
6AD
  0
LAYER
  5
73
330
2
100
AcDbSymbolTableRecord
100
AcDbLayerTableRecord
  2
LENKIMO
 70
     0
 62
     1
  6
CENTERX2
370
    -3
390
F
347
6AD
  0
ENDTAB
  0
TABLE
  2
STYLE
  5
3
330
0
100
AcDbSymbolTable
 70
     1
  0
STYLE
  5
11
330
3
100
AcDbSymbolTableRecord
100
AcDbTextStyleTableRecord
  2
Standard
 70
     0
 40
0.0
 41
1.0
 50
0.0
 71
     0
 42
5.6444444444
  3
txt
  4

  0
ENDTAB
  0
TABLE
  2
VIEW
  5
6
330
0
100
AcDbSymbolTable
 70
     0
  0
ENDTAB
  0
TABLE
  2
UCS
  5
7
330
0
100
AcDbSymbolTable
 70
     0
  0
ENDTAB
  0
TABLE
  2
APPID
  5
9
330
0
100
AcDbSymbolTable
 70
     2
  0
APPID
  5
12
330
9
100
AcDbSymbolTableRecord
100
AcDbRegAppTableRecord
  2
ACAD
 70
     0
  0
APPID
  5
719
330
9
100
AcDbSymbolTableRecord
100
AcDbRegAppTableRecord
  2
ACAD_MLEADERVER
 70
     0
  0
ENDTAB
  0
TABLE
  2
DIMSTYLE
  5
A
330
0
100
AcDbSymbolTable
 70
     5
100
AcDbDimStyleTable
  0
DIMSTYLE
105
27
330
A
100
AcDbSymbolTableRecord
100
AcDbDimStyleTableRecord
  2
ISO-25
 70
     0
 41
2.5
 42
0.625
 43
3.75
 44
1.25
 73
     0
 74
     0
 77
     1
 78
     8
140
2.5
141
2.5
143
0.0393700787
147
0.625
171
     3
172
     1
178
     0
271
     2
272
     2
274
     3
278
    44
283
     0
284
     8
340
11
  0
DIMSTYLE
105
6D1
330
A
100
AcDbSymbolTableRecord
100
AcDbDimStyleTableRecord
  2
SLDDIMSTYLE1
 70
     0
 41
4.0
 44
0.0
 45
0.000000001
 73
     0
 77
     1
 78
    12
140
2.6458333333
144
10.0
147
0.6614583333000001
173
     1
178
     0
340
11
  0
DIMSTYLE
105
6D2
330
A
100
AcDbSymbolTableRecord
100
AcDbDimStyleTableRecord
  2
SLDDIMSTYLE2
 70
     0
 41
4.0
 44
0.0
 45
0.000000001
 73
     0
 77
     1
 78
    12
140
2.6458333333
144
10.0
147
0.6614583333000001
173
     1
178
     0
340
11
  0
DIMSTYLE
105
6D3
330
A
100
AcDbSymbolTableRecord
100
AcDbDimStyleTableRecord
  2
SLDDIMSTYLE3
 70
     0
 41
4.0
 44
0.0
 45
0.000000001
146
4.0
147
0.0
173
     1
178
     0
340
11
  0
DIMSTYLE
105
6D4
330
A
100
AcDbSymbolTableRecord
100
AcDbDimStyleTableRecord
  2
SLDDIMSTYLE4
 70
     0
 41
4.0
 44
0.0
 73
     0
 77
     1
 78
    12
140
2.6458333333
144
7.5
147
0.6614583333000001
173
     1
178
     0
340
11
  0
ENDTAB
  0
TABLE
  2
BLOCK_RECORD
  5
1
330
0
100
AcDbSymbolTable
 70
     5
  0
BLOCK_RECORD
  5
1F
102
{ACAD_XDICTIONARY
360
6BE
102
}
330
1
100
AcDbSymbolTableRecord
100
AcDbBlockTableRecord
  2
*Model_Space
340
22
 70
     0
280
     1
281
     0
  0
BLOCK_RECORD
  5
1B
330
1
100
AcDbSymbolTableRecord
100
AcDbBlockTableRecord
  2
*Paper_Space
340
1E
 70
     0
280
     1
281
     0
  0
BLOCK_RECORD
  5
23
330
1
100
AcDbSymbolTableRecord
100
AcDbBlockTableRecord
  2
*Paper_Space0
340
26
 70
     0
280
     1
281
     0
  0
BLOCK_RECORD
  5
74
330
1
100
AcDbSymbolTableRecord
100
AcDbBlockTableRecord
  2
Block11_2
340
0
 70
     0
280
     1
281
     0
  0
BLOCK_RECORD
  5
6DD
330
1
100
AcDbSymbolTableRecord
100
AcDbBlockTableRecord
  2
*U3
340
0
102
{BLKREFS
331
6DC
331
6FB
331
6FF
331
712
102
}
 70
     0
280
     1
281
     0
  0
BLOCK_RECORD
  5
6E2
330
1
100
AcDbSymbolTableRecord
100
AcDbBlockTableRecord
  2
*U4
340
0
102
{BLKREFS
331
6E1
331
700
102
}
 70
     0
280
     1
281
     0
  0
BLOCK_RECORD
  5
6F7
330
1
100
AcDbSymbolTableRecord
100
AcDbBlockTableRecord
  2
*U5
340
0
102
{BLKREFS
331
6F6
331
711
102
}
 70
     0
280
     1
281
     0
  0
ENDTAB
  0
ENDSEC
  0
SECTION
  2
BLOCKS
  0
BLOCK
  5
20
330
1F
100
AcDbEntity
  8
0
100
AcDbBlockBegin
  2
*Model_Space
 70
     0
 10
0.0
 20
0.0
 30
0.0
  3
*Model_Space
  1

  0
ENDBLK
  5
21
330
1F
100
AcDbEntity
  8
0
100
AcDbBlockEnd
  0
BLOCK
  5
1C
330
1B
100
AcDbEntity
 67
     1
  8
0
100
AcDbBlockBegin
  2
*Paper_Space
 70
     0
 10
0.0
 20
0.0
 30
0.0
  3
*Paper_Space
  1

  0
ENDBLK
  5
1D
330
1B
100
AcDbEntity
 67
     1
  8
0
100
AcDbBlockEnd
  0
BLOCK
  5
24
330
23
100
AcDbEntity
  8
0
100
AcDbBlockBegin
  2
*Paper_Space0
 70
     0
 10
0.0
 20
0.0
 30
0.0
  3
*Paper_Space0
  1

  0
ENDBLK
  5
25
330
23
100
AcDbEntity
  8
0
100
AcDbBlockEnd
  0
BLOCK
  5
75
330
74
100
AcDbEntity
  8
0
100
AcDbBlockBegin
  2
Block11_2
 70
     0
 10
0.0
 20
0.0
 30
0.0
  3
Block11_2
  1

  0
LINE
  5
77
330
74
100
AcDbEntity
  8
0
  6
Continuous
100
AcDbLine
 10
-15.7956326374
 20
2.3055746011
 30
0.0
 11
-18.0649288667
 21
1.8146036087
 31
0.0
  0
LINE
  5
78
330
74
100
AcDbEntity
  8
0
  6
Continuous
100
AcDbLine
 10
-15.6988785554
 20
-9.1195335787
 30
0.0
 11
-10.2261014967
 21
-7.9354771524
 31
0.0
  0
LINE
  5
79
330
74
100
AcDbEntity
  8
0
  6
Continuous
100
AcDbLine
 10
-10.2261014967
 20
-7.9354771524
 30
0.0
 11
-10.6655808869
 21
-5.9041780766
 31
0.0
  0
LINE
  5
7A
330
74
100
AcDbEntity
  8
0
  6
Continuous
100
AcDbLine
 10
-10.6655808869
 20
-5.9041780766
 30
0.0
 11
-13.8699456036
 21
-6.5974547429
 31
0.0
  0
LINE
  5
7B
330
74
100
AcDbEntity
  8
0
  6
Continuous
100
AcDbLine
 10
-8.296070931
 20
1.802048972
 30
0.0
 11
-6.9198111955
 21
2.0998080743
 31
0.0
  0
LINE
  5
7C
330
74
100
AcDbEntity
  8
0
  6
Continuous
100
AcDbLine
 10
-5.4333831358
 20
-4.7719736412
 30
0.0
 11
-6.8095376466
 21
-5.0697099777
 31
0.0
  0
LINE
  5
7D
330
74
100
AcDbEntity
  8
0
  6
Continuous
100
AcDbLine
 10
-11.0044904538
 20
3.3421566929
 30
0.0
 11
-8.6388294738
 21
-7.5920647278
 31
0.0
  0
LINE
  5
7E
330
74
100
AcDbEntity
  8
0
  6
Continuous
100
AcDbLine
 10
-8.6388294738
 20
-7.5920647278
 30
0.0
 11
-8.6384401425
 21
-7.5919804944
 31
0.0
  0
LINE
  5
7F
330
74
100
AcDbEntity
  8
0
  6
Continuous
100
AcDbLine
 10
-8.6384401425
 20
-7.5919804944
 30
0.0
 11
-4.4940245505
 21
-6.6953201952
 31
0.0
  0
LINE
  5
80
330
74
100
AcDbEntity
  8
0
  6
Continuous
100
AcDbLine
 10
-6.8595855671
 20
4.238922853
 30
0.0
 11
-11.0044904538
 21
3.3421566929
 31
0.0
  0
LINE
  5
81
330
74
100
AcDbEntity
  8
0
  6
Continuous
100
AcDbLine
 10
-32.9933593229
 20
-3.3005605139
 30
0.0
 11
-32.8591663041
 21
-3.2715273367
 31
0.0
  0
LINE
  5
82
330
74
100
AcDbEntity
  8
0
  6
Continuous
100
AcDbLine
 10
-31.5697721187
 20
-3.9678201523
 30
0.0
 11
-29.2969561243
 21
-3.4760876451
 31
0.0
  0
LINE
  5
83
330
74
100
AcDbEntity
  8
0
  6
Continuous
100
AcDbLine
 10
-33.2794920496
 20
-1.2667721217
 30
0.0
 11
-33.3448839193
 21
-1.2809199049
 31
0.0
  0
LINE
  5
84
330
74
100
AcDbEntity
  8
0
  6
Continuous
100
AcDbLine
 10
-31.3289079349
 20
-10.5856399919
 30
0.0
 11
-31.4650581325
 21
-10.6150966123
 31
0.0
  0
LINE
  5
85
330
74
100
AcDbEntity
  8
0
  6
Continuous
100
AcDbLine
 10
-32.8822392925
 20
-9.9377601564
 30
0.0
 11
-35.1888692339
 21
-10.4368084414
 31
0.0
  0
LINE
  5
86
330
74
100
AcDbEntity
  8
0
  6
Continuous
100
AcDbLine
 10
-31.5949683304
 20
-12.7295787952
 30
0.0
 11
-30.2063920476
 21
-12.4291549603
 31
0.0
  0
LINE
  5
87
330
74
100
AcDbEntity
  8
0
  6
Continuous
100
AcDbLine
 10
6.262509235
 20
-4.3681026205
 30
0.0
 11
8.6370616994
 21
-3.8543590356
 31
0.0
  0
LINE
  5
88
330
74
100
AcDbEntity
  8
0
  6
Continuous
100
AcDbLine
 10
8.6370616994
 20
-3.8543590356
 30
0.0
 11
3.9059396663
 21
6.5680857621
 31
0.0
  0
LINE
  5
89
330
74
100
AcDbEntity
  8
0
  6
Continuous
100
AcDbLine
 10
3.9059396663
 20
6.5680857621
 30
0.0
 11
0.0
 21
5.7230206493
 31
0.0
  0
LINE
  5
8A
330
74
100
AcDbEntity
  8
0
  6
Continuous
100
AcDbLine
 10
0.0
 20
5.7230206493
 30
0.0
 11
0.0
 21
-5.7230206493
 31
0.0
  0
LINE
  5
8B
330
74
100
AcDbEntity
  8
0
  6
Continuous
100
AcDbLine
 10
0.0
 20
-5.7230206493
 30
0.0
 11
2.3746576891
 21
-5.2092542987
 31
0.0
  0
LINE
  5
8C
330
74
100
AcDbEntity
  8
0
  6
Continuous
100
AcDbLine
 10
2.3746576891
 20
-5.2092542987
 30
0.0
 11
2.3747844598
 21
-3.0912381741
 31
0.0
  0
LINE
  5
8D
330
74
100
AcDbEntity
  8
0
  6
Continuous
100
AcDbLine
 10
2.3747844598
 20
-3.0912381741
 30
0.0
 11
4.0318309599
 21
-2.7327297722
 31
0.0
  0
LINE
  5
8E
330
74
100
AcDbEntity
  8
0
  6
Continuous
100
AcDbLine
 10
4.0318309599
 20
-2.7327297722
 30
0.0
 11
3.5923515697
 21
-0.7014306964
 31
0.0
  0
LINE
  5
8F
330
74
100
AcDbEntity
  8
0
  6
Continuous
100
AcDbLine
 10
3.5923515697
 20
-0.7014306964
 30
0.0
 11
2.3750284336
 21
-0.9648032524
 31
0.0
  0
LINE
  5
90
330
74
100
AcDbEntity
  8
0
  6
Continuous
100
AcDbLine
 10
2.3750284336
 20
-0.9648032524
 30
0.0
 11
2.3752084601
 21
4.1936873712
 31
0.0
  0
LINE
  5
91
330
74
100
AcDbEntity
  8
0
  6
Continuous
100
AcDbLine
 10
2.3752084601
 20
4.1936873712
 30
0.0
 11
6.262509235
 21
-4.3681026205
 31
0.0
  0
LINE
  5
92
330
74
100
AcDbEntity
  8
0
  6
Continuous
100
AcDbLine
 10
-53.0629352118
 20
-11.4801779454
 30
0.0
 11
-50.7945341276
 21
-8.0228043203
 31
0.0
  0
LINE
  5
93
330
74
100
AcDbEntity
  8
0
  6
Continuous
100
AcDbLine
 10
-50.7945341276
 20
-8.0228043203
 30
0.0
 11
-54.2891069366
 21
-5.8122833411
 31
0.0
  0
LINE
  5
94
330
74
100
AcDbEntity
  8
0
  6
Continuous
100
AcDbLine
 10
-54.2891069366
 20
-5.8122833411
 30
0.0
 11
-51.4073820962
 21
-5.1888110564
 31
0.0
  0
LINE
  5
95
330
74
100
AcDbEntity
  8
0
  6
Continuous
100
AcDbLine
 10
-51.4073820962
 20
-5.1888110564
 30
0.0
 11
-47.9127327975
 21
-7.3992273667
 31
0.0
  0
LINE
  5
96
330
74
100
AcDbEntity
  8
0
  6
Continuous
100
AcDbLine
 10
-47.9127327975
 20
-7.3992273667
 30
0.0
 11
-50.1813587974
 21
-10.8569360435
 31
0.0
  0
LINE
  5
97
330
74
100
AcDbEntity
  8
0
  6
Continuous
100
AcDbLine
 10
-50.1813587974
 20
-10.8569360435
 30
0.0
 11
-53.0628942334
 21
-11.4803673498
 31
0.0
  0
LINE
  5
98
330
74
100
AcDbEntity
  8
0
  6
Continuous
100
AcDbLine
 10
-53.0628942334
 20
-11.4803673498
 30
0.0
 11
-53.0629352118
 21
-11.4801779454
 31
0.0
  0
LINE
  5
99
330
74
100
AcDbEntity
  8
0
  6
Continuous
100
AcDbLine
 10
-42.7624916815
 20
-3.31845567
 30
0.0
 11
-45.0307950789
 21
-6.7757971452
 31
0.0
  0
LINE
  5
9A
330
74
100
AcDbEntity
  8
0
  6
Continuous
100
AcDbLine
 10
-45.0307950789
 20
-6.7757971452
 30
0.0
 11
-48.5254573289
 21
-4.5652955168
 31
0.0
  0
LINE
  5
9B
330
74
100
AcDbEntity
  8
0
  6
Continuous
100
AcDbLine
 10
-48.5254573289
 20
-4.5652955168
 30
0.0
 11
-48.5257466967
 21
-4.5653581227
 31
0.0
  0
LINE
  5
9C
330
74
100
AcDbEntity
  8
0
  6
Continuous
100
AcDbLine
 10
-48.5257466967
 20
-4.5653581227
 30
0.0
 11
-47.9126146215
 21
-7.399289919
 31
0.0
  0
LINE
  5
9D
330
74
100
AcDbEntity
  8
0
  6
Continuous
100
AcDbLine
 10
-47.9126146215
 20
-7.399289919
 30
0.0
 11
-44.4177372167
 21
-9.6098441329
 31
0.0
  0
LINE
  5
9E
330
74
100
AcDbEntity
  8
0
  6
Continuous
100
AcDbLine
 10
-44.4177372167
 20
-9.6098441329
 30
0.0
 11
-42.1490649772
 21
-6.1523237222
 31
0.0
  0
LINE
  5
9F
330
74
100
AcDbEntity
  8
0
  6
Continuous
100
AcDbLine
 10
-42.1490649772
 20
-6.1523237222
 30
0.0
 11
-42.7621970524
 21
-3.3183919259
 31
0.0
  0
LINE
  5
A0
330
74
100
AcDbEntity
  8
0
  6
Continuous
100
AcDbLine
 10
-42.7621970524
 20
-3.3183919259
 30
0.0
 11
-42.7624916815
 21
-3.31845567
 31
0.0
  0
LINE
  5
A1
330
74
100
AcDbEntity
  8
0
  6
Continuous
100
AcDbLine
 10
-41.535889647
 20
-8.9864554454
 30
0.0
 11
-43.8045413973
 21
-12.4440705583
 31
0.0
  0
LINE
  5
A2
330
74
100
AcDbEntity
  8
0
  6
Continuous
100
AcDbLine
 10
-43.8045413973
 20
-12.4440705583
 30
0.0
 11
-40.3564529382
 21
-14.625159785
 31
0.0
  0
LINE
  5
A3
330
74
100
AcDbEntity
  8
0
  6
Continuous
100
AcDbLine
 10
-40.3564529382
 20
-14.625159785
 30
0.0
 11
-43.2382724808
 21
-15.2486525588
 31
0.0
  0
LINE
  5
A4
330
74
100
AcDbEntity
  8
0
  6
Continuous
100
AcDbLine
 10
-43.2382724808
 20
-15.2486525588
 30
0.0
 11
-46.686243472
 21
-13.0676480676
 31
0.0
  0
LINE
  5
A5
330
74
100
AcDbEntity
  8
0
  6
Continuous
100
AcDbLine
 10
-46.686243472
 20
-13.0676480676
 30
0.0
 11
-44.4177144509
 21
-9.6099493576
 31
0.0
  0
LINE
  5
A6
330
74
100
AcDbEntity
  8
0
  6
Continuous
100
AcDbLine
 10
-44.4177144509
 20
-9.6099493576
 30
0.0
 11
-41.535889647
 21
-8.9864554454
 31
0.0
  0
LINE
  5
A7
330
74
100
AcDbEntity
  8
0
  6
Continuous
100
AcDbLine
 10
-51.8063383656
 20
-17.1023866618
 30
0.0
 11
-49.5681857438
 21
-13.6910572443
 31
0.0
  0
LINE
  5
A8
330
74
100
AcDbEntity
  8
0
  6
Continuous
100
AcDbLine
 10
-49.5681857438
 20
-13.6910572443
 30
0.0
 11
-46.1199973213
 21
-15.8721248435
 31
0.0
  0
LINE
  5
A9
330
74
100
AcDbEntity
  8
0
  6
Continuous
100
AcDbLine
 10
-46.1199973213
 20
-15.8721248435
 30
0.0
 11
-46.0813956519
 21
-15.8637732234
 31
0.0
  0
LINE
  5
AA
330
74
100
AcDbEntity
  8
0
  6
Continuous
100
AcDbLine
 10
-46.0813956519
 20
-15.8637732234
 30
0.0
 11
-46.6863662012
 21
-13.0675644704
 31
0.0
  0
LINE
  5
AB
330
74
100
AcDbEntity
  8
0
  6
Continuous
100
AcDbLine
 10
-46.6863662012
 20
-13.0675644704
 30
0.0
 11
-50.1813587974
 21
-10.8569360435
 31
0.0
  0
LINE
  5
AC
330
74
100
AcDbEntity
  8
0
  6
Continuous
100
AcDbLine
 10
-50.1813587974
 20
-10.8569360435
 30
0.0
 11
-52.4497621582
 21
-14.3142991462
 31
0.0
  0
LINE
  5
AD
330
74
100
AcDbEntity
  8
0
  6
Continuous
100
AcDbLine
 10
-52.4497621582
 20
-14.3142991462
 30
0.0
 11
-51.8447506306
 21
-17.1106973035
 31
0.0
  0
LINE
  5
AE
330
74
100
AcDbEntity
  8
0
  6
Continuous
100
AcDbLine
 10
-51.8447506306
 20
-17.1106973035
 30
0.0
 11
-51.8063383656
 21
-17.1023866618
 31
0.0
  0
LINE
  5
AF
330
74
100
AcDbEntity
  8
0
  6
Continuous
100
AcDbLine
 10
-20.0432683672
 20
-10.0594590717
 30
0.0
 11
-17.6687053803
 21
-9.5457132103
 31
0.0
  0
LINE
  5
B0
330
74
100
AcDbEntity
  8
0
  6
Continuous
100
AcDbLine
 10
-17.6687053803
 20
-9.5457132103
 30
0.0
 11
-22.3998379359
 21
0.8767293109
 31
0.0
  0
LINE
  5
B1
330
74
100
AcDbEntity
  8
0
  6
Continuous
100
AcDbLine
 10
-22.3998379359
 20
0.8767293109
 30
0.0
 11
-26.3058670432
 21
0.0316448472
 31
0.0
  0
LINE
  5
B2
330
74
100
AcDbEntity
  8
0
  6
Continuous
100
AcDbLine
 10
-26.3058670432
 20
0.0316448472
 30
0.0
 11
-26.3056723775
 21
-11.4143543348
 31
0.0
  0
LINE
  5
B3
330
74
100
AcDbEntity
  8
0
  6
Continuous
100
AcDbLine
 10
-26.3056723775
 20
-11.4143543348
 30
0.0
 11
-23.9311146519
 21
-10.9006096116
 31
0.0
  0
LINE
  5
B4
330
74
100
AcDbEntity
  8
0
  6
Continuous
100
AcDbLine
 10
-23.9311146519
 20
-10.9006096116
 30
0.0
 11
-23.9309931424
 21
-8.7825946253
 31
0.0
  0
LINE
  5
B5
330
74
100
AcDbEntity
  8
0
  6
Continuous
100
AcDbLine
 10
-23.9309931424
 20
-8.7825946253
 30
0.0
 11
-22.2738308951
 21
-8.4240611811
 31
0.0
  0
LINE
  5
B6
330
74
100
AcDbEntity
  8
0
  6
Continuous
100
AcDbLine
 10
-22.2738308951
 20
-8.4240611811
 30
0.0
 11
-22.7133102854
 21
-6.3927621053
 31
0.0
  0
LINE
  5
B7
330
74
100
AcDbEntity
  8
0
  6
Continuous
100
AcDbLine
 10
-22.7133102854
 20
-6.3927621053
 30
0.0
 11
-23.9308333483
 21
-6.6561779162
 31
0.0
  0
LINE
  5
B8
330
74
100
AcDbEntity
  8
0
  6
Continuous
100
AcDbLine
 10
-23.9308333483
 20
-6.6561779162
 30
0.0
 11
-23.9305586196
 21
-1.4976668035
 31
0.0
  0
LINE
  5
B9
330
74
100
AcDbEntity
  8
0
  6
Continuous
100
AcDbLine
 10
-23.9305586196
 20
-1.4976668035
 30
0.0
 11
-20.0432683672
 21
-10.0594590717
 31
0.0
  0
SPLINE
  5
BA
330
74
100
AcDbEntity
  8
0
100
AcDbSpline
210
0.0
220
0.0
230
1.0
 70
     8
 71
     3
 72
     8
 73
     4
 74
     0
 42
0.000000001
 43
0.00000001
 40
0.0
 40
0.0
 40
0.0
 40
0.0
 40
1.0
 40
1.0
 40
1.0
 40
1.0
 10
-13.86994560355125
 20
-6.597454742918429
 30
0.0
 10
-13.88373254946556
 20
-6.53373068413859
 30
0.0
 10
-15.11365515797402
 20
-0.8489574873494021
 30
0.0
 10
-15.79563263740206
 20
2.305574601061459
 30
0.0
  0
SPLINE
  5
BB
330
74
100
AcDbEntity
  8
0
100
AcDbSpline
210
0.0
220
0.0
230
1.0
 70
     8
 71
     3
 72
     8
 73
     4
 74
     0
 42
0.000000001
 43
0.00000001
 40
2.0
 40
2.0
 40
2.0
 40
2.0
 40
3.0
 40
3.0
 40
3.0
 40
3.0
 10
-18.06492886668426
 20
1.814603608696524
 30
0.0
 10
-17.24003965005502
 20
-1.995739949107536
 30
0.0
 10
-15.71186186991051
 20
-9.059523950669432
 30
0.0
 10
-15.69887855542093
 20
-9.119533578677906
 30
0.0
  0
SPLINE
  5
BC
330
74
100
AcDbEntity
  8
0
100
AcDbSpline
210
0.0
220
0.0
230
1.0
 70
     8
 71
     3
 72
     8
 73
     4
 74
     0
 42
0.000000001
 43
0.00000001
 40
0.0
 40
0.0
 40
0.0
 40
0.0
 40
1.0
 40
1.0
 40
1.0
 40
1.0
 10
-6.809537646582547
 20
-5.069709977697404
 30
0.0
 10
-7.284290309572815
 20
-2.875375801708635
 30
0.0
 10
-7.897830097865885
 20
-0.0390758678013329
 30
0.0
 10
-8.296070930952649
 20
1.80204897196991
 30
0.0
  0
SPLINE
  5
BD
330
74
100
AcDbEntity
  8
0
100
AcDbSpline
210
0.0
220
0.0
230
1.0
 70
     8
 71
     3
 72
     8
 73
     4
 74
     0
 42
0.000000001
 43
0.00000001
 40
2.0
 40
2.0
 40
2.0
 40
2.0
 40
3.0
 40
3.0
 40
3.0
 40
3.0
 10
-6.919811195494074
 20
2.099808074263809
 30
0.0
 10
-6.228016878711183
 20
2.249480443098069
 30
0.0
 10
-5.547633595833446
 20
1.815851349115847
 30
0.0
 10
-5.399398884916104
 20
1.130701970100344
 30
0.0
  0
SPLINE
  5
BE
330
74
100
AcDbEntity
  8
0
100
AcDbSpline
210
0.0
220
0.0
230
1.0
 70
     8
 71
     3
 72
     8
 73
     4
 74
     0
 42
0.000000001
 43
0.00000001
 40
3.0
 40
3.0
 40
3.0
 40
3.0
 40
4.0
 40
4.0
 40
4.0
 40
4.0
 10
-5.399398884916104
 20
1.130701970100344
 30
0.0
 10
-5.107009087764085
 20
-0.2207405274728672
 30
0.0
 10
-4.711497421058354
 20
-2.048334586467611
 30
0.0
 10
-4.449160707297047
 20
-3.260870000165379
 30
0.0
  0
SPLINE
  5
BF
330
74
100
AcDbEntity
  8
0
100
AcDbSpline
210
0.0
220
0.0
230
1.0
 70
     8
 71
     3
 72
     8
 73
     4
 74
     0
 42
0.000000001
 43
0.00000001
 40
4.0
 40
4.0
 40
4.0
 40
4.0
 40
5.0
 40
5.0
 40
5.0
 40
5.0
 10
-4.449160707297047
 20
-3.260870000165379
 30
0.0
 10
-4.300905507193207
 20
-3.946114081381999
 30
0.0
 10
-4.741570606399121
 20
-4.622385452066122
 30
0.0
 10
-5.433383135791953
 20
-4.771973641166296
 30
0.0
  0
SPLINE
  5
C0
330
74
100
AcDbEntity
  8
0
100
AcDbSpline
210
0.0
220
0.0
230
1.0
 70
     8
 71
     3
 72
     8
 73
     4
 74
     0
 42
0.000000001
 43
0.00000001
 40
3.0
 40
3.0
 40
3.0
 40
3.0
 40
4.0
 40
4.0
 40
4.0
 40
4.0
 10
-4.494024550545999
 20
-6.695320195210662
 30
0.0
 10
-2.825524345390513
 20
-6.334333740063992
 30
0.0
 10
-1.762658323115034
 20
-4.702068307882374
 30
0.0
 10
-2.120071189640999
 20
-3.049576315093403
 30
0.0
  0
SPLINE
  5
C1
330
74
100
AcDbEntity
  8
0
100
AcDbSpline
210
0.0
220
0.0
230
1.0
 70
     8
 71
     3
 72
     8
 73
     4
 74
     0
 42
0.000000001
 43
0.00000001
 40
4.0
 40
4.0
 40
4.0
 40
4.0
 40
5.0
 40
5.0
 40
5.0
 40
5.0
 10
-2.120071189640999
 20
-3.049576315093403
 30
0.0
 10
-2.485983017556096
 20
-1.358310753073632
 30
0.0
 10
-2.867352798370483
 20
0.4044023583376265
 30
0.0
 10
-3.190995488197396
 20
1.900704823656681
 30
0.0
  0
SPLINE
  5
C2
330
74
100
AcDbEntity
  8
0
100
AcDbSpline
210
0.0
220
0.0
230
1.0
 70
     8
 71
     3
 72
     8
 73
     4
 74
     0
 42
0.000000001
 43
0.00000001
 40
5.0
 40
5.0
 40
5.0
 40
5.0
 40
6.0
 40
6.0
 40
6.0
 40
6.0
 10
-3.190995488197396
 20
1.900704823656681
 30
0.0
 10
-3.54857504695031
 20
3.553458157285876
 30
0.0
 10
-5.190901218780231
 20
4.599949148191988
 30
0.0
 10
-6.859585567104196
 20
4.238922852960538
 30
0.0
  0
SPLINE
  5
C3
330
74
100
AcDbEntity
  8
0
100
AcDbSpline
210
0.0
220
0.0
230
1.0
 70
     8
 71
     3
 72
     8
 73
     4
 74
     0
 42
0.000000001
 43
0.00000001
 40
0.0
 40
0.0
 40
0.0
 40
0.0
 40
1.0
 40
1.0
 40
1.0
 40
1.0
 10
-30.23703582864644
 20
-6.251438951366732
 30
0.0
 10
-30.9104300186728
 20
-6.015603382360459
 30
0.0
 10
-31.40848551125485
 20
-5.893156856121871
 30
0.0
 10
-32.67210357750635
 20
-5.496689523479785
 30
0.0
  0
SPLINE
  5
C4
330
74
100
AcDbEntity
  8
0
100
AcDbSpline
210
0.0
220
0.0
230
1.0
 70
     8
 71
     3
 72
     8
 73
     4
 74
     0
 42
0.000000001
 43
0.00000001
 40
1.0
 40
1.0
 40
1.0
 40
1.0
 40
2.0
 40
2.0
 40
2.0
 40
2.0
 10
-32.67210357750635
 20
-5.496689523479785
 30
0.0
 10
-33.03332194555517
 20
-5.383421617718132
 30
0.0
 10
-33.81210282496122
 20
-5.206692347750555
 30
0.0
 10
-33.94849250952588
 20
-4.576291363356936
 30
0.0
  0
SPLINE
  5
C5
330
74
100
AcDbEntity
  8
0
100
AcDbSpline
210
0.0
220
0.0
230
1.0
 70
     8
 71
     3
 72
     8
 73
     4
 74
     0
 42
0.000000001
 43
0.00000001
 40
2.0
 40
2.0
 40
2.0
 40
2.0
 40
3.0
 40
3.0
 40
3.0
 40
3.0
 10
-33.94849250952588
 20
-4.576291363356936
 30
0.0
 10
-34.11622381965225
 20
-3.801027578894063
 30
0.0
 10
-33.67528356585564
 20
-3.448097454184924
 30
0.0
 10
-32.99335932290604
 20
-3.30056051389548
 30
0.0
  0
SPLINE
  5
C6
330
74
100
AcDbEntity
  8
0
100
AcDbSpline
210
0.0
220
0.0
230
1.0
 70
     8
 71
     3
 72
     8
 73
     4
 74
     0
 42
0.000000001
 43
0.00000001
 40
4.0
 40
4.0
 40
4.0
 40
4.0
 40
5.0
 40
5.0
 40
5.0
 40
5.0
 10
-32.85916630414497
 20
-3.271527336675416
 30
0.0
 10
-32.2786944245911
 20
-3.14594000653005
 30
0.0
 10
-31.77109773641243
 20
-3.328116480283148
 30
0.0
 10
-31.56977211870437
 20
-3.967820152272103
 30
0.0
  0
SPLINE
  5
C7
330
74
100
AcDbEntity
  8
0
100
AcDbSpline
210
0.0
220
0.0
230
1.0
 70
     8
 71
     3
 72
     8
 73
     4
 74
     0
 42
0.000000001
 43
0.00000001
 40
6.0
 40
6.0
 40
6.0
 40
6.0
 40
7.0
 40
7.0
 40
7.0
 40
7.0
 10
-29.29695612428625
 20
-3.476087645143529
 30
0.0
 10
-29.68810071971012
 20
-1.866802583842748
 30
0.0
 10
-30.87776107222441
 20
-0.7599478056671497
 30
0.0
 10
-33.27949204955325
 20
-1.266772121690862
 30
0.0
  0
SPLINE
  5
C8
330
74
100
AcDbEntity
  8
0
100
AcDbSpline
210
0.0
220
0.0
230
1.0
 70
     8
 71
     3
 72
     8
 73
     4
 74
     0
 42
0.000000001
 43
0.00000001
 40
8.0
 40
8.0
 40
8.0
 40
8.0
 40
9.0
 40
9.0
 40
9.0
 40
9.0
 10
-33.34488391931659
 20
-1.280919904944554
 30
0.0
 10
-35.81152992452102
 20
-1.828202838410209
 30
0.0
 10
-36.33378487826545
 20
-3.54465012997844
 30
0.0
 10
-36.09207577942843
 20
-4.962606301827474
 30
0.0
  0
SPLINE
  5
C9
330
74
100
AcDbEntity
  8
0
100
AcDbSpline
210
0.0
220
0.0
230
1.0
 70
     8
 71
     3
 72
     8
 73
     4
 74
     0
 42
0.000000001
 43
0.00000001
 40
9.0
 40
9.0
 40
9.0
 40
9.0
 40
10.0
 40
10.0
 40
10.0
 40
10.0
 10
-36.09207577942843
 20
-4.962606301827474
 30
0.0
 10
-35.83736690020325
 20
-6.457652824126185
 30
0.0
 10
-34.96800490008025
 20
-7.196828812263726
 30
0.0
 10
-33.99931718292642
 20
-7.502708028683521
 30
0.0
  0
SPLINE
  5
CA
330
74
100
AcDbEntity
  8
0
100
AcDbSpline
210
0.0
220
0.0
230
1.0
 70
     8
 71
     3
 72
     8
 73
     4
 74
     0
 42
0.000000001
 43
0.00000001
 40
10.0
 40
10.0
 40
10.0
 40
10.0
 40
11.0
 40
11.0
 40
11.0
 40
11.0
 10
-33.99931718292642
 20
-7.502708028683521
 30
0.0
 10
-33.40907414696034
 20
-7.689011641945549
 30
0.0
 10
-32.48616403135102
 20
-7.975318844696811
 30
0.0
 10
-31.47547483016511
 20
-8.271505052332133
 30
0.0
  0
SPLINE
  5
CB
330
74
100
AcDbEntity
  8
0
100
AcDbSpline
210
0.0
220
0.0
230
1.0
 70
     8
 71
     3
 72
     8
 73
     4
 74
     0
 42
0.000000001
 43
0.00000001
 40
11.0
 40
11.0
 40
11.0
 40
11.0
 40
12.0
 40
12.0
 40
12.0
 40
12.0
 10
-31.47547483016511
 20
-8.271505052332133
 30
0.0
 10
-31.11213516930565
 20
-8.377980375833697
 30
0.0
 10
-30.40258052645035
 20
-8.55729511966404
 30
0.0
 10
-30.28870163819746
 20
-9.336631754491275
 30
0.0
  0
SPLINE
  5
CC
330
74
100
AcDbEntity
  8
0
100
AcDbSpline
210
0.0
220
0.0
230
1.0
 70
     8
 71
     3
 72
     8
 73
     4
 74
     0
 42
0.000000001
 43
0.00000001
 40
12.0
 40
12.0
 40
12.0
 40
12.0
 40
13.0
 40
13.0
 40
13.0
 40
13.0
 10
-30.28870163819746
 20
-9.336631754491275
 30
0.0
 10
-30.1883718252622
 20
-10.02498578462436
 30
0.0
 10
-30.64014408852681
 20
-10.43662327702193
 30
0.0
 10
-31.32890793487913
 20
-10.58563999188937
 30
0.0
  0
SPLINE
  5
CD
330
74
100
AcDbEntity
  8
0
100
AcDbSpline
210
0.0
220
0.0
230
1.0
 70
     8
 71
     3
 72
     8
 73
     4
 74
     0
 42
0.000000001
 43
0.00000001
 40
14.0
 40
14.0
 40
14.0
 40
14.0
 40
15.0
 40
15.0
 40
15.0
 40
15.0
 10
-31.46505813246006
 20
-10.61509661229636
 30
0.0
 10
-32.05208024758041
 20
-10.74210111117219
 30
0.0
 10
-32.71260096537058
 20
-10.55064660173623
 30
0.0
 10
-32.8822392924921
 20
-9.937760156430087
 30
0.0
  0
SPLINE
  5
CE
330
74
100
AcDbEntity
  8
0
100
AcDbSpline
210
0.0
220
0.0
230
1.0
 70
     8
 71
     3
 72
     8
 73
     4
 74
     0
 42
0.000000001
 43
0.00000001
 40
16.0
 40
16.0
 40
16.0
 40
16.0
 40
17.0
 40
17.0
 40
17.0
 40
17.0
 10
-35.1888692338865
 20
-10.43680844141459
 30
0.0
 10
-34.81471685749703
 20
-11.8843133271045
 30
0.0
 10
-33.72975075395794
 20
-12.95131992706823
 30
0.0
 10
-31.59496833044066
 20
-12.72957879515504
 30
0.0
  0
SPLINE
  5
CF
330
74
100
AcDbEntity
  8
0
100
AcDbSpline
210
0.0
220
0.0
230
1.0
 70
     8
 71
     3
 72
     8
 73
     4
 74
     0
 42
0.000000001
 43
0.00000001
 40
18.0
 40
18.0
 40
18.0
 40
18.0
 40
19.0
 40
19.0
 40
19.0
 40
19.0
 10
-30.20639204762402
 20
-12.42915496033268
 30
0.0
 10
-28.36320980349184
 20
-11.79454394754582
 30
0.0
 10
-27.78707037380765
 20
-10.41512978795686
 30
0.0
 10
-27.91988511866083
 20
-9.073464993912006
 30
0.0
  0
SPLINE
  5
D0
330
74
100
AcDbEntity
  8
0
100
AcDbSpline
210
0.0
220
0.0
230
1.0
 70
     8
 71
     3
 72
     8
 73
     4
 74
     0
 42
0.000000001
 43
0.00000001
 40
19.0
 40
19.0
 40
19.0
 40
19.0
 40
20.0
 40
20.0
 40
20.0
 40
20.0
 10
-27.91988511866083
 20
-9.073464993912006
 30
0.0
 10
-28.12563217330358
 20
-6.994152508733083
 30
0.0
 10
-29.51271678483619
 20
-6.50510505043454
 30
0.0
 10
-30.23703582864644
 20
-6.251438951366732
 30
0.0
  0
HATCH
  5
D1
330
74
100
AcDbEntity
  8
0
100
AcDbHatch
 10
0.0
 20
0.0
 30
0.0
210
0.0
220
0.0
230
1.0
  2
SOLID
 70
     1
 71
     0
 91
        1
 92
        0
 93
        7
 72
     1
 10
-53.06293521179145
 20
-11.48017794540906
 11
-53.0628942334185
 21
-11.48036734981106
 72
     1
 10
-53.0628942334185
 20
-11.48036734981106
 11
-50.18135879739363
 21
-10.85693604353014
 72
     1
 10
-50.18135879739363
 20
-10.85693604353014
 11
-47.91273279754322
 21
-7.399227366744369
 72
     1
 10
-47.91273279754322
 20
-7.399227366744369
 11
-51.40738209617635
 21
-5.188811056417426
 72
     1
 10
-51.40738209617635
 20
-5.188811056417426
 11
-54.28910693660305
 21
-5.812283341071309
 72
     1
 10
-54.28910693660305
 20
-5.812283341071309
 11
-50.79453412756107
 21
-8.022804320319173
 72
     1
 10
-50.79453412756107
 20
-8.022804320319173
 11
-53.06293521179145
 21
-11.48017794540906
 97
        0
 75
     0
 76
     1
 98
        1
 10
0.0
 20
0.0
  0
HATCH
  5
D2
330
74
100
AcDbEntity
  8
0
100
AcDbHatch
 10
0.0
 20
0.0
 30
0.0
210
0.0
220
0.0
230
1.0
  2
SOLID
 70
     1
 71
     0
 91
        1
 92
        0
 93
        6
 72
     1
 10
-41.53588964704281
 20
-8.986455445432597
 11
-44.41771445090438
 21
-9.609949357561213
 72
     1
 10
-44.41771445090438
 20
-9.609949357561213
 11
-46.68624347197728
 21
-13.06764806762683
 72
     1
 10
-46.68624347197728
 20
-13.06764806762683
 11
-43.23827248082917
 21
-15.24865255879992
 72
     1
 10
-43.23827248082917
 20
-15.24865255879992
 11
-40.35645293820115
 21
-14.62515978495947
 72
     1
 10
-40.35645293820115
 20
-14.62515978495947
 11
-43.80454139731328
 21
-12.44407055830516
 72
     1
 10
-43.80454139731328
 20
-12.44407055830516
 11
-41.53588964704281
 21
-8.986455445432597
 97
        0
 75
     0
 76
     1
 98
        1
 10
0.0
 20
0.0
  0
HATCH
  5
D3
330
74
100
AcDbEntity
  8
0
100
AcDbHatch
 10
0.0
 20
0.0
 30
0.0
210
0.0
220
0.0
230
1.0
  2
SOLID
 70
     1
 71
     0
 91
        1
 92
        0
 93
       20
 72
     4
 94
        3
 73
     1
 74
     0
 95
        8
 96
        4
 40
18.0
 40
18.0
 40
18.0
 40
18.0
 40
19.0
 40
19.0
 40
19.0
 40
19.0
 10
-30.20639204762402
 20
-12.42915496033267
 42
1.0
 10
-28.36320980349188
 20
-11.79454394754584
 42
1.0
 10
-27.78707037380775
 20
-10.41512978795687
 42
1.0
 10
-27.91988511866085
 20
-9.073464993912015
 42
1.0
 72
     4
 94
        3
 73
     1
 74
     0
 95
        8
 96
        4
 40
19.0
 40
19.0
 40
19.0
 40
19.0
 40
20.0
 40
20.0
 40
20.0
 40
20.0
 10
-27.91988511866085
 20
-9.073464993912015
 42
1.0
 10
-28.1256321733036
 20
-6.994152508733093
 42
1.0
 10
-29.51271678483624
 20
-6.505105050434554
 42
1.0
 10
-30.23703582864647
 20
-6.251438951366739
 42
1.0
 72
     4
 94
        3
 73
     1
 74
     0
 95
        8
 96
        4
 40
0.0
 40
0.0
 40
0.0
 40
0.0
 40
1.0
 40
1.0
 40
1.0
 40
1.0
 10
-30.23703582864647
 20
-6.251438951366739
 42
1.0
 10
-30.91043001867278
 20
-6.015603382360466
 42
1.0
 10
-31.40848551125484
 20
-5.893156856121866
 42
1.0
 10
-32.67210357750633
 20
-5.496689523479784
 42
1.0
 72
     4
 94
        3
 73
     1
 74
     0
 95
        8
 96
        4
 40
1.0
 40
1.0
 40
1.0
 40
1.0
 40
2.0
 40
2.0
 40
2.0
 40
2.0
 10
-32.67210357750633
 20
-5.496689523479784
 42
1.0
 10
-33.03332194555515
 20
-5.383421617718138
 42
1.0
 10
-33.81210282496121
 20
-5.206692347750558
 42
1.0
 10
-33.94849250952591
 20
-4.576291363356954
 42
1.0
 72
     4
 94
        3
 73
     1
 74
     0
 95
        8
 96
        4
 40
2.0
 40
2.0
 40
2.0
 40
2.0
 40
3.0
 40
3.0
 40
3.0
 40
3.0
 10
-33.94849250952591
 20
-4.576291363356954
 42
1.0
 10
-34.11622381965228
 20
-3.801027578894066
 42
1.0
 10
-33.67528356585566
 20
-3.448097454184939
 42
1.0
 10
-32.99335932290605
 20
-3.300560513895483
 42
1.0
 72
     1
 10
-32.99335932290605
 20
-3.300560513895483
 11
-32.85916630414502
 21
-3.271527336675422
 72
     4
 94
        3
 73
     1
 74
     0
 95
        8
 96
        4
 40
4.0
 40
4.0
 40
4.0
 40
4.0
 40
5.0
 40
5.0
 40
5.0
 40
5.0
 10
-32.85916630414502
 20
-3.271527336675422
 42
1.0
 10
-32.27869442459117
 20
-3.145940006530068
 42
1.0
 10
-31.77109773641243
 20
-3.328116480283154
 42
1.0
 10
-31.5697721187044
 20
-3.967820152272114
 42
1.0
 72
     1
 10
-31.5697721187044
 20
-3.967820152272114
 11
-29.29695612428624
 21
-3.476087645143523
 72
     4
 94
        3
 73
     1
 74
     0
 95
        8
 96
        4
 40
6.0
 40
6.0
 40
6.0
 40
6.0
 40
7.0
 40
7.0
 40
7.0
 40
7.0
 10
-29.2969561242863
 20
-3.476087645143538
 42
1.0
 10
-29.6881007197101
 20
-1.866802583842747
 42
1.0
 10
-30.87776107222446
 20
-0.7599478056671519
 42
1.0
 10
-33.27949204955327
 20
-1.266772121690873
 42
1.0
 72
     1
 10
-33.27949204955321
 20
-1.266772121690857
 11
-33.3448839193166
 21
-1.280919904944549
 72
     4
 94
        3
 73
     1
 74
     0
 95
        8
 96
        4
 40
8.0
 40
8.0
 40
8.0
 40
8.0
 40
9.0
 40
9.0
 40
9.0
 40
9.0
 10
-33.34488391931666
 20
-1.280919904944565
 42
1.0
 10
-35.8115299245211
 20
-1.828202838410234
 42
1.0
 10
-36.3337848782655
 20
-3.544650129978449
 42
1.0
 10
-36.09207577942846
 20
-4.962606301827486
 42
1.0
 72
     4
 94
        3
 73
     1
 74
     0
 95
        8
 96
        4
 40
9.0
 40
9.0
 40
9.0
 40
9.0
 40
10.0
 40
10.0
 40
10.0
 40
10.0
 10
-36.09207577942846
 20
-4.962606301827486
 42
1.0
 10
-35.83736690020323
 20
-6.457652824126184
 42
1.0
 10
-34.96800490008029
 20
-7.196828812263736
 42
1.0
 10
-33.99931718292643
 20
-7.502708028683525
 42
1.0
 72
     4
 94
        3
 73
     1
 74
     0
 95
        8
 96
        4
 40
10.0
 40
10.0
 40
10.0
 40
10.0
 40
11.0
 40
11.0
 40
11.0
 40
11.0
 10
-33.99931718292643
 20
-7.502708028683525
 42
1.0
 10
-33.40907414696031
 20
-7.689011641945555
 42
1.0
 10
-32.48616403135106
 20
-7.975318844696822
 42
1.0
 10
-31.47547483016516
 20
-8.27150505233215
 42
1.0
 72
     4
 94
        3
 73
     1
 74
     0
 95
        8
 96
        4
 40
11.0
 40
11.0
 40
11.0
 40
11.0
 40
12.0
 40
12.0
 40
12.0
 40
12.0
 10
-31.47547483016516
 20
-8.27150505233215
 42
1.0
 10
-31.11213516930568
 20
-8.377980375833708
 42
1.0
 10
-30.40258052645039
 20
-8.557295119664056
 42
1.0
 10
-30.28870163819752
 20
-9.336631754491272
 42
1.0
 72
     4
 94
        3
 73
     1
 74
     0
 95
        8
 96
        4
 40
12.0
 40
12.0
 40
12.0
 40
12.0
 40
13.0
 40
13.0
 40
13.0
 40
13.0
 10
-30.28870163819752
 20
-9.336631754491272
 42
1.0
 10
-30.18837182526216
 20
-10.02498578462435
 42
1.0
 10
-30.64014408852681
 20
-10.43662327702195
 42
1.0
 10
-31.32890793487914
 20
-10.58563999188937
 42
1.0
 72
     1
 10
-31.32890793487914
 20
-10.58563999188937
 11
-31.46505813246008
 21
-10.61509661229637
 72
     4
 94
        3
 73
     1
 74
     0
 95
        8
 96
        4
 40
14.0
 40
14.0
 40
14.0
 40
14.0
 40
15.0
 40
15.0
 40
15.0
 40
15.0
 10
-31.46505813246008
 20
-10.61509661229637
 42
1.0
 10
-32.05208024758041
 20
-10.7421011111722
 42
1.0
 10
-32.71260096537064
 20
-10.55064660173623
 42
1.0
 10
-32.88223929249212
 20
-9.937760156430087
 42
1.0
 72
     1
 10
-32.88223929249212
 20
-9.937760156430087
 11
-35.18886923388655
 21
-10.43680844141459
 72
     4
 94
        3
 73
     1
 74
     0
 95
        8
 96
        4
 40
16.0
 40
16.0
 40
16.0
 40
16.0
 40
17.0
 40
17.0
 40
17.0
 40
17.0
 10
-35.18886923388649
 20
-10.43680844141459
 42
1.0
 10
-34.81471685749708
 20
-11.88431332710451
 42
1.0
 10
-33.72975075395801
 20
-12.95131992706824
 42
1.0
 10
-31.59496833044075
 20
-12.72957879515506
 42
1.0
 72
     1
 10
-31.59496833044068
 20
-12.72957879515504
 11
-30.20639204762409
 21
-12.42915496033269
 97
        0
 75
     0
 76
     1
 98
        1
 10
0.0
 20
0.0
  0
HATCH
  5
D4
330
74
100
AcDbEntity
  8
0
100
AcDbHatch
 10
0.0
 20
0.0
 30
0.0
210
0.0
220
0.0
230
1.0
  2
SOLID
 70
     1
 71
     0
 91
        1
 92
        0
 93
       11
 72
     1
 10
-23.93083334830058
 20
-6.656177916224847
 11
-23.9305586195879
 21
-1.497666803489873
 72
     1
 10
-23.9305586195879
 20
-1.497666803489873
 11
-20.04326836721582
 21
-10.05945907169815
 72
     1
 10
-20.04326836721582
 20
-10.05945907169815
 11
-17.66870538033285
 21
-9.545713210289948
 72
     1
 10
-17.66870538033285
 20
-9.545713210289948
 11
-22.39983793591613
 21
0.8767293108990284
 72
     1
 10
-22.39983793591613
 20
0.8767293108990277
 11
-26.30586704316552
 21
0.0316448471579831
 72
     1
 10
-26.30586704316552
 20
0.0316448471579831
 11
-26.30567237753049
 21
-11.41435433475813
 72
     1
 10
-26.30567237753049
 20
-11.41435433475813
 11
-23.93111465188077
 21
-10.90060961163804
 72
     1
 10
-23.93111465188077
 20
-10.90060961163804
 11
-23.93099314235586
 21
-8.782594625323274
 72
     1
 10
-23.93099314235586
 20
-8.782594625323274
 11
-22.27383089514867
 21
-8.42406118111162
 72
     1
 10
-22.27383089514867
 20
-8.42406118111162
 11
-22.7133102853523
 21
-6.392762105309743
 72
     1
 10
-22.7133102853523
 20
-6.392762105309743
 11
-23.93083334830058
 21
-6.656177916224847
 97
        0
 75
     0
 76
     1
 98
        1
 10
0.0
 20
0.0
  0
HATCH
  5
D5
330
74
100
AcDbEntity
  8
0
100
AcDbHatch
 10
0.0
 20
0.0
 30
0.0
210
0.0
220
0.0
230
1.0
  2
SOLID
 70
     1
 71
     0
 91
        1
 92
        0
 93
        6
 72
     1
 10
-15.79563263740209
 20
2.305574601061446
 11
-18.06492886668423
 21
1.814603608696526
 72
     4
 94
        3
 73
     1
 74
     0
 95
        8
 96
        4
 40
2.0
 40
2.0
 40
2.0
 40
2.0
 40
3.0
 40
3.0
 40
3.0
 40
3.0
 10
-18.06492886668423
 20
1.814603608696526
 42
1.0
 10
-17.240039650055
 20
-1.995739949107533
 42
1.0
 10
-15.71186186991055
 20
-9.059523950669437
 42
1.0
 10
-15.69887855542098
 20
-9.119533578677919
 42
1.0
 72
     1
 10
-15.69887855542092
 20
-9.119533578677903
 11
-10.22610149671526
 21
-7.93547715235816
 72
     1
 10
-10.22610149671526
 20
-7.93547715235816
 11
-10.66558088691882
 21
-5.904178076556605
 72
     1
 10
-10.66558088691882
 20
-5.904178076556605
 11
-13.86994560355126
 21
-6.597454742918437
 72
     4
 94
        3
 73
     1
 74
     0
 95
        8
 96
        4
 40
0.0
 40
0.0
 40
0.0
 40
0.0
 40
1.0
 40
1.0
 40
1.0
 40
1.0
 10
-13.86994560355126
 20
-6.597454742918437
 42
1.0
 10
-13.88373254946556
 20
-6.533730684138598
 42
1.0
 10
-15.1136551579741
 20
-0.8489574873494129
 42
1.0
 10
-15.79563263740209
 20
2.305574601061446
 42
1.0
 97
        0
 75
     0
 76
     1
 98
        1
 10
0.0
 20
0.0
  0
HATCH
  5
D6
330
74
100
AcDbEntity
  8
0
100
AcDbHatch
 10
0.0
 20
0.0
 30
0.0
210
0.0
220
0.0
230
1.0
  2
SOLID
 70
     1
 71
     0
 91
        1
 92
        0
 93
       11
 72
     1
 10
2.375028433631206
 20
-0.9648032523823513
 11
2.375208460142868
 21
4.193687371166118
 72
     1
 10
2.375208460142868
 20
4.193687371166118
 11
6.262509234981617
 21
-4.368102620465918
 72
     1
 10
6.262509234981617
 20
-4.368102620465917
 11
8.637061699398163
 21
-3.854359035633896
 72
     1
 10
8.637061699398163
 20
-3.854359035633896
 11
3.905939666281055
 21
6.568085762131229
 72
     1
 10
3.905939666281055
 20
6.56808576213123
 11
-0.0000000000001235
 21
5.723020649288631
 72
     1
 10
-0.0000000000001234
 20
5.723020649288631
 11
-0.000000000000185
 21
-5.723020649288537
 72
     1
 10
-0.000000000000185
 20
-5.723020649288538
 11
2.37465768908423
 21
-5.20925429869377
 72
     1
 10
2.37465768908423
 20
-5.20925429869377
 11
2.374784459841949
 21
-3.091238174090979
 72
     1
 10
2.374784459841949
 20
-3.091238174090979
 11
4.031830959914354
 21
-2.732729772218408
 72
     1
 10
4.031830959914354
 20
-2.732729772218408
 11
3.592351569710606
 21
-0.701430696416514
 72
     1
 10
3.592351569710606
 20
-0.7014306964165138
 11
2.375028433631206
 21
-0.9648032523823513
 97
        0
 75
     0
 76
     1
 98
        1
 10
0.0
 20
0.0
  0
HATCH
  5
D7
330
74
100
AcDbEntity
  8
0
100
AcDbHatch
 10
0.0
 20
0.0
 30
0.0
210
0.0
220
0.0
230
1.0
  2
SOLID
 70
     1
 71
     0
 91
        1
 92
        0
 93
        8
 72
     1
 10
-42.14906497721024
 20
-6.152323722221632
 11
-42.76219705242848
 21
-3.318391925879333
 72
     1
 10
-42.76219705242848
 20
-3.318391925879333
 11
-42.76249168149826
 21
-3.318455670015027
 72
     1
 10
-42.76249168149826
 20
-3.318455670015027
 11
-45.03079507887072
 21
-6.775797145163721
 72
     1
 10
-45.03079507887072
 20
-6.775797145163721
 11
-48.52545732888054
 21
-4.565295516814268
 72
     1
 10
-48.52545732888054
 20
-4.565295516814268
 11
-48.52574669671678
 21
-4.565358122661792
 72
     1
 10
-48.52574669671678
 20
-4.565358122661792
 11
-47.91261462149855
 21
-7.39928991900409
 72
     1
 10
-47.91261462149855
 20
-7.39928991900409
 11
-44.41773721666716
 21
-9.60984413289331
 72
     1
 10
-44.41773721666716
 20
-9.60984413289331
 11
-42.14906497721024
 21
-6.152323722221632
 97
        0
 75
     0
 76
     1
 98
        1
 10
0.0
 20
0.0
  0
HATCH
  5
D8
330
74
100
AcDbEntity
  8
0
100
AcDbHatch
 10
0.0
 20
0.0
 30
0.0
210
0.0
220
0.0
230
1.0
  2
SOLID
 70
     1
 71
     0
 91
        1
 92
        0
 93
        8
 72
     1
 10
-46.11999732125613
 20
-15.87212484345383
 11
-46.08139565189786
 21
-15.8637732233933
 72
     1
 10
-46.08139565189786
 20
-15.8637732233933
 11
-46.68636620117444
 21
-13.06756447043367
 72
     1
 10
-46.68636620117444
 20
-13.06756447043367
 11
-50.18135879739361
 21
-10.85693604353009
 72
     1
 10
-50.18135879739361
 20
-10.85693604353009
 11
-52.44976215820033
 21
-14.31429914615315
 72
     1
 10
-52.44976215820033
 20
-14.31429914615315
 11
-51.84475063055083
 21
-17.11069730351469
 72
     1
 10
-51.84475063055083
 20
-17.11069730351469
 11
-51.80633836559459
 21
-17.1023866618271
 72
     1
 10
-51.80633836559459
 20
-17.1023866618271
 11
-49.56818574380249
 21
-13.69105724427409
 72
     1
 10
-49.56818574380249
 20
-13.69105724427409
 11
-46.11999732125613
 21
-15.87212484345383
 97
        0
 75
     0
 76
     1
 98
        1
 10
0.0
 20
0.0
  0
HATCH
  5
D9
330
74
100
AcDbEntity
  8
0
100
AcDbHatch
 10
0.0
 20
0.0
 30
0.0
210
0.0
220
0.0
230
1.0
  2
SOLID
 70
     1
 71
     0
 91
        2
 92
        0
 93
        7
 72
     1
 10
-6.859585567104196
 20
4.238922852960538
 11
-11.00449045380928
 21
3.342156692939393
 72
     1
 10
-11.00449045380928
 20
3.342156692939393
 11
-8.638829473816639
 21
-7.592064727757184
 72
     1
 10
-8.638829473816639
 20
-7.592064727757185
 11
-8.63844014254617
 21
-7.591980494435086
 72
     1
 10
-8.63844014254617
 20
-7.591980494435086
 11
-4.494024550545999
 21
-6.695320195210662
 72
     4
 94
        3
 73
     1
 74
     0
 95
        8
 96
        4
 40
3.0
 40
3.0
 40
3.0
 40
3.0
 40
4.0
 40
4.0
 40
4.0
 40
4.0
 10
-4.494024550545999
 20
-6.695320195210662
 42
1.0
 10
-2.825524345390513
 20
-6.334333740063992
 42
1.0
 10
-1.762658323115034
 20
-4.702068307882374
 42
1.0
 10
-2.120071189640999
 20
-3.049576315093403
 42
1.0
 72
     4
 94
        3
 73
     1
 74
     0
 95
        8
 96
        4
 40
4.0
 40
4.0
 40
4.0
 40
4.0
 40
5.0
 40
5.0
 40
5.0
 40
5.0
 10
-2.120071189640999
 20
-3.049576315093403
 42
1.0
 10
-2.485983017556096
 20
-1.358310753073632
 42
1.0
 10
-2.867352798370483
 20
0.4044023583376265
 42
1.0
 10
-3.190995488197396
 20
1.900704823656681
 42
1.0
 72
     4
 94
        3
 73
     1
 74
     0
 95
        8
 96
        4
 40
5.0
 40
5.0
 40
5.0
 40
5.0
 40
6.0
 40
6.0
 40
6.0
 40
6.0
 10
-3.190995488197396
 20
1.900704823656681
 42
1.0
 10
-3.54857504695031
 20
3.553458157285876
 42
1.0
 10
-5.190901218780231
 20
4.599949148191988
 42
1.0
 10
-6.859585567104196
 20
4.238922852960538
 42
1.0
 97
        0
 92
        0
 93
        6
 72
     4
 94
        3
 73
     1
 74
     0
 95
        8
 96
        4
 40
2.0
 40
2.0
 40
2.0
 40
2.0
 40
3.0
 40
3.0
 40
3.0
 40
3.0
 10
-6.919811195494074
 20
2.099808074263809
 42
1.0
 10
-6.228016878711183
 20
2.249480443098069
 42
1.0
 10
-5.547633595833446
 20
1.815851349115847
 42
1.0
 10
-5.399398884916104
 20
1.130701970100344
 42
1.0
 72
     4
 94
        3
 73
     1
 74
     0
 95
        8
 96
        4
 40
3.0
 40
3.0
 40
3.0
 40
3.0
 40
4.0
 40
4.0
 40
4.0
 40
4.0
 10
-5.399398884916104
 20
1.130701970100344
 42
1.0
 10
-5.107009087764085
 20
-0.2207405274728672
 42
1.0
 10
-4.711497421058354
 20
-2.048334586467611
 42
1.0
 10
-4.449160707297047
 20
-3.260870000165379
 42
1.0
 72
     4
 94
        3
 73
     1
 74
     0
 95
        8
 96
        4
 40
4.0
 40
4.0
 40
4.0
 40
4.0
 40
5.0
 40
5.0
 40
5.0
 40
5.0
 10
-4.449160707297047
 20
-3.260870000165379
 42
1.0
 10
-4.300905507193207
 20
-3.946114081381999
 42
1.0
 10
-4.741570606399121
 20
-4.622385452066122
 42
1.0
 10
-5.433383135791953
 20
-4.771973641166296
 42
1.0
 72
     1
 10
-5.433383135791953
 20
-4.771973641166296
 11
-6.809537646582547
 21
-5.069709977697404
 72
     4
 94
        3
 73
     1
 74
     0
 95
        8
 96
        4
 40
0.0
 40
0.0
 40
0.0
 40
0.0
 40
1.0
 40
1.0
 40
1.0
 40
1.0
 10
-6.809537646582547
 20
-5.069709977697404
 42
1.0
 10
-7.284290309572815
 20
-2.875375801708635
 42
1.0
 10
-7.897830097865885
 20
-0.0390758678013329
 42
1.0
 10
-8.296070930952649
 20
1.80204897196991
 42
1.0
 72
     1
 10
-8.296070930952649
 20
1.80204897196991
 11
-6.919811195494074
 21
2.099808074263809
 97
        0
 75
     0
 76
     1
 98
        1
 10
0.0
 20
0.0
  0
ENDBLK
  5
76
330
74
100
AcDbEntity
  8
0
100
AcDbBlockEnd
  0
BLOCK
  5
6DE
330
6DD
100
AcDbEntity
  8
0
100
AcDbBlockBegin
  2
*U3
 70
     1
 10
0.0
 20
0.0
 30
0.0
  3
*U3
  1

  0
TEXT
  5
6DF
330
6DD
100
AcDbEntity
  8
LENKIMO
  6
CENTERX2
100
AcDbText
 10
799.0717146298566
 20
1100.336970457902
 30
0.0
 40
100.0
  1
A
100
AcDbText
  0
ENDBLK
  5
6E0
330
6DD
100
AcDbEntity
  8
0
100
AcDbBlockEnd
  0
BLOCK
  5
6E3
330
6E2
100
AcDbEntity
  8
0
100
AcDbBlockBegin
  2
*U4
 70
     1
 10
0.0
 20
0.0
 30
0.0
  3
*U4
  1

  0
TEXT
  5
6E4
330
6E2
100
AcDbEntity
  8
LENKIMO
  6
CENTERX2
100
AcDbText
 10
801.2712978691851
 20
1410.897389739665
 30
0.0
 40
100.0
  1
B
100
AcDbText
  0
ENDBLK
  5
6E5
330
6E2
100
AcDbEntity
  8
0
100
AcDbBlockEnd
  0
BLOCK
  5
6F8
330
6F7
100
AcDbEntity
  8
0
100
AcDbBlockBegin
  2
*U5
 70
     1
 10
0.0
 20
0.0
 30
0.0
  3
*U5
  1

  0
TEXT
  5
6F9
330
6F7
100
AcDbEntity
  8
LENKIMO
  6
CENTERX2
100
AcDbText
 10
801.2712978691851
 20
1410.897389739665
 30
0.0
 40
100.0
  1
B
100
AcDbText
  0
ENDBLK
  5
6FA
330
6F7
100
AcDbEntity
  8
0
100
AcDbBlockEnd
  0
ENDSEC
  0
SECTION
  2
ENTITIES
  0
LINE
  5
E0
330
1F
100
AcDbEntity
  8
0
100
AcDbLine
 10
-33.8624622466
 20
-462.486731878
 30
0.0
 11
-33.7624622466
 21
-462.486731878
 31
0.0
  0
LINE
  5
E2
330
1F
100
AcDbEntity
  8
0
100
AcDbLine
 10
379.1375377534
 20
-72.486731878
 30
0.0
 11
379.0375377534
 21
-72.486731878
 31
0.0
  0
ARC
  5
E5
330
1F
100
AcDbEntity
  8
0
100
AcDbCircle
 10
-33.8624622466
 20
-80.9867318781
 30
0.0
 40
1.500000000000007
100
AcDbArc
 50
180.0
 51
270.0
  0
ARC
  5
E6
330
1F
100
AcDbEntity
  8
0
100
AcDbCircle
 10
-33.8624622466
 20
-73.9867318781
 30
0.0
 40
1.5
100
AcDbArc
 50
90.0
 51
180.0
  0
LINE
  5
E7
330
1F
100
AcDbEntity
  8
0
100
AcDbLine
 10
-33.7624622466
 20
-72.4867318781
 30
0.0
 11
-33.8624622466
 21
-72.4867318781
 31
0.0
  0
LINE
  5
E8
330
1F
100
AcDbEntity
  8
0
100
AcDbLine
 10
-33.8624622466
 20
-82.4867318781
 30
0.0
 11
-31.5624622466
 21
-82.4867318781
 31
0.0
  0
LINE
  5
EB
330
1F
100
AcDbEntity
  8
0
100
AcDbLine
 10
379.0375377534
 20
-462.486731878
 30
0.0
 11
379.1375377534
 21
-462.486731878
 31
0.0
  0
LINE
  5
F1
330
1F
100
AcDbEntity
  8
0
100
AcDbLine
 10
373.0375377534
 20
-451.9867318781
 30
0.0
 11
372.6375377534
 21
-451.9867318781
 31
0.0
  0
ARC
  5
F2
330
1F
100
AcDbEntity
  8
0
100
AcDbCircle
 10
373.0375377534
 20
-452.9867318781
 30
0.0
 40
1.0
100
AcDbArc
 50
53.1301023543
 51
90.0
  0
LINE
  5
F3
330
1F
100
AcDbEntity
  8
0
100
AcDbLine
 10
-27.3624622466
 20
-451.9867318781
 30
0.0
 11
-27.7624622466
 21
-451.9867318781
 31
0.0
  0
ARC
  5
F4
330
1F
100
AcDbEntity
  8
0
100
AcDbCircle
 10
-27.7624622466
 20
-452.9867318781
 30
0.0
 40
1.000000000000022
100
AcDbArc
 50
90.0
 51
126.8698976459
  0
LINE
  5
F5
330
1F
100
AcDbEntity
  8
0
100
AcDbLine
 10
372.6375377534
 20
-469.486731878
 30
0.0
 11
373.0375377534
 21
-469.486731878
 31
0.0
  0
LINE
  5
F6
330
1F
100
AcDbEntity
  8
0
100
AcDbLine
 10
373.0375377534
 20
-458.486731878
 30
0.0
 11
372.6375377534
 21
-458.486731878
 31
0.0
  0
ARC
  5
F7
330
1F
100
AcDbEntity
  8
0
100
AcDbCircle
 10
373.0375377534
 20
-459.486731878
 30
0.0
 40
1.0
100
AcDbArc
 50
360.0
 51
90.0
  0
ARC
  5
F8
330
1F
100
AcDbEntity
  8
0
100
AcDbCircle
 10
373.0375377534
 20
-468.486731878
 30
0.0
 40
1.0
100
AcDbArc
 50
270.0
 51
0.0
  0
LINE
  5
F9
330
1F
100
AcDbEntity
  8
0
100
AcDbLine
 10
-27.3624622466
 20
-401.9867318781
 30
0.0
 11
-27.7624622466
 21
-401.9867318781
 31
0.0
  0
LINE
  5
FA
330
1F
100
AcDbEntity
  8
0
100
AcDbLine
 10
-27.7624622466
 20
-412.9867318781
 30
0.0
 11
-27.3624622466
 21
-412.9867318781
 31
0.0
  0
ARC
  5
FB
330
1F
100
AcDbEntity
  8
0
100
AcDbCircle
 10
-27.7624622466
 20
-411.9867318781
 30
0.0
 40
1.000000000000033
100
AcDbArc
 50
233.1301023541
 51
270.0
  0
ARC
  5
FC
330
1F
100
AcDbEntity
  8
0
100
AcDbCircle
 10
-27.7624622466
 20
-402.9867318781
 30
0.0
 40
1.0
100
AcDbArc
 50
90.0
 51
126.8698976459
  0
LINE
  5
FD
330
1F
100
AcDbEntity
  8
0
100
AcDbLine
 10
-27.3624622466
 20
-458.486731878
 30
0.0
 11
-27.7624622466
 21
-458.486731878
 31
0.0
  0
LINE
  5
FE
330
1F
100
AcDbEntity
  8
0
100
AcDbLine
 10
-27.7624622466
 20
-469.486731878
 30
0.0
 11
-27.3624622466
 21
-469.486731878
 31
0.0
  0
ARC
  5
FF
330
1F
100
AcDbEntity
  8
0
100
AcDbCircle
 10
-27.7624622466
 20
-468.486731878
 30
0.0
 40
1.0
100
AcDbArc
 50
180.0
 51
270.0
  0
ARC
  5
100
330
1F
100
AcDbEntity
  8
0
100
AcDbCircle
 10
-27.7624622466
 20
-459.486731878
 30
0.0
 40
1.000000000000004
100
AcDbArc
 50
90.0
 51
180.0
  0
LINE
  5
101
330
1F
100
AcDbEntity
  8
0
100
AcDbLine
 10
-33.2624622466
 20
-468.136731878
 30
0.0
 11
-28.7624622466
 21
-468.136731878
 31
0.0
  0
LINE
  5
102
330
1F
100
AcDbEntity
  8
0
100
AcDbLine
 10
-28.7624622466
 20
-459.836731878
 30
0.0
 11
-33.2624622466
 21
-459.836731878
 31
0.0
  0
LINE
  5
103
330
1F
100
AcDbEntity
  8
0
100
AcDbLine
 10
-33.2624622466
 20
-459.836731878
 30
0.0
 11
-33.7624622466
 21
-460.336731878
 31
0.0
  0
LINE
  5
104
330
1F
100
AcDbEntity
  8
0
100
AcDbLine
 10
-33.7624622466
 20
-467.636731878
 30
0.0
 11
-33.2624622466
 21
-468.136731878
 31
0.0
  0
LINE
  5
105
330
1F
100
AcDbEntity
  8
0
100
AcDbLine
 10
378.5375377534
 20
-66.8367318781
 30
0.0
 11
375.1375377534
 21
-66.8367318781
 31
0.0
  0
LINE
  5
106
330
1F
100
AcDbEntity
  8
0
100
AcDbLine
 10
375.1375377534
 20
-75.1367318781
 30
0.0
 11
378.5375377534
 21
-75.1367318781
 31
0.0
  0
LINE
  5
107
330
1F
100
AcDbEntity
  8
0
100
AcDbLine
 10
378.5375377534
 20
-75.1367318781
 30
0.0
 11
379.0375377534
 21
-74.6367318781
 31
0.0
  0
LINE
  5
108
330
1F
100
AcDbEntity
  8
0
100
AcDbLine
 10
379.0375377534
 20
-67.3367318781
 30
0.0
 11
378.5375377534
 21
-66.8367318781
 31
0.0
  0
LINE
  5
109
330
1F
100
AcDbEntity
  8
0
100
AcDbLine
 10
378.5375377534
 20
-459.836731878
 30
0.0
 11
374.0375377534
 21
-459.836731878
 31
0.0
  0
LINE
  5
10A
330
1F
100
AcDbEntity
  8
0
100
AcDbLine
 10
374.0375377534
 20
-468.136731878
 30
0.0
 11
378.5375377534
 21
-468.136731878
 31
0.0
  0
LINE
  5
10B
330
1F
100
AcDbEntity
  8
0
100
AcDbLine
 10
378.5375377534
 20
-468.136731878
 30
0.0
 11
379.0375377534
 21
-467.636731878
 31
0.0
  0
LINE
  5
10C
330
1F
100
AcDbEntity
  8
0
100
AcDbLine
 10
379.0375377534
 20
-460.336731878
 30
0.0
 11
378.5375377534
 21
-459.836731878
 31
0.0
  0
LINE
  5
10D
330
1F
100
AcDbEntity
  8
0
100
AcDbLine
 10
-33.2624622466
 20
-75.136731878
 30
0.0
 11
-29.8624622466
 21
-75.136731878
 31
0.0
  0
LINE
  5
10E
330
1F
100
AcDbEntity
  8
0
100
AcDbLine
 10
-29.8624622466
 20
-66.836731878
 30
0.0
 11
-33.2624622466
 21
-66.836731878
 31
0.0
  0
LINE
  5
10F
330
1F
100
AcDbEntity
  8
0
100
AcDbLine
 10
-33.2624622466
 20
-66.836731878
 30
0.0
 11
-33.7624622466
 21
-67.336731878
 31
0.0
  0
LINE
  5
110
330
1F
100
AcDbEntity
  8
0
100
AcDbLine
 10
-33.7624622466
 20
-74.636731878
 30
0.0
 11
-33.2624622466
 21
-75.136731878
 31
0.0
  0
LINE
  5
115
330
1F
100
AcDbEntity
  8
0
100
AcDbLine
 10
-29.8624622466
 20
-114.486731878
 30
0.0
 11
-35.0731713988
 21
-114.486731878
 31
0.0
  0
LINE
  5
116
330
1F
100
AcDbEntity
  8
0
100
AcDbLine
 10
-35.0731713988
 20
-314.486731878
 30
0.0
 11
-27.3624622466
 21
-314.486731878
 31
0.0
  0
LINE
  5
117
330
1F
100
AcDbEntity
  8
0
100
AcDbLine
 10
-35.0731713988
 20
-114.486731878
 30
0.0
 11
-37.6438378109
 21
-116.286731878
 31
0.0
  0
LINE
  5
118
330
1F
100
AcDbEntity
  8
0
100
AcDbLine
 10
-37.6438378109
 20
-312.686731878
 30
0.0
 11
-35.0731713988
 21
-314.486731878
 31
0.0
  0
LINE
  5
119
330
1F
100
AcDbEntity
  8
0
100
AcDbLine
 10
-50.4624622466
 20
-114.486731878
 30
0.0
 11
-54.2124622466
 21
-114.486731878
 31
0.0
  0
LINE
  5
11A
330
1F
100
AcDbEntity
  8
0
100
AcDbLine
 10
-54.2124622466
 20
-314.486731878
 30
0.0
 11
-50.4624622466
 21
-314.486731878
 31
0.0
  0
ARC
  5
11B
330
1F
100
AcDbEntity
  8
0
100
AcDbCircle
 10
-54.2124622466
 20
-115.736731878
 30
0.0
 40
1.250000000000028
100
AcDbArc
 50
90.0
 51
180.0
  0
ARC
  5
11C
330
1F
100
AcDbEntity
  8
0
100
AcDbCircle
 10
-54.2124622466
 20
-313.236731878
 30
0.0
 40
1.250000000000028
100
AcDbArc
 50
180.0
 51
270.0
  0
LINE
  5
11D
330
1F
100
AcDbEntity
  8
0
100
AcDbLine
 10
-55.4624622466
 20
-115.736731878
 30
0.0
 11
-55.4624622466
 21
-313.236731878
 31
0.0
  0
LINE
  5
11E
330
1F
100
AcDbEntity
  8
0
100
AcDbLine
 10
-50.1626697848
 20
-115.286731878
 30
0.0
 11
-50.4624622466
 21
-115.286731878
 31
0.0
  0
LINE
  5
11F
330
1F
100
AcDbEntity
  8
0
100
AcDbLine
 10
-50.4624622466
 20
-313.686731878
 30
0.0
 11
-50.1626697848
 21
-313.686731878
 31
0.0
  0
LINE
  5
120
330
1F
100
AcDbEntity
  8
0
100
AcDbLine
 10
-37.6438378109
 20
-116.286731878
 30
0.0
 11
-44.0029087326
 21
-116.286731878
 31
0.0
  0
LINE
  5
121
330
1F
100
AcDbEntity
  8
0
100
AcDbLine
 10
-44.0029087326
 20
-312.686731878
 30
0.0
 11
-37.6438378109
 21
-312.686731878
 31
0.0
  0
LINE
  5
126
330
1F
100
AcDbEntity
  8
0
100
AcDbLine
 10
372.6375377534
 20
-314.486731878
 30
0.0
 11
380.3482469056
 21
-314.486731878
 31
0.0
  0
LINE
  5
127
330
1F
100
AcDbEntity
  8
0
100
AcDbLine
 10
380.3482469056
 20
-114.486731878
 30
0.0
 11
375.1375377534
 21
-114.486731878
 31
0.0
  0
LINE
  5
128
330
1F
100
AcDbEntity
  8
0
100
AcDbLine
 10
380.3482469056
 20
-314.486731878
 30
0.0
 11
382.9189133178
 21
-312.686731878
 31
0.0
  0
LINE
  5
129
330
1F
100
AcDbEntity
  8
0
100
AcDbLine
 10
382.9189133178
 20
-116.286731878
 30
0.0
 11
380.3482469056
 21
-114.486731878
 31
0.0
  0
ARC
  5
12A
330
1F
100
AcDbEntity
  8
0
100
AcDbCircle
 10
399.4875377534
 20
-313.236731878
 30
0.0
 40
1.250000000000057
100
AcDbArc
 50
270.0
 51
0.0
  0
ARC
  5
12B
330
1F
100
AcDbEntity
  8
0
100
AcDbCircle
 10
399.4875377534
 20
-115.736731878
 30
0.0
 40
1.250000000000114
100
AcDbArc
 50
0.0
 51
90.0
  0
LINE
  5
12C
330
1F
100
AcDbEntity
  8
0
100
AcDbLine
 10
400.7375377534
 20
-313.236731878
 30
0.0
 11
400.7375377534
 21
-115.736731878
 31
0.0
  0
LINE
  5
12D
330
1F
100
AcDbEntity
  8
0
100
AcDbLine
 10
395.7375377534
 20
-314.486731878
 30
0.0
 11
399.4875377534
 21
-314.486731878
 31
0.0
  0
LINE
  5
12E
330
1F
100
AcDbEntity
  8
0
100
AcDbLine
 10
399.4875377534
 20
-114.486731878
 30
0.0
 11
395.7375377534
 21
-114.486731878
 31
0.0
  0
LINE
  5
12F
330
1F
100
AcDbEntity
  8
0
100
AcDbLine
 10
395.4377452916
 20
-313.686731878
 30
0.0
 11
395.7375377534
 21
-313.686731878
 31
0.0
  0
LINE
  5
130
330
1F
100
AcDbEntity
  8
0
100
AcDbLine
 10
395.7375377534
 20
-115.286731878
 30
0.0
 11
395.4377452916
 21
-115.286731878
 31
0.0
  0
LINE
  5
131
330
1F
100
AcDbEntity
  8
0
100
AcDbLine
 10
382.9189133178
 20
-312.686731878
 30
0.0
 11
389.2779842394
 21
-312.686731878
 31
0.0
  0
LINE
  5
132
330
1F
100
AcDbEntity
  8
0
100
AcDbLine
 10
389.2779842394
 20
-116.286731878
 30
0.0
 11
382.9189133178
 21
-116.286731878
 31
0.0
  0
LINE
  5
133
330
1F
100
AcDbEntity
  8
0
100
AcDbLine
 10
406.6375377534
 20
-338.686731878
 30
0.0
 11
413.6375377534
 21
-338.686731878
 31
0.0
  0
LINE
  5
134
330
1F
100
AcDbEntity
  8
0
100
AcDbLine
 10
406.6375377534
 20
-347.686731878
 30
0.0
 11
406.6375377534
 21
-338.686731878
 31
0.0
  0
LINE
  5
135
330
1F
100
AcDbEntity
  8
0
100
AcDbLine
 10
414.6375377534
 20
-347.686731878
 30
0.0
 11
414.6375377534
 21
-413.686731878
 31
0.0
  0
LINE
  5
136
330
1F
100
AcDbEntity
  8
0
100
AcDbLine
 10
407.6375377534
 20
-402.686731878
 30
0.0
 11
406.6375377534
 21
-402.686731878
 31
0.0
  0
LINE
  5
137
330
1F
100
AcDbEntity
  8
0
100
AcDbLine
 10
407.6375377534
 20
-358.686731878
 30
0.0
 11
407.6375377534
 21
-350.686731878
 31
0.0
  0
LINE
  5
138
330
1F
100
AcDbEntity
  8
0
100
AcDbLine
 10
406.6375377534
 20
-410.686731878
 30
0.0
 11
407.6375377534
 21
-410.686731878
 31
0.0
  0
LINE
  5
139
330
1F
100
AcDbEntity
  8
0
100
AcDbLine
 10
407.6375377534
 20
-410.686731878
 30
0.0
 11
407.6375377534
 21
-402.686731878
 31
0.0
  0
LINE
  5
13A
330
1F
100
AcDbEntity
  8
0
100
AcDbLine
 10
407.6375377534
 20
-350.686731878
 30
0.0
 11
406.6375377534
 21
-350.686731878
 31
0.0
  0
LINE
  5
13B
330
1F
100
AcDbEntity
  8
0
100
AcDbLine
 10
406.6375377534
 20
-358.686731878
 30
0.0
 11
407.6375377534
 21
-358.686731878
 31
0.0
  0
LINE
  5
13C
330
1F
100
AcDbEntity
  8
0
100
AcDbLine
 10
406.6375377534
 20
-347.686731878
 30
0.0
 11
406.6375377534
 21
-350.686731878
 31
0.0
  0
LINE
  5
13D
330
1F
100
AcDbEntity
  8
0
100
AcDbLine
 10
406.6375377534
 20
-358.686731878
 30
0.0
 11
406.6375377534
 21
-402.686731878
 31
0.0
  0
LINE
  5
13E
330
1F
100
AcDbEntity
  8
0
100
AcDbLine
 10
406.6375377534
 20
-410.686731878
 30
0.0
 11
406.6375377534
 21
-413.686731878
 31
0.0
  0
LINE
  5
13F
330
1F
100
AcDbEntity
  8
0
100
AcDbLine
 10
414.6375377534
 20
-339.686731878
 30
0.0
 11
414.6375377534
 21
-347.686731878
 31
0.0
  0
ARC
  5
140
330
1F
100
AcDbEntity
  8
0
100
AcDbCircle
 10
413.6375377534
 20
-339.686731878
 30
0.0
 40
1.0
100
AcDbArc
 50
0.0
 51
90.0
  0
LINE
  5
141
330
1F
100
AcDbEntity
  8
0
100
AcDbLine
 10
414.6375377534
 20
-413.686731878
 30
0.0
 11
414.6375377534
 21
-421.686731878
 31
0.0
  0
ARC
  5
142
330
1F
100
AcDbEntity
  8
0
100
AcDbCircle
 10
413.6375377534
 20
-421.686731878
 30
0.0
 40
1.0
100
AcDbArc
 50
270.0
 51
0.0
  0
LINE
  5
143
330
1F
100
AcDbEntity
  8
0
100
AcDbLine
 10
413.6375377534
 20
-422.686731878
 30
0.0
 11
406.6375377534
 21
-422.686731878
 31
0.0
  0
LINE
  5
144
330
1F
100
AcDbEntity
  8
0
100
AcDbLine
 10
406.6375377534
 20
-422.686731878
 30
0.0
 11
406.6375377534
 21
-413.686731878
 31
0.0
  0
LINE
  5
145
330
1F
100
AcDbEntity
  8
0
100
AcDbLine
 10
406.6375377534
 20
-338.686731878
 30
0.0
 11
404.6375377534
 21
-338.686731878
 31
0.0
  0
LINE
  5
146
330
1F
100
AcDbEntity
  8
0
100
AcDbLine
 10
404.6375377534
 20
-338.686731878
 30
0.0
 11
404.6375377534
 21
-347.686731878
 31
0.0
  0
LINE
  5
147
330
1F
100
AcDbEntity
  8
0
100
AcDbLine
 10
406.6375377534
 20
-422.686731878
 30
0.0
 11
404.6375377534
 21
-422.686731878
 31
0.0
  0
LINE
  5
148
330
1F
100
AcDbEntity
  8
0
100
AcDbLine
 10
404.6375377534
 20
-413.686731878
 30
0.0
 11
404.6375377534
 21
-422.686731878
 31
0.0
  0
LINE
  5
149
330
1F
100
AcDbEntity
  8
0
100
AcDbLine
 10
404.6375377534
 20
-347.686731878
 30
0.0
 11
404.6375377534
 21
-413.686731878
 31
0.0
  0
LINE
  5
14A
330
1F
100
AcDbEntity
  8
0
100
AcDbLine
 10
406.6375377534
 20
-347.686731878
 30
0.0
 11
406.6375377534
 21
-413.686731878
 31
0.0
  0
LINE
  5
14B
330
1F
100
AcDbEntity
  8
0
100
AcDbLine
 10
375.6375377534
 20
-340.686731878
 30
0.0
 11
404.6375377534
 21
-340.686731878
 31
0.0
  0
ARC
  5
14C
330
1F
100
AcDbEntity
  8
0
100
AcDbCircle
 10
375.6375377534
 20
-343.686731878
 30
0.0
 40
3.0
100
AcDbArc
 50
90.0
 51
180.0
  0
LINE
  5
14D
330
1F
100
AcDbEntity
  8
0
100
AcDbLine
 10
404.6375377534
 20
-420.686731878
 30
0.0
 11
375.6375377534
 21
-420.686731878
 31
0.0
  0
ARC
  5
14E
330
1F
100
AcDbEntity
  8
0
100
AcDbCircle
 10
375.6375377534
 20
-417.686731878
 30
0.0
 40
3.0
100
AcDbArc
 50
180.0
 51
270.0
  0
SPLINE
  5
14F
330
1F
100
AcDbEntity
  8
0
100
AcDbSpline
210
0.0
220
0.0
230
1.0
 70
     8
 71
     3
 72
    11
 73
     7
 74
     0
 42
0.000000001
 43
0.00000001
 40
0.0
 40
0.0
 40
0.0
 40
0.0
 40
0.2500000000000007
 40
0.5000000000000013
 40
0.7499999999999984
 40
1.0
 40
1.0
 40
1.0
 40
1.0
 10
-27.36246224657388
 20
-62.88673187805202
 30
0.0
 10
-27.3868700148083
 20
-62.55913926853646
 30
0.0
 10
-27.43568555127729
 20
-61.90395404950519
 30
0.0
 10
-27.50890885598059
 20
-61.07759170676294
 30
0.0
 10
-27.58213216068403
 20
-60.49946867395692
 30
0.0
 10
-27.63094769715291
 20
-60.42431081002031
 30
0.0
 10
-27.65535546538731
 20
-60.38673187805202
 30
0.0
  0
LINE
  5
150
330
1F
100
AcDbEntity
  8
0
100
AcDbLine
 10
-27.6553554654
 20
-60.3867318781
 30
0.0
 11
50.1375377534
 21
-60.3867318781
 31
0.0
  0
LINE
  5
151
330
1F
100
AcDbEntity
  8
0
100
AcDbLine
 10
50.1375377534
 20
-60.3867318781
 30
0.0
 11
50.1375377534
 21
-62.486731878
 31
0.0
  0
LINE
  5
152
330
1F
100
AcDbEntity
  8
0
100
AcDbLine
 10
-27.3624622466
 20
-143.8867318781
 30
0.0
 11
-29.8624622466
 21
-143.8867318781
 31
0.0
  0
LINE
  5
153
330
1F
100
AcDbEntity
  8
0
100
AcDbLine
 10
-29.8624622466
 20
-143.8867318781
 30
0.0
 11
-29.8624622466
 21
-62.5938386592
 31
0.0
  0
SPLINE
  5
154
330
1F
100
AcDbEntity
  8
0
100
AcDbSpline
210
0.0
220
0.0
230
1.0
 70
     8
 71
     3
 72
    11
 73
     7
 74
     0
 42
0.000000001
 43
0.00000001
 40
0.0
 40
0.0
 40
0.0
 40
0.0
 40
0.2499999999999999
 40
0.4999999999999998
 40
0.7500000000000001
 40
1.0
 40
1.0
 40
1.0
 40
1.0
 10
-29.86246224657388
 20
-62.59383865923856
 30
0.0
 10
-29.82488331460556
 20
-62.61824642747302
 30
0.0
 10
-29.74972545066892
 20
-62.66706196394193
 30
0.0
 10
-29.17160241786301
 20
-62.7402852686452
 30
0.0
 10
-28.34524007512065
 20
-62.81350857334878
 30
0.0
 10
-27.69005485608944
 20
-62.8623241098176
 30
0.0
 10
-27.36246224657388
 20
-62.88673187805202
 30
0.0
  0
LINE
  5
155
330
1F
100
AcDbEntity
  8
0
100
AcDbLine
 10
-29.8624622466
 20
-62.5938386592
 30
0.0
 11
-28.3624622466
 21
-62.5938386592
 31
0.0
  0
SPLINE
  5
156
330
1F
100
AcDbEntity
  8
0
100
AcDbSpline
210
0.0
220
0.0
230
1.0
 70
     8
 71
     3
 72
    11
 73
     7
 74
     0
 42
0.000000001
 43
0.00000001
 40
0.0
 40
0.0
 40
0.0
 40
0.0
 40
0.2499999999999966
 40
0.5000000000000119
 40
0.75
 40
0.9999999999999999
 40
0.9999999999999999
 40
0.9999999999999999
 40
0.9999999999999999
 10
-28.36246224657388
 20
-62.59383865923856
 30
0.0
 10
-28.34743067378656
 20
-62.61824642747302
 30
0.0
 10
-28.31736752821187
 20
-62.66706196394193
 30
0.0
 10
-28.0861183150895
 20
-62.74028526864534
 30
0.0
 10
-27.75557337799262
 20
-62.81350857334863
 30
0.0
 10
-27.49349929038014
 20
-62.86232410981754
 30
0.0
 10
-27.36246224657388
 20
-62.88673187805205
 30
0.0
  0
SPLINE
  5
157
330
1F
100
AcDbEntity
  8
0
100
AcDbSpline
210
0.0
220
0.0
230
1.0
 70
     8
 71
     3
 72
    11
 73
     7
 74
     0
 42
0.000000001
 43
0.00000001
 40
0.0
 40
0.0
 40
0.0
 40
0.0
 40
0.2500000000000102
 40
0.4999999999999949
 40
0.7500000000000068
 40
1.0
 40
1.0
 40
1.0
 40
1.0
 10
-27.36246224657388
 20
-62.88673187805205
 30
0.0
 10
-27.3868700148083
 20
-62.75569483424579
 30
0.0
 10
-27.43568555127723
 20
-62.49362074663331
 30
0.0
 10
-27.50890885598056
 20
-62.16307580953645
 30
0.0
 10
-27.582132160684
 20
-61.931826596414
 30
0.0
 10
-27.63094769715288
 20
-61.90176345083936
 30
0.0
 10
-27.65535546538733
 20
-61.88673187805202
 30
0.0
  0
LINE
  5
158
330
1F
100
AcDbEntity
  8
0
100
AcDbLine
 10
-27.6553554654
 20
-60.3867318781
 30
0.0
 11
-27.6553554654
 21
-61.8867318781
 31
0.0
  0
SPLINE
  5
159
330
1F
100
AcDbEntity
  8
0
100
AcDbSpline
210
0.0
220
0.0
230
1.0
 70
     8
 71
     3
 72
    11
 73
     7
 74
     0
 42
0.000000001
 43
0.00000001
 40
0.0
 40
0.0
 40
0.0
 40
0.0
 40
0.2499999999999962
 40
0.4999999999999959
 40
0.7499999999999956
 40
1.0
 40
1.0
 40
1.0
 40
1.0
 10
372.6375377534262
 20
-62.8867318780535
 30
0.0
 10
372.9651303629417
 20
-62.86232410981901
 30
0.0
 10
373.6203155819729
 20
-62.81350857335011
 30
0.0
 10
374.4466779247152
 20
-62.74028526864675
 30
0.0
 10
375.0248009575212
 20
-62.6670619639434
 30
0.0
 10
375.0999588214578
 20
-62.61824642747446
 30
0.0
 10
375.1375377534262
 20
-62.59383865924001
 30
0.0
  0
LINE
  5
15A
330
1F
100
AcDbEntity
  8
0
100
AcDbLine
 10
375.1375377534
 20
-62.5938386592
 30
0.0
 11
375.1375377534
 21
-143.8867318781
 31
0.0
  0
LINE
  5
15B
330
1F
100
AcDbEntity
  8
0
100
AcDbLine
 10
375.1375377534
 20
-143.8867318781
 30
0.0
 11
372.6375377534
 21
-143.8867318781
 31
0.0
  0
LINE
  5
15C
330
1F
100
AcDbEntity
  8
0
100
AcDbLine
 10
295.1375377534
 20
-62.486731878
 30
0.0
 11
295.1375377534
 21
-60.3867318781
 31
0.0
  0
LINE
  5
15D
330
1F
100
AcDbEntity
  8
0
100
AcDbLine
 10
372.9304309722
 20
-60.3867318781
 30
0.0
 11
295.1375377534
 21
-60.3867318781
 31
0.0
  0
SPLINE
  5
15E
330
1F
100
AcDbEntity
  8
0
100
AcDbSpline
210
0.0
220
0.0
230
1.0
 70
     8
 71
     3
 72
    11
 73
     7
 74
     0
 42
0.000000001
 43
0.00000001
 40
0.0
 40
0.0
 40
0.0
 40
0.0
 40
0.2499999999999977
 40
0.4999999999999898
 40
0.7499999999999866
 40
1.0
 40
1.0
 40
1.0
 40
1.0
 10
372.9304309722397
 20
-60.38673187805343
 30
0.0
 10
372.9060232040052
 20
-60.42431081002175
 30
0.0
 10
372.8572076675363
 20
-60.49946867395845
 30
0.0
 10
372.7839843628329
 20
-61.07759170676438
 30
0.0
 10
372.7107610581296
 20
-61.90395404950652
 30
0.0
 10
372.6619455216606
 20
-62.5591392685379
 30
0.0
 10
372.6375377534262
 20
-62.8867318780535
 30
0.0
  0
LINE
  5
15F
330
1F
100
AcDbEntity
  8
0
100
AcDbLine
 10
372.9304309722
 20
-60.3867318781
 30
0.0
 11
372.9304309722
 21
-61.8867318781
 31
0.0
  0
SPLINE
  5
160
330
1F
100
AcDbEntity
  8
0
100
AcDbSpline
210
0.0
220
0.0
230
1.0
 70
     8
 71
     3
 72
    11
 73
     7
 74
     0
 42
0.000000001
 43
0.00000001
 40
0.0
 40
0.0
 40
0.0
 40
0.0
 40
0.2499999999999899
 40
0.4999999999999951
 40
0.7499999999999797
 40
1.0
 40
1.0
 40
1.0
 40
1.0
 10
372.9304309722397
 20
-61.88673187805344
 30
0.0
 10
372.9060232040052
 20
-61.90176345084075
 30
0.0
 10
372.8572076675363
 20
-61.93182659641538
 30
0.0
 10
372.783984362833
 20
-62.16307580953775
 30
0.0
 10
372.7107610581295
 20
-62.49362074663473
 30
0.0
 10
372.6619455216606
 20
-62.75569483424723
 30
0.0
 10
372.6375377534262
 20
-62.8867318780535
 30
0.0
  0
SPLINE
  5
161
330
1F
100
AcDbEntity
  8
0
100
AcDbSpline
210
0.0
220
0.0
230
1.0
 70
     8
 71
     3
 72
    11
 73
     7
 74
     0
 42
0.000000001
 43
0.00000001
 40
0.0
 40
0.0
 40
0.0
 40
0.0
 40
0.2499999999999815
 40
0.4999999999999849
 40
0.750000000000012
 40
0.9999999999999999
 40
0.9999999999999999
 40
0.9999999999999999
 40
0.9999999999999999
 10
372.6375377534262
 20
-62.8867318780535
 30
0.0
 10
372.7685747972325
 20
-62.86232410981904
 30
0.0
 10
373.0306488848449
 20
-62.81350857335008
 30
0.0
 10
373.3611938219419
 20
-62.74028526864672
 30
0.0
 10
373.5924430350641
 20
-62.66706196394345
 30
0.0
 10
373.6225061806389
 20
-62.61824642747449
 30
0.0
 10
373.6375377534262
 20
-62.59383865923995
 30
0.0
  0
LINE
  5
162
330
1F
100
AcDbEntity
  8
0
100
AcDbLine
 10
375.1375377534
 20
-62.5938386592
 30
0.0
 11
373.6375377534
 21
-62.5938386592
 31
0.0
  0
LINE
  5
163
330
1F
100
AcDbEntity
  8
0
100
AcDbLine
 10
-26.3624622466
 20
-92.4867318781
 30
0.0
 11
-26.3624622466
 21
-63.4867318781
 31
0.0
  0
LINE
  5
164
330
1F
100
AcDbEntity
  8
0
100
AcDbLine
 10
-26.3624622466
 20
-63.4867318781
 30
0.0
 11
-26.1624622466
 21
-63.4867318781
 31
0.0
  0
LINE
  5
168
330
1F
100
AcDbEntity
  8
0
100
AcDbLine
 10
-26.1624622466
 20
-471.4867318781
 30
0.0
 11
-26.3624622466
 21
-471.4867318781
 31
0.0
  0
LINE
  5
169
330
1F
100
AcDbEntity
  8
0
100
AcDbLine
 10
-26.3624622466
 20
-471.4867318781
 30
0.0
 11
-26.3624622466
 21
-442.4867318781
 31
0.0
  0
CIRCLE
  5
16B
330
1F
100
AcDbEntity
  8
0
100
AcDbCircle
 10
-2.3624622466
 20
-427.4867318781
 30
0.0
 40
8.000000000000036
  0
CIRCLE
  5
16C
330
1F
100
AcDbEntity
  8
0
100
AcDbCircle
 10
347.6375377534
 20
-427.4867318781
 30
0.0
 40
8.000000000000018
  0
LINE
  5
16D
330
1F
100
AcDbEntity
  8
0
100
AcDbLine
 10
-26.1624622466
 20
-92.4867318781
 30
0.0
 11
-26.1624622466
 21
-62.4867318781
 31
0.0
  0
LINE
  5
16E
330
1F
100
AcDbEntity
  8
0
100
AcDbLine
 10
371.4375377534
 20
-62.4867318781
 30
0.0
 11
-26.1624622466
 21
-62.4867318781
 31
0.0
  0
LINE
  5
171
330
1F
100
AcDbEntity
  8
0
100
AcDbLine
 10
372.6375377534
 20
-442.4867318781
 30
0.0
 11
372.6375377534
 21
-92.4867318781
 31
0.0
  0
LINE
  5
173
330
1F
100
AcDbEntity
  8
0
100
AcDbLine
 10
-26.1624622466
 20
-442.4867318781
 30
0.0
 11
-27.3624622466
 21
-442.4867318781
 31
0.0
  0
LINE
  5
174
330
1F
100
AcDbEntity
  8
0
100
AcDbLine
 10
-27.3624622466
 20
-92.4867318781
 30
0.0
 11
-27.3624622466
 21
-442.4867318781
 31
0.0
  0
LINE
  5
175
330
1F
100
AcDbEntity
  8
0
100
AcDbLine
 10
-27.3624622466
 20
-92.4867318781
 30
0.0
 11
-26.1624622466
 21
-92.4867318781
 31
0.0
  0
LINE
  5
177
330
1F
100
AcDbEntity
  8
0
100
AcDbLine
 10
-26.1624622466
 20
-472.4867318781
 30
0.0
 11
371.4375377534
 21
-472.4867318781
 31
0.0
  0
LINE
  5
178
330
1F
100
AcDbEntity
  8
0
100
AcDbLine
 10
-26.1624622466
 20
-472.4867318781
 30
0.0
 11
-26.1624622466
 21
-442.4867318781
 31
0.0
  0
LINE
  5
17B
330
1F
100
AcDbEntity
  8
0
100
AcDbLine
 10
372.6375377534
 20
-92.4867318781
 30
0.0
 11
372.6375377534
 21
-65.5867318781
 31
0.0
  0
LINE
  5
17C
330
1F
100
AcDbEntity
  8
0
100
AcDbLine
 10
-26.6624622466
 20
-65.5867318781
 30
0.0
 11
-27.3624622466
 21
-65.5867318781
 31
0.0
  0
LINE
  5
17D
330
1F
100
AcDbEntity
  8
0
100
AcDbLine
 10
-26.6624622466
 20
-92.4867318781
 30
0.0
 11
-26.6624622466
 21
-65.5867318781
 31
0.0
  0
LINE
  5
17E
330
1F
100
AcDbEntity
  8
0
100
AcDbLine
 10
-27.3624622466
 20
-92.4867318781
 30
0.0
 11
-27.3624622466
 21
-65.5867318781
 31
0.0
  0
LINE
  5
181
330
1F
100
AcDbEntity
  8
0
100
AcDbLine
 10
372.6375377534
 20
-442.4867318781
 30
0.0
 11
372.6375377534
 21
-469.3867318781
 31
0.0
  0
LINE
  5
182
330
1F
100
AcDbEntity
  8
0
100
AcDbLine
 10
-26.6624622466
 20
-469.3867318781
 30
0.0
 11
-27.3624622466
 21
-469.3867318781
 31
0.0
  0
LINE
  5
183
330
1F
100
AcDbEntity
  8
0
100
AcDbLine
 10
-26.6624622466
 20
-442.4867318781
 30
0.0
 11
-26.6624622466
 21
-469.3867318781
 31
0.0
  0
LINE
  5
184
330
1F
100
AcDbEntity
  8
0
100
AcDbLine
 10
-27.3624622466
 20
-442.4867318781
 30
0.0
 11
-27.3624622466
 21
-469.3867318781
 31
0.0
  0
LINE
  5
186
330
1F
100
AcDbEntity
  8
0
100
AcDbLine
 10
372.6375377534
 20
-63.6867318781
 30
0.0
 11
372.6375377534
 21
-65.4867318781
 31
0.0
  0
ARC
  5
188
330
1F
100
AcDbEntity
  8
0
100
AcDbCircle
 10
371.4375377534
 20
-63.6867318781
 30
0.0
 40
1.200000000000045
100
AcDbArc
 50
0.0
 51
90.0
  0
LINE
  5
18A
330
1F
100
AcDbEntity
  8
0
100
AcDbLine
 10
-27.3624622466
 20
-65.4867318781
 30
0.0
 11
-26.6624622466
 21
-65.4867318781
 31
0.0
  0
LINE
  5
18B
330
1F
100
AcDbEntity
  8
0
100
AcDbLine
 10
-26.6624622466
 20
-65.4867318781
 30
0.0
 11
-26.6624623892
 21
-63.6867318781
 31
0.0
  0
LINE
  5
18C
330
1F
100
AcDbEntity
  8
0
100
AcDbLine
 10
-27.3624622466
 20
-65.4867318781
 30
0.0
 11
-27.3624622466
 21
-63.6867318781
 31
0.0
  0
ARC
  5
18D
330
1F
100
AcDbEntity
  8
0
100
AcDbCircle
 10
-26.1624621039
 20
-63.6867318781
 30
0.0
 40
0.5000002853172703
100
AcDbArc
 50
90.0000163475
 51
180.0
  0
ARC
  5
18E
330
1F
100
AcDbEntity
  8
0
100
AcDbCircle
 10
-26.1624622466
 20
-63.6867318781
 30
0.0
 40
1.200000000000038
100
AcDbArc
 50
90.0
 51
180.0
  0
LINE
  5
190
330
1F
100
AcDbEntity
  8
0
100
AcDbLine
 10
372.6375377534
 20
-469.4867318781
 30
0.0
 11
372.6375377534
 21
-471.2867318781
 31
0.0
  0
ARC
  5
192
330
1F
100
AcDbEntity
  8
0
100
AcDbCircle
 10
371.4375377534
 20
-471.2867318781
 30
0.0
 40
1.200000000000102
100
AcDbArc
 50
270.0
 51
0.0
  0
LINE
  5
194
330
1F
100
AcDbEntity
  8
0
100
AcDbLine
 10
-27.3624622466
 20
-469.4867318781
 30
0.0
 11
-26.6624622466
 21
-469.4867318781
 31
0.0
  0
LINE
  5
195
330
1F
100
AcDbEntity
  8
0
100
AcDbLine
 10
-27.3624622466
 20
-471.2867318781
 30
0.0
 11
-27.3624622466
 21
-469.4867318781
 31
0.0
  0
LINE
  5
196
330
1F
100
AcDbEntity
  8
0
100
AcDbLine
 10
-26.6624622466
 20
-471.2867318781
 30
0.0
 11
-26.6624622466
 21
-469.4867318781
 31
0.0
  0
ARC
  5
197
330
1F
100
AcDbEntity
  8
0
100
AcDbCircle
 10
-26.1624622466
 20
-471.2867318781
 30
0.0
 40
1.199999999999868
100
AcDbArc
 50
180.0
 51
270.0
  0
ARC
  5
198
330
1F
100
AcDbEntity
  8
0
100
AcDbCircle
 10
-26.1624621039
 20
-471.2867318781
 30
0.0
 40
0.5000001426584966
100
AcDbArc
 50
180.0
 51
269.9999836525
  0
SPLINE
  5
199
330
1F
100
AcDbEntity
  8
0
100
AcDbSpline
210
0.0
220
0.0
230
1.0
 70
     8
 71
     3
 72
    11
 73
     7
 74
     0
 42
0.000000001
 43
0.00000001
 40
0.0
 40
0.0
 40
0.0
 40
0.0
 40
0.2499999999999525
 40
0.4999999999999714
 40
0.7499999999999366
 40
0.9999999999999999
 40
0.9999999999999999
 40
0.9999999999999999
 40
0.9999999999999999
 10
-26.16246224657379
 20
-63.18673184438242
 30
0.0
 10
-26.19823635673049
 20
-63.19424762849479
 30
0.0
 10
-26.2697845770439
 20
-63.20927919671951
 30
0.0
 10
-26.3771069075143
 20
-63.32490377098748
 30
0.0
 10
-26.48442923798439
 20
-63.49017619860567
 30
0.0
 10
-26.55597745829802
 20
-63.62121322312911
 30
0.0
 10
-26.59175156845481
 20
-63.68673173539086
 30
0.0
  0
LINE
  5
19A
330
1F
100
AcDbEntity
  8
0
100
AcDbLine
 10
-26.4875596885
 20
-63.2409063503
 30
0.0
 11
-26.5917515685
 21
-63.6867315357
 31
0.0
  0
LINE
  5
19D
330
1F
100
AcDbEntity
  8
0
100
AcDbLine
 10
-26.5917514943
 20
-471.2867322036
 30
0.0
 11
-26.484429238
 21
-471.7459520098
 31
0.0
  0
SPLINE
  5
1A1
330
1F
100
AcDbEntity
  8
0
100
AcDbSpline
210
0.0
220
0.0
230
1.0
 70
     8
 71
     3
 72
    10
 73
     6
 74
     0
 42
0.000000001
 43
0.00000001
 40
0.0
 40
0.0
 40
0.0
 40
0.0
 40
0.339371481987668
 40
0.678742963975362
 40
1.0
 40
1.0
 40
1.0
 40
1.0
 10
-26.66246224657493
 20
-469.3867318780524
 30
0.0
 10
-26.65480699686673
 20
-469.3450652113859
 30
0.0
 10
-26.6394964974504
 20
-469.2617318780526
 30
0.0
 10
-26.5279838307815
 20
-469.138955896928
 30
0.0
 10
-26.41661822567232
 20
-469.0578465824703
 30
0.0
 10
-26.36246224657518
 20
-469.0184039346794
 30
0.0
  0
SPLINE
  5
1A2
330
1F
100
AcDbEntity
  8
0
100
AcDbSpline
210
0.0
220
0.0
230
1.0
 70
     8
 71
     3
 72
    10
 73
     6
 74
     0
 42
0.000000001
 43
0.00000001
 40
0.0
 40
0.0
 40
0.0
 40
0.0
 40
0.3212570360246088
 40
0.6606285180122672
 40
1.0
 40
1.0
 40
1.0
 40
1.0
 10
-26.36246224657382
 20
-65.95505982142511
 30
0.0
 10
-26.41661822567101
 20
-65.91561717363409
 30
0.0
 10
-26.5279838307802
 20
-65.83450785917641
 30
0.0
 10
-26.6394964974489
 20
-65.71173187805202
 30
0.0
 10
-26.65480699686543
 20
-65.62839854471864
 30
0.0
 10
-26.66246224657373
 20
-65.58673187805198
 30
0.0
  0
LINE
  5
1A4
330
1F
100
AcDbEntity
  8
0
100
AcDbLine
 10
-26.5917515685
 20
-471.2867320207
 30
0.0
 11
-26.5917515685
 21
-469.2240767252
 31
0.0
  0
LINE
  5
1A6
330
1F
100
AcDbEntity
  8
0
100
AcDbLine
 10
-26.5917515685
 20
-63.6867318781
 30
0.0
 11
-26.5917515685
 21
-65.7493870309
 31
0.0
  0
LINE
  5
1A7
330
1F
100
AcDbEntity
  8
0
100
AcDbLine
 10
-31.5624622466
 20
-82.0594772241
 30
0.0
 11
-30.3624622466
 21
-82.0594772241
 31
0.0
  0
LINE
  5
1AE
330
1F
100
AcDbEntity
  8
0
100
AcDbLine
 10
-35.3624622466
 20
-80.9867318781
 30
0.0
 11
-35.3624622466
 21
-73.9867322996
 31
0.0
  0
LINE
  5
1AF
330
1F
100
AcDbEntity
  8
0
100
AcDbLine
 10
-31.5624622466
 20
-82.4867318781
 30
0.0
 11
-31.5624622466
 21
-75.136731878
 31
0.0
  0
LINE
  5
1B4
330
1F
100
AcDbEntity
  8
0
100
AcDbLine
 10
372.6375377534
 20
-469.486731878
 30
0.0
 11
372.6375377534
 21
-469.3867318781
 31
0.0
  0
LINE
  5
1B5
330
1F
100
AcDbEntity
  8
0
100
AcDbLine
 10
374.0375377534
 20
-459.4867324201
 30
0.0
 11
374.0375377534
 21
-468.486731878
 31
0.0
  0
LINE
  5
1B6
330
1F
100
AcDbEntity
  8
0
100
AcDbLine
 10
-27.3624622466
 20
-469.3867318781
 30
0.0
 11
-27.3624622466
 21
-469.486731878
 31
0.0
  0
LINE
  5
1B7
330
1F
100
AcDbEntity
  8
0
100
AcDbLine
 10
-28.7624622466
 20
-468.486731878
 30
0.0
 11
-28.7624622466
 21
-459.486731878
 31
0.0
  0
LINE
  5
1B8
330
1F
100
AcDbEntity
  8
0
100
AcDbLine
 10
-33.2624622466
 20
-459.836731878
 30
0.0
 11
-33.2624622466
 21
-468.136731878
 31
0.0
  0
LINE
  5
1B9
330
1F
100
AcDbEntity
  8
0
100
AcDbLine
 10
-33.7624622466
 20
-467.636731878
 30
0.0
 11
-33.7624622466
 21
-460.336731878
 31
0.0
  0
LINE
  5
1BA
330
1F
100
AcDbEntity
  8
0
100
AcDbLine
 10
378.5375377534
 20
-70.9867318781
 30
0.0
 11
378.5375377534
 21
-66.8367318781
 31
0.0
  0
LINE
  5
1BB
330
1F
100
AcDbEntity
  8
0
100
AcDbLine
 10
378.5375377534
 20
-75.1367318781
 30
0.0
 11
378.5375377534
 21
-70.9867318781
 31
0.0
  0
LINE
  5
1BC
330
1F
100
AcDbEntity
  8
0
100
AcDbLine
 10
379.0375377534
 20
-70.9867318781
 30
0.0
 11
379.0375377534
 21
-74.6367318781
 31
0.0
  0
LINE
  5
1BD
330
1F
100
AcDbEntity
  8
0
100
AcDbLine
 10
379.0375377534
 20
-67.3367318781
 30
0.0
 11
379.0375377534
 21
-70.9867318781
 31
0.0
  0
LINE
  5
1BE
330
1F
100
AcDbEntity
  8
0
100
AcDbLine
 10
378.5375377534
 20
-463.986731878
 30
0.0
 11
378.5375377534
 21
-459.836731878
 31
0.0
  0
LINE
  5
1BF
330
1F
100
AcDbEntity
  8
0
100
AcDbLine
 10
378.5375377534
 20
-468.136731878
 30
0.0
 11
378.5375377534
 21
-463.986731878
 31
0.0
  0
LINE
  5
1C0
330
1F
100
AcDbEntity
  8
0
100
AcDbLine
 10
379.0375377534
 20
-463.986731878
 30
0.0
 11
379.0375377534
 21
-467.636731878
 31
0.0
  0
LINE
  5
1C1
330
1F
100
AcDbEntity
  8
0
100
AcDbLine
 10
379.0375377534
 20
-460.336731878
 30
0.0
 11
379.0375377534
 21
-463.986731878
 31
0.0
  0
LINE
  5
1C2
330
1F
100
AcDbEntity
  8
0
100
AcDbLine
 10
-33.2624622466
 20
-66.836731878
 30
0.0
 11
-33.2624622466
 21
-75.136731878
 31
0.0
  0
LINE
  5
1C3
330
1F
100
AcDbEntity
  8
0
100
AcDbLine
 10
-33.7624622466
 20
-74.636731878
 30
0.0
 11
-33.7624622466
 21
-67.336731878
 31
0.0
  0
LINE
  5
1C4
330
1F
100
AcDbEntity
  8
0
100
AcDbLine
 10
-28.3624622466
 20
-458.686731878
 30
0.0
 11
-28.3624622466
 21
-397.486731878
 31
0.0
  0
LINE
  5
1C5
330
1F
100
AcDbEntity
  8
0
100
AcDbLine
 10
-30.3624622466
 20
-459.836731878
 30
0.0
 11
-30.3624622466
 21
-397.486731878
 31
0.0
  0
LINE
  5
1C6
330
1F
100
AcDbEntity
  8
0
100
AcDbLine
 10
-30.3624622466
 20
-392.486731878
 30
0.0
 11
-28.3624622466
 21
-392.486731878
 31
0.0
  0
LINE
  5
1C7
330
1F
100
AcDbEntity
  8
0
100
AcDbLine
 10
-28.3624622466
 20
-392.486731878
 30
0.0
 11
-28.3624622466
 21
-397.486731878
 31
0.0
  0
LINE
  5
1C8
330
1F
100
AcDbEntity
  8
0
100
AcDbLine
 10
-30.3624622466
 20
-397.486731878
 30
0.0
 11
-30.3624622466
 21
-392.486731878
 31
0.0
  0
LINE
  5
1C9
330
1F
100
AcDbEntity
  8
0
100
AcDbLine
 10
-28.3624622466
 20
-472.486731878
 30
0.0
 11
-30.3624622466
 21
-472.486731878
 31
0.0
  0
LINE
  5
1CA
330
1F
100
AcDbEntity
  8
0
100
AcDbLine
 10
-30.3624622466
 20
-472.486731878
 30
0.0
 11
-30.3624622466
 21
-468.136731878
 31
0.0
  0
LINE
  5
1CB
330
1F
100
AcDbEntity
  8
0
100
AcDbLine
 10
-28.3624622466
 20
-469.286731878
 30
0.0
 11
-28.3624622466
 21
-472.486731878
 31
0.0
  0
LINE
  5
1CC
330
1F
100
AcDbEntity
  8
0
100
AcDbLine
 10
-30.3624622466
 20
-472.486731878
 30
0.0
 11
-31.3624622466
 21
-472.486731878
 31
0.0
  0
LINE
  5
1CD
330
1F
100
AcDbEntity
  8
0
100
AcDbLine
 10
-30.3624622466
 20
-392.486731878
 30
0.0
 11
-31.3624622466
 21
-392.486731878
 31
0.0
  0
ARC
  5
1CE
330
1F
100
AcDbEntity
  8
0
100
AcDbCircle
 10
-57.3624622466
 20
-397.486731878
 30
0.0
 40
4.999999999999837
100
AcDbArc
 50
90.0
 51
180.0
  0
LINE
  5
1CF
330
1F
100
AcDbEntity
  8
0
100
AcDbLine
 10
-31.3624622466
 20
-392.486731878
 30
0.0
 11
-57.3624622466
 21
-392.486731878
 31
0.0
  0
LINE
  5
1D0
330
1F
100
AcDbEntity
  8
0
100
AcDbLine
 10
-31.3624622466
 20
-472.486731878
 30
0.0
 11
-57.3624622466
 21
-472.486731878
 31
0.0
  0
ARC
  5
1D1
330
1F
100
AcDbEntity
  8
0
100
AcDbCircle
 10
-57.3624622466
 20
-467.486731878
 30
0.0
 40
5.000000000000064
100
AcDbArc
 50
180.0
 51
270.0
  0
LINE
  5
1D2
330
1F
100
AcDbEntity
  8
0
100
AcDbLine
 10
-62.3624622466
 20
-467.486731878
 30
0.0
 11
-62.3624622466
 21
-397.486731878
 31
0.0
  0
CIRCLE
  5
1D3
330
1F
100
AcDbEntity
  8
0
100
AcDbCircle
 10
-47.3624622466
 20
-432.486731878
 30
0.0
 40
6.249999999999943
  0
LINE
  5
1D4
330
1F
100
AcDbEntity
  8
0
100
AcDbLine
 10
-30.3624622466
 20
-114.486731878
 30
0.0
 11
-30.3624622466
 21
-75.136731878
 31
0.0
  0
LINE
  5
1D5
330
1F
100
AcDbEntity
  8
0
100
AcDbLine
 10
-30.3624622466
 20
-62.4867318781
 30
0.0
 11
-28.3624622466
 21
-62.4867318781
 31
0.0
  0
LINE
  5
1D6
330
1F
100
AcDbEntity
  8
0
100
AcDbLine
 10
-30.3624622466
 20
-66.836731878
 30
0.0
 11
-30.3624622466
 21
-62.4867318781
 31
0.0
  0
LINE
  5
1D7
330
1F
100
AcDbEntity
  8
0
100
AcDbLine
 10
-28.3624622466
 20
-62.4867318781
 30
0.0
 11
-28.3624622466
 21
-62.5938386592
 31
0.0
  0
LINE
  5
1D8
330
1F
100
AcDbEntity
  8
0
100
AcDbLine
 10
-30.3624622466
 20
-62.4867318781
 30
0.0
 11
-31.3624622466
 21
-62.4867318781
 31
0.0
  0
ARC
  5
1D9
330
1F
100
AcDbEntity
  8
0
100
AcDbCircle
 10
-57.3624622466
 20
-67.4867318781
 30
0.0
 40
4.999999999999844
100
AcDbArc
 50
90.0
 51
180.0
  0
LINE
  5
1DA
330
1F
100
AcDbEntity
  8
0
100
AcDbLine
 10
-31.3624622466
 20
-62.4867318781
 30
0.0
 11
-57.3624622466
 21
-62.4867318781
 31
0.0
  0
LINE
  5
1DB
330
1F
100
AcDbEntity
  8
0
100
AcDbLine
 10
-55.4624622466
 20
-142.4867318781
 30
0.0
 11
-57.3624622466
 21
-142.4867318781
 31
0.0
  0
ARC
  5
1DC
330
1F
100
AcDbEntity
  8
0
100
AcDbCircle
 10
-57.3624622466
 20
-137.4867318781
 30
0.0
 40
5.000000000000007
100
AcDbArc
 50
180.0
 51
270.0
  0
LINE
  5
1DD
330
1F
100
AcDbEntity
  8
0
100
AcDbLine
 10
-62.3624622466
 20
-137.4867318781
 30
0.0
 11
-62.3624622466
 21
-67.4867318781
 31
0.0
  0
ARC
  5
1DE
330
1F
100
AcDbEntity
  8
0
100
AcDbCircle
 10
-47.36246224659993
 20
-102.4867318781
 30
0.0
 40
6.249999999999998
100
AcDbArc
 50
305.09439129674
 51
302.5155553231993
  0
LINE
  5
1DF
330
1F
100
AcDbEntity
  8
0
100
AcDbLine
 10
373.6375377534
 20
-419.9227998555
 30
0.0
 11
373.6375377534
 21
-458.686731878
 31
0.0
  0
LINE
  5
1E0
330
1F
100
AcDbEntity
  8
0
100
AcDbLine
 10
375.6375377534
 20
-420.686731878
 30
0.0
 11
375.6375377534
 21
-459.836731878
 31
0.0
  0
LINE
  5
1E1
330
1F
100
AcDbEntity
  8
0
100
AcDbLine
 10
375.6375377534
 20
-472.486731878
 30
0.0
 11
373.6375377534
 21
-472.486731878
 31
0.0
  0
LINE
  5
1E2
330
1F
100
AcDbEntity
  8
0
100
AcDbLine
 10
375.6375377534
 20
-468.136731878
 30
0.0
 11
375.6375377534
 21
-472.486731878
 31
0.0
  0
LINE
  5
1E3
330
1F
100
AcDbEntity
  8
0
100
AcDbLine
 10
373.6375377534
 20
-472.486731878
 30
0.0
 11
373.6375377534
 21
-469.286731878
 31
0.0
  0
LINE
  5
1E4
330
1F
100
AcDbEntity
  8
0
100
AcDbLine
 10
375.6375377534
 20
-472.486731878
 30
0.0
 11
376.6375377534
 21
-472.486731878
 31
0.0
  0
ARC
  5
1E5
330
1F
100
AcDbEntity
  8
0
100
AcDbCircle
 10
402.6375377534
 20
-467.486731878
 30
0.0
 40
4.999999999999829
100
AcDbArc
 50
270.0
 51
0.0
  0
LINE
  5
1E6
330
1F
100
AcDbEntity
  8
0
100
AcDbLine
 10
376.6375377534
 20
-472.486731878
 30
0.0
 11
402.6375377534
 21
-472.486731878
 31
0.0
  0
LINE
  5
1E7
330
1F
100
AcDbEntity
  8
0
100
AcDbLine
 10
407.6375377534
 20
-422.686731878
 30
0.0
 11
407.6375377534
 21
-467.486731878
 31
0.0
  0
CIRCLE
  5
1E8
330
1F
100
AcDbEntity
  8
0
100
AcDbCircle
 10
392.6375377534
 20
-432.486731878
 30
0.0
 40
6.249999999999943
  0
LINE
  5
1E9
330
1F
100
AcDbEntity
  8
0
100
AcDbLine
 10
375.6375377534
 20
-75.1367318781
 30
0.0
 11
375.6375377534
 21
-114.486731878
 31
0.0
  0
LINE
  5
1EA
330
1F
100
AcDbEntity
  8
0
100
AcDbLine
 10
373.6375377534
 20
-62.486731878
 30
0.0
 11
375.6375377534
 21
-62.486731878
 31
0.0
  0
LINE
  5
1EB
330
1F
100
AcDbEntity
  8
0
100
AcDbLine
 10
375.6375377534
 20
-62.486731878
 30
0.0
 11
375.6375377534
 21
-66.8367318781
 31
0.0
  0
LINE
  5
1EC
330
1F
100
AcDbEntity
  8
0
100
AcDbLine
 10
373.6375377534
 20
-62.5938386592
 30
0.0
 11
373.6375377534
 21
-62.486731878
 31
0.0
  0
LINE
  5
1ED
330
1F
100
AcDbEntity
  8
0
100
AcDbLine
 10
375.6375377534
 20
-62.486731878
 30
0.0
 11
376.6375377534
 21
-62.486731878
 31
0.0
  0
ARC
  5
1EE
330
1F
100
AcDbEntity
  8
0
100
AcDbCircle
 10
402.6375377534
 20
-137.486731878
 30
0.0
 40
4.999999999999829
100
AcDbArc
 50
270.0
 51
0.0
  0
LINE
  5
1EF
330
1F
100
AcDbEntity
  8
0
100
AcDbLine
 10
400.7375377534
 20
-142.486731878
 30
0.0
 11
402.6375377534
 21
-142.486731878
 31
0.0
  0
LINE
  5
1F0
330
1F
100
AcDbEntity
  8
0
100
AcDbLine
 10
376.6375377534
 20
-62.486731878
 30
0.0
 11
402.6375377534
 21
-62.486731878
 31
0.0
  0
ARC
  5
1F1
330
1F
100
AcDbEntity
  8
0
100
AcDbCircle
 10
402.6375377534
 20
-67.486731878
 30
0.0
 40
5.000000000000057
100
AcDbArc
 50
360.0
 51
90.0
  0
LINE
  5
1F2
330
1F
100
AcDbEntity
  8
0
100
AcDbLine
 10
407.6375377534
 20
-67.486731878
 30
0.0
 11
407.6375377534
 21
-137.486731878
 31
0.0
  0
ARC
  5
1F3
330
1F
100
AcDbEntity
  8
0
100
AcDbCircle
 10
392.6375377534
 20
-102.486731878
 30
0.0
 40
6.250000000000009
100
AcDbArc
 50
273.7729908643
 51
90.0
  0
ARC
  5
1F4
330
1F
100
AcDbEntity
  8
0
100
AcDbCircle
 10
392.6375377534
 20
-102.486731878
 30
0.0
 40
6.25
100
AcDbArc
 50
90.0
 51
273.7729908643002
  0
LINE
  5
1F7
330
1F
100
AcDbEntity
  8
0
100
AcDbLine
 10
-50.1626697848
 20
-115.286731878
 30
0.0
 11
-50.1626697848
 21
-313.686731878
 31
0.0
  0
LINE
  5
1F8
330
1F
100
AcDbEntity
  8
0
100
AcDbLine
 10
-35.0731713988
 20
-114.486731878
 30
0.0
 11
-35.0731713988
 21
-314.486731878
 31
0.0
  0
LINE
  5
1F9
330
1F
100
AcDbEntity
  8
0
100
AcDbLine
 10
-37.6438378109
 20
-116.286731878
 30
0.0
 11
-37.6438378109
 21
-312.686731878
 31
0.0
  0
LINE
  5
1FA
330
1F
100
AcDbEntity
  8
0
100
AcDbLine
 10
-50.4624622466
 20
-114.486731878
 30
0.0
 11
-50.4624622466
 21
-314.486731878
 31
0.0
  0
LINE
  5
1FB
330
1F
100
AcDbEntity
  8
0
100
AcDbLine
 10
395.4377452916
 20
-188.6836899465
 30
0.0
 11
395.4377452916
 21
-115.286731878
 31
0.0
  0
LINE
  5
1FC
330
1F
100
AcDbEntity
  8
0
100
AcDbLine
 10
395.4377452916
 20
-313.686731878
 30
0.0
 11
395.4377452916
 21
-188.6836899465
 31
0.0
  0
LINE
  5
201
330
1F
100
AcDbEntity
  8
0
100
AcDbLine
 10
380.3482469056
 20
-188.4756008987
 30
0.0
 11
380.3482469056
 21
-114.486731878
 31
0.0
  0
LINE
  5
202
330
1F
100
AcDbEntity
  8
0
100
AcDbLine
 10
380.3482469056
 20
-314.486731878
 30
0.0
 11
380.3482469056
 21
-188.4756008987
 31
0.0
  0
LINE
  5
203
330
1F
100
AcDbEntity
  8
0
100
AcDbLine
 10
382.9189133178
 20
-188.9438012563
 30
0.0
 11
382.9189133178
 21
-116.286731878
 31
0.0
  0
LINE
  5
204
330
1F
100
AcDbEntity
  8
0
100
AcDbLine
 10
382.9189133178
 20
-312.686731878
 30
0.0
 11
382.9189133178
 21
-188.9438012563
 31
0.0
  0
LINE
  5
205
330
1F
100
AcDbEntity
  8
0
100
AcDbLine
 10
395.7375377534
 20
-188.4756008987
 30
0.0
 11
395.7375377534
 21
-114.486731878
 31
0.0
  0
LINE
  5
206
330
1F
100
AcDbEntity
  8
0
100
AcDbLine
 10
395.7375377534
 20
-314.486731878
 30
0.0
 11
395.7375377534
 21
-188.4756008987
 31
0.0
  0
LINE
  5
209
330
1F
100
AcDbEntity
  8
0
100
AcDbLine
 10
372.5837730737
 20
-469.4570251758
 30
0.0
 11
372.6375377534
 21
-469.186731878
 31
0.0
  0
LINE
  5
20A
330
1F
100
AcDbEntity
  8
0
100
AcDbLine
 10
-27.3624622466
 20
-469.186731878
 30
0.0
 11
-27.3086975668
 21
-469.4570251758
 31
0.0
  0
SPLINE
  5
20B
330
1F
100
AcDbEntity
  8
0
100
AcDbSpline
210
0.0
220
0.0
230
1.0
 70
     8
 71
     3
 72
     9
 73
     5
 74
     0
 42
0.000000001
 43
0.00000001
 40
0.0
 40
0.0
 40
0.0
 40
0.0
 40
0.6164387646303034
 40
1.0
 40
1.0
 40
1.0
 40
1.0
 10
-26.66246224657506
 20
-470.2681390716089
 30
0.0
 10
-26.64962134394988
 20
-470.2790382528788
 30
0.0
 10
-26.62879056016085
 20
-470.2967191352232
 30
0.0
 10
-26.60201979587684
 20
-470.3000596360966
 30
0.0
 10
-26.59175156845636
 20
-470.3013409227385
 30
0.0
  0
SPLINE
  5
20C
330
1F
100
AcDbEntity
  8
0
100
AcDbSpline
210
0.0
220
0.0
230
1.0
 70
     8
 71
     3
 72
     9
 73
     5
 74
     0
 42
0.000000001
 43
0.00000001
 40
0.0
 40
0.0
 40
0.0
 40
0.0
 40
0.5497232582999761
 40
1.0
 40
1.0
 40
1.0
 40
1.0
 10
-26.6383995120073
 20
-469.3077034138252
 30
0.0
 10
-26.63610335322281
 20
-469.3321416918488
 30
0.0
 10
-26.63192641737391
 20
-469.3765972931982
 30
0.0
 10
-26.60422491202502
 20
-469.4113086988118
 30
0.0
 10
-26.59175156845636
 20
-469.4269384374313
 30
0.0
  0
LINE
  5
20D
330
1F
100
AcDbEntity
  8
0
100
AcDbLine
 10
-26.3124622466
 20
-472.4867318781
 30
0.0
 11
-26.3124622466
 21
-472.4773201118
 31
0.0
  0
LINE
  5
20E
330
1F
100
AcDbEntity
  8
0
100
AcDbLine
 10
371.5875377534
 20
-472.4773201118
 30
0.0
 11
371.5875377534
 21
-472.486731878
 31
0.0
  0
LINE
  5
20F
330
1F
100
AcDbEntity
  8
0
100
AcDbLine
 10
-26.3124622466
 20
-472.4867318781
 30
0.0
 11
-26.1624622466
 21
-472.4867318781
 31
0.0
  0
LINE
  5
210
330
1F
100
AcDbEntity
  8
0
100
AcDbLine
 10
371.4375377534
 20
-472.486731878
 30
0.0
 11
371.5875377534
 21
-472.486731878
 31
0.0
  0
ARC
  5
211
330
1F
100
AcDbEntity
  8
0
100
AcDbCircle
 10
371.5875377534
 20
-471.436731878
 30
0.0
 40
1.050000000000068
100
AcDbArc
 50
270.0
 51
3.9593637577
  0
LINE
  5
213
330
1F
100
AcDbEntity
  8
0
100
AcDbLine
 10
-26.5917515685
 20
-470.4245572515
 30
0.0
 11
-26.6624622466
 21
-470.4467823844
 31
0.0
  0
ARC
  5
214
330
1F
100
AcDbEntity
  8
0
100
AcDbCircle
 10
-26.3124622466
 20
-471.4367318781
 30
0.0
 40
1.050000000000011
100
AcDbArc
 50
176.0418732826
 51
270.0
  0
LINE
  5
215
330
1F
100
AcDbEntity
  8
0
100
AcDbLine
 10
5.6375377534
 20
410.2313991997
 30
0.0
 11
5.6375377534
 21
410.3202440963
 31
0.0
  0
LINE
  5
216
330
1F
100
AcDbEntity
  8
0
100
AcDbLine
 10
-10.3624622466
 20
410.3202440963
 30
0.0
 11
-10.3624622466
 21
410.2313991997
 31
0.0
  0
ARC
  5
217
330
1F
100
AcDbEntity
  8
0
100
AcDbCircle
 10
-10.1624622466
 20
410.3202440963
 30
0.0
 40
0.2000000000000064
100
AcDbArc
 50
121.6579514612
 51
180.0
  0
ARC
  5
218
330
1F
100
AcDbEntity
  8
0
100
AcDbCircle
 10
5.4375377534
 20
410.3202440963
 30
0.0
 40
0.2000000000000055
100
AcDbArc
 50
0.0
 51
58.34204853879999
  0
ARC
  5
219
330
1F
100
AcDbEntity
  8
0
100
AcDbCircle
 10
-2.3614622466
 20
397.6718337649
 30
0.0
 40
15.0595654347826
100
AcDbArc
 50
58.34204853879999
 51
90.0
  0
ARC
  5
21A
330
1F
100
AcDbEntity
  8
0
100
AcDbCircle
 10
-2.3634622466
 20
397.6718337649
 30
0.0
 40
15.0595654347826
100
AcDbArc
 50
90.0
 51
121.6579514612
  0
ARC
  5
21B
330
1F
100
AcDbEntity
  8
0
100
AcDbCircle
 10
339.8375377534
 20
410.3202440963
 30
0.0
 40
0.2000000000000455
100
AcDbArc
 50
121.6579514612
 51
180.0
  0
ARC
  5
21C
330
1F
100
AcDbEntity
  8
0
100
AcDbCircle
 10
355.4375377534
 20
410.3202440963
 30
0.0
 40
0.2000000000000455
100
AcDbArc
 50
0.0
 51
58.34204853879999
  0
LINE
  5
21D
330
1F
100
AcDbEntity
  8
0
100
AcDbLine
 10
355.6375377534
 20
410.2313991997
 30
0.0
 11
355.6375377534
 21
410.3202440963
 31
0.0
  0
LINE
  5
21E
330
1F
100
AcDbEntity
  8
0
100
AcDbLine
 10
339.6375377534
 20
410.3202440963
 30
0.0
 11
339.6375377534
 21
410.2313991997
 31
0.0
  0
ARC
  5
21F
330
1F
100
AcDbEntity
  8
0
100
AcDbCircle
 10
347.6385377534
 20
397.6718337649
 30
0.0
 40
15.05956543478254
100
AcDbArc
 50
58.34204853879999
 51
90.0
  0
ARC
  5
220
330
1F
100
AcDbEntity
  8
0
100
AcDbCircle
 10
347.6365377534
 20
397.6718337649
 30
0.0
 40
15.05956543478255
100
AcDbArc
 50
90.0
 51
121.6579514612
  0
LINE
  5
221
330
1F
100
AcDbEntity
  8
0
100
AcDbLine
 10
355.6375377534
 20
409.2313991997
 30
0.0
 11
355.6375377534
 21
410.2313991997
 31
0.0
  0
LINE
  5
222
330
1F
100
AcDbEntity
  8
0
100
AcDbLine
 10
339.6375377534
 20
410.2313991997
 30
0.0
 11
339.6375377534
 21
409.2313991997
 31
0.0
  0
LINE
  5
223
330
1F
100
AcDbEntity
  8
0
100
AcDbLine
 10
5.6375377534
 20
409.2313991997
 30
0.0
 11
5.6375377534
 21
410.2313991997
 31
0.0
  0
LINE
  5
224
330
1F
100
AcDbEntity
  8
0
100
AcDbLine
 10
-10.3624622466
 20
410.2313991997
 30
0.0
 11
-10.3624622466
 21
409.2313991997
 31
0.0
  0
LINE
  5
237
330
1F
100
AcDbEntity
  8
0
100
AcDbLine
 10
372.6375377534
 20
114.2113991997
 30
0.0
 11
373.0375377534
 21
114.2113991997
 31
0.0
  0
LINE
  5
238
330
1F
100
AcDbEntity
  8
0
100
AcDbLine
 10
373.0375377534
 20
125.2113991997
 30
0.0
 11
372.6375377534
 21
125.2113991997
 31
0.0
  0
ARC
  5
239
330
1F
100
AcDbEntity
  8
0
100
AcDbCircle
 10
373.0375377534
 20
124.2113991997
 30
0.0
 40
1.0
100
AcDbArc
 50
53.1301023543
 51
90.0
  0
ARC
  5
23A
330
1F
100
AcDbEntity
  8
0
100
AcDbCircle
 10
373.0375377534
 20
115.2113991997
 30
0.0
 40
1.0
100
AcDbArc
 50
270.0
 51
306.8698976457
  0
LINE
  5
23B
330
1F
100
AcDbEntity
  8
0
100
AcDbLine
 10
-27.3624622466
 20
125.2113991997
 30
0.0
 11
-27.7624622466
 21
125.2113991997
 31
0.0
  0
LINE
  5
23C
330
1F
100
AcDbEntity
  8
0
100
AcDbLine
 10
-27.7624622466
 20
114.2113991997
 30
0.0
 11
-27.3624622466
 21
114.2113991997
 31
0.0
  0
ARC
  5
23D
330
1F
100
AcDbEntity
  8
0
100
AcDbCircle
 10
-27.7624622466
 20
115.2113991997
 30
0.0
 40
1.000000000000016
100
AcDbArc
 50
233.1301023541
 51
270.0
  0
ARC
  5
23E
330
1F
100
AcDbEntity
  8
0
100
AcDbCircle
 10
-27.7624622466
 20
124.2113991997
 30
0.0
 40
1.0
100
AcDbArc
 50
90.0
 51
126.869897646
  0
LINE
  5
241
330
1F
100
AcDbEntity
  8
0
100
AcDbLine
 10
353.1375377534
 20
355.2113991997
 30
0.0
 11
353.1375377534
 21
355.6113991997
 31
0.0
  0
LINE
  5
242
330
1F
100
AcDbEntity
  8
0
100
AcDbLine
 10
342.1375377534
 20
355.6113991997
 30
0.0
 11
342.1375377534
 21
355.2113991997
 31
0.0
  0
ARC
  5
247
330
1F
100
AcDbEntity
  8
0
100
AcDbCircle
 10
373.0375377534
 20
344.9113991997
 30
0.0
 40
1.0
100
AcDbArc
 50
360.0
 51
90.0
  0
ARC
  5
248
330
1F
100
AcDbEntity
  8
0
100
AcDbCircle
 10
373.0375377534
 20
335.9113991997
 30
0.0
 40
1.0
100
AcDbArc
 50
270.0
 51
0.0
  0
LINE
  5
249
330
1F
100
AcDbEntity
  8
0
100
AcDbLine
 10
372.6375377534
 20
334.9113991997
 30
0.0
 11
373.0375377534
 21
334.9113991997
 31
0.0
  0
LINE
  5
24A
330
1F
100
AcDbEntity
  8
0
100
AcDbLine
 10
373.0375377534
 20
345.9113991997
 30
0.0
 11
372.6375377534
 21
345.9113991997
 31
0.0
  0
LINE
  5
24B
330
1F
100
AcDbEntity
  8
0
100
AcDbLine
 10
-27.3624622466
 20
345.9113991997
 30
0.0
 11
-27.7624622466
 21
345.9113991997
 31
0.0
  0
LINE
  5
24C
330
1F
100
AcDbEntity
  8
0
100
AcDbLine
 10
-27.7624622466
 20
334.9113991997
 30
0.0
 11
-27.3624622466
 21
334.9113991997
 31
0.0
  0
ARC
  5
24D
330
1F
100
AcDbEntity
  8
0
100
AcDbCircle
 10
-27.7624622466
 20
335.9113991997
 30
0.0
 40
1.0
100
AcDbArc
 50
180.0
 51
270.0
  0
ARC
  5
24E
330
1F
100
AcDbEntity
  8
0
100
AcDbCircle
 10
-27.7624622466
 20
344.9113991997
 30
0.0
 40
1.0
100
AcDbArc
 50
90.0
 51
180.0
  0
LINE
  5
24F
330
1F
100
AcDbEntity
  8
0
100
AcDbLine
 10
-33.2624622466
 20
336.2613991997
 30
0.0
 11
-28.7624622466
 21
336.2613991997
 31
0.0
  0
LINE
  5
250
330
1F
100
AcDbEntity
  8
0
100
AcDbLine
 10
-28.7624622466
 20
344.5613991997
 30
0.0
 11
-33.2624622466
 21
344.5613991997
 31
0.0
  0
LINE
  5
251
330
1F
100
AcDbEntity
  8
0
100
AcDbLine
 10
-33.2624622466
 20
344.5613991997
 30
0.0
 11
-33.7624622466
 21
344.0613991997
 31
0.0
  0
LINE
  5
252
330
1F
100
AcDbEntity
  8
0
100
AcDbLine
 10
-33.7624622466
 20
336.7613991997
 30
0.0
 11
-33.2624622466
 21
336.2613991997
 31
0.0
  0
LINE
  5
253
330
1F
100
AcDbEntity
  8
0
100
AcDbLine
 10
378.5375377534
 20
336.2613991997
 30
0.0
 11
379.0375377534
 21
336.7613991997
 31
0.0
  0
LINE
  5
254
330
1F
100
AcDbEntity
  8
0
100
AcDbLine
 10
379.0375377534
 20
344.0613991997
 30
0.0
 11
378.5375377534
 21
344.5613991997
 31
0.0
  0
LINE
  5
255
330
1F
100
AcDbEntity
  8
0
100
AcDbLine
 10
378.5375377534
 20
344.5613991997
 30
0.0
 11
374.0375377534
 21
344.5613991997
 31
0.0
  0
LINE
  5
256
330
1F
100
AcDbEntity
  8
0
100
AcDbLine
 10
374.0375377534
 20
336.2613991997
 30
0.0
 11
378.5375377534
 21
336.2613991997
 31
0.0
  0
LINE
  5
25B
330
1F
100
AcDbEntity
  8
0
100
AcDbLine
 10
-33.7624622466
 20
342.1613991997
 30
0.0
 11
-35.0731713988
 21
342.1613991997
 31
0.0
  0
LINE
  5
25C
330
1F
100
AcDbEntity
  8
0
100
AcDbLine
 10
-35.0731713988
 20
142.1613991997
 30
0.0
 11
-27.3624622466
 21
142.1613991997
 31
0.0
  0
LINE
  5
25D
330
1F
100
AcDbEntity
  8
0
100
AcDbLine
 10
-35.0731713988
 20
342.1613991997
 30
0.0
 11
-37.6438378109
 21
340.3613991997
 31
0.0
  0
LINE
  5
25E
330
1F
100
AcDbEntity
  8
0
100
AcDbLine
 10
-37.6438378109
 20
143.9613991997
 30
0.0
 11
-35.0731713988
 21
142.1613991997
 31
0.0
  0
LINE
  5
25F
330
1F
100
AcDbEntity
  8
0
100
AcDbLine
 10
-50.4624622466
 20
342.1613991997
 30
0.0
 11
-54.2124622466
 21
342.1613991997
 31
0.0
  0
LINE
  5
260
330
1F
100
AcDbEntity
  8
0
100
AcDbLine
 10
-54.2124622466
 20
142.1613991997
 30
0.0
 11
-50.4624622466
 21
142.1613991997
 31
0.0
  0
ARC
  5
261
330
1F
100
AcDbEntity
  8
0
100
AcDbCircle
 10
-54.2124622466
 20
340.9113991997
 30
0.0
 40
1.250000000000028
100
AcDbArc
 50
90.0
 51
180.0
  0
ARC
  5
262
330
1F
100
AcDbEntity
  8
0
100
AcDbCircle
 10
-54.2124622466
 20
143.4113991997
 30
0.0
 40
1.250000000000028
100
AcDbArc
 50
180.0
 51
270.0
  0
LINE
  5
263
330
1F
100
AcDbEntity
  8
0
100
AcDbLine
 10
-55.4624622466
 20
340.9113991997
 30
0.0
 11
-55.4624622466
 21
143.4113991997
 31
0.0
  0
LINE
  5
264
330
1F
100
AcDbEntity
  8
0
100
AcDbLine
 10
-50.1626697848
 20
341.3613991997
 30
0.0
 11
-50.4624622466
 21
341.3613991997
 31
0.0
  0
LINE
  5
265
330
1F
100
AcDbEntity
  8
0
100
AcDbLine
 10
-50.4624622466
 20
142.9613991997
 30
0.0
 11
-50.1626697848
 21
142.9613991997
 31
0.0
  0
LINE
  5
266
330
1F
100
AcDbEntity
  8
0
100
AcDbLine
 10
-37.6438378109
 20
340.3613991997
 30
0.0
 11
-44.0029087326
 21
340.3613991997
 31
0.0
  0
LINE
  5
267
330
1F
100
AcDbEntity
  8
0
100
AcDbLine
 10
-44.0029087326
 20
143.9613991997
 30
0.0
 11
-37.6438378109
 21
143.9613991997
 31
0.0
  0
LINE
  5
26C
330
1F
100
AcDbEntity
  8
0
100
AcDbLine
 10
395.7375377534
 20
142.1613991997
 30
0.0
 11
399.4875377534
 21
142.1613991997
 31
0.0
  0
ARC
  5
26D
330
1F
100
AcDbEntity
  8
0
100
AcDbCircle
 10
399.4875377534
 20
143.4113991997
 30
0.0
 40
1.250000000000028
100
AcDbArc
 50
270.0
 51
0.0
  0
LINE
  5
26E
330
1F
100
AcDbEntity
  8
0
100
AcDbLine
 10
400.7375377534
 20
143.4113991997
 30
0.0
 11
400.7375377534
 21
264.5113991997
 31
0.0
  0
LINE
  5
26F
330
1F
100
AcDbEntity
  8
0
100
AcDbLine
 10
372.6375377534
 20
142.1613991997
 30
0.0
 11
380.3482469056
 21
142.1613991997
 31
0.0
  0
LINE
  5
270
330
1F
100
AcDbEntity
  8
0
100
AcDbLine
 10
380.3482469056
 20
142.1613991997
 30
0.0
 11
382.9189133178
 21
143.9613991997
 31
0.0
  0
LINE
  5
271
330
1F
100
AcDbEntity
  8
0
100
AcDbLine
 10
395.4377452916
 20
142.9613991997
 30
0.0
 11
395.7375377534
 21
142.9613991997
 31
0.0
  0
LINE
  5
272
330
1F
100
AcDbEntity
  8
0
100
AcDbLine
 10
382.9189133178
 20
143.9613991997
 30
0.0
 11
389.2779842394
 21
143.9613991997
 31
0.0
  0
LINE
  5
28B
330
1F
100
AcDbEntity
  8
0
100
AcDbLine
 10
-27.3624622466
 20
354.0113991997
 30
0.0
 11
-27.3624622466
 21
110.6149525903
 31
0.0
  0
LINE
  5
28C
330
1F
100
AcDbEntity
  8
0
100
AcDbLine
 10
-25.958908856
 20
109.2113991997
 30
0.0
 11
371.2339843628
 21
109.2113991997
 31
0.0
  0
LINE
  5
28D
330
1F
100
AcDbEntity
  8
0
100
AcDbLine
 10
372.6375377534
 20
110.6149525903
 30
0.0
 11
372.6375377534
 21
354.0113991997
 31
0.0
  0
LINE
  5
28E
330
1F
100
AcDbEntity
  8
0
100
AcDbLine
 10
406.6375377534
 20
337.5113991997
 30
0.0
 11
406.6375377534
 21
346.5113991997
 31
0.0
  0
LINE
  5
28F
330
1F
100
AcDbEntity
  8
0
100
AcDbLine
 10
406.6375377534
 20
346.5113991997
 30
0.0
 11
413.6375377534
 21
346.5113991997
 31
0.0
  0
LINE
  5
290
330
1F
100
AcDbEntity
  8
0
100
AcDbLine
 10
414.6375377534
 20
345.5113991997
 30
0.0
 11
414.6375377534
 21
337.5113991997
 31
0.0
  0
ARC
  5
291
330
1F
100
AcDbEntity
  8
0
100
AcDbCircle
 10
413.6375377534
 20
345.5113991997
 30
0.0
 40
1.0
100
AcDbArc
 50
0.0
 51
90.0
  0
LINE
  5
292
330
1F
100
AcDbEntity
  8
0
100
AcDbLine
 10
407.6375377534
 20
282.5113991997
 30
0.0
 11
406.6375377534
 21
282.5113991997
 31
0.0
  0
LINE
  5
293
330
1F
100
AcDbEntity
  8
0
100
AcDbLine
 10
406.6375377534
 20
326.5113991997
 30
0.0
 11
407.6375377534
 21
326.5113991997
 31
0.0
  0
LINE
  5
294
330
1F
100
AcDbEntity
  8
0
100
AcDbLine
 10
407.6375377534
 20
326.5113991997
 30
0.0
 11
407.6375377534
 21
334.5113991997
 31
0.0
  0
LINE
  5
295
330
1F
100
AcDbEntity
  8
0
100
AcDbLine
 10
407.6375377534
 20
334.5113991997
 30
0.0
 11
406.6375377534
 21
334.5113991997
 31
0.0
  0
LINE
  5
296
330
1F
100
AcDbEntity
  8
0
100
AcDbLine
 10
406.6375377534
 20
274.5113991997
 30
0.0
 11
407.6375377534
 21
274.5113991997
 31
0.0
  0
LINE
  5
297
330
1F
100
AcDbEntity
  8
0
100
AcDbLine
 10
407.6375377534
 20
274.5113991997
 30
0.0
 11
407.6375377534
 21
282.5113991997
 31
0.0
  0
LINE
  5
298
330
1F
100
AcDbEntity
  8
0
100
AcDbLine
 10
406.6375377534
 20
337.5113991997
 30
0.0
 11
406.6375377534
 21
334.5113991997
 31
0.0
  0
LINE
  5
299
330
1F
100
AcDbEntity
  8
0
100
AcDbLine
 10
406.6375377534
 20
326.5113991997
 30
0.0
 11
406.6375377534
 21
282.5113991997
 31
0.0
  0
LINE
  5
29A
330
1F
100
AcDbEntity
  8
0
100
AcDbLine
 10
406.6375377534
 20
274.5113991997
 30
0.0
 11
406.6375377534
 21
271.5113991997
 31
0.0
  0
LINE
  5
29B
330
1F
100
AcDbEntity
  8
0
100
AcDbLine
 10
413.6375377534
 20
262.5113991997
 30
0.0
 11
406.6375377534
 21
262.5113991997
 31
0.0
  0
LINE
  5
29C
330
1F
100
AcDbEntity
  8
0
100
AcDbLine
 10
406.6375377534
 20
262.5113991997
 30
0.0
 11
406.6375377534
 21
271.5113991997
 31
0.0
  0
LINE
  5
29D
330
1F
100
AcDbEntity
  8
0
100
AcDbLine
 10
414.6375377534
 20
271.5113991997
 30
0.0
 11
414.6375377534
 21
263.5113991997
 31
0.0
  0
ARC
  5
29E
330
1F
100
AcDbEntity
  8
0
100
AcDbCircle
 10
413.6375377534
 20
263.5113991997
 30
0.0
 40
1.0
100
AcDbArc
 50
270.0
 51
0.0
  0
LINE
  5
29F
330
1F
100
AcDbEntity
  8
0
100
AcDbLine
 10
414.6375377534
 20
337.5113991997
 30
0.0
 11
414.6375377534
 21
271.5113991997
 31
0.0
  0
LINE
  5
2A0
330
1F
100
AcDbEntity
  8
0
100
AcDbLine
 10
406.6375377534
 20
262.5113991997
 30
0.0
 11
404.6375377534
 21
262.5113991997
 31
0.0
  0
LINE
  5
2A1
330
1F
100
AcDbEntity
  8
0
100
AcDbLine
 10
404.6375377534
 20
271.5113991997
 30
0.0
 11
404.6375377534
 21
262.5113991997
 31
0.0
  0
LINE
  5
2A2
330
1F
100
AcDbEntity
  8
0
100
AcDbLine
 10
406.6375377534
 20
346.5113991997
 30
0.0
 11
404.6375377534
 21
346.5113991997
 31
0.0
  0
LINE
  5
2A3
330
1F
100
AcDbEntity
  8
0
100
AcDbLine
 10
404.6375377534
 20
346.5113991997
 30
0.0
 11
404.6375377534
 21
337.5113991997
 31
0.0
  0
LINE
  5
2A4
330
1F
100
AcDbEntity
  8
0
100
AcDbLine
 10
406.6375377534
 20
337.5113991997
 30
0.0
 11
406.6375377534
 21
271.5113991997
 31
0.0
  0
LINE
  5
2A5
330
1F
100
AcDbEntity
  8
0
100
AcDbLine
 10
404.6375377534
 20
337.5113991997
 30
0.0
 11
404.6375377534
 21
271.5113991997
 31
0.0
  0
ARC
  5
2A6
330
1F
100
AcDbEntity
  8
0
100
AcDbCircle
 10
375.6375377534
 20
267.5113991997
 30
0.0
 40
3.0
100
AcDbArc
 50
180.0
 51
270.0
  0
LINE
  5
2A7
330
1F
100
AcDbEntity
  8
0
100
AcDbLine
 10
404.6375377534
 20
264.5113991997
 30
0.0
 11
375.6375377534
 21
264.5113991997
 31
0.0
  0
LINE
  5
2A8
330
1F
100
AcDbEntity
  8
0
100
AcDbLine
 10
378.5875377534
 20
344.5113991997
 30
0.0
 11
404.6375377534
 21
344.5113991997
 31
0.0
  0
LINE
  5
2AE
330
1F
100
AcDbEntity
  8
0
100
AcDbLine
 10
-26.1624622466
 20
359.2313991997
 30
0.0
 11
-27.3624622466
 21
359.2313991997
 31
0.0
  0
LINE
  5
2B2
330
1F
100
AcDbEntity
  8
0
100
AcDbLine
 10
-29.8624622466
 20
349.5313991997
 30
0.0
 11
-28.3624622466
 21
349.5313991997
 31
0.0
  0
LINE
  5
2B3
330
1F
100
AcDbEntity
  8
0
100
AcDbLine
 10
-29.8624622466
 20
356.7313991997
 30
0.0
 11
-29.8624622466
 21
349.5313991997
 31
0.0
  0
LINE
  5
2B4
330
1F
100
AcDbEntity
  8
0
100
AcDbLine
 10
-28.3624622466
 20
356.7313991997
 30
0.0
 11
-28.3624622466
 21
349.5313991997
 31
0.0
  0
ARC
  5
2B5
330
1F
100
AcDbEntity
  8
0
100
AcDbCircle
 10
-27.3624622466
 20
356.7313991997
 30
0.0
 40
2.5
100
AcDbArc
 50
90.0
 51
180.0
  0
ARC
  5
2B6
330
1F
100
AcDbEntity
  8
0
100
AcDbCircle
 10
-27.3624622466
 20
356.7313991997
 30
0.0
 40
1.0
100
AcDbArc
 50
90.0
 51
180.0
  0
LINE
  5
2B7
330
1F
100
AcDbEntity
  8
0
100
AcDbLine
 10
-29.8624622466
 20
344.5613991997
 30
0.0
 11
-29.8624622466
 21
349.5313991997
 31
0.0
  0
LINE
  5
2B8
330
1F
100
AcDbEntity
  8
0
100
AcDbLine
 10
-28.3624622466
 20
345.7113991997
 30
0.0
 11
-28.3624622466
 21
349.5313991997
 31
0.0
  0
LINE
  5
2B9
330
1F
100
AcDbEntity
  8
0
100
AcDbLine
 10
-27.5822343533
 20
357.6867725701
 30
0.0
 11
-27.6553554654
 21
356.7313991997
 31
0.0
  0
SPLINE
  5
2BA
330
1F
100
AcDbEntity
  8
0
100
AcDbSpline
210
0.0
220
0.0
230
1.0
 70
     8
 71
     3
 72
    11
 73
     7
 74
     0
 42
0.000000001
 43
0.00000001
 40
0.0
 40
0.0
 40
0.0
 40
0.0
 40
0.2500000000000102
 40
0.4999999999999949
 40
0.7500000000000068
 40
1.0
 40
1.0
 40
1.0
 40
1.0
 10
-27.36246224657388
 20
357.7313991997009
 30
0.0
 10
-27.3868700148083
 20
357.7163676269136
 30
0.0
 10
-27.43568555127723
 20
357.686304481339
 30
0.0
 10
-27.50890885598056
 20
357.4550552682165
 30
0.0
 10
-27.582132160684
 20
357.1245103311197
 30
0.0
 10
-27.63094769715288
 20
356.8624362435071
 30
0.0
 10
-27.65535546538733
 20
356.7313991997009
 30
0.0
  0
LINE
  5
2BB
330
1F
100
AcDbEntity
  8
0
100
AcDbLine
 10
-27.6553554654
 20
356.7313991997
 30
0.0
 11
-27.6553554654
 21
349.5313991997
 31
0.0
  0
LINE
  5
2BC
330
1F
100
AcDbEntity
  8
0
100
AcDbLine
 10
-27.6553554654
 20
349.5313991997
 30
0.0
 11
-27.3624622466
 21
349.5313991997
 31
0.0
  0
LINE
  5
2BD
330
1F
100
AcDbEntity
  8
0
100
AcDbLine
 10
375.1375377534
 20
356.7313991997
 30
0.0
 11
375.1375377534
 21
349.5313991997
 31
0.0
  0
LINE
  5
2BE
330
1F
100
AcDbEntity
  8
0
100
AcDbLine
 10
375.1375377534
 20
349.5313991997
 30
0.0
 11
373.6375377534
 21
349.5313991997
 31
0.0
  0
LINE
  5
2BF
330
1F
100
AcDbEntity
  8
0
100
AcDbLine
 10
373.6375377534
 20
356.7313991997
 30
0.0
 11
373.6375377534
 21
349.5313991997
 31
0.0
  0
ARC
  5
2C0
330
1F
100
AcDbEntity
  8
0
100
AcDbCircle
 10
372.6375377534
 20
356.7313991997
 30
0.0
 40
2.500000000000114
100
AcDbArc
 50
0.0
 51
90.0
  0
ARC
  5
2C1
330
1F
100
AcDbEntity
  8
0
100
AcDbCircle
 10
372.6375377534
 20
356.7313991997
 30
0.0
 40
1.0
100
AcDbArc
 50
0.0
 51
90.0
  0
LINE
  5
2C5
330
1F
100
AcDbEntity
  8
0
100
AcDbLine
 10
371.4375377534
 20
359.2313991997
 30
0.0
 11
372.6375377534
 21
359.2313991997
 31
0.0
  0
LINE
  5
2C7
330
1F
100
AcDbEntity
  8
0
100
AcDbLine
 10
375.1375377534
 20
349.5313991997
 30
0.0
 11
375.1375377534
 21
344.5613991997
 31
0.0
  0
LINE
  5
2C8
330
1F
100
AcDbEntity
  8
0
100
AcDbLine
 10
373.6375377534
 20
349.5313991997
 30
0.0
 11
373.6375377534
 21
345.7113991997
 31
0.0
  0
SPLINE
  5
2C9
330
1F
100
AcDbEntity
  8
0
100
AcDbSpline
210
0.0
220
0.0
230
1.0
 70
     8
 71
     3
 72
     9
 73
     5
 74
     0
 42
0.000000001
 43
0.00000001
 40
0.0
 40
0.0
 40
0.0
 40
0.0
 40
0.9970986461280388
 40
1.0
 40
1.0
 40
1.0
 40
1.0
 10
372.9304309722397
 20
356.7313991997031
 30
0.0
 10
372.9060232040055
 20
357.0745066643506
 30
0.0
 10
372.8815444141394
 20
357.4186125018019
 30
0.0
 10
372.8570656242728
 20
357.6896813286112
 30
0.0
 10
372.856994602641
 20
357.6904677952014
 30
0.0
  0
SPLINE
  5
2CA
330
1F
100
AcDbEntity
  8
0
100
AcDbSpline
210
0.0
220
0.0
230
1.0
 70
     8
 71
     3
 72
    11
 73
     7
 74
     0
 42
0.000000001
 43
0.00000001
 40
0.0
 40
0.0
 40
0.0
 40
0.0
 40
0.2499999999999899
 40
0.4999999999999951
 40
0.7499999999999797
 40
1.0
 40
1.0
 40
1.0
 40
1.0
 10
372.9304309722397
 20
356.7313991997031
 30
0.0
 10
372.9060232040052
 20
356.8624362435093
 30
0.0
 10
372.8572076675363
 20
357.1245103311219
 30
0.0
 10
372.783984362833
 20
357.4550552682188
 30
0.0
 10
372.7107610581295
 20
357.6863044813411
 30
0.0
 10
372.6619455216606
 20
357.7163676269158
 30
0.0
 10
372.6375377534262
 20
357.7313991997031
 30
0.0
  0
LINE
  5
2CB
330
1F
100
AcDbEntity
  8
0
100
AcDbLine
 10
372.9304309722
 20
349.5313991997
 30
0.0
 11
372.6375377534
 21
349.5313991997
 31
0.0
  0
LINE
  5
2CC
330
1F
100
AcDbEntity
  8
0
100
AcDbLine
 10
372.9304309722
 20
356.7313991997
 30
0.0
 11
372.9304309722
 21
349.5313991997
 31
0.0
  0
LINE
  5
2D1
330
1F
100
AcDbEntity
  8
0
100
AcDbLine
 10
-9.0598150812
 20
410.2313991997
 30
0.0
 11
5.6375377534
 21
410.2313991997
 31
0.0
  0
LINE
  5
2D2
330
1F
100
AcDbEntity
  8
0
100
AcDbLine
 10
-10.3624622466
 20
410.2313991997
 30
0.0
 11
-9.0598150812
 21
410.2313991997
 31
0.0
  0
LINE
  5
2D3
330
1F
100
AcDbEntity
  8
0
100
AcDbLine
 10
-2.3614622466
 20
412.7313991997
 30
0.0
 11
-2.3634622466
 21
412.7313991997
 31
0.0
  0
LINE
  5
2D4
330
1F
100
AcDbEntity
  8
0
100
AcDbLine
 10
340.9401849188
 20
410.2313991997
 30
0.0
 11
355.6375377534
 21
410.2313991997
 31
0.0
  0
LINE
  5
2D5
330
1F
100
AcDbEntity
  8
0
100
AcDbLine
 10
339.6375377534
 20
410.2313991997
 30
0.0
 11
340.9401849188
 21
410.2313991997
 31
0.0
  0
LINE
  5
2D6
330
1F
100
AcDbEntity
  8
0
100
AcDbLine
 10
347.6385377534
 20
412.7313991997
 30
0.0
 11
347.6365377534
 21
412.7313991997
 31
0.0
  0
LINE
  5
2D7
330
1F
100
AcDbEntity
  8
0
100
AcDbLine
 10
355.6375377534
 20
410.2313991997
 30
0.0
 11
339.6375377534
 21
410.2313991997
 31
0.0
  0
LINE
  5
2D8
330
1F
100
AcDbEntity
  8
0
100
AcDbLine
 10
5.6375377534
 20
410.2313991997
 30
0.0
 11
-10.3624622466
 21
410.2313991997
 31
0.0
  0
LINE
  5
2D9
330
1F
100
AcDbEntity
  8
0
100
AcDbLine
 10
366.4375377534
 20
359.2313991997
 30
0.0
 11
-21.1624622466
 21
359.2313991997
 31
0.0
  0
LINE
  5
2DA
330
1F
100
AcDbEntity
  8
0
100
AcDbLine
 10
366.4375377534
 20
359.9313991997
 30
0.0
 11
-21.1624622466
 21
359.9313991997
 31
0.0
  0
LINE
  5
2DB
330
1F
100
AcDbEntity
  8
0
100
AcDbLine
 10
371.4375377534
 20
359.9313991997
 30
0.0
 11
371.4375377534
 21
359.2313991997
 31
0.0
  0
LINE
  5
2DC
330
1F
100
AcDbEntity
  8
0
100
AcDbLine
 10
371.4375377534
 20
359.2313991997
 30
0.0
 11
366.4375377534
 21
359.2313991997
 31
0.0
  0
LINE
  5
2DD
330
1F
100
AcDbEntity
  8
0
100
AcDbLine
 10
366.4375377534
 20
359.9313991997
 30
0.0
 11
367.8375377534
 21
359.9313991997
 31
0.0
  0
LINE
  5
2DE
330
1F
100
AcDbEntity
  8
0
100
AcDbLine
 10
-26.1624622466
 20
359.2313991997
 30
0.0
 11
-26.1624622466
 21
359.9313991997
 31
0.0
  0
LINE
  5
2DF
330
1F
100
AcDbEntity
  8
0
100
AcDbLine
 10
-21.1624622466
 20
359.2313991997
 30
0.0
 11
-26.1624622466
 21
359.2313991997
 31
0.0
  0
LINE
  5
2E0
330
1F
100
AcDbEntity
  8
0
100
AcDbLine
 10
-22.5624622466
 20
359.9313991997
 30
0.0
 11
-21.1624622466
 21
359.9313991997
 31
0.0
  0
LINE
  5
2E8
330
1F
100
AcDbEntity
  8
0
100
AcDbLine
 10
372.6375377534
 20
360.7021098778
 30
0.0
 11
372.6375377534
 21
379.2313991997
 31
0.0
  0
LINE
  5
2E9
330
1F
100
AcDbEntity
  8
0
100
AcDbLine
 10
-26.5917515685
 20
359.9313991997
 30
0.0
 11
-22.5624622466
 21
359.9313991997
 31
0.0
  0
LINE
  5
2EA
330
1F
100
AcDbEntity
  8
0
100
AcDbLine
 10
367.8375377534
 20
359.9313991997
 30
0.0
 11
371.8668270753
 21
359.9313991997
 31
0.0
  0
LINE
  5
2F1
330
1F
100
AcDbEntity
  8
0
100
AcDbLine
 10
-27.3624622466
 20
379.2313991997
 30
0.0
 11
-27.3624622466
 21
360.7021098778
 31
0.0
  0
LINE
  5
2F5
330
1F
100
AcDbEntity
  8
0
100
AcDbLine
 10
-26.1624622466
 20
409.2313991997
 30
0.0
 11
371.4375377534
 21
409.2313991997
 31
0.0
  0
LINE
  5
2F7
330
1F
100
AcDbEntity
  8
0
100
AcDbLine
 10
372.6375377534
 20
406.2313991997
 30
0.0
 11
372.6375377534
 21
379.2313991997
 31
0.0
  0
LINE
  5
2FB
330
1F
100
AcDbEntity
  8
0
100
AcDbLine
 10
-27.3624622466
 20
406.2313991997
 30
0.0
 11
-27.3624622466
 21
379.2313991997
 31
0.0
  0
SPLINE
  5
2FC
330
1F
100
AcDbEntity
  8
0
100
AcDbSpline
210
0.0
220
0.0
230
1.0
 70
     8
 71
     3
 72
    11
 73
     7
 74
     0
 42
0.000000001
 43
0.00000001
 40
0.0
 40
0.0
 40
0.0
 40
0.0
 40
0.0305946447102238
 40
0.499999999998843
 40
0.9694053552874262
 40
1.0
 40
1.0
 40
1.0
 40
1.0
 10
371.8668270753063
 20
360.0167901550048
 30
0.0
 10
371.876846756899
 20
360.0186662222705
 30
0.0
 10
372.0405957019767
 20
360.0493262819551
 30
0.0
 10
372.2916637414875
 20
360.2772732116358
 30
0.0
 10
372.5196106711696
 20
360.5283412511485
 30
0.0
 10
372.5502707308536
 20
360.6920901962263
 30
0.0
 10
372.5521467981194
 20
360.7021098778197
 30
0.0
  0
SPLINE
  5
2FE
330
1F
100
AcDbEntity
  8
0
100
AcDbSpline
210
0.0
220
0.0
230
1.0
 70
     8
 71
     3
 72
    11
 73
     7
 74
     0
 42
0.000000001
 43
0.00000001
 40
0.0
 40
0.0
 40
0.0
 40
0.0
 40
0.0305946447119782
 40
0.5000000000009792
 40
0.9694053552900026
 40
1.0
 40
1.0
 40
1.0
 40
1.0
 10
-27.27707129126902
 20
360.7021098778177
 30
0.0
 10
-27.27519522400326
 20
360.6920901962245
 30
0.0
 10
-27.24453516431952
 20
360.5283412511467
 30
0.0
 10
-27.01658823463709
 20
360.2772732116348
 30
0.0
 10
-26.76552019512651
 20
360.0493262819531
 30
0.0
 10
-26.60177125004889
 20
360.0186662222692
 30
0.0
 10
-26.59175156845636
 20
360.0167901550035
 30
0.0
  0
ARC
  5
300
330
1F
100
AcDbEntity
  8
0
100
AcDbCircle
 10
371.4375377534
 20
408.0313991997
 30
0.0
 40
1.199999999999989
100
AcDbArc
 50
0.0
 51
90.0
  0
LINE
  5
303
330
1F
100
AcDbEntity
  8
0
100
AcDbLine
 10
372.6375377534
 20
408.0313991997
 30
0.0
 11
372.6375377534
 21
406.2313991997
 31
0.0
  0
ARC
  5
305
330
1F
100
AcDbEntity
  8
0
100
AcDbCircle
 10
-26.1624622466
 20
408.0313991997
 30
0.0
 40
1.200000000000045
100
AcDbArc
 50
90.0
 51
180.0
  0
LINE
  5
309
330
1F
100
AcDbEntity
  8
0
100
AcDbLine
 10
-27.3624622466
 20
406.2313991997
 30
0.0
 11
-27.3624622466
 21
408.0313991997
 31
0.0
  0
LINE
  5
31A
330
1F
100
AcDbEntity
  8
0
100
AcDbLine
 10
374.0375377534
 20
340.4113991997
 30
0.0
 11
374.0375377534
 21
335.9113991997
 31
0.0
  0
LINE
  5
31B
330
1F
100
AcDbEntity
  8
0
100
AcDbLine
 10
374.0375377534
 20
344.9113991997
 30
0.0
 11
374.0375377534
 21
340.4113991997
 31
0.0
  0
LINE
  5
31C
330
1F
100
AcDbEntity
  8
0
100
AcDbLine
 10
-28.7624622466
 20
340.4113991997
 30
0.0
 11
-28.7624622466
 21
344.9113991997
 31
0.0
  0
LINE
  5
31D
330
1F
100
AcDbEntity
  8
0
100
AcDbLine
 10
-28.7624622466
 20
335.9113991997
 30
0.0
 11
-28.7624622466
 21
340.4113991997
 31
0.0
  0
LINE
  5
31E
330
1F
100
AcDbEntity
  8
0
100
AcDbLine
 10
-33.2624622466
 20
344.5613991997
 30
0.0
 11
-33.2624622466
 21
336.2613991997
 31
0.0
  0
LINE
  5
31F
330
1F
100
AcDbEntity
  8
0
100
AcDbLine
 10
-33.7624622466
 20
336.7613991997
 30
0.0
 11
-33.7624622466
 21
344.0613991997
 31
0.0
  0
LINE
  5
320
330
1F
100
AcDbEntity
  8
0
100
AcDbLine
 10
379.0375377534
 20
344.0613991997
 30
0.0
 11
379.0375377534
 21
336.7613991997
 31
0.0
  0
LINE
  5
321
330
1F
100
AcDbEntity
  8
0
100
AcDbLine
 10
378.5375377534
 20
336.2613991997
 30
0.0
 11
378.5375377534
 21
344.5613991997
 31
0.0
  0
LINE
  5
322
330
1F
100
AcDbEntity
  8
0
100
AcDbLine
 10
-30.3624622466
 20
122.7113991997
 30
0.0
 11
-30.3624622466
 21
110.7113991997
 31
0.0
  0
LINE
  5
323
330
1F
100
AcDbEntity
  8
0
100
AcDbLine
 10
-28.3624622466
 20
122.7113991997
 30
0.0
 11
-28.3624622466
 21
110.7113991997
 31
0.0
  0
LINE
  5
324
330
1F
100
AcDbEntity
  8
0
100
AcDbLine
 10
-30.3624622466
 20
127.7113991997
 30
0.0
 11
-28.3624622466
 21
127.7113991997
 31
0.0
  0
LINE
  5
325
330
1F
100
AcDbEntity
  8
0
100
AcDbLine
 10
-30.3624622466
 20
122.7113991997
 30
0.0
 11
-30.3624622466
 21
127.7113991997
 31
0.0
  0
LINE
  5
326
330
1F
100
AcDbEntity
  8
0
100
AcDbLine
 10
-28.3624622466
 20
127.7113991997
 30
0.0
 11
-28.3624622466
 21
122.7113991997
 31
0.0
  0
ARC
  5
327
330
1F
100
AcDbEntity
  8
0
100
AcDbCircle
 10
-31.3624622466
 20
110.7113991997
 30
0.0
 40
1.000000000000167
100
AcDbArc
 50
270.0
 51
0.0
  0
ARC
  5
328
330
1F
100
AcDbEntity
  8
0
100
AcDbCircle
 10
-31.3624622466
 20
110.7113991997
 30
0.0
 40
3.000000000000171
100
AcDbArc
 50
270.0
 51
360.0
  0
LINE
  5
329
330
1F
100
AcDbEntity
  8
0
100
AcDbLine
 10
-62.3624622466
 20
107.7113991997
 30
0.0
 11
-62.3624622466
 21
109.7113991997
 31
0.0
  0
LINE
  5
32A
330
1F
100
AcDbEntity
  8
0
100
AcDbLine
 10
-57.3624622466
 20
107.7113991997
 30
0.0
 11
-62.3624622466
 21
107.7113991997
 31
0.0
  0
LINE
  5
32B
330
1F
100
AcDbEntity
  8
0
100
AcDbLine
 10
-62.3624622466
 20
109.7113991997
 30
0.0
 11
-57.3624622466
 21
109.7113991997
 31
0.0
  0
LINE
  5
32C
330
1F
100
AcDbEntity
  8
0
100
AcDbLine
 10
-31.3624622466
 20
107.7113991997
 30
0.0
 11
-57.3624622466
 21
107.7113991997
 31
0.0
  0
LINE
  5
32D
330
1F
100
AcDbEntity
  8
0
100
AcDbLine
 10
-31.3624622466
 20
109.7113991997
 30
0.0
 11
-57.3624622466
 21
109.7113991997
 31
0.0
  0
LINE
  5
32E
330
1F
100
AcDbEntity
  8
0
100
AcDbLine
 10
402.6375377534
 20
109.7113991997
 30
0.0
 11
407.6375377534
 21
109.7113991997
 31
0.0
  0
LINE
  5
32F
330
1F
100
AcDbEntity
  8
0
100
AcDbLine
 10
407.6375377534
 20
109.7113991997
 30
0.0
 11
407.6375377534
 21
107.7113991997
 31
0.0
  0
LINE
  5
330
330
1F
100
AcDbEntity
  8
0
100
AcDbLine
 10
407.6375377534
 20
107.7113991997
 30
0.0
 11
402.6375377534
 21
107.7113991997
 31
0.0
  0
ARC
  5
331
330
1F
100
AcDbEntity
  8
0
100
AcDbCircle
 10
376.6375377534
 20
110.7113991997
 30
0.0
 40
1.000000000000227
100
AcDbArc
 50
180.0
 51
270.0
  0
ARC
  5
332
330
1F
100
AcDbEntity
  8
0
100
AcDbCircle
 10
376.6375377534
 20
110.7113991997
 30
0.0
 40
3.000000000000227
100
AcDbArc
 50
180.0
 51
270.0
  0
LINE
  5
333
330
1F
100
AcDbEntity
  8
0
100
AcDbLine
 10
373.6375377534
 20
122.7113991997
 30
0.0
 11
373.6375377534
 21
110.7113991997
 31
0.0
  0
LINE
  5
334
330
1F
100
AcDbEntity
  8
0
100
AcDbLine
 10
375.6375377534
 20
122.7113991997
 30
0.0
 11
375.6375377534
 21
110.7113991997
 31
0.0
  0
LINE
  5
335
330
1F
100
AcDbEntity
  8
0
100
AcDbLine
 10
376.6375377534
 20
109.7113991997
 30
0.0
 11
402.6375377534
 21
109.7113991997
 31
0.0
  0
LINE
  5
336
330
1F
100
AcDbEntity
  8
0
100
AcDbLine
 10
376.6375377534
 20
107.7113991997
 30
0.0
 11
402.6375377534
 21
107.7113991997
 31
0.0
  0
LINE
  5
337
330
1F
100
AcDbEntity
  8
0
100
AcDbLine
 10
373.6375377534
 20
122.7113991997
 30
0.0
 11
373.6375377534
 21
127.7113991997
 31
0.0
  0
LINE
  5
338
330
1F
100
AcDbEntity
  8
0
100
AcDbLine
 10
373.6375377534
 20
127.7113991997
 30
0.0
 11
375.6375377534
 21
127.7113991997
 31
0.0
  0
LINE
  5
339
330
1F
100
AcDbEntity
  8
0
100
AcDbLine
 10
375.6375377534
 20
127.7113991997
 30
0.0
 11
375.6375377534
 21
122.7113991997
 31
0.0
  0
LINE
  5
33A
330
1F
100
AcDbEntity
  8
0
100
AcDbLine
 10
-50.1626697848
 20
200.0192953204
 30
0.0
 11
-50.1626697848
 21
142.9613991997
 31
0.0
  0
LINE
  5
33B
330
1F
100
AcDbEntity
  8
0
100
AcDbLine
 10
-50.1626697848
 20
341.3613991997
 30
0.0
 11
-50.1626697848
 21
200.0192953204
 31
0.0
  0
LINE
  5
340
330
1F
100
AcDbEntity
  8
0
100
AcDbLine
 10
-35.0731713988
 20
199.679439644
 30
0.0
 11
-35.0731713988
 21
142.1613991997
 31
0.0
  0
LINE
  5
341
330
1F
100
AcDbEntity
  8
0
100
AcDbLine
 10
-35.0731713988
 20
342.1613991997
 30
0.0
 11
-35.0731713988
 21
199.679439644
 31
0.0
  0
LINE
  5
342
330
1F
100
AcDbEntity
  8
0
100
AcDbLine
 10
-37.6438378109
 20
200.444114916
 30
0.0
 11
-37.6438378109
 21
143.9613991997
 31
0.0
  0
LINE
  5
343
330
1F
100
AcDbEntity
  8
0
100
AcDbLine
 10
-37.6438378109
 20
340.3613991997
 30
0.0
 11
-37.6438378109
 21
200.444114916
 31
0.0
  0
LINE
  5
344
330
1F
100
AcDbEntity
  8
0
100
AcDbLine
 10
-50.4624622466
 20
199.679439644
 30
0.0
 11
-50.4624622466
 21
142.1613991997
 31
0.0
  0
LINE
  5
345
330
1F
100
AcDbEntity
  8
0
100
AcDbLine
 10
-50.4624622466
 20
342.1613991997
 30
0.0
 11
-50.4624622466
 21
199.679439644
 31
0.0
  0
LINE
  5
346
330
1F
100
AcDbEntity
  8
0
100
AcDbLine
 10
395.4377452916
 20
142.9613991997
 30
0.0
 11
395.4377452916
 21
264.5113991997
 31
0.0
  0
LINE
  5
34B
330
1F
100
AcDbEntity
  8
0
100
AcDbLine
 10
395.7375377534
 20
142.1613991997
 30
0.0
 11
395.7375377534
 21
264.5113991997
 31
0.0
  0
LINE
  5
34C
330
1F
100
AcDbEntity
  8
0
100
AcDbLine
 10
380.3482469056
 20
142.1613991997
 30
0.0
 11
380.3482469056
 21
264.5113991997
 31
0.0
  0
LINE
  5
34D
330
1F
100
AcDbEntity
  8
0
100
AcDbLine
 10
382.9189133178
 20
143.9613991997
 30
0.0
 11
382.9189133178
 21
264.5113991997
 31
0.0
  0
SPLINE
  5
35A
330
1F
100
AcDbEntity
  8
0
100
AcDbSpline
210
0.0
220
0.0
230
1.0
 70
     8
 71
     3
 72
    10
 73
     6
 74
     0
 42
0.000000001
 43
0.00000001
 40
0.0
 40
0.0
 40
0.0
 40
0.0
 40
0.1856647403305541
 40
0.6723117382179139
 40
1.0
 40
1.0
 40
1.0
 40
1.0
 10
372.385309219407
 20
354.0113991997027
 30
0.0
 10
372.3543602678865
 20
354.0624590686754
 30
0.0
 10
372.242290828338
 20
354.2473522756524
 30
0.0
 10
371.9508447361756
 20
354.4316436170837
 30
0.0
 10
371.6917837969067
 20
354.4672388383442
 30
0.0
 10
371.5875377534293
 20
354.4815623445955
 30
0.0
  0
SPLINE
  5
35B
330
1F
100
AcDbEntity
  8
0
100
AcDbSpline
210
0.0
220
0.0
230
1.0
 70
     8
 71
     3
 72
    10
 73
     6
 74
     0
 42
0.000000001
 43
0.00000001
 40
0.0
 40
0.0
 40
0.0
 40
0.0
 40
0.3276882617875633
 40
0.8143352596712993
 40
0.9999999999999999
 40
0.9999999999999999
 40
0.9999999999999999
 40
0.9999999999999999
 10
-26.31246224657069
 20
354.4815623445967
 30
0.0
 10
-26.41670829005061
 20
354.4672388383449
 30
0.0
 10
-26.67576922932199
 20
354.4316436170843
 30
0.0
 10
-26.96721532148658
 20
354.247352275652
 30
0.0
 10
-27.07928476103508
 20
354.0624590686754
 30
0.0
 10
-27.11023371255544
 20
354.0113991997026
 30
0.0
  0
LINE
  5
35C
330
1F
100
AcDbEntity
  8
0
100
AcDbLine
 10
-26.3124622466
 20
354.0113991997
 30
0.0
 11
-26.3124622466
 21
355.2113991997
 31
0.0
  0
LINE
  5
35D
330
1F
100
AcDbEntity
  8
0
100
AcDbLine
 10
371.5875377534
 20
355.2113991997
 30
0.0
 11
-26.3124622466
 21
355.2113991997
 31
0.0
  0
LINE
  5
35E
330
1F
100
AcDbEntity
  8
0
100
AcDbLine
 10
371.5875377534
 20
355.2113991997
 30
0.0
 11
371.5875377534
 21
354.0113991997
 31
0.0
  0
LINE
  5
360
330
1F
100
AcDbEntity
  8
0
100
AcDbLine
 10
-27.3624622466
 20
354.0113991997
 30
0.0
 11
-26.3124622466
 21
354.0113991997
 31
0.0
  0
LINE
  5
363
330
1F
100
AcDbEntity
  8
0
100
AcDbLine
 10
371.5875377534
 20
354.0113991997
 30
0.0
 11
372.6375377534
 21
354.0113991997
 31
0.0
  0
LINE
  5
365
330
1F
100
AcDbEntity
  8
0
100
AcDbLine
 10
-26.3124622466
 20
109.2113991997
 30
0.0
 11
371.5875377534
 21
109.2113991997
 31
0.0
  0
ARC
  5
369
330
1F
100
AcDbEntity
  8
0
100
AcDbCircle
 10
-26.3124622466
 20
110.2613991997
 30
0.0
 40
1.050000000000001
100
AcDbArc
 50
163.7021747873
 51
270.0
  0
ARC
  5
36A
330
1F
100
AcDbEntity
  8
0
100
AcDbCircle
 10
371.5875377534
 20
110.2613991997
 30
0.0
 40
1.049999999999997
100
AcDbArc
 50
270.0
 51
16.1230740836
  0
LINE
  5
36E
330
1F
100
AcDbEntity
  8
0
100
AcDbLine
 10
1145.2847027525
 20
410.2313991997
 30
0.0
 11
1145.2847027525
 21
410.3202440963
 31
0.0
  0
LINE
  5
36F
330
1F
100
AcDbEntity
  8
0
100
AcDbLine
 10
1129.2847027525
 20
410.3202440963
 30
0.0
 11
1129.2847027525
 21
410.2313991997
 31
0.0
  0
ARC
  5
370
330
1F
100
AcDbEntity
  8
0
100
AcDbCircle
 10
1129.4847027525
 20
410.3202440963
 30
0.0
 40
0.199999999999997
100
AcDbArc
 50
121.6579514612
 51
180.0
  0
ARC
  5
371
330
1F
100
AcDbEntity
  8
0
100
AcDbCircle
 10
1145.0847027525
 20
410.3202440963
 30
0.0
 40
0.2000000000000455
100
AcDbArc
 50
0.0
 51
58.34204853879999
  0
ARC
  5
372
330
1F
100
AcDbEntity
  8
0
100
AcDbCircle
 10
1137.2857027525
 20
397.6718337649
 30
0.0
 40
15.05956543478261
100
AcDbArc
 50
58.34204853879999
 51
90.0
  0
ARC
  5
373
330
1F
100
AcDbEntity
  8
0
100
AcDbCircle
 10
1137.2837027525
 20
397.6718337649
 30
0.0
 40
15.0595654347826
100
AcDbArc
 50
90.0
 51
121.6579514612
  0
LINE
  5
374
330
1F
100
AcDbEntity
  8
0
100
AcDbLine
 10
1145.2847027525
 20
409.2313991997
 30
0.0
 11
1145.2847027525
 21
410.2313991997
 31
0.0
  0
LINE
  5
375
330
1F
100
AcDbEntity
  8
0
100
AcDbLine
 10
1129.2847027525
 20
410.2313991997
 30
0.0
 11
1129.2847027525
 21
409.2313991997
 31
0.0
  0
ARC
  5
394
330
1F
100
AcDbEntity
  8
0
100
AcDbCircle
 10
780.6847027525
 20
339.9813991997
 30
0.0
 40
7.0
100
AcDbArc
 50
180.0
 51
270.0
  0
LINE
  5
395
330
1F
100
AcDbEntity
  8
0
100
AcDbLine
 10
773.6847027525
 20
349.5313991997
 30
0.0
 11
773.6847027525
 21
339.9813991997
 31
0.0
  0
LINE
  5
396
330
1F
100
AcDbEntity
  8
0
100
AcDbLine
 10
773.6847027525
 20
349.5313991997
 30
0.0
 11
772.3918095337
 21
349.5313991997
 31
0.0
  0
LINE
  5
397
330
1F
100
AcDbEntity
  8
0
100
AcDbLine
 10
772.3918095337
 20
349.5313991997
 30
0.0
 11
772.3918095337
 21
356.7313991997
 31
0.0
  0
LINE
  5
398
330
1F
100
AcDbEntity
  8
0
100
AcDbLine
 10
853.6847027525
 20
356.7313991997
 30
0.0
 11
853.6847027525
 21
349.5313991997
 31
0.0
  0
LINE
  5
399
330
1F
100
AcDbEntity
  8
0
100
AcDbLine
 10
853.6847027525
 20
349.5313991997
 30
0.0
 11
794.2483351956
 21
349.5313991997
 31
0.0
  0
LINE
  5
39A
330
1F
100
AcDbEntity
  8
0
100
AcDbLine
 10
788.1040891161
 20
337.3731326442
 30
0.0
 11
794.2483351956
 21
349.5313991997
 31
0.0
  0
ARC
  5
39B
330
1F
100
AcDbEntity
  8
0
100
AcDbCircle
 10
780.9640322211
 20
340.9813991997
 30
0.0
 40
8.000000000000096
100
AcDbArc
 50
270.0
 51
333.19
  0
LINE
  5
39C
330
1F
100
AcDbEntity
  8
0
100
AcDbLine
 10
780.6847027525
 20
332.9813991997
 30
0.0
 11
780.9640322211
 21
332.9813991997
 31
0.0
  0
CIRCLE
  5
39D
330
1F
100
AcDbEntity
  8
0
100
AcDbCircle
 10
780.7847027525
 20
340.4113991997
 30
0.0
 40
4.25
  0
LINE
  5
39E
330
1F
100
AcDbEntity
  8
0
100
AcDbLine
 10
853.6847027525
 20
359.2313991997
 30
0.0
 11
853.6847027525
 21
356.7313991997
 31
0.0
  0
SPLINE
  5
39F
330
1F
100
AcDbEntity
  8
0
100
AcDbSpline
210
0.0
220
0.0
230
1.0
 70
     8
 71
     3
 72
    11
 73
     7
 74
     0
 42
0.000000001
 43
0.00000001
 40
0.0
 40
0.0
 40
0.0
 40
0.0
 40
0.2499999999999999
 40
0.4999999999999998
 40
0.7500000000000001
 40
1.0
 40
1.0
 40
1.0
 40
1.0
 10
772.3918095337009
 20
356.7313991997009
 30
0.0
 10
772.4162173019354
 20
357.0589918092165
 30
0.0
 10
772.4650328384043
 20
357.7141770282478
 30
0.0
 10
772.5382561431076
 20
358.5405393709901
 30
0.0
 10
772.6114794478111
 20
359.1186624037959
 30
0.0
 10
772.6602949842799
 20
359.1938202677326
 30
0.0
 10
772.6847027525143
 20
359.2313991997009
 30
0.0
  0
LINE
  5
3A0
330
1F
100
AcDbEntity
  8
0
100
AcDbLine
 10
772.6847027525
 20
359.2313991997
 30
0.0
 11
853.6847027525
 21
359.2313991997
 31
0.0
  0
LINE
  5
3A1
330
1F
100
AcDbEntity
  8
0
100
AcDbLine
 10
770.1847027525
 20
356.7313991997
 30
0.0
 11
771.6847027525
 21
356.7313991997
 31
0.0
  0
LINE
  5
3A2
330
1F
100
AcDbEntity
  8
0
100
AcDbLine
 10
771.6847027525
 20
356.7313991997
 30
0.0
 11
771.6847027525
 21
349.5313991997
 31
0.0
  0
LINE
  5
3A3
330
1F
100
AcDbEntity
  8
0
100
AcDbLine
 10
771.6847027525
 20
349.5313991997
 30
0.0
 11
770.1847027525
 21
349.5313991997
 31
0.0
  0
LINE
  5
3A4
330
1F
100
AcDbEntity
  8
0
100
AcDbLine
 10
770.1847027525
 20
349.5313991997
 30
0.0
 11
770.1847027525
 21
356.7313991997
 31
0.0
  0
SPLINE
  5
3A5
330
1F
100
AcDbEntity
  8
0
100
AcDbSpline
210
0.0
220
0.0
230
1.0
 70
     8
 71
     3
 72
    11
 73
     7
 74
     0
 42
0.000000001
 43
0.00000001
 40
0.0
 40
0.0
 40
0.0
 40
0.0
 40
0.1243158762668414
 40
0.4162105841778804
 40
0.708105292088951
 40
1.0
 40
1.0
 40
1.0
 40
1.0
 10
772.4650014672657
 20
357.6876978969358
 30
0.0
 10
772.4097635759898
 20
357.679600564708
 30
0.0
 10
772.2248266581389
 20
357.6524906292915
 30
0.0
 10
771.9622817768276
 20
357.4513804709234
 30
0.0
 10
771.7294886976691
 20
357.1254290304429
 30
0.0
 10
771.6996314008993
 20
356.8627424766149
 30
0.0
 10
771.6847027525143
 20
356.7313991997009
 30
0.0
  0
SPLINE
  5
3A6
330
1F
100
AcDbEntity
  8
0
100
AcDbSpline
210
0.0
220
0.0
230
1.0
 70
     8
 71
     3
 72
    11
 73
     7
 74
     0
 42
0.000000001
 43
0.00000001
 40
0.0
 40
0.0
 40
0.0
 40
0.0
 40
0.2500000000000007
 40
0.5000000000000013
 40
0.7499999999999984
 40
1.0
 40
1.0
 40
1.0
 40
1.0
 10
772.6847027525143
 20
359.2313991997009
 30
0.0
 10
772.3571101429987
 20
359.1938202677326
 30
0.0
 10
771.7019249239675
 20
359.118662403796
 30
0.0
 10
770.8755625812253
 20
358.5405393709901
 30
0.0
 10
770.2974395484192
 20
357.7141770282478
 30
0.0
 10
770.2222816844826
 20
357.0589918092166
 30
0.0
 10
770.1847027525143
 20
356.7313991997009
 30
0.0
  0
SPLINE
  5
3A7
330
1F
100
AcDbEntity
  8
0
100
AcDbSpline
210
0.0
220
0.0
230
1.0
 70
     8
 71
     3
 72
    11
 73
     7
 74
     0
 42
0.000000001
 43
0.00000001
 40
0.0
 40
0.0
 40
0.0
 40
0.0
 40
0.2499999999999815
 40
0.4999999999999849
 40
0.750000000000012
 40
0.9999999999999999
 40
0.9999999999999999
 40
0.9999999999999999
 40
0.9999999999999999
 10
772.6847027525159
 20
357.7313991997031
 30
0.0
 10
772.6602949842813
 20
357.7163676269158
 30
0.0
 10
772.6114794478124
 20
357.6863044813411
 30
0.0
 10
772.5382561431092
 20
357.4550552682188
 30
0.0
 10
772.4650328384057
 20
357.1245103311218
 30
0.0
 10
772.4162173019369
 20
356.8624362435094
 30
0.0
 10
772.3918095337024
 20
356.7313991997032
 30
0.0
  0
LINE
  5
3AC
330
1F
100
AcDbEntity
  8
0
100
AcDbLine
 10
1141.6602558613
 20
410.2313991997
 30
0.0
 11
1145.2847027525
 21
410.2313991997
 31
0.0
  0
LINE
  5
3AD
330
1F
100
AcDbEntity
  8
0
100
AcDbLine
 10
1129.2847027525
 20
410.2313991997
 30
0.0
 11
1141.6602558613
 21
410.2313991997
 31
0.0
  0
LINE
  5
3AE
330
1F
100
AcDbEntity
  8
0
100
AcDbLine
 10
1137.2857027525
 20
412.7313991997
 30
0.0
 11
1137.2837027525
 21
412.7313991997
 31
0.0
  0
LINE
  5
3AF
330
1F
100
AcDbEntity
  8
0
100
AcDbLine
 10
1145.2847027525
 20
410.2313991997
 30
0.0
 11
1129.2847027525
 21
410.2313991997
 31
0.0
  0
LINE
  5
3B0
330
1F
100
AcDbEntity
  8
0
100
AcDbLine
 10
773.6847027525
 20
359.2313991997
 30
0.0
 11
773.6847027525
 21
359.9313991997
 31
0.0
  0
LINE
  5
3B1
330
1F
100
AcDbEntity
  8
0
100
AcDbLine
 10
1176.2847027525
 20
359.2313991997
 30
0.0
 11
853.6847027525
 21
359.2313991997
 31
0.0
  0
LINE
  5
3B2
330
1F
100
AcDbEntity
  8
0
100
AcDbLine
 10
1176.2847027525
 20
359.9313991997
 30
0.0
 11
778.6847027525
 21
359.9313991997
 31
0.0
  0
LINE
  5
3B3
330
1F
100
AcDbEntity
  8
0
100
AcDbLine
 10
1181.2847027525
 20
359.9313991997
 30
0.0
 11
1181.2847027525
 21
359.2313991997
 31
0.0
  0
LINE
  5
3B4
330
1F
100
AcDbEntity
  8
0
100
AcDbLine
 10
1181.2847027525
 20
359.2313991997
 30
0.0
 11
1176.2847027525
 21
359.2313991997
 31
0.0
  0
LINE
  5
3B5
330
1F
100
AcDbEntity
  8
0
100
AcDbLine
 10
1181.0847027525
 20
359.9313991997
 30
0.0
 11
1181.2847027525
 21
359.9313991997
 31
0.0
  0
LINE
  5
3B8
330
1F
100
AcDbEntity
  8
0
100
AcDbLine
 10
772.2847027525
 20
361.1313991997
 30
0.0
 11
772.2847027525
 21
379.2313991997
 31
0.0
  0
LINE
  5
3C1
330
1F
100
AcDbEntity
  8
0
100
AcDbLine
 10
1182.2847027525
 20
379.2313991997
 30
0.0
 11
1182.2847027525
 21
361.1313991997
 31
0.0
  0
LINE
  5
3CA
330
1F
100
AcDbEntity
  8
0
100
AcDbLine
 10
1152.2847027525
 20
409.2313991997
 30
0.0
 11
802.2847027525
 21
409.2313991997
 31
0.0
  0
LINE
  5
3CC
330
1F
100
AcDbEntity
  8
0
100
AcDbLine
 10
776.2432813963
 20
359.9313991997
 30
0.0
 11
1178.3261241087
 21
359.9313991997
 31
0.0
  0
LINE
  5
3CF
330
1F
100
AcDbEntity
  8
0
100
AcDbLine
 10
1181.0847027525
 20
359.9313991997
 30
0.0
 11
1178.3261241087
 21
359.9313991997
 31
0.0
  0
SPLINE
  5
3D2
330
1F
100
AcDbEntity
  8
0
100
AcDbSpline
210
0.0
220
0.0
230
1.0
 70
     8
 71
     3
 72
    11
 73
     7
 74
     0
 42
0.000000001
 43
0.00000001
 40
0.0
 40
0.0
 40
0.0
 40
0.0
 40
0.2499998720723798
 40
0.4999999147149191
 40
0.7499999573574583
 40
0.9999999999999999
 40
0.9999999999999999
 40
0.9999999999999999
 40
0.9999999999999999
 10
1181.084703078016
 20
359.9313991660276
 30
0.0
 10
1181.24194742124
 20
359.9494370718415
 30
0.0
 10
1181.556436214973
 20
359.9855128957763
 30
0.0
 10
1181.953090058749
 20
360.2630118922904
 30
0.0
 10
1182.230589122719
 20
360.6596658289644
 30
0.0
 10
1182.266664898363
 20
360.9741547427863
 30
0.0
 10
1182.284702786184
 20
361.1313991996972
 30
0.0
  0
SPLINE
  5
3D5
330
1F
100
AcDbEntity
  8
0
100
AcDbSpline
210
0.0
220
0.0
230
1.0
 70
     8
 71
     3
 72
    11
 73
     7
 74
     0
 42
0.000000001
 43
0.00000001
 40
0.0
 40
0.0
 40
0.0
 40
0.0
 40
0.2499999999999699
 40
0.4999999999999641
 40
0.7499999999999792
 40
1.0
 40
1.0
 40
1.0
 40
1.0
 10
772.2847027188448
 20
361.1313991996983
 30
0.0
 10
772.3027406000059
 20
360.9741547713002
 30
0.0
 10
772.3388163623282
 20
360.6596659145042
 30
0.0
 10
772.6163153296709
 20
360.2630120246254
 30
0.0
 10
773.0129691403731
 20
359.9855129441089
 30
0.0
 10
773.327457986876
 20
359.9494370920561
 30
0.0
 10
773.4847024101275
 20
359.9313991660297
 30
0.0
  0
LINE
  5
3D6
330
1F
100
AcDbEntity
  8
0
100
AcDbLine
 10
773.4847027525
 20
359.9313991997
 30
0.0
 11
776.2432813963
 21
359.9313991997
 31
0.0
  0
ARC
  5
3D8
330
1F
100
AcDbEntity
  8
0
100
AcDbCircle
 10
802.2847027525
 20
379.2313991997
 30
0.0
 40
30.0
100
AcDbArc
 50
90.0
 51
180.0
  0
ARC
  5
3DA
330
1F
100
AcDbEntity
  8
0
100
AcDbCircle
 10
1152.2847027525
 20
379.2313991997
 30
0.0
 40
30.00000000000023
100
AcDbArc
 50
0.0
 51
90.0
  0
CIRCLE
  5
4C4
330
1F
100
AcDbEntity
  8
0
100
AcDbCircle
 10
780.7847027525
 20
340.4113991997
 30
0.0
 40
3.649999999999977
  0
CIRCLE
  5
4C5
330
1F
100
AcDbEntity
  8
0
100
AcDbCircle
 10
780.7847027525
 20
340.4113991997
 30
0.0
 40
4.149999999999977
  0
LINE
  5
4C6
330
1F
100
AcDbEntity
  8
0
100
AcDbLine
 10
778.4753016758
 20
340.4113991997
 30
0.0
 11
779.6300022141
 21
338.4113991997
 31
0.0
  0
LINE
  5
4C7
330
1F
100
AcDbEntity
  8
0
100
AcDbLine
 10
779.6300022141
 20
338.4113991997
 30
0.0
 11
781.9394032909
 21
338.4113991997
 31
0.0
  0
LINE
  5
4C8
330
1F
100
AcDbEntity
  8
0
100
AcDbLine
 10
781.9394032909
 20
338.4113991997
 30
0.0
 11
783.0941038293
 21
340.4113991997
 31
0.0
  0
LINE
  5
4C9
330
1F
100
AcDbEntity
  8
0
100
AcDbLine
 10
783.0941038293
 20
340.4113991997
 30
0.0
 11
781.9394032909
 21
342.4113991997
 31
0.0
  0
LINE
  5
4CA
330
1F
100
AcDbEntity
  8
0
100
AcDbLine
 10
781.9394032909
 20
342.4113991997
 30
0.0
 11
779.6300022141
 21
342.4113991997
 31
0.0
  0
LINE
  5
4CB
330
1F
100
AcDbEntity
  8
0
100
AcDbLine
 10
779.6300022141
 20
342.4113991997
 30
0.0
 11
778.4753016758
 21
340.4113991997
 31
0.0
  0
LINE
  5
4CC
330
1F
100
AcDbEntity
  8
0
100
AcDbLine
 10
1177.2847027525
 20
109.7113991997
 30
0.0
 11
1107.2847027525
 21
109.7113991997
 31
0.0
  0
LINE
  5
4CD
330
1F
100
AcDbEntity
  8
0
100
AcDbLine
 10
1177.2847027525
 20
107.7113991997
 30
0.0
 11
1107.2847027525
 21
107.7113991997
 31
0.0
  0
LINE
  5
4CE
330
1F
100
AcDbEntity
  8
0
100
AcDbLine
 10
1102.2847027525
 20
107.7113991997
 30
0.0
 11
1102.2847027525
 21
109.7113991997
 31
0.0
  0
LINE
  5
4CF
330
1F
100
AcDbEntity
  8
0
100
AcDbLine
 10
1102.2847027525
 20
109.7113991997
 30
0.0
 11
1107.2847027525
 21
109.7113991997
 31
0.0
  0
LINE
  5
4D0
330
1F
100
AcDbEntity
  8
0
100
AcDbLine
 10
1107.2847027525
 20
107.7113991997
 30
0.0
 11
1102.2847027525
 21
107.7113991997
 31
0.0
  0
LINE
  5
4D1
330
1F
100
AcDbEntity
  8
0
100
AcDbLine
 10
1182.2847027525
 20
109.7113991997
 30
0.0
 11
1182.2847027525
 21
107.7113991997
 31
0.0
  0
LINE
  5
4D2
330
1F
100
AcDbEntity
  8
0
100
AcDbLine
 10
1177.2847027525
 20
109.7113991997
 30
0.0
 11
1182.2847027525
 21
109.7113991997
 31
0.0
  0
LINE
  5
4D3
330
1F
100
AcDbEntity
  8
0
100
AcDbLine
 10
1182.2847027525
 20
107.7113991997
 30
0.0
 11
1177.2847027525
 21
107.7113991997
 31
0.0
  0
LINE
  5
4D4
330
1F
100
AcDbEntity
  8
0
100
AcDbLine
 10
1182.2847027525
 20
110.7113991997
 30
0.0
 11
1182.2847027525
 21
109.7113991997
 31
0.0
  0
LINE
  5
4D5
330
1F
100
AcDbEntity
  8
0
100
AcDbLine
 10
1102.2847027525
 20
110.7113991997
 30
0.0
 11
1102.2847027525
 21
109.7113991997
 31
0.0
  0
LINE
  5
4D6
330
1F
100
AcDbEntity
  8
0
100
AcDbLine
 10
1102.2847027525
 20
122.7113991997
 30
0.0
 11
1102.2847027525
 21
110.7113991997
 31
0.0
  0
ARC
  5
4D7
330
1F
100
AcDbEntity
  8
0
100
AcDbCircle
 10
1107.2847027525
 20
122.7113991997
 30
0.0
 40
5.0
100
AcDbArc
 50
90.0
 51
180.0
  0
LINE
  5
4D8
330
1F
100
AcDbEntity
  8
0
100
AcDbLine
 10
1177.2847027525
 20
127.7113991997
 30
0.0
 11
1107.2847027525
 21
127.7113991997
 31
0.0
  0
ARC
  5
4D9
330
1F
100
AcDbEntity
  8
0
100
AcDbCircle
 10
1177.2847027525
 20
122.7113991997
 30
0.0
 40
5.0
100
AcDbArc
 50
0.0
 51
90.0
  0
LINE
  5
4DA
330
1F
100
AcDbEntity
  8
0
100
AcDbLine
 10
1182.2847027525
 20
122.7113991997
 30
0.0
 11
1182.2847027525
 21
110.7113991997
 31
0.0
  0
LINE
  5
4DB
330
1F
100
AcDbEntity
  8
0
100
AcDbLine
 10
847.2847027525
 20
109.7113991997
 30
0.0
 11
777.2847027525
 21
109.7113991997
 31
0.0
  0
LINE
  5
4DC
330
1F
100
AcDbEntity
  8
0
100
AcDbLine
 10
847.2847027525
 20
107.7113991997
 30
0.0
 11
777.2847027525
 21
107.7113991997
 31
0.0
  0
LINE
  5
4DD
330
1F
100
AcDbEntity
  8
0
100
AcDbLine
 10
772.2847027525
 20
107.7113991997
 30
0.0
 11
772.2847027525
 21
109.7113991997
 31
0.0
  0
LINE
  5
4DE
330
1F
100
AcDbEntity
  8
0
100
AcDbLine
 10
772.2847027525
 20
109.7113991997
 30
0.0
 11
777.2847027525
 21
109.7113991997
 31
0.0
  0
LINE
  5
4DF
330
1F
100
AcDbEntity
  8
0
100
AcDbLine
 10
777.2847027525
 20
107.7113991997
 30
0.0
 11
772.2847027525
 21
107.7113991997
 31
0.0
  0
LINE
  5
4E0
330
1F
100
AcDbEntity
  8
0
100
AcDbLine
 10
852.2847027525
 20
109.7113991997
 30
0.0
 11
852.2847027525
 21
107.7113991997
 31
0.0
  0
LINE
  5
4E1
330
1F
100
AcDbEntity
  8
0
100
AcDbLine
 10
847.2847027525
 20
109.7113991997
 30
0.0
 11
852.2847027525
 21
109.7113991997
 31
0.0
  0
LINE
  5
4E2
330
1F
100
AcDbEntity
  8
0
100
AcDbLine
 10
852.2847027525
 20
107.7113991997
 30
0.0
 11
847.2847027525
 21
107.7113991997
 31
0.0
  0
LINE
  5
4E3
330
1F
100
AcDbEntity
  8
0
100
AcDbLine
 10
852.2847027525
 20
110.7113991997
 30
0.0
 11
852.2847027525
 21
109.7113991997
 31
0.0
  0
LINE
  5
4E4
330
1F
100
AcDbEntity
  8
0
100
AcDbLine
 10
772.2847027525
 20
110.7113991997
 30
0.0
 11
772.2847027525
 21
109.7113991997
 31
0.0
  0
LINE
  5
4E5
330
1F
100
AcDbEntity
  8
0
100
AcDbLine
 10
772.2847027525
 20
122.7113991997
 30
0.0
 11
772.2847027525
 21
110.7113991997
 31
0.0
  0
ARC
  5
4E6
330
1F
100
AcDbEntity
  8
0
100
AcDbCircle
 10
777.2847027525
 20
122.7113991997
 30
0.0
 40
5.0
100
AcDbArc
 50
90.0
 51
180.0
  0
LINE
  5
4E7
330
1F
100
AcDbEntity
  8
0
100
AcDbLine
 10
847.2847027525
 20
127.7113991997
 30
0.0
 11
777.2847027525
 21
127.7113991997
 31
0.0
  0
ARC
  5
4E8
330
1F
100
AcDbEntity
  8
0
100
AcDbCircle
 10
847.2847027525
 20
122.7113991997
 30
0.0
 40
5.0
100
AcDbArc
 50
0.0
 51
90.0
  0
LINE
  5
4E9
330
1F
100
AcDbEntity
  8
0
100
AcDbLine
 10
852.2847027525
 20
122.7113991997
 30
0.0
 11
852.2847027525
 21
110.7113991997
 31
0.0
  0
CIRCLE
  5
4EA
330
1F
100
AcDbEntity
  8
0
100
AcDbCircle
 10
924.2847027525
 20
242.1613991997
 30
0.0
 40
97.5
  0
CIRCLE
  5
4EB
330
1F
100
AcDbEntity
  8
0
100
AcDbCircle
 10
924.2847027525
 20
242.1613991997
 30
0.0
 40
99.99999999999994
  0
CIRCLE
  5
4ED
330
1F
100
AcDbEntity
  8
0
100
AcDbCircle
 10
924.2847027525
 20
242.1613991997
 30
0.0
 40
97.00000000000013
  0
LINE
  5
4F8
330
1F
100
AcDbEntity
  8
0
100
AcDbLine
 10
853.6847027525
 20
354.5113991997
 30
0.0
 11
940.6940853804
 21
354.5113991997
 31
0.0
  0
LINE
  5
4F9
330
1F
100
AcDbEntity
  8
0
100
AcDbLine
 10
940.6940853804
 20
354.5113991997
 30
0.0
 11
1134.8691781744
 21
354.5113991997
 31
0.0
  0
LINE
  5
4FE
330
1F
100
AcDbEntity
  8
0
100
AcDbLine
 10
1182.2847027525
 20
122.7113991997
 30
0.0
 11
1182.2847027525
 21
354.0113991997
 31
0.0
  0
LINE
  5
4FF
330
1F
100
AcDbEntity
  8
0
100
AcDbLine
 10
1136.0847027525
 20
354.5113991997
 30
0.0
 11
1134.8691781744
 21
354.5113991997
 31
0.0
  0
LINE
  5
500
330
1F
100
AcDbEntity
  8
0
100
AcDbLine
 10
1131.0847027525
 20
354.5113991997
 30
0.0
 11
1131.0847027525
 21
355.2113991997
 31
0.0
  0
LINE
  5
501
330
1F
100
AcDbEntity
  8
0
100
AcDbLine
 10
1131.0847027525
 20
355.2113991997
 30
0.0
 11
1136.0847027525
 21
355.2113991997
 31
0.0
  0
LINE
  5
502
330
1F
100
AcDbEntity
  8
0
100
AcDbLine
 10
1136.0847027525
 20
355.2113991997
 30
0.0
 11
1181.0847027525
 21
355.2113991997
 31
0.0
  0
ARC
  5
504
330
1F
100
AcDbEntity
  8
0
100
AcDbCircle
 10
1181.0847027525
 20
354.0113991997
 30
0.0
 40
1.200000000000045
100
AcDbArc
 50
0.0
 51
90.0
  0
ARC
  5
505
330
1F
100
AcDbEntity
  8
0
100
AcDbCircle
 10
1181.0847027525
 20
354.0113991997
 30
0.0
 40
0.5
100
AcDbArc
 50
0.0
 51
90.0
  0
LINE
  5
507
330
1F
100
AcDbEntity
  8
0
100
AcDbLine
 10
772.2847027525
 20
354.0113991997
 30
0.0
 11
772.2847027525
 21
122.7113991997
 31
0.0
  0
LINE
  5
508
330
1F
100
AcDbEntity
  8
0
100
AcDbLine
 10
772.2847027525
 20
354.0113991997
 30
0.0
 11
772.3918095337
 21
354.0113991997
 31
0.0
  0
ARC
  5
509
330
1F
100
AcDbEntity
  8
0
100
AcDbCircle
 10
773.4847027525
 20
354.0113991997
 30
0.0
 40
1.200000000000045
100
AcDbArc
 50
155.6084185518
 51
180.0
  0
LINE
  5
50B
330
1F
100
AcDbEntity
  8
0
100
AcDbLine
 10
852.2847027525
 20
109.2113991997
 30
0.0
 11
1102.2847027525
 21
109.2113991997
 31
0.0
  0
ARC
  5
514
330
1F
100
AcDbEntity
  8
0
100
AcDbCircle
 10
-793.1056315293
 20
410.3202440963
 30
0.0
 40
0.1999999999999487
100
AcDbArc
 50
121.6579514612
 51
180.0
  0
ARC
  5
515
330
1F
100
AcDbEntity
  8
0
100
AcDbCircle
 10
-777.5056315293
 20
410.3202440963
 30
0.0
 40
0.199999999999997
100
AcDbArc
 50
0.0
 51
58.34204853879999
  0
LINE
  5
516
330
1F
100
AcDbEntity
  8
0
100
AcDbLine
 10
-777.3056315293
 20
410.2313991997
 30
0.0
 11
-777.3056315293
 21
410.3202440963
 31
0.0
  0
LINE
  5
517
330
1F
100
AcDbEntity
  8
0
100
AcDbLine
 10
-793.3056315293
 20
410.3202440963
 30
0.0
 11
-793.3056315293
 21
410.2313991997
 31
0.0
  0
ARC
  5
518
330
1F
100
AcDbEntity
  8
0
100
AcDbCircle
 10
-785.3046315293
 20
397.6718337649
 30
0.0
 40
15.05956543478259
100
AcDbArc
 50
58.34204853879999
 51
90.0
  0
ARC
  5
519
330
1F
100
AcDbEntity
  8
0
100
AcDbCircle
 10
-785.3066315293
 20
397.6718337649
 30
0.0
 40
15.05956543478261
100
AcDbArc
 50
90.0
 51
121.6579514612
  0
LINE
  5
51A
330
1F
100
AcDbEntity
  8
0
100
AcDbLine
 10
-777.3056315293
 20
409.2313991997
 30
0.0
 11
-777.3056315293
 21
410.2313991997
 31
0.0
  0
LINE
  5
51B
330
1F
100
AcDbEntity
  8
0
100
AcDbLine
 10
-793.3056315293
 20
410.2313991997
 30
0.0
 11
-793.3056315293
 21
409.2313991997
 31
0.0
  0
LINE
  5
520
330
1F
100
AcDbEntity
  8
0
100
AcDbLine
 10
-779.8056315293
 20
355.2113991997
 30
0.0
 11
-779.8056315293
 21
355.6113991997
 31
0.0
  0
LINE
  5
521
330
1F
100
AcDbEntity
  8
0
100
AcDbLine
 10
-790.8056315293
 20
355.6113991997
 30
0.0
 11
-790.8056315293
 21
355.2113991997
 31
0.0
  0
ARC
  5
54F
330
1F
100
AcDbEntity
  8
0
100
AcDbCircle
 10
-705.5056315293
 20
337.5113991997
 30
0.0
 40
9.0
100
AcDbArc
 50
0.0
 51
90.0
  0
LINE
  5
550
330
1F
100
AcDbEntity
  8
0
100
AcDbLine
 10
-696.5056315293
 20
337.5113991997
 30
0.0
 11
-696.5056315293
 21
271.5113991997
 31
0.0
  0
ARC
  5
551
330
1F
100
AcDbEntity
  8
0
100
AcDbCircle
 10
-705.5056315293
 20
271.5113991997
 30
0.0
 40
9.0
100
AcDbArc
 50
270.0
 51
0.0
  0
LINE
  5
552
330
1F
100
AcDbEntity
  8
0
100
AcDbLine
 10
-743.5056315293
 20
339.5113991997
 30
0.0
 11
-743.5056315293
 21
269.5113991997
 31
0.0
  0
LINE
  5
553
330
1F
100
AcDbEntity
  8
0
100
AcDbLine
 10
-743.5056315293
 20
269.5113991997
 30
0.0
 11
-733.5056315293
 21
269.5113991997
 31
0.0
  0
LINE
  5
554
330
1F
100
AcDbEntity
  8
0
100
AcDbLine
 10
-733.5056315293
 20
269.5113991997
 30
0.0
 11
-733.5056315293
 21
339.5113991997
 31
0.0
  0
LINE
  5
555
330
1F
100
AcDbEntity
  8
0
100
AcDbLine
 10
-733.5056315293
 20
339.5113991997
 30
0.0
 11
-743.5056315293
 21
339.5113991997
 31
0.0
  0
LINE
  5
556
330
1F
100
AcDbEntity
  8
0
100
AcDbLine
 10
-771.5056315293
 20
346.5113991997
 30
0.0
 11
-705.5056315293
 21
346.5113991997
 31
0.0
  0
LINE
  5
557
330
1F
100
AcDbEntity
  8
0
100
AcDbLine
 10
-705.5056315293
 20
262.5113991997
 30
0.0
 11
-771.5056315293
 21
262.5113991997
 31
0.0
  0
ARC
  5
558
330
1F
100
AcDbEntity
  8
0
100
AcDbCircle
 10
-771.5056315293
 20
337.5113991997
 30
0.0
 40
9.0
100
AcDbArc
 50
90.0
 51
180.0
  0
LINE
  5
559
330
1F
100
AcDbEntity
  8
0
100
AcDbLine
 10
-780.5056315293
 20
271.5113991997
 30
0.0
 11
-780.5056315293
 21
337.5113991997
 31
0.0
  0
ARC
  5
55A
330
1F
100
AcDbEntity
  8
0
100
AcDbCircle
 10
-771.5056315293
 20
271.5113991997
 30
0.0
 40
9.000000000000114
100
AcDbArc
 50
180.0
 51
270.0
  0
SPLINE
  5
55C
330
1F
100
AcDbEntity
  8
0
100
AcDbSpline
210
0.0
220
0.0
230
1.0
 70
     8
 71
     3
 72
    11
 73
     7
 74
     0
 42
0.000000001
 43
0.00000001
 40
0.0
 40
0.0
 40
0.0
 40
0.0
 40
0.2499999999999966
 40
0.5000000000000119
 40
0.75
 40
0.9999999999999999
 40
0.9999999999999999
 40
0.9999999999999999
 40
0.9999999999999999
 10
-420.4127383104812
 20
356.7313991997009
 30
0.0
 10
-420.4371460787156
 20
356.8624362435072
 30
0.0
 10
-420.4859616151846
 20
357.1245103311197
 30
0.0
 10
-420.559184919888
 20
357.4550552682167
 30
0.0
 10
-420.6324082245912
 20
357.6863044813389
 30
0.0
 10
-420.6812237610602
 20
357.7163676269137
 30
0.0
 10
-420.7056315292947
 20
357.7313991997009
 30
0.0
  0
LINE
  5
55D
330
1F
100
AcDbEntity
  8
0
100
AcDbLine
 10
-501.7056315293
 20
349.5313991997
 30
0.0
 11
-442.2692639724
 21
349.5313991997
 31
0.0
  0
LINE
  5
55E
330
1F
100
AcDbEntity
  8
0
100
AcDbLine
 10
-501.7056315293
 20
356.7313991997
 30
0.0
 11
-501.7056315293
 21
349.5313991997
 31
0.0
  0
LINE
  5
55F
330
1F
100
AcDbEntity
  8
0
100
AcDbLine
 10
-420.4127383105
 20
349.5313991997
 30
0.0
 11
-420.4127383105
 21
356.7313991997
 31
0.0
  0
LINE
  5
560
330
1F
100
AcDbEntity
  8
0
100
AcDbLine
 10
-421.7056315293
 20
349.5313991997
 30
0.0
 11
-420.4127383105
 21
349.5313991997
 31
0.0
  0
LINE
  5
561
330
1F
100
AcDbEntity
  8
0
100
AcDbLine
 10
-421.7056315293
 20
339.9813991997
 30
0.0
 11
-421.7056315293
 21
349.5313991997
 31
0.0
  0
ARC
  5
562
330
1F
100
AcDbEntity
  8
0
100
AcDbCircle
 10
-428.7056315293
 20
339.9813991997
 30
0.0
 40
7.0
100
AcDbArc
 50
270.0
 51
0.0
  0
LINE
  5
563
330
1F
100
AcDbEntity
  8
0
100
AcDbLine
 10
-428.9849609979
 20
332.9813991997
 30
0.0
 11
-428.7056315293
 21
332.9813991997
 31
0.0
  0
ARC
  5
564
330
1F
100
AcDbEntity
  8
0
100
AcDbCircle
 10
-428.9849609979
 20
340.9813991997
 30
0.0
 40
7.999999999999994
100
AcDbArc
 50
206.81
 51
270.0
  0
LINE
  5
565
330
1F
100
AcDbEntity
  8
0
100
AcDbLine
 10
-442.2692639724
 20
349.5313991997
 30
0.0
 11
-436.1250178929
 21
337.3731326442
 31
0.0
  0
CIRCLE
  5
566
330
1F
100
AcDbEntity
  8
0
100
AcDbCircle
 10
-428.8056315293
 20
340.4113991997
 30
0.0
 40
4.250000000000057
  0
SPLINE
  5
567
330
1F
100
AcDbEntity
  8
0
100
AcDbSpline
210
0.0
220
0.0
230
1.0
 70
     8
 71
     3
 72
    11
 73
     7
 74
     0
 42
0.000000001
 43
0.00000001
 40
0.0
 40
0.0
 40
0.0
 40
0.0
 40
0.2499999999999962
 40
0.4999999999999959
 40
0.7499999999999956
 40
1.0
 40
1.0
 40
1.0
 40
1.0
 10
-420.7056315292961
 20
359.2313991997032
 30
0.0
 10
-420.6812237610616
 20
359.1938202677348
 30
0.0
 10
-420.6324082245927
 20
359.1186624037981
 30
0.0
 10
-420.5591849198894
 20
358.5405393709922
 30
0.0
 10
-420.4859616151861
 20
357.7141770282499
 30
0.0
 10
-420.4371460787171
 20
357.0589918092188
 30
0.0
 10
-420.4127383104827
 20
356.7313991997031
 30
0.0
  0
LINE
  5
568
330
1F
100
AcDbEntity
  8
0
100
AcDbLine
 10
-501.7056315293
 20
356.7313991997
 30
0.0
 11
-501.7056315293
 21
359.2313991997
 31
0.0
  0
LINE
  5
569
330
1F
100
AcDbEntity
  8
0
100
AcDbLine
 10
-501.7056315293
 20
359.2313991997
 30
0.0
 11
-420.7056315293
 21
359.2313991997
 31
0.0
  0
LINE
  5
56A
330
1F
100
AcDbEntity
  8
0
100
AcDbLine
 10
-419.7056315293
 20
356.7313991997
 30
0.0
 11
-419.7056315293
 21
349.5313991997
 31
0.0
  0
LINE
  5
56B
330
1F
100
AcDbEntity
  8
0
100
AcDbLine
 10
-418.2056315293
 20
356.7313991997
 30
0.0
 11
-419.7056315293
 21
356.7313991997
 31
0.0
  0
LINE
  5
56C
330
1F
100
AcDbEntity
  8
0
100
AcDbLine
 10
-418.2056315293
 20
356.7313991997
 30
0.0
 11
-418.2056315293
 21
349.5313991997
 31
0.0
  0
LINE
  5
56D
330
1F
100
AcDbEntity
  8
0
100
AcDbLine
 10
-418.2056315293
 20
349.5313991997
 30
0.0
 11
-419.7056315293
 21
349.5313991997
 31
0.0
  0
SPLINE
  5
56E
330
1F
100
AcDbEntity
  8
0
100
AcDbSpline
210
0.0
220
0.0
230
1.0
 70
     8
 71
     3
 72
    11
 73
     7
 74
     0
 42
0.000000001
 43
0.00000001
 40
0.0
 40
0.0
 40
0.0
 40
0.0
 40
0.2918947079110375
 40
0.5837894158220929
 40
0.8756841237331241
 40
1.0
 40
1.0
 40
1.0
 40
1.0
 10
-419.7056315292961
 20
356.7313991997031
 30
0.0
 10
-419.720560177681
 20
356.8627424766171
 30
0.0
 10
-419.7504174744508
 20
357.1254290304452
 30
0.0
 10
-419.9832105536092
 20
357.4513804709254
 30
0.0
 10
-420.2457554349206
 20
357.6524906292939
 30
0.0
 10
-420.4306923527715
 20
357.6796005647101
 30
0.0
 10
-420.4859302440474
 20
357.6876978969379
 30
0.0
  0
SPLINE
  5
56F
330
1F
100
AcDbEntity
  8
0
100
AcDbSpline
210
0.0
220
0.0
230
1.0
 70
     8
 71
     3
 72
    11
 73
     7
 74
     0
 42
0.000000001
 43
0.00000001
 40
0.0
 40
0.0
 40
0.0
 40
0.0
 40
0.2499999999999977
 40
0.4999999999999898
 40
0.7499999999999866
 40
1.0
 40
1.0
 40
1.0
 40
1.0
 10
-418.2056315292961
 20
356.7313991997031
 30
0.0
 10
-418.2432104612644
 20
357.0589918092187
 30
0.0
 10
-418.3183683252011
 20
357.7141770282498
 30
0.0
 10
-418.896491358007
 20
358.5405393709922
 30
0.0
 10
-419.7228537007491
 20
359.1186624037982
 30
0.0
 10
-420.3780389197805
 20
359.1938202677348
 30
0.0
 10
-420.7056315292961
 20
359.2313991997032
 30
0.0
  0
LINE
  5
574
330
1F
100
AcDbEntity
  8
0
100
AcDbLine
 10
-793.3056315293
 20
410.2313991997
 30
0.0
 11
-777.3056315293
 21
410.2313991997
 31
0.0
  0
LINE
  5
575
330
1F
100
AcDbEntity
  8
0
100
AcDbLine
 10
-785.3050845852
 20
412.7313991997
 30
0.0
 11
-785.3066315293
 21
412.7313991997
 31
0.0
  0
LINE
  5
576
330
1F
100
AcDbEntity
  8
0
100
AcDbLine
 10
-785.3046315293
 20
412.7313991997
 30
0.0
 11
-785.3050845852
 21
412.7313991997
 31
0.0
  0
LINE
  5
577
330
1F
100
AcDbEntity
  8
0
100
AcDbLine
 10
-780.9300784205
 20
410.2313991997
 30
0.0
 11
-793.3056315293
 21
410.2313991997
 31
0.0
  0
LINE
  5
578
330
1F
100
AcDbEntity
  8
0
100
AcDbLine
 10
-777.3056315293
 20
410.2313991997
 30
0.0
 11
-780.9300784205
 21
410.2313991997
 31
0.0
  0
LINE
  5
579
330
1F
100
AcDbEntity
  8
0
100
AcDbLine
 10
-421.7056315293
 20
359.9313991997
 30
0.0
 11
-421.7056315293
 21
359.2313991997
 31
0.0
  0
LINE
  5
57A
330
1F
100
AcDbEntity
  8
0
100
AcDbLine
 10
-501.7056315293
 20
359.2313991997
 30
0.0
 11
-824.3056315293
 21
359.2313991997
 31
0.0
  0
LINE
  5
57B
330
1F
100
AcDbEntity
  8
0
100
AcDbLine
 10
-426.7056315293
 20
359.9313991997
 30
0.0
 11
-824.3056315293
 21
359.9313991997
 31
0.0
  0
LINE
  5
57C
330
1F
100
AcDbEntity
  8
0
100
AcDbLine
 10
-829.3056315293
 20
359.2313991997
 30
0.0
 11
-829.3056315293
 21
359.9313991997
 31
0.0
  0
LINE
  5
57D
330
1F
100
AcDbEntity
  8
0
100
AcDbLine
 10
-824.3056315293
 20
359.2313991997
 30
0.0
 11
-829.3056315293
 21
359.2313991997
 31
0.0
  0
LINE
  5
57E
330
1F
100
AcDbEntity
  8
0
100
AcDbLine
 10
-829.3056315293
 20
359.9313991997
 30
0.0
 11
-829.1056315293
 21
359.9313991997
 31
0.0
  0
LINE
  5
584
330
1F
100
AcDbEntity
  8
0
100
AcDbLine
 10
-830.3056315293
 20
361.1313991997
 30
0.0
 11
-830.3056315293
 21
379.2313991997
 31
0.0
  0
LINE
  5
589
330
1F
100
AcDbEntity
  8
0
100
AcDbLine
 10
-420.3056315293
 20
379.2313991997
 30
0.0
 11
-420.3056315293
 21
361.1313991997
 31
0.0
  0
LINE
  5
58C
330
1F
100
AcDbEntity
  8
0
100
AcDbLine
 10
-424.2642101731
 20
359.9313991997
 30
0.0
 11
-826.3470528855
 21
359.9313991997
 31
0.0
  0
LINE
  5
595
330
1F
100
AcDbEntity
  8
0
100
AcDbLine
 10
-450.3056315293
 20
409.2313991997
 30
0.0
 11
-800.3056315293
 21
409.2313991997
 31
0.0
  0
LINE
  5
598
330
1F
100
AcDbEntity
  8
0
100
AcDbLine
 10
-421.5056315293
 20
359.9313991997
 30
0.0
 11
-424.2642101731
 21
359.9313991997
 31
0.0
  0
SPLINE
  5
59B
330
1F
100
AcDbEntity
  8
0
100
AcDbSpline
210
0.0
220
0.0
230
1.0
 70
     8
 71
     3
 72
    11
 73
     7
 74
     0
 42
0.000000001
 43
0.00000001
 40
0.0
 40
0.0
 40
0.0
 40
0.0
 40
0.2500000000000105
 40
0.5000000000000352
 40
0.7500000000000342
 40
0.9999999999999999
 40
0.9999999999999999
 40
0.9999999999999999
 40
0.9999999999999999
 10
-421.5056311869089
 20
359.9313991660312
 30
0.0
 10
-421.3483867636576
 20
359.9494370920575
 30
0.0
 10
-421.033897917155
 20
359.9855129441102
 30
0.0
 10
-420.6372441064531
 20
360.2630120246265
 30
0.0
 10
-420.3597451391103
 20
360.6596659145043
 30
0.0
 10
-420.3236693767877
 20
360.9741547713001
 30
0.0
 10
-420.3056314956264
 20
361.1313991996979
 30
0.0
  0
LINE
  5
59E
330
1F
100
AcDbEntity
  8
0
100
AcDbLine
 10
-829.1056315293
 20
359.9313991997
 30
0.0
 11
-826.3470528855
 21
359.9313991997
 31
0.0
  0
SPLINE
  5
5A0
330
1F
100
AcDbEntity
  8
0
100
AcDbSpline
210
0.0
220
0.0
230
1.0
 70
     8
 71
     3
 72
    11
 73
     7
 74
     0
 42
0.000000001
 43
0.00000001
 40
0.0
 40
0.0
 40
0.0
 40
0.0
 40
0.2500000426425518
 40
0.5000000852850878
 40
0.7500001279276279
 40
1.0
 40
1.0
 40
1.0
 40
1.0
 10
-830.305631562966
 20
361.1313991996993
 30
0.0
 10
-830.2875936751444
 20
360.9741547427883
 30
0.0
 10
-830.2515178995009
 20
360.6596658289665
 30
0.0
 10
-829.9740188355313
 20
360.263011892292
 30
0.0
 10
-829.5773649917546
 20
359.9855128957779
 30
0.0
 10
-829.262876198022
 20
359.9494370718431
 30
0.0
 10
-829.105631854798
 20
359.9313991660291
 30
0.0
  0
ARC
  5
5A1
330
1F
100
AcDbEntity
  8
0
100
AcDbCircle
 10
-450.3056315293
 20
379.2313991997
 30
0.0
 40
30.00000000000006
100
AcDbArc
 50
0.0
 51
90.0
  0
ARC
  5
5A3
330
1F
100
AcDbEntity
  8
0
100
AcDbCircle
 10
-800.3056315293
 20
379.2313991997
 30
0.0
 40
30.00000000000011
100
AcDbArc
 50
90.0
 51
180.0
  0
CIRCLE
  5
63D
330
1F
100
AcDbEntity
  8
0
100
AcDbCircle
 10
-428.8056315293
 20
340.4113991997
 30
0.0
 40
3.649999999999977
  0
CIRCLE
  5
63E
330
1F
100
AcDbEntity
  8
0
100
AcDbCircle
 10
-428.8056315293
 20
340.4113991997
 30
0.0
 40
4.149999999999977
  0
LINE
  5
63F
330
1F
100
AcDbEntity
  8
0
100
AcDbLine
 10
-426.4962304525
 20
340.4113991997
 30
0.0
 11
-427.6509309909
 21
342.4113991997
 31
0.0
  0
LINE
  5
640
330
1F
100
AcDbEntity
  8
0
100
AcDbLine
 10
-427.6509309909
 20
342.4113991997
 30
0.0
 11
-429.9603320677
 21
342.4113991997
 31
0.0
  0
LINE
  5
641
330
1F
100
AcDbEntity
  8
0
100
AcDbLine
 10
-429.9603320677
 20
342.4113991997
 30
0.0
 11
-431.1150326061
 21
340.4113991997
 31
0.0
  0
LINE
  5
642
330
1F
100
AcDbEntity
  8
0
100
AcDbLine
 10
-431.1150326061
 20
340.4113991997
 30
0.0
 11
-429.9603320677
 21
338.4113991997
 31
0.0
  0
LINE
  5
643
330
1F
100
AcDbEntity
  8
0
100
AcDbLine
 10
-429.9603320677
 20
338.4113991997
 30
0.0
 11
-427.6509309909
 21
338.4113991997
 31
0.0
  0
LINE
  5
644
330
1F
100
AcDbEntity
  8
0
100
AcDbLine
 10
-427.6509309909
 20
338.4113991997
 30
0.0
 11
-426.4962304525
 21
340.4113991997
 31
0.0
  0
LINE
  5
64D
330
1F
100
AcDbEntity
  8
0
100
AcDbLine
 10
-755.3056315293
 20
109.7113991997
 30
0.0
 11
-750.3056315293
 21
109.7113991997
 31
0.0
  0
LINE
  5
64E
330
1F
100
AcDbEntity
  8
0
100
AcDbLine
 10
-750.3056315293
 20
109.7113991997
 30
0.0
 11
-750.3056315293
 21
107.7113991997
 31
0.0
  0
LINE
  5
64F
330
1F
100
AcDbEntity
  8
0
100
AcDbLine
 10
-750.3056315293
 20
107.7113991997
 30
0.0
 11
-755.3056315293
 21
107.7113991997
 31
0.0
  0
LINE
  5
650
330
1F
100
AcDbEntity
  8
0
100
AcDbLine
 10
-755.3056315293
 20
109.7113991997
 30
0.0
 11
-825.3056315293
 21
109.7113991997
 31
0.0
  0
LINE
  5
651
330
1F
100
AcDbEntity
  8
0
100
AcDbLine
 10
-755.3056315293
 20
107.7113991997
 30
0.0
 11
-825.3056315293
 21
107.7113991997
 31
0.0
  0
LINE
  5
652
330
1F
100
AcDbEntity
  8
0
100
AcDbLine
 10
-830.3056315293
 20
107.7113991997
 30
0.0
 11
-830.3056315293
 21
109.7113991997
 31
0.0
  0
LINE
  5
653
330
1F
100
AcDbEntity
  8
0
100
AcDbLine
 10
-830.3056315293
 20
109.7113991997
 30
0.0
 11
-825.3056315293
 21
109.7113991997
 31
0.0
  0
LINE
  5
654
330
1F
100
AcDbEntity
  8
0
100
AcDbLine
 10
-825.3056315293
 20
107.7113991997
 30
0.0
 11
-830.3056315293
 21
107.7113991997
 31
0.0
  0
LINE
  5
655
330
1F
100
AcDbEntity
  8
0
100
AcDbLine
 10
-750.3056315293
 20
110.7113991997
 30
0.0
 11
-750.3056315293
 21
109.7113991997
 31
0.0
  0
LINE
  5
656
330
1F
100
AcDbEntity
  8
0
100
AcDbLine
 10
-830.3056315293
 20
110.7113991997
 30
0.0
 11
-830.3056315293
 21
109.7113991997
 31
0.0
  0
LINE
  5
657
330
1F
100
AcDbEntity
  8
0
100
AcDbLine
 10
-830.3056315293
 20
122.7113991997
 30
0.0
 11
-830.3056315293
 21
110.7113991997
 31
0.0
  0
ARC
  5
658
330
1F
100
AcDbEntity
  8
0
100
AcDbCircle
 10
-825.3056315293
 20
122.7113991997
 30
0.0
 40
4.999999999999986
100
AcDbArc
 50
90.0
 51
180.0
  0
LINE
  5
659
330
1F
100
AcDbEntity
  8
0
100
AcDbLine
 10
-755.3056315293
 20
127.7113991997
 30
0.0
 11
-825.3056315293
 21
127.7113991997
 31
0.0
  0
ARC
  5
65A
330
1F
100
AcDbEntity
  8
0
100
AcDbCircle
 10
-755.3056315293
 20
122.7113991997
 30
0.0
 40
5.0
100
AcDbArc
 50
0.0
 51
90.0
  0
LINE
  5
65B
330
1F
100
AcDbEntity
  8
0
100
AcDbLine
 10
-750.3056315293
 20
122.7113991997
 30
0.0
 11
-750.3056315293
 21
110.7113991997
 31
0.0
  0
LINE
  5
65C
330
1F
100
AcDbEntity
  8
0
100
AcDbLine
 10
-425.3056315293
 20
109.7113991997
 30
0.0
 11
-420.3056315293
 21
109.7113991997
 31
0.0
  0
LINE
  5
65D
330
1F
100
AcDbEntity
  8
0
100
AcDbLine
 10
-420.3056315293
 20
109.7113991997
 30
0.0
 11
-420.3056315293
 21
107.7113991997
 31
0.0
  0
LINE
  5
65E
330
1F
100
AcDbEntity
  8
0
100
AcDbLine
 10
-420.3056315293
 20
107.7113991997
 30
0.0
 11
-425.3056315293
 21
107.7113991997
 31
0.0
  0
LINE
  5
65F
330
1F
100
AcDbEntity
  8
0
100
AcDbLine
 10
-425.3056315293
 20
109.7113991997
 30
0.0
 11
-495.3056315293
 21
109.7113991997
 31
0.0
  0
LINE
  5
660
330
1F
100
AcDbEntity
  8
0
100
AcDbLine
 10
-425.3056315293
 20
107.7113991997
 30
0.0
 11
-495.3056315293
 21
107.7113991997
 31
0.0
  0
LINE
  5
661
330
1F
100
AcDbEntity
  8
0
100
AcDbLine
 10
-500.3056315293
 20
107.7113991997
 30
0.0
 11
-500.3056315293
 21
109.7113991997
 31
0.0
  0
LINE
  5
662
330
1F
100
AcDbEntity
  8
0
100
AcDbLine
 10
-500.3056315293
 20
109.7113991997
 30
0.0
 11
-495.3056315293
 21
109.7113991997
 31
0.0
  0
LINE
  5
663
330
1F
100
AcDbEntity
  8
0
100
AcDbLine
 10
-495.3056315293
 20
107.7113991997
 30
0.0
 11
-500.3056315293
 21
107.7113991997
 31
0.0
  0
LINE
  5
664
330
1F
100
AcDbEntity
  8
0
100
AcDbLine
 10
-420.3056315293
 20
110.7113991997
 30
0.0
 11
-420.3056315293
 21
109.7113991997
 31
0.0
  0
LINE
  5
665
330
1F
100
AcDbEntity
  8
0
100
AcDbLine
 10
-500.3056315293
 20
110.7113991997
 30
0.0
 11
-500.3056315293
 21
109.7113991997
 31
0.0
  0
LINE
  5
666
330
1F
100
AcDbEntity
  8
0
100
AcDbLine
 10
-500.3056315293
 20
122.7113991997
 30
0.0
 11
-500.3056315293
 21
110.7113991997
 31
0.0
  0
ARC
  5
667
330
1F
100
AcDbEntity
  8
0
100
AcDbCircle
 10
-495.3056315293
 20
122.7113991997
 30
0.0
 40
4.999999999999986
100
AcDbArc
 50
90.0
 51
180.0
  0
LINE
  5
668
330
1F
100
AcDbEntity
  8
0
100
AcDbLine
 10
-425.3056315293
 20
127.7113991997
 30
0.0
 11
-495.3056315293
 21
127.7113991997
 31
0.0
  0
ARC
  5
669
330
1F
100
AcDbEntity
  8
0
100
AcDbCircle
 10
-425.3056315293
 20
122.7113991997
 30
0.0
 40
4.999999999999943
100
AcDbArc
 50
0.0
 51
90.0
  0
LINE
  5
66A
330
1F
100
AcDbEntity
  8
0
100
AcDbLine
 10
-420.3056315293
 20
122.7113991997
 30
0.0
 11
-420.3056315293
 21
110.7113991997
 31
0.0
  0
CIRCLE
  5
673
330
1F
100
AcDbEntity
  8
0
100
AcDbCircle
 10
-572.3056315293
 20
242.1613991997
 30
0.0
 40
97.5
  0
CIRCLE
  5
674
330
1F
100
AcDbEntity
  8
0
100
AcDbCircle
 10
-572.3056315293
 20
242.1613991997
 30
0.0
 40
100.0
  0
CIRCLE
  5
676
330
1F
100
AcDbEntity
  8
0
100
AcDbCircle
 10
-572.3056315293
 20
242.1613991997
 30
0.0
 40
97.00000000000001
  0
LINE
  5
67B
330
1F
100
AcDbEntity
  8
0
100
AcDbLine
 10
-829.4056315293
 20
354.4113991997
 30
0.0
 11
-826.8520242538
 21
354.4113991997
 31
0.0
  0
LINE
  5
67D
330
1F
100
AcDbEntity
  8
0
100
AcDbLine
 10
-782.8901069512
 20
354.5113991997
 30
0.0
 11
-555.8962489014
 21
354.5113991997
 31
0.0
  0
LINE
  5
67E
330
1F
100
AcDbEntity
  8
0
100
AcDbLine
 10
-555.8962489014
 20
354.5113991997
 30
0.0
 11
-501.7056315293
 21
354.5113991997
 31
0.0
  0
LINE
  5
682
330
1F
100
AcDbEntity
  8
0
100
AcDbLine
 10
-830.3056315293
 20
354.0113991997
 30
0.0
 11
-830.3056315293
 21
122.7113991997
 31
0.0
  0
LINE
  5
683
330
1F
100
AcDbEntity
  8
0
100
AcDbLine
 10
-829.1056315293
 20
354.5113991997
 30
0.0
 11
-784.1056315293
 21
354.5113991997
 31
0.0
  0
LINE
  5
684
330
1F
100
AcDbEntity
  8
0
100
AcDbLine
 10
-829.1056315293
 20
355.2113991997
 30
0.0
 11
-784.1056315293
 21
355.2113991997
 31
0.0
  0
ARC
  5
685
330
1F
100
AcDbEntity
  8
0
100
AcDbCircle
 10
-829.1056315293
 20
354.0113991997
 30
0.0
 40
1.200000000000159
100
AcDbArc
 50
90.0
 51
180.0
  0
ARC
  5
686
330
1F
100
AcDbEntity
  8
0
100
AcDbCircle
 10
-829.1056315293
 20
354.0113991997
 30
0.0
 40
0.5000000000001137
100
AcDbArc
 50
90.0
 51
180.0
  0
LINE
  5
687
330
1F
100
AcDbEntity
  8
0
100
AcDbLine
 10
-779.1056315293
 20
355.2113991997
 30
0.0
 11
-779.1056315293
 21
354.5113991997
 31
0.0
  0
LINE
  5
688
330
1F
100
AcDbEntity
  8
0
100
AcDbLine
 10
-782.8901069512
 20
354.5113991997
 30
0.0
 11
-784.1056315293
 21
354.5113991997
 31
0.0
  0
LINE
  5
689
330
1F
100
AcDbEntity
  8
0
100
AcDbLine
 10
-784.1056315293
 20
355.2113991997
 30
0.0
 11
-779.1056315293
 21
355.2113991997
 31
0.0
  0
LINE
  5
68B
330
1F
100
AcDbEntity
  8
0
100
AcDbLine
 10
-420.3056315293
 20
122.7113991997
 30
0.0
 11
-420.3056315293
 21
354.0113991997
 31
0.0
  0
LINE
  5
68C
330
1F
100
AcDbEntity
  8
0
100
AcDbLine
 10
-420.4127383105
 20
354.0113991997
 30
0.0
 11
-420.3056315293
 21
354.0113991997
 31
0.0
  0
ARC
  5
68D
330
1F
100
AcDbEntity
  8
0
100
AcDbCircle
 10
-421.5056315293
 20
354.0113991997
 30
0.0
 40
1.199999999999999
100
AcDbArc
 50
0.0
 51
24.391581448
  0
LINE
  5
68F
330
1F
100
AcDbEntity
  8
0
100
AcDbLine
 10
-750.3056315293
 20
109.2113991997
 30
0.0
 11
-500.3056315293
 21
109.2113991997
 31
0.0
  0
LINE
  5
6B3
330
1F
100
AcDbEntity
  8
0
100
AcDbLine
 10
389.2779842394
 20
143.9613991997
 30
0.0
 11
395.4377452916
 21
142.9613991997
 31
0.0
  0
LINE
  5
6B4
330
1F
100
AcDbEntity
  8
0
100
AcDbLine
 10
389.2779842394
 20
143.9613991997
 30
0.0
 11
389.2779842394
 21
264.5113991997
 31
0.0
  0
LINE
  5
6B5
330
1F
100
AcDbEntity
  8
0
100
AcDbLine
 10
-50.1626697848
 20
341.3613991997
 30
0.0
 11
-44.0029087326
 21
340.3613991997
 31
0.0
  0
LINE
  5
6B6
330
1F
100
AcDbEntity
  8
0
100
AcDbLine
 10
-44.0029087326
 20
340.3613991997
 30
0.0
 11
-44.0029087326
 21
143.9613991997
 31
0.0
  0
LINE
  5
6B7
330
1F
100
AcDbEntity
  8
0
100
AcDbLine
 10
-44.0029087326
 20
143.9613991997
 30
0.0
 11
-50.1626697848
 21
142.9613991997
 31
0.0
  0
LINE
  5
6B8
330
1F
100
AcDbEntity
  8
0
100
AcDbLine
 10
-50.1626697848
 20
-115.286731878
 30
0.0
 11
-44.0029087326
 21
-116.286731878
 31
0.0
  0
LINE
  5
6B9
330
1F
100
AcDbEntity
  8
0
100
AcDbLine
 10
-44.0029087326
 20
-116.286731878
 30
0.0
 11
-44.0029087326
 21
-312.686731878
 31
0.0
  0
LINE
  5
6BA
330
1F
100
AcDbEntity
  8
0
100
AcDbLine
 10
-44.0029087326
 20
-312.686731878
 30
0.0
 11
-50.1626697848
 21
-313.686731878
 31
0.0
  0
LINE
  5
6BB
330
1F
100
AcDbEntity
  8
0
100
AcDbLine
 10
395.4377452916
 20
-313.686731878
 30
0.0
 11
389.2779842394
 21
-312.686731878
 31
0.0
  0
LINE
  5
6BC
330
1F
100
AcDbEntity
  8
0
100
AcDbLine
 10
389.2779842394
 20
-312.686731878
 30
0.0
 11
389.2779842394
 21
-116.286731878
 31
0.0
  0
LINE
  5
6BD
330
1F
100
AcDbEntity
  8
0
100
AcDbLine
 10
389.2779842394
 20
-116.286731878
 30
0.0
 11
395.4377452916
 21
-115.286731878
 31
0.0
  0
INSERT
  5
6FF
330
1F
100
AcDbEntity
  8
LENKIMO
  6
CENTERX2
100
AcDbBlockReference
  2
*U3
 10
-1061.509878474877
 20
-442.2196026042357
 30
0.0
 41
0.6
 42
0.6
 43
0.6
  0
INSERT
  5
700
330
1F
100
AcDbEntity
  8
LENKIMO
  6
CENTERX2
100
AcDbBlockReference
  2
*U4
 10
422.5398227338931
 20
-629.2885772454445
 30
0.0
 41
0.6
 42
0.6
 43
0.6
  0
LINE
  5
701
330
1F
100
AcDbEntity
  8
0
100
AcDbLine
 10
641.9989325734932
 20
-118.2363439959699
 30
0.0
 11
641.9989325734932
 21
-158.2363439959705
 31
0.0
  0
LINE
  5
702
330
1F
100
AcDbEntity
  8
0
100
AcDbLine
 10
741.9989325734932
 20
-198.2363439959705
 30
0.0
 11
641.9989325734932
 21
-278.2363439959699
 31
0.0
  0
LINE
  5
703
330
1F
100
AcDbEntity
  8
0
100
AcDbLine
 10
741.9989325734932
 20
-198.2363439959705
 30
0.0
 11
641.9989325734932
 21
-118.2363439959699
 31
0.0
  0
LINE
  5
704
330
1F
100
AcDbEntity
  8
0
100
AcDbLine
 10
641.9989325734932
 20
-238.2363439959699
 30
0.0
 11
541.9989325734934
 21
-238.2363439959699
 31
0.0
  0
LINE
  5
705
330
1F
100
AcDbEntity
  8
0
100
AcDbLine
 10
641.9989325734932
 20
-158.2363439959705
 30
0.0
 11
541.9989325734934
 21
-158.2363439959705
 31
0.0
  0
LINE
  5
706
330
1F
100
AcDbEntity
  8
0
100
AcDbLine
 10
641.9989325734932
 20
-238.2363439959699
 30
0.0
 11
641.9989325734932
 21
-278.2363439959699
 31
0.0
  0
LINE
  5
707
330
1F
100
AcDbEntity
  8
0
100
AcDbLine
 10
541.9989325734934
 20
-158.2363439959705
 30
0.0
 11
541.9989325734934
 21
-238.2363439959699
 31
0.0
  0
MTEXT
  5
708
330
1F
100
AcDbEntity
  8
0
100
AcDbMText
 10
558.3172823655543
 20
-182.1887956492848
 30
0.0
 40
35.0
 41
20.96613465302437
 46
35.595
 71
     1
 72
     5
  1
{SUP}
 73
     1
 44
1.0
1001
ACAD
1000
ACAD_MTEXT_DEFINED_HEIGHT_BEGIN
1070
    46
1040
35.595
1000
ACAD_MTEXT_DEFINED_HEIGHT_END
  0
LINE
  5
709
330
1F
100
AcDbEntity
  8
0
100
AcDbLine
 10
-303.8036757008095
 20
-119.7015552720086
 30
0.0
 11
-303.8036757008095
 21
-159.7015552720086
 31
0.0
  0
LINE
  5
70A
330
1F
100
AcDbEntity
  8
0
100
AcDbLine
 10
-203.8036757008106
 20
-199.7015552720085
 30
0.0
 11
-303.8036757008095
 21
-279.7015552720086
 31
0.0
  0
LINE
  5
70B
330
1F
100
AcDbEntity
  8
0
100
AcDbLine
 10
-203.8036757008106
 20
-199.7015552720085
 30
0.0
 11
-303.8036757008095
 21
-119.7015552720086
 31
0.0
  0
LINE
  5
70C
330
1F
100
AcDbEntity
  8
0
100
AcDbLine
 10
-303.8036757008095
 20
-239.7015552720086
 30
0.0
 11
-403.8036757008095
 21
-239.7015552720086
 31
0.0
  0
LINE
  5
70D
330
1F
100
AcDbEntity
  8
0
100
AcDbLine
 10
-303.8036757008095
 20
-159.7015552720086
 30
0.0
 11
-403.8036757008095
 21
-159.7015552720086
 31
0.0
  0
LINE
  5
70E
330
1F
100
AcDbEntity
  8
0
100
AcDbLine
 10
-303.8036757008095
 20
-239.7015552720086
 30
0.0
 11
-303.8036757008095
 21
-279.7015552720086
 31
0.0
  0
LINE
  5
70F
330
1F
100
AcDbEntity
  8
0
100
AcDbLine
 10
-403.8036757008095
 20
-159.7015552720086
 30
0.0
 11
-403.8036757008095
 21
-239.7015552720086
 31
0.0
  0
MTEXT
  5
710
330
1F
100
AcDbEntity
  8
0
100
AcDbMText
 10
-381.4765332199037
 20
-178.9540201734092
 30
0.0
 40
35.0
 41
20.96613465302437
 46
35.595
 71
     1
 72
     5
  1
{ODA}
 73
     1
 44
1.0
1001
ACAD
1000
ACAD_MTEXT_DEFINED_HEIGHT_BEGIN
1070
    46
1040
35.595
1000
ACAD_MTEXT_DEFINED_HEIGHT_END
  0
INSERT
  5
711
330
1F
100
AcDbEntity
  8
LENKIMO
  6
CENTERX2
100
AcDbBlockReference
  2
*U5
 10
-977.5990259816679
 20
-1655.906185987595
 30
0.0
  0
INSERT
  5
712
330
1F
100
AcDbEntity
  8
LENKIMO
  6
CENTERX2
100
AcDbBlockReference
  2
*U3
 10
-366.5806680607331
 20
-1352.345100213177
 30
0.0
  0
ENDSEC
  0
SECTION
  2
OBJECTS
  0
DICTIONARY
  5
C
330
0
100
AcDbDictionary
281
     1
  3
ACAD_DETAILVIEWSTYLE
350
6C9
  3
ACAD_GROUP
350
D
  3
ACAD_LAYOUT
350
1A
  3
ACAD_MATERIAL
350
6AA
  3
ACAD_MLEADERSTYLE
350
6B0
  3
ACAD_MLINESTYLE
350
17
  3
ACAD_PLOTSETTINGS
350
19
  3
ACAD_PLOTSTYLENAME
350
E
  3
ACAD_SCALELIST
350
47
  3
ACAD_SECTIONVIEWSTYLE
350
6CA
  3
ACAD_TABLESTYLE
350
6AE
  3
ACAD_VISUALSTYLE
350
691
  3
ACDB_RECOMPOSE_DATA
350
71A
  3
AcDbVariableDictionary
350
6C0
  3
APPDATA
350
6B2
  0
DICTIONARY
  5
6BE
330
1F
100
AcDbDictionary
280
     1
281
     1
  3
DIM_BOUNDING_BOXES_V1
360
6BF
  0
DICTIONARY
  5
6C9
102
{ACAD_REACTORS
330
C
102
}
330
C
100
AcDbDictionary
281
     1
  0
DICTIONARY
  5
D
102
{ACAD_REACTORS
330
C
102
}
330
C
100
AcDbDictionary
281
     1
  0
DICTIONARY
  5
1A
102
{ACAD_REACTORS
330
C
102
}
330
C
100
AcDbDictionary
281
     1
  3
Layout1
350
1E
  3
Layout2
350
26
  3
Model
350
22
  0
DICTIONARY
  5
6AA
102
{ACAD_REACTORS
330
C
102
}
330
C
100
AcDbDictionary
281
     1
  3
ByBlock
350
6AC
  3
ByLayer
350
6AB
  3
Global
350
6AD
  0
DICTIONARY
  5
6B0
102
{ACAD_REACTORS
330
C
102
}
330
C
100
AcDbDictionary
281
     1
  3
Standard
350
6B1
  0
DICTIONARY
  5
17
102
{ACAD_REACTORS
330
C
102
}
330
C
100
AcDbDictionary
281
     1
  3
Standard
350
18
  0
DICTIONARY
  5
19
102
{ACAD_REACTORS
330
C
102
}
330
C
100
AcDbDictionary
281
     1
  0
ACDBDICTIONARYWDFLT
  5
E
102
{ACAD_REACTORS
330
C
102
}
330
C
100
AcDbDictionary
281
     1
  3
Normal
350
F
100
AcDbDictionaryWithDefault
340
F
  0
DICTIONARY
  5
47
102
{ACAD_REACTORS
330
C
102
}
330
C
100
AcDbDictionary
281
     1
  3
A0
350
48
  3
A1
350
49
  3
A2
350
4A
  3
A3
350
4B
  3
A4
350
4C
  3
A5
350
4D
  3
A6
350
4E
  3
A7
350
4F
  3
A8
350
50
  3
A9
350
51
  3
B0
350
52
  3
B1
350
53
  3
B2
350
54
  3
B3
350
55
  3
B4
350
56
  3
B5
350
57
  3
B6
350
58
  3
B7
350
59
  3
B8
350
5A
  3
B9
350
5B
  3
C0
350
5C
  3
C1
350
5D
  3
C2
350
5E
  3
C3
350
5F
  3
C4
350
60
  3
C5
350
61
  3
C6
350
62
  3
C7
350
63
  3
C8
350
64
  3
C9
350
65
  3
D0
350
66
  3
D1
350
67
  3
D2
350
68
  0
DICTIONARY
  5
6CA
102
{ACAD_REACTORS
330
C
102
}
330
C
100
AcDbDictionary
281
     1
  0
DICTIONARY
  5
6AE
102
{ACAD_REACTORS
330
C
102
}
330
C
100
AcDbDictionary
281
     1
  3
Standard
350
6AF
  0
DICTIONARY
  5
691
102
{ACAD_REACTORS
330
C
102
}
330
C
100
AcDbDictionary
281
     1
  3
2dWireframe
350
696
  3
Basic
350
699
  3
Brighten
350
69D
  3
ColorChange
350
6A1
  3
Conceptual
350
69B
  3
Dim
350
69C
  3
EdgeColorOff
350
6A4
  3
Facepattern
350
6A0
  3
Flat
350
692
  3
FlatWithEdges
350
693
  3
Gouraud
350
694
  3
GouraudWithEdges
350
695
  3
Hidden
350
698
  3
JitterOff
350
6A2
  3
Linepattern
350
69F
  3
OverhangOff
350
6A3
  3
Realistic
350
69A
  3
Shaded
350
6A9
  3
Shaded with edges
350
6A8
  3
Shades of Gray
350
6A5
  3
Sketchy
350
6A6
  3
Thicken
350
69E
  3
Wireframe
350
697
  3
X-Ray
350
6A7
  0
XRECORD
  5
71A
102
{ACAD_REACTORS
330
C
102
}
330
C
100
AcDbXrecord
280
     1
 90
        1
330
6AF
  0
DICTIONARY
  5
6C0
102
{ACAD_REACTORS
330
C
102
}
330
C
100
AcDbDictionary
281
     1
  3
CANNOSCALE
350
6C1
  3
CMLEADERSTYLE
350
6C7
  3
CTABLESTYLE
350
6C6
  3
MSLTSCALE
350
6C8
  0
DICTIONARY
  5
6B2
102
{ACAD_REACTORS
330
C
102
}
330
C
100
AcDbDictionary
281
     1
  0
DICTIONARY
  5
6BF
102
{ACAD_REACTORS
330
6BE
102
}
330
6BE
100
AcDbDictionary
281
     1
  0
LAYOUT
  5
1E
102
{ACAD_REACTORS
330
1A
102
}
330
1A
100
AcDbPlotSettings
  1

  2
none_device
  4

  6

 40
0.0
 41
0.0
 42
0.0
 43
0.0
 44
0.0
 45
0.0
 46
0.0
 47
0.0
 48
0.0
 49
0.0
140
0.0
141
0.0
142
1.0
143
1.0
 70
   688
 72
     1
 73
     0
 74
     5
  7

 75
    16
 76
     0
 77
     2
 78
   300
147
1.0
148
0.0
149
0.0
100
AcDbLayout
  1
Layout1
 70
     1
 71
     1
 10
0.0
 20
0.0
 11
420.0
 21
297.0
 12
0.0
 22
0.0
 32
0.0
 14
1.000000000000000E+20
 24
1.000000000000000E+20
 34
1.000000000000000E+20
 15
-1.000000000000000E+20
 25
-1.000000000000000E+20
 35
-1.000000000000000E+20
146
0.0
 13
0.0
 23
0.0
 33
0.0
 16
1.0
 26
0.0
 36
0.0
 17
0.0
 27
1.0
 37
0.0
 76
     0
330
1B
  0
LAYOUT
  5
26
102
{ACAD_REACTORS
330
1A
102
}
330
1A
100
AcDbPlotSettings
  1

  2
none_device
  4

  6

 40
0.0
 41
0.0
 42
0.0
 43
0.0
 44
0.0
 45
0.0
 46
0.0
 47
0.0
 48
0.0
 49
0.0
140
0.0
141
0.0
142
1.0
143
1.0
 70
   688
 72
     1
 73
     0
 74
     5
  7

 75
    16
 76
     0
 77
     2
 78
   300
147
1.0
148
0.0
149
0.0
100
AcDbLayout
  1
Layout2
 70
     1
 71
     2
 10
0.0
 20
0.0
 11
0.0
 21
0.0
 12
0.0
 22
0.0
 32
0.0
 14
0.0
 24
0.0
 34
0.0
 15
0.0
 25
0.0
 35
0.0
146
0.0
 13
0.0
 23
0.0
 33
0.0
 16
1.0
 26
0.0
 36
0.0
 17
0.0
 27
1.0
 37
0.0
 76
     0
330
23
  0
LAYOUT
  5
22
102
{ACAD_REACTORS
330
1A
102
}
330
1A
100
AcDbPlotSettings
  1

  2
none_device
  4
Letter_(8.50_x_11.00_Inches)
  6

 40
6.35
 41
6.35
 42
6.35000508
 43
6.35000508
 44
215.9
 45
279.4
 46
0.0
 47
0.0
 48
0.0
 49
0.0
140
0.0
141
0.0
142
1.0
143
1.0
 70
  1712
 72
     1
 73
     0
 74
     0
  7

 75
     0
 76
     0
 77
     2
 78
   300
147
1.0
148
0.0
149
0.0
100
AcDbLayout
  1
Model
 70
     1
 71
     0
 10
0.0
 20
0.0
 11
420.0
 21
297.0
 12
0.0
 22
0.0
 32
0.0
 14
-830.305631562966
 24
-472.4867318781
 34
0.0
 15
1182.284702786184
 25
412.7313991997
 35
0.0
146
0.0
 13
0.0
 23
0.0
 33
0.0
 16
1.0
 26
0.0
 36
0.0
 17
0.0
 27
1.0
 37
0.0
 76
     0
330
1F
331
29
  0
MATERIAL
  5
6AC
102
{ACAD_REACTORS
330
6AA
102
}
330
6AA
100
AcDbMaterial
  1
ByBlock
 72
     1
 94
      127
  0
MATERIAL
  5
6AB
102
{ACAD_REACTORS
330
6AA
102
}
330
6AA
100
AcDbMaterial
  1
ByLayer
 72
     1
 94
      127
  0
MATERIAL
  5
6AD
102
{ACAD_REACTORS
330
6AA
102
}
330
6AA
100
AcDbMaterial
  1
Global
 72
     1
 94
      127
  0
MLEADERSTYLE
  5
6B1
102
{ACAD_REACTORS
330
6B0
102
}
330
6B0
100
AcDbMLeaderStyle
170
     2
171
     1
172
     0
 90
        2
 40
0.0
 41
0.0
173
     1
 91
-1056964608
340
14
 92
       -2
290
     1
 42
2.0
291
     1
 43
8.0
  3
Standard
341
0
 44
4.0
300

342
11
174
     1
178
     1
175
     1
176
     0
 93
-1056964608
 45
4.0
292
     0
297
     0
 46
4.0
343
0
 94
-1056964608
 47
1.0
 49
1.0
140
1.0
293
     1
141
0.0
294
     1
177
     0
142
1.0
295
     0
296
     0
143
3.75
1001
ACAD_MLEADERVER
1070
     2
  0
MLINESTYLE
  5
18
102
{ACAD_REACTORS
330
17
102
}
330
17
100
AcDbMlineStyle
  2
Standard
 70
     0
  3

 62
   256
 51
90.0
 52
90.0
 71
     2
 49
0.5
 62
   256
  6
BYLAYER
 49
-0.5
 62
   256
  6
BYLAYER
  0
ACDBPLACEHOLDER
  5
F
102
{ACAD_REACTORS
330
E
102
}
330
E
  0
SCALE
  5
48
102
{ACAD_REACTORS
330
47
102
}
330
47
100
AcDbScale
 70
     0
300
1:1
140
1.0
141
1.0
290
     1
  0
SCALE
  5
49
102
{ACAD_REACTORS
330
47
102
}
330
47
100
AcDbScale
 70
     0
300
1:2
140
1.0
141
2.0
290
     0
  0
SCALE
  5
4A
102
{ACAD_REACTORS
330
47
102
}
330
47
100
AcDbScale
 70
     0
300
1:4
140
1.0
141
4.0
290
     0
  0
SCALE
  5
4B
102
{ACAD_REACTORS
330
47
102
}
330
47
100
AcDbScale
 70
     0
300
1:5
140
1.0
141
5.0
290
     0
  0
SCALE
  5
4C
102
{ACAD_REACTORS
330
47
102
}
330
47
100
AcDbScale
 70
     0
300
1:8
140
1.0
141
8.0
290
     0
  0
SCALE
  5
4D
102
{ACAD_REACTORS
330
47
102
}
330
47
100
AcDbScale
 70
     0
300
1:10
140
1.0
141
10.0
290
     0
  0
SCALE
  5
4E
102
{ACAD_REACTORS
330
47
102
}
330
47
100
AcDbScale
 70
     0
300
1:16
140
1.0
141
16.0
290
     0
  0
SCALE
  5
4F
102
{ACAD_REACTORS
330
47
102
}
330
47
100
AcDbScale
 70
     0
300
1:20
140
1.0
141
20.0
290
     0
  0
SCALE
  5
50
102
{ACAD_REACTORS
330
47
102
}
330
47
100
AcDbScale
 70
     0
300
1:30
140
1.0
141
30.0
290
     0
  0
SCALE
  5
51
102
{ACAD_REACTORS
330
47
102
}
330
47
100
AcDbScale
 70
     0
300
1:40
140
1.0
141
40.0
290
     0
  0
SCALE
  5
52
102
{ACAD_REACTORS
330
47
102
}
330
47
100
AcDbScale
 70
     0
300
1:50
140
1.0
141
50.0
290
     0
  0
SCALE
  5
53
102
{ACAD_REACTORS
330
47
102
}
330
47
100
AcDbScale
 70
     0
300
1:100
140
1.0
141
100.0
290
     0
  0
SCALE
  5
54
102
{ACAD_REACTORS
330
47
102
}
330
47
100
AcDbScale
 70
     0
300
2:1
140
2.0
141
1.0
290
     0
  0
SCALE
  5
55
102
{ACAD_REACTORS
330
47
102
}
330
47
100
AcDbScale
 70
     0
300
4:1
140
4.0
141
1.0
290
     0
  0
SCALE
  5
56
102
{ACAD_REACTORS
330
47
102
}
330
47
100
AcDbScale
 70
     0
300
8:1
140
8.0
141
1.0
290
     0
  0
SCALE
  5
57
102
{ACAD_REACTORS
330
47
102
}
330
47
100
AcDbScale
 70
     0
300
10:1
140
10.0
141
1.0
290
     0
  0
SCALE
  5
58
102
{ACAD_REACTORS
330
47
102
}
330
47
100
AcDbScale
 70
     0
300
100:1
140
100.0
141
1.0
290
     0
  0
SCALE
  5
59
102
{ACAD_REACTORS
330
47
102
}
330
47
100
AcDbScale
 70
     0
300
1/128" = 1'-0"
140
0.0078125
141
12.0
290
     0
  0
SCALE
  5
5A
102
{ACAD_REACTORS
330
47
102
}
330
47
100
AcDbScale
 70
     0
300
1/64" = 1'-0"
140
0.015625
141
12.0
290
     0
  0
SCALE
  5
5B
102
{ACAD_REACTORS
330
47
102
}
330
47
100
AcDbScale
 70
     0
300
1/32" = 1'-0"
140
0.03125
141
12.0
290
     0
  0
SCALE
  5
5C
102
{ACAD_REACTORS
330
47
102
}
330
47
100
AcDbScale
 70
     0
300
1/16" = 1'-0"
140
0.0625
141
12.0
290
     0
  0
SCALE
  5
5D
102
{ACAD_REACTORS
330
47
102
}
330
47
100
AcDbScale
 70
     0
300
3/32" = 1'-0"
140
0.09375
141
12.0
290
     0
  0
SCALE
  5
5E
102
{ACAD_REACTORS
330
47
102
}
330
47
100
AcDbScale
 70
     0
300
1/8" = 1'-0"
140
0.125
141
12.0
290
     0
  0
SCALE
  5
5F
102
{ACAD_REACTORS
330
47
102
}
330
47
100
AcDbScale
 70
     0
300
3/16" = 1'-0"
140
0.1875
141
12.0
290
     0
  0
SCALE
  5
60
102
{ACAD_REACTORS
330
47
102
}
330
47
100
AcDbScale
 70
     0
300
1/4" = 1'-0"
140
0.25
141
12.0
290
     0
  0
SCALE
  5
61
102
{ACAD_REACTORS
330
47
102
}
330
47
100
AcDbScale
 70
     0
300
3/8" = 1'-0"
140
0.375
141
12.0
290
     0
  0
SCALE
  5
62
102
{ACAD_REACTORS
330
47
102
}
330
47
100
AcDbScale
 70
     0
300
1/2" = 1'-0"
140
0.5
141
12.0
290
     0
  0
SCALE
  5
63
102
{ACAD_REACTORS
330
47
102
}
330
47
100
AcDbScale
 70
     0
300
3/4" = 1'-0"
140
0.75
141
12.0
290
     0
  0
SCALE
  5
64
102
{ACAD_REACTORS
330
47
102
}
330
47
100
AcDbScale
 70
     0
300
1" = 1'-0"
140
1.0
141
12.0
290
     0
  0
SCALE
  5
65
102
{ACAD_REACTORS
330
47
102
}
330
47
100
AcDbScale
 70
     0
300
1-1/2" = 1'-0"
140
1.5
141
12.0
290
     0
  0
SCALE
  5
66
102
{ACAD_REACTORS
330
47
102
}
330
47
100
AcDbScale
 70
     0
300
3" = 1'-0"
140
3.0
141
12.0
290
     0
  0
SCALE
  5
67
102
{ACAD_REACTORS
330
47
102
}
330
47
100
AcDbScale
 70
     0
300
6" = 1'-0"
140
6.0
141
12.0
290
     0
  0
SCALE
  5
68
102
{ACAD_REACTORS
330
47
102
}
330
47
100
AcDbScale
 70
     0
300
1'-0" = 1'-0"
140
12.0
141
12.0
290
     0
  0
TABLESTYLE
  5
6AF
102
{ACAD_REACTORS
330
6AE
102
}
102
{ACAD_XDICTIONARY
360
717
102
}
330
6AE
100
AcDbTableStyle
  3
Standard
 70
     0
 71
     0
 40
0.06
 41
0.06
280
     0
281
     0
  7
Standard
140
4.5
170
     2
 62
     0
 63
   257
283
     0
 90
        4
 91
        0
  1

274
    -2
284
     1
 64
     0
275
    -2
285
     1
 65
     0
276
    -2
286
     1
 66
     0
277
    -2
287
     1
 67
     0
278
    -2
288
     1
 68
     0
279
    -2
289
     1
 69
     0
  7
Standard
140
6.0
170
     5
 62
     0
 63
   257
283
     0
 90
        4
 91
        0
  1

274
    -2
284
     1
 64
     0
275
    -2
285
     1
 65
     0
276
    -2
286
     1
 66
     0
277
    -2
287
     1
 67
     0
278
    -2
288
     1
 68
     0
279
    -2
289
     1
 69
     0
  7
Standard
140
4.5
170
     5
 62
     0
 63
   257
283
     0
 90
        4
 91
        0
  1

274
    -2
284
     1
 64
     0
275
    -2
285
     1
 65
     0
276
    -2
286
     1
 66
     0
277
    -2
287
     1
 67
     0
278
    -2
288
     1
 68
     0
279
    -2
289
     1
 69
     0
  0
VISUALSTYLE
  5
696
102
{ACAD_REACTORS
330
691
102
}
330
691
100
AcDbVisualStyle
  2
2dWireframe
 70
     4
 71
     0
 72
     2
 73
     0
 90
        0
 40
0.6
 41
30.0
 62
     5
 63
     7
421
 16777215
 74
     1
 91
        4
 64
     7
 65
   257
 75
     1
175
     1
 42
1.0
 92
        0
 66
   257
 43
1.0
 76
     1
 77
     6
 78
     2
 67
     7
 79
     5
170
     0
171
     0
290
     0
174
     0
 93
        1
 44
0.0
173
     0
291
     0
 45
0.0
  0
VISUALSTYLE
  5
699
102
{ACAD_REACTORS
330
691
102
}
330
691
100
AcDbVisualStyle
  2
Basic
 70
     7
 71
     1
 72
     0
 73
     1
 90
        0
 40
0.6
 41
30.0
 62
     5
 63
     7
421
 16777215
 74
     0
 91
        4
 64
     7
 65
   257
 75
     1
175
     1
 42
1.0
 92
        8
 66
     7
 43
1.0
 76
     1
 77
     6
 78
     2
 67
     7
 79
     5
170
     0
171
     0
290
     0
174
     0
 93
        1
 44
0.0
173
     0
291
     1
 45
0.0
  0
VISUALSTYLE
  5
69D
102
{ACAD_REACTORS
330
691
102
}
330
691
100
AcDbVisualStyle
  2
Brighten
 70
    12
 71
     2
 72
     2
 73
     0
 90
        0
 40
0.6
 41
30.0
 62
     5
 63
     7
421
 16777215
 74
     1
 91
        4
 64
     7
 65
   257
 75
     1
175
     1
 42
1.0
 92
        8
 66
     7
 43
1.0
 76
     1
 77
     6
 78
     2
 67
     7
 79
     5
170
     0
171
     0
290
     0
174
     0
 93
        1
 44
50.0
173
     0
291
     1
 45
0.0
  0
VISUALSTYLE
  5
6A1
102
{ACAD_REACTORS
330
691
102
}
330
691
100
AcDbVisualStyle
  2
ColorChange
 70
    16
 71
     2
 72
     2
 73
     3
 90
        0
 40
0.6
 41
30.0
 62
     5
 63
     8
421
  8421504
 74
     1
 91
        4
 64
     7
 65
   257
 75
     1
175
     1
 42
1.0
 92
        8
 66
     8
424
  8421504
 43
1.0
 76
     1
 77
     6
 78
     2
 67
     7
 79
     5
170
     0
171
     0
290
     0
174
     0
 93
        1
 44
0.0
173
     0
291
     1
 45
0.0
  0
VISUALSTYLE
  5
69B
102
{ACAD_REACTORS
330
691
102
}
330
691
100
AcDbVisualStyle
  2
Conceptual
 70
     9
 71
     3
 72
     2
 73
     0
 90
        0
 40
0.6
 41
30.0
 62
     5
 63
     7
421
 16777215
 74
     2
 91
        2
 64
     7
 65
   257
 75
     1
175
     1
 42
179.0
 92
        8
 66
     7
 43
1.0
 76
     1
 77
     6
 78
     2
 67
     7
 79
     3
170
     0
171
     0
290
     0
174
     0
 93
        1
 44
0.0
173
     0
291
     0
 45
0.0
  0
VISUALSTYLE
  5
69C
102
{ACAD_REACTORS
330
691
102
}
330
691
100
AcDbVisualStyle
  2
Dim
 70
    11
 71
     2
 72
     2
 73
     0
 90
        0
 40
0.6
 41
30.0
 62
     5
 63
     7
421
 16777215
 74
     1
 91
        4
 64
     7
 65
   257
 75
     1
175
     1
 42
1.0
 92
        8
 66
     7
 43
1.0
 76
     1
 77
     6
 78
     2
 67
     7
 79
     5
170
     0
171
     0
290
     0
174
     0
 93
        1
 44
-50.0
173
     0
291
     1
 45
0.0
  0
VISUALSTYLE
  5
6A4
102
{ACAD_REACTORS
330
691
102
}
330
691
100
AcDbVisualStyle
  2
EdgeColorOff
 70
    22
 71
     2
 72
     2
 73
     0
 90
        0
 40
0.6
 41
30.0
 62
     5
 63
     7
421
 16777215
 74
     1
 91
        4
 64
     7
 65
   257
 75
     1
175
     1
 42
1.0
 92
        8
 66
     7
 43
1.0
 76
     1
 77
     6
 78
     2
 67
     7
 79
     5
170
     0
171
     0
290
     0
174
     0
 93
        1
 44
0.0
173
     0
291
     1
 45
0.0
  0
VISUALSTYLE
  5
6A0
102
{ACAD_REACTORS
330
691
102
}
330
691
100
AcDbVisualStyle
  2
Facepattern
 70
    15
 71
     2
 72
     2
 73
     0
 90
        0
 40
0.6
 41
30.0
 62
     5
 63
     7
421
 16777215
 74
     1
 91
        4
 64
     7
 65
   257
 75
     1
175
     1
 42
1.0
 92
        8
 66
     7
 43
1.0
 76
     1
 77
     6
 78
     2
 67
     7
 79
     5
170
     0
171
     0
290
     0
174
     0
 93
        1
 44
0.0
173
     0
291
     1
 45
0.0
  0
VISUALSTYLE
  5
692
102
{ACAD_REACTORS
330
691
102
}
330
691
100
AcDbVisualStyle
  2
Flat
 70
     0
 71
     2
 72
     1
 73
     1
 90
        2
 40
0.6
 41
30.0
 62
     5
 63
     7
421
 16777215
 74
     0
 91
        0
 64
     7
 65
   257
 75
     1
175
     1
 42
1.0
 92
        8
 66
     7
 43
1.0
 76
     1
 77
     6
 78
     2
 67
     7
 79
     5
170
     0
171
     0
290
     0
174
     0
 93
       13
 44
0.0
173
     0
291
     1
 45
0.0
  0
VISUALSTYLE
  5
693
102
{ACAD_REACTORS
330
691
102
}
330
691
100
AcDbVisualStyle
  2
FlatWithEdges
 70
     1
 71
     2
 72
     1
 73
     1
 90
        2
 40
0.6
 41
30.0
 62
     5
 63
     7
421
 16777215
 74
     1
 91
        0
 64
     7
 65
   257
 75
     1
175
     1
 42
1.0
 92
        0
 66
   257
 43
1.0
 76
     1
 77
     6
 78
     2
 67
     7
 79
     5
170
     0
171
     0
290
     0
174
     0
 93
       13
 44
0.0
173
     0
291
     1
 45
0.0
  0
VISUALSTYLE
  5
694
102
{ACAD_REACTORS
330
691
102
}
330
691
100
AcDbVisualStyle
  2
Gouraud
 70
     2
 71
     2
 72
     2
 73
     1
 90
        2
 40
0.6
 41
30.0
 62
     5
 63
     7
421
 16777215
 74
     0
 91
        0
 64
     7
 65
   257
 75
     1
175
     1
 42
1.0
 92
        0
 66
     7
 43
1.0
 76
     1
 77
     6
 78
     2
 67
     7
 79
     5
170
     0
171
     0
290
     0
174
     0
 93
       13
 44
0.0
173
     0
291
     1
 45
0.0
  0
VISUALSTYLE
  5
695
102
{ACAD_REACTORS
330
691
102
}
330
691
100
AcDbVisualStyle
  2
GouraudWithEdges
 70
     3
 71
     2
 72
     2
 73
     1
 90
        2
 40
0.6
 41
30.0
 62
     5
 63
     7
421
 16777215
 74
     1
 91
        0
 64
     7
 65
   257
 75
     1
175
     1
 42
1.0
 92
        0
 66
   257
 43
1.0
 76
     1
 77
     6
 78
     2
 67
     7
 79
     5
170
     0
171
     0
290
     0
174
     0
 93
       13
 44
0.0
173
     0
291
     1
 45
0.0
  0
VISUALSTYLE
  5
698
102
{ACAD_REACTORS
330
691
102
}
330
691
100
AcDbVisualStyle
  2
Hidden
 70
     6
 71
     1
 72
     2
 73
     2
 90
        0
 40
0.6
 41
30.0
 62
     5
 63
     7
421
 16777215
 74
     2
 91
        2
 64
     7
 65
   257
 75
     2
175
     1
 42
40.0
 92
        0
 66
   257
 43
1.0
 76
     1
 77
     6
 78
     2
 67
     7
 79
     3
170
     0
171
     0
290
     0
174
     0
 93
        1
 44
0.0
173
     0
291
     0
 45
0.0
  0
VISUALSTYLE
  5
6A2
102
{ACAD_REACTORS
330
691
102
}
330
691
100
AcDbVisualStyle
  2
JitterOff
 70
    20
 71
     2
 72
     2
 73
     0
 90
        0
 40
0.6
 41
30.0
 62
     5
 63
     7
421
 16777215
 74
     1
 91
        4
 64
     7
 65
   257
 75
     1
175
     1
 42
1.0
 92
       10
 66
     7
 43
1.0
 76
     1
 77
     6
 78
     2
 67
     7
 79
     5
170
     0
171
     0
290
     0
174
     0
 93
        1
 44
0.0
173
     0
291
     1
 45
0.0
  0
VISUALSTYLE
  5
69F
102
{ACAD_REACTORS
330
691
102
}
330
691
100
AcDbVisualStyle
  2
Linepattern
 70
    14
 71
     2
 72
     2
 73
     0
 90
        0
 40
0.6
 41
30.0
 62
     5
 63
     7
421
 16777215
 74
     1
 91
        4
 64
     7
 65
   257
 75
     7
175
     7
 42
1.0
 92
        8
 66
     7
 43
1.0
 76
     1
 77
     6
 78
     2
 67
     7
 79
     5
170
     0
171
     0
290
     0
174
     0
 93
        1
 44
0.0
173
     0
291
     1
 45
0.0
  0
VISUALSTYLE
  5
6A3
102
{ACAD_REACTORS
330
691
102
}
330
691
100
AcDbVisualStyle
  2
OverhangOff
 70
    21
 71
     2
 72
     2
 73
     0
 90
        0
 40
0.6
 41
30.0
 62
     5
 63
     7
421
 16777215
 74
     1
 91
        4
 64
     7
 65
   257
 75
     1
175
     1
 42
1.0
 92
        9
 66
     7
 43
1.0
 76
     1
 77
     6
 78
     2
 67
     7
 79
     5
170
     0
171
     0
290
     0
174
     0
 93
        1
 44
0.0
173
     0
291
     1
 45
0.0
  0
VISUALSTYLE
  5
69A
102
{ACAD_REACTORS
330
691
102
}
330
691
100
AcDbVisualStyle
  2
Realistic
 70
     8
 71
     2
 72
     3
 73
     0
 90
        2
 40
0.6
 41
30.0
 62
     5
 63
     7
421
 16777215
 74
     0
 91
        0
 64
     7
 65
   257
 75
     1
175
     1
 42
1.0
 92
        8
 66
   257
 43
1.0
 76
     1
 77
     6
 78
     2
 67
     7
 79
     3
170
     0
171
     0
290
     0
174
     0
 93
       13
 44
0.0
173
     0
291
     0
 45
0.0
  0
VISUALSTYLE
  5
6A9
102
{ACAD_REACTORS
330
691
102
}
330
691
100
AcDbVisualStyle
  2
Shaded
 70
    27
 71
     2
 72
     2
 73
     1
 90
        2
 40
0.6
 41
30.0
 62
     5
 63
     7
421
 16777215
 74
     0
 91
        4
 64
     7
 65
   257
 75
     1
175
     1
 42
1.0
 92
        8
 66
   257
 43
1.0
 76
     1
 77
     6
 78
     2
 67
     8
425
  7895160
 79
     3
170
     0
171
     0
290
     0
174
     0
 93
        5
 44
0.0
173
     0
291
     0
 45
0.0
  0
VISUALSTYLE
  5
6A8
102
{ACAD_REACTORS
330
691
102
}
330
691
100
AcDbVisualStyle
  2
Shaded with edges
 70
    26
 71
     2
 72
     2
 73
     1
 90
        2
 40
0.6
 41
30.0
 62
     5
 63
     7
421
 16777215
 74
     1
 91
       10
 64
     7
 65
   257
 75
     2
175
     1
 42
1.0
 92
        8
 66
   257
 43
1.0
 76
     1
 77
     6
 78
     2
 67
     7
 79
     3
170
     0
171
     0
290
     0
174
     0
 93
        5
 44
0.0
173
     0
291
     0
 45
0.0
  0
VISUALSTYLE
  5
6A5
102
{ACAD_REACTORS
330
691
102
}
330
691
100
AcDbVisualStyle
  2
Shades of Gray
 70
    23
 71
     2
 72
     2
 73
     3
 90
        0
 40
0.6
 41
30.0
 62
     5
 63
     7
421
 16777215
 74
     2
 91
        2
 64
     7
 65
     7
 75
     1
175
     1
 42
40.0
 92
        8
 66
     7
 43
1.0
 76
     1
 77
     6
 78
     2
 67
     7
 79
     3
170
     0
171
     0
290
     0
174
     0
 93
        1
 44
0.0
173
     0
291
     0
 45
0.0
  0
VISUALSTYLE
  5
6A6
102
{ACAD_REACTORS
330
691
102
}
330
691
100
AcDbVisualStyle
  2
Sketchy
 70
    24
 71
     1
 72
     2
 73
     2
 90
        0
 40
0.6
 41
30.0
 62
     5
 63
     7
421
 16777215
 74
     2
 91
        2
 64
     7
 65
     7
 75
     1
175
     1
 42
40.0
 92
       11
 66
     7
 43
1.0
 76
     1
 77
     6
 78
     2
 67
     7
 79
     6
170
     0
171
     0
290
     0
174
     0
 93
        1
 44
0.0
173
     0
291
     0
 45
0.0
  0
VISUALSTYLE
  5
69E
102
{ACAD_REACTORS
330
691
102
}
330
691
100
AcDbVisualStyle
  2
Thicken
 70
    13
 71
     2
 72
     2
 73
     0
 90
        0
 40
0.6
 41
30.0
 62
     5
 63
     7
421
 16777215
 74
     1
 91
        4
 64
     7
 65
   257
 75
     1
175
     1
 42
1.0
 92
       12
 66
     7
 43
1.0
 76
     1
 77
     6
 78
     2
 67
     7
 79
     5
170
     0
171
     0
290
     0
174
     0
 93
        1
 44
0.0
173
     0
291
     1
 45
0.0
  0
VISUALSTYLE
  5
697
102
{ACAD_REACTORS
330
691
102
}
330
691
100
AcDbVisualStyle
  2
Wireframe
 70
     5
 71
     0
 72
     2
 73
     0
 90
        0
 40
0.6
 41
30.0
 62
     5
 63
     7
421
 16777215
 74
     1
 91
        4
 64
     7
 65
   257
 75
     1
175
     1
 42
1.0
 92
        0
 66
   257
 43
1.0
 76
     1
 77
     6
 78
     2
 67
     7
 79
     3
170
     0
171
     0
290
     0
174
     0
 93
        1
 44
0.0
173
     0
291
     0
 45
0.0
  0
VISUALSTYLE
  5
6A7
102
{ACAD_REACTORS
330
691
102
}
330
691
100
AcDbVisualStyle
  2
X-Ray
 70
    25
 71
     2
 72
     2
 73
     1
 90
        1
 40
0.5
 41
30.0
 62
     5
 63
     7
421
 16777215
 74
     1
 91
        0
 64
     7
 65
   257
 75
     1
175
     1
 42
1.0
 92
        8
 66
     7
 43
1.0
 76
     1
 77
     6
 78
     2
 67
     7
 79
     3
170
     0
171
     0
290
     0
174
     0
 93
       13
 44
0.0
173
     0
291
     0
 45
0.0
  0
DICTIONARYVAR
  5
6C1
102
{ACAD_REACTORS
330
6C0
102
}
330
6C0
100
DictionaryVariables
280
     0
  1
1:1
  0
DICTIONARYVAR
  5
6C7
102
{ACAD_REACTORS
330
6C0
102
}
330
6C0
100
DictionaryVariables
280
     0
  1
Standard
  0
DICTIONARYVAR
  5
6C6
102
{ACAD_REACTORS
330
6C0
102
}
330
6C0
100
DictionaryVariables
280
     0
  1
Standard
  0
DICTIONARYVAR
  5
6C8
102
{ACAD_REACTORS
330
6C0
102
}
330
6C0
100
DictionaryVariables
280
     0
  1
0
  0
DICTIONARY
  5
717
330
6AF
100
AcDbDictionary
280
     1
281
     1
  3
ACAD_ROUNDTRIP_2008_TABLESTYLE_CELLSTYLEMAP
360
718
  0
CELLSTYLEMAP
  5
718
102
{ACAD_REACTORS
330
717
102
}
330
717
100
AcDbCellStyleMap
 90
        3
300
CELLSTYLE
  1
TABLEFORMAT_BEGIN
 90
        5
170
     1
 91
        0
 92
    32768
 62
   257
 93
        1
300
CONTENTFORMAT
  1
CONTENTFORMAT_BEGIN
 90
        0
 91
        0
 92
        4
 93
        0
300

 40
0.0
140
1.0
 94
        5
 62
     0
340
11
144
6.0
309
CONTENTFORMAT_END
171
     1
301
MARGIN
  1
CELLMARGIN_BEGIN
 40
1.5
 40
1.5
 40
1.5
 40
1.5
 40
1.5
 40
1.5
309
CELLMARGIN_END
 94
        6
 95
        1
302
GRIDFORMAT
  1
GRIDFORMAT_BEGIN
 90
        0
 91
        1
 62
     0
 92
       -2
340
14
 93
        0
 40
0.045
309
GRIDFORMAT_END
 95
        2
302
GRIDFORMAT
  1
GRIDFORMAT_BEGIN
 90
        0
 91
        1
 62
     0
 92
       -2
340
14
 93
        0
 40
0.045
309
GRIDFORMAT_END
 95
        4
302
GRIDFORMAT
  1
GRIDFORMAT_BEGIN
 90
        0
 91
        1
 62
     0
 92
       -2
340
14
 93
        0
 40
0.045
309
GRIDFORMAT_END
 95
        8
302
GRIDFORMAT
  1
GRIDFORMAT_BEGIN
 90
        0
 91
        1
 62
     0
 92
       -2
340
14
 93
        0
 40
0.045
309
GRIDFORMAT_END
 95
       16
302
GRIDFORMAT
  1
GRIDFORMAT_BEGIN
 90
        0
 91
        1
 62
     0
 92
       -2
340
14
 93
        0
 40
0.045
309
GRIDFORMAT_END
 95
       32
302
GRIDFORMAT
  1
GRIDFORMAT_BEGIN
 90
        0
 91
        1
 62
     0
 92
       -2
340
14
 93
        0
 40
0.045
309
GRIDFORMAT_END
309
TABLEFORMAT_END
  1
CELLSTYLE_BEGIN
 90
        1
 91
        1
300
_TITLE
309
CELLSTYLE_END
300
CELLSTYLE
  1
TABLEFORMAT_BEGIN
 90
        5
170
     1
 91
        0
 92
        0
 62
   257
 93
        1
300
CONTENTFORMAT
  1
CONTENTFORMAT_BEGIN
 90
        0
 91
        0
 92
        4
 93
        0
300

 40
0.0
140
1.0
 94
        5
 62
     0
340
11
144
4.5
309
CONTENTFORMAT_END
171
     1
301
MARGIN
  1
CELLMARGIN_BEGIN
 40
1.5
 40
1.5
 40
1.5
 40
1.5
 40
1.5
 40
1.5
309
CELLMARGIN_END
 94
        6
 95
        1
302
GRIDFORMAT
  1
GRIDFORMAT_BEGIN
 90
        0
 91
        1
 62
     0
 92
       -2
340
14
 93
        0
 40
0.045
309
GRIDFORMAT_END
 95
        2
302
GRIDFORMAT
  1
GRIDFORMAT_BEGIN
 90
        0
 91
        1
 62
     0
 92
       -2
340
14
 93
        0
 40
0.045
309
GRIDFORMAT_END
 95
        4
302
GRIDFORMAT
  1
GRIDFORMAT_BEGIN
 90
        0
 91
        1
 62
     0
 92
       -2
340
14
 93
        0
 40
0.045
309
GRIDFORMAT_END
 95
        8
302
GRIDFORMAT
  1
GRIDFORMAT_BEGIN
 90
        0
 91
        1
 62
     0
 92
       -2
340
14
 93
        0
 40
0.045
309
GRIDFORMAT_END
 95
       16
302
GRIDFORMAT
  1
GRIDFORMAT_BEGIN
 90
        0
 91
        1
 62
     0
 92
       -2
340
14
 93
        0
 40
0.045
309
GRIDFORMAT_END
 95
       32
302
GRIDFORMAT
  1
GRIDFORMAT_BEGIN
 90
        0
 91
        1
 62
     0
 92
       -2
340
14
 93
        0
 40
0.045
309
GRIDFORMAT_END
309
TABLEFORMAT_END
  1
CELLSTYLE_BEGIN
 90
        2
 91
        1
300
_HEADER
309
CELLSTYLE_END
300
CELLSTYLE
  1
TABLEFORMAT_BEGIN
 90
        5
170
     1
 91
        0
 92
        0
 62
   257
 93
        1
300
CONTENTFORMAT
  1
CONTENTFORMAT_BEGIN
 90
        0
 91
        0
 92
        4
 93
        0
300

 40
0.0
140
1.0
 94
        2
 62
     0
340
11
144
4.5
309
CONTENTFORMAT_END
171
     1
301
MARGIN
  1
CELLMARGIN_BEGIN
 40
1.5
 40
1.5
 40
1.5
 40
1.5
 40
1.5
 40
1.5
309
CELLMARGIN_END
 94
        6
 95
        1
302
GRIDFORMAT
  1
GRIDFORMAT_BEGIN
 90
        0
 91
        1
 62
     0
 92
       -2
340
14
 93
        0
 40
0.045
309
GRIDFORMAT_END
 95
        2
302
GRIDFORMAT
  1
GRIDFORMAT_BEGIN
 90
        0
 91
        1
 62
     0
 92
       -2
340
14
 93
        0
 40
0.045
309
GRIDFORMAT_END
 95
        4
302
GRIDFORMAT
  1
GRIDFORMAT_BEGIN
 90
        0
 91
        1
 62
     0
 92
       -2
340
14
 93
        0
 40
0.045
309
GRIDFORMAT_END
 95
        8
302
GRIDFORMAT
  1
GRIDFORMAT_BEGIN
 90
        0
 91
        1
 62
     0
 92
       -2
340
14
 93
        0
 40
0.045
309
GRIDFORMAT_END
 95
       16
302
GRIDFORMAT
  1
GRIDFORMAT_BEGIN
 90
        0
 91
        1
 62
     0
 92
       -2
340
14
 93
        0
 40
0.045
309
GRIDFORMAT_END
 95
       32
302
GRIDFORMAT
  1
GRIDFORMAT_BEGIN
 90
        0
 91
        1
 62
     0
 92
       -2
340
14
 93
        0
 40
0.045
309
GRIDFORMAT_END
309
TABLEFORMAT_END
  1
CELLSTYLE_BEGIN
 90
        3
 91
        2
300
_DATA
309
CELLSTYLE_END
  0
ENDSEC
  0
EOF
