  0
SECTION
  2
HEADER
  9
$ACADVER
  1
AC1021
  9
$ACADMAINTVER
 70
    25
  9
$DWGCODEPAGE
  3
ANSI_1257
  9
$LASTSAVEDBY
  1
mariusbitinas
  9
$INSBASE
 10
0.0
 20
0.0
 30
0.0
  9
$EXTMIN
 10
-868.1293286354285
 20
-9.317140597000162
 30
0.0
  9
$EXTMAX
 10
1497.037406142322
 20
1179.7902061396
 30
0.0
  9
$LIMMIN
 10
0.0
 20
0.0
  9
$LIMMAX
 10
420.0
 20
297.0
  9
$ORTHOMODE
 70
     0
  9
$REGENMODE
 70
     1
  9
$FILLMODE
 70
     1
  9
$QTEXTMODE
 70
     0
  9
$MIRRTEXT
 70
     1
  9
$LTSCALE
 40
1.0
  9
$ATTMODE
 70
     1
  9
$TEXTSIZE
 40
5.6444444444
  9
$TRACEWID
 40
1.0
  9
$TEXTSTYLE
  7
Standard
  9
$CLAYER
  8
0
  9
$CELTYPE
  6
ByLayer
  9
$CECOLOR
 62
   256
  9
$CELTSCALE
 40
1.0
  9
$DISPSILH
 70
     0
  9
$DIMSCALE
 40
1.0
  9
$DIMASZ
 40
3.175
  9
$DIMEXO
 40
1.0
  9
$DIMDLI
 40
3.75
  9
$DIMRND
 40
0.0
  9
$DIMDLE
 40
0.0
  9
$DIMEXE
 40
1.0
  9
$DIMTP
 40
0.0
  9
$DIMTM
 40
0.0
  9
$DIMTXT
 40
4.9388888889
  9
$DIMCEN
 40
2.5
  9
$DIMTSZ
 40
0.0
  9
$DIMTOL
 70
     0
  9
$DIMLIM
 70
     0
  9
$DIMTIH
 70
     1
  9
$DIMTOH
 70
     1
  9
$DIMSE1
 70
     0
  9
$DIMSE2
 70
     0
  9
$DIMTAD
 70
     1
  9
$DIMZIN
 70
     0
  9
$DIMBLK
  1

  9
$DIMASO
 70
     1
  9
$DIMSHO
 70
     1
  9
$DIMPOST
  1

  9
$DIMAPOST
  1

  9
$DIMALT
 70
     0
  9
$DIMALTD
 70
     3
  9
$DIMALTF
 40
0.0393700787
  9
$DIMLFAC
 40
1.0
  9
$DIMTOFL
 70
     1
  9
$DIMTVP
 40
0.0
  9
$DIMTIX
 70
     0
  9
$DIMSOXD
 70
     0
  9
$DIMSAH
 70
     0
  9
$DIMBLK1
  1

  9
$DIMBLK2
  1

  9
$DIMSTYLE
  2
ISO-25
  9
$DIMCLRD
 70
     0
  9
$DIMCLRE
 70
     0
  9
$DIMCLRT
 70
     0
  9
$DIMTFAC
 40
1.0
  9
$DIMGAP
 40
1.524
  9
$DIMJUST
 70
     0
  9
$DIMSD1
 70
     0
  9
$DIMSD2
 70
     0
  9
$DIMTOLJ
 70
     0
  9
$DIMTZIN
 70
     0
  9
$DIMALTZ
 70
     0
  9
$DIMALTTZ
 70
     0
  9
$DIMUPT
 70
     0
  9
$DIMDEC
 70
     1
  9
$DIMTDEC
 70
     1
  9
$DIMALTU
 70
     2
  9
$DIMALTTD
 70
     3
  9
$DIMTXSTY
  7
Standard
  9
$DIMAUNIT
 70
     0
  9
$DIMADEC
 70
     1
  9
$DIMALTRND
 40
0.0
  9
$DIMAZIN
 70
     0
  9
$DIMDSEP
 70
    44
  9
$DIMATFIT
 70
     3
  9
$DIMFRAC
 70
     0
  9
$DIMLDRBLK
  1

  9
$DIMLUNIT
 70
     2
  9
$DIMLWD
 70
    -2
  9
$DIMLWE
 70
    -2
  9
$DIMTMOVE
 70
     0
  9
$DIMFXL
 40
1.0
  9
$DIMFXLON
 70
     0
  9
$DIMJOGANG
 40
0.7853981633974483
  9
$DIMTFILL
 70
     0
  9
$DIMTFILLCLR
 70
     0
  9
$DIMARCSYM
 70
     0
  9
$DIMLTYPE
  6

  9
$DIMLTEX1
  6

  9
$DIMLTEX2
  6

  9
$LUNITS
 70
     2
  9
$LUPREC
 70
     1
  9
$SKETCHINC
 40
1.0
  9
$FILLETRAD
 40
10.0
  9
$AUNITS
 70
     0
  9
$AUPREC
 70
     1
  9
$MENU
  1
.
  9
$ELEVATION
 40
0.0
  9
$PELEVATION
 40
0.0
  9
$THICKNESS
 40
0.0
  9
$LIMCHECK
 70
     0
  9
$CHAMFERA
 40
0.0
  9
$CHAMFERB
 40
0.0
  9
$CHAMFERC
 40
0.0
  9
$CHAMFERD
 40
0.0
  9
$SKPOLY
 70
     0
  9
$TDCREATE
 40
2459177.569133357
  9
$TDUCREATE
 40
2459177.485800023
  9
$TDUPDATE
 40
2459177.600747153
  9
$TDUUPDATE
 40
2459177.51741382
  9
$TDINDWG
 40
0.000695787
  9
$TDUSRTIMER
 40
0.0006957755
  9
$USRTIMER
 70
     1
  9
$ANGBASE
 50
0.0
  9
$ANGDIR
 70
     0
  9
$PDMODE
 70
     0
  9
$PDSIZE
 40
-1.0
  9
$PLINEWID
 40
0.0
  9
$SPLFRAME
 70
     0
  9
$SPLINETYPE
 70
     6
  9
$SPLINESEGS
 70
     8
  9
$HANDSEED
  5
6FF
  9
$SURFTAB1
 70
     6
  9
$SURFTAB2
 70
     6
  9
$SURFTYPE
 70
     6
  9
$SURFU
 70
     6
  9
$SURFV
 70
     6
  9
$UCSBASE
  2

  9
$UCSNAME
  2

  9
$UCSORG
 10
0.0
 20
0.0
 30
0.0
  9
$UCSXDIR
 10
1.0
 20
0.0
 30
0.0
  9
$UCSYDIR
 10
0.0
 20
1.0
 30
0.0
  9
$UCSORTHOREF
  2

  9
$UCSORTHOVIEW
 70
     0
  9
$UCSORGTOP
 10
0.0
 20
0.0
 30
0.0
  9
$UCSORGBOTTOM
 10
0.0
 20
0.0
 30
0.0
  9
$UCSORGLEFT
 10
0.0
 20
0.0
 30
0.0
  9
$UCSORGRIGHT
 10
0.0
 20
0.0
 30
0.0
  9
$UCSORGFRONT
 10
0.0
 20
0.0
 30
0.0
  9
$UCSORGBACK
 10
0.0
 20
0.0
 30
0.0
  9
$PUCSBASE
  2

  9
$PUCSNAME
  2

  9
$PUCSORG
 10
0.0
 20
0.0
 30
0.0
  9
$PUCSXDIR
 10
1.0
 20
0.0
 30
0.0
  9
$PUCSYDIR
 10
0.0
 20
1.0
 30
0.0
  9
$PUCSORTHOREF
  2

  9
$PUCSORTHOVIEW
 70
     0
  9
$PUCSORGTOP
 10
0.0
 20
0.0
 30
0.0
  9
$PUCSORGBOTTOM
 10
0.0
 20
0.0
 30
0.0
  9
$PUCSORGLEFT
 10
0.0
 20
0.0
 30
0.0
  9
$PUCSORGRIGHT
 10
0.0
 20
0.0
 30
0.0
  9
$PUCSORGFRONT
 10
0.0
 20
0.0
 30
0.0
  9
$PUCSORGBACK
 10
0.0
 20
0.0
 30
0.0
  9
$USERI1
 70
     0
  9
$USERI2
 70
     0
  9
$USERI3
 70
     0
  9
$USERI4
 70
     0
  9
$USERI5
 70
     0
  9
$USERR1
 40
0.0
  9
$USERR2
 40
0.0
  9
$USERR3
 40
0.0
  9
$USERR4
 40
0.0
  9
$USERR5
 40
0.0
  9
$WORLDVIEW
 70
     1
  9
$SHADEDGE
 70
     3
  9
$SHADEDIF
 70
    70
  9
$TILEMODE
 70
     1
  9
$MAXACTVP
 70
    64
  9
$PINSBASE
 10
0.0
 20
0.0
 30
0.0
  9
$PLIMCHECK
 70
     0
  9
$PEXTMIN
 10
1.000000000000000E+20
 20
1.000000000000000E+20
 30
1.000000000000000E+20
  9
$PEXTMAX
 10
-1.000000000000000E+20
 20
-1.000000000000000E+20
 30
-1.000000000000000E+20
  9
$PLIMMIN
 10
0.0
 20
0.0
  9
$PLIMMAX
 10
0.0
 20
0.0
  9
$UNITMODE
 70
     0
  9
$VISRETAIN
 70
     1
  9
$PLINEGEN
 70
     0
  9
$PSLTSCALE
 70
     1
  9
$TREEDEPTH
 70
  3020
  9
$CMLSTYLE
  2
Standard
  9
$CMLJUST
 70
     0
  9
$CMLSCALE
 40
20.0
  9
$PROXYGRAPHICS
 70
     1
  9
$MEASUREMENT
 70
     1
  9
$CELWEIGHT
370
    -1
  9
$ENDCAPS
280
     0
  9
$JOINSTYLE
280
     0
  9
$LWDISPLAY
290
     1
  9
$INSUNITS
 70
     4
  9
$HYPERLINKBASE
  1

  9
$STYLESHEET
  1

  9
$XEDIT
290
     1
  9
$CEPSNTYPE
380
     0
  9
$PSTYLEMODE
290
     1
  9
$FINGERPRINTGUID
  2
{012a1699-9f31-42d9-b795-67b8abf2c222}
  9
$VERSIONGUID
  2
{FAEB1C32-E019-11D5-929B-00C0DF256EC4}
  9
$EXTNAMES
290
     1
  9
$PSVPSCALE
 40
0.0
  9
$OLESTARTUP
290
     0
  9
$SORTENTS
280
   127
  9
$INDEXCTL
280
     0
  9
$HIDETEXT
280
     1
  9
$XCLIPFRAME
290
     0
  9
$HALOGAP
280
     0
  9
$OBSCOLOR
 70
   257
  9
$OBSLTYPE
280
     0
  9
$INTERSECTIONDISPLAY
280
     0
  9
$INTERSECTIONCOLOR
 70
   257
  9
$DIMASSOC
280
     2
  9
$PROJECTNAME
  1

  9
$CAMERADISPLAY
290
     0
  9
$LENSLENGTH
 40
50.0
  9
$CAMERAHEIGHT
 40
0.0
  9
$STEPSPERSEC
 40
2.0
  9
$STEPSIZE
 40
6.0
  9
$3DDWFPREC
 40
2.0
  9
$PSOLWIDTH
 40
0.25
  9
$PSOLHEIGHT
 40
4.0
  9
$LOFTANG1
 40
1.570796326794897
  9
$LOFTANG2
 40
1.570796326794897
  9
$LOFTMAG1
 40
0.0
  9
$LOFTMAG2
 40
0.0
  9
$LOFTPARAM
 70
     7
  9
$LOFTNORMALS
280
     1
  9
$LATITUDE
 40
37.795
  9
$LONGITUDE
 40
-122.394
  9
$NORTHDIRECTION
 40
0.0
  9
$TIMEZONE
 70
 -8000
  9
$LIGHTGLYPHDISPLAY
280
     1
  9
$TILEMODELIGHTSYNCH
280
     1
  9
$SOLIDHIST
280
     0
  9
$SHOWHIST
280
     1
  9
$DWFFRAME
280
     2
  9
$DGNFRAME
280
     2
  9
$REALWORLDSCALE
290
     1
  9
$INTERFERECOLOR
 62
   256
  9
$CSHADOW
280
     0
  9
$SHADOWPLANELOCATION
 40
0.0
  0
ENDSEC
  0
SECTION
  2
CLASSES
  0
CLASS
  1
ACDBDICTIONARYWDFLT
  2
AcDbDictionaryWithDefault
  3
ObjectDBX Classes
 90
        0
 91
        3
280
     0
281
     0
  0
CLASS
  1
VISUALSTYLE
  2
AcDbVisualStyle
  3
ObjectDBX Classes
 90
     4095
 91
        3
280
     0
281
     0
  0
CLASS
  1
MATERIAL
  2
AcDbMaterial
  3
ObjectDBX Classes
 90
     1153
 91
        3
280
     0
281
     0
  0
CLASS
  1
SCALE
  2
AcDbScale
  3
ObjectDBX Classes
 90
     1153
 91
        3
280
     0
281
     0
  0
CLASS
  1
TABLESTYLE
  2
AcDbTableStyle
  3
ObjectDBX Classes
 90
     4095
 91
        3
280
     0
281
     0
  0
CLASS
  1
MLEADERSTYLE
  2
AcDbMLeaderStyle
  3
ACDB_MLEADERSTYLE_CLASS
 90
     4095
 91
        3
280
     0
281
     0
  0
CLASS
  1
SUN
  2
AcDbSun
  3
SCENEOE
 90
     1153
 91
        3
280
     0
281
     0
  0
CLASS
  1
ACDBPLACEHOLDER
  2
AcDbPlaceHolder
  3
ObjectDBX Classes
 90
        0
 91
        1
280
     0
281
     0
  0
CLASS
  1
LAYOUT
  2
AcDbLayout
  3
ObjectDBX Classes
 90
        0
 91
        1
280
     0
281
     0
  0
CLASS
  1
DICTIONARYVAR
  2
AcDbDictionaryVar
  3
ObjectDBX Classes
 90
        0
 91
        3
280
     0
281
     0
  0
CLASS
  1
CELLSTYLEMAP
  2
AcDbCellStyleMap
  3
ObjectDBX Classes
 90
     1152
 91
        3
280
     0
281
     0
  0
ENDSEC
  0
SECTION
  2
TABLES
  0
TABLE
  2
VPORT
  5
8
330
0
100
AcDbSymbolTable
 70
     1
  0
VPORT
  5
29
330
8
100
AcDbSymbolTableRecord
100
AcDbViewportTableRecord
  2
*Active
 70
     0
 10
0.0
 20
0.0
 11
1.0
 21
1.0
 12
714.512591066594
 22
522.1320244037975
 13
0.0
 23
0.0
 14
10.0
 24
10.0
 15
10.0
 25
10.0
 16
0.0
 26
0.0
 36
1.0
 17
0.0
 27
0.0
 37
0.0
 40
2766.028046607969
 41
1.644036697247707
 42
50.0
 43
0.0
 44
0.0
 50
0.0
 51
0.0
 71
    16
 72
  2000
 73
     1
 74
     3
 75
     0
 76
     0
 77
     0
 78
     0
281
     0
 65
     1
110
0.0
120
0.0
130
0.0
111
1.0
121
0.0
131
0.0
112
0.0
122
1.0
132
0.0
 79
     0
146
0.0
348
67D
 60
     3
 61
     5
292
     1
282
     1
141
0.0
142
0.0
 63
   250
  0
ENDTAB
  0
TABLE
  2
LTYPE
  5
5
330
0
100
AcDbSymbolTable
 70
     6
  0
LTYPE
  5
14
330
5
100
AcDbSymbolTableRecord
100
AcDbLinetypeTableRecord
  2
ByBlock
 70
     0
  3

 72
    65
 73
     0
 40
0.0
  0
LTYPE
  5
15
330
5
100
AcDbSymbolTableRecord
100
AcDbLinetypeTableRecord
  2
ByLayer
 70
     0
  3

 72
    65
 73
     0
 40
0.0
  0
LTYPE
  5
16
330
5
100
AcDbSymbolTableRecord
100
AcDbLinetypeTableRecord
  2
Continuous
 70
     0
  3
Solid line
 72
    65
 73
     0
 40
0.0
  0
LTYPE
  5
6E
330
5
100
AcDbSymbolTableRecord
100
AcDbLinetypeTableRecord
  2
HIDDEN
 70
     0
  3
Hidden __ __ __ __ __ __ __ __ __ __ __ __ __ __
 72
    65
 73
     2
 40
1.905
 49
1.27
 74
     0
 49
-0.635
 74
     0
  0
LTYPE
  5
6F
330
5
100
AcDbSymbolTableRecord
100
AcDbLinetypeTableRecord
  2
PHANTOM
 70
     0
  3
Phantom ______  __  __  ______  __  __  ______
 72
    65
 73
     6
 40
12.7
 49
6.35
 74
     0
 49
-1.27
 74
     0
 49
1.27
 74
     0
 49
-1.27
 74
     0
 49
1.27
 74
     0
 49
-1.27
 74
     0
  0
LTYPE
  5
70
330
5
100
AcDbSymbolTableRecord
100
AcDbLinetypeTableRecord
  2
CENTER
 70
     0
  3
Center ____ _ ____ _ ____ _ ____ _ ____ _ ____
 72
    65
 73
     4
 40
10.16
 49
6.35
 74
     0
 49
-1.27
 74
     0
 49
1.27
 74
     0
 49
-1.27
 74
     0
  0
LTYPE
  5
71
330
5
100
AcDbSymbolTableRecord
100
AcDbLinetypeTableRecord
  2
CENTERX2
 70
     0
  3
Center (2x) ________  __  ________  __  _____
 72
    65
 73
     4
 40
20.32
 49
12.7
 74
     0
 49
-2.54
 74
     0
 49
2.54
 74
     0
 49
-2.54
 74
     0
  0
LTYPE
  5
72
330
5
100
AcDbSymbolTableRecord
100
AcDbLinetypeTableRecord
  2
DOT2
 70
     0
  3
Dot (.5x) ........................................
 72
    65
 73
     2
 40
0.635
 49
0.0
 74
     0
 49
-0.635
 74
     0
  0
ENDTAB
  0
TABLE
  2
LAYER
  5
2
330
0
100
AcDbSymbolTable
 70
     2
  0
LAYER
  5
10
330
2
100
AcDbSymbolTableRecord
100
AcDbLayerTableRecord
  2
0
 70
     0
 62
     7
  6
Continuous
370
    -3
390
F
347
694
  0
LAYER
  5
73
330
2
100
AcDbSymbolTableRecord
100
AcDbLayerTableRecord
  2
LENKIMO
 70
     0
 62
     1
  6
CENTERX2
370
    -3
390
F
347
694
  0
ENDTAB
  0
TABLE
  2
STYLE
  5
3
330
0
100
AcDbSymbolTable
 70
     1
  0
STYLE
  5
11
330
3
100
AcDbSymbolTableRecord
100
AcDbTextStyleTableRecord
  2
Standard
 70
     0
 40
0.0
 41
1.0
 50
0.0
 71
     0
 42
5.6444444444
  3
txt
  4

  0
ENDTAB
  0
TABLE
  2
VIEW
  5
6
330
0
100
AcDbSymbolTable
 70
     0
  0
ENDTAB
  0
TABLE
  2
UCS
  5
7
330
0
100
AcDbSymbolTable
 70
     0
  0
ENDTAB
  0
TABLE
  2
APPID
  5
9
330
0
100
AcDbSymbolTable
 70
     2
  0
APPID
  5
12
330
9
100
AcDbSymbolTableRecord
100
AcDbRegAppTableRecord
  2
ACAD
 70
     0
  0
APPID
  5
6FD
330
9
100
AcDbSymbolTableRecord
100
AcDbRegAppTableRecord
  2
ACAD_MLEADERVER
 70
     0
  0
ENDTAB
  0
TABLE
  2
DIMSTYLE
  5
A
330
0
100
AcDbSymbolTable
 70
     5
100
AcDbDimStyleTable
  0
DIMSTYLE
105
27
330
A
100
AcDbSymbolTableRecord
100
AcDbDimStyleTableRecord
  2
ISO-25
 70
     0
 41
2.5
 42
0.625
 43
3.75
 44
1.25
 73
     0
 74
     0
 77
     1
 78
     8
140
2.5
141
2.5
143
0.0393700787
147
0.625
171
     3
172
     1
178
     0
271
     2
272
     2
274
     3
278
    44
283
     0
284
     8
340
11
  0
DIMSTYLE
105
6B7
330
A
100
AcDbSymbolTableRecord
100
AcDbDimStyleTableRecord
  2
SLDDIMSTYLE1
 70
     0
 41
4.0
 44
0.0
 45
0.000000001
 73
     0
 77
     1
 78
    12
140
2.6458333333
144
10.0
147
0.6614583333000001
173
     1
178
     0
340
11
  0
DIMSTYLE
105
6B8
330
A
100
AcDbSymbolTableRecord
100
AcDbDimStyleTableRecord
  2
SLDDIMSTYLE2
 70
     0
 41
4.0
 44
0.0
 45
0.000000001
 73
     0
 77
     1
 78
    12
140
2.6458333333
144
10.0
147
0.6614583333000001
173
     1
178
     0
340
11
  0
DIMSTYLE
105
6B9
330
A
100
AcDbSymbolTableRecord
100
AcDbDimStyleTableRecord
  2
SLDDIMSTYLE3
 70
     0
 41
4.0
 44
0.0
 45
0.000000001
146
4.0
147
0.0
173
     1
178
     0
340
11
  0
DIMSTYLE
105
6BA
330
A
100
AcDbSymbolTableRecord
100
AcDbDimStyleTableRecord
  2
SLDDIMSTYLE4
 70
     0
 41
4.0
 44
0.0
 73
     0
 77
     1
 78
    12
140
2.6458333333
144
7.5
147
0.6614583333000001
173
     1
178
     0
340
11
  0
ENDTAB
  0
TABLE
  2
BLOCK_RECORD
  5
1
330
0
100
AcDbSymbolTable
 70
     5
  0
BLOCK_RECORD
  5
1F
102
{ACAD_XDICTIONARY
360
6F9
102
}
330
1
100
AcDbSymbolTableRecord
100
AcDbBlockTableRecord
  2
*Model_Space
340
22
 70
     0
280
     1
281
     0
  0
BLOCK_RECORD
  5
1B
330
1
100
AcDbSymbolTableRecord
100
AcDbBlockTableRecord
  2
*Paper_Space
340
1E
 70
     0
280
     1
281
     0
  0
BLOCK_RECORD
  5
23
330
1
100
AcDbSymbolTableRecord
100
AcDbBlockTableRecord
  2
*Paper_Space0
340
26
 70
     0
280
     1
281
     0
  0
BLOCK_RECORD
  5
74
330
1
100
AcDbSymbolTableRecord
100
AcDbBlockTableRecord
  2
Block11_2
340
0
 70
     0
280
     1
281
     0
  0
BLOCK_RECORD
  5
6C3
330
1
100
AcDbSymbolTableRecord
100
AcDbBlockTableRecord
  2
*U3
340
0
102
{BLKREFS
331
6C2
331
6E1
331
6E5
331
6F8
102
}
 70
     0
280
     1
281
     0
  0
BLOCK_RECORD
  5
6C8
330
1
100
AcDbSymbolTableRecord
100
AcDbBlockTableRecord
  2
*U4
340
0
102
{BLKREFS
331
6C7
331
6E6
102
}
 70
     0
280
     1
281
     0
  0
BLOCK_RECORD
  5
6DD
330
1
100
AcDbSymbolTableRecord
100
AcDbBlockTableRecord
  2
*U5
340
0
102
{BLKREFS
331
6DC
331
6F7
102
}
 70
     0
280
     1
281
     0
  0
ENDTAB
  0
ENDSEC
  0
SECTION
  2
BLOCKS
  0
BLOCK
  5
20
330
1F
100
AcDbEntity
  8
0
100
AcDbBlockBegin
  2
*Model_Space
 70
     0
 10
0.0
 20
0.0
 30
0.0
  3
*Model_Space
  1

  0
ENDBLK
  5
21
330
1F
100
AcDbEntity
  8
0
100
AcDbBlockEnd
  0
BLOCK
  5
1C
330
1B
100
AcDbEntity
 67
     1
  8
0
100
AcDbBlockBegin
  2
*Paper_Space
 70
     0
 10
0.0
 20
0.0
 30
0.0
  3
*Paper_Space
  1

  0
ENDBLK
  5
1D
330
1B
100
AcDbEntity
 67
     1
  8
0
100
AcDbBlockEnd
  0
BLOCK
  5
24
330
23
100
AcDbEntity
  8
0
100
AcDbBlockBegin
  2
*Paper_Space0
 70
     0
 10
0.0
 20
0.0
 30
0.0
  3
*Paper_Space0
  1

  0
ENDBLK
  5
25
330
23
100
AcDbEntity
  8
0
100
AcDbBlockEnd
  0
BLOCK
  5
75
330
74
100
AcDbEntity
  8
0
100
AcDbBlockBegin
  2
Block11_2
 70
     0
 10
0.0
 20
0.0
 30
0.0
  3
Block11_2
  1

  0
LINE
  5
77
330
74
100
AcDbEntity
  8
0
  6
Continuous
100
AcDbLine
 10
-15.7956326374
 20
2.3055746011
 30
0.0
 11
-18.0649288667
 21
1.8146036087
 31
0.0
  0
LINE
  5
78
330
74
100
AcDbEntity
  8
0
  6
Continuous
100
AcDbLine
 10
-15.6988785554
 20
-9.1195335787
 30
0.0
 11
-10.2261014967
 21
-7.9354771524
 31
0.0
  0
LINE
  5
79
330
74
100
AcDbEntity
  8
0
  6
Continuous
100
AcDbLine
 10
-10.2261014967
 20
-7.9354771524
 30
0.0
 11
-10.6655808869
 21
-5.9041780766
 31
0.0
  0
LINE
  5
7A
330
74
100
AcDbEntity
  8
0
  6
Continuous
100
AcDbLine
 10
-10.6655808869
 20
-5.9041780766
 30
0.0
 11
-13.8699456036
 21
-6.5974547429
 31
0.0
  0
LINE
  5
7B
330
74
100
AcDbEntity
  8
0
  6
Continuous
100
AcDbLine
 10
-8.296070931
 20
1.802048972
 30
0.0
 11
-6.9198111955
 21
2.0998080743
 31
0.0
  0
LINE
  5
7C
330
74
100
AcDbEntity
  8
0
  6
Continuous
100
AcDbLine
 10
-5.4333831358
 20
-4.7719736412
 30
0.0
 11
-6.8095376466
 21
-5.0697099777
 31
0.0
  0
LINE
  5
7D
330
74
100
AcDbEntity
  8
0
  6
Continuous
100
AcDbLine
 10
-11.0044904538
 20
3.3421566929
 30
0.0
 11
-8.6388294738
 21
-7.5920647278
 31
0.0
  0
LINE
  5
7E
330
74
100
AcDbEntity
  8
0
  6
Continuous
100
AcDbLine
 10
-8.6388294738
 20
-7.5920647278
 30
0.0
 11
-8.6384401425
 21
-7.5919804944
 31
0.0
  0
LINE
  5
7F
330
74
100
AcDbEntity
  8
0
  6
Continuous
100
AcDbLine
 10
-8.6384401425
 20
-7.5919804944
 30
0.0
 11
-4.4940245505
 21
-6.6953201952
 31
0.0
  0
LINE
  5
80
330
74
100
AcDbEntity
  8
0
  6
Continuous
100
AcDbLine
 10
-6.8595855671
 20
4.238922853
 30
0.0
 11
-11.0044904538
 21
3.3421566929
 31
0.0
  0
LINE
  5
81
330
74
100
AcDbEntity
  8
0
  6
Continuous
100
AcDbLine
 10
-32.9933593229
 20
-3.3005605139
 30
0.0
 11
-32.8591663041
 21
-3.2715273367
 31
0.0
  0
LINE
  5
82
330
74
100
AcDbEntity
  8
0
  6
Continuous
100
AcDbLine
 10
-31.5697721187
 20
-3.9678201523
 30
0.0
 11
-29.2969561243
 21
-3.4760876451
 31
0.0
  0
LINE
  5
83
330
74
100
AcDbEntity
  8
0
  6
Continuous
100
AcDbLine
 10
-33.2794920496
 20
-1.2667721217
 30
0.0
 11
-33.3448839193
 21
-1.2809199049
 31
0.0
  0
LINE
  5
84
330
74
100
AcDbEntity
  8
0
  6
Continuous
100
AcDbLine
 10
-31.3289079349
 20
-10.5856399919
 30
0.0
 11
-31.4650581325
 21
-10.6150966123
 31
0.0
  0
LINE
  5
85
330
74
100
AcDbEntity
  8
0
  6
Continuous
100
AcDbLine
 10
-32.8822392925
 20
-9.9377601564
 30
0.0
 11
-35.1888692339
 21
-10.4368084414
 31
0.0
  0
LINE
  5
86
330
74
100
AcDbEntity
  8
0
  6
Continuous
100
AcDbLine
 10
-31.5949683304
 20
-12.7295787952
 30
0.0
 11
-30.2063920476
 21
-12.4291549603
 31
0.0
  0
LINE
  5
87
330
74
100
AcDbEntity
  8
0
  6
Continuous
100
AcDbLine
 10
6.262509235
 20
-4.3681026205
 30
0.0
 11
8.6370616994
 21
-3.8543590356
 31
0.0
  0
LINE
  5
88
330
74
100
AcDbEntity
  8
0
  6
Continuous
100
AcDbLine
 10
8.6370616994
 20
-3.8543590356
 30
0.0
 11
3.9059396663
 21
6.5680857621
 31
0.0
  0
LINE
  5
89
330
74
100
AcDbEntity
  8
0
  6
Continuous
100
AcDbLine
 10
3.9059396663
 20
6.5680857621
 30
0.0
 11
0.0
 21
5.7230206493
 31
0.0
  0
LINE
  5
8A
330
74
100
AcDbEntity
  8
0
  6
Continuous
100
AcDbLine
 10
0.0
 20
5.7230206493
 30
0.0
 11
0.0
 21
-5.7230206493
 31
0.0
  0
LINE
  5
8B
330
74
100
AcDbEntity
  8
0
  6
Continuous
100
AcDbLine
 10
0.0
 20
-5.7230206493
 30
0.0
 11
2.3746576891
 21
-5.2092542987
 31
0.0
  0
LINE
  5
8C
330
74
100
AcDbEntity
  8
0
  6
Continuous
100
AcDbLine
 10
2.3746576891
 20
-5.2092542987
 30
0.0
 11
2.3747844598
 21
-3.0912381741
 31
0.0
  0
LINE
  5
8D
330
74
100
AcDbEntity
  8
0
  6
Continuous
100
AcDbLine
 10
2.3747844598
 20
-3.0912381741
 30
0.0
 11
4.0318309599
 21
-2.7327297722
 31
0.0
  0
LINE
  5
8E
330
74
100
AcDbEntity
  8
0
  6
Continuous
100
AcDbLine
 10
4.0318309599
 20
-2.7327297722
 30
0.0
 11
3.5923515697
 21
-0.7014306964
 31
0.0
  0
LINE
  5
8F
330
74
100
AcDbEntity
  8
0
  6
Continuous
100
AcDbLine
 10
3.5923515697
 20
-0.7014306964
 30
0.0
 11
2.3750284336
 21
-0.9648032524
 31
0.0
  0
LINE
  5
90
330
74
100
AcDbEntity
  8
0
  6
Continuous
100
AcDbLine
 10
2.3750284336
 20
-0.9648032524
 30
0.0
 11
2.3752084601
 21
4.1936873712
 31
0.0
  0
LINE
  5
91
330
74
100
AcDbEntity
  8
0
  6
Continuous
100
AcDbLine
 10
2.3752084601
 20
4.1936873712
 30
0.0
 11
6.262509235
 21
-4.3681026205
 31
0.0
  0
LINE
  5
92
330
74
100
AcDbEntity
  8
0
  6
Continuous
100
AcDbLine
 10
-53.0629352118
 20
-11.4801779454
 30
0.0
 11
-50.7945341276
 21
-8.0228043203
 31
0.0
  0
LINE
  5
93
330
74
100
AcDbEntity
  8
0
  6
Continuous
100
AcDbLine
 10
-50.7945341276
 20
-8.0228043203
 30
0.0
 11
-54.2891069366
 21
-5.8122833411
 31
0.0
  0
LINE
  5
94
330
74
100
AcDbEntity
  8
0
  6
Continuous
100
AcDbLine
 10
-54.2891069366
 20
-5.8122833411
 30
0.0
 11
-51.4073820962
 21
-5.1888110564
 31
0.0
  0
LINE
  5
95
330
74
100
AcDbEntity
  8
0
  6
Continuous
100
AcDbLine
 10
-51.4073820962
 20
-5.1888110564
 30
0.0
 11
-47.9127327975
 21
-7.3992273667
 31
0.0
  0
LINE
  5
96
330
74
100
AcDbEntity
  8
0
  6
Continuous
100
AcDbLine
 10
-47.9127327975
 20
-7.3992273667
 30
0.0
 11
-50.1813587974
 21
-10.8569360435
 31
0.0
  0
LINE
  5
97
330
74
100
AcDbEntity
  8
0
  6
Continuous
100
AcDbLine
 10
-50.1813587974
 20
-10.8569360435
 30
0.0
 11
-53.0628942334
 21
-11.4803673498
 31
0.0
  0
LINE
  5
98
330
74
100
AcDbEntity
  8
0
  6
Continuous
100
AcDbLine
 10
-53.0628942334
 20
-11.4803673498
 30
0.0
 11
-53.0629352118
 21
-11.4801779454
 31
0.0
  0
LINE
  5
99
330
74
100
AcDbEntity
  8
0
  6
Continuous
100
AcDbLine
 10
-42.7624916815
 20
-3.31845567
 30
0.0
 11
-45.0307950789
 21
-6.7757971452
 31
0.0
  0
LINE
  5
9A
330
74
100
AcDbEntity
  8
0
  6
Continuous
100
AcDbLine
 10
-45.0307950789
 20
-6.7757971452
 30
0.0
 11
-48.5254573289
 21
-4.5652955168
 31
0.0
  0
LINE
  5
9B
330
74
100
AcDbEntity
  8
0
  6
Continuous
100
AcDbLine
 10
-48.5254573289
 20
-4.5652955168
 30
0.0
 11
-48.5257466967
 21
-4.5653581227
 31
0.0
  0
LINE
  5
9C
330
74
100
AcDbEntity
  8
0
  6
Continuous
100
AcDbLine
 10
-48.5257466967
 20
-4.5653581227
 30
0.0
 11
-47.9126146215
 21
-7.399289919
 31
0.0
  0
LINE
  5
9D
330
74
100
AcDbEntity
  8
0
  6
Continuous
100
AcDbLine
 10
-47.9126146215
 20
-7.399289919
 30
0.0
 11
-44.4177372167
 21
-9.6098441329
 31
0.0
  0
LINE
  5
9E
330
74
100
AcDbEntity
  8
0
  6
Continuous
100
AcDbLine
 10
-44.4177372167
 20
-9.6098441329
 30
0.0
 11
-42.1490649772
 21
-6.1523237222
 31
0.0
  0
LINE
  5
9F
330
74
100
AcDbEntity
  8
0
  6
Continuous
100
AcDbLine
 10
-42.1490649772
 20
-6.1523237222
 30
0.0
 11
-42.7621970524
 21
-3.3183919259
 31
0.0
  0
LINE
  5
A0
330
74
100
AcDbEntity
  8
0
  6
Continuous
100
AcDbLine
 10
-42.7621970524
 20
-3.3183919259
 30
0.0
 11
-42.7624916815
 21
-3.31845567
 31
0.0
  0
LINE
  5
A1
330
74
100
AcDbEntity
  8
0
  6
Continuous
100
AcDbLine
 10
-41.535889647
 20
-8.9864554454
 30
0.0
 11
-43.8045413973
 21
-12.4440705583
 31
0.0
  0
LINE
  5
A2
330
74
100
AcDbEntity
  8
0
  6
Continuous
100
AcDbLine
 10
-43.8045413973
 20
-12.4440705583
 30
0.0
 11
-40.3564529382
 21
-14.625159785
 31
0.0
  0
LINE
  5
A3
330
74
100
AcDbEntity
  8
0
  6
Continuous
100
AcDbLine
 10
-40.3564529382
 20
-14.625159785
 30
0.0
 11
-43.2382724808
 21
-15.2486525588
 31
0.0
  0
LINE
  5
A4
330
74
100
AcDbEntity
  8
0
  6
Continuous
100
AcDbLine
 10
-43.2382724808
 20
-15.2486525588
 30
0.0
 11
-46.686243472
 21
-13.0676480676
 31
0.0
  0
LINE
  5
A5
330
74
100
AcDbEntity
  8
0
  6
Continuous
100
AcDbLine
 10
-46.686243472
 20
-13.0676480676
 30
0.0
 11
-44.4177144509
 21
-9.6099493576
 31
0.0
  0
LINE
  5
A6
330
74
100
AcDbEntity
  8
0
  6
Continuous
100
AcDbLine
 10
-44.4177144509
 20
-9.6099493576
 30
0.0
 11
-41.535889647
 21
-8.9864554454
 31
0.0
  0
LINE
  5
A7
330
74
100
AcDbEntity
  8
0
  6
Continuous
100
AcDbLine
 10
-51.8063383656
 20
-17.1023866618
 30
0.0
 11
-49.5681857438
 21
-13.6910572443
 31
0.0
  0
LINE
  5
A8
330
74
100
AcDbEntity
  8
0
  6
Continuous
100
AcDbLine
 10
-49.5681857438
 20
-13.6910572443
 30
0.0
 11
-46.1199973213
 21
-15.8721248435
 31
0.0
  0
LINE
  5
A9
330
74
100
AcDbEntity
  8
0
  6
Continuous
100
AcDbLine
 10
-46.1199973213
 20
-15.8721248435
 30
0.0
 11
-46.0813956519
 21
-15.8637732234
 31
0.0
  0
LINE
  5
AA
330
74
100
AcDbEntity
  8
0
  6
Continuous
100
AcDbLine
 10
-46.0813956519
 20
-15.8637732234
 30
0.0
 11
-46.6863662012
 21
-13.0675644704
 31
0.0
  0
LINE
  5
AB
330
74
100
AcDbEntity
  8
0
  6
Continuous
100
AcDbLine
 10
-46.6863662012
 20
-13.0675644704
 30
0.0
 11
-50.1813587974
 21
-10.8569360435
 31
0.0
  0
LINE
  5
AC
330
74
100
AcDbEntity
  8
0
  6
Continuous
100
AcDbLine
 10
-50.1813587974
 20
-10.8569360435
 30
0.0
 11
-52.4497621582
 21
-14.3142991462
 31
0.0
  0
LINE
  5
AD
330
74
100
AcDbEntity
  8
0
  6
Continuous
100
AcDbLine
 10
-52.4497621582
 20
-14.3142991462
 30
0.0
 11
-51.8447506306
 21
-17.1106973035
 31
0.0
  0
LINE
  5
AE
330
74
100
AcDbEntity
  8
0
  6
Continuous
100
AcDbLine
 10
-51.8447506306
 20
-17.1106973035
 30
0.0
 11
-51.8063383656
 21
-17.1023866618
 31
0.0
  0
LINE
  5
AF
330
74
100
AcDbEntity
  8
0
  6
Continuous
100
AcDbLine
 10
-20.0432683672
 20
-10.0594590717
 30
0.0
 11
-17.6687053803
 21
-9.5457132103
 31
0.0
  0
LINE
  5
B0
330
74
100
AcDbEntity
  8
0
  6
Continuous
100
AcDbLine
 10
-17.6687053803
 20
-9.5457132103
 30
0.0
 11
-22.3998379359
 21
0.8767293109
 31
0.0
  0
LINE
  5
B1
330
74
100
AcDbEntity
  8
0
  6
Continuous
100
AcDbLine
 10
-22.3998379359
 20
0.8767293109
 30
0.0
 11
-26.3058670432
 21
0.0316448472
 31
0.0
  0
LINE
  5
B2
330
74
100
AcDbEntity
  8
0
  6
Continuous
100
AcDbLine
 10
-26.3058670432
 20
0.0316448472
 30
0.0
 11
-26.3056723775
 21
-11.4143543348
 31
0.0
  0
LINE
  5
B3
330
74
100
AcDbEntity
  8
0
  6
Continuous
100
AcDbLine
 10
-26.3056723775
 20
-11.4143543348
 30
0.0
 11
-23.9311146519
 21
-10.9006096116
 31
0.0
  0
LINE
  5
B4
330
74
100
AcDbEntity
  8
0
  6
Continuous
100
AcDbLine
 10
-23.9311146519
 20
-10.9006096116
 30
0.0
 11
-23.9309931424
 21
-8.7825946253
 31
0.0
  0
LINE
  5
B5
330
74
100
AcDbEntity
  8
0
  6
Continuous
100
AcDbLine
 10
-23.9309931424
 20
-8.7825946253
 30
0.0
 11
-22.2738308951
 21
-8.4240611811
 31
0.0
  0
LINE
  5
B6
330
74
100
AcDbEntity
  8
0
  6
Continuous
100
AcDbLine
 10
-22.2738308951
 20
-8.4240611811
 30
0.0
 11
-22.7133102854
 21
-6.3927621053
 31
0.0
  0
LINE
  5
B7
330
74
100
AcDbEntity
  8
0
  6
Continuous
100
AcDbLine
 10
-22.7133102854
 20
-6.3927621053
 30
0.0
 11
-23.9308333483
 21
-6.6561779162
 31
0.0
  0
LINE
  5
B8
330
74
100
AcDbEntity
  8
0
  6
Continuous
100
AcDbLine
 10
-23.9308333483
 20
-6.6561779162
 30
0.0
 11
-23.9305586196
 21
-1.4976668035
 31
0.0
  0
LINE
  5
B9
330
74
100
AcDbEntity
  8
0
  6
Continuous
100
AcDbLine
 10
-23.9305586196
 20
-1.4976668035
 30
0.0
 11
-20.0432683672
 21
-10.0594590717
 31
0.0
  0
SPLINE
  5
BA
330
74
100
AcDbEntity
  8
0
100
AcDbSpline
210
0.0
220
0.0
230
1.0
 70
     8
 71
     3
 72
     8
 73
     4
 74
     0
 42
0.000000001
 43
0.00000001
 40
0.0
 40
0.0
 40
0.0
 40
0.0
 40
1.0
 40
1.0
 40
1.0
 40
1.0
 10
-13.86994560355125
 20
-6.597454742918429
 30
0.0
 10
-13.88373254946556
 20
-6.53373068413859
 30
0.0
 10
-15.11365515797402
 20
-0.8489574873494021
 30
0.0
 10
-15.79563263740206
 20
2.305574601061459
 30
0.0
  0
SPLINE
  5
BB
330
74
100
AcDbEntity
  8
0
100
AcDbSpline
210
0.0
220
0.0
230
1.0
 70
     8
 71
     3
 72
     8
 73
     4
 74
     0
 42
0.000000001
 43
0.00000001
 40
2.0
 40
2.0
 40
2.0
 40
2.0
 40
3.0
 40
3.0
 40
3.0
 40
3.0
 10
-18.06492886668426
 20
1.814603608696524
 30
0.0
 10
-17.24003965005502
 20
-1.995739949107536
 30
0.0
 10
-15.71186186991051
 20
-9.059523950669432
 30
0.0
 10
-15.69887855542093
 20
-9.119533578677906
 30
0.0
  0
SPLINE
  5
BC
330
74
100
AcDbEntity
  8
0
100
AcDbSpline
210
0.0
220
0.0
230
1.0
 70
     8
 71
     3
 72
     8
 73
     4
 74
     0
 42
0.000000001
 43
0.00000001
 40
0.0
 40
0.0
 40
0.0
 40
0.0
 40
1.0
 40
1.0
 40
1.0
 40
1.0
 10
-6.809537646582547
 20
-5.069709977697404
 30
0.0
 10
-7.284290309572815
 20
-2.875375801708635
 30
0.0
 10
-7.897830097865885
 20
-0.0390758678013329
 30
0.0
 10
-8.296070930952649
 20
1.80204897196991
 30
0.0
  0
SPLINE
  5
BD
330
74
100
AcDbEntity
  8
0
100
AcDbSpline
210
0.0
220
0.0
230
1.0
 70
     8
 71
     3
 72
     8
 73
     4
 74
     0
 42
0.000000001
 43
0.00000001
 40
2.0
 40
2.0
 40
2.0
 40
2.0
 40
3.0
 40
3.0
 40
3.0
 40
3.0
 10
-6.919811195494074
 20
2.099808074263809
 30
0.0
 10
-6.228016878711183
 20
2.249480443098069
 30
0.0
 10
-5.547633595833446
 20
1.815851349115847
 30
0.0
 10
-5.399398884916104
 20
1.130701970100344
 30
0.0
  0
SPLINE
  5
BE
330
74
100
AcDbEntity
  8
0
100
AcDbSpline
210
0.0
220
0.0
230
1.0
 70
     8
 71
     3
 72
     8
 73
     4
 74
     0
 42
0.000000001
 43
0.00000001
 40
3.0
 40
3.0
 40
3.0
 40
3.0
 40
4.0
 40
4.0
 40
4.0
 40
4.0
 10
-5.399398884916104
 20
1.130701970100344
 30
0.0
 10
-5.107009087764085
 20
-0.2207405274728672
 30
0.0
 10
-4.711497421058354
 20
-2.048334586467611
 30
0.0
 10
-4.449160707297047
 20
-3.260870000165379
 30
0.0
  0
SPLINE
  5
BF
330
74
100
AcDbEntity
  8
0
100
AcDbSpline
210
0.0
220
0.0
230
1.0
 70
     8
 71
     3
 72
     8
 73
     4
 74
     0
 42
0.000000001
 43
0.00000001
 40
4.0
 40
4.0
 40
4.0
 40
4.0
 40
5.0
 40
5.0
 40
5.0
 40
5.0
 10
-4.449160707297047
 20
-3.260870000165379
 30
0.0
 10
-4.300905507193207
 20
-3.946114081381999
 30
0.0
 10
-4.741570606399121
 20
-4.622385452066122
 30
0.0
 10
-5.433383135791953
 20
-4.771973641166296
 30
0.0
  0
SPLINE
  5
C0
330
74
100
AcDbEntity
  8
0
100
AcDbSpline
210
0.0
220
0.0
230
1.0
 70
     8
 71
     3
 72
     8
 73
     4
 74
     0
 42
0.000000001
 43
0.00000001
 40
3.0
 40
3.0
 40
3.0
 40
3.0
 40
4.0
 40
4.0
 40
4.0
 40
4.0
 10
-4.494024550545999
 20
-6.695320195210662
 30
0.0
 10
-2.825524345390513
 20
-6.334333740063992
 30
0.0
 10
-1.762658323115034
 20
-4.702068307882374
 30
0.0
 10
-2.120071189640999
 20
-3.049576315093403
 30
0.0
  0
SPLINE
  5
C1
330
74
100
AcDbEntity
  8
0
100
AcDbSpline
210
0.0
220
0.0
230
1.0
 70
     8
 71
     3
 72
     8
 73
     4
 74
     0
 42
0.000000001
 43
0.00000001
 40
4.0
 40
4.0
 40
4.0
 40
4.0
 40
5.0
 40
5.0
 40
5.0
 40
5.0
 10
-2.120071189640999
 20
-3.049576315093403
 30
0.0
 10
-2.485983017556096
 20
-1.358310753073632
 30
0.0
 10
-2.867352798370483
 20
0.4044023583376265
 30
0.0
 10
-3.190995488197396
 20
1.900704823656681
 30
0.0
  0
SPLINE
  5
C2
330
74
100
AcDbEntity
  8
0
100
AcDbSpline
210
0.0
220
0.0
230
1.0
 70
     8
 71
     3
 72
     8
 73
     4
 74
     0
 42
0.000000001
 43
0.00000001
 40
5.0
 40
5.0
 40
5.0
 40
5.0
 40
6.0
 40
6.0
 40
6.0
 40
6.0
 10
-3.190995488197396
 20
1.900704823656681
 30
0.0
 10
-3.54857504695031
 20
3.553458157285876
 30
0.0
 10
-5.190901218780231
 20
4.599949148191988
 30
0.0
 10
-6.859585567104196
 20
4.238922852960538
 30
0.0
  0
SPLINE
  5
C3
330
74
100
AcDbEntity
  8
0
100
AcDbSpline
210
0.0
220
0.0
230
1.0
 70
     8
 71
     3
 72
     8
 73
     4
 74
     0
 42
0.000000001
 43
0.00000001
 40
0.0
 40
0.0
 40
0.0
 40
0.0
 40
1.0
 40
1.0
 40
1.0
 40
1.0
 10
-30.23703582864644
 20
-6.251438951366732
 30
0.0
 10
-30.9104300186728
 20
-6.015603382360459
 30
0.0
 10
-31.40848551125485
 20
-5.893156856121871
 30
0.0
 10
-32.67210357750635
 20
-5.496689523479785
 30
0.0
  0
SPLINE
  5
C4
330
74
100
AcDbEntity
  8
0
100
AcDbSpline
210
0.0
220
0.0
230
1.0
 70
     8
 71
     3
 72
     8
 73
     4
 74
     0
 42
0.000000001
 43
0.00000001
 40
1.0
 40
1.0
 40
1.0
 40
1.0
 40
2.0
 40
2.0
 40
2.0
 40
2.0
 10
-32.67210357750635
 20
-5.496689523479785
 30
0.0
 10
-33.03332194555517
 20
-5.383421617718132
 30
0.0
 10
-33.81210282496122
 20
-5.206692347750555
 30
0.0
 10
-33.94849250952588
 20
-4.576291363356936
 30
0.0
  0
SPLINE
  5
C5
330
74
100
AcDbEntity
  8
0
100
AcDbSpline
210
0.0
220
0.0
230
1.0
 70
     8
 71
     3
 72
     8
 73
     4
 74
     0
 42
0.000000001
 43
0.00000001
 40
2.0
 40
2.0
 40
2.0
 40
2.0
 40
3.0
 40
3.0
 40
3.0
 40
3.0
 10
-33.94849250952588
 20
-4.576291363356936
 30
0.0
 10
-34.11622381965225
 20
-3.801027578894063
 30
0.0
 10
-33.67528356585564
 20
-3.448097454184924
 30
0.0
 10
-32.99335932290604
 20
-3.30056051389548
 30
0.0
  0
SPLINE
  5
C6
330
74
100
AcDbEntity
  8
0
100
AcDbSpline
210
0.0
220
0.0
230
1.0
 70
     8
 71
     3
 72
     8
 73
     4
 74
     0
 42
0.000000001
 43
0.00000001
 40
4.0
 40
4.0
 40
4.0
 40
4.0
 40
5.0
 40
5.0
 40
5.0
 40
5.0
 10
-32.85916630414497
 20
-3.271527336675416
 30
0.0
 10
-32.2786944245911
 20
-3.14594000653005
 30
0.0
 10
-31.77109773641243
 20
-3.328116480283148
 30
0.0
 10
-31.56977211870437
 20
-3.967820152272103
 30
0.0
  0
SPLINE
  5
C7
330
74
100
AcDbEntity
  8
0
100
AcDbSpline
210
0.0
220
0.0
230
1.0
 70
     8
 71
     3
 72
     8
 73
     4
 74
     0
 42
0.000000001
 43
0.00000001
 40
6.0
 40
6.0
 40
6.0
 40
6.0
 40
7.0
 40
7.0
 40
7.0
 40
7.0
 10
-29.29695612428625
 20
-3.476087645143529
 30
0.0
 10
-29.68810071971012
 20
-1.866802583842748
 30
0.0
 10
-30.87776107222441
 20
-0.7599478056671497
 30
0.0
 10
-33.27949204955325
 20
-1.266772121690862
 30
0.0
  0
SPLINE
  5
C8
330
74
100
AcDbEntity
  8
0
100
AcDbSpline
210
0.0
220
0.0
230
1.0
 70
     8
 71
     3
 72
     8
 73
     4
 74
     0
 42
0.000000001
 43
0.00000001
 40
8.0
 40
8.0
 40
8.0
 40
8.0
 40
9.0
 40
9.0
 40
9.0
 40
9.0
 10
-33.34488391931659
 20
-1.280919904944554
 30
0.0
 10
-35.81152992452102
 20
-1.828202838410209
 30
0.0
 10
-36.33378487826545
 20
-3.54465012997844
 30
0.0
 10
-36.09207577942843
 20
-4.962606301827474
 30
0.0
  0
SPLINE
  5
C9
330
74
100
AcDbEntity
  8
0
100
AcDbSpline
210
0.0
220
0.0
230
1.0
 70
     8
 71
     3
 72
     8
 73
     4
 74
     0
 42
0.000000001
 43
0.00000001
 40
9.0
 40
9.0
 40
9.0
 40
9.0
 40
10.0
 40
10.0
 40
10.0
 40
10.0
 10
-36.09207577942843
 20
-4.962606301827474
 30
0.0
 10
-35.83736690020325
 20
-6.457652824126185
 30
0.0
 10
-34.96800490008025
 20
-7.196828812263726
 30
0.0
 10
-33.99931718292642
 20
-7.502708028683521
 30
0.0
  0
SPLINE
  5
CA
330
74
100
AcDbEntity
  8
0
100
AcDbSpline
210
0.0
220
0.0
230
1.0
 70
     8
 71
     3
 72
     8
 73
     4
 74
     0
 42
0.000000001
 43
0.00000001
 40
10.0
 40
10.0
 40
10.0
 40
10.0
 40
11.0
 40
11.0
 40
11.0
 40
11.0
 10
-33.99931718292642
 20
-7.502708028683521
 30
0.0
 10
-33.40907414696034
 20
-7.689011641945549
 30
0.0
 10
-32.48616403135102
 20
-7.975318844696811
 30
0.0
 10
-31.47547483016511
 20
-8.271505052332133
 30
0.0
  0
SPLINE
  5
CB
330
74
100
AcDbEntity
  8
0
100
AcDbSpline
210
0.0
220
0.0
230
1.0
 70
     8
 71
     3
 72
     8
 73
     4
 74
     0
 42
0.000000001
 43
0.00000001
 40
11.0
 40
11.0
 40
11.0
 40
11.0
 40
12.0
 40
12.0
 40
12.0
 40
12.0
 10
-31.47547483016511
 20
-8.271505052332133
 30
0.0
 10
-31.11213516930565
 20
-8.377980375833697
 30
0.0
 10
-30.40258052645035
 20
-8.55729511966404
 30
0.0
 10
-30.28870163819746
 20
-9.336631754491275
 30
0.0
  0
SPLINE
  5
CC
330
74
100
AcDbEntity
  8
0
100
AcDbSpline
210
0.0
220
0.0
230
1.0
 70
     8
 71
     3
 72
     8
 73
     4
 74
     0
 42
0.000000001
 43
0.00000001
 40
12.0
 40
12.0
 40
12.0
 40
12.0
 40
13.0
 40
13.0
 40
13.0
 40
13.0
 10
-30.28870163819746
 20
-9.336631754491275
 30
0.0
 10
-30.1883718252622
 20
-10.02498578462436
 30
0.0
 10
-30.64014408852681
 20
-10.43662327702193
 30
0.0
 10
-31.32890793487913
 20
-10.58563999188937
 30
0.0
  0
SPLINE
  5
CD
330
74
100
AcDbEntity
  8
0
100
AcDbSpline
210
0.0
220
0.0
230
1.0
 70
     8
 71
     3
 72
     8
 73
     4
 74
     0
 42
0.000000001
 43
0.00000001
 40
14.0
 40
14.0
 40
14.0
 40
14.0
 40
15.0
 40
15.0
 40
15.0
 40
15.0
 10
-31.46505813246006
 20
-10.61509661229636
 30
0.0
 10
-32.05208024758041
 20
-10.74210111117219
 30
0.0
 10
-32.71260096537058
 20
-10.55064660173623
 30
0.0
 10
-32.8822392924921
 20
-9.937760156430087
 30
0.0
  0
SPLINE
  5
CE
330
74
100
AcDbEntity
  8
0
100
AcDbSpline
210
0.0
220
0.0
230
1.0
 70
     8
 71
     3
 72
     8
 73
     4
 74
     0
 42
0.000000001
 43
0.00000001
 40
16.0
 40
16.0
 40
16.0
 40
16.0
 40
17.0
 40
17.0
 40
17.0
 40
17.0
 10
-35.1888692338865
 20
-10.43680844141459
 30
0.0
 10
-34.81471685749703
 20
-11.8843133271045
 30
0.0
 10
-33.72975075395794
 20
-12.95131992706823
 30
0.0
 10
-31.59496833044066
 20
-12.72957879515504
 30
0.0
  0
SPLINE
  5
CF
330
74
100
AcDbEntity
  8
0
100
AcDbSpline
210
0.0
220
0.0
230
1.0
 70
     8
 71
     3
 72
     8
 73
     4
 74
     0
 42
0.000000001
 43
0.00000001
 40
18.0
 40
18.0
 40
18.0
 40
18.0
 40
19.0
 40
19.0
 40
19.0
 40
19.0
 10
-30.20639204762402
 20
-12.42915496033268
 30
0.0
 10
-28.36320980349184
 20
-11.79454394754582
 30
0.0
 10
-27.78707037380765
 20
-10.41512978795686
 30
0.0
 10
-27.91988511866083
 20
-9.073464993912006
 30
0.0
  0
SPLINE
  5
D0
330
74
100
AcDbEntity
  8
0
100
AcDbSpline
210
0.0
220
0.0
230
1.0
 70
     8
 71
     3
 72
     8
 73
     4
 74
     0
 42
0.000000001
 43
0.00000001
 40
19.0
 40
19.0
 40
19.0
 40
19.0
 40
20.0
 40
20.0
 40
20.0
 40
20.0
 10
-27.91988511866083
 20
-9.073464993912006
 30
0.0
 10
-28.12563217330358
 20
-6.994152508733083
 30
0.0
 10
-29.51271678483619
 20
-6.50510505043454
 30
0.0
 10
-30.23703582864644
 20
-6.251438951366732
 30
0.0
  0
HATCH
  5
D1
330
74
100
AcDbEntity
  8
0
100
AcDbHatch
 10
0.0
 20
0.0
 30
0.0
210
0.0
220
0.0
230
1.0
  2
SOLID
 70
     1
 71
     0
 91
        1
 92
        0
 93
        7
 72
     1
 10
-53.06293521179145
 20
-11.48017794540906
 11
-53.0628942334185
 21
-11.48036734981106
 72
     1
 10
-53.0628942334185
 20
-11.48036734981106
 11
-50.18135879739363
 21
-10.85693604353014
 72
     1
 10
-50.18135879739363
 20
-10.85693604353014
 11
-47.91273279754322
 21
-7.399227366744369
 72
     1
 10
-47.91273279754322
 20
-7.399227366744369
 11
-51.40738209617635
 21
-5.188811056417426
 72
     1
 10
-51.40738209617635
 20
-5.188811056417426
 11
-54.28910693660305
 21
-5.812283341071309
 72
     1
 10
-54.28910693660305
 20
-5.812283341071309
 11
-50.79453412756107
 21
-8.022804320319173
 72
     1
 10
-50.79453412756107
 20
-8.022804320319173
 11
-53.06293521179145
 21
-11.48017794540906
 97
        0
 75
     0
 76
     1
 98
        1
 10
0.0
 20
0.0
  0
HATCH
  5
D2
330
74
100
AcDbEntity
  8
0
100
AcDbHatch
 10
0.0
 20
0.0
 30
0.0
210
0.0
220
0.0
230
1.0
  2
SOLID
 70
     1
 71
     0
 91
        1
 92
        0
 93
        6
 72
     1
 10
-41.53588964704281
 20
-8.986455445432597
 11
-44.41771445090438
 21
-9.609949357561213
 72
     1
 10
-44.41771445090438
 20
-9.609949357561213
 11
-46.68624347197728
 21
-13.06764806762683
 72
     1
 10
-46.68624347197728
 20
-13.06764806762683
 11
-43.23827248082917
 21
-15.24865255879992
 72
     1
 10
-43.23827248082917
 20
-15.24865255879992
 11
-40.35645293820115
 21
-14.62515978495947
 72
     1
 10
-40.35645293820115
 20
-14.62515978495947
 11
-43.80454139731328
 21
-12.44407055830516
 72
     1
 10
-43.80454139731328
 20
-12.44407055830516
 11
-41.53588964704281
 21
-8.986455445432597
 97
        0
 75
     0
 76
     1
 98
        1
 10
0.0
 20
0.0
  0
HATCH
  5
D3
330
74
100
AcDbEntity
  8
0
100
AcDbHatch
 10
0.0
 20
0.0
 30
0.0
210
0.0
220
0.0
230
1.0
  2
SOLID
 70
     1
 71
     0
 91
        1
 92
        0
 93
       20
 72
     4
 94
        3
 73
     1
 74
     0
 95
        8
 96
        4
 40
18.0
 40
18.0
 40
18.0
 40
18.0
 40
19.0
 40
19.0
 40
19.0
 40
19.0
 10
-30.20639204762402
 20
-12.42915496033267
 42
1.0
 10
-28.36320980349188
 20
-11.79454394754584
 42
1.0
 10
-27.78707037380775
 20
-10.41512978795687
 42
1.0
 10
-27.91988511866085
 20
-9.073464993912015
 42
1.0
 72
     4
 94
        3
 73
     1
 74
     0
 95
        8
 96
        4
 40
19.0
 40
19.0
 40
19.0
 40
19.0
 40
20.0
 40
20.0
 40
20.0
 40
20.0
 10
-27.91988511866085
 20
-9.073464993912015
 42
1.0
 10
-28.1256321733036
 20
-6.994152508733093
 42
1.0
 10
-29.51271678483624
 20
-6.505105050434554
 42
1.0
 10
-30.23703582864647
 20
-6.251438951366739
 42
1.0
 72
     4
 94
        3
 73
     1
 74
     0
 95
        8
 96
        4
 40
0.0
 40
0.0
 40
0.0
 40
0.0
 40
1.0
 40
1.0
 40
1.0
 40
1.0
 10
-30.23703582864647
 20
-6.251438951366739
 42
1.0
 10
-30.91043001867278
 20
-6.015603382360466
 42
1.0
 10
-31.40848551125484
 20
-5.893156856121866
 42
1.0
 10
-32.67210357750633
 20
-5.496689523479784
 42
1.0
 72
     4
 94
        3
 73
     1
 74
     0
 95
        8
 96
        4
 40
1.0
 40
1.0
 40
1.0
 40
1.0
 40
2.0
 40
2.0
 40
2.0
 40
2.0
 10
-32.67210357750633
 20
-5.496689523479784
 42
1.0
 10
-33.03332194555515
 20
-5.383421617718138
 42
1.0
 10
-33.81210282496121
 20
-5.206692347750558
 42
1.0
 10
-33.94849250952591
 20
-4.576291363356954
 42
1.0
 72
     4
 94
        3
 73
     1
 74
     0
 95
        8
 96
        4
 40
2.0
 40
2.0
 40
2.0
 40
2.0
 40
3.0
 40
3.0
 40
3.0
 40
3.0
 10
-33.94849250952591
 20
-4.576291363356954
 42
1.0
 10
-34.11622381965228
 20
-3.801027578894066
 42
1.0
 10
-33.67528356585566
 20
-3.448097454184939
 42
1.0
 10
-32.99335932290605
 20
-3.300560513895483
 42
1.0
 72
     1
 10
-32.99335932290605
 20
-3.300560513895483
 11
-32.85916630414502
 21
-3.271527336675422
 72
     4
 94
        3
 73
     1
 74
     0
 95
        8
 96
        4
 40
4.0
 40
4.0
 40
4.0
 40
4.0
 40
5.0
 40
5.0
 40
5.0
 40
5.0
 10
-32.85916630414502
 20
-3.271527336675422
 42
1.0
 10
-32.27869442459117
 20
-3.145940006530068
 42
1.0
 10
-31.77109773641243
 20
-3.328116480283154
 42
1.0
 10
-31.5697721187044
 20
-3.967820152272114
 42
1.0
 72
     1
 10
-31.5697721187044
 20
-3.967820152272114
 11
-29.29695612428624
 21
-3.476087645143523
 72
     4
 94
        3
 73
     1
 74
     0
 95
        8
 96
        4
 40
6.0
 40
6.0
 40
6.0
 40
6.0
 40
7.0
 40
7.0
 40
7.0
 40
7.0
 10
-29.2969561242863
 20
-3.476087645143538
 42
1.0
 10
-29.6881007197101
 20
-1.866802583842747
 42
1.0
 10
-30.87776107222446
 20
-0.7599478056671519
 42
1.0
 10
-33.27949204955327
 20
-1.266772121690873
 42
1.0
 72
     1
 10
-33.27949204955321
 20
-1.266772121690857
 11
-33.3448839193166
 21
-1.280919904944549
 72
     4
 94
        3
 73
     1
 74
     0
 95
        8
 96
        4
 40
8.0
 40
8.0
 40
8.0
 40
8.0
 40
9.0
 40
9.0
 40
9.0
 40
9.0
 10
-33.34488391931666
 20
-1.280919904944565
 42
1.0
 10
-35.8115299245211
 20
-1.828202838410234
 42
1.0
 10
-36.3337848782655
 20
-3.544650129978449
 42
1.0
 10
-36.09207577942846
 20
-4.962606301827486
 42
1.0
 72
     4
 94
        3
 73
     1
 74
     0
 95
        8
 96
        4
 40
9.0
 40
9.0
 40
9.0
 40
9.0
 40
10.0
 40
10.0
 40
10.0
 40
10.0
 10
-36.09207577942846
 20
-4.962606301827486
 42
1.0
 10
-35.83736690020323
 20
-6.457652824126184
 42
1.0
 10
-34.96800490008029
 20
-7.196828812263736
 42
1.0
 10
-33.99931718292643
 20
-7.502708028683525
 42
1.0
 72
     4
 94
        3
 73
     1
 74
     0
 95
        8
 96
        4
 40
10.0
 40
10.0
 40
10.0
 40
10.0
 40
11.0
 40
11.0
 40
11.0
 40
11.0
 10
-33.99931718292643
 20
-7.502708028683525
 42
1.0
 10
-33.40907414696031
 20
-7.689011641945555
 42
1.0
 10
-32.48616403135106
 20
-7.975318844696822
 42
1.0
 10
-31.47547483016516
 20
-8.27150505233215
 42
1.0
 72
     4
 94
        3
 73
     1
 74
     0
 95
        8
 96
        4
 40
11.0
 40
11.0
 40
11.0
 40
11.0
 40
12.0
 40
12.0
 40
12.0
 40
12.0
 10
-31.47547483016516
 20
-8.27150505233215
 42
1.0
 10
-31.11213516930568
 20
-8.377980375833708
 42
1.0
 10
-30.40258052645039
 20
-8.557295119664056
 42
1.0
 10
-30.28870163819752
 20
-9.336631754491272
 42
1.0
 72
     4
 94
        3
 73
     1
 74
     0
 95
        8
 96
        4
 40
12.0
 40
12.0
 40
12.0
 40
12.0
 40
13.0
 40
13.0
 40
13.0
 40
13.0
 10
-30.28870163819752
 20
-9.336631754491272
 42
1.0
 10
-30.18837182526216
 20
-10.02498578462435
 42
1.0
 10
-30.64014408852681
 20
-10.43662327702195
 42
1.0
 10
-31.32890793487914
 20
-10.58563999188937
 42
1.0
 72
     1
 10
-31.32890793487914
 20
-10.58563999188937
 11
-31.46505813246008
 21
-10.61509661229637
 72
     4
 94
        3
 73
     1
 74
     0
 95
        8
 96
        4
 40
14.0
 40
14.0
 40
14.0
 40
14.0
 40
15.0
 40
15.0
 40
15.0
 40
15.0
 10
-31.46505813246008
 20
-10.61509661229637
 42
1.0
 10
-32.05208024758041
 20
-10.7421011111722
 42
1.0
 10
-32.71260096537064
 20
-10.55064660173623
 42
1.0
 10
-32.88223929249212
 20
-9.937760156430087
 42
1.0
 72
     1
 10
-32.88223929249212
 20
-9.937760156430087
 11
-35.18886923388655
 21
-10.43680844141459
 72
     4
 94
        3
 73
     1
 74
     0
 95
        8
 96
        4
 40
16.0
 40
16.0
 40
16.0
 40
16.0
 40
17.0
 40
17.0
 40
17.0
 40
17.0
 10
-35.18886923388649
 20
-10.43680844141459
 42
1.0
 10
-34.81471685749708
 20
-11.88431332710451
 42
1.0
 10
-33.72975075395801
 20
-12.95131992706824
 42
1.0
 10
-31.59496833044075
 20
-12.72957879515506
 42
1.0
 72
     1
 10
-31.59496833044068
 20
-12.72957879515504
 11
-30.20639204762409
 21
-12.42915496033269
 97
        0
 75
     0
 76
     1
 98
        1
 10
0.0
 20
0.0
  0
HATCH
  5
D4
330
74
100
AcDbEntity
  8
0
100
AcDbHatch
 10
0.0
 20
0.0
 30
0.0
210
0.0
220
0.0
230
1.0
  2
SOLID
 70
     1
 71
     0
 91
        1
 92
        0
 93
       11
 72
     1
 10
-23.93083334830058
 20
-6.656177916224847
 11
-23.9305586195879
 21
-1.497666803489873
 72
     1
 10
-23.9305586195879
 20
-1.497666803489873
 11
-20.04326836721582
 21
-10.05945907169815
 72
     1
 10
-20.04326836721582
 20
-10.05945907169815
 11
-17.66870538033285
 21
-9.545713210289948
 72
     1
 10
-17.66870538033285
 20
-9.545713210289948
 11
-22.39983793591613
 21
0.8767293108990284
 72
     1
 10
-22.39983793591613
 20
0.8767293108990277
 11
-26.30586704316552
 21
0.0316448471579831
 72
     1
 10
-26.30586704316552
 20
0.0316448471579831
 11
-26.30567237753049
 21
-11.41435433475813
 72
     1
 10
-26.30567237753049
 20
-11.41435433475813
 11
-23.93111465188077
 21
-10.90060961163804
 72
     1
 10
-23.93111465188077
 20
-10.90060961163804
 11
-23.93099314235586
 21
-8.782594625323274
 72
     1
 10
-23.93099314235586
 20
-8.782594625323274
 11
-22.27383089514867
 21
-8.42406118111162
 72
     1
 10
-22.27383089514867
 20
-8.42406118111162
 11
-22.7133102853523
 21
-6.392762105309743
 72
     1
 10
-22.7133102853523
 20
-6.392762105309743
 11
-23.93083334830058
 21
-6.656177916224847
 97
        0
 75
     0
 76
     1
 98
        1
 10
0.0
 20
0.0
  0
HATCH
  5
D5
330
74
100
AcDbEntity
  8
0
100
AcDbHatch
 10
0.0
 20
0.0
 30
0.0
210
0.0
220
0.0
230
1.0
  2
SOLID
 70
     1
 71
     0
 91
        1
 92
        0
 93
        6
 72
     1
 10
-15.79563263740209
 20
2.305574601061446
 11
-18.06492886668423
 21
1.814603608696526
 72
     4
 94
        3
 73
     1
 74
     0
 95
        8
 96
        4
 40
2.0
 40
2.0
 40
2.0
 40
2.0
 40
3.0
 40
3.0
 40
3.0
 40
3.0
 10
-18.06492886668423
 20
1.814603608696526
 42
1.0
 10
-17.240039650055
 20
-1.995739949107533
 42
1.0
 10
-15.71186186991055
 20
-9.059523950669437
 42
1.0
 10
-15.69887855542098
 20
-9.119533578677919
 42
1.0
 72
     1
 10
-15.69887855542092
 20
-9.119533578677903
 11
-10.22610149671526
 21
-7.93547715235816
 72
     1
 10
-10.22610149671526
 20
-7.93547715235816
 11
-10.66558088691882
 21
-5.904178076556605
 72
     1
 10
-10.66558088691882
 20
-5.904178076556605
 11
-13.86994560355126
 21
-6.597454742918437
 72
     4
 94
        3
 73
     1
 74
     0
 95
        8
 96
        4
 40
0.0
 40
0.0
 40
0.0
 40
0.0
 40
1.0
 40
1.0
 40
1.0
 40
1.0
 10
-13.86994560355126
 20
-6.597454742918437
 42
1.0
 10
-13.88373254946556
 20
-6.533730684138598
 42
1.0
 10
-15.1136551579741
 20
-0.8489574873494129
 42
1.0
 10
-15.79563263740209
 20
2.305574601061446
 42
1.0
 97
        0
 75
     0
 76
     1
 98
        1
 10
0.0
 20
0.0
  0
HATCH
  5
D6
330
74
100
AcDbEntity
  8
0
100
AcDbHatch
 10
0.0
 20
0.0
 30
0.0
210
0.0
220
0.0
230
1.0
  2
SOLID
 70
     1
 71
     0
 91
        1
 92
        0
 93
       11
 72
     1
 10
2.375028433631206
 20
-0.9648032523823513
 11
2.375208460142868
 21
4.193687371166118
 72
     1
 10
2.375208460142868
 20
4.193687371166118
 11
6.262509234981617
 21
-4.368102620465918
 72
     1
 10
6.262509234981617
 20
-4.368102620465917
 11
8.637061699398163
 21
-3.854359035633896
 72
     1
 10
8.637061699398163
 20
-3.854359035633896
 11
3.905939666281055
 21
6.568085762131229
 72
     1
 10
3.905939666281055
 20
6.56808576213123
 11
-0.0000000000001235
 21
5.723020649288631
 72
     1
 10
-0.0000000000001234
 20
5.723020649288631
 11
-0.000000000000185
 21
-5.723020649288537
 72
     1
 10
-0.000000000000185
 20
-5.723020649288538
 11
2.37465768908423
 21
-5.20925429869377
 72
     1
 10
2.37465768908423
 20
-5.20925429869377
 11
2.374784459841949
 21
-3.091238174090979
 72
     1
 10
2.374784459841949
 20
-3.091238174090979
 11
4.031830959914354
 21
-2.732729772218408
 72
     1
 10
4.031830959914354
 20
-2.732729772218408
 11
3.592351569710606
 21
-0.701430696416514
 72
     1
 10
3.592351569710606
 20
-0.7014306964165138
 11
2.375028433631206
 21
-0.9648032523823513
 97
        0
 75
     0
 76
     1
 98
        1
 10
0.0
 20
0.0
  0
HATCH
  5
D7
330
74
100
AcDbEntity
  8
0
100
AcDbHatch
 10
0.0
 20
0.0
 30
0.0
210
0.0
220
0.0
230
1.0
  2
SOLID
 70
     1
 71
     0
 91
        1
 92
        0
 93
        8
 72
     1
 10
-42.14906497721024
 20
-6.152323722221632
 11
-42.76219705242848
 21
-3.318391925879333
 72
     1
 10
-42.76219705242848
 20
-3.318391925879333
 11
-42.76249168149826
 21
-3.318455670015027
 72
     1
 10
-42.76249168149826
 20
-3.318455670015027
 11
-45.03079507887072
 21
-6.775797145163721
 72
     1
 10
-45.03079507887072
 20
-6.775797145163721
 11
-48.52545732888054
 21
-4.565295516814268
 72
     1
 10
-48.52545732888054
 20
-4.565295516814268
 11
-48.52574669671678
 21
-4.565358122661792
 72
     1
 10
-48.52574669671678
 20
-4.565358122661792
 11
-47.91261462149855
 21
-7.39928991900409
 72
     1
 10
-47.91261462149855
 20
-7.39928991900409
 11
-44.41773721666716
 21
-9.60984413289331
 72
     1
 10
-44.41773721666716
 20
-9.60984413289331
 11
-42.14906497721024
 21
-6.152323722221632
 97
        0
 75
     0
 76
     1
 98
        1
 10
0.0
 20
0.0
  0
HATCH
  5
D8
330
74
100
AcDbEntity
  8
0
100
AcDbHatch
 10
0.0
 20
0.0
 30
0.0
210
0.0
220
0.0
230
1.0
  2
SOLID
 70
     1
 71
     0
 91
        1
 92
        0
 93
        8
 72
     1
 10
-46.11999732125613
 20
-15.87212484345383
 11
-46.08139565189786
 21
-15.8637732233933
 72
     1
 10
-46.08139565189786
 20
-15.8637732233933
 11
-46.68636620117444
 21
-13.06756447043367
 72
     1
 10
-46.68636620117444
 20
-13.06756447043367
 11
-50.18135879739361
 21
-10.85693604353009
 72
     1
 10
-50.18135879739361
 20
-10.85693604353009
 11
-52.44976215820033
 21
-14.31429914615315
 72
     1
 10
-52.44976215820033
 20
-14.31429914615315
 11
-51.84475063055083
 21
-17.11069730351469
 72
     1
 10
-51.84475063055083
 20
-17.11069730351469
 11
-51.80633836559459
 21
-17.1023866618271
 72
     1
 10
-51.80633836559459
 20
-17.1023866618271
 11
-49.56818574380249
 21
-13.69105724427409
 72
     1
 10
-49.56818574380249
 20
-13.69105724427409
 11
-46.11999732125613
 21
-15.87212484345383
 97
        0
 75
     0
 76
     1
 98
        1
 10
0.0
 20
0.0
  0
HATCH
  5
D9
330
74
100
AcDbEntity
  8
0
100
AcDbHatch
 10
0.0
 20
0.0
 30
0.0
210
0.0
220
0.0
230
1.0
  2
SOLID
 70
     1
 71
     0
 91
        2
 92
        0
 93
        7
 72
     1
 10
-6.859585567104196
 20
4.238922852960538
 11
-11.00449045380928
 21
3.342156692939393
 72
     1
 10
-11.00449045380928
 20
3.342156692939393
 11
-8.638829473816639
 21
-7.592064727757184
 72
     1
 10
-8.638829473816639
 20
-7.592064727757185
 11
-8.63844014254617
 21
-7.591980494435086
 72
     1
 10
-8.63844014254617
 20
-7.591980494435086
 11
-4.494024550545999
 21
-6.695320195210662
 72
     4
 94
        3
 73
     1
 74
     0
 95
        8
 96
        4
 40
3.0
 40
3.0
 40
3.0
 40
3.0
 40
4.0
 40
4.0
 40
4.0
 40
4.0
 10
-4.494024550545999
 20
-6.695320195210662
 42
1.0
 10
-2.825524345390513
 20
-6.334333740063992
 42
1.0
 10
-1.762658323115034
 20
-4.702068307882374
 42
1.0
 10
-2.120071189640999
 20
-3.049576315093403
 42
1.0
 72
     4
 94
        3
 73
     1
 74
     0
 95
        8
 96
        4
 40
4.0
 40
4.0
 40
4.0
 40
4.0
 40
5.0
 40
5.0
 40
5.0
 40
5.0
 10
-2.120071189640999
 20
-3.049576315093403
 42
1.0
 10
-2.485983017556096
 20
-1.358310753073632
 42
1.0
 10
-2.867352798370483
 20
0.4044023583376265
 42
1.0
 10
-3.190995488197396
 20
1.900704823656681
 42
1.0
 72
     4
 94
        3
 73
     1
 74
     0
 95
        8
 96
        4
 40
5.0
 40
5.0
 40
5.0
 40
5.0
 40
6.0
 40
6.0
 40
6.0
 40
6.0
 10
-3.190995488197396
 20
1.900704823656681
 42
1.0
 10
-3.54857504695031
 20
3.553458157285876
 42
1.0
 10
-5.190901218780231
 20
4.599949148191988
 42
1.0
 10
-6.859585567104196
 20
4.238922852960538
 42
1.0
 97
        0
 92
        0
 93
        6
 72
     4
 94
        3
 73
     1
 74
     0
 95
        8
 96
        4
 40
2.0
 40
2.0
 40
2.0
 40
2.0
 40
3.0
 40
3.0
 40
3.0
 40
3.0
 10
-6.919811195494074
 20
2.099808074263809
 42
1.0
 10
-6.228016878711183
 20
2.249480443098069
 42
1.0
 10
-5.547633595833446
 20
1.815851349115847
 42
1.0
 10
-5.399398884916104
 20
1.130701970100344
 42
1.0
 72
     4
 94
        3
 73
     1
 74
     0
 95
        8
 96
        4
 40
3.0
 40
3.0
 40
3.0
 40
3.0
 40
4.0
 40
4.0
 40
4.0
 40
4.0
 10
-5.399398884916104
 20
1.130701970100344
 42
1.0
 10
-5.107009087764085
 20
-0.2207405274728672
 42
1.0
 10
-4.711497421058354
 20
-2.048334586467611
 42
1.0
 10
-4.449160707297047
 20
-3.260870000165379
 42
1.0
 72
     4
 94
        3
 73
     1
 74
     0
 95
        8
 96
        4
 40
4.0
 40
4.0
 40
4.0
 40
4.0
 40
5.0
 40
5.0
 40
5.0
 40
5.0
 10
-4.449160707297047
 20
-3.260870000165379
 42
1.0
 10
-4.300905507193207
 20
-3.946114081381999
 42
1.0
 10
-4.741570606399121
 20
-4.622385452066122
 42
1.0
 10
-5.433383135791953
 20
-4.771973641166296
 42
1.0
 72
     1
 10
-5.433383135791953
 20
-4.771973641166296
 11
-6.809537646582547
 21
-5.069709977697404
 72
     4
 94
        3
 73
     1
 74
     0
 95
        8
 96
        4
 40
0.0
 40
0.0
 40
0.0
 40
0.0
 40
1.0
 40
1.0
 40
1.0
 40
1.0
 10
-6.809537646582547
 20
-5.069709977697404
 42
1.0
 10
-7.284290309572815
 20
-2.875375801708635
 42
1.0
 10
-7.897830097865885
 20
-0.0390758678013329
 42
1.0
 10
-8.296070930952649
 20
1.80204897196991
 42
1.0
 72
     1
 10
-8.296070930952649
 20
1.80204897196991
 11
-6.919811195494074
 21
2.099808074263809
 97
        0
 75
     0
 76
     1
 98
        1
 10
0.0
 20
0.0
  0
ENDBLK
  5
76
330
74
100
AcDbEntity
  8
0
100
AcDbBlockEnd
  0
BLOCK
  5
6C4
330
6C3
100
AcDbEntity
  8
0
100
AcDbBlockBegin
  2
*U3
 70
     1
 10
0.0
 20
0.0
 30
0.0
  3
*U3
  1

  0
TEXT
  5
6C5
330
6C3
100
AcDbEntity
  8
LENKIMO
  6
CENTERX2
100
AcDbText
 10
799.0717146298566
 20
1100.336970457902
 30
0.0
 40
100.0
  1
A
100
AcDbText
  0
ENDBLK
  5
6C6
330
6C3
100
AcDbEntity
  8
0
100
AcDbBlockEnd
  0
BLOCK
  5
6C9
330
6C8
100
AcDbEntity
  8
0
100
AcDbBlockBegin
  2
*U4
 70
     1
 10
0.0
 20
0.0
 30
0.0
  3
*U4
  1

  0
TEXT
  5
6CA
330
6C8
100
AcDbEntity
  8
LENKIMO
  6
CENTERX2
100
AcDbText
 10
801.2712978691851
 20
1410.897389739665
 30
0.0
 40
100.0
  1
B
100
AcDbText
  0
ENDBLK
  5
6CB
330
6C8
100
AcDbEntity
  8
0
100
AcDbBlockEnd
  0
BLOCK
  5
6DE
330
6DD
100
AcDbEntity
  8
0
100
AcDbBlockBegin
  2
*U5
 70
     1
 10
0.0
 20
0.0
 30
0.0
  3
*U5
  1

  0
TEXT
  5
6DF
330
6DD
100
AcDbEntity
  8
LENKIMO
  6
CENTERX2
100
AcDbText
 10
801.2712978691851
 20
1410.897389739665
 30
0.0
 40
100.0
  1
B
100
AcDbText
  0
ENDBLK
  5
6E0
330
6DD
100
AcDbEntity
  8
0
100
AcDbBlockEnd
  0
ENDSEC
  0
SECTION
  2
ENTITIES
  0
LINE
  5
DE
330
1F
100
AcDbEntity
  8
0
100
AcDbLine
 10
493.1542060982
 20
424.682859403
 30
0.0
 11
493.0542060982
 21
424.682859403
 31
0.0
  0
LINE
  5
E3
330
1F
100
AcDbEntity
  8
0
100
AcDbLine
 10
493.0542060982
 20
0.682859403
 30
0.0
 11
493.1542060982
 21
0.682859403
 31
0.0
  0
LINE
  5
EB
330
1F
100
AcDbEntity
  8
0
100
AcDbLine
 10
36.2542060982
 20
424.682859403
 30
0.0
 11
36.1542060982
 21
424.682859403
 31
0.0
  0
LINE
  5
EE
330
1F
100
AcDbEntity
  8
0
100
AcDbLine
 10
36.1542060982
 20
0.682859403
 30
0.0
 11
36.2542060982
 21
0.682859403
 31
0.0
  0
LINE
  5
FA
330
1F
100
AcDbEntity
  8
0
100
AcDbLine
 10
492.5542060982
 20
3.332859403
 30
0.0
 11
488.0542060982
 21
3.332859403
 31
0.0
  0
LINE
  5
FB
330
1F
100
AcDbEntity
  8
0
100
AcDbLine
 10
488.0542060982
 20
-4.967140597
 30
0.0
 11
492.5542060982
 21
-4.967140597
 31
0.0
  0
LINE
  5
FC
330
1F
100
AcDbEntity
  8
0
100
AcDbLine
 10
492.5542060982
 20
-4.967140597
 30
0.0
 11
493.0542060982
 21
-4.467140597
 31
0.0
  0
LINE
  5
FD
330
1F
100
AcDbEntity
  8
0
100
AcDbLine
 10
493.0542060982
 20
2.832859403
 30
0.0
 11
492.5542060982
 21
3.332859403
 31
0.0
  0
LINE
  5
FE
330
1F
100
AcDbEntity
  8
0
100
AcDbLine
 10
36.7542060982
 20
-4.967140597
 30
0.0
 11
41.2542060982
 21
-4.967140597
 31
0.0
  0
LINE
  5
FF
330
1F
100
AcDbEntity
  8
0
100
AcDbLine
 10
41.2542060982
 20
3.332859403
 30
0.0
 11
36.7542060982
 21
3.332859403
 31
0.0
  0
LINE
  5
100
330
1F
100
AcDbEntity
  8
0
100
AcDbLine
 10
36.7542060982
 20
3.332859403
 30
0.0
 11
36.2542060982
 21
2.832859403
 31
0.0
  0
LINE
  5
101
330
1F
100
AcDbEntity
  8
0
100
AcDbLine
 10
36.2542060982
 20
-4.467140597
 30
0.0
 11
36.7542060982
 21
-4.967140597
 31
0.0
  0
LINE
  5
102
330
1F
100
AcDbEntity
  8
0
100
AcDbLine
 10
492.5542060982
 20
430.332859403
 30
0.0
 11
489.1542060982
 21
430.332859403
 31
0.0
  0
LINE
  5
103
330
1F
100
AcDbEntity
  8
0
100
AcDbLine
 10
489.1542060982
 20
422.032859403
 30
0.0
 11
492.5542060982
 21
422.032859403
 31
0.0
  0
LINE
  5
104
330
1F
100
AcDbEntity
  8
0
100
AcDbLine
 10
492.5542060982
 20
422.032859403
 30
0.0
 11
493.0542060982
 21
422.532859403
 31
0.0
  0
LINE
  5
105
330
1F
100
AcDbEntity
  8
0
100
AcDbLine
 10
493.0542060982
 20
429.832859403
 30
0.0
 11
492.5542060982
 21
430.332859403
 31
0.0
  0
LINE
  5
106
330
1F
100
AcDbEntity
  8
0
100
AcDbLine
 10
36.7542060982
 20
422.032859403
 30
0.0
 11
40.1542060982
 21
422.032859403
 31
0.0
  0
LINE
  5
107
330
1F
100
AcDbEntity
  8
0
100
AcDbLine
 10
40.1542060982
 20
430.332859403
 30
0.0
 11
36.7542060982
 21
430.332859403
 31
0.0
  0
LINE
  5
108
330
1F
100
AcDbEntity
  8
0
100
AcDbLine
 10
36.7542060982
 20
430.332859403
 30
0.0
 11
36.2542060982
 21
429.832859403
 31
0.0
  0
LINE
  5
109
330
1F
100
AcDbEntity
  8
0
100
AcDbLine
 10
36.2542060982
 20
422.532859403
 30
0.0
 11
36.7542060982
 21
422.032859403
 31
0.0
  0
LINE
  5
10A
330
1F
100
AcDbEntity
  8
0
100
AcDbLine
 10
486.6542060982
 20
-6.317140597
 30
0.0
 11
487.0542060982
 21
-6.317140597
 31
0.0
  0
LINE
  5
10B
330
1F
100
AcDbEntity
  8
0
100
AcDbLine
 10
487.0542060982
 20
4.682859403
 30
0.0
 11
486.6542060982
 21
4.682859403
 31
0.0
  0
ARC
  5
10C
330
1F
100
AcDbEntity
  8
0
100
AcDbCircle
 10
487.0542060982
 20
3.682859403
 30
0.0
 40
1.000000000000057
100
AcDbArc
 50
360.0
 51
90.0
  0
ARC
  5
10D
330
1F
100
AcDbEntity
  8
0
100
AcDbCircle
 10
487.0542060982
 20
-5.317140597
 30
0.0
 40
1.000000000000002
100
AcDbArc
 50
270.0
 51
0.0
  0
LINE
  5
10E
330
1F
100
AcDbEntity
  8
0
100
AcDbLine
 10
486.6542060982
 20
50.182859403
 30
0.0
 11
487.0542060982
 21
50.182859403
 31
0.0
  0
LINE
  5
10F
330
1F
100
AcDbEntity
  8
0
100
AcDbLine
 10
487.0542060982
 20
61.182859403
 30
0.0
 11
486.6542060982
 21
61.182859403
 31
0.0
  0
ARC
  5
110
330
1F
100
AcDbEntity
  8
0
100
AcDbCircle
 10
487.0542060982
 20
60.182859403
 30
0.0
 40
1.0
100
AcDbArc
 50
53.1301023544
 51
90.0
  0
ARC
  5
111
330
1F
100
AcDbEntity
  8
0
100
AcDbCircle
 10
487.0542060982
 20
51.182859403
 30
0.0
 40
1.0
100
AcDbArc
 50
270.0
 51
306.8698976456
  0
ARC
  5
112
330
1F
100
AcDbEntity
  8
0
100
AcDbCircle
 10
42.2542060982
 20
10.182859403
 30
0.0
 40
1.000000000000002
100
AcDbArc
 50
90.0
 51
126.8698976461
  0
LINE
  5
113
330
1F
100
AcDbEntity
  8
0
100
AcDbLine
 10
42.6542060982
 20
11.182859403
 30
0.0
 11
42.2542060982
 21
11.182859403
 31
0.0
  0
LINE
  5
114
330
1F
100
AcDbEntity
  8
0
100
AcDbLine
 10
42.6542060982
 20
61.182859403
 30
0.0
 11
42.2542060982
 21
61.182859403
 31
0.0
  0
LINE
  5
115
330
1F
100
AcDbEntity
  8
0
100
AcDbLine
 10
42.2542060982
 20
50.182859403
 30
0.0
 11
42.6542060982
 21
50.182859403
 31
0.0
  0
ARC
  5
116
330
1F
100
AcDbEntity
  8
0
100
AcDbCircle
 10
42.2542060982
 20
51.182859403
 30
0.0
 40
1.000000000000003
100
AcDbArc
 50
233.1301023539
 51
270.0
  0
ARC
  5
117
330
1F
100
AcDbEntity
  8
0
100
AcDbCircle
 10
42.2542060982
 20
60.182859403
 30
0.0
 40
1.000000000000003
100
AcDbArc
 50
90.0
 51
126.8698976461
  0
LINE
  5
118
330
1F
100
AcDbEntity
  8
0
100
AcDbLine
 10
487.0542060982
 20
11.182859403
 30
0.0
 11
486.6542060982
 21
11.182859403
 31
0.0
  0
ARC
  5
119
330
1F
100
AcDbEntity
  8
0
100
AcDbCircle
 10
487.0542060982
 20
10.182859403
 30
0.0
 40
1.000000000000013
100
AcDbArc
 50
53.1301023544
 51
90.0
  0
ARC
  5
11A
330
1F
100
AcDbEntity
  8
0
100
AcDbCircle
 10
42.2542060982
 20
-5.317140597
 30
0.0
 40
1.000000000000001
100
AcDbArc
 50
180.0
 51
270.0
  0
ARC
  5
11B
330
1F
100
AcDbEntity
  8
0
100
AcDbCircle
 10
42.2542060982
 20
3.682859403
 30
0.0
 40
1.000000000000001
100
AcDbArc
 50
90.0
 51
180.0
  0
LINE
  5
11C
330
1F
100
AcDbEntity
  8
0
100
AcDbLine
 10
42.6542060982
 20
4.682859403
 30
0.0
 11
42.2542060982
 21
4.682859403
 31
0.0
  0
LINE
  5
11D
330
1F
100
AcDbEntity
  8
0
100
AcDbLine
 10
42.2542060982
 20
-6.317140597
 30
0.0
 11
42.6542060982
 21
-6.317140597
 31
0.0
  0
ARC
  5
122
330
1F
100
AcDbEntity
  8
0
100
AcDbCircle
 10
513.5042060982
 20
113.932859403
 30
0.0
 40
1.25
100
AcDbArc
 50
270.0
 51
0.0
  0
ARC
  5
123
330
1F
100
AcDbEntity
  8
0
100
AcDbCircle
 10
513.5042060982
 20
311.432859403
 30
0.0
 40
1.250000000000114
100
AcDbArc
 50
0.0
 51
90.0
  0
LINE
  5
124
330
1F
100
AcDbEntity
  8
0
100
AcDbLine
 10
514.7542060982
 20
113.932859403
 30
0.0
 11
514.7542060982
 21
311.432859403
 31
0.0
  0
LINE
  5
125
330
1F
100
AcDbEntity
  8
0
100
AcDbLine
 10
486.6542060982
 20
112.682859403
 30
0.0
 11
494.3649152504
 21
112.682859403
 31
0.0
  0
LINE
  5
126
330
1F
100
AcDbEntity
  8
0
100
AcDbLine
 10
494.3649152504
 20
312.682859403
 30
0.0
 11
486.6542060982
 21
312.682859403
 31
0.0
  0
LINE
  5
127
330
1F
100
AcDbEntity
  8
0
100
AcDbLine
 10
494.3649152504
 20
112.682859403
 30
0.0
 11
496.9355816625
 21
114.482859403
 31
0.0
  0
LINE
  5
128
330
1F
100
AcDbEntity
  8
0
100
AcDbLine
 10
496.9355816625
 20
310.882859403
 30
0.0
 11
494.3649152504
 21
312.682859403
 31
0.0
  0
LINE
  5
129
330
1F
100
AcDbEntity
  8
0
100
AcDbLine
 10
509.7542060982
 20
112.682859403
 30
0.0
 11
513.5042060982
 21
112.682859403
 31
0.0
  0
LINE
  5
12A
330
1F
100
AcDbEntity
  8
0
100
AcDbLine
 10
513.5042060982
 20
312.682859403
 30
0.0
 11
509.7542060982
 21
312.682859403
 31
0.0
  0
LINE
  5
12B
330
1F
100
AcDbEntity
  8
0
100
AcDbLine
 10
509.4544136364
 20
113.482859403
 30
0.0
 11
509.7542060982
 21
113.482859403
 31
0.0
  0
LINE
  5
12C
330
1F
100
AcDbEntity
  8
0
100
AcDbLine
 10
509.7542060982
 20
311.882859403
 30
0.0
 11
509.4544136364
 21
311.882859403
 31
0.0
  0
LINE
  5
12D
330
1F
100
AcDbEntity
  8
0
100
AcDbLine
 10
496.9355816625
 20
114.482859403
 30
0.0
 11
503.2946525842
 21
114.482859403
 31
0.0
  0
LINE
  5
12E
330
1F
100
AcDbEntity
  8
0
100
AcDbLine
 10
503.2946525842
 20
310.882859403
 30
0.0
 11
496.9355816625
 21
310.882859403
 31
0.0
  0
LINE
  5
133
330
1F
100
AcDbEntity
  8
0
100
AcDbLine
 10
42.6542060982
 20
312.682859403
 30
0.0
 11
34.943496946
 21
312.682859403
 31
0.0
  0
LINE
  5
134
330
1F
100
AcDbEntity
  8
0
100
AcDbLine
 10
34.943496946
 20
112.682859403
 30
0.0
 11
42.6542060982
 21
112.682859403
 31
0.0
  0
LINE
  5
135
330
1F
100
AcDbEntity
  8
0
100
AcDbLine
 10
34.943496946
 20
312.682859403
 30
0.0
 11
32.3728305338
 21
310.882859403
 31
0.0
  0
LINE
  5
136
330
1F
100
AcDbEntity
  8
0
100
AcDbLine
 10
32.3728305338
 20
114.482859403
 30
0.0
 11
34.943496946
 21
112.682859403
 31
0.0
  0
LINE
  5
137
330
1F
100
AcDbEntity
  8
0
100
AcDbLine
 10
19.5542060982
 20
312.682859403
 30
0.0
 11
15.8042060982
 21
312.682859403
 31
0.0
  0
LINE
  5
138
330
1F
100
AcDbEntity
  8
0
100
AcDbLine
 10
15.8042060982
 20
112.682859403
 30
0.0
 11
19.5542060982
 21
112.682859403
 31
0.0
  0
ARC
  5
139
330
1F
100
AcDbEntity
  8
0
100
AcDbCircle
 10
15.8042060982
 20
311.432859403
 30
0.0
 40
1.250000000000057
100
AcDbArc
 50
90.0
 51
180.0
  0
ARC
  5
13A
330
1F
100
AcDbEntity
  8
0
100
AcDbCircle
 10
15.8042060982
 20
113.932859403
 30
0.0
 40
1.249999999999986
100
AcDbArc
 50
180.0
 51
270.0
  0
LINE
  5
13B
330
1F
100
AcDbEntity
  8
0
100
AcDbLine
 10
14.5542060982
 20
311.432859403
 30
0.0
 11
14.5542060982
 21
113.932859403
 31
0.0
  0
LINE
  5
13C
330
1F
100
AcDbEntity
  8
0
100
AcDbLine
 10
19.85399856
 20
311.882859403
 30
0.0
 11
19.5542060982
 21
311.882859403
 31
0.0
  0
LINE
  5
13D
330
1F
100
AcDbEntity
  8
0
100
AcDbLine
 10
19.5542060982
 20
113.482859403
 30
0.0
 11
19.85399856
 21
113.482859403
 31
0.0
  0
LINE
  5
13E
330
1F
100
AcDbEntity
  8
0
100
AcDbLine
 10
32.3728305338
 20
310.882859403
 30
0.0
 11
26.0137596122
 21
310.882859403
 31
0.0
  0
LINE
  5
13F
330
1F
100
AcDbEntity
  8
0
100
AcDbLine
 10
26.0137596122
 20
114.482859403
 30
0.0
 11
32.3728305338
 21
114.482859403
 31
0.0
  0
LINE
  5
140
330
1F
100
AcDbEntity
  8
0
100
AcDbLine
 10
520.6542060982
 20
416.682859403
 30
0.0
 11
527.6542060982
 21
416.682859403
 31
0.0
  0
LINE
  5
141
330
1F
100
AcDbEntity
  8
0
100
AcDbLine
 10
520.6542060982
 20
407.682859403
 30
0.0
 11
520.6542060982
 21
416.682859403
 31
0.0
  0
LINE
  5
142
330
1F
100
AcDbEntity
  8
0
100
AcDbLine
 10
528.6542060982
 20
407.682859403
 30
0.0
 11
528.6542060982
 21
341.682859403
 31
0.0
  0
LINE
  5
143
330
1F
100
AcDbEntity
  8
0
100
AcDbLine
 10
521.6542060982
 20
352.682859403
 30
0.0
 11
520.6542060982
 21
352.682859403
 31
0.0
  0
LINE
  5
144
330
1F
100
AcDbEntity
  8
0
100
AcDbLine
 10
520.6542060982
 20
344.682859403
 30
0.0
 11
521.6542060982
 21
344.682859403
 31
0.0
  0
LINE
  5
145
330
1F
100
AcDbEntity
  8
0
100
AcDbLine
 10
521.6542060982
 20
344.682859403
 30
0.0
 11
521.6542060982
 21
352.682859403
 31
0.0
  0
LINE
  5
146
330
1F
100
AcDbEntity
  8
0
100
AcDbLine
 10
521.6542060982
 20
396.682859403
 30
0.0
 11
521.6542060982
 21
404.682859403
 31
0.0
  0
LINE
  5
147
330
1F
100
AcDbEntity
  8
0
100
AcDbLine
 10
520.6542060982
 20
396.682859403
 30
0.0
 11
521.6542060982
 21
396.682859403
 31
0.0
  0
LINE
  5
148
330
1F
100
AcDbEntity
  8
0
100
AcDbLine
 10
521.6542060982
 20
404.682859403
 30
0.0
 11
520.6542060982
 21
404.682859403
 31
0.0
  0
LINE
  5
149
330
1F
100
AcDbEntity
  8
0
100
AcDbLine
 10
520.6542060982
 20
407.682859403
 30
0.0
 11
520.6542060982
 21
404.682859403
 31
0.0
  0
LINE
  5
14A
330
1F
100
AcDbEntity
  8
0
100
AcDbLine
 10
520.6542060982
 20
396.682859403
 30
0.0
 11
520.6542060982
 21
352.682859403
 31
0.0
  0
LINE
  5
14B
330
1F
100
AcDbEntity
  8
0
100
AcDbLine
 10
520.6542060982
 20
344.682859403
 30
0.0
 11
520.6542060982
 21
341.682859403
 31
0.0
  0
LINE
  5
14C
330
1F
100
AcDbEntity
  8
0
100
AcDbLine
 10
528.6542060982
 20
415.682859403
 30
0.0
 11
528.6542060982
 21
407.682859403
 31
0.0
  0
ARC
  5
14D
330
1F
100
AcDbEntity
  8
0
100
AcDbCircle
 10
527.6542060982
 20
415.682859403
 30
0.0
 40
1.000000000000114
100
AcDbArc
 50
0.0
 51
90.0
  0
LINE
  5
14E
330
1F
100
AcDbEntity
  8
0
100
AcDbLine
 10
528.6542060982
 20
341.682859403
 30
0.0
 11
528.6542060982
 21
333.682859403
 31
0.0
  0
ARC
  5
14F
330
1F
100
AcDbEntity
  8
0
100
AcDbCircle
 10
527.6542060982
 20
333.682859403
 30
0.0
 40
1.000000000000114
100
AcDbArc
 50
270.0
 51
0.0
  0
LINE
  5
150
330
1F
100
AcDbEntity
  8
0
100
AcDbLine
 10
527.6542060982
 20
332.682859403
 30
0.0
 11
520.6542060982
 21
332.682859403
 31
0.0
  0
LINE
  5
151
330
1F
100
AcDbEntity
  8
0
100
AcDbLine
 10
520.6542060982
 20
332.682859403
 30
0.0
 11
520.6542060982
 21
341.682859403
 31
0.0
  0
LINE
  5
152
330
1F
100
AcDbEntity
  8
0
100
AcDbLine
 10
520.6542060982
 20
416.682859403
 30
0.0
 11
518.6542060982
 21
416.682859403
 31
0.0
  0
LINE
  5
153
330
1F
100
AcDbEntity
  8
0
100
AcDbLine
 10
518.6542060982
 20
416.682859403
 30
0.0
 11
518.6542060982
 21
407.682859403
 31
0.0
  0
LINE
  5
154
330
1F
100
AcDbEntity
  8
0
100
AcDbLine
 10
520.6542060982
 20
407.682859403
 30
0.0
 11
520.6542060982
 21
341.682859403
 31
0.0
  0
LINE
  5
155
330
1F
100
AcDbEntity
  8
0
100
AcDbLine
 10
518.6542060982
 20
407.682859403
 30
0.0
 11
518.6542060982
 21
341.682859403
 31
0.0
  0
LINE
  5
156
330
1F
100
AcDbEntity
  8
0
100
AcDbLine
 10
520.6542060982
 20
332.682859403
 30
0.0
 11
518.6542060982
 21
332.682859403
 31
0.0
  0
LINE
  5
157
330
1F
100
AcDbEntity
  8
0
100
AcDbLine
 10
518.6542060982
 20
341.682859403
 30
0.0
 11
518.6542060982
 21
332.682859403
 31
0.0
  0
LINE
  5
158
330
1F
100
AcDbEntity
  8
0
100
AcDbLine
 10
489.6542060982
 20
414.682859403
 30
0.0
 11
518.6542060982
 21
414.682859403
 31
0.0
  0
LINE
  5
159
330
1F
100
AcDbEntity
  8
0
100
AcDbLine
 10
489.6542060982
 20
414.682859403
 30
0.0
 11
489.1542060982
 21
414.6408992945
 31
0.0
  0
LINE
  5
15A
330
1F
100
AcDbEntity
  8
0
100
AcDbLine
 10
518.6542060982
 20
334.682859403
 30
0.0
 11
489.6542060982
 21
334.682859403
 31
0.0
  0
ARC
  5
15B
330
1F
100
AcDbEntity
  8
0
100
AcDbCircle
 10
489.6542060982
 20
337.682859403
 30
0.0
 40
3.0
100
AcDbArc
 50
180.0
 51
270.0
  0
SPLINE
  5
15C
330
1F
100
AcDbEntity
  8
0
100
AcDbSpline
210
0.0
220
0.0
230
1.0
 70
     8
 71
     3
 72
    11
 73
     7
 74
     0
 42
0.000000001
 43
0.00000001
 40
0.0
 40
0.0
 40
0.0
 40
0.0
 40
0.2500000000000006
 40
0.5
 40
0.7500000000000004
 40
1.0
 40
1.0
 40
1.0
 40
1.0
 10
42.65420609817872
 20
434.2828594029949
 30
0.0
 10
42.62979832994424
 20
434.6104520125106
 30
0.0
 10
42.58098279347527
 20
435.2656372315418
 30
0.0
 10
42.50775948877206
 20
436.0919995742839
 30
0.0
 10
42.43453618406856
 20
436.67012260709
 30
0.0
 10
42.38572064759971
 20
436.7452804710267
 30
0.0
 10
42.36131287936529
 20
436.7828594029949
 30
0.0
  0
LINE
  5
15D
330
1F
100
AcDbEntity
  8
0
100
AcDbLine
 10
42.3613128794
 20
436.782859403
 30
0.0
 11
120.1542060982
 21
436.782859403
 31
0.0
  0
LINE
  5
15E
330
1F
100
AcDbEntity
  8
0
100
AcDbLine
 10
120.1542060982
 20
436.782859403
 30
0.0
 11
120.1542060982
 21
434.682859403
 31
0.0
  0
LINE
  5
15F
330
1F
100
AcDbEntity
  8
0
100
AcDbLine
 10
42.6542060982
 20
353.282859403
 30
0.0
 11
40.1542060982
 21
353.282859403
 31
0.0
  0
LINE
  5
160
330
1F
100
AcDbEntity
  8
0
100
AcDbLine
 10
40.1542060982
 20
353.282859403
 30
0.0
 11
40.1542060982
 21
434.5757526218
 31
0.0
  0
SPLINE
  5
161
330
1F
100
AcDbEntity
  8
0
100
AcDbSpline
210
0.0
220
0.0
230
1.0
 70
     8
 71
     3
 72
    11
 73
     7
 74
     0
 42
0.000000001
 43
0.00000001
 40
0.0
 40
0.0
 40
0.0
 40
0.0
 40
0.2500000000000016
 40
0.5000000000000031
 40
0.7499999999999957
 40
1.0
 40
1.0
 40
1.0
 40
1.0
 10
40.15420609817871
 20
434.5757526218084
 30
0.0
 10
40.19178503014703
 20
434.5513448535739
 30
0.0
 10
40.26694289408356
 20
434.5025293171051
 30
0.0
 10
40.84506592688969
 20
434.4293060124015
 30
0.0
 10
41.67142826963194
 20
434.3560827076984
 30
0.0
 10
42.32661348866307
 20
434.3072671712294
 30
0.0
 10
42.65420609817872
 20
434.2828594029949
 30
0.0
  0
SPLINE
  5
162
330
1F
100
AcDbEntity
  8
0
100
AcDbSpline
210
0.0
220
0.0
230
1.0
 70
     8
 71
     3
 72
    11
 73
     7
 74
     0
 42
0.000000001
 43
0.00000001
 40
0.0
 40
0.0
 40
0.0
 40
0.0
 40
0.2500000000000004
 40
0.5
 40
0.7500000000000061
 40
1.0
 40
1.0
 40
1.0
 40
1.0
 10
42.65420609817872
 20
434.2828594029949
 30
0.0
 10
42.62979832994424
 20
434.4138964468012
 30
0.0
 10
42.58098279347539
 20
434.6759705344136
 30
0.0
 10
42.50775948877195
 20
435.0065154715107
 30
0.0
 10
42.43453618406867
 20
435.2377646846329
 30
0.0
 10
42.38572064759965
 20
435.2678278302076
 30
0.0
 10
42.36131287936529
 20
435.2828594029949
 30
0.0
  0
LINE
  5
163
330
1F
100
AcDbEntity
  8
0
100
AcDbLine
 10
42.3613128794
 20
436.782859403
 30
0.0
 11
42.3613128794
 21
435.282859403
 31
0.0
  0
LINE
  5
164
330
1F
100
AcDbEntity
  8
0
100
AcDbLine
 10
40.1542060982
 20
434.5757526218
 30
0.0
 11
41.6542060982
 21
434.5757526218
 31
0.0
  0
SPLINE
  5
165
330
1F
100
AcDbEntity
  8
0
100
AcDbSpline
210
0.0
220
0.0
230
1.0
 70
     8
 71
     3
 72
    11
 73
     7
 74
     0
 42
0.000000001
 43
0.00000001
 40
0.0
 40
0.0
 40
0.0
 40
0.0
 40
0.2500000000000035
 40
0.5000000000000032
 40
0.7499999999999964
 40
1.0
 40
1.0
 40
1.0
 40
1.0
 10
41.65420609817871
 20
434.5757526218084
 30
0.0
 10
41.66923767096603
 20
434.5513448535739
 30
0.0
 10
41.69930081654066
 20
434.5025293171051
 30
0.0
 10
41.93055002966312
 20
434.4293060124016
 30
0.0
 10
42.26109496676001
 20
434.3560827076983
 30
0.0
 10
42.52316905437242
 20
434.3072671712295
 30
0.0
 10
42.65420609817872
 20
434.2828594029949
 30
0.0
  0
SPLINE
  5
166
330
1F
100
AcDbEntity
  8
0
100
AcDbSpline
210
0.0
220
0.0
230
1.0
 70
     8
 71
     3
 72
    11
 73
     7
 74
     0
 42
0.000000001
 43
0.00000001
 40
0.0
 40
0.0
 40
0.0
 40
0.0
 40
0.2499999999999941
 40
0.4999999999999939
 40
0.7499999999999948
 40
1.0
 40
1.0
 40
1.0
 40
1.0
 10
486.6542060981787
 20
434.282859402993
 30
0.0
 10
486.9817987076943
 20
434.3072671712275
 30
0.0
 10
487.6369839267255
 20
434.3560827076964
 30
0.0
 10
488.4633462694678
 20
434.4293060123998
 30
0.0
 10
489.0414693022738
 20
434.5025293171031
 30
0.0
 10
489.1166271662104
 20
434.5513448535721
 30
0.0
 10
489.1542060981788
 20
434.5757526218065
 30
0.0
  0
LINE
  5
167
330
1F
100
AcDbEntity
  8
0
100
AcDbLine
 10
489.1542060982
 20
434.5757526218
 30
0.0
 11
489.1542060982
 21
353.282859403
 31
0.0
  0
LINE
  5
168
330
1F
100
AcDbEntity
  8
0
100
AcDbLine
 10
489.1542060982
 20
353.282859403
 30
0.0
 11
486.6542060982
 21
353.282859403
 31
0.0
  0
SPLINE
  5
169
330
1F
100
AcDbEntity
  8
0
100
AcDbSpline
210
0.0
220
0.0
230
1.0
 70
     8
 71
     3
 72
    11
 73
     7
 74
     0
 42
0.000000001
 43
0.00000001
 40
0.0
 40
0.0
 40
0.0
 40
0.0
 40
0.2499999999999815
 40
0.4999999999999881
 40
0.750000000000012
 40
0.9999999999999999
 40
0.9999999999999999
 40
0.9999999999999999
 40
0.9999999999999999
 10
486.6542060981788
 20
434.282859402993
 30
0.0
 10
486.785243141985
 20
434.3072671712275
 30
0.0
 10
487.0473172295974
 20
434.3560827076964
 30
0.0
 10
487.3778621666945
 20
434.4293060124
 30
0.0
 10
487.6091113798166
 20
434.502529317103
 30
0.0
 10
487.6391745253914
 20
434.5513448535721
 30
0.0
 10
487.6542060981787
 20
434.5757526218066
 30
0.0
  0
LINE
  5
16A
330
1F
100
AcDbEntity
  8
0
100
AcDbLine
 10
489.1542060982
 20
434.5757526218
 30
0.0
 11
487.6542060982
 21
434.5757526218
 31
0.0
  0
SPLINE
  5
16B
330
1F
100
AcDbEntity
  8
0
100
AcDbSpline
210
0.0
220
0.0
230
1.0
 70
     8
 71
     3
 72
    11
 73
     7
 74
     0
 42
0.000000001
 43
0.00000001
 40
0.0
 40
0.0
 40
0.0
 40
0.0
 40
0.2499999999999964
 40
0.4999999999999926
 40
0.7499999999999893
 40
1.0
 40
1.0
 40
1.0
 40
1.0
 10
486.9470993169922
 20
436.7828594029931
 30
0.0
 10
486.9226915487578
 20
436.7452804710248
 30
0.0
 10
486.8738760122888
 20
436.6701226070882
 30
0.0
 10
486.8006527075855
 20
436.0919995742823
 30
0.0
 10
486.727429402882
 20
435.2656372315399
 30
0.0
 10
486.6786138664132
 20
434.6104520125086
 30
0.0
 10
486.6542060981787
 20
434.282859402993
 30
0.0
  0
LINE
  5
16C
330
1F
100
AcDbEntity
  8
0
100
AcDbLine
 10
486.947099317
 20
436.782859403
 30
0.0
 11
486.947099317
 21
435.282859403
 31
0.0
  0
SPLINE
  5
16D
330
1F
100
AcDbEntity
  8
0
100
AcDbSpline
210
0.0
220
0.0
230
1.0
 70
     8
 71
     3
 72
    11
 73
     7
 74
     0
 42
0.000000001
 43
0.00000001
 40
0.0
 40
0.0
 40
0.0
 40
0.0
 40
0.2499999999999887
 40
0.4999999999999831
 40
0.7499999999999808
 40
1.0
 40
1.0
 40
1.0
 40
1.0
 10
486.9470993169922
 20
435.2828594029931
 30
0.0
 10
486.9226915487578
 20
435.2678278302058
 30
0.0
 10
486.8738760122889
 20
435.2377646846311
 30
0.0
 10
486.8006527075855
 20
435.0065154715089
 30
0.0
 10
486.727429402882
 20
434.6759705344118
 30
0.0
 10
486.6786138664132
 20
434.4138964467994
 30
0.0
 10
486.6542060981788
 20
434.282859402993
 30
0.0
  0
LINE
  5
16E
330
1F
100
AcDbEntity
  8
0
100
AcDbLine
 10
409.1542060982
 20
434.682859403
 30
0.0
 11
409.1542060982
 21
436.782859403
 31
0.0
  0
LINE
  5
16F
330
1F
100
AcDbEntity
  8
0
100
AcDbLine
 10
486.947099317
 20
436.782859403
 30
0.0
 11
409.1542060982
 21
436.782859403
 31
0.0
  0
LINE
  5
175
330
1F
100
AcDbEntity
  8
0
100
AcDbLine
 10
43.8542060982
 20
-8.317140597
 30
0.0
 11
43.6542060982
 21
-8.317140597
 31
0.0
  0
LINE
  5
176
330
1F
100
AcDbEntity
  8
0
100
AcDbLine
 10
43.6542060982
 20
-8.317140597
 30
0.0
 11
43.6542060982
 21
20.682859403
 31
0.0
  0
CIRCLE
  5
178
330
1F
100
AcDbEntity
  8
0
100
AcDbCircle
 10
67.6542060982
 20
35.682859403
 30
0.0
 40
8.00000000000006
  0
CIRCLE
  5
179
330
1F
100
AcDbEntity
  8
0
100
AcDbCircle
 10
461.6542060982
 20
35.682859403
 30
0.0
 40
8.000000000000066
  0
LINE
  5
17B
330
1F
100
AcDbEntity
  8
0
100
AcDbLine
 10
485.4542060982
 20
434.682859403
 30
0.0
 11
43.8542060982
 21
434.682859403
 31
0.0
  0
LINE
  5
17E
330
1F
100
AcDbEntity
  8
0
100
AcDbLine
 10
486.6542060982
 20
20.682859403
 30
0.0
 11
486.6542060982
 21
404.682859403
 31
0.0
  0
LINE
  5
180
330
1F
100
AcDbEntity
  8
0
100
AcDbLine
 10
43.8542060982
 20
20.682859403
 30
0.0
 11
42.6542060982
 21
20.682859403
 31
0.0
  0
LINE
  5
181
330
1F
100
AcDbEntity
  8
0
100
AcDbLine
 10
42.6542060982
 20
404.682859403
 30
0.0
 11
42.6542060982
 21
20.682859403
 31
0.0
  0
LINE
  5
184
330
1F
100
AcDbEntity
  8
0
100
AcDbLine
 10
43.8542060982
 20
-9.317140597
 30
0.0
 11
485.4542060982
 21
-9.317140597
 31
0.0
  0
LINE
  5
185
330
1F
100
AcDbEntity
  8
0
100
AcDbLine
 10
43.8542060982
 20
-9.317140597
 30
0.0
 11
43.8542060982
 21
20.682859403
 31
0.0
  0
LINE
  5
188
330
1F
100
AcDbEntity
  8
0
100
AcDbLine
 10
486.6542060982
 20
404.682859403
 30
0.0
 11
486.6542060982
 21
431.582859403
 31
0.0
  0
LINE
  5
18B
330
1F
100
AcDbEntity
  8
0
100
AcDbLine
 10
42.6542060982
 20
404.682859403
 30
0.0
 11
42.6542060982
 21
431.582859403
 31
0.0
  0
LINE
  5
18E
330
1F
100
AcDbEntity
  8
0
100
AcDbLine
 10
486.6542060982
 20
20.682859403
 30
0.0
 11
486.6542060982
 21
-6.217140597
 31
0.0
  0
LINE
  5
18F
330
1F
100
AcDbEntity
  8
0
100
AcDbLine
 10
43.3542060982
 20
-6.217140597
 30
0.0
 11
42.6542060982
 21
-6.217140597
 31
0.0
  0
LINE
  5
190
330
1F
100
AcDbEntity
  8
0
100
AcDbLine
 10
43.3542060982
 20
20.682859403
 30
0.0
 11
43.3542060982
 21
-6.217140597
 31
0.0
  0
LINE
  5
191
330
1F
100
AcDbEntity
  8
0
100
AcDbLine
 10
42.6542060982
 20
20.682859403
 30
0.0
 11
42.6542060982
 21
-6.217140597
 31
0.0
  0
LINE
  5
194
330
1F
100
AcDbEntity
  8
0
100
AcDbLine
 10
486.6542060982
 20
433.482859403
 30
0.0
 11
486.6542060982
 21
431.682859403
 31
0.0
  0
ARC
  5
196
330
1F
100
AcDbEntity
  8
0
100
AcDbCircle
 10
485.4542060982
 20
433.482859403
 30
0.0
 40
1.199999999999989
100
AcDbArc
 50
0.0
 51
89.9999999999
  0
LINE
  5
199
330
1F
100
AcDbEntity
  8
0
100
AcDbLine
 10
42.6542060982
 20
431.682859403
 30
0.0
 11
42.6542060982
 21
433.482859403
 31
0.0
  0
ARC
  5
19B
330
1F
100
AcDbEntity
  8
0
100
AcDbCircle
 10
43.8542060982
 20
433.482859403
 30
0.0
 40
1.200000000000102
100
AcDbArc
 50
90.0
 51
180.0
  0
LINE
  5
19E
330
1F
100
AcDbEntity
  8
0
100
AcDbLine
 10
486.6542060982
 20
-6.317140597
 30
0.0
 11
486.6542060982
 21
-8.117140597
 31
0.0
  0
ARC
  5
1A0
330
1F
100
AcDbEntity
  8
0
100
AcDbCircle
 10
485.4542060982
 20
-8.117140597
 30
0.0
 40
1.199999999999989
100
AcDbArc
 50
270.0
 51
0.0
  0
ARC
  5
1A1
330
1F
100
AcDbEntity
  8
0
100
AcDbCircle
 10
43.8542062527
 20
-8.117140597
 30
0.0
 40
0.5000001545583146
100
AcDbArc
 50
180.0
 51
269.9999822889001
  0
ARC
  5
1A2
330
1F
100
AcDbEntity
  8
0
100
AcDbCircle
 10
43.8542060982
 20
-8.117140597
 30
0.0
 40
1.199999999999982
100
AcDbArc
 50
180.0
 51
270.0
  0
LINE
  5
1A3
330
1F
100
AcDbEntity
  8
0
100
AcDbLine
 10
42.6542060982
 20
-6.317140597
 30
0.0
 11
43.3542060982
 21
-6.317140597
 31
0.0
  0
LINE
  5
1A4
330
1F
100
AcDbEntity
  8
0
100
AcDbLine
 10
43.3542060982
 20
-8.117140597
 30
0.0
 11
43.3542060982
 21
-6.317140597
 31
0.0
  0
LINE
  5
1A5
330
1F
100
AcDbEntity
  8
0
100
AcDbLine
 10
42.6542060982
 20
-8.117140597
 30
0.0
 11
42.6542060982
 21
-6.317140597
 31
0.0
  0
LINE
  5
1AB
330
1F
100
AcDbEntity
  8
0
100
AcDbLine
 10
43.4249168566
 20
-8.1171409497
 30
0.0
 11
43.5322391068
 21
-8.5763607287
 31
0.0
  0
SPLINE
  5
1AE
330
1F
100
AcDbEntity
  8
0
100
AcDbSpline
210
0.0
220
0.0
230
1.0
 70
     8
 71
     3
 72
    10
 73
     6
 74
     0
 42
0.000000001
 43
0.00000001
 40
0.0
 40
0.0
 40
0.0
 40
0.0
 40
0.3393714819876314
 40
0.6787429639755128
 40
1.0
 40
1.0
 40
1.0
 40
1.0
 10
43.35420609817725
 20
-6.217140597005733
 30
0.0
 10
43.3618613478855
 20
-6.175473930339153
 30
0.0
 10
43.377171847302
 20
-6.092140597005885
 30
0.0
 10
43.48868451397065
 20
-5.969364615881378
 30
0.0
 10
43.60005011907986
 20
-5.88825530142384
 30
0.0
 10
43.65420609817694
 20
-5.848812653632879
 30
0.0
  0
LINE
  5
1B0
330
1F
100
AcDbEntity
  8
0
100
AcDbLine
 10
43.4249167763
 20
-8.1171407516
 30
0.0
 11
43.4249167763
 21
-6.0544854441
 31
0.0
  0
LINE
  5
1C7
330
1F
100
AcDbEntity
  8
0
100
AcDbLine
 10
492.5542060982
 20
-0.817140597
 30
0.0
 11
492.5542060982
 21
3.332859403
 31
0.0
  0
LINE
  5
1C8
330
1F
100
AcDbEntity
  8
0
100
AcDbLine
 10
492.5542060982
 20
-4.967140597
 30
0.0
 11
492.5542060982
 21
-0.817140597
 31
0.0
  0
LINE
  5
1C9
330
1F
100
AcDbEntity
  8
0
100
AcDbLine
 10
493.0542060982
 20
-0.817140597
 30
0.0
 11
493.0542060982
 21
-4.467140597
 31
0.0
  0
LINE
  5
1CA
330
1F
100
AcDbEntity
  8
0
100
AcDbLine
 10
493.0542060982
 20
2.832859403
 30
0.0
 11
493.0542060982
 21
-0.817140597
 31
0.0
  0
LINE
  5
1CB
330
1F
100
AcDbEntity
  8
0
100
AcDbLine
 10
36.7542060982
 20
3.332859403
 30
0.0
 11
36.7542060982
 21
-4.967140597
 31
0.0
  0
LINE
  5
1CC
330
1F
100
AcDbEntity
  8
0
100
AcDbLine
 10
36.2542060982
 20
-4.467140597
 30
0.0
 11
36.2542060982
 21
2.832859403
 31
0.0
  0
LINE
  5
1CD
330
1F
100
AcDbEntity
  8
0
100
AcDbLine
 10
492.5542060982
 20
426.182859403
 30
0.0
 11
492.5542060982
 21
430.332859403
 31
0.0
  0
LINE
  5
1CE
330
1F
100
AcDbEntity
  8
0
100
AcDbLine
 10
492.5542060982
 20
422.032859403
 30
0.0
 11
492.5542060982
 21
426.182859403
 31
0.0
  0
LINE
  5
1CF
330
1F
100
AcDbEntity
  8
0
100
AcDbLine
 10
493.0542060982
 20
426.182859403
 30
0.0
 11
493.0542060982
 21
422.532859403
 31
0.0
  0
LINE
  5
1D0
330
1F
100
AcDbEntity
  8
0
100
AcDbLine
 10
493.0542060982
 20
429.832859403
 30
0.0
 11
493.0542060982
 21
426.182859403
 31
0.0
  0
LINE
  5
1D1
330
1F
100
AcDbEntity
  8
0
100
AcDbLine
 10
36.7542060982
 20
430.332859403
 30
0.0
 11
36.7542060982
 21
422.032859403
 31
0.0
  0
LINE
  5
1D2
330
1F
100
AcDbEntity
  8
0
100
AcDbLine
 10
36.2542060982
 20
422.532859403
 30
0.0
 11
36.2542060982
 21
429.832859403
 31
0.0
  0
LINE
  5
1D3
330
1F
100
AcDbEntity
  8
0
100
AcDbLine
 10
489.6542060982
 20
-9.317140597
 30
0.0
 11
487.6542060982
 21
-9.317140597
 31
0.0
  0
LINE
  5
1D4
330
1F
100
AcDbEntity
  8
0
100
AcDbLine
 10
487.6542060982
 20
-9.317140597
 30
0.0
 11
487.6542060982
 21
-6.117140597
 31
0.0
  0
LINE
  5
1D5
330
1F
100
AcDbEntity
  8
0
100
AcDbLine
 10
489.6542060982
 20
-4.967140597
 30
0.0
 11
489.6542060982
 21
-9.317140597
 31
0.0
  0
LINE
  5
1D6
330
1F
100
AcDbEntity
  8
0
100
AcDbLine
 10
487.6542060982
 20
65.682859403
 30
0.0
 11
487.6542060982
 21
70.682859403
 31
0.0
  0
LINE
  5
1D7
330
1F
100
AcDbEntity
  8
0
100
AcDbLine
 10
487.6542060982
 20
70.682859403
 30
0.0
 11
489.6542060982
 21
70.682859403
 31
0.0
  0
LINE
  5
1D8
330
1F
100
AcDbEntity
  8
0
100
AcDbLine
 10
489.6542060982
 20
70.682859403
 30
0.0
 11
489.6542060982
 21
65.682859403
 31
0.0
  0
LINE
  5
1D9
330
1F
100
AcDbEntity
  8
0
100
AcDbLine
 10
487.6542060982
 20
65.682859403
 30
0.0
 11
487.6542060982
 21
4.482859403
 31
0.0
  0
LINE
  5
1DA
330
1F
100
AcDbEntity
  8
0
100
AcDbLine
 10
489.6542060982
 20
65.682859403
 30
0.0
 11
489.6542060982
 21
3.332859403
 31
0.0
  0
LINE
  5
1DB
330
1F
100
AcDbEntity
  8
0
100
AcDbLine
 10
489.6542060982
 20
-9.317140597
 30
0.0
 11
490.6542060982
 21
-9.317140597
 31
0.0
  0
LINE
  5
1DC
330
1F
100
AcDbEntity
  8
0
100
AcDbLine
 10
489.6542060982
 20
70.682859403
 30
0.0
 11
490.6542060982
 21
70.682859403
 31
0.0
  0
ARC
  5
1DD
330
1F
100
AcDbEntity
  8
0
100
AcDbCircle
 10
516.6542060982
 20
-4.317140597
 30
0.0
 40
5.0
100
AcDbArc
 50
270.0
 51
360.0
  0
LINE
  5
1DE
330
1F
100
AcDbEntity
  8
0
100
AcDbLine
 10
490.6542060982
 20
-9.317140597
 30
0.0
 11
516.6542060982
 21
-9.317140597
 31
0.0
  0
LINE
  5
1DF
330
1F
100
AcDbEntity
  8
0
100
AcDbLine
 10
490.6542060982
 20
70.682859403
 30
0.0
 11
516.6542060982
 21
70.682859403
 31
0.0
  0
ARC
  5
1E0
330
1F
100
AcDbEntity
  8
0
100
AcDbCircle
 10
516.6542060982
 20
65.682859403
 30
0.0
 40
5.000000000000171
100
AcDbArc
 50
0.0
 51
90.0
  0
LINE
  5
1E1
330
1F
100
AcDbEntity
  8
0
100
AcDbLine
 10
521.6542060982
 20
65.682859403
 30
0.0
 11
521.6542060982
 21
-4.317140597
 31
0.0
  0
CIRCLE
  5
1E2
330
1F
100
AcDbEntity
  8
0
100
AcDbCircle
 10
506.6542060982
 20
30.682859403
 30
0.0
 40
6.250000000000032
  0
LINE
  5
1E3
330
1F
100
AcDbEntity
  8
0
100
AcDbLine
 10
39.6542060982
 20
70.682859403
 30
0.0
 11
41.6542060982
 21
70.682859403
 31
0.0
  0
LINE
  5
1E4
330
1F
100
AcDbEntity
  8
0
100
AcDbLine
 10
41.6542060982
 20
70.682859403
 30
0.0
 11
41.6542060982
 21
65.682859403
 31
0.0
  0
LINE
  5
1E5
330
1F
100
AcDbEntity
  8
0
100
AcDbLine
 10
39.6542060982
 20
65.682859403
 30
0.0
 11
39.6542060982
 21
70.682859403
 31
0.0
  0
LINE
  5
1E6
330
1F
100
AcDbEntity
  8
0
100
AcDbLine
 10
41.6542060982
 20
-6.117140597
 30
0.0
 11
41.6542060982
 21
-9.317140597
 31
0.0
  0
LINE
  5
1E7
330
1F
100
AcDbEntity
  8
0
100
AcDbLine
 10
41.6542060982
 20
-9.317140597
 30
0.0
 11
39.6542060982
 21
-9.317140597
 31
0.0
  0
LINE
  5
1E8
330
1F
100
AcDbEntity
  8
0
100
AcDbLine
 10
39.6542060982
 20
-9.317140597
 30
0.0
 11
39.6542060982
 21
-4.967140597
 31
0.0
  0
LINE
  5
1E9
330
1F
100
AcDbEntity
  8
0
100
AcDbLine
 10
41.6542060982
 20
4.482859403
 30
0.0
 11
41.6542060982
 21
65.682859403
 31
0.0
  0
LINE
  5
1EA
330
1F
100
AcDbEntity
  8
0
100
AcDbLine
 10
39.6542060982
 20
3.332859403
 30
0.0
 11
39.6542060982
 21
65.682859403
 31
0.0
  0
LINE
  5
1EB
330
1F
100
AcDbEntity
  8
0
100
AcDbLine
 10
39.6542060982
 20
70.682859403
 30
0.0
 11
38.6542060982
 21
70.682859403
 31
0.0
  0
LINE
  5
1EC
330
1F
100
AcDbEntity
  8
0
100
AcDbLine
 10
39.6542060982
 20
-9.317140597
 30
0.0
 11
38.6542060982
 21
-9.317140597
 31
0.0
  0
ARC
  5
1ED
330
1F
100
AcDbEntity
  8
0
100
AcDbCircle
 10
12.6542060982
 20
65.682859403
 30
0.0
 40
5.00000000000006
100
AcDbArc
 50
90.0
 51
180.0
  0
LINE
  5
1EE
330
1F
100
AcDbEntity
  8
0
100
AcDbLine
 10
38.6542060982
 20
70.682859403
 30
0.0
 11
12.6542060982
 21
70.682859403
 31
0.0
  0
LINE
  5
1EF
330
1F
100
AcDbEntity
  8
0
100
AcDbLine
 10
38.6542060982
 20
-9.317140597
 30
0.0
 11
12.6542060982
 21
-9.317140597
 31
0.0
  0
ARC
  5
1F0
330
1F
100
AcDbEntity
  8
0
100
AcDbCircle
 10
12.6542060982
 20
-4.317140597
 30
0.0
 40
5.000000000000171
100
AcDbArc
 50
180.0
 51
270.0
  0
LINE
  5
1F1
330
1F
100
AcDbEntity
  8
0
100
AcDbLine
 10
7.6542060982
 20
-4.317140597
 30
0.0
 11
7.6542060982
 21
65.682859403
 31
0.0
  0
CIRCLE
  5
1F2
330
1F
100
AcDbEntity
  8
0
100
AcDbCircle
 10
22.6542060982
 20
30.682859403
 30
0.0
 40
6.250000000000007
  0
LINE
  5
1F3
330
1F
100
AcDbEntity
  8
0
100
AcDbLine
 10
40.1542060982
 20
354.682859403
 30
0.0
 11
39.6542060982
 21
354.682859403
 31
0.0
  0
LINE
  5
1F4
330
1F
100
AcDbEntity
  8
0
100
AcDbLine
 10
39.6542060982
 20
354.682859403
 30
0.0
 11
39.6542060982
 21
359.682859403
 31
0.0
  0
LINE
  5
1F5
330
1F
100
AcDbEntity
  8
0
100
AcDbLine
 10
39.6542060982
 20
359.682859403
 30
0.0
 11
39.6542060982
 21
422.032859403
 31
0.0
  0
LINE
  5
1F6
330
1F
100
AcDbEntity
  8
0
100
AcDbLine
 10
39.6542060982
 20
434.682859403
 30
0.0
 11
41.6542060982
 21
434.682859403
 31
0.0
  0
LINE
  5
1F7
330
1F
100
AcDbEntity
  8
0
100
AcDbLine
 10
41.6542060982
 20
434.682859403
 30
0.0
 11
41.6542060982
 21
434.5757526218
 31
0.0
  0
LINE
  5
1F8
330
1F
100
AcDbEntity
  8
0
100
AcDbLine
 10
39.6542060982
 20
430.332859403
 30
0.0
 11
39.6542060982
 21
434.682859403
 31
0.0
  0
LINE
  5
1F9
330
1F
100
AcDbEntity
  8
0
100
AcDbLine
 10
39.6542060982
 20
434.682859403
 30
0.0
 11
38.6542060982
 21
434.682859403
 31
0.0
  0
LINE
  5
1FA
330
1F
100
AcDbEntity
  8
0
100
AcDbLine
 10
39.6542060982
 20
354.682859403
 30
0.0
 11
38.6542060982
 21
354.682859403
 31
0.0
  0
ARC
  5
1FB
330
1F
100
AcDbEntity
  8
0
100
AcDbCircle
 10
12.6542060982
 20
429.682859403
 30
0.0
 40
5.00000000000006
100
AcDbArc
 50
90.0
 51
180.0
  0
LINE
  5
1FC
330
1F
100
AcDbEntity
  8
0
100
AcDbLine
 10
38.6542060982
 20
434.682859403
 30
0.0
 11
12.6542060982
 21
434.682859403
 31
0.0
  0
LINE
  5
1FD
330
1F
100
AcDbEntity
  8
0
100
AcDbLine
 10
38.6542060982
 20
354.682859403
 30
0.0
 11
12.6542060982
 21
354.682859403
 31
0.0
  0
ARC
  5
1FE
330
1F
100
AcDbEntity
  8
0
100
AcDbCircle
 10
12.6542060982
 20
359.682859403
 30
0.0
 40
5.000000000000171
100
AcDbArc
 50
180.0
 51
270.0
  0
LINE
  5
1FF
330
1F
100
AcDbEntity
  8
0
100
AcDbLine
 10
7.6542060982
 20
359.682859403
 30
0.0
 11
7.6542060982
 21
429.682859403
 31
0.0
  0
CIRCLE
  5
200
330
1F
100
AcDbEntity
  8
0
100
AcDbCircle
 10
22.6542060982
 20
394.682859403
 30
0.0
 40
6.249999999999943
  0
LINE
  5
201
330
1F
100
AcDbEntity
  8
0
100
AcDbLine
 10
487.6542060982
 20
434.5757526218
 30
0.0
 11
487.6542060982
 21
434.682859403
 31
0.0
  0
LINE
  5
202
330
1F
100
AcDbEntity
  8
0
100
AcDbLine
 10
487.6542060982
 20
434.682859403
 30
0.0
 11
489.6542060982
 21
434.682859403
 31
0.0
  0
LINE
  5
203
330
1F
100
AcDbEntity
  8
0
100
AcDbLine
 10
489.6542060982
 20
434.682859403
 30
0.0
 11
489.6542060982
 21
430.332859403
 31
0.0
  0
LINE
  5
204
330
1F
100
AcDbEntity
  8
0
100
AcDbLine
 10
489.6542060982
 20
422.032859403
 30
0.0
 11
489.6542060982
 21
414.682859403
 31
0.0
  0
LINE
  5
205
330
1F
100
AcDbEntity
  8
0
100
AcDbLine
 10
489.6542060982
 20
434.682859403
 30
0.0
 11
490.6542060982
 21
434.682859403
 31
0.0
  0
LINE
  5
206
330
1F
100
AcDbEntity
  8
0
100
AcDbLine
 10
490.6542060982
 20
434.682859403
 30
0.0
 11
516.6542060982
 21
434.682859403
 31
0.0
  0
LINE
  5
207
330
1F
100
AcDbEntity
  8
0
100
AcDbLine
 10
521.6542060982
 20
429.682859403
 30
0.0
 11
521.6542060982
 21
416.682859403
 31
0.0
  0
ARC
  5
208
330
1F
100
AcDbEntity
  8
0
100
AcDbCircle
 10
516.6542060982
 20
429.682859403
 30
0.0
 40
5.000000000000171
100
AcDbArc
 50
0.0
 51
90.0
  0
LINE
  5
209
330
1F
100
AcDbEntity
  8
0
100
AcDbLine
 10
486.6542060982
 20
-6.317140597
 30
0.0
 11
486.6542060982
 21
-6.217140597
 31
0.0
  0
LINE
  5
20A
330
1F
100
AcDbEntity
  8
0
100
AcDbLine
 10
488.0542060982
 20
3.682858861
 30
0.0
 11
488.0542060982
 21
-5.317140597
 31
0.0
  0
LINE
  5
20B
330
1F
100
AcDbEntity
  8
0
100
AcDbLine
 10
41.2542060982
 20
-5.317140597
 30
0.0
 11
41.2542060982
 21
3.682859403
 31
0.0
  0
LINE
  5
20C
330
1F
100
AcDbEntity
  8
0
100
AcDbLine
 10
42.6542060982
 20
-6.217140597
 30
0.0
 11
42.6542060982
 21
-6.317140597
 31
0.0
  0
LINE
  5
211
330
1F
100
AcDbEntity
  8
0
100
AcDbLine
 10
509.4544136364
 20
201.0998117185
 30
0.0
 11
509.4544136364
 21
311.882859403
 31
0.0
  0
LINE
  5
212
330
1F
100
AcDbEntity
  8
0
100
AcDbLine
 10
509.4544136364
 20
113.482859403
 30
0.0
 11
509.4544136364
 21
201.0998117185
 31
0.0
  0
LINE
  5
213
330
1F
100
AcDbEntity
  8
0
100
AcDbLine
 10
494.3649152504
 20
201.0064000436
 30
0.0
 11
494.3649152504
 21
312.682859403
 31
0.0
  0
LINE
  5
214
330
1F
100
AcDbEntity
  8
0
100
AcDbLine
 10
494.3649152504
 20
112.682859403
 30
0.0
 11
494.3649152504
 21
201.0064000436
 31
0.0
  0
LINE
  5
215
330
1F
100
AcDbEntity
  8
0
100
AcDbLine
 10
496.9355816625
 20
201.2165763121
 30
0.0
 11
496.9355816625
 21
310.882859403
 31
0.0
  0
LINE
  5
216
330
1F
100
AcDbEntity
  8
0
100
AcDbLine
 10
496.9355816625
 20
114.482859403
 30
0.0
 11
496.9355816625
 21
201.2165763121
 31
0.0
  0
LINE
  5
217
330
1F
100
AcDbEntity
  8
0
100
AcDbLine
 10
509.7542060982
 20
201.0064000436
 30
0.0
 11
509.7542060982
 21
312.682859403
 31
0.0
  0
LINE
  5
218
330
1F
100
AcDbEntity
  8
0
100
AcDbLine
 10
509.7542060982
 20
112.682859403
 30
0.0
 11
509.7542060982
 21
201.0064000436
 31
0.0
  0
LINE
  5
219
330
1F
100
AcDbEntity
  8
0
100
AcDbLine
 10
19.85399856
 20
234.0071926381
 30
0.0
 11
19.85399856
 21
113.482859403
 31
0.0
  0
LINE
  5
21A
330
1F
100
AcDbEntity
  8
0
100
AcDbLine
 10
19.85399856
 20
311.882859403
 30
0.0
 11
19.85399856
 21
234.0071926381
 31
0.0
  0
LINE
  5
21F
330
1F
100
AcDbEntity
  8
0
100
AcDbLine
 10
34.943496946
 20
234.1791630675
 30
0.0
 11
34.943496946
 21
112.682859403
 31
0.0
  0
LINE
  5
220
330
1F
100
AcDbEntity
  8
0
100
AcDbLine
 10
34.943496946
 20
312.682859403
 30
0.0
 11
34.943496946
 21
234.1791630675
 31
0.0
  0
LINE
  5
221
330
1F
100
AcDbEntity
  8
0
100
AcDbLine
 10
32.3728305338
 20
233.7922296015
 30
0.0
 11
32.3728305338
 21
114.482859403
 31
0.0
  0
LINE
  5
222
330
1F
100
AcDbEntity
  8
0
100
AcDbLine
 10
32.3728305338
 20
310.882859403
 30
0.0
 11
32.3728305338
 21
233.7922296015
 31
0.0
  0
LINE
  5
223
330
1F
100
AcDbEntity
  8
0
100
AcDbLine
 10
19.5542060982
 20
234.1791630675
 30
0.0
 11
19.5542060982
 21
112.682859403
 31
0.0
  0
LINE
  5
224
330
1F
100
AcDbEntity
  8
0
100
AcDbLine
 10
19.5542060982
 20
312.682859403
 30
0.0
 11
19.5542060982
 21
234.1791630675
 31
0.0
  0
LINE
  5
226
330
1F
100
AcDbEntity
  8
0
100
AcDbLine
 10
486.594532388
 20
-6.317140597
 30
0.0
 11
486.6542060982
 21
-6.017140597
 31
0.0
  0
SPLINE
  5
228
330
1F
100
AcDbEntity
  8
0
100
AcDbSpline
210
0.0
220
0.0
230
1.0
 70
     8
 71
     3
 72
     9
 73
     5
 74
     0
 42
0.000000001
 43
0.00000001
 40
0.0
 40
0.0
 40
0.0
 40
0.0
 40
0.5497232583480013
 40
1.0
 40
1.0
 40
1.0
 40
1.0
 10
43.37826883274614
 20
-6.138112132774543
 30
0.0
 10
43.3805649915307
 20
-6.162550410800993
 30
0.0
 10
43.38474192737923
 20
-6.207006012151933
 30
0.0
 10
43.41244343272865
 20
-6.24171741776669
 30
0.0
 10
43.42491677629617
 20
-6.25734715638504
 30
0.0
  0
LINE
  5
229
330
1F
100
AcDbEntity
  8
0
100
AcDbLine
 10
42.6542060982
 20
-6.017140597
 30
0.0
 11
42.7138798084
 21
-6.317140597
 31
0.0
  0
SPLINE
  5
22A
330
1F
100
AcDbEntity
  8
0
100
AcDbSpline
210
0.0
220
0.0
230
1.0
 70
     8
 71
     3
 72
     9
 73
     5
 74
     0
 42
0.000000001
 43
0.00000001
 40
0.0
 40
0.0
 40
0.0
 40
0.0
 40
0.6164387646662173
 40
1.0
 40
1.0
 40
1.0
 40
1.0
 10
43.35420609817741
 20
-7.09854779056468
 30
0.0
 10
43.36704700080346
 20
-7.109446971835354
 30
0.0
 10
43.38787778459263
 20
-7.127127854179932
 30
0.0
 10
43.41464854887656
 20
-7.130468355053737
 30
0.0
 10
43.42491677629612
 20
-7.131749641695495
 30
0.0
  0
LINE
  5
22B
330
1F
100
AcDbEntity
  8
0
100
AcDbLine
 10
43.7042060982
 20
-9.317140597
 30
0.0
 11
43.7042060982
 21
-9.3077288428
 31
0.0
  0
LINE
  5
22C
330
1F
100
AcDbEntity
  8
0
100
AcDbLine
 10
485.6042060982
 20
-9.3077288428
 30
0.0
 11
485.6042060982
 21
-9.317140597
 31
0.0
  0
LINE
  5
22D
330
1F
100
AcDbEntity
  8
0
100
AcDbLine
 10
43.7042060982
 20
-9.317140597
 30
0.0
 11
43.8542060982
 21
-9.317140597
 31
0.0
  0
LINE
  5
22E
330
1F
100
AcDbEntity
  8
0
100
AcDbLine
 10
485.4542060982
 20
-9.317140597
 30
0.0
 11
485.6042060982
 21
-9.317140597
 31
0.0
  0
LINE
  5
22F
330
1F
100
AcDbEntity
  8
0
100
AcDbLine
 10
43.4249167763
 20
-7.2549659704
 30
0.0
 11
43.3542060982
 21
-7.2771911034
 31
0.0
  0
ARC
  5
230
330
1F
100
AcDbEntity
  8
0
100
AcDbCircle
 10
43.7042060982
 20
-8.267140597
 30
0.0
 40
1.050000000000005
100
AcDbArc
 50
176.038239895
 51
270.0
  0
ARC
  5
231
330
1F
100
AcDbEntity
  8
0
100
AcDbCircle
 10
485.6042060982
 20
-8.267140597
 30
0.0
 40
1.05000000000005
100
AcDbArc
 50
270.0
 51
3.9582099093
  0
LINE
  5
234
330
1F
100
AcDbEntity
  8
0
100
AcDbLine
 10
75.6542060982
 20
1177.2902061396
 30
0.0
 11
75.6542060982
 21
1177.3790510362
 31
0.0
  0
LINE
  5
235
330
1F
100
AcDbEntity
  8
0
100
AcDbLine
 10
59.6542060982
 20
1177.3790510362
 30
0.0
 11
59.6542060982
 21
1177.2902061396
 31
0.0
  0
ARC
  5
236
330
1F
100
AcDbEntity
  8
0
100
AcDbCircle
 10
59.8542060982
 20
1177.3790510362
 30
0.0
 40
0.2000000000001162
100
AcDbArc
 50
121.6579514612
 51
180.0
  0
ARC
  5
237
330
1F
100
AcDbEntity
  8
0
100
AcDbCircle
 10
75.4542060982
 20
1177.3790510362
 30
0.0
 40
0.2000000000000313
100
AcDbArc
 50
0.0
 51
58.34204853879999
  0
ARC
  5
238
330
1F
100
AcDbEntity
  8
0
100
AcDbCircle
 10
67.6552060982
 20
1164.7306407048
 30
0.0
 40
15.0595654347826
100
AcDbArc
 50
58.34204853879999
 51
90.0
  0
ARC
  5
239
330
1F
100
AcDbEntity
  8
0
100
AcDbCircle
 10
67.6532060982
 20
1164.7306407048
 30
0.0
 40
15.05956543478262
100
AcDbArc
 50
90.0
 51
121.6579514612
  0
LINE
  5
23A
330
1F
100
AcDbEntity
  8
0
100
AcDbLine
 10
469.6542060982
 20
1177.2902061396
 30
0.0
 11
469.6542060982
 21
1177.3790510362
 31
0.0
  0
LINE
  5
23B
330
1F
100
AcDbEntity
  8
0
100
AcDbLine
 10
453.6542060982
 20
1177.3790510362
 30
0.0
 11
453.6542060982
 21
1177.2902061396
 31
0.0
  0
ARC
  5
23C
330
1F
100
AcDbEntity
  8
0
100
AcDbCircle
 10
453.8542060982
 20
1177.3790510362
 30
0.0
 40
0.1999999999999318
100
AcDbArc
 50
121.6579514612
 51
180.0000000001
  0
ARC
  5
23D
330
1F
100
AcDbEntity
  8
0
100
AcDbCircle
 10
469.4542060982
 20
1177.3790510362
 30
0.0
 40
0.2000000000001237
100
AcDbArc
 50
0.0
 51
58.34204853879999
  0
ARC
  5
23E
330
1F
100
AcDbEntity
  8
0
100
AcDbCircle
 10
461.6552060982
 20
1164.7306407048
 30
0.0
 40
15.05956543478278
100
AcDbArc
 50
58.34204853879999
 51
90.0
  0
ARC
  5
23F
330
1F
100
AcDbEntity
  8
0
100
AcDbCircle
 10
461.6532060982
 20
1164.7306407048
 30
0.0
 40
15.05956543478262
100
AcDbArc
 50
90.0
 51
121.6579514612
  0
LINE
  5
240
330
1F
100
AcDbEntity
  8
0
100
AcDbLine
 10
469.6542060982
 20
1176.2902061396
 30
0.0
 11
469.6542060982
 21
1177.2902061396
 31
0.0
  0
LINE
  5
241
330
1F
100
AcDbEntity
  8
0
100
AcDbLine
 10
453.6542060982
 20
1177.2902061396
 30
0.0
 11
453.6542060982
 21
1176.2902061396
 31
0.0
  0
LINE
  5
242
330
1F
100
AcDbEntity
  8
0
100
AcDbLine
 10
75.6542060982
 20
1176.2902061396
 30
0.0
 11
75.6542060982
 21
1177.2902061396
 31
0.0
  0
LINE
  5
243
330
1F
100
AcDbEntity
  8
0
100
AcDbLine
 10
59.6542060982
 20
1177.2902061396
 30
0.0
 11
59.6542060982
 21
1176.2902061396
 31
0.0
  0
LINE
  5
256
330
1F
100
AcDbEntity
  8
0
100
AcDbLine
 10
492.5542060982
 20
1103.3202061396
 30
0.0
 11
493.0542060982
 21
1103.8202061396
 31
0.0
  0
LINE
  5
257
330
1F
100
AcDbEntity
  8
0
100
AcDbLine
 10
493.0542060982
 20
1111.1202061396
 30
0.0
 11
492.5542060982
 21
1111.6202061396
 31
0.0
  0
LINE
  5
258
330
1F
100
AcDbEntity
  8
0
100
AcDbLine
 10
492.5542060982
 20
1111.6202061396
 30
0.0
 11
488.0542060982
 21
1111.6202061396
 31
0.0
  0
LINE
  5
259
330
1F
100
AcDbEntity
  8
0
100
AcDbLine
 10
488.0542060982
 20
1103.3202061396
 30
0.0
 11
492.5542060982
 21
1103.3202061396
 31
0.0
  0
LINE
  5
25A
330
1F
100
AcDbEntity
  8
0
100
AcDbLine
 10
36.7542060982
 20
1103.3402061396
 30
0.0
 11
41.2542060982
 21
1103.3402061396
 31
0.0
  0
LINE
  5
25B
330
1F
100
AcDbEntity
  8
0
100
AcDbLine
 10
41.2542060982
 20
1111.6402061396
 30
0.0
 11
36.7542060982
 21
1111.6402061396
 31
0.0
  0
LINE
  5
25C
330
1F
100
AcDbEntity
  8
0
100
AcDbLine
 10
36.7542060982
 20
1111.6402061396
 30
0.0
 11
36.2542060982
 21
1111.1402061396
 31
0.0
  0
LINE
  5
25D
330
1F
100
AcDbEntity
  8
0
100
AcDbLine
 10
36.2542060982
 20
1103.8402061396
 30
0.0
 11
36.7542060982
 21
1103.3402061396
 31
0.0
  0
LINE
  5
260
330
1F
100
AcDbEntity
  8
0
100
AcDbLine
 10
467.1542060982
 20
1122.2944096607
 30
0.0
 11
467.1542060982
 21
1122.6944096607
 31
0.0
  0
LINE
  5
261
330
1F
100
AcDbEntity
  8
0
100
AcDbLine
 10
456.1542060982
 20
1122.6944096607
 30
0.0
 11
456.1542060982
 21
1122.2944096607
 31
0.0
  0
LINE
  5
262
330
1F
100
AcDbEntity
  8
0
100
AcDbLine
 10
486.6542060982
 20
1101.9702061396
 30
0.0
 11
487.0542060982
 21
1101.9702061396
 31
0.0
  0
LINE
  5
263
330
1F
100
AcDbEntity
  8
0
100
AcDbLine
 10
487.0542060982
 20
1112.9702061396
 30
0.0
 11
486.6542060982
 21
1112.9702061396
 31
0.0
  0
ARC
  5
264
330
1F
100
AcDbEntity
  8
0
100
AcDbCircle
 10
487.0542060982
 20
1111.9702061396
 30
0.0
 40
1.000000000000227
100
AcDbArc
 50
0.0
 51
90.0
  0
ARC
  5
265
330
1F
100
AcDbEntity
  8
0
100
AcDbCircle
 10
487.0542060982
 20
1102.9702061396
 30
0.0
 40
1.0
100
AcDbArc
 50
270.0
 51
0.0
  0
ARC
  5
266
330
1F
100
AcDbEntity
  8
0
100
AcDbCircle
 10
42.2542060982
 20
762.2944096607
 30
0.0
 40
1.000000000000114
100
AcDbArc
 50
233.1301023539
 51
270.0
  0
ARC
  5
267
330
1F
100
AcDbEntity
  8
0
100
AcDbCircle
 10
42.2542060982
 20
771.2944096607
 30
0.0
 40
1.000000000000105
100
AcDbArc
 50
90.0
 51
126.8698976461
  0
LINE
  5
268
330
1F
100
AcDbEntity
  8
0
100
AcDbLine
 10
42.6542060982
 20
772.2944096607
 30
0.0
 11
42.2542060982
 21
772.2944096607
 31
0.0
  0
LINE
  5
269
330
1F
100
AcDbEntity
  8
0
100
AcDbLine
 10
42.2542060982
 20
761.2944096607
 30
0.0
 11
42.6542060982
 21
761.2944096607
 31
0.0
  0
LINE
  5
26A
330
1F
100
AcDbEntity
  8
0
100
AcDbLine
 10
486.6542060982
 20
761.2944096607
 30
0.0
 11
487.0542060982
 21
761.2944096607
 31
0.0
  0
LINE
  5
26B
330
1F
100
AcDbEntity
  8
0
100
AcDbLine
 10
487.0542060982
 20
772.2944096607
 30
0.0
 11
486.6542060982
 21
772.2944096607
 31
0.0
  0
ARC
  5
26C
330
1F
100
AcDbEntity
  8
0
100
AcDbCircle
 10
487.0542060982
 20
771.2944096607
 30
0.0
 40
1.000000000000046
100
AcDbArc
 50
53.1301023543
 51
90.0
  0
ARC
  5
26D
330
1F
100
AcDbEntity
  8
0
100
AcDbCircle
 10
487.0542060982
 20
762.2944096607
 30
0.0
 40
1.0
100
AcDbArc
 50
270.0
 51
306.8698976456
  0
LINE
  5
26E
330
1F
100
AcDbEntity
  8
0
100
AcDbLine
 10
73.1542060982
 20
1122.2944096607
 30
0.0
 11
73.1542060982
 21
1122.6944096607
 31
0.0
  0
LINE
  5
26F
330
1F
100
AcDbEntity
  8
0
100
AcDbLine
 10
62.1542060982
 20
1122.6944096607
 30
0.0
 11
62.1542060982
 21
1122.2944096607
 31
0.0
  0
LINE
  5
272
330
1F
100
AcDbEntity
  8
0
100
AcDbLine
 10
42.6542060982
 20
1112.9902061396
 30
0.0
 11
42.2542060982
 21
1112.9902061396
 31
0.0
  0
LINE
  5
273
330
1F
100
AcDbEntity
  8
0
100
AcDbLine
 10
42.2542060982
 20
1101.9902061396
 30
0.0
 11
42.6542060982
 21
1101.9902061396
 31
0.0
  0
ARC
  5
274
330
1F
100
AcDbEntity
  8
0
100
AcDbCircle
 10
42.2542060982
 20
1102.9902061396
 30
0.0
 40
1.0
100
AcDbArc
 50
180.0
 51
270.0
  0
ARC
  5
275
330
1F
100
AcDbEntity
  8
0
100
AcDbCircle
 10
42.2542060982
 20
1111.9902061396
 30
0.0
 40
1.0
100
AcDbArc
 50
90.0
 51
180.0
  0
LINE
  5
27A
330
1F
100
AcDbEntity
  8
0
100
AcDbLine
 10
509.7542060982
 20
906.2944096607
 30
0.0
 11
513.5042060982
 21
906.2944096607
 31
0.0
  0
LINE
  5
27B
330
1F
100
AcDbEntity
  8
0
100
AcDbLine
 10
513.5042060982
 20
1106.2944096607
 30
0.0
 11
509.7542060982
 21
1106.2944096607
 31
0.0
  0
ARC
  5
27C
330
1F
100
AcDbEntity
  8
0
100
AcDbCircle
 10
513.5042060982
 20
907.5444096607
 30
0.0
 40
1.25
100
AcDbArc
 50
270.0
 51
0.0
  0
ARC
  5
27D
330
1F
100
AcDbEntity
  8
0
100
AcDbCircle
 10
513.5042060982
 20
1105.0444096607
 30
0.0
 40
1.25
100
AcDbArc
 50
0.0
 51
90.0
  0
LINE
  5
27E
330
1F
100
AcDbEntity
  8
0
100
AcDbLine
 10
514.7542060982
 20
907.5444096607
 30
0.0
 11
514.7542060982
 21
1105.0444096607
 31
0.0
  0
LINE
  5
27F
330
1F
100
AcDbEntity
  8
0
100
AcDbLine
 10
486.6542060982
 20
906.2944096607
 30
0.0
 11
494.3649152504
 21
906.2944096607
 31
0.0
  0
LINE
  5
280
330
1F
100
AcDbEntity
  8
0
100
AcDbLine
 10
494.3649152504
 20
1106.2944096607
 30
0.0
 11
493.0542060982
 21
1106.2944096607
 31
0.0
  0
LINE
  5
281
330
1F
100
AcDbEntity
  8
0
100
AcDbLine
 10
494.3649152504
 20
906.2944096607
 30
0.0
 11
496.9355816625
 21
908.0944096607
 31
0.0
  0
LINE
  5
282
330
1F
100
AcDbEntity
  8
0
100
AcDbLine
 10
496.9355816625
 20
1104.4944096607
 30
0.0
 11
494.3649152504
 21
1106.2944096607
 31
0.0
  0
LINE
  5
283
330
1F
100
AcDbEntity
  8
0
100
AcDbLine
 10
509.4544136364
 20
907.0944096607
 30
0.0
 11
509.7542060982
 21
907.0944096607
 31
0.0
  0
LINE
  5
284
330
1F
100
AcDbEntity
  8
0
100
AcDbLine
 10
509.7542060982
 20
1105.4944096607
 30
0.0
 11
509.4544136364
 21
1105.4944096607
 31
0.0
  0
LINE
  5
285
330
1F
100
AcDbEntity
  8
0
100
AcDbLine
 10
496.9355816625
 20
908.0944096607
 30
0.0
 11
503.2946525842
 21
908.0944096607
 31
0.0
  0
LINE
  5
286
330
1F
100
AcDbEntity
  8
0
100
AcDbLine
 10
503.2946525842
 20
1104.4944096607
 30
0.0
 11
496.9355816625
 21
1104.4944096607
 31
0.0
  0
LINE
  5
28B
330
1F
100
AcDbEntity
  8
0
100
AcDbLine
 10
36.2542060982
 20
1106.2944096607
 30
0.0
 11
34.943496946
 21
1106.2944096607
 31
0.0
  0
LINE
  5
28C
330
1F
100
AcDbEntity
  8
0
100
AcDbLine
 10
34.943496946
 20
906.2944096607
 30
0.0
 11
42.6542060982
 21
906.2944096607
 31
0.0
  0
LINE
  5
28D
330
1F
100
AcDbEntity
  8
0
100
AcDbLine
 10
34.943496946
 20
1106.2944096607
 30
0.0
 11
32.3728305338
 21
1104.4944096607
 31
0.0
  0
LINE
  5
28E
330
1F
100
AcDbEntity
  8
0
100
AcDbLine
 10
32.3728305338
 20
908.0944096607
 30
0.0
 11
34.943496946
 21
906.2944096607
 31
0.0
  0
LINE
  5
28F
330
1F
100
AcDbEntity
  8
0
100
AcDbLine
 10
19.5542060982
 20
1106.2944096607
 30
0.0
 11
15.8042060982
 21
1106.2944096607
 31
0.0
  0
LINE
  5
290
330
1F
100
AcDbEntity
  8
0
100
AcDbLine
 10
15.8042060982
 20
906.2944096607
 30
0.0
 11
19.5542060982
 21
906.2944096607
 31
0.0
  0
ARC
  5
291
330
1F
100
AcDbEntity
  8
0
100
AcDbCircle
 10
15.8042060982
 20
1105.0444096607
 30
0.0
 40
1.25
100
AcDbArc
 50
90.0
 51
180.0
  0
ARC
  5
292
330
1F
100
AcDbEntity
  8
0
100
AcDbCircle
 10
15.8042060982
 20
907.5444096607
 30
0.0
 40
1.25
100
AcDbArc
 50
180.0
 51
270.0
  0
LINE
  5
293
330
1F
100
AcDbEntity
  8
0
100
AcDbLine
 10
14.5542060982
 20
1105.0444096607
 30
0.0
 11
14.5542060982
 21
907.5444096607
 31
0.0
  0
LINE
  5
294
330
1F
100
AcDbEntity
  8
0
100
AcDbLine
 10
19.85399856
 20
1105.4944096607
 30
0.0
 11
19.5542060982
 21
1105.4944096607
 31
0.0
  0
LINE
  5
295
330
1F
100
AcDbEntity
  8
0
100
AcDbLine
 10
19.5542060982
 20
907.0944096607
 30
0.0
 11
19.85399856
 21
907.0944096607
 31
0.0
  0
LINE
  5
296
330
1F
100
AcDbEntity
  8
0
100
AcDbLine
 10
32.3728305338
 20
1104.4944096607
 30
0.0
 11
26.0137596122
 21
1104.4944096607
 31
0.0
  0
LINE
  5
297
330
1F
100
AcDbEntity
  8
0
100
AcDbLine
 10
26.0137596122
 20
908.0944096607
 30
0.0
 11
32.3728305338
 21
908.0944096607
 31
0.0
  0
LINE
  5
2B0
330
1F
100
AcDbEntity
  8
0
100
AcDbLine
 10
42.6542060982
 20
1121.0944096607
 30
0.0
 11
42.6542060982
 21
757.6979630513
 31
0.0
  0
LINE
  5
2B1
330
1F
100
AcDbEntity
  8
0
100
AcDbLine
 10
44.0577594888
 20
756.2944096607
 30
0.0
 11
485.2506527076
 21
756.2944096607
 31
0.0
  0
LINE
  5
2B2
330
1F
100
AcDbEntity
  8
0
100
AcDbLine
 10
486.6542060982
 20
757.6979630513
 30
0.0
 11
486.6542060982
 21
1121.0944096607
 31
0.0
  0
LINE
  5
2B3
330
1F
100
AcDbEntity
  8
0
100
AcDbLine
 10
521.6542060982
 20
1044.5944096607
 30
0.0
 11
520.6542060982
 21
1044.5944096607
 31
0.0
  0
LINE
  5
2B4
330
1F
100
AcDbEntity
  8
0
100
AcDbLine
 10
521.6542060982
 20
1096.5944096607
 30
0.0
 11
520.6542060982
 21
1096.5944096607
 31
0.0
  0
LINE
  5
2B5
330
1F
100
AcDbEntity
  8
0
100
AcDbLine
 10
520.6542060982
 20
1036.5944096607
 30
0.0
 11
521.6542060982
 21
1036.5944096607
 31
0.0
  0
LINE
  5
2B6
330
1F
100
AcDbEntity
  8
0
100
AcDbLine
 10
521.6542060982
 20
1036.5944096607
 30
0.0
 11
521.6542060982
 21
1044.5944096607
 31
0.0
  0
LINE
  5
2B7
330
1F
100
AcDbEntity
  8
0
100
AcDbLine
 10
520.6542060982
 20
1088.5944096607
 30
0.0
 11
521.6542060982
 21
1088.5944096607
 31
0.0
  0
LINE
  5
2B8
330
1F
100
AcDbEntity
  8
0
100
AcDbLine
 10
520.6542060982
 20
1099.5944096607
 30
0.0
 11
520.6542060982
 21
1096.5944096607
 31
0.0
  0
LINE
  5
2B9
330
1F
100
AcDbEntity
  8
0
100
AcDbLine
 10
520.6542060982
 20
1088.5944096607
 30
0.0
 11
520.6542060982
 21
1044.5944096607
 31
0.0
  0
LINE
  5
2BA
330
1F
100
AcDbEntity
  8
0
100
AcDbLine
 10
520.6542060982
 20
1036.5944096607
 30
0.0
 11
520.6542060982
 21
1033.5944096607
 31
0.0
  0
LINE
  5
2BB
330
1F
100
AcDbEntity
  8
0
100
AcDbLine
 10
521.6542060982
 20
1088.5944096607
 30
0.0
 11
521.6542060982
 21
1096.5944096607
 31
0.0
  0
LINE
  5
2BC
330
1F
100
AcDbEntity
  8
0
100
AcDbLine
 10
520.6542060982
 20
1108.5944096607
 30
0.0
 11
527.6542060982
 21
1108.5944096607
 31
0.0
  0
LINE
  5
2BD
330
1F
100
AcDbEntity
  8
0
100
AcDbLine
 10
520.6542060982
 20
1099.5944096607
 30
0.0
 11
520.6542060982
 21
1108.5944096607
 31
0.0
  0
LINE
  5
2BE
330
1F
100
AcDbEntity
  8
0
100
AcDbLine
 10
528.6542060982
 20
1107.5944096607
 30
0.0
 11
528.6542060982
 21
1099.5944096607
 31
0.0
  0
ARC
  5
2BF
330
1F
100
AcDbEntity
  8
0
100
AcDbCircle
 10
527.6542060982
 20
1107.5944096607
 30
0.0
 40
1.0
100
AcDbArc
 50
0.0
 51
90.0
  0
LINE
  5
2C0
330
1F
100
AcDbEntity
  8
0
100
AcDbLine
 10
528.6542060982
 20
1099.5944096607
 30
0.0
 11
528.6542060982
 21
1033.5944096607
 31
0.0
  0
LINE
  5
2C1
330
1F
100
AcDbEntity
  8
0
100
AcDbLine
 10
527.6542060982
 20
1024.5944096607
 30
0.0
 11
520.6542060982
 21
1024.5944096607
 31
0.0
  0
LINE
  5
2C2
330
1F
100
AcDbEntity
  8
0
100
AcDbLine
 10
520.6542060982
 20
1024.5944096607
 30
0.0
 11
520.6542060982
 21
1033.5944096607
 31
0.0
  0
LINE
  5
2C3
330
1F
100
AcDbEntity
  8
0
100
AcDbLine
 10
528.6542060982
 20
1033.5944096607
 30
0.0
 11
528.6542060982
 21
1025.5944096607
 31
0.0
  0
ARC
  5
2C4
330
1F
100
AcDbEntity
  8
0
100
AcDbCircle
 10
527.6542060982
 20
1025.5944096607
 30
0.0
 40
1.0
100
AcDbArc
 50
270.0
 51
0.0
  0
LINE
  5
2C5
330
1F
100
AcDbEntity
  8
0
100
AcDbLine
 10
520.6542060982
 20
1099.5944096607
 30
0.0
 11
520.6542060982
 21
1033.5944096607
 31
0.0
  0
LINE
  5
2C6
330
1F
100
AcDbEntity
  8
0
100
AcDbLine
 10
518.6542060982
 20
1099.5944096607
 30
0.0
 11
518.6542060982
 21
1033.5944096607
 31
0.0
  0
LINE
  5
2C7
330
1F
100
AcDbEntity
  8
0
100
AcDbLine
 10
520.6542060982
 20
1108.5944096607
 30
0.0
 11
518.6542060982
 21
1108.5944096607
 31
0.0
  0
LINE
  5
2C8
330
1F
100
AcDbEntity
  8
0
100
AcDbLine
 10
518.6542060982
 20
1108.5944096607
 30
0.0
 11
518.6542060982
 21
1099.5944096607
 31
0.0
  0
LINE
  5
2C9
330
1F
100
AcDbEntity
  8
0
100
AcDbLine
 10
520.6542060982
 20
1024.5944096607
 30
0.0
 11
518.6542060982
 21
1024.5944096607
 31
0.0
  0
LINE
  5
2CA
330
1F
100
AcDbEntity
  8
0
100
AcDbLine
 10
518.6542060982
 20
1033.5944096607
 30
0.0
 11
518.6542060982
 21
1024.5944096607
 31
0.0
  0
LINE
  5
2CB
330
1F
100
AcDbEntity
  8
0
100
AcDbLine
 10
518.6542060982
 20
1026.5944096607
 30
0.0
 11
514.7542060982
 21
1026.5944096607
 31
0.0
  0
LINE
  5
2CC
330
1F
100
AcDbEntity
  8
0
100
AcDbLine
 10
493.0542060982
 20
1106.5944096607
 30
0.0
 11
503.2946525842
 21
1106.5944096607
 31
0.0
  0
LINE
  5
2CD
330
1F
100
AcDbEntity
  8
0
100
AcDbLine
 10
503.2946525842
 20
1106.5944096607
 30
0.0
 11
518.6542060982
 21
1106.5944096607
 31
0.0
  0
LINE
  5
2D6
330
1F
100
AcDbEntity
  8
0
100
AcDbLine
 10
43.8542060982
 20
1126.2902061396
 30
0.0
 11
42.6542060982
 21
1126.2902061396
 31
0.0
  0
ARC
  5
2D7
330
1F
100
AcDbEntity
  8
0
100
AcDbCircle
 10
42.6542060982
 20
1123.7902061396
 30
0.0
 40
1.000000000000007
100
AcDbArc
 50
90.0
 51
180.0
  0
ARC
  5
2D8
330
1F
100
AcDbEntity
  8
0
100
AcDbCircle
 10
42.6542060982
 20
1123.7902061396
 30
0.0
 40
2.500000000000227
100
AcDbArc
 50
90.0
 51
180.0
  0
LINE
  5
2D9
330
1F
100
AcDbEntity
  8
0
100
AcDbLine
 10
40.1542060982
 20
1116.5902061396
 30
0.0
 11
41.6542060982
 21
1116.5902061396
 31
0.0
  0
LINE
  5
2DA
330
1F
100
AcDbEntity
  8
0
100
AcDbLine
 10
41.6542060982
 20
1123.7902061396
 30
0.0
 11
41.6542060982
 21
1116.5902061396
 31
0.0
  0
LINE
  5
2DB
330
1F
100
AcDbEntity
  8
0
100
AcDbLine
 10
40.1542060982
 20
1123.7902061396
 30
0.0
 11
40.1542060982
 21
1116.5902061396
 31
0.0
  0
LINE
  5
2DC
330
1F
100
AcDbEntity
  8
0
100
AcDbLine
 10
41.6542060982
 20
1112.7902061396
 30
0.0
 11
41.6542060982
 21
1116.5902061396
 31
0.0
  0
LINE
  5
2DD
330
1F
100
AcDbEntity
  8
0
100
AcDbLine
 10
40.1542060982
 20
1111.6402061396
 30
0.0
 11
40.1542060982
 21
1116.5902061396
 31
0.0
  0
SPLINE
  5
2DE
330
1F
100
AcDbEntity
  8
0
100
AcDbSpline
210
0.0
220
0.0
230
1.0
 70
     8
 71
     3
 72
    11
 73
     7
 74
     0
 42
0.000000001
 43
0.00000001
 40
0.0
 40
0.0
 40
0.0
 40
0.0
 40
0.2499999999999939
 40
0.5
 40
0.7500000000000061
 40
1.0
 40
1.0
 40
1.0
 40
1.0
 10
42.65420609817866
 20
1124.790206139604
 30
0.0
 10
42.62979832994424
 20
1124.775174566816
 30
0.0
 10
42.58098279347533
 20
1124.745111421242
 30
0.0
 10
42.50775948877195
 20
1124.513862208119
 30
0.0
 10
42.43453618406856
 20
1124.183317271023
 30
0.0
 10
42.3857206475996
 20
1123.92124318341
 30
0.0
 10
42.36131287936523
 20
1123.790206139604
 30
0.0
  0
LINE
  5
2DF
330
1F
100
AcDbEntity
  8
0
100
AcDbLine
 10
42.4344339915
 20
1124.74557951
 30
0.0
 11
42.3613128794
 21
1123.7902061396
 31
0.0
  0
LINE
  5
2E0
330
1F
100
AcDbEntity
  8
0
100
AcDbLine
 10
42.3613128794
 20
1116.5902061396
 30
0.0
 11
42.6542060982
 21
1116.5902061396
 31
0.0
  0
LINE
  5
2E1
330
1F
100
AcDbEntity
  8
0
100
AcDbLine
 10
42.3613128794
 20
1123.7902061396
 30
0.0
 11
42.3613128794
 21
1116.5902061396
 31
0.0
  0
LINE
  5
2E2
330
1F
100
AcDbEntity
  8
0
100
AcDbLine
 10
489.1542060982
 20
1116.5902061396
 30
0.0
 11
487.6542060982
 21
1116.5902061396
 31
0.0
  0
LINE
  5
2E3
330
1F
100
AcDbEntity
  8
0
100
AcDbLine
 10
489.1542060982
 20
1123.7902061396
 30
0.0
 11
489.1542060982
 21
1116.5902061396
 31
0.0
  0
LINE
  5
2E4
330
1F
100
AcDbEntity
  8
0
100
AcDbLine
 10
487.6542060982
 20
1123.7902061396
 30
0.0
 11
487.6542060982
 21
1116.5902061396
 31
0.0
  0
LINE
  5
2E8
330
1F
100
AcDbEntity
  8
0
100
AcDbLine
 10
485.4542060982
 20
1126.2902061396
 30
0.0
 11
486.6542060982
 21
1126.2902061396
 31
0.0
  0
ARC
  5
2E9
330
1F
100
AcDbEntity
  8
0
100
AcDbCircle
 10
486.6542060982
 20
1123.7902061396
 30
0.0
 40
2.500000000000057
100
AcDbArc
 50
0.0
 51
90.0
  0
ARC
  5
2EA
330
1F
100
AcDbEntity
  8
0
100
AcDbCircle
 10
486.6542060982
 20
1123.7902061396
 30
0.0
 40
1.0
100
AcDbArc
 50
0.0
 51
90.0
  0
LINE
  5
2EC
330
1F
100
AcDbEntity
  8
0
100
AcDbLine
 10
489.1542060982
 20
1116.5902061396
 30
0.0
 11
489.1542060982
 21
1111.6202061396
 31
0.0
  0
LINE
  5
2ED
330
1F
100
AcDbEntity
  8
0
100
AcDbLine
 10
487.6542060982
 20
1116.5902061396
 30
0.0
 11
487.6542060982
 21
1112.7702061396
 31
0.0
  0
SPLINE
  5
2EE
330
1F
100
AcDbEntity
  8
0
100
AcDbSpline
210
0.0
220
0.0
230
1.0
 70
     8
 71
     3
 72
     9
 73
     5
 74
     0
 42
0.000000001
 43
0.00000001
 40
0.0
 40
0.0
 40
0.0
 40
0.0
 40
0.9970986461281168
 40
1.0
 40
1.0
 40
1.0
 40
1.0
 10
486.9470993169921
 20
1123.790206139602
 30
0.0
 10
486.9226915487625
 20
1124.13331360426
 30
0.0
 10
486.8982127589011
 20
1124.477419441722
 30
0.0
 10
486.8737339690252
 20
1124.74848826851
 30
0.0
 10
486.8736629473935
 20
1124.7492747351
 30
0.0
  0
SPLINE
  5
2EF
330
1F
100
AcDbEntity
  8
0
100
AcDbSpline
210
0.0
220
0.0
230
1.0
 70
     8
 71
     3
 72
    11
 73
     7
 74
     0
 42
0.000000001
 43
0.00000001
 40
0.0
 40
0.0
 40
0.0
 40
0.0
 40
0.2499999999999887
 40
0.4999999999999831
 40
0.7499999999999808
 40
1.0
 40
1.0
 40
1.0
 40
1.0
 10
486.9470993169921
 20
1123.790206139602
 30
0.0
 10
486.9226915487577
 20
1123.921243183408
 30
0.0
 10
486.8738760122888
 20
1124.183317271021
 30
0.0
 10
486.8006527075855
 20
1124.513862208118
 30
0.0
 10
486.727429402882
 20
1124.74511142124
 30
0.0
 10
486.6786138664132
 20
1124.775174566815
 30
0.0
 10
486.6542060981787
 20
1124.790206139602
 30
0.0
  0
LINE
  5
2F0
330
1F
100
AcDbEntity
  8
0
100
AcDbLine
 10
486.947099317
 20
1116.5902061396
 30
0.0
 11
486.6542060982
 21
1116.5902061396
 31
0.0
  0
LINE
  5
2F1
330
1F
100
AcDbEntity
  8
0
100
AcDbLine
 10
486.947099317
 20
1123.7902061396
 30
0.0
 11
486.947099317
 21
1116.5902061396
 31
0.0
  0
LINE
  5
2F6
330
1F
100
AcDbEntity
  8
0
100
AcDbLine
 10
60.9568532635
 20
1177.2902061396
 30
0.0
 11
75.6542060982
 21
1177.2902061396
 31
0.0
  0
LINE
  5
2F7
330
1F
100
AcDbEntity
  8
0
100
AcDbLine
 10
59.6542060982
 20
1177.2902061396
 30
0.0
 11
60.9568532635
 21
1177.2902061396
 31
0.0
  0
LINE
  5
2F8
330
1F
100
AcDbEntity
  8
0
100
AcDbLine
 10
67.6552060982
 20
1179.7902061396
 30
0.0
 11
67.6532060982
 21
1179.7902061396
 31
0.0
  0
LINE
  5
2F9
330
1F
100
AcDbEntity
  8
0
100
AcDbLine
 10
454.9568532635
 20
1177.2902061396
 30
0.0
 11
469.6542060982
 21
1177.2902061396
 31
0.0
  0
LINE
  5
2FA
330
1F
100
AcDbEntity
  8
0
100
AcDbLine
 10
453.6542060982
 20
1177.2902061396
 30
0.0
 11
454.9568532635
 21
1177.2902061396
 31
0.0
  0
LINE
  5
2FB
330
1F
100
AcDbEntity
  8
0
100
AcDbLine
 10
461.6552060982
 20
1179.7902061396
 30
0.0
 11
461.6532060982
 21
1179.7902061396
 31
0.0
  0
LINE
  5
2FC
330
1F
100
AcDbEntity
  8
0
100
AcDbLine
 10
469.6542060982
 20
1177.2902061396
 30
0.0
 11
453.6542060982
 21
1177.2902061396
 31
0.0
  0
LINE
  5
2FD
330
1F
100
AcDbEntity
  8
0
100
AcDbLine
 10
75.6542060982
 20
1177.2902061396
 30
0.0
 11
59.6542060982
 21
1177.2902061396
 31
0.0
  0
LINE
  5
2FE
330
1F
100
AcDbEntity
  8
0
100
AcDbLine
 10
480.4542060982
 20
1126.9902061396
 30
0.0
 11
481.8542060982
 21
1126.9902061396
 31
0.0
  0
LINE
  5
2FF
330
1F
100
AcDbEntity
  8
0
100
AcDbLine
 10
485.4542060982
 20
1126.9902061396
 30
0.0
 11
485.4542060982
 21
1126.2902061396
 31
0.0
  0
LINE
  5
300
330
1F
100
AcDbEntity
  8
0
100
AcDbLine
 10
485.4542060982
 20
1126.2902061396
 30
0.0
 11
480.4542060982
 21
1126.2902061396
 31
0.0
  0
LINE
  5
301
330
1F
100
AcDbEntity
  8
0
100
AcDbLine
 10
480.4542060982
 20
1126.2902061396
 30
0.0
 11
48.8542060982
 21
1126.2902061396
 31
0.0
  0
LINE
  5
302
330
1F
100
AcDbEntity
  8
0
100
AcDbLine
 10
480.4542060982
 20
1126.9902061396
 30
0.0
 11
48.8542060982
 21
1126.9902061396
 31
0.0
  0
LINE
  5
303
330
1F
100
AcDbEntity
  8
0
100
AcDbLine
 10
43.8542060982
 20
1126.2902061396
 30
0.0
 11
43.8542060982
 21
1126.9902061396
 31
0.0
  0
LINE
  5
304
330
1F
100
AcDbEntity
  8
0
100
AcDbLine
 10
48.8542060982
 20
1126.2902061396
 30
0.0
 11
43.8542060982
 21
1126.2902061396
 31
0.0
  0
LINE
  5
305
330
1F
100
AcDbEntity
  8
0
100
AcDbLine
 10
47.4542060982
 20
1126.9902061396
 30
0.0
 11
48.8542060982
 21
1126.9902061396
 31
0.0
  0
LINE
  5
30D
330
1F
100
AcDbEntity
  8
0
100
AcDbLine
 10
486.6542060982
 20
1127.7609168177
 30
0.0
 11
486.6542060982
 21
1146.2902061396
 31
0.0
  0
LINE
  5
30E
330
1F
100
AcDbEntity
  8
0
100
AcDbLine
 10
485.8834954201
 20
1126.9902061396
 30
0.0
 11
481.8542060982
 21
1126.9902061396
 31
0.0
  0
LINE
  5
30F
330
1F
100
AcDbEntity
  8
0
100
AcDbLine
 10
47.4542060982
 20
1126.9902061396
 30
0.0
 11
43.4249167763
 21
1126.9902061396
 31
0.0
  0
LINE
  5
316
330
1F
100
AcDbEntity
  8
0
100
AcDbLine
 10
42.6542060982
 20
1146.2902061396
 30
0.0
 11
42.6542060982
 21
1127.7609168177
 31
0.0
  0
LINE
  5
319
330
1F
100
AcDbEntity
  8
0
100
AcDbLine
 10
43.8542060982
 20
1176.2902061396
 30
0.0
 11
485.4542060982
 21
1176.2902061396
 31
0.0
  0
LINE
  5
31C
330
1F
100
AcDbEntity
  8
0
100
AcDbLine
 10
486.6542060982
 20
1173.2902061396
 30
0.0
 11
486.6542060982
 21
1146.2902061396
 31
0.0
  0
LINE
  5
31F
330
1F
100
AcDbEntity
  8
0
100
AcDbLine
 10
42.6542060982
 20
1173.2902061396
 30
0.0
 11
42.6542060982
 21
1146.2902061396
 31
0.0
  0
SPLINE
  5
322
330
1F
100
AcDbEntity
  8
0
100
AcDbSpline
210
0.0
220
0.0
230
1.0
 70
     8
 71
     3
 72
    11
 73
     7
 74
     0
 42
0.000000001
 43
0.00000001
 40
0.0
 40
0.0
 40
0.0
 40
0.0
 40
0.030594644708487
 40
0.4999999999978531
 40
0.9694053552872622
 40
1.0
 40
1.0
 40
1.0
 40
1.0
 10
485.8834954200602
 20
1127.075597094907
 30
0.0
 10
485.8935151016522
 20
1127.077473162173
 30
0.0
 10
486.0572640467295
 20
1127.108133221858
 30
0.0
 10
486.3083320862397
 20
1127.336080151538
 30
0.0
 10
486.5362790159215
 20
1127.587148191049
 30
0.0
 10
486.5669390756057
 20
1127.750897136128
 30
0.0
 10
486.5688151428715
 20
1127.760916817722
 30
0.0
  0
SPLINE
  5
323
330
1F
100
AcDbEntity
  8
0
100
AcDbSpline
210
0.0
220
0.0
230
1.0
 70
     8
 71
     3
 72
    11
 73
     7
 74
     0
 42
0.000000001
 43
0.00000001
 40
0.0
 40
0.0
 40
0.0
 40
0.0
 40
0.0305946447123155
 40
0.5000000000003887
 40
0.9694053552884769
 40
1.0
 40
1.0
 40
1.0
 40
1.0
 10
42.73959705348318
 20
1127.76091681772
 30
0.0
 10
42.74147312074894
 20
1127.750897136126
 30
0.0
 10
42.77213318043299
 20
1127.587148191049
 30
0.0
 10
43.00008011011508
 20
1127.336080151536
 30
0.0
 10
43.25114814962588
 20
1127.108133221855
 30
0.0
 10
43.41489709470447
 20
1127.077473162171
 30
0.0
 10
43.42491677629751
 20
1127.075597094905
 30
0.0
  0
LINE
  5
325
330
1F
100
AcDbEntity
  8
0
100
AcDbLine
 10
486.6542060982
 20
1175.0902061396
 30
0.0
 11
486.6542060982
 21
1173.2902061396
 31
0.0
  0
ARC
  5
329
330
1F
100
AcDbEntity
  8
0
100
AcDbCircle
 10
485.4542060982
 20
1175.0902061396
 30
0.0
 40
1.200000000000045
100
AcDbArc
 50
0.0
 51
90.0
  0
ARC
  5
32A
330
1F
100
AcDbEntity
  8
0
100
AcDbCircle
 10
43.8542060982
 20
1175.0902061396
 30
0.0
 40
1.200000000000088
100
AcDbArc
 50
90.0
 51
180.0
  0
LINE
  5
32D
330
1F
100
AcDbEntity
  8
0
100
AcDbLine
 10
42.6542060982
 20
1173.2902061396
 30
0.0
 11
42.6542060982
 21
1175.0902061396
 31
0.0
  0
LINE
  5
33B
330
1F
100
AcDbEntity
  8
0
100
AcDbLine
 10
493.0542060982
 20
1111.1202061396
 30
0.0
 11
493.0542060982
 21
1103.8202061396
 31
0.0
  0
LINE
  5
33C
330
1F
100
AcDbEntity
  8
0
100
AcDbLine
 10
492.5542060982
 20
1103.3202061396
 30
0.0
 11
492.5542060982
 21
1111.6202061396
 31
0.0
  0
LINE
  5
33D
330
1F
100
AcDbEntity
  8
0
100
AcDbLine
 10
36.7542060982
 20
1111.6402061396
 30
0.0
 11
36.7542060982
 21
1103.3402061396
 31
0.0
  0
LINE
  5
33E
330
1F
100
AcDbEntity
  8
0
100
AcDbLine
 10
36.2542060982
 20
1103.8402061396
 30
0.0
 11
36.2542060982
 21
1111.1402061396
 31
0.0
  0
LINE
  5
33F
330
1F
100
AcDbEntity
  8
0
100
AcDbLine
 10
489.6542060982
 20
769.7944096607
 30
0.0
 11
489.6542060982
 21
757.7944096607
 31
0.0
  0
LINE
  5
340
330
1F
100
AcDbEntity
  8
0
100
AcDbLine
 10
487.6542060982
 20
769.7944096607
 30
0.0
 11
487.6542060982
 21
757.7944096607
 31
0.0
  0
LINE
  5
341
330
1F
100
AcDbEntity
  8
0
100
AcDbLine
 10
487.6542060982
 20
774.7944096607
 30
0.0
 11
489.6542060982
 21
774.7944096607
 31
0.0
  0
LINE
  5
342
330
1F
100
AcDbEntity
  8
0
100
AcDbLine
 10
489.6542060982
 20
774.7944096607
 30
0.0
 11
489.6542060982
 21
769.7944096607
 31
0.0
  0
LINE
  5
343
330
1F
100
AcDbEntity
  8
0
100
AcDbLine
 10
487.6542060982
 20
769.7944096607
 30
0.0
 11
487.6542060982
 21
774.7944096607
 31
0.0
  0
LINE
  5
344
330
1F
100
AcDbEntity
  8
0
100
AcDbLine
 10
521.6542060982
 20
756.7944096607
 30
0.0
 11
521.6542060982
 21
754.7944096607
 31
0.0
  0
LINE
  5
345
330
1F
100
AcDbEntity
  8
0
100
AcDbLine
 10
521.6542060982
 20
754.7944096607
 30
0.0
 11
516.6542060982
 21
754.7944096607
 31
0.0
  0
LINE
  5
346
330
1F
100
AcDbEntity
  8
0
100
AcDbLine
 10
516.6542060982
 20
756.7944096607
 30
0.0
 11
521.6542060982
 21
756.7944096607
 31
0.0
  0
ARC
  5
347
330
1F
100
AcDbEntity
  8
0
100
AcDbCircle
 10
490.6542060982
 20
757.7944096607
 30
0.0
 40
1.0
100
AcDbArc
 50
180.0
 51
270.0
  0
ARC
  5
348
330
1F
100
AcDbEntity
  8
0
100
AcDbCircle
 10
490.6542060982
 20
757.7944096607
 30
0.0
 40
3.0
100
AcDbArc
 50
180.0
 51
270.0
  0
LINE
  5
349
330
1F
100
AcDbEntity
  8
0
100
AcDbLine
 10
490.6542060982
 20
754.7944096607
 30
0.0
 11
516.6542060982
 21
754.7944096607
 31
0.0
  0
LINE
  5
34A
330
1F
100
AcDbEntity
  8
0
100
AcDbLine
 10
490.6542060982
 20
756.7944096607
 30
0.0
 11
516.6542060982
 21
756.7944096607
 31
0.0
  0
LINE
  5
34B
330
1F
100
AcDbEntity
  8
0
100
AcDbLine
 10
39.6542060982
 20
774.7944096607
 30
0.0
 11
41.6542060982
 21
774.7944096607
 31
0.0
  0
LINE
  5
34C
330
1F
100
AcDbEntity
  8
0
100
AcDbLine
 10
41.6542060982
 20
774.7944096607
 30
0.0
 11
41.6542060982
 21
769.7944096607
 31
0.0
  0
LINE
  5
34D
330
1F
100
AcDbEntity
  8
0
100
AcDbLine
 10
39.6542060982
 20
769.7944096607
 30
0.0
 11
39.6542060982
 21
774.7944096607
 31
0.0
  0
LINE
  5
34E
330
1F
100
AcDbEntity
  8
0
100
AcDbLine
 10
39.6542060982
 20
769.7944096607
 30
0.0
 11
39.6542060982
 21
757.7944096607
 31
0.0
  0
LINE
  5
34F
330
1F
100
AcDbEntity
  8
0
100
AcDbLine
 10
41.6542060982
 20
769.7944096607
 30
0.0
 11
41.6542060982
 21
757.7944096607
 31
0.0
  0
LINE
  5
350
330
1F
100
AcDbEntity
  8
0
100
AcDbLine
 10
38.6542060982
 20
754.7944096607
 30
0.0
 11
12.6542060982
 21
754.7944096607
 31
0.0
  0
LINE
  5
351
330
1F
100
AcDbEntity
  8
0
100
AcDbLine
 10
38.6542060982
 20
756.7944096607
 30
0.0
 11
12.6542060982
 21
756.7944096607
 31
0.0
  0
ARC
  5
352
330
1F
100
AcDbEntity
  8
0
100
AcDbCircle
 10
38.6542060982
 20
757.7944096607
 30
0.0
 40
1.000000000000114
100
AcDbArc
 50
270.0
 51
0.0
  0
ARC
  5
353
330
1F
100
AcDbEntity
  8
0
100
AcDbCircle
 10
38.6542060982
 20
757.7944096607
 30
0.0
 40
3.000000000000114
100
AcDbArc
 50
270.0
 51
0.0
  0
LINE
  5
354
330
1F
100
AcDbEntity
  8
0
100
AcDbLine
 10
7.6542060982
 20
754.7944096607
 30
0.0
 11
7.6542060982
 21
756.7944096607
 31
0.0
  0
LINE
  5
355
330
1F
100
AcDbEntity
  8
0
100
AcDbLine
 10
12.6542060982
 20
754.7944096607
 30
0.0
 11
7.6542060982
 21
754.7944096607
 31
0.0
  0
LINE
  5
356
330
1F
100
AcDbEntity
  8
0
100
AcDbLine
 10
7.6542060982
 20
756.7944096607
 30
0.0
 11
12.6542060982
 21
756.7944096607
 31
0.0
  0
LINE
  5
359
330
1F
100
AcDbEntity
  8
0
100
AcDbLine
 10
488.0542060982
 20
1107.4702061396
 30
0.0
 11
488.0542060982
 21
1102.9702061396
 31
0.0
  0
LINE
  5
35A
330
1F
100
AcDbEntity
  8
0
100
AcDbLine
 10
488.0542060982
 20
1111.9702061396
 30
0.0
 11
488.0542060982
 21
1107.4702061396
 31
0.0
  0
LINE
  5
35D
330
1F
100
AcDbEntity
  8
0
100
AcDbLine
 10
41.2542060982
 20
1107.4902061396
 30
0.0
 11
41.2542060982
 21
1111.9902061396
 31
0.0
  0
LINE
  5
35E
330
1F
100
AcDbEntity
  8
0
100
AcDbLine
 10
41.2542060982
 20
1102.9902061396
 30
0.0
 11
41.2542060982
 21
1107.4902061396
 31
0.0
  0
LINE
  5
35F
330
1F
100
AcDbEntity
  8
0
100
AcDbLine
 10
509.4544136364
 20
1104.8158439089
 30
0.0
 11
509.4544136364
 21
1105.4944096607
 31
0.0
  0
LINE
  5
360
330
1F
100
AcDbEntity
  8
0
100
AcDbLine
 10
509.4544136364
 20
907.0944096607
 30
0.0
 11
509.4544136364
 21
1104.8158439089
 31
0.0
  0
LINE
  5
365
330
1F
100
AcDbEntity
  8
0
100
AcDbLine
 10
509.7542060982
 20
1105.6103716045
 30
0.0
 11
509.7542060982
 21
1106.2944096607
 31
0.0
  0
LINE
  5
366
330
1F
100
AcDbEntity
  8
0
100
AcDbLine
 10
509.7542060982
 20
906.2944096607
 30
0.0
 11
509.7542060982
 21
1105.6103716045
 31
0.0
  0
LINE
  5
367
330
1F
100
AcDbEntity
  8
0
100
AcDbLine
 10
494.3649152504
 20
1105.6103716045
 30
0.0
 11
494.3649152504
 21
1106.2944096607
 31
0.0
  0
LINE
  5
368
330
1F
100
AcDbEntity
  8
0
100
AcDbLine
 10
494.3649152504
 20
906.2944096607
 30
0.0
 11
494.3649152504
 21
1105.6103716045
 31
0.0
  0
LINE
  5
369
330
1F
100
AcDbEntity
  8
0
100
AcDbLine
 10
496.9355816625
 20
1103.8226842895
 30
0.0
 11
496.9355816625
 21
1104.4944096607
 31
0.0
  0
LINE
  5
36A
330
1F
100
AcDbEntity
  8
0
100
AcDbLine
 10
496.9355816625
 20
908.0944096607
 30
0.0
 11
496.9355816625
 21
1103.8226842895
 31
0.0
  0
LINE
  5
36B
330
1F
100
AcDbEntity
  8
0
100
AcDbLine
 10
19.85399856
 20
1105.4944096607
 30
0.0
 11
19.85399856
 21
907.0944096607
 31
0.0
  0
LINE
  5
36E
330
1F
100
AcDbEntity
  8
0
100
AcDbLine
 10
34.943496946
 20
1106.2944096607
 30
0.0
 11
34.943496946
 21
906.2944096607
 31
0.0
  0
LINE
  5
36F
330
1F
100
AcDbEntity
  8
0
100
AcDbLine
 10
32.3728305338
 20
1104.4944096607
 30
0.0
 11
32.3728305338
 21
908.0944096607
 31
0.0
  0
LINE
  5
370
330
1F
100
AcDbEntity
  8
0
100
AcDbLine
 10
19.5542060982
 20
1106.2944096607
 30
0.0
 11
19.5542060982
 21
906.2944096607
 31
0.0
  0
SPLINE
  5
37D
330
1F
100
AcDbEntity
  8
0
100
AcDbSpline
210
0.0
220
0.0
230
1.0
 70
     8
 71
     3
 72
    10
 73
     6
 74
     0
 42
0.000000001
 43
0.00000001
 40
0.0
 40
0.0
 40
0.0
 40
0.0
 40
0.1856647403316729
 40
0.6723117382183667
 40
1.0
 40
1.0
 40
1.0
 40
1.0
 10
486.4019775641632
 20
1121.094409660672
 30
0.0
 10
486.3710286126426
 20
1121.145469529645
 30
0.0
 10
486.2589591730939
 20
1121.330362736623
 30
0.0
 10
485.9675130809311
 20
1121.514654078054
 30
0.0
 10
485.7084521416622
 20
1121.550249299315
 30
0.0
 10
485.6042060981849
 20
1121.564572805566
 30
0.0
  0
LINE
  5
37E
330
1F
100
AcDbEntity
  8
0
100
AcDbLine
 10
42.6542060982
 20
759.5944096607
 30
0.0
 11
42.6542060982
 21
1105.698558853
 31
0.0
  0
LINE
  5
37F
330
1F
100
AcDbEntity
  8
0
100
AcDbLine
 10
42.6542060982
 20
1109.2818534262
 30
0.0
 11
42.6542060982
 21
1120.3944096607
 31
0.0
  0
LINE
  5
383
330
1F
100
AcDbEntity
  8
0
100
AcDbLine
 10
485.6042060982
 20
1122.2944096607
 30
0.0
 11
43.7042060982
 21
1122.2944096607
 31
0.0
  0
LINE
  5
384
330
1F
100
AcDbEntity
  8
0
100
AcDbLine
 10
485.6042060982
 20
1122.2944096607
 30
0.0
 11
485.6042060982
 21
1121.0944096607
 31
0.0
  0
LINE
  5
388
330
1F
100
AcDbEntity
  8
0
100
AcDbLine
 10
485.6042060982
 20
1121.0944096607
 30
0.0
 11
486.6542060982
 21
1121.0944096607
 31
0.0
  0
LINE
  5
38B
330
1F
100
AcDbEntity
  8
0
100
AcDbLine
 10
43.7042060982
 20
756.2944096607
 30
0.0
 11
485.6042060982
 21
756.2944096607
 31
0.0
  0
ARC
  5
38E
330
1F
100
AcDbEntity
  8
0
100
AcDbCircle
 10
43.7042060982
 20
757.3444096607
 30
0.0
 40
1.050000000000068
100
AcDbArc
 50
163.7021747871
 51
270.0
  0
ARC
  5
38F
330
1F
100
AcDbEntity
  8
0
100
AcDbCircle
 10
485.6042060982
 20
757.3444096607
 30
0.0
 40
1.050000000000068
100
AcDbArc
 50
270.0
 51
16.1230740834
  0
ARC
  5
391
330
1F
100
AcDbEntity
  8
0
100
AcDbCircle
 10
1444.2374061087
 20
1177.3790510362
 30
0.0
 40
0.2000000000000455
100
AcDbArc
 50
121.6579514612
 51
180.0
  0
ARC
  5
392
330
1F
100
AcDbEntity
  8
0
100
AcDbCircle
 10
1459.8374061087
 20
1177.3790510362
 30
0.0
 40
0.1999999999999745
100
AcDbArc
 50
0.0
 51
58.3420485389
  0
LINE
  5
393
330
1F
100
AcDbEntity
  8
0
100
AcDbLine
 10
1460.0374061087
 20
1177.2902061396
 30
0.0
 11
1460.0374061087
 21
1177.3790510362
 31
0.0
  0
LINE
  5
394
330
1F
100
AcDbEntity
  8
0
100
AcDbLine
 10
1444.0374061087
 20
1177.3790510362
 30
0.0
 11
1444.0374061087
 21
1177.2902061396
 31
0.0
  0
ARC
  5
395
330
1F
100
AcDbEntity
  8
0
100
AcDbCircle
 10
1452.0384061087
 20
1164.7306407048
 30
0.0
 40
15.0595654347826
100
AcDbArc
 50
58.34204853879999
 51
90.0
  0
ARC
  5
396
330
1F
100
AcDbEntity
  8
0
100
AcDbCircle
 10
1452.0364061087
 20
1164.7306407048
 30
0.0
 40
15.05956543478278
100
AcDbArc
 50
90.0
 51
121.6579514612
  0
LINE
  5
397
330
1F
100
AcDbEntity
  8
0
100
AcDbLine
 10
1460.0374061086
 20
1176.2902061396
 30
0.0
 11
1460.0374061086
 21
1177.2902061396
 31
0.0
  0
LINE
  5
398
330
1F
100
AcDbEntity
  8
0
100
AcDbLine
 10
1444.0374061086
 20
1177.2902061396
 30
0.0
 11
1444.0374061086
 21
1176.2902061396
 31
0.0
  0
ARC
  5
3B0
330
1F
100
AcDbEntity
  8
0
100
AcDbCircle
 10
1061.4374061087
 20
1107.0402061396
 30
0.0
 40
7.0
100
AcDbArc
 50
180.0
 51
270.0
  0
LINE
  5
3B1
330
1F
100
AcDbEntity
  8
0
100
AcDbLine
 10
1054.4374061087
 20
1116.5902061396
 30
0.0
 11
1054.4374061087
 21
1107.0402061396
 31
0.0
  0
LINE
  5
3B2
330
1F
100
AcDbEntity
  8
0
100
AcDbLine
 10
1054.4374061087
 20
1116.5902061396
 30
0.0
 11
1053.1445128898
 21
1116.5902061396
 31
0.0
  0
LINE
  5
3B3
330
1F
100
AcDbEntity
  8
0
100
AcDbLine
 10
1053.1445128898
 20
1116.5902061396
 30
0.0
 11
1053.1445128898
 21
1123.7902061396
 31
0.0
  0
LINE
  5
3B4
330
1F
100
AcDbEntity
  8
0
100
AcDbLine
 10
1134.4374061087
 20
1123.7902061396
 30
0.0
 11
1134.4374061087
 21
1116.5902061396
 31
0.0
  0
LINE
  5
3B5
330
1F
100
AcDbEntity
  8
0
100
AcDbLine
 10
1134.4374061087
 20
1116.5902061396
 30
0.0
 11
1075.0010385518
 21
1116.5902061396
 31
0.0
  0
LINE
  5
3B6
330
1F
100
AcDbEntity
  8
0
100
AcDbLine
 10
1068.8567924723
 20
1104.4319395841
 30
0.0
 11
1075.0010385518
 21
1116.5902061396
 31
0.0
  0
ARC
  5
3B7
330
1F
100
AcDbEntity
  8
0
100
AcDbCircle
 10
1061.7167355772
 20
1108.0402061396
 30
0.0
 40
8.0
100
AcDbArc
 50
270.0
 51
333.19
  0
LINE
  5
3B8
330
1F
100
AcDbEntity
  8
0
100
AcDbLine
 10
1061.4374061087
 20
1100.0402061396
 30
0.0
 11
1061.7167355772
 21
1100.0402061396
 31
0.0
  0
ARC
  5
3B9
330
1F
100
AcDbEntity
  8
0
100
AcDbCircle
 10
1061.5374061087
 20
1107.4702061396
 30
0.0
 40
4.249999999999904
100
AcDbArc
 50
180.0
 51
86.21494774680001
  0
ARC
  5
3BA
330
1F
100
AcDbEntity
  8
0
100
AcDbCircle
 10
1061.5374061087
 20
1107.4702061396
 30
0.0
 40
4.249999999999824
100
AcDbArc
 50
109.219804139
 51
180.0
  0
SPLINE
  5
3BB
330
1F
100
AcDbEntity
  8
0
100
AcDbSpline
210
0.0
220
0.0
230
1.0
 70
     8
 71
     3
 72
    11
 73
     7
 74
     0
 42
0.000000001
 43
0.00000001
 40
0.0
 40
0.0
 40
0.0
 40
0.0
 40
0.2500000000000011
 40
0.5000000000000031
 40
0.7499999999999972
 40
1.0
 40
1.0
 40
1.0
 40
1.0
 10
1053.144512889838
 20
1123.790206139604
 30
0.0
 10
1053.168920658072
 20
1124.117798749119
 30
0.0
 10
1053.217736194541
 20
1124.772983968151
 30
0.0
 10
1053.290959499245
 20
1125.599346310893
 30
0.0
 10
1053.364182803948
 20
1126.177469343699
 30
0.0
 10
1053.412998340417
 20
1126.252627207635
 30
0.0
 10
1053.437406108651
 20
1126.290206139604
 30
0.0
  0
LINE
  5
3BC
330
1F
100
AcDbEntity
  8
0
100
AcDbLine
 10
1053.4374061087
 20
1126.2902061396
 30
0.0
 11
1134.4374061087
 21
1126.2902061396
 31
0.0
  0
LINE
  5
3BD
330
1F
100
AcDbEntity
  8
0
100
AcDbLine
 10
1134.4374061087
 20
1126.2902061396
 30
0.0
 11
1134.4374061087
 21
1123.7902061396
 31
0.0
  0
LINE
  5
3BE
330
1F
100
AcDbEntity
  8
0
100
AcDbLine
 10
1050.9374061087
 20
1116.5902061396
 30
0.0
 11
1050.9374061087
 21
1123.7902061396
 31
0.0
  0
LINE
  5
3BF
330
1F
100
AcDbEntity
  8
0
100
AcDbLine
 10
1050.9374061087
 20
1123.7902061396
 30
0.0
 11
1052.4374061087
 21
1123.7902061396
 31
0.0
  0
LINE
  5
3C0
330
1F
100
AcDbEntity
  8
0
100
AcDbLine
 10
1052.4374061087
 20
1123.7902061396
 30
0.0
 11
1052.4374061087
 21
1116.5902061396
 31
0.0
  0
LINE
  5
3C1
330
1F
100
AcDbEntity
  8
0
100
AcDbLine
 10
1052.4374061087
 20
1116.5902061396
 30
0.0
 11
1050.9374061087
 21
1116.5902061396
 31
0.0
  0
SPLINE
  5
3C2
330
1F
100
AcDbEntity
  8
0
100
AcDbSpline
210
0.0
220
0.0
230
1.0
 70
     8
 71
     3
 72
    11
 73
     7
 74
     0
 42
0.000000001
 43
0.00000001
 40
0.0
 40
0.0
 40
0.0
 40
0.0
 40
0.2499999999999787
 40
0.4999999999999861
 40
0.7499999999999934
 40
1.0
 40
1.0
 40
1.0
 40
1.0
 10
1053.437406108651
 20
1126.290206139604
 30
0.0
 10
1053.109813499136
 20
1126.252627207636
 30
0.0
 10
1052.454628280105
 20
1126.177469343699
 30
0.0
 10
1051.628265937362
 20
1125.599346310893
 30
0.0
 10
1051.050142904556
 20
1124.772983968151
 30
0.0
 10
1050.97498504062
 20
1124.117798749119
 30
0.0
 10
1050.937406108651
 20
1123.790206139604
 30
0.0
  0
SPLINE
  5
3C3
330
1F
100
AcDbEntity
  8
0
100
AcDbSpline
210
0.0
220
0.0
230
1.0
 70
     8
 71
     3
 72
    11
 73
     7
 74
     0
 42
0.000000001
 43
0.00000001
 40
0.0
 40
0.0
 40
0.0
 40
0.0
 40
0.1243158762668235
 40
0.4162105841778871
 40
0.7081052920889508
 40
1.0
 40
1.0
 40
1.0
 40
1.0
 10
1053.217704823403
 20
1124.746504836839
 30
0.0
 10
1053.162466932127
 20
1124.738407504611
 30
0.0
 10
1052.977530014276
 20
1124.711297569195
 30
0.0
 10
1052.714985132965
 20
1124.510187410826
 30
0.0
 10
1052.482192053806
 20
1124.184235970346
 30
0.0
 10
1052.452334757036
 20
1123.921549416518
 30
0.0
 10
1052.437406108651
 20
1123.790206139604
 30
0.0
  0
SPLINE
  5
3C4
330
1F
100
AcDbEntity
  8
0
100
AcDbSpline
210
0.0
220
0.0
230
1.0
 70
     8
 71
     3
 72
    11
 73
     7
 74
     0
 42
0.000000001
 43
0.00000001
 40
0.0
 40
0.0
 40
0.0
 40
0.0
 40
0.2500000000000354
 40
0.5000000000000487
 40
0.7500000000000795
 40
1.0
 40
1.0
 40
1.0
 40
1.0
 10
1053.437406108653
 20
1124.790206139602
 30
0.0
 10
1053.412998340419
 20
1124.775174566815
 30
0.0
 10
1053.36418280395
 20
1124.74511142124
 30
0.0
 10
1053.290959499246
 20
1124.513862208118
 30
0.0
 10
1053.217736194543
 20
1124.183317271021
 30
0.0
 10
1053.168920658074
 20
1123.921243183408
 30
0.0
 10
1053.14451288984
 20
1123.790206139602
 30
0.0
  0
LINE
  5
3C9
330
1F
100
AcDbEntity
  8
0
100
AcDbLine
 10
1456.4129592175
 20
1177.2902061396
 30
0.0
 11
1460.0374061087
 21
1177.2902061396
 31
0.0
  0
LINE
  5
3CA
330
1F
100
AcDbEntity
  8
0
100
AcDbLine
 10
1444.0374061087
 20
1177.2902061396
 30
0.0
 11
1456.4129592175
 21
1177.2902061396
 31
0.0
  0
LINE
  5
3CB
330
1F
100
AcDbEntity
  8
0
100
AcDbLine
 10
1452.0384061087
 20
1179.7902061396
 30
0.0
 11
1452.0364061087
 21
1179.7902061396
 31
0.0
  0
LINE
  5
3CC
330
1F
100
AcDbEntity
  8
0
100
AcDbLine
 10
1460.0374061087
 20
1177.2902061396
 30
0.0
 11
1444.0374061087
 21
1177.2902061396
 31
0.0
  0
LINE
  5
3CD
330
1F
100
AcDbEntity
  8
0
100
AcDbLine
 10
1496.0374061087
 20
1126.9902061396
 30
0.0
 11
1496.0374061087
 21
1126.2902061396
 31
0.0
  0
LINE
  5
3CE
330
1F
100
AcDbEntity
  8
0
100
AcDbLine
 10
1496.0374061087
 20
1126.2902061396
 30
0.0
 11
1491.0374061087
 21
1126.2902061396
 31
0.0
  0
LINE
  5
3CF
330
1F
100
AcDbEntity
  8
0
100
AcDbLine
 10
1495.8374061087
 20
1126.9902061396
 30
0.0
 11
1496.0374061087
 21
1126.9902061396
 31
0.0
  0
LINE
  5
3D0
330
1F
100
AcDbEntity
  8
0
100
AcDbLine
 10
1491.0374061087
 20
1126.2902061396
 30
0.0
 11
1134.4374061087
 21
1126.2902061396
 31
0.0
  0
LINE
  5
3D1
330
1F
100
AcDbEntity
  8
0
100
AcDbLine
 10
1491.0374061087
 20
1126.9902061396
 30
0.0
 11
1059.4374061087
 21
1126.9902061396
 31
0.0
  0
LINE
  5
3D2
330
1F
100
AcDbEntity
  8
0
100
AcDbLine
 10
1054.4374061087
 20
1126.2902061396
 30
0.0
 11
1054.4374061087
 21
1126.9902061396
 31
0.0
  0
LINE
  5
3D5
330
1F
100
AcDbEntity
  8
0
100
AcDbLine
 10
1053.0374061087
 20
1128.1902061396
 30
0.0
 11
1053.0374061087
 21
1146.2902061396
 31
0.0
  0
LINE
  5
3DE
330
1F
100
AcDbEntity
  8
0
100
AcDbLine
 10
1497.0374061087
 20
1146.2902061396
 30
0.0
 11
1497.0374061087
 21
1128.1902061396
 31
0.0
  0
LINE
  5
3E7
330
1F
100
AcDbEntity
  8
0
100
AcDbLine
 10
1467.0374061087
 20
1176.2902061396
 30
0.0
 11
1083.0374061087
 21
1176.2902061396
 31
0.0
  0
LINE
  5
3E9
330
1F
100
AcDbEntity
  8
0
100
AcDbLine
 10
1056.9959847524
 20
1126.9902061396
 30
0.0
 11
1493.0788274649
 21
1126.9902061396
 31
0.0
  0
LINE
  5
3ED
330
1F
100
AcDbEntity
  8
0
100
AcDbLine
 10
1054.2374061087
 20
1126.9902061396
 30
0.0
 11
1056.9959847524
 21
1126.9902061396
 31
0.0
  0
SPLINE
  5
3EE
330
1F
100
AcDbEntity
  8
0
100
AcDbSpline
210
0.0
220
0.0
230
1.0
 70
     8
 71
     3
 72
    11
 73
     7
 74
     0
 42
0.000000001
 43
0.00000001
 40
0.0
 40
0.0
 40
0.0
 40
0.0
 40
0.2500000000000144
 40
0.5000000000000114
 40
0.7499999999999821
 40
1.0
 40
1.0
 40
1.0
 40
1.0
 10
1053.037406074982
 20
1128.190206139602
 30
0.0
 10
1053.055443955585
 20
1128.032961713587
 30
0.0
 10
1053.091519716791
 20
1127.718472861558
 30
0.0
 10
1053.369018676111
 20
1127.321818975496
 30
0.0
 10
1053.765672476393
 20
1127.044319893562
 30
0.0
 10
1054.08016131727
 20
1127.008244035142
 30
0.0
 10
1054.237405737709
 20
1126.990206105931
 30
0.0
  0
LINE
  5
3F1
330
1F
100
AcDbEntity
  8
0
100
AcDbLine
 10
1495.8374061087
 20
1126.9902061396
 30
0.0
 11
1493.0788274649
 21
1126.9902061396
 31
0.0
  0
SPLINE
  5
3F4
330
1F
100
AcDbEntity
  8
0
100
AcDbSpline
210
0.0
220
0.0
230
1.0
 70
     8
 71
     3
 72
    11
 73
     7
 74
     0
 42
0.000000001
 43
0.00000001
 40
0.0
 40
0.0
 40
0.0
 40
0.0
 40
0.249999861402139
 40
0.4999999076014132
 40
0.7499999538006874
 40
1.0
 40
1.0
 40
1.0
 40
1.0
 10
1495.837406461303
 20
1126.990206105929
 30
0.0
 10
1495.994650795039
 20
1127.008244013242
 30
0.0
 10
1496.309139578744
 20
1127.044319841199
 30
0.0
 10
1496.705793414858
 20
1127.321818832124
 30
0.0
 10
1496.983292478864
 20
1127.718472768883
 30
0.0
 10
1497.019368254502
 20
1128.032961682694
 30
0.0
 10
1497.037406142322
 20
1128.190206139599
 30
0.0
  0
ARC
  5
3F5
330
1F
100
AcDbEntity
  8
0
100
AcDbCircle
 10
1083.0374061087
 20
1146.2902061396
 30
0.0
 40
30.0
100
AcDbArc
 50
90.0
 51
180.0
  0
ARC
  5
3F7
330
1F
100
AcDbEntity
  8
0
100
AcDbCircle
 10
1467.0374061087
 20
1146.2902061396
 30
0.0
 40
30.0
100
AcDbArc
 50
0.0
 51
90.0
  0
LINE
  5
495
330
1F
100
AcDbEntity
  8
0
100
AcDbLine
 10
1060.3827055703
 20
1105.4902061396
 30
0.0
 11
1062.692106647
 21
1105.4902061396
 31
0.0
  0
LINE
  5
496
330
1F
100
AcDbEntity
  8
0
100
AcDbLine
 10
1062.692106647
 20
1109.4902061396
 30
0.0
 11
1060.3827055703
 21
1109.4902061396
 31
0.0
  0
LINE
  5
497
330
1F
100
AcDbEntity
  8
0
100
AcDbLine
 10
1060.3827055703
 20
1109.4902061396
 30
0.0
 11
1059.2280050319
 21
1107.4902061396
 31
0.0
  0
CIRCLE
  5
498
330
1F
100
AcDbEntity
  8
0
100
AcDbCircle
 10
1061.5374061086
 20
1107.4902061396
 30
0.0
 40
3.650000000000091
  0
LINE
  5
499
330
1F
100
AcDbEntity
  8
0
100
AcDbLine
 10
1062.692106647
 20
1105.4902061396
 30
0.0
 11
1063.8468071854
 21
1107.4902061396
 31
0.0
  0
LINE
  5
49A
330
1F
100
AcDbEntity
  8
0
100
AcDbLine
 10
1059.2280050319
 20
1107.4902061396
 30
0.0
 11
1060.3827055703
 21
1105.4902061396
 31
0.0
  0
LINE
  5
49B
330
1F
100
AcDbEntity
  8
0
100
AcDbLine
 10
1063.8468071854
 20
1107.4902061396
 30
0.0
 11
1062.692106647
 21
1109.4902061396
 31
0.0
  0
CIRCLE
  5
49C
330
1F
100
AcDbEntity
  8
0
100
AcDbCircle
 10
1061.5374061086
 20
1107.4902061396
 30
0.0
 40
4.150000000000318
  0
LINE
  5
49D
330
1F
100
AcDbEntity
  8
0
100
AcDbLine
 10
1492.0374061086
 20
754.7944096607
 30
0.0
 11
1422.0374061086
 21
754.7944096607
 31
0.0
  0
LINE
  5
49E
330
1F
100
AcDbEntity
  8
0
100
AcDbLine
 10
1492.0374061087
 20
756.7944096607
 30
0.0
 11
1422.0374061086
 21
756.7944096607
 31
0.0
  0
LINE
  5
49F
330
1F
100
AcDbEntity
  8
0
100
AcDbLine
 10
1417.0374061086
 20
754.7944096607
 30
0.0
 11
1417.0374061086
 21
756.7944096607
 31
0.0
  0
LINE
  5
4A0
330
1F
100
AcDbEntity
  8
0
100
AcDbLine
 10
1422.0374061086
 20
754.7944096607
 30
0.0
 11
1417.0374061086
 21
754.7944096607
 31
0.0
  0
LINE
  5
4A1
330
1F
100
AcDbEntity
  8
0
100
AcDbLine
 10
1417.0374061086
 20
756.7944096607
 30
0.0
 11
1422.0374061086
 21
756.7944096607
 31
0.0
  0
LINE
  5
4A2
330
1F
100
AcDbEntity
  8
0
100
AcDbLine
 10
1497.0374061086
 20
756.7944096607
 30
0.0
 11
1497.0374061086
 21
754.7944096607
 31
0.0
  0
LINE
  5
4A3
330
1F
100
AcDbEntity
  8
0
100
AcDbLine
 10
1497.0374061086
 20
754.7944096607
 30
0.0
 11
1492.0374061086
 21
754.7944096607
 31
0.0
  0
LINE
  5
4A4
330
1F
100
AcDbEntity
  8
0
100
AcDbLine
 10
1492.0374061087
 20
756.7944096607
 30
0.0
 11
1497.0374061086
 21
756.7944096607
 31
0.0
  0
LINE
  5
4A5
330
1F
100
AcDbEntity
  8
0
100
AcDbLine
 10
1497.0374061086
 20
757.7944096607
 30
0.0
 11
1497.0374061087
 21
756.7944096607
 31
0.0
  0
LINE
  5
4A6
330
1F
100
AcDbEntity
  8
0
100
AcDbLine
 10
1417.0374061086
 20
757.7944096607
 30
0.0
 11
1417.0374061086
 21
756.7944096607
 31
0.0
  0
LINE
  5
4A7
330
1F
100
AcDbEntity
  8
0
100
AcDbLine
 10
1492.0374061086
 20
774.7944096607
 30
0.0
 11
1422.0374061086
 21
774.7944096607
 31
0.0
  0
ARC
  5
4A8
330
1F
100
AcDbEntity
  8
0
100
AcDbCircle
 10
1492.0374061086
 20
769.7944096607
 30
0.0
 40
5.000000000000227
100
AcDbArc
 50
0.0
 51
90.0
  0
LINE
  5
4A9
330
1F
100
AcDbEntity
  8
0
100
AcDbLine
 10
1497.0374061087
 20
769.7944096607
 30
0.0
 11
1497.0374061086
 21
757.7944096607
 31
0.0
  0
LINE
  5
4AA
330
1F
100
AcDbEntity
  8
0
100
AcDbLine
 10
1417.0374061086
 20
769.7944096607
 30
0.0
 11
1417.0374061086
 21
757.7944096607
 31
0.0
  0
ARC
  5
4AB
330
1F
100
AcDbEntity
  8
0
100
AcDbCircle
 10
1422.0374061086
 20
769.7944096607
 30
0.0
 40
5.0
100
AcDbArc
 50
90.0
 51
180.0
  0
LINE
  5
4AC
330
1F
100
AcDbEntity
  8
0
100
AcDbLine
 10
1053.0374061087
 20
754.7944096607
 30
0.0
 11
1053.0374061087
 21
756.7944096607
 31
0.0
  0
LINE
  5
4AD
330
1F
100
AcDbEntity
  8
0
100
AcDbLine
 10
1053.0374061087
 20
756.7944096607
 30
0.0
 11
1058.0374061087
 21
756.7944096607
 31
0.0
  0
LINE
  5
4AE
330
1F
100
AcDbEntity
  8
0
100
AcDbLine
 10
1058.0374061087
 20
754.7944096607
 30
0.0
 11
1053.0374061087
 21
754.7944096607
 31
0.0
  0
LINE
  5
4AF
330
1F
100
AcDbEntity
  8
0
100
AcDbLine
 10
1128.0374061087
 20
754.7944096607
 30
0.0
 11
1058.0374061087
 21
754.7944096607
 31
0.0
  0
LINE
  5
4B0
330
1F
100
AcDbEntity
  8
0
100
AcDbLine
 10
1128.0374061087
 20
756.7944096607
 30
0.0
 11
1058.0374061087
 21
756.7944096607
 31
0.0
  0
LINE
  5
4B1
330
1F
100
AcDbEntity
  8
0
100
AcDbLine
 10
1133.0374061087
 20
756.7944096607
 30
0.0
 11
1133.0374061087
 21
754.7944096607
 31
0.0
  0
LINE
  5
4B2
330
1F
100
AcDbEntity
  8
0
100
AcDbLine
 10
1133.0374061087
 20
754.7944096607
 30
0.0
 11
1128.0374061087
 21
754.7944096607
 31
0.0
  0
LINE
  5
4B3
330
1F
100
AcDbEntity
  8
0
100
AcDbLine
 10
1128.0374061087
 20
756.7944096607
 30
0.0
 11
1133.0374061087
 21
756.7944096607
 31
0.0
  0
LINE
  5
4B4
330
1F
100
AcDbEntity
  8
0
100
AcDbLine
 10
1133.0374061087
 20
757.7944096607
 30
0.0
 11
1133.0374061087
 21
756.7944096607
 31
0.0
  0
LINE
  5
4B5
330
1F
100
AcDbEntity
  8
0
100
AcDbLine
 10
1053.0374061087
 20
757.7944096607
 30
0.0
 11
1053.0374061087
 21
756.7944096607
 31
0.0
  0
ARC
  5
4B6
330
1F
100
AcDbEntity
  8
0
100
AcDbCircle
 10
1058.0374061087
 20
769.7944096607
 30
0.0
 40
5.0
100
AcDbArc
 50
90.0
 51
180.0
  0
LINE
  5
4B7
330
1F
100
AcDbEntity
  8
0
100
AcDbLine
 10
1128.0374061087
 20
774.7944096607
 30
0.0
 11
1058.0374061087
 21
774.7944096607
 31
0.0
  0
ARC
  5
4B8
330
1F
100
AcDbEntity
  8
0
100
AcDbCircle
 10
1128.0374061087
 20
769.7944096607
 30
0.0
 40
5.000000000000227
100
AcDbArc
 50
0.0
 51
90.0
  0
LINE
  5
4B9
330
1F
100
AcDbEntity
  8
0
100
AcDbLine
 10
1133.0374061087
 20
769.7944096607
 30
0.0
 11
1133.0374061087
 21
757.7944096607
 31
0.0
  0
LINE
  5
4BA
330
1F
100
AcDbEntity
  8
0
100
AcDbLine
 10
1053.0374061087
 20
769.7944096607
 30
0.0
 11
1053.0374061087
 21
757.7944096607
 31
0.0
  0
CIRCLE
  5
4BD
330
1F
100
AcDbEntity
  8
0
100
AcDbCircle
 10
1275.0374061087
 20
1006.2944096607
 30
0.0
 40
97.50000000000004
  0
CIRCLE
  5
4BE
330
1F
100
AcDbEntity
  8
0
100
AcDbCircle
 10
1275.0374061087
 20
1006.2944096607
 30
0.0
 40
100.0000000000001
  0
ARC
  5
4C0
330
1F
100
AcDbEntity
  8
0
100
AcDbCircle
 10
1275.0374061087
 20
1006.2944096607
 30
0.0
 40
97.00000000000017
100
AcDbArc
 50
106.9559586809
 51
73.0440413191
  0
LINE
  5
4C9
330
1F
100
AcDbEntity
  8
0
100
AcDbLine
 10
1496.1374061087
 20
1121.4944096607
 30
0.0
 11
1493.5837988332
 21
1121.4944096607
 31
0.0
  0
ARC
  5
4CA
330
1F
100
AcDbEntity
  8
0
100
AcDbCircle
 10
1275.0374061087
 20
976.2944096607
 30
0.0
 40
125.9999999999999
100
AcDbArc
 50
74.071964481
 51
105.928035519
  0
LINE
  5
4CB
330
1F
100
AcDbEntity
  8
0
100
AcDbLine
 10
1134.4374061087
 20
1121.5944096607
 30
0.0
 11
1449.6218815306
 21
1121.5944096607
 31
0.0
  0
LINE
  5
4CF
330
1F
100
AcDbEntity
  8
0
100
AcDbLine
 10
1497.0374061087
 20
769.7944096607
 30
0.0
 11
1497.0374061087
 21
1121.0944096607
 31
0.0
  0
LINE
  5
4D1
330
1F
100
AcDbEntity
  8
0
100
AcDbLine
 10
1445.8374061087
 20
1121.5944096607
 30
0.0
 11
1445.8374061087
 21
1122.2944096607
 31
0.0
  0
LINE
  5
4D2
330
1F
100
AcDbEntity
  8
0
100
AcDbLine
 10
1445.8374061087
 20
1122.2944096607
 30
0.0
 11
1450.8374061087
 21
1122.2944096607
 31
0.0
  0
LINE
  5
4D3
330
1F
100
AcDbEntity
  8
0
100
AcDbLine
 10
1450.8374061087
 20
1121.5944096607
 30
0.0
 11
1449.6218815306
 21
1121.5944096607
 31
0.0
  0
LINE
  5
4D4
330
1F
100
AcDbEntity
  8
0
100
AcDbLine
 10
1450.8374061087
 20
1122.2944096607
 30
0.0
 11
1495.8374061087
 21
1122.2944096607
 31
0.0
  0
LINE
  5
4D5
330
1F
100
AcDbEntity
  8
0
100
AcDbLine
 10
1450.8374061087
 20
1121.5944096607
 30
0.0
 11
1495.8374061087
 21
1121.5944096607
 31
0.0
  0
ARC
  5
4D6
330
1F
100
AcDbEntity
  8
0
100
AcDbCircle
 10
1495.8374061087
 20
1121.0944096607
 30
0.0
 40
1.200000000000045
100
AcDbArc
 50
0.0
 51
90.0
  0
ARC
  5
4D7
330
1F
100
AcDbEntity
  8
0
100
AcDbCircle
 10
1495.8374061087
 20
1121.0944096607
 30
0.0
 40
0.5000000000002274
100
AcDbArc
 50
0.0
 51
90.0
  0
LINE
  5
4D8
330
1F
100
AcDbEntity
  8
0
100
AcDbLine
 10
1053.0374061087
 20
1121.0944096607
 30
0.0
 11
1053.1445128898
 21
1121.0944096607
 31
0.0
  0
LINE
  5
4DA
330
1F
100
AcDbEntity
  8
0
100
AcDbLine
 10
1053.0374061087
 20
1121.0944096607
 30
0.0
 11
1053.0374061087
 21
769.7944096607
 31
0.0
  0
ARC
  5
4DB
330
1F
100
AcDbEntity
  8
0
100
AcDbCircle
 10
1054.2374061087
 20
1121.0944096607
 30
0.0
 40
1.200000000000045
100
AcDbArc
 50
155.6084185523
 51
180.0
  0
LINE
  5
4DD
330
1F
100
AcDbEntity
  8
0
100
AcDbLine
 10
1133.0374061087
 20
756.2944096607
 30
0.0
 11
1417.0374061086
 21
756.2944096607
 31
0.0
  0
LINE
  5
4E9
330
1F
100
AcDbEntity
  8
0
100
AcDbLine
 10
-815.1293286018
 20
1177.2902061396
 30
0.0
 11
-815.1293286018
 21
1177.3790510362
 31
0.0
  0
LINE
  5
4EA
330
1F
100
AcDbEntity
  8
0
100
AcDbLine
 10
-831.1293286018
 20
1177.3790510362
 30
0.0
 11
-831.1293286018
 21
1177.2902061396
 31
0.0
  0
ARC
  5
4EB
330
1F
100
AcDbEntity
  8
0
100
AcDbCircle
 10
-830.9293286018
 20
1177.3790510362
 30
0.0
 40
0.2000000000001535
100
AcDbArc
 50
121.6579514612
 51
180.0
  0
ARC
  5
4EC
330
1F
100
AcDbEntity
  8
0
100
AcDbCircle
 10
-815.3293286018
 20
1177.3790510362
 30
0.0
 40
0.2000000000000938
100
AcDbArc
 50
0.0
 51
58.3420485389
  0
ARC
  5
4ED
330
1F
100
AcDbEntity
  8
0
100
AcDbCircle
 10
-823.1283286018
 20
1164.7306407048
 30
0.0
 40
15.05956543478278
100
AcDbArc
 50
58.34204853879999
 51
90.0
  0
ARC
  5
4EE
330
1F
100
AcDbEntity
  8
0
100
AcDbCircle
 10
-823.1303286018
 20
1164.7306407048
 30
0.0
 40
15.0595654347826
100
AcDbArc
 50
90.0
 51
121.6579514612
  0
LINE
  5
4EF
330
1F
100
AcDbEntity
  8
0
100
AcDbLine
 10
-815.1293286018
 20
1176.2902061396
 30
0.0
 11
-815.1293286018
 21
1177.2902061396
 31
0.0
  0
LINE
  5
4F0
330
1F
100
AcDbEntity
  8
0
100
AcDbLine
 10
-831.1293286018
 20
1177.2902061396
 30
0.0
 11
-831.1293286018
 21
1176.2902061396
 31
0.0
  0
LINE
  5
53C
330
1F
100
AcDbEntity
  8
0
100
AcDbLine
 10
-489.1293286018
 20
1101.5944096607
 30
0.0
 11
-489.1293286018
 21
1031.5944096607
 31
0.0
  0
LINE
  5
53D
330
1F
100
AcDbEntity
  8
0
100
AcDbLine
 10
-489.1293286018
 20
1031.5944096607
 30
0.0
 11
-479.1293286018
 21
1031.5944096607
 31
0.0
  0
LINE
  5
53E
330
1F
100
AcDbEntity
  8
0
100
AcDbLine
 10
-479.1293286018
 20
1031.5944096607
 30
0.0
 11
-479.1293286018
 21
1101.5944096607
 31
0.0
  0
LINE
  5
53F
330
1F
100
AcDbEntity
  8
0
100
AcDbLine
 10
-479.1293286018
 20
1101.5944096607
 30
0.0
 11
-489.1293286018
 21
1101.5944096607
 31
0.0
  0
ARC
  5
540
330
1F
100
AcDbEntity
  8
0
100
AcDbCircle
 10
-451.1293286018
 20
1033.5944096607
 30
0.0
 40
9.0
100
AcDbArc
 50
270.0
 51
0.0
  0
LINE
  5
541
330
1F
100
AcDbEntity
  8
0
100
AcDbLine
 10
-442.1293286018
 20
1099.5944096607
 30
0.0
 11
-442.1293286018
 21
1033.5944096607
 31
0.0
  0
ARC
  5
542
330
1F
100
AcDbEntity
  8
0
100
AcDbCircle
 10
-451.1293286018
 20
1099.5944096607
 30
0.0
 40
9.0
100
AcDbArc
 50
0.0
 51
90.0
  0
LINE
  5
543
330
1F
100
AcDbEntity
  8
0
100
AcDbLine
 10
-517.1293286018
 20
1108.5944096607
 30
0.0
 11
-451.1293286018
 21
1108.5944096607
 31
0.0
  0
LINE
  5
544
330
1F
100
AcDbEntity
  8
0
100
AcDbLine
 10
-451.1293286018
 20
1024.5944096607
 30
0.0
 11
-517.1293286018
 21
1024.5944096607
 31
0.0
  0
ARC
  5
545
330
1F
100
AcDbEntity
  8
0
100
AcDbCircle
 10
-517.1293286018
 20
1033.5944096607
 30
0.0
 40
9.000000000000114
100
AcDbArc
 50
180.0
 51
270.0
  0
ARC
  5
546
330
1F
100
AcDbEntity
  8
0
100
AcDbCircle
 10
-517.1293286018
 20
1099.5944096607
 30
0.0
 40
9.000000000000114
100
AcDbArc
 50
90.0
 51
180.0
  0
LINE
  5
547
330
1F
100
AcDbEntity
  8
0
100
AcDbLine
 10
-526.1293286018
 20
1033.5944096607
 30
0.0
 11
-526.1293286018
 21
1099.5944096607
 31
0.0
  0
SPLINE
  5
549
330
1F
100
AcDbEntity
  8
0
100
AcDbSpline
210
0.0
220
0.0
230
1.0
 70
     8
 71
     3
 72
    11
 73
     7
 74
     0
 42
0.000000001
 43
0.00000001
 40
0.0
 40
0.0
 40
0.0
 40
0.0
 40
0.249999999999997
 40
0.4999999999999967
 40
0.7499999999999964
 40
1.0
 40
1.0
 40
1.0
 40
1.0
 10
-424.236435382943
 20
1123.790206139604
 30
0.0
 10
-424.2608431511774
 20
1123.92124318341
 30
0.0
 10
-424.3096586876464
 20
1124.183317271023
 30
0.0
 10
-424.3828819923497
 20
1124.513862208119
 30
0.0
 10
-424.456105297053
 20
1124.745111421242
 30
0.0
 10
-424.504920833522
 20
1124.775174566816
 30
0.0
 10
-424.5293286017564
 20
1124.790206139604
 30
0.0
  0
LINE
  5
54A
330
1F
100
AcDbEntity
  8
0
100
AcDbLine
 10
-505.5293286018
 20
1116.5902061396
 30
0.0
 11
-446.0929610449
 21
1116.5902061396
 31
0.0
  0
LINE
  5
54B
330
1F
100
AcDbEntity
  8
0
100
AcDbLine
 10
-505.5293286018
 20
1123.7902061396
 30
0.0
 11
-505.5293286018
 21
1116.5902061396
 31
0.0
  0
LINE
  5
54C
330
1F
100
AcDbEntity
  8
0
100
AcDbLine
 10
-424.2364353829
 20
1116.5902061396
 30
0.0
 11
-424.2364353829
 21
1123.7902061396
 31
0.0
  0
LINE
  5
54D
330
1F
100
AcDbEntity
  8
0
100
AcDbLine
 10
-425.5293286018
 20
1116.5902061396
 30
0.0
 11
-424.2364353829
 21
1116.5902061396
 31
0.0
  0
LINE
  5
54E
330
1F
100
AcDbEntity
  8
0
100
AcDbLine
 10
-425.5293286018
 20
1107.0402061396
 30
0.0
 11
-425.5293286018
 21
1116.5902061396
 31
0.0
  0
ARC
  5
54F
330
1F
100
AcDbEntity
  8
0
100
AcDbCircle
 10
-432.5293286018
 20
1107.0402061396
 30
0.0
 40
7.000000000000227
100
AcDbArc
 50
270.0
 51
0.0
  0
LINE
  5
550
330
1F
100
AcDbEntity
  8
0
100
AcDbLine
 10
-432.8086580703
 20
1100.0402061396
 30
0.0
 11
-432.5293286018
 21
1100.0402061396
 31
0.0
  0
ARC
  5
551
330
1F
100
AcDbEntity
  8
0
100
AcDbCircle
 10
-432.8086580703
 20
1108.0402061396
 30
0.0
 40
8.0
100
AcDbArc
 50
206.81
 51
270.0
  0
LINE
  5
552
330
1F
100
AcDbEntity
  8
0
100
AcDbLine
 10
-446.0929610449
 20
1116.5902061396
 30
0.0
 11
-439.9487149654
 21
1104.4319395841
 31
0.0
  0
CIRCLE
  5
553
330
1F
100
AcDbEntity
  8
0
100
AcDbCircle
 10
-432.6293286018
 20
1107.4702061396
 30
0.0
 40
4.25
  0
SPLINE
  5
554
330
1F
100
AcDbEntity
  8
0
100
AcDbSpline
210
0.0
220
0.0
230
1.0
 70
     8
 71
     3
 72
    11
 73
     7
 74
     0
 42
0.000000001
 43
0.00000001
 40
0.0
 40
0.0
 40
0.0
 40
0.0
 40
0.2500000000000274
 40
0.5000000000000314
 40
0.7500000000000364
 40
1.0
 40
1.0
 40
1.0
 40
1.0
 10
-424.5293286017583
 20
1126.290206139602
 30
0.0
 10
-424.5049208335239
 20
1126.252627207634
 30
0.0
 10
-424.456105297055
 20
1126.177469343697
 30
0.0
 10
-424.3828819923517
 20
1125.599346310891
 30
0.0
 10
-424.3096586876483
 20
1124.772983968149
 30
0.0
 10
-424.2608431511793
 20
1124.117798749118
 30
0.0
 10
-424.2364353829449
 20
1123.790206139602
 30
0.0
  0
LINE
  5
555
330
1F
100
AcDbEntity
  8
0
100
AcDbLine
 10
-505.5293286018
 20
1123.7902061396
 30
0.0
 11
-505.5293286018
 21
1126.2902061396
 31
0.0
  0
LINE
  5
556
330
1F
100
AcDbEntity
  8
0
100
AcDbLine
 10
-505.5293286018
 20
1126.2902061396
 30
0.0
 11
-424.5293286018
 21
1126.2902061396
 31
0.0
  0
LINE
  5
557
330
1F
100
AcDbEntity
  8
0
100
AcDbLine
 10
-423.5293286018
 20
1123.7902061396
 30
0.0
 11
-423.5293286018
 21
1116.5902061396
 31
0.0
  0
LINE
  5
558
330
1F
100
AcDbEntity
  8
0
100
AcDbLine
 10
-422.0293286018
 20
1123.7902061396
 30
0.0
 11
-423.5293286018
 21
1123.7902061396
 31
0.0
  0
LINE
  5
559
330
1F
100
AcDbEntity
  8
0
100
AcDbLine
 10
-422.0293286018
 20
1123.7902061396
 30
0.0
 11
-422.0293286018
 21
1116.5902061396
 31
0.0
  0
LINE
  5
55A
330
1F
100
AcDbEntity
  8
0
100
AcDbLine
 10
-422.0293286018
 20
1116.5902061396
 30
0.0
 11
-423.5293286018
 21
1116.5902061396
 31
0.0
  0
SPLINE
  5
55B
330
1F
100
AcDbEntity
  8
0
100
AcDbSpline
210
0.0
220
0.0
230
1.0
 70
     8
 71
     3
 72
    11
 73
     7
 74
     0
 42
0.000000001
 43
0.00000001
 40
0.0
 40
0.0
 40
0.0
 40
0.0
 40
0.2918947079110301
 40
0.5837894158220669
 40
0.8756841237331074
 40
0.9999999999999999
 40
0.9999999999999999
 40
0.9999999999999999
 40
0.9999999999999999
 10
-423.5293286017583
 20
1123.790206139602
 30
0.0
 10
-423.5442572501432
 20
1123.921549416516
 30
0.0
 10
-423.574114546913
 20
1124.184235970344
 30
0.0
 10
-423.8069076260716
 20
1124.510187410824
 30
0.0
 10
-424.0694525073829
 20
1124.711297569193
 30
0.0
 10
-424.2543894252337
 20
1124.738407504609
 30
0.0
 10
-424.3096273165096
 20
1124.746504836837
 30
0.0
  0
SPLINE
  5
55C
330
1F
100
AcDbEntity
  8
0
100
AcDbSpline
210
0.0
220
0.0
230
1.0
 70
     8
 71
     3
 72
    11
 73
     7
 74
     0
 42
0.000000001
 43
0.00000001
 40
0.0
 40
0.0
 40
0.0
 40
0.0
 40
0.2499999999999964
 40
0.4999999999999926
 40
0.7499999999999893
 40
1.0
 40
1.0
 40
1.0
 40
1.0
 10
-422.0293286017583
 20
1123.790206139602
 30
0.0
 10
-422.0669075337266
 20
1124.117798749118
 30
0.0
 10
-422.1420653976633
 20
1124.772983968149
 30
0.0
 10
-422.7201884304691
 20
1125.599346310892
 30
0.0
 10
-423.5465507732115
 20
1126.177469343697
 30
0.0
 10
-424.2017359922427
 20
1126.252627207634
 30
0.0
 10
-424.5293286017583
 20
1126.290206139602
 30
0.0
  0
LINE
  5
561
330
1F
100
AcDbEntity
  8
0
100
AcDbLine
 10
-831.1293286018
 20
1177.2902061396
 30
0.0
 11
-815.1293286018
 21
1177.2902061396
 31
0.0
  0
LINE
  5
562
330
1F
100
AcDbEntity
  8
0
100
AcDbLine
 10
-823.1287816576
 20
1179.7902061396
 30
0.0
 11
-823.1303286018
 21
1179.7902061396
 31
0.0
  0
LINE
  5
563
330
1F
100
AcDbEntity
  8
0
100
AcDbLine
 10
-823.1283286018
 20
1179.7902061396
 30
0.0
 11
-823.1287816576
 21
1179.7902061396
 31
0.0
  0
LINE
  5
564
330
1F
100
AcDbEntity
  8
0
100
AcDbLine
 10
-818.7537754929
 20
1177.2902061396
 30
0.0
 11
-831.1293286018
 21
1177.2902061396
 31
0.0
  0
LINE
  5
565
330
1F
100
AcDbEntity
  8
0
100
AcDbLine
 10
-815.1293286018
 20
1177.2902061396
 30
0.0
 11
-818.7537754929
 21
1177.2902061396
 31
0.0
  0
LINE
  5
566
330
1F
100
AcDbEntity
  8
0
100
AcDbLine
 10
-430.5293286018
 20
1126.9902061396
 30
0.0
 11
-862.1293286018
 21
1126.9902061396
 31
0.0
  0
LINE
  5
567
330
1F
100
AcDbEntity
  8
0
100
AcDbLine
 10
-505.5293286018
 20
1126.2902061396
 30
0.0
 11
-862.1293286018
 21
1126.2902061396
 31
0.0
  0
LINE
  5
568
330
1F
100
AcDbEntity
  8
0
100
AcDbLine
 10
-425.5293286018
 20
1126.9902061396
 30
0.0
 11
-425.5293286018
 21
1126.2902061396
 31
0.0
  0
LINE
  5
569
330
1F
100
AcDbEntity
  8
0
100
AcDbLine
 10
-867.1293286018
 20
1126.2902061396
 30
0.0
 11
-867.1293286018
 21
1126.9902061396
 31
0.0
  0
LINE
  5
56A
330
1F
100
AcDbEntity
  8
0
100
AcDbLine
 10
-867.1293286018
 20
1126.9902061396
 30
0.0
 11
-866.9293286018
 21
1126.9902061396
 31
0.0
  0
LINE
  5
56B
330
1F
100
AcDbEntity
  8
0
100
AcDbLine
 10
-862.1293286018
 20
1126.2902061396
 30
0.0
 11
-867.1293286018
 21
1126.2902061396
 31
0.0
  0
LINE
  5
571
330
1F
100
AcDbEntity
  8
0
100
AcDbLine
 10
-868.1293286018
 20
1128.1902061396
 30
0.0
 11
-868.1293286018
 21
1146.2902061396
 31
0.0
  0
LINE
  5
576
330
1F
100
AcDbEntity
  8
0
100
AcDbLine
 10
-424.1293286018
 20
1146.2902061396
 30
0.0
 11
-424.1293286018
 21
1128.1902061396
 31
0.0
  0
LINE
  5
579
330
1F
100
AcDbEntity
  8
0
100
AcDbLine
 10
-428.0879072455
 20
1126.9902061396
 30
0.0
 11
-864.170749958
 21
1126.9902061396
 31
0.0
  0
LINE
  5
582
330
1F
100
AcDbEntity
  8
0
100
AcDbLine
 10
-454.1293286018
 20
1176.2902061396
 30
0.0
 11
-838.1293286018
 21
1176.2902061396
 31
0.0
  0
LINE
  5
585
330
1F
100
AcDbEntity
  8
0
100
AcDbLine
 10
-425.3293286018
 20
1126.9902061396
 30
0.0
 11
-428.0879072455
 21
1126.9902061396
 31
0.0
  0
SPLINE
  5
588
330
1F
100
AcDbEntity
  8
0
100
AcDbSpline
210
0.0
220
0.0
230
1.0
 70
     8
 71
     3
 72
    11
 73
     7
 74
     0
 42
0.000000001
 43
0.00000001
 40
0.0
 40
0.0
 40
0.0
 40
0.0
 40
0.2500000000000759
 40
0.5000000000000514
 40
0.7500000000000361
 40
1.0
 40
1.0
 40
1.0
 40
1.0
 10
-425.3293282308152
 20
1126.990206105933
 30
0.0
 10
-425.1720838103765
 20
1127.008244035143
 30
0.0
 10
-424.8575949694992
 20
1127.044319893564
 30
0.0
 10
-424.4609411692174
 20
1127.321818975498
 30
0.0
 10
-424.1834422098971
 20
1127.718472861561
 30
0.0
 10
-424.1473664486916
 20
1128.03296171359
 30
0.0
 10
-424.1293285680889
 20
1128.190206139604
 30
0.0
  0
LINE
  5
58A
330
1F
100
AcDbEntity
  8
0
100
AcDbLine
 10
-866.9293286018
 20
1126.9902061396
 30
0.0
 11
-864.170749958
 21
1126.9902061396
 31
0.0
  0
SPLINE
  5
58D
330
1F
100
AcDbEntity
  8
0
100
AcDbSpline
210
0.0
220
0.0
230
1.0
 70
     8
 71
     3
 72
    11
 73
     7
 74
     0
 42
0.000000001
 43
0.00000001
 40
0.0
 40
0.0
 40
0.0
 40
0.0
 40
0.2500000461992987
 40
0.5000000923985857
 40
0.7500001385978765
 40
0.9999999999999999
 40
0.9999999999999999
 40
0.9999999999999999
 40
0.9999999999999999
 10
-868.1293286354284
 20
1128.1902061396
 30
0.0
 10
-868.1112907476089
 20
1128.032961682695
 30
0.0
 10
-868.07521497197
 20
1127.718472768885
 30
0.0
 10
-867.797715907964
 20
1127.321818832125
 30
0.0
 10
-867.40106207185
 20
1127.044319841201
 30
0.0
 10
-867.0865732881456
 20
1127.008244013243
 30
0.0
 10
-866.92932895441
 20
1126.990206105931
 30
0.0
  0
ARC
  5
58E
330
1F
100
AcDbEntity
  8
0
100
AcDbCircle
 10
-454.1293286018
 20
1146.2902061396
 30
0.0
 40
30.00000000000023
100
AcDbArc
 50
0.0
 51
90.0
  0
ARC
  5
590
330
1F
100
AcDbEntity
  8
0
100
AcDbCircle
 10
-838.1293286018
 20
1146.2902061396
 30
0.0
 40
30.0
100
AcDbArc
 50
90.0
 51
180.0
  0
LINE
  5
62E
330
1F
100
AcDbEntity
  8
0
100
AcDbLine
 10
-430.319927525
 20
1107.4702061396
 30
0.0
 11
-431.4746280634
 21
1109.4702061396
 31
0.0
  0
LINE
  5
62F
330
1F
100
AcDbEntity
  8
0
100
AcDbLine
 10
-431.4746280634
 20
1109.4702061396
 30
0.0
 11
-433.7840291401
 21
1109.4702061396
 31
0.0
  0
LINE
  5
630
330
1F
100
AcDbEntity
  8
0
100
AcDbLine
 10
-433.7840291401
 20
1109.4702061396
 30
0.0
 11
-434.9387296785
 21
1107.4702061396
 31
0.0
  0
LINE
  5
631
330
1F
100
AcDbEntity
  8
0
100
AcDbLine
 10
-434.9387296785
 20
1107.4702061396
 30
0.0
 11
-433.7840291401
 21
1105.4702061396
 31
0.0
  0
LINE
  5
632
330
1F
100
AcDbEntity
  8
0
100
AcDbLine
 10
-433.7840291401
 20
1105.4702061396
 30
0.0
 11
-431.4746280634
 21
1105.4702061396
 31
0.0
  0
LINE
  5
633
330
1F
100
AcDbEntity
  8
0
100
AcDbLine
 10
-431.4746280634
 20
1105.4702061396
 30
0.0
 11
-430.319927525
 21
1107.4702061396
 31
0.0
  0
CIRCLE
  5
634
330
1F
100
AcDbEntity
  8
0
100
AcDbCircle
 10
-432.6293286018
 20
1107.4702061396
 30
0.0
 40
3.650000000000091
  0
CIRCLE
  5
635
330
1F
100
AcDbEntity
  8
0
100
AcDbCircle
 10
-432.6293286018
 20
1107.4702061396
 30
0.0
 40
4.150000000000091
  0
LINE
  5
636
330
1F
100
AcDbEntity
  8
0
100
AcDbLine
 10
-793.1293286018
 20
756.7944096607
 30
0.0
 11
-863.1293286018
 21
756.7944096607
 31
0.0
  0
LINE
  5
637
330
1F
100
AcDbEntity
  8
0
100
AcDbLine
 10
-793.1293286018
 20
754.7944096607
 30
0.0
 11
-863.1293286018
 21
754.7944096607
 31
0.0
  0
LINE
  5
638
330
1F
100
AcDbEntity
  8
0
100
AcDbLine
 10
-788.1293286018
 20
756.7944096607
 30
0.0
 11
-788.1293286018
 21
754.7944096607
 31
0.0
  0
LINE
  5
639
330
1F
100
AcDbEntity
  8
0
100
AcDbLine
 10
-793.1293286018
 20
756.7944096607
 30
0.0
 11
-788.1293286018
 21
756.7944096607
 31
0.0
  0
LINE
  5
63A
330
1F
100
AcDbEntity
  8
0
100
AcDbLine
 10
-788.1293286018
 20
754.7944096607
 30
0.0
 11
-793.1293286018
 21
754.7944096607
 31
0.0
  0
LINE
  5
63B
330
1F
100
AcDbEntity
  8
0
100
AcDbLine
 10
-868.1293286018
 20
754.7944096607
 30
0.0
 11
-868.1293286018
 21
756.7944096607
 31
0.0
  0
LINE
  5
63C
330
1F
100
AcDbEntity
  8
0
100
AcDbLine
 10
-868.1293286018
 20
756.7944096607
 30
0.0
 11
-863.1293286018
 21
756.7944096607
 31
0.0
  0
LINE
  5
63D
330
1F
100
AcDbEntity
  8
0
100
AcDbLine
 10
-863.1293286018
 20
754.7944096607
 30
0.0
 11
-868.1293286018
 21
754.7944096607
 31
0.0
  0
LINE
  5
63E
330
1F
100
AcDbEntity
  8
0
100
AcDbLine
 10
-788.1293286018
 20
757.7944096607
 30
0.0
 11
-788.1293286018
 21
756.7944096607
 31
0.0
  0
LINE
  5
63F
330
1F
100
AcDbEntity
  8
0
100
AcDbLine
 10
-868.1293286018
 20
757.7944096607
 30
0.0
 11
-868.1293286018
 21
756.7944096607
 31
0.0
  0
LINE
  5
640
330
1F
100
AcDbEntity
  8
0
100
AcDbLine
 10
-868.1293286018
 20
769.7944096607
 30
0.0
 11
-868.1293286018
 21
757.7944096607
 31
0.0
  0
ARC
  5
641
330
1F
100
AcDbEntity
  8
0
100
AcDbCircle
 10
-863.1293286018
 20
769.7944096607
 30
0.0
 40
4.999999999999886
100
AcDbArc
 50
90.0
 51
180.0
  0
LINE
  5
642
330
1F
100
AcDbEntity
  8
0
100
AcDbLine
 10
-793.1293286018
 20
774.7944096607
 30
0.0
 11
-863.1293286018
 21
774.7944096607
 31
0.0
  0
ARC
  5
643
330
1F
100
AcDbEntity
  8
0
100
AcDbCircle
 10
-793.1293286018
 20
769.7944096607
 30
0.0
 40
5.000000000000227
100
AcDbArc
 50
360.0
 51
90.0
  0
LINE
  5
644
330
1F
100
AcDbEntity
  8
0
100
AcDbLine
 10
-788.1293286018
 20
769.7944096607
 30
0.0
 11
-788.1293286018
 21
757.7944096607
 31
0.0
  0
LINE
  5
645
330
1F
100
AcDbEntity
  8
0
100
AcDbLine
 10
-429.1293286018
 20
754.7944096607
 30
0.0
 11
-499.1293286018
 21
754.7944096607
 31
0.0
  0
LINE
  5
646
330
1F
100
AcDbEntity
  8
0
100
AcDbLine
 10
-429.1293286018
 20
756.7944096607
 30
0.0
 11
-499.1293286018
 21
756.7944096607
 31
0.0
  0
LINE
  5
647
330
1F
100
AcDbEntity
  8
0
100
AcDbLine
 10
-424.1293286018
 20
756.7944096607
 30
0.0
 11
-424.1293286018
 21
754.7944096607
 31
0.0
  0
LINE
  5
648
330
1F
100
AcDbEntity
  8
0
100
AcDbLine
 10
-424.1293286018
 20
754.7944096607
 30
0.0
 11
-429.1293286018
 21
754.7944096607
 31
0.0
  0
LINE
  5
649
330
1F
100
AcDbEntity
  8
0
100
AcDbLine
 10
-429.1293286018
 20
756.7944096607
 30
0.0
 11
-424.1293286018
 21
756.7944096607
 31
0.0
  0
LINE
  5
64A
330
1F
100
AcDbEntity
  8
0
100
AcDbLine
 10
-504.1293286018
 20
754.7944096607
 30
0.0
 11
-504.1293286018
 21
756.7944096607
 31
0.0
  0
LINE
  5
64B
330
1F
100
AcDbEntity
  8
0
100
AcDbLine
 10
-499.1293286018
 20
754.7944096607
 30
0.0
 11
-504.1293286018
 21
754.7944096607
 31
0.0
  0
LINE
  5
64C
330
1F
100
AcDbEntity
  8
0
100
AcDbLine
 10
-504.1293286018
 20
756.7944096607
 30
0.0
 11
-499.1293286018
 21
756.7944096607
 31
0.0
  0
LINE
  5
64D
330
1F
100
AcDbEntity
  8
0
100
AcDbLine
 10
-424.1293286018
 20
757.7944096607
 30
0.0
 11
-424.1293286018
 21
756.7944096607
 31
0.0
  0
LINE
  5
64E
330
1F
100
AcDbEntity
  8
0
100
AcDbLine
 10
-504.1293286018
 20
757.7944096607
 30
0.0
 11
-504.1293286018
 21
756.7944096607
 31
0.0
  0
LINE
  5
64F
330
1F
100
AcDbEntity
  8
0
100
AcDbLine
 10
-504.1293286018
 20
769.7944096607
 30
0.0
 11
-504.1293286018
 21
757.7944096607
 31
0.0
  0
ARC
  5
650
330
1F
100
AcDbEntity
  8
0
100
AcDbCircle
 10
-499.1293286018
 20
769.7944096607
 30
0.0
 40
5.000000000000057
100
AcDbArc
 50
90.0
 51
180.0
  0
LINE
  5
651
330
1F
100
AcDbEntity
  8
0
100
AcDbLine
 10
-429.1293286018
 20
774.7944096607
 30
0.0
 11
-499.1293286018
 21
774.7944096607
 31
0.0
  0
ARC
  5
652
330
1F
100
AcDbEntity
  8
0
100
AcDbCircle
 10
-429.1293286018
 20
769.7944096607
 30
0.0
 40
5.000000000000227
100
AcDbArc
 50
360.0
 51
90.0
  0
LINE
  5
653
330
1F
100
AcDbEntity
  8
0
100
AcDbLine
 10
-424.1293286018
 20
769.7944096607
 30
0.0
 11
-424.1293286018
 21
757.7944096607
 31
0.0
  0
CIRCLE
  5
658
330
1F
100
AcDbEntity
  8
0
100
AcDbCircle
 10
-646.1293286018
 20
1006.2944096607
 30
0.0
 40
97.49999999999994
  0
CIRCLE
  5
659
330
1F
100
AcDbEntity
  8
0
100
AcDbCircle
 10
-646.1293286018
 20
1006.2944096607
 30
0.0
 40
100.0
  0
LINE
  5
665
330
1F
100
AcDbEntity
  8
0
100
AcDbLine
 10
-820.7138040236
 20
1121.5944096607
 30
0.0
 11
-505.5293286018
 21
1121.5944096607
 31
0.0
  0
LINE
  5
669
330
1F
100
AcDbEntity
  8
0
100
AcDbLine
 10
-868.1293286018
 20
1121.0944096607
 30
0.0
 11
-868.1293286018
 21
769.7944096607
 31
0.0
  0
ARC
  5
66A
330
1F
100
AcDbEntity
  8
0
100
AcDbCircle
 10
-866.9293286018
 20
1121.0944096607
 30
0.0
 40
1.200000000000045
100
AcDbArc
 50
90.0
 51
180.0
  0
LINE
  5
66C
330
1F
100
AcDbEntity
  8
0
100
AcDbLine
 10
-866.9293286018
 20
1122.2944096607
 30
0.0
 11
-821.9293286018
 21
1122.2944096607
 31
0.0
  0
LINE
  5
66D
330
1F
100
AcDbEntity
  8
0
100
AcDbLine
 10
-866.9293286018
 20
1121.5944096607
 30
0.0
 11
-821.9293286018
 21
1121.5944096607
 31
0.0
  0
LINE
  5
66E
330
1F
100
AcDbEntity
  8
0
100
AcDbLine
 10
-816.9293286018
 20
1122.2944096607
 30
0.0
 11
-816.9293286018
 21
1121.5944096607
 31
0.0
  0
LINE
  5
66F
330
1F
100
AcDbEntity
  8
0
100
AcDbLine
 10
-821.9293286018
 20
1122.2944096607
 30
0.0
 11
-816.9293286018
 21
1122.2944096607
 31
0.0
  0
LINE
  5
670
330
1F
100
AcDbEntity
  8
0
100
AcDbLine
 10
-820.7138040236
 20
1121.5944096607
 30
0.0
 11
-821.9293286018
 21
1121.5944096607
 31
0.0
  0
LINE
  5
672
330
1F
100
AcDbEntity
  8
0
100
AcDbLine
 10
-424.1293286018
 20
769.7944096607
 30
0.0
 11
-424.1293286018
 21
1121.0944096607
 31
0.0
  0
LINE
  5
673
330
1F
100
AcDbEntity
  8
0
100
AcDbLine
 10
-424.2364353829
 20
1121.0944096607
 30
0.0
 11
-424.1293286018
 21
1121.0944096607
 31
0.0
  0
ARC
  5
674
330
1F
100
AcDbEntity
  8
0
100
AcDbCircle
 10
-425.3293286018
 20
1121.0944096607
 30
0.0
 40
1.200000000000103
100
AcDbArc
 50
0.0
 51
24.3915814475
  0
LINE
  5
676
330
1F
100
AcDbEntity
  8
0
100
AcDbLine
 10
-788.1293286018
 20
756.2944096607
 30
0.0
 11
-504.1293286018
 21
756.2944096607
 31
0.0
  0
LINE
  5
6A3
330
1F
100
AcDbEntity
  8
0
100
AcDbLine
 10
19.85399856
 20
311.882859403
 30
0.0
 11
26.0137596122
 21
310.882859403
 31
0.0
  0
LINE
  5
6A4
330
1F
100
AcDbEntity
  8
0
100
AcDbLine
 10
26.0137596122
 20
310.882859403
 30
0.0
 11
26.0137596122
 21
114.482859403
 31
0.0
  0
LINE
  5
6A5
330
1F
100
AcDbEntity
  8
0
100
AcDbLine
 10
26.0137596122
 20
114.482859403
 30
0.0
 11
19.85399856
 21
113.482859403
 31
0.0
  0
LINE
  5
6A6
330
1F
100
AcDbEntity
  8
0
100
AcDbLine
 10
509.4544136364
 20
311.882859403
 30
0.0
 11
503.2946525842
 21
310.882859403
 31
0.0
  0
LINE
  5
6A7
330
1F
100
AcDbEntity
  8
0
100
AcDbLine
 10
503.2946525842
 20
310.882859403
 30
0.0
 11
503.2946525842
 21
114.482859403
 31
0.0
  0
LINE
  5
6A8
330
1F
100
AcDbEntity
  8
0
100
AcDbLine
 10
503.2946525842
 20
114.482859403
 30
0.0
 11
509.4544136364
 21
113.482859403
 31
0.0
  0
LINE
  5
6A9
330
1F
100
AcDbEntity
  8
0
100
AcDbLine
 10
509.4544136364
 20
907.0944096607
 30
0.0
 11
503.2946525842
 21
908.0944096607
 31
0.0
  0
LINE
  5
6AA
330
1F
100
AcDbEntity
  8
0
100
AcDbLine
 10
503.2946525842
 20
908.0944096607
 30
0.0
 11
503.2946525842
 21
1104.4944096607
 31
0.0
  0
LINE
  5
6AB
330
1F
100
AcDbEntity
  8
0
100
AcDbLine
 10
503.2946525842
 20
1104.4944096607
 30
0.0
 11
509.4544136364
 21
1105.4944096607
 31
0.0
  0
LINE
  5
6AC
330
1F
100
AcDbEntity
  8
0
100
AcDbLine
 10
19.85399856
 20
1105.4944096607
 30
0.0
 11
26.0137596122
 21
1104.4944096607
 31
0.0
  0
LINE
  5
6AD
330
1F
100
AcDbEntity
  8
0
100
AcDbLine
 10
26.0137596122
 20
1104.4944096607
 30
0.0
 11
26.0137596122
 21
908.0944096607
 31
0.0
  0
LINE
  5
6AE
330
1F
100
AcDbEntity
  8
0
100
AcDbLine
 10
26.0137596122
 20
908.0944096607
 30
0.0
 11
19.85399856
 21
907.0944096607
 31
0.0
  0
INSERT
  5
6E5
330
1F
100
AcDbEntity
  8
LENKIMO
  6
CENTERX2
100
AcDbBlockReference
  2
*U3
 10
-1155.259355664445
 20
316.1135543373838
 30
0.0
 41
0.6
 42
0.6
 43
0.6
  0
INSERT
  5
6E6
330
1F
100
AcDbEntity
  8
LENKIMO
  6
CENTERX2
100
AcDbBlockReference
  2
*U4
 10
770.3397768377074
 20
131.5822201059073
 30
0.0
 41
0.6
 42
0.6
 43
0.6
  0
LINE
  5
6E7
330
1F
100
AcDbEntity
  8
0
100
AcDbLine
 10
785.7116943650149
 20
307.9095327500813
 30
0.0
 11
785.7116943650149
 21
267.9095327500806
 31
0.0
  0
LINE
  5
6E8
330
1F
100
AcDbEntity
  8
0
100
AcDbLine
 10
885.7116943650149
 20
227.9095327500806
 30
0.0
 11
785.7116943650149
 21
147.9095327500813
 31
0.0
  0
LINE
  5
6E9
330
1F
100
AcDbEntity
  8
0
100
AcDbLine
 10
885.7116943650149
 20
227.9095327500806
 30
0.0
 11
785.7116943650149
 21
307.9095327500813
 31
0.0
  0
LINE
  5
6EA
330
1F
100
AcDbEntity
  8
0
100
AcDbLine
 10
785.7116943650149
 20
187.9095327500813
 30
0.0
 11
685.7116943650151
 21
187.9095327500813
 31
0.0
  0
LINE
  5
6EB
330
1F
100
AcDbEntity
  8
0
100
AcDbLine
 10
785.7116943650149
 20
267.9095327500806
 30
0.0
 11
685.7116943650151
 21
267.9095327500806
 31
0.0
  0
LINE
  5
6EC
330
1F
100
AcDbEntity
  8
0
100
AcDbLine
 10
785.7116943650149
 20
187.9095327500813
 30
0.0
 11
785.7116943650149
 21
147.9095327500813
 31
0.0
  0
LINE
  5
6ED
330
1F
100
AcDbEntity
  8
0
100
AcDbLine
 10
685.7116943650151
 20
267.9095327500806
 30
0.0
 11
685.7116943650151
 21
187.9095327500813
 31
0.0
  0
MTEXT
  5
6EE
330
1F
100
AcDbEntity
  8
0
100
AcDbMText
 10
702.030044157076
 20
243.9570810967664
 30
0.0
 40
35.0
 41
20.96613465302437
 46
35.595
 71
     1
 72
     5
  1
{SUP}
 73
     1
 44
1.0
1001
ACAD
1000
ACAD_MTEXT_DEFINED_HEIGHT_BEGIN
1070
    46
1040
35.595
1000
ACAD_MTEXT_DEFINED_HEIGHT_END
  0
LINE
  5
6EF
330
1F
100
AcDbEntity
  8
0
100
AcDbLine
 10
-222.4559646188637
 20
296.05014635578
 30
0.0
 11
-222.4559646188637
 21
256.05014635578
 31
0.0
  0
LINE
  5
6F0
330
1F
100
AcDbEntity
  8
0
100
AcDbLine
 10
-122.4559646188648
 20
216.0501463557801
 30
0.0
 11
-222.4559646188637
 21
136.05014635578
 31
0.0
  0
LINE
  5
6F1
330
1F
100
AcDbEntity
  8
0
100
AcDbLine
 10
-122.4559646188648
 20
216.0501463557801
 30
0.0
 11
-222.4559646188637
 21
296.05014635578
 31
0.0
  0
LINE
  5
6F2
330
1F
100
AcDbEntity
  8
0
100
AcDbLine
 10
-222.4559646188637
 20
176.05014635578
 30
0.0
 11
-322.4559646188637
 21
176.05014635578
 31
0.0
  0
LINE
  5
6F3
330
1F
100
AcDbEntity
  8
0
100
AcDbLine
 10
-222.4559646188637
 20
256.05014635578
 30
0.0
 11
-322.4559646188637
 21
256.05014635578
 31
0.0
  0
LINE
  5
6F4
330
1F
100
AcDbEntity
  8
0
100
AcDbLine
 10
-222.4559646188637
 20
176.05014635578
 30
0.0
 11
-222.4559646188637
 21
136.05014635578
 31
0.0
  0
LINE
  5
6F5
330
1F
100
AcDbEntity
  8
0
100
AcDbLine
 10
-322.4559646188637
 20
256.05014635578
 30
0.0
 11
-322.4559646188637
 21
176.05014635578
 31
0.0
  0
MTEXT
  5
6F6
330
1F
100
AcDbEntity
  8
0
100
AcDbMText
 10
-300.1288221379579
 20
236.7976814543794
 30
0.0
 40
35.0
 41
20.96613465302437
 46
35.595
 71
     1
 72
     5
  1
{ODA}
 73
     1
 44
1.0
1001
ACAD
1000
ACAD_MTEXT_DEFINED_HEIGHT_BEGIN
1070
    46
1040
35.595
1000
ACAD_MTEXT_DEFINED_HEIGHT_END
  0
INSERT
  5
6F7
330
1F
100
AcDbEntity
  8
LENKIMO
  6
CENTERX2
100
AcDbBlockReference
  2
*U5
 10
-910.5433056873331
 20
-1241.453756249589
 30
0.0
  0
INSERT
  5
6F8
330
1F
100
AcDbEntity
  8
LENKIMO
  6
CENTERX2
100
AcDbBlockReference
  2
*U3
 10
-230.6635376079086
 20
-923.60067968756
 30
0.0
  0
ENDSEC
  0
SECTION
  2
OBJECTS
  0
DICTIONARY
  5
C
330
0
100
AcDbDictionary
281
     1
  3
ACAD_DETAILVIEWSTYLE
350
6A1
  3
ACAD_GROUP
350
D
  3
ACAD_LAYOUT
350
1A
  3
ACAD_MATERIAL
350
691
  3
ACAD_MLEADERSTYLE
350
697
  3
ACAD_MLINESTYLE
350
17
  3
ACAD_PLOTSETTINGS
350
19
  3
ACAD_PLOTSTYLENAME
350
E
  3
ACAD_SCALELIST
350
47
  3
ACAD_SECTIONVIEWSTYLE
350
6A2
  3
ACAD_TABLESTYLE
350
695
  3
ACAD_VISUALSTYLE
350
678
  3
ACDB_RECOMPOSE_DATA
350
6FE
  3
AcDbVariableDictionary
350
69C
  3
APPDATA
350
699
  0
DICTIONARY
  5
6F9
330
1F
100
AcDbDictionary
280
     1
281
     1
  3
DIM_BOUNDING_BOXES_V1
360
6FA
  0
DICTIONARY
  5
6A1
102
{ACAD_REACTORS
330
C
102
}
330
C
100
AcDbDictionary
281
     1
  0
DICTIONARY
  5
D
102
{ACAD_REACTORS
330
C
102
}
330
C
100
AcDbDictionary
281
     1
  0
DICTIONARY
  5
1A
102
{ACAD_REACTORS
330
C
102
}
330
C
100
AcDbDictionary
281
     1
  3
Layout1
350
1E
  3
Layout2
350
26
  3
Model
350
22
  0
DICTIONARY
  5
691
102
{ACAD_REACTORS
330
C
102
}
330
C
100
AcDbDictionary
281
     1
  3
ByBlock
350
693
  3
ByLayer
350
692
  3
Global
350
694
  0
DICTIONARY
  5
697
102
{ACAD_REACTORS
330
C
102
}
330
C
100
AcDbDictionary
281
     1
  3
Standard
350
698
  0
DICTIONARY
  5
17
102
{ACAD_REACTORS
330
C
102
}
330
C
100
AcDbDictionary
281
     1
  3
Standard
350
18
  0
DICTIONARY
  5
19
102
{ACAD_REACTORS
330
C
102
}
330
C
100
AcDbDictionary
281
     1
  0
ACDBDICTIONARYWDFLT
  5
E
102
{ACAD_REACTORS
330
C
102
}
330
C
100
AcDbDictionary
281
     1
  3
Normal
350
F
100
AcDbDictionaryWithDefault
340
F
  0
DICTIONARY
  5
47
102
{ACAD_REACTORS
330
C
102
}
330
C
100
AcDbDictionary
281
     1
  3
A0
350
48
  3
A1
350
49
  3
A2
350
4A
  3
A3
350
4B
  3
A4
350
4C
  3
A5
350
4D
  3
A6
350
4E
  3
A7
350
4F
  3
A8
350
50
  3
A9
350
51
  3
B0
350
52
  3
B1
350
53
  3
B2
350
54
  3
B3
350
55
  3
B4
350
56
  3
B5
350
57
  3
B6
350
58
  3
B7
350
59
  3
B8
350
5A
  3
B9
350
5B
  3
C0
350
5C
  3
C1
350
5D
  3
C2
350
5E
  3
C3
350
5F
  3
C4
350
60
  3
C5
350
61
  3
C6
350
62
  3
C7
350
63
  3
C8
350
64
  3
C9
350
65
  3
D0
350
66
  3
D1
350
67
  3
D2
350
68
  0
DICTIONARY
  5
6A2
102
{ACAD_REACTORS
330
C
102
}
330
C
100
AcDbDictionary
281
     1
  0
DICTIONARY
  5
695
102
{ACAD_REACTORS
330
C
102
}
330
C
100
AcDbDictionary
281
     1
  3
Standard
350
696
  0
DICTIONARY
  5
678
102
{ACAD_REACTORS
330
C
102
}
330
C
100
AcDbDictionary
281
     1
  3
2dWireframe
350
67D
  3
Basic
350
680
  3
Brighten
350
684
  3
ColorChange
350
688
  3
Conceptual
350
682
  3
Dim
350
683
  3
EdgeColorOff
350
68B
  3
Facepattern
350
687
  3
Flat
350
679
  3
FlatWithEdges
350
67A
  3
Gouraud
350
67B
  3
GouraudWithEdges
350
67C
  3
Hidden
350
67F
  3
JitterOff
350
689
  3
Linepattern
350
686
  3
OverhangOff
350
68A
  3
Realistic
350
681
  3
Shaded
350
690
  3
Shaded with edges
350
68F
  3
Shades of Gray
350
68C
  3
Sketchy
350
68D
  3
Thicken
350
685
  3
Wireframe
350
67E
  3
X-Ray
350
68E
  0
XRECORD
  5
6FE
102
{ACAD_REACTORS
330
C
102
}
330
C
100
AcDbXrecord
280
     1
 90
        1
330
696
  0
DICTIONARY
  5
69C
102
{ACAD_REACTORS
330
C
102
}
330
C
100
AcDbDictionary
281
     1
  3
CANNOSCALE
350
69D
  3
CMLEADERSTYLE
350
69F
  3
CTABLESTYLE
350
69E
  3
MSLTSCALE
350
6A0
  0
DICTIONARY
  5
699
102
{ACAD_REACTORS
330
C
102
}
330
C
100
AcDbDictionary
281
     1
  0
DICTIONARY
  5
6FA
102
{ACAD_REACTORS
330
6F9
102
}
330
6F9
100
AcDbDictionary
281
     1
  0
LAYOUT
  5
1E
102
{ACAD_REACTORS
330
1A
102
}
330
1A
100
AcDbPlotSettings
  1

  2
none_device
  4

  6

 40
0.0
 41
0.0
 42
0.0
 43
0.0
 44
0.0
 45
0.0
 46
0.0
 47
0.0
 48
0.0
 49
0.0
140
0.0
141
0.0
142
1.0
143
1.0
 70
   688
 72
     1
 73
     0
 74
     5
  7

 75
    16
 76
     0
 77
     2
 78
   300
147
1.0
148
0.0
149
0.0
100
AcDbLayout
  1
Layout1
 70
     1
 71
     1
 10
0.0
 20
0.0
 11
420.0
 21
297.0
 12
0.0
 22
0.0
 32
0.0
 14
1.000000000000000E+20
 24
1.000000000000000E+20
 34
1.000000000000000E+20
 15
-1.000000000000000E+20
 25
-1.000000000000000E+20
 35
-1.000000000000000E+20
146
0.0
 13
0.0
 23
0.0
 33
0.0
 16
1.0
 26
0.0
 36
0.0
 17
0.0
 27
1.0
 37
0.0
 76
     0
330
1B
  0
LAYOUT
  5
26
102
{ACAD_REACTORS
330
1A
102
}
330
1A
100
AcDbPlotSettings
  1

  2
none_device
  4

  6

 40
0.0
 41
0.0
 42
0.0
 43
0.0
 44
0.0
 45
0.0
 46
0.0
 47
0.0
 48
0.0
 49
0.0
140
0.0
141
0.0
142
1.0
143
1.0
 70
   688
 72
     1
 73
     0
 74
     5
  7

 75
    16
 76
     0
 77
     2
 78
   300
147
1.0
148
0.0
149
0.0
100
AcDbLayout
  1
Layout2
 70
     1
 71
     2
 10
0.0
 20
0.0
 11
0.0
 21
0.0
 12
0.0
 22
0.0
 32
0.0
 14
0.0
 24
0.0
 34
0.0
 15
0.0
 25
0.0
 35
0.0
146
0.0
 13
0.0
 23
0.0
 33
0.0
 16
1.0
 26
0.0
 36
0.0
 17
0.0
 27
1.0
 37
0.0
 76
     0
330
23
  0
LAYOUT
  5
22
102
{ACAD_REACTORS
330
1A
102
}
330
1A
100
AcDbPlotSettings
  1

  2
none_device
  4
Letter_(8.50_x_11.00_Inches)
  6

 40
6.35
 41
6.35
 42
6.35000508
 43
6.35000508
 44
215.9
 45
279.4
 46
0.0
 47
0.0
 48
0.0
 49
0.0
140
0.0
141
0.0
142
1.0
143
1.0
 70
  1712
 72
     1
 73
     0
 74
     0
  7

 75
     0
 76
     0
 77
     2
 78
   300
147
1.0
148
0.0
149
0.0
100
AcDbLayout
  1
Model
 70
     1
 71
     0
 10
0.0
 20
0.0
 11
420.0
 21
297.0
 12
0.0
 22
0.0
 32
0.0
 14
-868.1293286354285
 24
-9.317140597000162
 34
0.0
 15
1497.037406142322
 25
1179.7902061396
 35
0.0
146
0.0
 13
0.0
 23
0.0
 33
0.0
 16
1.0
 26
0.0
 36
0.0
 17
0.0
 27
1.0
 37
0.0
 76
     0
330
1F
331
29
  0
MATERIAL
  5
693
102
{ACAD_REACTORS
330
691
102
}
330
691
100
AcDbMaterial
  1
ByBlock
 72
     1
 94
      127
  0
MATERIAL
  5
692
102
{ACAD_REACTORS
330
691
102
}
330
691
100
AcDbMaterial
  1
ByLayer
 72
     1
 94
      127
  0
MATERIAL
  5
694
102
{ACAD_REACTORS
330
691
102
}
330
691
100
AcDbMaterial
  1
Global
 72
     1
 94
      127
  0
MLEADERSTYLE
  5
698
102
{ACAD_REACTORS
330
697
102
}
330
697
100
AcDbMLeaderStyle
170
     2
171
     1
172
     0
 90
        2
 40
0.0
 41
0.0
173
     1
 91
-1056964608
340
14
 92
       -2
290
     1
 42
2.0
291
     1
 43
8.0
  3
Standard
341
0
 44
4.0
300

342
11
174
     1
178
     1
175
     1
176
     0
 93
-1056964608
 45
4.0
292
     0
297
     0
 46
4.0
343
0
 94
-1056964608
 47
1.0
 49
1.0
140
1.0
293
     1
141
0.0
294
     1
177
     0
142
1.0
295
     0
296
     0
143
3.75
1001
ACAD_MLEADERVER
1070
     2
  0
MLINESTYLE
  5
18
102
{ACAD_REACTORS
330
17
102
}
330
17
100
AcDbMlineStyle
  2
Standard
 70
     0
  3

 62
   256
 51
90.0
 52
90.0
 71
     2
 49
0.5
 62
   256
  6
BYLAYER
 49
-0.5
 62
   256
  6
BYLAYER
  0
ACDBPLACEHOLDER
  5
F
102
{ACAD_REACTORS
330
E
102
}
330
E
  0
SCALE
  5
48
102
{ACAD_REACTORS
330
47
102
}
330
47
100
AcDbScale
 70
     0
300
1:1
140
1.0
141
1.0
290
     1
  0
SCALE
  5
49
102
{ACAD_REACTORS
330
47
102
}
330
47
100
AcDbScale
 70
     0
300
1:2
140
1.0
141
2.0
290
     0
  0
SCALE
  5
4A
102
{ACAD_REACTORS
330
47
102
}
330
47
100
AcDbScale
 70
     0
300
1:4
140
1.0
141
4.0
290
     0
  0
SCALE
  5
4B
102
{ACAD_REACTORS
330
47
102
}
330
47
100
AcDbScale
 70
     0
300
1:5
140
1.0
141
5.0
290
     0
  0
SCALE
  5
4C
102
{ACAD_REACTORS
330
47
102
}
330
47
100
AcDbScale
 70
     0
300
1:8
140
1.0
141
8.0
290
     0
  0
SCALE
  5
4D
102
{ACAD_REACTORS
330
47
102
}
330
47
100
AcDbScale
 70
     0
300
1:10
140
1.0
141
10.0
290
     0
  0
SCALE
  5
4E
102
{ACAD_REACTORS
330
47
102
}
330
47
100
AcDbScale
 70
     0
300
1:16
140
1.0
141
16.0
290
     0
  0
SCALE
  5
4F
102
{ACAD_REACTORS
330
47
102
}
330
47
100
AcDbScale
 70
     0
300
1:20
140
1.0
141
20.0
290
     0
  0
SCALE
  5
50
102
{ACAD_REACTORS
330
47
102
}
330
47
100
AcDbScale
 70
     0
300
1:30
140
1.0
141
30.0
290
     0
  0
SCALE
  5
51
102
{ACAD_REACTORS
330
47
102
}
330
47
100
AcDbScale
 70
     0
300
1:40
140
1.0
141
40.0
290
     0
  0
SCALE
  5
52
102
{ACAD_REACTORS
330
47
102
}
330
47
100
AcDbScale
 70
     0
300
1:50
140
1.0
141
50.0
290
     0
  0
SCALE
  5
53
102
{ACAD_REACTORS
330
47
102
}
330
47
100
AcDbScale
 70
     0
300
1:100
140
1.0
141
100.0
290
     0
  0
SCALE
  5
54
102
{ACAD_REACTORS
330
47
102
}
330
47
100
AcDbScale
 70
     0
300
2:1
140
2.0
141
1.0
290
     0
  0
SCALE
  5
55
102
{ACAD_REACTORS
330
47
102
}
330
47
100
AcDbScale
 70
     0
300
4:1
140
4.0
141
1.0
290
     0
  0
SCALE
  5
56
102
{ACAD_REACTORS
330
47
102
}
330
47
100
AcDbScale
 70
     0
300
8:1
140
8.0
141
1.0
290
     0
  0
SCALE
  5
57
102
{ACAD_REACTORS
330
47
102
}
330
47
100
AcDbScale
 70
     0
300
10:1
140
10.0
141
1.0
290
     0
  0
SCALE
  5
58
102
{ACAD_REACTORS
330
47
102
}
330
47
100
AcDbScale
 70
     0
300
100:1
140
100.0
141
1.0
290
     0
  0
SCALE
  5
59
102
{ACAD_REACTORS
330
47
102
}
330
47
100
AcDbScale
 70
     0
300
1/128" = 1'-0"
140
0.0078125
141
12.0
290
     0
  0
SCALE
  5
5A
102
{ACAD_REACTORS
330
47
102
}
330
47
100
AcDbScale
 70
     0
300
1/64" = 1'-0"
140
0.015625
141
12.0
290
     0
  0
SCALE
  5
5B
102
{ACAD_REACTORS
330
47
102
}
330
47
100
AcDbScale
 70
     0
300
1/32" = 1'-0"
140
0.03125
141
12.0
290
     0
  0
SCALE
  5
5C
102
{ACAD_REACTORS
330
47
102
}
330
47
100
AcDbScale
 70
     0
300
1/16" = 1'-0"
140
0.0625
141
12.0
290
     0
  0
SCALE
  5
5D
102
{ACAD_REACTORS
330
47
102
}
330
47
100
AcDbScale
 70
     0
300
3/32" = 1'-0"
140
0.09375
141
12.0
290
     0
  0
SCALE
  5
5E
102
{ACAD_REACTORS
330
47
102
}
330
47
100
AcDbScale
 70
     0
300
1/8" = 1'-0"
140
0.125
141
12.0
290
     0
  0
SCALE
  5
5F
102
{ACAD_REACTORS
330
47
102
}
330
47
100
AcDbScale
 70
     0
300
3/16" = 1'-0"
140
0.1875
141
12.0
290
     0
  0
SCALE
  5
60
102
{ACAD_REACTORS
330
47
102
}
330
47
100
AcDbScale
 70
     0
300
1/4" = 1'-0"
140
0.25
141
12.0
290
     0
  0
SCALE
  5
61
102
{ACAD_REACTORS
330
47
102
}
330
47
100
AcDbScale
 70
     0
300
3/8" = 1'-0"
140
0.375
141
12.0
290
     0
  0
SCALE
  5
62
102
{ACAD_REACTORS
330
47
102
}
330
47
100
AcDbScale
 70
     0
300
1/2" = 1'-0"
140
0.5
141
12.0
290
     0
  0
SCALE
  5
63
102
{ACAD_REACTORS
330
47
102
}
330
47
100
AcDbScale
 70
     0
300
3/4" = 1'-0"
140
0.75
141
12.0
290
     0
  0
SCALE
  5
64
102
{ACAD_REACTORS
330
47
102
}
330
47
100
AcDbScale
 70
     0
300
1" = 1'-0"
140
1.0
141
12.0
290
     0
  0
SCALE
  5
65
102
{ACAD_REACTORS
330
47
102
}
330
47
100
AcDbScale
 70
     0
300
1-1/2" = 1'-0"
140
1.5
141
12.0
290
     0
  0
SCALE
  5
66
102
{ACAD_REACTORS
330
47
102
}
330
47
100
AcDbScale
 70
     0
300
3" = 1'-0"
140
3.0
141
12.0
290
     0
  0
SCALE
  5
67
102
{ACAD_REACTORS
330
47
102
}
330
47
100
AcDbScale
 70
     0
300
6" = 1'-0"
140
6.0
141
12.0
290
     0
  0
SCALE
  5
68
102
{ACAD_REACTORS
330
47
102
}
330
47
100
AcDbScale
 70
     0
300
1'-0" = 1'-0"
140
12.0
141
12.0
290
     0
  0
TABLESTYLE
  5
696
102
{ACAD_REACTORS
330
695
102
}
102
{ACAD_XDICTIONARY
360
6FB
102
}
330
695
100
AcDbTableStyle
  3
Standard
 70
     0
 71
     0
 40
0.06
 41
0.06
280
     0
281
     0
  7
Standard
140
4.5
170
     2
 62
     0
 63
   257
283
     0
 90
        4
 91
        0
  1

274
    -2
284
     1
 64
     0
275
    -2
285
     1
 65
     0
276
    -2
286
     1
 66
     0
277
    -2
287
     1
 67
     0
278
    -2
288
     1
 68
     0
279
    -2
289
     1
 69
     0
  7
Standard
140
6.0
170
     5
 62
     0
 63
   257
283
     0
 90
        4
 91
        0
  1

274
    -2
284
     1
 64
     0
275
    -2
285
     1
 65
     0
276
    -2
286
     1
 66
     0
277
    -2
287
     1
 67
     0
278
    -2
288
     1
 68
     0
279
    -2
289
     1
 69
     0
  7
Standard
140
4.5
170
     5
 62
     0
 63
   257
283
     0
 90
        4
 91
        0
  1

274
    -2
284
     1
 64
     0
275
    -2
285
     1
 65
     0
276
    -2
286
     1
 66
     0
277
    -2
287
     1
 67
     0
278
    -2
288
     1
 68
     0
279
    -2
289
     1
 69
     0
  0
VISUALSTYLE
  5
67D
102
{ACAD_REACTORS
330
678
102
}
330
678
100
AcDbVisualStyle
  2
2dWireframe
 70
     4
 71
     0
 72
     2
 73
     0
 90
        0
 40
0.6
 41
30.0
 62
     5
 63
     7
421
 16777215
 74
     1
 91
        4
 64
     7
 65
   257
 75
     1
175
     1
 42
1.0
 92
        0
 66
   257
 43
1.0
 76
     1
 77
     6
 78
     2
 67
     7
 79
     5
170
     0
171
     0
290
     0
174
     0
 93
        1
 44
0.0
173
     0
291
     0
 45
0.0
  0
VISUALSTYLE
  5
680
102
{ACAD_REACTORS
330
678
102
}
330
678
100
AcDbVisualStyle
  2
Basic
 70
     7
 71
     1
 72
     0
 73
     1
 90
        0
 40
0.6
 41
30.0
 62
     5
 63
     7
421
 16777215
 74
     0
 91
        4
 64
     7
 65
   257
 75
     1
175
     1
 42
1.0
 92
        8
 66
     7
 43
1.0
 76
     1
 77
     6
 78
     2
 67
     7
 79
     5
170
     0
171
     0
290
     0
174
     0
 93
        1
 44
0.0
173
     0
291
     1
 45
0.0
  0
VISUALSTYLE
  5
684
102
{ACAD_REACTORS
330
678
102
}
330
678
100
AcDbVisualStyle
  2
Brighten
 70
    12
 71
     2
 72
     2
 73
     0
 90
        0
 40
0.6
 41
30.0
 62
     5
 63
     7
421
 16777215
 74
     1
 91
        4
 64
     7
 65
   257
 75
     1
175
     1
 42
1.0
 92
        8
 66
     7
 43
1.0
 76
     1
 77
     6
 78
     2
 67
     7
 79
     5
170
     0
171
     0
290
     0
174
     0
 93
        1
 44
50.0
173
     0
291
     1
 45
0.0
  0
VISUALSTYLE
  5
688
102
{ACAD_REACTORS
330
678
102
}
330
678
100
AcDbVisualStyle
  2
ColorChange
 70
    16
 71
     2
 72
     2
 73
     3
 90
        0
 40
0.6
 41
30.0
 62
     5
 63
     8
421
  8421504
 74
     1
 91
        4
 64
     7
 65
   257
 75
     1
175
     1
 42
1.0
 92
        8
 66
     8
424
  8421504
 43
1.0
 76
     1
 77
     6
 78
     2
 67
     7
 79
     5
170
     0
171
     0
290
     0
174
     0
 93
        1
 44
0.0
173
     0
291
     1
 45
0.0
  0
VISUALSTYLE
  5
682
102
{ACAD_REACTORS
330
678
102
}
330
678
100
AcDbVisualStyle
  2
Conceptual
 70
     9
 71
     3
 72
     2
 73
     0
 90
        0
 40
0.6
 41
30.0
 62
     5
 63
     7
421
 16777215
 74
     2
 91
        2
 64
     7
 65
   257
 75
     1
175
     1
 42
179.0
 92
        8
 66
     7
 43
1.0
 76
     1
 77
     6
 78
     2
 67
     7
 79
     3
170
     0
171
     0
290
     0
174
     0
 93
        1
 44
0.0
173
     0
291
     0
 45
0.0
  0
VISUALSTYLE
  5
683
102
{ACAD_REACTORS
330
678
102
}
330
678
100
AcDbVisualStyle
  2
Dim
 70
    11
 71
     2
 72
     2
 73
     0
 90
        0
 40
0.6
 41
30.0
 62
     5
 63
     7
421
 16777215
 74
     1
 91
        4
 64
     7
 65
   257
 75
     1
175
     1
 42
1.0
 92
        8
 66
     7
 43
1.0
 76
     1
 77
     6
 78
     2
 67
     7
 79
     5
170
     0
171
     0
290
     0
174
     0
 93
        1
 44
-50.0
173
     0
291
     1
 45
0.0
  0
VISUALSTYLE
  5
68B
102
{ACAD_REACTORS
330
678
102
}
330
678
100
AcDbVisualStyle
  2
EdgeColorOff
 70
    22
 71
     2
 72
     2
 73
     0
 90
        0
 40
0.6
 41
30.0
 62
     5
 63
     7
421
 16777215
 74
     1
 91
        4
 64
     7
 65
   257
 75
     1
175
     1
 42
1.0
 92
        8
 66
     7
 43
1.0
 76
     1
 77
     6
 78
     2
 67
     7
 79
     5
170
     0
171
     0
290
     0
174
     0
 93
        1
 44
0.0
173
     0
291
     1
 45
0.0
  0
VISUALSTYLE
  5
687
102
{ACAD_REACTORS
330
678
102
}
330
678
100
AcDbVisualStyle
  2
Facepattern
 70
    15
 71
     2
 72
     2
 73
     0
 90
        0
 40
0.6
 41
30.0
 62
     5
 63
     7
421
 16777215
 74
     1
 91
        4
 64
     7
 65
   257
 75
     1
175
     1
 42
1.0
 92
        8
 66
     7
 43
1.0
 76
     1
 77
     6
 78
     2
 67
     7
 79
     5
170
     0
171
     0
290
     0
174
     0
 93
        1
 44
0.0
173
     0
291
     1
 45
0.0
  0
VISUALSTYLE
  5
679
102
{ACAD_REACTORS
330
678
102
}
330
678
100
AcDbVisualStyle
  2
Flat
 70
     0
 71
     2
 72
     1
 73
     1
 90
        2
 40
0.6
 41
30.0
 62
     5
 63
     7
421
 16777215
 74
     0
 91
        0
 64
     7
 65
   257
 75
     1
175
     1
 42
1.0
 92
        8
 66
     7
 43
1.0
 76
     1
 77
     6
 78
     2
 67
     7
 79
     5
170
     0
171
     0
290
     0
174
     0
 93
       13
 44
0.0
173
     0
291
     1
 45
0.0
  0
VISUALSTYLE
  5
67A
102
{ACAD_REACTORS
330
678
102
}
330
678
100
AcDbVisualStyle
  2
FlatWithEdges
 70
     1
 71
     2
 72
     1
 73
     1
 90
        2
 40
0.6
 41
30.0
 62
     5
 63
     7
421
 16777215
 74
     1
 91
        0
 64
     7
 65
   257
 75
     1
175
     1
 42
1.0
 92
        0
 66
   257
 43
1.0
 76
     1
 77
     6
 78
     2
 67
     7
 79
     5
170
     0
171
     0
290
     0
174
     0
 93
       13
 44
0.0
173
     0
291
     1
 45
0.0
  0
VISUALSTYLE
  5
67B
102
{ACAD_REACTORS
330
678
102
}
330
678
100
AcDbVisualStyle
  2
Gouraud
 70
     2
 71
     2
 72
     2
 73
     1
 90
        2
 40
0.6
 41
30.0
 62
     5
 63
     7
421
 16777215
 74
     0
 91
        0
 64
     7
 65
   257
 75
     1
175
     1
 42
1.0
 92
        0
 66
     7
 43
1.0
 76
     1
 77
     6
 78
     2
 67
     7
 79
     5
170
     0
171
     0
290
     0
174
     0
 93
       13
 44
0.0
173
     0
291
     1
 45
0.0
  0
VISUALSTYLE
  5
67C
102
{ACAD_REACTORS
330
678
102
}
330
678
100
AcDbVisualStyle
  2
GouraudWithEdges
 70
     3
 71
     2
 72
     2
 73
     1
 90
        2
 40
0.6
 41
30.0
 62
     5
 63
     7
421
 16777215
 74
     1
 91
        0
 64
     7
 65
   257
 75
     1
175
     1
 42
1.0
 92
        0
 66
   257
 43
1.0
 76
     1
 77
     6
 78
     2
 67
     7
 79
     5
170
     0
171
     0
290
     0
174
     0
 93
       13
 44
0.0
173
     0
291
     1
 45
0.0
  0
VISUALSTYLE
  5
67F
102
{ACAD_REACTORS
330
678
102
}
330
678
100
AcDbVisualStyle
  2
Hidden
 70
     6
 71
     1
 72
     2
 73
     2
 90
        0
 40
0.6
 41
30.0
 62
     5
 63
     7
421
 16777215
 74
     2
 91
        2
 64
     7
 65
   257
 75
     2
175
     1
 42
40.0
 92
        0
 66
   257
 43
1.0
 76
     1
 77
     6
 78
     2
 67
     7
 79
     3
170
     0
171
     0
290
     0
174
     0
 93
        1
 44
0.0
173
     0
291
     0
 45
0.0
  0
VISUALSTYLE
  5
689
102
{ACAD_REACTORS
330
678
102
}
330
678
100
AcDbVisualStyle
  2
JitterOff
 70
    20
 71
     2
 72
     2
 73
     0
 90
        0
 40
0.6
 41
30.0
 62
     5
 63
     7
421
 16777215
 74
     1
 91
        4
 64
     7
 65
   257
 75
     1
175
     1
 42
1.0
 92
       10
 66
     7
 43
1.0
 76
     1
 77
     6
 78
     2
 67
     7
 79
     5
170
     0
171
     0
290
     0
174
     0
 93
        1
 44
0.0
173
     0
291
     1
 45
0.0
  0
VISUALSTYLE
  5
686
102
{ACAD_REACTORS
330
678
102
}
330
678
100
AcDbVisualStyle
  2
Linepattern
 70
    14
 71
     2
 72
     2
 73
     0
 90
        0
 40
0.6
 41
30.0
 62
     5
 63
     7
421
 16777215
 74
     1
 91
        4
 64
     7
 65
   257
 75
     7
175
     7
 42
1.0
 92
        8
 66
     7
 43
1.0
 76
     1
 77
     6
 78
     2
 67
     7
 79
     5
170
     0
171
     0
290
     0
174
     0
 93
        1
 44
0.0
173
     0
291
     1
 45
0.0
  0
VISUALSTYLE
  5
68A
102
{ACAD_REACTORS
330
678
102
}
330
678
100
AcDbVisualStyle
  2
OverhangOff
 70
    21
 71
     2
 72
     2
 73
     0
 90
        0
 40
0.6
 41
30.0
 62
     5
 63
     7
421
 16777215
 74
     1
 91
        4
 64
     7
 65
   257
 75
     1
175
     1
 42
1.0
 92
        9
 66
     7
 43
1.0
 76
     1
 77
     6
 78
     2
 67
     7
 79
     5
170
     0
171
     0
290
     0
174
     0
 93
        1
 44
0.0
173
     0
291
     1
 45
0.0
  0
VISUALSTYLE
  5
681
102
{ACAD_REACTORS
330
678
102
}
330
678
100
AcDbVisualStyle
  2
Realistic
 70
     8
 71
     2
 72
     3
 73
     0
 90
        2
 40
0.6
 41
30.0
 62
     5
 63
     7
421
 16777215
 74
     0
 91
        0
 64
     7
 65
   257
 75
     1
175
     1
 42
1.0
 92
        8
 66
   257
 43
1.0
 76
     1
 77
     6
 78
     2
 67
     7
 79
     3
170
     0
171
     0
290
     0
174
     0
 93
       13
 44
0.0
173
     0
291
     0
 45
0.0
  0
VISUALSTYLE
  5
690
102
{ACAD_REACTORS
330
678
102
}
330
678
100
AcDbVisualStyle
  2
Shaded
 70
    27
 71
     2
 72
     2
 73
     1
 90
        2
 40
0.6
 41
30.0
 62
     5
 63
     7
421
 16777215
 74
     0
 91
        4
 64
     7
 65
   257
 75
     1
175
     1
 42
1.0
 92
        8
 66
   257
 43
1.0
 76
     1
 77
     6
 78
     2
 67
     8
425
  7895160
 79
     3
170
     0
171
     0
290
     0
174
     0
 93
        5
 44
0.0
173
     0
291
     0
 45
0.0
  0
VISUALSTYLE
  5
68F
102
{ACAD_REACTORS
330
678
102
}
330
678
100
AcDbVisualStyle
  2
Shaded with edges
 70
    26
 71
     2
 72
     2
 73
     1
 90
        2
 40
0.6
 41
30.0
 62
     5
 63
     7
421
 16777215
 74
     1
 91
       10
 64
     7
 65
   257
 75
     2
175
     1
 42
1.0
 92
        8
 66
   257
 43
1.0
 76
     1
 77
     6
 78
     2
 67
     7
 79
     3
170
     0
171
     0
290
     0
174
     0
 93
        5
 44
0.0
173
     0
291
     0
 45
0.0
  0
VISUALSTYLE
  5
68C
102
{ACAD_REACTORS
330
678
102
}
330
678
100
AcDbVisualStyle
  2
Shades of Gray
 70
    23
 71
     2
 72
     2
 73
     3
 90
        0
 40
0.6
 41
30.0
 62
     5
 63
     7
421
 16777215
 74
     2
 91
        2
 64
     7
 65
     7
 75
     1
175
     1
 42
40.0
 92
        8
 66
     7
 43
1.0
 76
     1
 77
     6
 78
     2
 67
     7
 79
     3
170
     0
171
     0
290
     0
174
     0
 93
        1
 44
0.0
173
     0
291
     0
 45
0.0
  0
VISUALSTYLE
  5
68D
102
{ACAD_REACTORS
330
678
102
}
330
678
100
AcDbVisualStyle
  2
Sketchy
 70
    24
 71
     1
 72
     2
 73
     2
 90
        0
 40
0.6
 41
30.0
 62
     5
 63
     7
421
 16777215
 74
     2
 91
        2
 64
     7
 65
     7
 75
     1
175
     1
 42
40.0
 92
       11
 66
     7
 43
1.0
 76
     1
 77
     6
 78
     2
 67
     7
 79
     6
170
     0
171
     0
290
     0
174
     0
 93
        1
 44
0.0
173
     0
291
     0
 45
0.0
  0
VISUALSTYLE
  5
685
102
{ACAD_REACTORS
330
678
102
}
330
678
100
AcDbVisualStyle
  2
Thicken
 70
    13
 71
     2
 72
     2
 73
     0
 90
        0
 40
0.6
 41
30.0
 62
     5
 63
     7
421
 16777215
 74
     1
 91
        4
 64
     7
 65
   257
 75
     1
175
     1
 42
1.0
 92
       12
 66
     7
 43
1.0
 76
     1
 77
     6
 78
     2
 67
     7
 79
     5
170
     0
171
     0
290
     0
174
     0
 93
        1
 44
0.0
173
     0
291
     1
 45
0.0
  0
VISUALSTYLE
  5
67E
102
{ACAD_REACTORS
330
678
102
}
330
678
100
AcDbVisualStyle
  2
Wireframe
 70
     5
 71
     0
 72
     2
 73
     0
 90
        0
 40
0.6
 41
30.0
 62
     5
 63
     7
421
 16777215
 74
     1
 91
        4
 64
     7
 65
   257
 75
     1
175
     1
 42
1.0
 92
        0
 66
   257
 43
1.0
 76
     1
 77
     6
 78
     2
 67
     7
 79
     3
170
     0
171
     0
290
     0
174
     0
 93
        1
 44
0.0
173
     0
291
     0
 45
0.0
  0
VISUALSTYLE
  5
68E
102
{ACAD_REACTORS
330
678
102
}
330
678
100
AcDbVisualStyle
  2
X-Ray
 70
    25
 71
     2
 72
     2
 73
     1
 90
        1
 40
0.5
 41
30.0
 62
     5
 63
     7
421
 16777215
 74
     1
 91
        0
 64
     7
 65
   257
 75
     1
175
     1
 42
1.0
 92
        8
 66
     7
 43
1.0
 76
     1
 77
     6
 78
     2
 67
     7
 79
     3
170
     0
171
     0
290
     0
174
     0
 93
       13
 44
0.0
173
     0
291
     0
 45
0.0
  0
DICTIONARYVAR
  5
69D
102
{ACAD_REACTORS
330
69C
102
}
330
69C
100
DictionaryVariables
280
     0
  1
1:1
  0
DICTIONARYVAR
  5
69F
102
{ACAD_REACTORS
330
69C
102
}
330
69C
100
DictionaryVariables
280
     0
  1
Standard
  0
DICTIONARYVAR
  5
69E
102
{ACAD_REACTORS
330
69C
102
}
330
69C
100
DictionaryVariables
280
     0
  1
Standard
  0
DICTIONARYVAR
  5
6A0
102
{ACAD_REACTORS
330
69C
102
}
330
69C
100
DictionaryVariables
280
     0
  1
0
  0
DICTIONARY
  5
6FB
330
696
100
AcDbDictionary
280
     1
281
     1
  3
ACAD_ROUNDTRIP_2008_TABLESTYLE_CELLSTYLEMAP
360
6FC
  0
CELLSTYLEMAP
  5
6FC
102
{ACAD_REACTORS
330
6FB
102
}
330
6FB
100
AcDbCellStyleMap
 90
        3
300
CELLSTYLE
  1
TABLEFORMAT_BEGIN
 90
        5
170
     1
 91
        0
 92
    32768
 62
   257
 93
        1
300
CONTENTFORMAT
  1
CONTENTFORMAT_BEGIN
 90
        0
 91
        0
 92
        4
 93
        0
300

 40
0.0
140
1.0
 94
        5
 62
     0
340
11
144
6.0
309
CONTENTFORMAT_END
171
     1
301
MARGIN
  1
CELLMARGIN_BEGIN
 40
1.5
 40
1.5
 40
1.5
 40
1.5
 40
1.5
 40
1.5
309
CELLMARGIN_END
 94
        6
 95
        1
302
GRIDFORMAT
  1
GRIDFORMAT_BEGIN
 90
        0
 91
        1
 62
     0
 92
       -2
340
14
 93
        0
 40
0.045
309
GRIDFORMAT_END
 95
        2
302
GRIDFORMAT
  1
GRIDFORMAT_BEGIN
 90
        0
 91
        1
 62
     0
 92
       -2
340
14
 93
        0
 40
0.045
309
GRIDFORMAT_END
 95
        4
302
GRIDFORMAT
  1
GRIDFORMAT_BEGIN
 90
        0
 91
        1
 62
     0
 92
       -2
340
14
 93
        0
 40
0.045
309
GRIDFORMAT_END
 95
        8
302
GRIDFORMAT
  1
GRIDFORMAT_BEGIN
 90
        0
 91
        1
 62
     0
 92
       -2
340
14
 93
        0
 40
0.045
309
GRIDFORMAT_END
 95
       16
302
GRIDFORMAT
  1
GRIDFORMAT_BEGIN
 90
        0
 91
        1
 62
     0
 92
       -2
340
14
 93
        0
 40
0.045
309
GRIDFORMAT_END
 95
       32
302
GRIDFORMAT
  1
GRIDFORMAT_BEGIN
 90
        0
 91
        1
 62
     0
 92
       -2
340
14
 93
        0
 40
0.045
309
GRIDFORMAT_END
309
TABLEFORMAT_END
  1
CELLSTYLE_BEGIN
 90
        1
 91
        1
300
_TITLE
309
CELLSTYLE_END
300
CELLSTYLE
  1
TABLEFORMAT_BEGIN
 90
        5
170
     1
 91
        0
 92
        0
 62
   257
 93
        1
300
CONTENTFORMAT
  1
CONTENTFORMAT_BEGIN
 90
        0
 91
        0
 92
        4
 93
        0
300

 40
0.0
140
1.0
 94
        5
 62
     0
340
11
144
4.5
309
CONTENTFORMAT_END
171
     1
301
MARGIN
  1
CELLMARGIN_BEGIN
 40
1.5
 40
1.5
 40
1.5
 40
1.5
 40
1.5
 40
1.5
309
CELLMARGIN_END
 94
        6
 95
        1
302
GRIDFORMAT
  1
GRIDFORMAT_BEGIN
 90
        0
 91
        1
 62
     0
 92
       -2
340
14
 93
        0
 40
0.045
309
GRIDFORMAT_END
 95
        2
302
GRIDFORMAT
  1
GRIDFORMAT_BEGIN
 90
        0
 91
        1
 62
     0
 92
       -2
340
14
 93
        0
 40
0.045
309
GRIDFORMAT_END
 95
        4
302
GRIDFORMAT
  1
GRIDFORMAT_BEGIN
 90
        0
 91
        1
 62
     0
 92
       -2
340
14
 93
        0
 40
0.045
309
GRIDFORMAT_END
 95
        8
302
GRIDFORMAT
  1
GRIDFORMAT_BEGIN
 90
        0
 91
        1
 62
     0
 92
       -2
340
14
 93
        0
 40
0.045
309
GRIDFORMAT_END
 95
       16
302
GRIDFORMAT
  1
GRIDFORMAT_BEGIN
 90
        0
 91
        1
 62
     0
 92
       -2
340
14
 93
        0
 40
0.045
309
GRIDFORMAT_END
 95
       32
302
GRIDFORMAT
  1
GRIDFORMAT_BEGIN
 90
        0
 91
        1
 62
     0
 92
       -2
340
14
 93
        0
 40
0.045
309
GRIDFORMAT_END
309
TABLEFORMAT_END
  1
CELLSTYLE_BEGIN
 90
        2
 91
        1
300
_HEADER
309
CELLSTYLE_END
300
CELLSTYLE
  1
TABLEFORMAT_BEGIN
 90
        5
170
     1
 91
        0
 92
        0
 62
   257
 93
        1
300
CONTENTFORMAT
  1
CONTENTFORMAT_BEGIN
 90
        0
 91
        0
 92
        4
 93
        0
300

 40
0.0
140
1.0
 94
        2
 62
     0
340
11
144
4.5
309
CONTENTFORMAT_END
171
     1
301
MARGIN
  1
CELLMARGIN_BEGIN
 40
1.5
 40
1.5
 40
1.5
 40
1.5
 40
1.5
 40
1.5
309
CELLMARGIN_END
 94
        6
 95
        1
302
GRIDFORMAT
  1
GRIDFORMAT_BEGIN
 90
        0
 91
        1
 62
     0
 92
       -2
340
14
 93
        0
 40
0.045
309
GRIDFORMAT_END
 95
        2
302
GRIDFORMAT
  1
GRIDFORMAT_BEGIN
 90
        0
 91
        1
 62
     0
 92
       -2
340
14
 93
        0
 40
0.045
309
GRIDFORMAT_END
 95
        4
302
GRIDFORMAT
  1
GRIDFORMAT_BEGIN
 90
        0
 91
        1
 62
     0
 92
       -2
340
14
 93
        0
 40
0.045
309
GRIDFORMAT_END
 95
        8
302
GRIDFORMAT
  1
GRIDFORMAT_BEGIN
 90
        0
 91
        1
 62
     0
 92
       -2
340
14
 93
        0
 40
0.045
309
GRIDFORMAT_END
 95
       16
302
GRIDFORMAT
  1
GRIDFORMAT_BEGIN
 90
        0
 91
        1
 62
     0
 92
       -2
340
14
 93
        0
 40
0.045
309
GRIDFORMAT_END
 95
       32
302
GRIDFORMAT
  1
GRIDFORMAT_BEGIN
 90
        0
 91
        1
 62
     0
 92
       -2
340
14
 93
        0
 40
0.045
309
GRIDFORMAT_END
309
TABLEFORMAT_END
  1
CELLSTYLE_BEGIN
 90
        3
 91
        2
300
_DATA
309
CELLSTYLE_END
  0
ENDSEC
  0
EOF
