  0
SECTION
  2
HEADER
  9
$ACADVER
  1
AC1015
  9
$ACADMAINTVER
 70
     6
  9
$DWGCODEPAGE
  3
ANSI_1257
  9
$INSBASE
 10
0.0
 20
0.0
 30
0.0
  9
$EXTMIN
 10
-365.0633911274999
 20
21.45360262
 30
0.0
  9
$EXTMAX
 10
1058.537131166319
 20
738.7736327018243
 30
0.0
  9
$LIMMIN
 10
0.0
 20
0.0
  9
$LIMMAX
 10
420.0
 20
297.0
  9
$ORTHOMODE
 70
     0
  9
$REGENMODE
 70
     1
  9
$FILLMODE
 70
     1
  9
$QTEXTMODE
 70
     0
  9
$MIRRTEXT
 70
     1
  9
$LTSCALE
 40
1.0
  9
$ATTMODE
 70
     1
  9
$TEXTSIZE
 40
3.5277777778
  9
$TRACEWID
 40
1.0
  9
$TEXTSTYLE
  7
Standard
  9
$CLAYER
  8
0
  9
$CELTYPE
  6
ByLayer
  9
$CECOLOR
 62
   256
  9
$CELTSCALE
 40
1.0
  9
$DISPSILH
 70
     0
  9
$DIMSCALE
 40
1.0
  9
$DIMASZ
 40
4.0
  9
$DIMEXO
 40
1.0
  9
$DIMDLI
 40
3.75
  9
$DIMRND
 40
0.0
  9
$DIMDLE
 40
0.0
  9
$DIMEXE
 40
1.0
  9
$DIMTP
 40
0.0
  9
$DIMTM
 40
0.0
  9
$DIMTXT
 40
3.5277777778
  9
$DIMCEN
 40
2.5
  9
$DIMTSZ
 40
0.0
  9
$DIMTOL
 70
     0
  9
$DIMLIM
 70
     0
  9
$DIMTIH
 70
     1
  9
$DIMTOH
 70
     1
  9
$DIMSE1
 70
     0
  9
$DIMSE2
 70
     0
  9
$DIMTAD
 70
     1
  9
$DIMZIN
 70
     0
  9
$DIMBLK
  1

  9
$DIMASO
 70
     1
  9
$DIMSHO
 70
     1
  9
$DIMPOST
  1

  9
$DIMAPOST
  1

  9
$DIMALT
 70
     0
  9
$DIMALTD
 70
     3
  9
$DIMALTF
 40
0.0393700787
  9
$DIMLFAC
 40
1.0
  9
$DIMTOFL
 70
     1
  9
$DIMTVP
 40
0.0
  9
$DIMTIX
 70
     0
  9
$DIMSOXD
 70
     0
  9
$DIMSAH
 70
     0
  9
$DIMBLK1
  1

  9
$DIMBLK2
  1

  9
$DIMSTYLE
  2
ISO-25
  9
$DIMCLRD
 70
     0
  9
$DIMCLRE
 70
     0
  9
$DIMCLRT
 70
     0
  9
$DIMTFAC
 40
1.0
  9
$DIMGAP
 40
1.524
  9
$DIMJUST
 70
     0
  9
$DIMSD1
 70
     0
  9
$DIMSD2
 70
     0
  9
$DIMTOLJ
 70
     0
  9
$DIMTZIN
 70
     0
  9
$DIMALTZ
 70
     0
  9
$DIMALTTZ
 70
     0
  9
$DIMUPT
 70
     0
  9
$DIMDEC
 70
     2
  9
$DIMTDEC
 70
     2
  9
$DIMALTU
 70
     2
  9
$DIMALTTD
 70
     3
  9
$DIMTXSTY
  7
Standard
  9
$DIMAUNIT
 70
     0
  9
$DIMADEC
 70
     2
  9
$DIMALTRND
 40
0.0
  9
$DIMAZIN
 70
     0
  9
$DIMDSEP
 70
    44
  9
$DIMATFIT
 70
     3
  9
$DIMFRAC
 70
     0
  9
$DIMLDRBLK
  1

  9
$DIMLUNIT
 70
     2
  9
$DIMLWD
 70
    -2
  9
$DIMLWE
 70
    -2
  9
$DIMTMOVE
 70
     0
  9
$LUNITS
 70
     2
  9
$LUPREC
 70
     2
  9
$SKETCHINC
 40
1.0
  9
$FILLETRAD
 40
10.0
  9
$AUNITS
 70
     0
  9
$AUPREC
 70
     2
  9
$MENU
  1
.
  9
$ELEVATION
 40
0.0
  9
$PELEVATION
 40
0.0
  9
$THICKNESS
 40
0.0
  9
$LIMCHECK
 70
     0
  9
$CHAMFERA
 40
0.0
  9
$CHAMFERB
 40
0.0
  9
$CHAMFERC
 40
0.0
  9
$CHAMFERD
 40
0.0
  9
$SKPOLY
 70
     0
  9
$TDCREATE
 40
2457870.389431412
  9
$TDUCREATE
 40
2457870.306098079
  9
$TDUPDATE
 40
2459180.559325579
  9
$TDUUPDATE
 40
2459180.475992246
  9
$TDINDWG
 40
0.0016482292
  9
$TDUSRTIMER
 40
0.0002186111
  9
$USRTIMER
 70
     1
  9
$ANGBASE
 50
0.0
  9
$ANGDIR
 70
     0
  9
$PDMODE
 70
     0
  9
$PDSIZE
 40
-1.0
  9
$PLINEWID
 40
0.0
  9
$SPLFRAME
 70
     0
  9
$SPLINETYPE
 70
     6
  9
$SPLINESEGS
 70
     8
  9
$HANDSEED
  5
7FF
  9
$SURFTAB1
 70
     6
  9
$SURFTAB2
 70
     6
  9
$SURFTYPE
 70
     6
  9
$SURFU
 70
     6
  9
$SURFV
 70
     6
  9
$UCSBASE
  2

  9
$UCSNAME
  2

  9
$UCSORG
 10
0.0
 20
0.0
 30
0.0
  9
$UCSXDIR
 10
1.0
 20
0.0
 30
0.0
  9
$UCSYDIR
 10
0.0
 20
1.0
 30
0.0
  9
$UCSORTHOREF
  2

  9
$UCSORTHOVIEW
 70
     0
  9
$UCSORGTOP
 10
0.0
 20
0.0
 30
0.0
  9
$UCSORGBOTTOM
 10
0.0
 20
0.0
 30
0.0
  9
$UCSORGLEFT
 10
0.0
 20
0.0
 30
0.0
  9
$UCSORGRIGHT
 10
0.0
 20
0.0
 30
0.0
  9
$UCSORGFRONT
 10
0.0
 20
0.0
 30
0.0
  9
$UCSORGBACK
 10
0.0
 20
0.0
 30
0.0
  9
$PUCSBASE
  2

  9
$PUCSNAME
  2

  9
$PUCSORG
 10
0.0
 20
0.0
 30
0.0
  9
$PUCSXDIR
 10
1.0
 20
0.0
 30
0.0
  9
$PUCSYDIR
 10
0.0
 20
1.0
 30
0.0
  9
$PUCSORTHOREF
  2

  9
$PUCSORTHOVIEW
 70
     0
  9
$PUCSORGTOP
 10
0.0
 20
0.0
 30
0.0
  9
$PUCSORGBOTTOM
 10
0.0
 20
0.0
 30
0.0
  9
$PUCSORGLEFT
 10
0.0
 20
0.0
 30
0.0
  9
$PUCSORGRIGHT
 10
0.0
 20
0.0
 30
0.0
  9
$PUCSORGFRONT
 10
0.0
 20
0.0
 30
0.0
  9
$PUCSORGBACK
 10
0.0
 20
0.0
 30
0.0
  9
$USERI1
 70
     0
  9
$USERI2
 70
     0
  9
$USERI3
 70
     0
  9
$USERI4
 70
     0
  9
$USERI5
 70
     0
  9
$USERR1
 40
0.0
  9
$USERR2
 40
0.0
  9
$USERR3
 40
0.0
  9
$USERR4
 40
0.0
  9
$USERR5
 40
0.0
  9
$WORLDVIEW
 70
     1
  9
$SHADEDGE
 70
     3
  9
$SHADEDIF
 70
    70
  9
$TILEMODE
 70
     1
  9
$MAXACTVP
 70
    64
  9
$PINSBASE
 10
0.0
 20
0.0
 30
0.0
  9
$PLIMCHECK
 70
     0
  9
$PEXTMIN
 10
1.000000000000000E+20
 20
1.000000000000000E+20
 30
1.000000000000000E+20
  9
$PEXTMAX
 10
-1.000000000000000E+20
 20
-1.000000000000000E+20
 30
-1.000000000000000E+20
  9
$PLIMMIN
 10
0.0
 20
0.0
  9
$PLIMMAX
 10
0.0
 20
0.0
  9
$UNITMODE
 70
     0
  9
$VISRETAIN
 70
     1
  9
$PLINEGEN
 70
     0
  9
$PSLTSCALE
 70
     1
  9
$TREEDEPTH
 70
  3020
  9
$CMLSTYLE
  2
Standard
  9
$CMLJUST
 70
     0
  9
$CMLSCALE
 40
20.0
  9
$PROXYGRAPHICS
 70
     1
  9
$MEASUREMENT
 70
     1
  9
$CELWEIGHT
370
    -1
  9
$ENDCAPS
280
     0
  9
$JOINSTYLE
280
     0
  9
$LWDISPLAY
290
     1
  9
$INSUNITS
 70
     4
  9
$HYPERLINKBASE
  1

  9
$STYLESHEET
  1

  9
$XEDIT
290
     1
  9
$CEPSNTYPE
380
     0
  9
$PSTYLEMODE
290
     1
  9
$FINGERPRINTGUID
  2
{BD70DA38-393E-4C77-BA40-155BCD8F42B2}
  9
$VERSIONGUID
  2
{FAEB1C32-E019-11D5-929B-00C0DF256EC4}
  9
$EXTNAMES
290
     1
  9
$PSVPSCALE
 40
0.0
  9
$OLESTARTUP
290
     0
  0
ENDSEC
  0
SECTION
  2
CLASSES
  0
CLASS
  1
ACDBDICTIONARYWDFLT
  2
AcDbDictionaryWithDefault
  3
ObjectDBX Classes
 90
        0
280
     0
281
     0
  0
CLASS
  1
VISUALSTYLE
  2
AcDbVisualStyle
  3
ObjectDBX Classes
 90
     4095
280
     0
281
     0
  0
CLASS
  1
MATERIAL
  2
AcDbMaterial
  3
ObjectDBX Classes
 90
     1153
280
     0
281
     0
  0
CLASS
  1
SCALE
  2
AcDbScale
  3
ObjectDBX Classes
 90
     1153
280
     0
281
     0
  0
CLASS
  1
TABLESTYLE
  2
AcDbTableStyle
  3
ObjectDBX Classes
 90
     4095
280
     0
281
     0
  0
CLASS
  1
MLEADERSTYLE
  2
AcDbMLeaderStyle
  3
ACDB_MLEADERSTYLE_CLASS
 90
     4095
280
     0
281
     0
  0
CLASS
  1
SUN
  2
AcDbSun
  3
SCENEOE
 90
     1153
280
     0
281
     0
  0
CLASS
  1
ACDBPLACEHOLDER
  2
AcDbPlaceHolder
  3
ObjectDBX Classes
 90
        0
280
     0
281
     0
  0
CLASS
  1
LAYOUT
  2
AcDbLayout
  3
ObjectDBX Classes
 90
        0
280
     0
281
     0
  0
CLASS
  1
RASTERVARIABLES
  2
AcDbRasterVariables
  3
ISM
 90
        0
280
     0
281
     0
  0
CLASS
  1
DICTIONARYVAR
  2
AcDbDictionaryVar
  3
ObjectDBX Classes
 90
        0
280
     0
281
     0
  0
ENDSEC
  0
SECTION
  2
TABLES
  0
TABLE
  2
VPORT
  5
8
330
0
100
AcDbSymbolTable
 70
     1
  0
VPORT
  5
29
330
8
100
AcDbSymbolTableRecord
100
AcDbViewportTableRecord
  2
*Active
 70
     0
 10
0.0
 20
0.0
 11
1.0
 21
1.0
 12
140.9890152464152
 22
539.5488955653123
 13
0.0
 23
0.0
 14
10.0
 24
10.0
 15
10.0
 25
10.0
 16
0.0
 26
0.0
 36
1.0
 17
0.0
 27
0.0
 37
0.0
 40
1678.601646721892
 41
1.912558139534884
 42
50.0
 43
0.0
 44
0.0
 50
0.0
 51
0.0
 71
    16
 72
  2000
 73
     1
 74
     3
 75
     0
 76
     0
 77
     0
 78
     0
281
     0
 65
     1
110
0.0
120
0.0
130
0.0
111
1.0
121
0.0
131
0.0
112
0.0
122
1.0
132
0.0
 79
     0
146
0.0
  0
ENDTAB
  0
TABLE
  2
LTYPE
  5
5
330
0
100
AcDbSymbolTable
 70
     6
  0
LTYPE
  5
14
330
5
100
AcDbSymbolTableRecord
100
AcDbLinetypeTableRecord
  2
ByBlock
 70
     0
  3

 72
    65
 73
     0
 40
0.0
  0
LTYPE
  5
15
330
5
100
AcDbSymbolTableRecord
100
AcDbLinetypeTableRecord
  2
ByLayer
 70
     0
  3

 72
    65
 73
     0
 40
0.0
  0
LTYPE
  5
16
330
5
100
AcDbSymbolTableRecord
100
AcDbLinetypeTableRecord
  2
Continuous
 70
     0
  3
Solid line
 72
    65
 73
     0
 40
0.0
  0
LTYPE
  5
6E
330
5
100
AcDbSymbolTableRecord
100
AcDbLinetypeTableRecord
  2
HIDDEN
 70
     0
  3
Hidden __ __ __ __ __ __ __ __ __ __ __ __ __ __
 72
    65
 73
     2
 40
1.905
 49
1.27
 74
     0
 49
-0.635
 74
     0
  0
LTYPE
  5
6F
330
5
100
AcDbSymbolTableRecord
100
AcDbLinetypeTableRecord
  2
PHANTOM
 70
     0
  3
Phantom ______  __  __  ______  __  __  ______
 72
    65
 73
     6
 40
12.7
 49
6.35
 74
     0
 49
-1.27
 74
     0
 49
1.27
 74
     0
 49
-1.27
 74
     0
 49
1.27
 74
     0
 49
-1.27
 74
     0
  0
LTYPE
  5
70
330
5
100
AcDbSymbolTableRecord
100
AcDbLinetypeTableRecord
  2
CENTER
 70
     0
  3
Center ____ _ ____ _ ____ _ ____ _ ____ _ ____
 72
    65
 73
     4
 40
10.16
 49
6.35
 74
     0
 49
-1.27
 74
     0
 49
1.27
 74
     0
 49
-1.27
 74
     0
  0
LTYPE
  5
71
330
5
100
AcDbSymbolTableRecord
100
AcDbLinetypeTableRecord
  2
CENTERX2
 70
     0
  3
Center (2x) ________  __  ________  __  _____
 72
    65
 73
     4
 40
20.32
 49
12.7
 74
     0
 49
-2.54
 74
     0
 49
2.54
 74
     0
 49
-2.54
 74
     0
  0
LTYPE
  5
72
330
5
100
AcDbSymbolTableRecord
100
AcDbLinetypeTableRecord
  2
DOT2
 70
     0
  3
Dot (.5x) ........................................
 72
    65
 73
     2
 40
0.635
 49
0.0
 74
     0
 49
-0.635
 74
     0
  0
ENDTAB
  0
TABLE
  2
LAYER
  5
2
330
0
100
AcDbSymbolTable
 70
     2
  0
LAYER
  5
10
330
2
100
AcDbSymbolTableRecord
100
AcDbLayerTableRecord
  2
0
 70
     0
 62
     7
  6
Continuous
370
    -3
390
F
  0
LAYER
  5
73
330
2
100
AcDbSymbolTableRecord
100
AcDbLayerTableRecord
  2
LENKIMO
 70
     0
 62
     1
  6
CENTERX2
370
    -3
390
F
  0
ENDTAB
  0
TABLE
  2
STYLE
  5
3
330
0
100
AcDbSymbolTable
 70
     1
  0
STYLE
  5
11
330
3
100
AcDbSymbolTableRecord
100
AcDbTextStyleTableRecord
  2
Standard
 70
     0
 40
0.0
 41
1.0
 50
0.0
 71
     0
 42
3.5277777778
  3
txt
  4

  0
ENDTAB
  0
TABLE
  2
VIEW
  5
6
330
0
100
AcDbSymbolTable
 70
     0
  0
ENDTAB
  0
TABLE
  2
UCS
  5
7
330
0
100
AcDbSymbolTable
 70
     0
  0
ENDTAB
  0
TABLE
  2
APPID
  5
9
330
0
100
AcDbSymbolTable
 70
     1
  0
APPID
  5
12
330
9
100
AcDbSymbolTableRecord
100
AcDbRegAppTableRecord
  2
ACAD
 70
     0
  0
ENDTAB
  0
TABLE
  2
DIMSTYLE
  5
A
330
0
100
AcDbSymbolTable
 70
     5
100
AcDbDimStyleTable
  0
DIMSTYLE
105
27
330
A
100
AcDbSymbolTableRecord
100
AcDbDimStyleTableRecord
  2
ISO-25
 70
     0
 41
2.5
 42
0.625
 43
3.75
 44
1.25
 73
     0
 74
     0
 77
     1
 78
     8
140
2.5
141
2.5
143
0.0393700787
147
0.625
171
     3
172
     1
178
     0
271
     2
272
     2
274
     3
278
    44
283
     0
284
     8
340
11
  0
DIMSTYLE
105
785
330
A
100
AcDbSymbolTableRecord
100
AcDbDimStyleTableRecord
  2
SLDDIMSTYLE1
 70
     0
 41
4.0
 44
0.0
 45
0.000000001
 73
     0
 77
     1
 78
    12
140
2.6458333333
144
10.0
147
0.6614583333000001
173
     1
178
     0
340
11
  0
DIMSTYLE
105
786
330
A
100
AcDbSymbolTableRecord
100
AcDbDimStyleTableRecord
  2
SLDDIMSTYLE2
 70
     0
 41
4.0
 44
0.0
 45
0.000000001
 73
     0
 77
     1
 78
    12
140
2.6458333333
144
10.0
147
0.6614583333000001
173
     1
178
     0
340
11
  0
DIMSTYLE
105
787
330
A
100
AcDbSymbolTableRecord
100
AcDbDimStyleTableRecord
  2
SLDDIMSTYLE3
 70
     0
 41
4.0
 44
0.0
 45
0.000000001
146
4.0
147
0.0
173
     1
178
     0
340
11
  0
DIMSTYLE
105
788
330
A
100
AcDbSymbolTableRecord
100
AcDbDimStyleTableRecord
  2
SLDDIMSTYLE4
 70
     0
 41
4.0
 44
0.0
 73
     0
 77
     1
 78
    12
140
2.6458333333
144
7.5
147
0.6614583333000001
173
     1
178
     0
340
11
  0
ENDTAB
  0
TABLE
  2
BLOCK_RECORD
  5
1
330
0
100
AcDbSymbolTable
 70
    13
  0
BLOCK_RECORD
  5
1F
102
{ACAD_XDICTIONARY
360
7FB
102
}
330
1
100
AcDbSymbolTableRecord
100
AcDbBlockTableRecord
  2
*Model_Space
340
22
  0
BLOCK_RECORD
  5
1B
330
1
100
AcDbSymbolTableRecord
100
AcDbBlockTableRecord
  2
*Paper_Space
340
1E
  0
BLOCK_RECORD
  5
23
330
1
100
AcDbSymbolTableRecord
100
AcDbBlockTableRecord
  2
*Paper_Space0
340
26
  0
BLOCK_RECORD
  5
74
330
1
100
AcDbSymbolTableRecord
100
AcDbBlockTableRecord
  2
Block1_1
340
0
  0
BLOCK_RECORD
  5
12B
330
1
100
AcDbSymbolTableRecord
100
AcDbBlockTableRecord
  2
Projekciju vaizdavimas_1
340
0
  0
BLOCK_RECORD
  5
136
330
1
100
AcDbSymbolTableRecord
100
AcDbBlockTableRecord
  2
Block1
340
0
  0
BLOCK_RECORD
  5
1ED
330
1
100
AcDbSymbolTableRecord
100
AcDbBlockTableRecord
  2
Projekciju vaizdavimas_2
340
0
  0
BLOCK_RECORD
  5
1F8
330
1
100
AcDbSymbolTableRecord
100
AcDbBlockTableRecord
  2
Block4
340
0
  0
BLOCK_RECORD
  5
2AF
330
1
100
AcDbSymbolTableRecord
100
AcDbBlockTableRecord
  2
Block5
340
0
  0
BLOCK_RECORD
  5
797
330
1
100
AcDbSymbolTableRecord
100
AcDbBlockTableRecord
  2
*U8
340
0
102
{BLKREFS
331
796
331
0
102
}
  0
BLOCK_RECORD
  5
79F
330
1
100
AcDbSymbolTableRecord
100
AcDbBlockTableRecord
  2
*U9
340
0
102
{BLKREFS
331
79E
331
7C6
102
}
  0
BLOCK_RECORD
  5
7AB
330
1
100
AcDbSymbolTableRecord
100
AcDbBlockTableRecord
  2
*U10
340
0
102
{BLKREFS
331
7AA
331
7CE
102
}
  0
BLOCK_RECORD
  5
7B0
330
1
100
AcDbSymbolTableRecord
100
AcDbBlockTableRecord
  2
*U11
340
0
102
{BLKREFS
331
7AF
331
7CF
102
}
  0
BLOCK_RECORD
  5
7B5
330
1
100
AcDbSymbolTableRecord
100
AcDbBlockTableRecord
  2
*U12
340
0
102
{BLKREFS
331
7B4
331
7D0
102
}
  0
BLOCK_RECORD
  5
7E9
330
1
100
AcDbSymbolTableRecord
100
AcDbBlockTableRecord
  2
*U14
340
0
102
{BLKREFS
331
7E8
331
7F8
102
}
  0
ENDTAB
  0
ENDSEC
  0
SECTION
  2
BLOCKS
  0
BLOCK
  5
20
330
1F
100
AcDbEntity
  8
0
100
AcDbBlockBegin
  2
*Model_Space
 70
     0
 10
0.0
 20
0.0
 30
0.0
  3
*Model_Space
  1

  0
ENDBLK
  5
21
330
1F
100
AcDbEntity
  8
0
100
AcDbBlockEnd
  0
BLOCK
  5
1C
330
1B
100
AcDbEntity
 67
     1
  8
0
100
AcDbBlockBegin
  2
*Paper_Space
 70
     0
 10
0.0
 20
0.0
 30
0.0
  3
*Paper_Space
  1

  0
ENDBLK
  5
1D
330
1B
100
AcDbEntity
 67
     1
  8
0
100
AcDbBlockEnd
  0
BLOCK
  5
24
330
23
100
AcDbEntity
  8
0
100
AcDbBlockBegin
  2
*Paper_Space0
 70
     0
 10
0.0
 20
0.0
 30
0.0
  3
*Paper_Space0
  1

  0
ENDBLK
  5
25
330
23
100
AcDbEntity
  8
0
100
AcDbBlockEnd
  0
BLOCK
  5
75
330
74
100
AcDbEntity
  8
0
100
AcDbBlockBegin
  2
Block1_1
 70
     0
 10
0.0
 20
0.0
 30
0.0
  3
Block1_1
  1

  0
ARC
  5
77
330
74
100
AcDbEntity
  8
0
  6
Continuous
 62
   179
100
AcDbCircle
 10
7867.6649029635
 20
2430.1355419087
 30
0.0
 40
931.6078627493895
100
AcDbArc
 50
232.1189098069
 51
101.3462704492
  0
ARC
  5
78
330
74
100
AcDbEntity
  8
0
  6
Continuous
 62
   179
100
AcDbCircle
 10
7943.5514462269
 20
2435.9613946537
 30
0.0
 40
1140.079096555486
100
AcDbArc
 50
297.434182935
 51
62.17203318890002
  0
ARC
  5
79
330
74
100
AcDbEntity
  8
0
  6
Continuous
 62
   179
100
AcDbCircle
 10
20001.4103066854
 20
6936.2583481763
 30
0.0
 40
1270.831290716854
100
AcDbArc
 50
3.4391112699
 51
76.4197578922
  0
ARC
  5
7A
330
74
100
AcDbEntity
  8
0
  6
Continuous
 62
   179
100
AcDbCircle
 10
19239.4822949422
 20
3782.0667000728
 30
0.0
 40
4515.74411667143
100
AcDbArc
 50
76.4197578923
 51
91.6754644339
  0
ARC
  5
7B
330
74
100
AcDbEntity
  8
0
  6
Continuous
 62
   179
100
AcDbCircle
 10
18683.9539720184
 20
2160.1911622497
 30
0.0
 40
2139.476369555804
100
AcDbArc
 50
270.3210228954001
 51
307.7127911617
  0
ARC
  5
7C
330
74
100
AcDbEntity
  8
0
  6
Continuous
 62
   179
100
AcDbCircle
 10
18746.0422061702
 20
1962.8216117468
 30
0.0
 40
1946.678009873842
100
AcDbArc
 50
309.8210667380999
 51
331.7017265911999
  0
ARC
  5
7D
330
74
100
AcDbEntity
  8
0
  6
Continuous
 62
   179
100
AcDbCircle
 10
17863.1917469523
 20
2438.1532894658
 30
0.0
 40
2949.35698999881
100
AcDbArc
 50
331.7017265911999
 51
356.0927915539
  0
ARC
  5
7E
330
74
100
AcDbEntity
  8
0
  6
Continuous
 62
   179
100
AcDbCircle
 10
16755.7856245826
 20
6709.226497343
 30
0.0
 40
4524.342739831098
100
AcDbArc
 50
353.5830630921
 51
3.8434115591
  0
ARC
  5
7F
330
74
100
AcDbEntity
  8
0
  6
Continuous
 62
   179
100
AcDbCircle
 10
19039.3213693035
 20
6348.9928357667
 30
0.0
 40
506.1072723730909
100
AcDbArc
 50
52.45518083769999
 51
82.2716960779
  0
ARC
  5
80
330
74
100
AcDbEntity
  8
0
  6
Continuous
 62
   179
100
AcDbCircle
 10
19108.0528552878
 20
6495.6270812425
 30
0.0
 40
349.7025539282703
100
AcDbArc
 50
10.4012874263
 51
46.7340603611
  0
ARC
  5
81
330
74
100
AcDbEntity
  8
0
  6
Continuous
 62
   179
100
AcDbCircle
 10
17417.0070420698
 20
6262.2496105517
 30
0.0
 40
2056.490362340239
100
AcDbArc
 50
355.475249592
 51
8.290034904
  0
ARC
  5
82
330
74
100
AcDbEntity
  8
0
  6
Continuous
 62
   179
100
AcDbCircle
 10
16921.0810184775
 20
2478.8840573259
 30
0.0
 40
2122.330793892779
100
AcDbArc
 50
339.2065439429
 51
352.3366543813
  0
ARC
  5
83
330
74
100
AcDbEntity
  8
0
  6
Continuous
 62
   179
100
AcDbCircle
 10
18500.143747488
 20
1898.8589115903
 30
0.0
 40
440.5904503964751
100
AcDbArc
 50
293.838270217
 51
336.8232513296001
  0
ARC
  5
84
330
74
100
AcDbEntity
  8
0
  6
Continuous
 62
   179
100
AcDbCircle
 10
18201.1477532386
 20
2813.3138324813
 30
0.0
 40
1401.173285533761
100
AcDbArc
 50
267.1686990927
 51
289.9057704419
  0
ARC
  5
85
330
74
100
AcDbEntity
  8
0
  6
Continuous
 62
   179
100
AcDbCircle
 10
18751.2701169541
 20
4514.9970927066
 30
0.0
 40
2362.499275286643
100
AcDbArc
 50
81.3304997955
 51
90.0
  0
ARC
  5
86
330
74
100
AcDbEntity
  8
0
  6
Continuous
 62
   179
100
AcDbCircle
 10
6720.6044375296
 20
9296.0579653158
 30
0.0
 40
7520.148763137153
100
AcDbArc
 50
220.017667739
 51
227.0143029097
  0
ARC
  5
87
330
74
100
AcDbEntity
  8
0
  6
Continuous
 62
   179
100
AcDbCircle
 10
2021.3892535935
 20
2163.6755564521
 30
0.0
 40
795.0570373035339
100
AcDbArc
 50
316.8708555891
 51
354.9781479006
  0
ARC
  5
88
330
74
100
AcDbEntity
  8
0
  6
Continuous
 62
   179
100
AcDbCircle
 10
2182.9124170468
 20
2011.9889486322
 30
0.0
 40
573.4753329004777
100
AcDbArc
 50
268.8486412909
 51
316.8986890901
  0
ARC
  5
89
330
74
100
AcDbEntity
  8
0
  6
Continuous
 62
   179
100
AcDbCircle
 10
10525.696072633
 20
12531.6259047731
 30
0.0
 40
10618.65239809051
100
AcDbArc
 50
220.6325257886
 51
226.7030345034
  0
ARC
  5
8A
330
74
100
AcDbEntity
  8
0
  6
Continuous
 62
   179
100
AcDbCircle
 10
2962.700769446
 20
6223.5867799529
 30
0.0
 40
723.1072200381735
100
AcDbArc
 50
137.8203941731
 51
175.3475443105
  0
ARC
  5
8B
330
74
100
AcDbEntity
  8
0
  6
Continuous
 62
   179
100
AcDbCircle
 10
2808.3239355685
 20
6360.2864243508
 30
0.0
 40
516.9247077280753
100
AcDbArc
 50
89.4379852016
 51
137.5591461504
  0
ARC
  5
8C
330
74
100
AcDbEntity
  8
0
  6
Continuous
 62
   179
100
AcDbCircle
 10
24439.2811878643
 20
2435.9613946539
 30
0.0
 40
1140.079096554877
100
AcDbArc
 50
297.4341829348999
 51
62.17203318890002
  0
ARC
  5
8D
330
74
100
AcDbEntity
  8
0
  6
Continuous
 62
   179
100
AcDbCircle
 10
24363.3946446009
 20
2430.1355419089
 30
0.0
 40
931.6078627500976
100
AcDbArc
 50
232.118909807
 51
101.3462704493
  0
LINE
  5
8E
330
74
100
AcDbEntity
  8
0
  6
Continuous
 62
   179
100
AcDbLine
 10
10088.0321784074
 20
0.0000125144
 30
0.0
 11
9858.2217949557
 21
8289.6552921115
 31
0.0
  0
LINE
  5
8F
330
74
100
AcDbEntity
  8
0
  6
Continuous
 62
   179
100
AcDbLine
 10
9858.2217949557
 20
8289.6552921115
 30
0.0
 11
7491.0265293557
 21
8289.6552921115
 31
0.0
  0
LINE
  5
90
330
74
100
AcDbEntity
  8
0
  6
Continuous
 62
   179
100
AcDbLine
 10
7491.0265293557
 20
8289.6552921115
 30
0.0
 11
5122.8131677553
 21
0.0000125144
 31
0.0
  0
LINE
  5
91
330
74
100
AcDbEntity
  8
0
  6
Continuous
 62
   179
100
AcDbLine
 10
5122.8131677553
 20
0.0000125144
 30
0.0
 11
6903.4160581553
 21
0.0000125144
 31
0.0
  0
LINE
  5
92
330
74
100
AcDbEntity
  8
0
  6
Continuous
 62
   179
100
AcDbLine
 10
6903.4160581553
 20
0.0000125144
 30
0.0
 11
7295.6346285553
 21
1694.8297721115
 31
0.0
  0
LINE
  5
93
330
74
100
AcDbEntity
  8
0
  6
Continuous
 62
   179
100
AcDbLine
 10
7684.3822381561
 20
3343.5361521108
 30
0.0
 11
8520.8837909553
 21
7008.8707569115
 31
0.0
  0
LINE
  5
94
330
74
100
AcDbEntity
  8
0
  6
Continuous
 62
   179
100
AcDbLine
 10
8520.8837909553
 20
7008.8707569115
 30
0.0
 11
8475.7613005553
 21
3444.1940153115
 31
0.0
  0
LINE
  5
95
330
74
100
AcDbEntity
  8
0
  6
Continuous
 62
   179
100
AcDbLine
 10
8468.8193789565
 20
1424.0948297112
 30
0.0
 11
8468.8193789565
 21
0.0000125144
 31
0.0
  0
LINE
  5
96
330
74
100
AcDbEntity
  8
0
  6
Continuous
 62
   179
100
AcDbLine
 10
8468.8193789565
 20
0.0000125144
 30
0.0
 11
10088.0321784074
 21
0.0000125144
 31
0.0
  0
LINE
  5
97
330
74
100
AcDbEntity
  8
0
  6
Continuous
 62
   179
100
AcDbLine
 10
19107.4500497519
 20
8295.8802112275
 30
0.0
 11
16935.7898769541
 21
8295.8802112275
 31
0.0
  0
LINE
  5
98
330
74
100
AcDbEntity
  8
0
  6
Continuous
 62
   179
100
AcDbLine
 10
16935.7898769541
 20
8295.8802112275
 30
0.0
 11
15991.7401521541
 21
0.0000288275
 31
0.0
  0
LINE
  5
99
330
74
100
AcDbEntity
  8
0
  6
Continuous
 62
   179
100
AcDbLine
 10
15991.7401521541
 20
0.0000288275
 30
0.0
 11
17855.6331985541
 21
0.0000288275
 31
0.0
  0
LINE
  5
9A
330
74
100
AcDbEntity
  8
0
  6
Continuous
 62
   179
100
AcDbLine
 10
17855.6331985541
 20
0.0000288275
 30
0.0
 11
18695.9411953541
 21
20.7483744275
 31
0.0
  0
LINE
  5
9B
330
74
100
AcDbEntity
  8
0
  6
Continuous
 62
   179
100
AcDbLine
 10
20805.6935873772
 20
2237.1817154785
 30
0.0
 11
21251.7830177772
 21
6203.5737826763
 31
0.0
  0
LINE
  5
9C
330
74
100
AcDbEntity
  8
0
  6
Continuous
 62
   179
100
AcDbLine
 10
19024.4566673541
 20
2195.8666048275
 30
0.0
 11
19467.0880401544
 21
6100.0136352237
 31
0.0
  0
LINE
  5
9D
330
74
100
AcDbEntity
  8
0
  6
Continuous
 62
   179
100
AcDbLine
 10
17907.5040625541
 20
1417.8036448275
 30
0.0
 11
18131.936218492
 21
1413.8509571068
 31
0.0
  0
LINE
  5
9E
330
74
100
AcDbEntity
  8
0
  6
Continuous
 62
   179
100
AcDbLine
 10
18529.9544305541
 20
6877.4963679933
 30
0.0
 11
17907.5040625541
 21
1417.8036448275
 31
0.0
  0
LINE
  5
9F
330
74
100
AcDbEntity
  8
0
  6
Continuous
 62
   179
100
AcDbLine
 10
18751.2701169541
 20
6877.4963679933
 30
0.0
 11
18529.9544305541
 21
6877.4963679933
 31
0.0
  0
LINE
  5
A0
330
74
100
AcDbEntity
  8
0
  6
Continuous
 62
   179
100
AcDbLine
 10
11134.6446741053
 20
0.0
 30
0.0
 11
14807.1018453053
 21
0.0
 31
0.0
  0
LINE
  5
A1
330
74
100
AcDbEntity
  8
0
  6
Continuous
 62
   179
100
AcDbLine
 10
14807.1018453053
 20
0.0
 30
0.0
 11
14990.3788981053
 21
1625.287072
 31
0.0
  0
LINE
  5
A2
330
74
100
AcDbEntity
  8
0
  6
Continuous
 62
   179
100
AcDbLine
 10
14990.3788981053
 20
1625.287072
 30
0.0
 11
13071.1569301053
 21
1625.287072
 31
0.0
  0
LINE
  5
A3
330
74
100
AcDbEntity
  8
0
  6
Continuous
 62
   179
100
AcDbLine
 10
13071.1569301053
 20
1625.287072
 30
0.0
 11
13828.4715445053
 21
8295.8801824
 31
0.0
  0
LINE
  5
A4
330
74
100
AcDbEntity
  8
0
  6
Continuous
 62
   179
100
AcDbLine
 10
13828.4715445053
 20
8295.8801824
 30
0.0
 11
12075.2363413053
 21
8295.8801824
 31
0.0
  0
LINE
  5
A5
330
74
100
AcDbEntity
  8
0
  6
Continuous
 62
   179
100
AcDbLine
 10
12075.2363413053
 20
8295.8801824
 30
0.0
 11
11134.6446741053
 21
0.0
 31
0.0
  0
LINE
  5
A6
330
74
100
AcDbEntity
  8
0
  6
Continuous
 62
   179
100
AcDbLine
 10
4907.4740560005
 20
6857.0185622947
 30
0.0
 11
4882.7391856278
 21
7041.1497513646
 31
0.0
  0
LINE
  5
A7
330
74
100
AcDbEntity
  8
0
  6
Continuous
 62
   179
100
AcDbLine
 10
4882.7391856278
 20
7041.1497513646
 30
0.0
 11
4840.84097804
 21
7222.1279289072
 31
0.0
  0
LINE
  5
A8
330
74
100
AcDbEntity
  8
0
  6
Continuous
 62
   179
100
AcDbLine
 10
4840.84097804
 20
7222.1279289072
 30
0.0
 11
4779.230404759
 21
7397.3516386623
 31
0.0
  0
LINE
  5
A9
330
74
100
AcDbEntity
  8
0
  6
Continuous
 62
   179
100
AcDbLine
 10
4779.230404759
 20
7397.3516386623
 30
0.0
 11
4695.8753846469
 21
7563.306056288
 31
0.0
  0
LINE
  5
AA
330
74
100
AcDbEntity
  8
0
  6
Continuous
 62
   179
100
AcDbLine
 10
4695.8753846469
 20
7563.306056288
 30
0.0
 11
4590.0094760133
 21
7715.8622667097
 31
0.0
  0
LINE
  5
AB
330
74
100
AcDbEntity
  8
0
  6
Continuous
 62
   179
100
AcDbLine
 10
4590.0094760133
 20
7715.8622667097
 30
0.0
 11
4462.7758841487
 21
7851.1049960358
 31
0.0
  0
LINE
  5
AC
330
74
100
AcDbEntity
  8
0
  6
Continuous
 62
   179
100
AcDbLine
 10
4462.7758841487
 20
7851.1049960358
 30
0.0
 11
4317.19779369
 21
7966.3918164371
 31
0.0
  0
LINE
  5
AD
330
74
100
AcDbEntity
  8
0
  6
Continuous
 62
   179
100
AcDbLine
 10
4317.19779369
 20
7966.3918164371
 30
0.0
 11
4157.3549470669
 21
8060.9636993174
 31
0.0
  0
LINE
  5
AE
330
74
100
AcDbEntity
  8
0
  6
Continuous
 62
   179
100
AcDbLine
 10
4157.3549470669
 20
8060.9636993174
 30
0.0
 11
3942.3832434805
 21
8152.0001345594
 31
0.0
  0
LINE
  5
AF
330
74
100
AcDbEntity
  8
0
  6
Continuous
 62
   179
100
AcDbLine
 10
3942.3832434805
 20
8152.0001345594
 30
0.0
 11
3717.7379879586
 21
8215.7306159908
 31
0.0
  0
LINE
  5
B0
330
74
100
AcDbEntity
  8
0
  6
Continuous
 62
   179
100
AcDbLine
 10
3717.7379879586
 20
8215.7306159908
 30
0.0
 11
3487.8010416052
 21
8256.6415379559
 31
0.0
  0
LINE
  5
B1
330
74
100
AcDbEntity
  8
0
  6
Continuous
 62
   179
100
AcDbLine
 10
3487.8010416052
 20
8256.6415379559
 30
0.0
 11
3255.2826646592
 21
8278.7971759128
 31
0.0
  0
LINE
  5
B2
330
74
100
AcDbEntity
  8
0
  6
Continuous
 62
   179
100
AcDbLine
 10
3255.2826646592
 20
8278.7971759128
 30
0.0
 11
3021.7939564
 21
8285.5640922951
 31
0.0
  0
LINE
  5
B3
330
74
100
AcDbEntity
  8
0
  6
Continuous
 62
   179
100
AcDbLine
 10
3021.7939564
 20
8285.5640922951
 30
0.0
 11
2764.7286656624
 21
8276.8167344558
 31
0.0
  0
LINE
  5
B4
330
74
100
AcDbEntity
  8
0
  6
Continuous
 62
   179
100
AcDbLine
 10
2764.7286656624
 20
8276.8167344558
 30
0.0
 11
2509.0566231212
 21
8248.8448730413
 31
0.0
  0
LINE
  5
B5
330
74
100
AcDbEntity
  8
0
  6
Continuous
 62
   179
100
AcDbLine
 10
2509.0566231212
 20
8248.8448730413
 30
0.0
 11
2256.7624741697
 21
8198.9693632548
 31
0.0
  0
LINE
  5
B6
330
74
100
AcDbEntity
  8
0
  6
Continuous
 62
   179
100
AcDbLine
 10
2256.7624741697
 20
8198.9693632548
 30
0.0
 11
2010.5862549102
 21
8124.6401609584
 31
0.0
  0
LINE
  5
B7
330
74
100
AcDbEntity
  8
0
  6
Continuous
 62
   179
100
AcDbLine
 10
2010.5862549102
 20
8124.6401609584
 30
0.0
 11
1823.7042907144
 21
8047.7718170144
 31
0.0
  0
LINE
  5
B8
330
74
100
AcDbEntity
  8
0
  6
Continuous
 62
   179
100
AcDbLine
 10
1823.7042907144
 20
8047.7718170144
 30
0.0
 11
1644.6605427625
 21
7954.1022052786
 31
0.0
  0
LINE
  5
B9
330
74
100
AcDbEntity
  8
0
  6
Continuous
 62
   179
100
AcDbLine
 10
1644.6605427625
 20
7954.1022052786
 30
0.0
 11
1475.390327491
 21
7843.7545704421
 31
0.0
  0
LINE
  5
BA
330
74
100
AcDbEntity
  8
0
  6
Continuous
 62
   179
100
AcDbLine
 10
1475.390327491
 20
7843.7545704421
 30
0.0
 11
1317.6231711996
 21
7717.507163895
 31
0.0
  0
LINE
  5
BB
330
74
100
AcDbEntity
  8
0
  6
Continuous
 62
   179
100
AcDbLine
 10
1317.6231711996
 20
7717.507163895
 30
0.0
 11
1139.538084005
 21
7540.9583629978
 31
0.0
  0
LINE
  5
BC
330
74
100
AcDbEntity
  8
0
  6
Continuous
 62
   179
100
AcDbLine
 10
1139.538084005
 20
7540.9583629978
 30
0.0
 11
983.4661868123
 21
7344.6865403276
 31
0.0
  0
LINE
  5
BD
330
74
100
AcDbEntity
  8
0
  6
Continuous
 62
   179
100
AcDbLine
 10
983.4661868123
 20
7344.6865403276
 30
0.0
 11
851.5325681984
 21
7131.4315088069
 31
0.0
  0
LINE
  5
BE
330
74
100
AcDbEntity
  8
0
  6
Continuous
 62
   179
100
AcDbLine
 10
851.5325681984
 20
7131.4315088069
 30
0.0
 11
744.4774564036
 21
6904.647070365
 31
0.0
  0
LINE
  5
BF
330
74
100
AcDbEntity
  8
0
  6
Continuous
 62
   179
100
AcDbLine
 10
744.4774564036
 20
6904.647070365
 30
0.0
 11
658.3392621499
 21
6656.4327422403
 31
0.0
  0
LINE
  5
C0
330
74
100
AcDbEntity
  8
0
  6
Continuous
 62
   179
100
AcDbLine
 10
658.3392621499
 20
6656.4327422403
 30
0.0
 11
596.9943576213
 21
6400.9335325463
 31
0.0
  0
LINE
  5
C1
330
74
100
AcDbEntity
  8
0
  6
Continuous
 62
   179
100
AcDbLine
 10
596.9943576213
 20
6400.9335325463
 30
0.0
 11
557.9730775995
 21
6141.0651554946
 31
0.0
  0
LINE
  5
C2
330
74
100
AcDbEntity
  8
0
  6
Continuous
 62
   179
100
AcDbLine
 10
557.9730775995
 20
6141.0651554946
 30
0.0
 11
538.0293793386
 21
5893.0807139359
 31
0.0
  0
LINE
  5
C3
330
74
100
AcDbEntity
  8
0
  6
Continuous
 62
   179
100
AcDbLine
 10
538.0293793386
 20
5893.0807139359
 30
0.0
 11
537.9155556826
 21
5644.3161034396
 31
0.0
  0
LINE
  5
C4
330
74
100
AcDbEntity
  8
0
  6
Continuous
 62
   179
100
AcDbLine
 10
537.9155556826
 20
5644.3161034396
 30
0.0
 11
561.0465619986
 21
5396.6565041751
 31
0.0
  0
LINE
  5
C5
330
74
100
AcDbEntity
  8
0
  6
Continuous
 62
   179
100
AcDbLine
 10
561.0465619986
 20
5396.6565041751
 30
0.0
 11
610.8365836731
 21
5152.9862283491
 31
0.0
  0
LINE
  5
C6
330
74
100
AcDbEntity
  8
0
  6
Continuous
 62
   179
100
AcDbLine
 10
610.8365836731
 20
5152.9862283491
 30
0.0
 11
670.4957765389
 21
4966.8752015955
 31
0.0
  0
LINE
  5
C7
330
74
100
AcDbEntity
  8
0
  6
Continuous
 62
   179
100
AcDbLine
 10
670.4957765389
 20
4966.8752015955
 30
0.0
 11
749.0385092576
 21
4787.922755338
 31
0.0
  0
LINE
  5
C8
330
74
100
AcDbEntity
  8
0
  6
Continuous
 62
   179
100
AcDbLine
 10
749.0385092576
 20
4787.922755338
 30
0.0
 11
846.3298658912
 21
4618.4358151253
 31
0.0
  0
LINE
  5
C9
330
74
100
AcDbEntity
  8
0
  6
Continuous
 62
   179
100
AcDbLine
 10
846.3298658912
 20
4618.4358151253
 30
0.0
 11
961.3271095996
 21
4460.4233554942
 31
0.0
  0
LINE
  5
CA
330
74
100
AcDbEntity
  8
0
  6
Continuous
 62
   179
100
AcDbLine
 10
1593.2484263997
 20
3794.8892026942
 30
0.0
 11
2342.8146692
 21
3099.1034974946
 31
0.0
  0
LINE
  5
CB
330
74
100
AcDbEntity
  8
0
  6
Continuous
 62
   179
100
AcDbLine
 10
2342.8146692
 20
3099.1034974946
 30
0.0
 11
2457.4150864402
 21
2985.4804965343
 31
0.0
  0
LINE
  5
CC
330
74
100
AcDbEntity
  8
0
  6
Continuous
 62
   179
100
AcDbLine
 10
2457.4150864402
 20
2985.4804965343
 30
0.0
 11
2562.4777930784
 21
2863.0062246075
 31
0.0
  0
LINE
  5
CD
330
74
100
AcDbEntity
  8
0
  6
Continuous
 62
   179
100
AcDbLine
 10
2562.4777930784
 20
2863.0062246075
 30
0.0
 11
2654.9628244148
 21
2730.8077708033
 31
0.0
  0
LINE
  5
CE
330
74
100
AcDbEntity
  8
0
  6
Continuous
 62
   179
100
AcDbLine
 10
2654.9628244148
 20
2730.8077708033
 30
0.0
 11
2730.9070108725
 21
2588.5028322591
 31
0.0
  0
LINE
  5
CF
330
74
100
AcDbEntity
  8
0
  6
Continuous
 62
   179
100
AcDbLine
 10
2730.9070108725
 20
2588.5028322591
 30
0.0
 11
2787.6392767372
 21
2429.3959416825
 31
0.0
  0
LINE
  5
D0
330
74
100
AcDbEntity
  8
0
  6
Continuous
 62
   179
100
AcDbLine
 10
2787.6392767372
 20
2429.3959416825
 30
0.0
 11
2816.0412804487
 21
2262.9265767885
 31
0.0
  0
LINE
  5
D1
330
74
100
AcDbEntity
  8
0
  6
Continuous
 62
   179
100
AcDbLine
 10
2816.0412804487
 20
2262.9265767885
 30
0.0
 11
2813.3943732
 21
2094.0797010946
 31
0.0
  0
LINE
  5
D2
330
74
100
AcDbEntity
  8
0
  6
Continuous
 62
   179
100
AcDbLine
 10
2171.3892056002
 20
1438.629399097
 30
0.0
 11
2081.3271648151
 21
1444.5220285234
 31
0.0
  0
LINE
  5
D3
330
74
100
AcDbEntity
  8
0
  6
Continuous
 62
   179
100
AcDbLine
 10
2081.3271648151
 20
1444.5220285234
 30
0.0
 11
1993.3677378413
 21
1464.5260106363
 31
0.0
  0
LINE
  5
D4
330
74
100
AcDbEntity
  8
0
  6
Continuous
 62
   179
100
AcDbLine
 10
1993.3677378413
 20
1464.5260106363
 30
0.0
 11
1911.3435803354
 21
1501.9115152047
 31
0.0
  0
LINE
  5
D5
330
74
100
AcDbEntity
  8
0
  6
Continuous
 62
   179
100
AcDbLine
 10
1911.3435803354
 20
1501.9115152047
 30
0.0
 11
1840.5450992733
 21
1557.6494251181
 31
0.0
  0
LINE
  5
D6
330
74
100
AcDbEntity
  8
0
  6
Continuous
 62
   179
100
AcDbLine
 10
1840.5450992733
 20
1557.6494251181
 30
0.0
 11
1785.0445168711
 21
1628.6751044787
 31
0.0
  0
LINE
  5
D7
330
74
100
AcDbEntity
  8
0
  6
Continuous
 62
   179
100
AcDbLine
 10
1785.0445168711
 20
1628.6751044787
 30
0.0
 11
1745.2817682865
 21
1709.6405469696
 31
0.0
  0
LINE
  5
D8
330
74
100
AcDbEntity
  8
0
  6
Continuous
 62
   179
100
AcDbLine
 10
1745.2817682865
 20
1709.6405469696
 30
0.0
 11
1710.0353127013
 21
1840.2386565146
 31
0.0
  0
LINE
  5
D9
330
74
100
AcDbEntity
  8
0
  6
Continuous
 62
   179
100
AcDbLine
 10
1710.0353127013
 20
1840.2386565146
 30
0.0
 11
1696.0216688059
 21
1974.8977537186
 31
0.0
  0
LINE
  5
DA
330
74
100
AcDbEntity
  8
0
  6
Continuous
 62
   179
100
AcDbLine
 10
1696.0216688059
 20
1974.8977537186
 30
0.0
 11
1696.5924840549
 21
2110.3283975811
 31
0.0
  0
LINE
  5
DB
330
74
100
AcDbEntity
  8
0
  6
Continuous
 62
   179
100
AcDbLine
 10
1696.5924840549
 20
2110.3283975811
 30
0.0
 11
1707.5320688
 21
2245.3374630946
 31
0.0
  0
LINE
  5
DC
330
74
100
AcDbEntity
  8
0
  6
Continuous
 62
   179
100
AcDbLine
 10
1707.5320688
 20
2245.3374630946
 30
0.0
 11
1781.480308
 21
2897.4264814946
 31
0.0
  0
LINE
  5
DD
330
74
100
AcDbEntity
  8
0
  6
Continuous
 62
   179
100
AcDbLine
 10
1781.480308
 20
2897.4264814946
 30
0.0
 11
94.1159408
 21
2897.4264814946
 31
0.0
  0
LINE
  5
DE
330
74
100
AcDbEntity
  8
0
  6
Continuous
 62
   179
100
AcDbLine
 10
94.1159408
 20
2897.4264814946
 30
0.0
 11
26.8902688
 21
2295.7567170946
 31
0.0
  0
LINE
  5
DF
330
74
100
AcDbEntity
  8
0
  6
Continuous
 62
   179
100
AcDbLine
 10
26.8902688
 20
2295.7567170946
 30
0.0
 11
5.8201226117
 21
2068.3689705604
 31
0.0
  0
LINE
  5
E0
330
74
100
AcDbEntity
  8
0
  6
Continuous
 62
   179
100
AcDbLine
 10
5.8201226117
 20
2068.3689705604
 30
0.0
 11
0.0
 21
1889.0414014946
 31
0.0
  0
LINE
  5
E1
330
74
100
AcDbEntity
  8
0
  6
Continuous
 62
   179
100
AcDbLine
 10
0.0
 20
1889.0414014946
 30
0.0
 11
0.0
 21
1788.2028934946
 31
0.0
  0
LINE
  5
E2
330
74
100
AcDbEntity
  8
0
  6
Continuous
 62
   179
100
AcDbLine
 10
0.0
 20
1788.2028934946
 30
0.0
 11
8.4741181851
 21
1597.5992610857
 31
0.0
  0
LINE
  5
E3
330
74
100
AcDbEntity
  8
0
  6
Continuous
 62
   179
100
AcDbLine
 10
8.4741181851
 20
1597.5992610857
 30
0.0
 11
29.9475321698
 21
1408.0255515191
 31
0.0
  0
LINE
  5
E4
330
74
100
AcDbEntity
  8
0
  6
Continuous
 62
   179
100
AcDbLine
 10
29.9475321698
 20
1408.0255515191
 30
0.0
 11
66.5196177454
 21
1220.7936775914
 31
0.0
  0
LINE
  5
E5
330
74
100
AcDbEntity
  8
0
  6
Continuous
 62
   179
100
AcDbLine
 10
66.5196177454
 20
1220.7936775914
 30
0.0
 11
120.5660601196
 21
1037.8592313249
 31
0.0
  0
LINE
  5
E6
330
74
100
AcDbEntity
  8
0
  6
Continuous
 62
   179
100
AcDbLine
 10
120.5660601196
 20
1037.8592313249
 30
0.0
 11
194.3311383855
 21
861.9730900702
 31
0.0
  0
LINE
  5
E7
330
74
100
AcDbEntity
  8
0
  6
Continuous
 62
   179
100
AcDbLine
 10
194.3311383855
 20
861.9730900702
 30
0.0
 11
287.5295606573
 21
699.5021482411
 31
0.0
  0
LINE
  5
E8
330
74
100
AcDbEntity
  8
0
  6
Continuous
 62
   179
100
AcDbLine
 10
287.5295606573
 20
699.5021482411
 30
0.0
 11
401.5974373649
 21
550.9580491856
 31
0.0
  0
LINE
  5
E9
330
74
100
AcDbEntity
  8
0
  6
Continuous
 62
   179
100
AcDbLine
 10
401.5974373649
 20
550.9580491856
 30
0.0
 11
535.1901037299
 21
419.6995230367
 31
0.0
  0
LINE
  5
EA
330
74
100
AcDbEntity
  8
0
  6
Continuous
 62
   179
100
AcDbLine
 10
535.1901037299
 20
419.6995230367
 30
0.0
 11
685.4525519751
 21
307.8901613371
 31
0.0
  0
LINE
  5
EB
330
74
100
AcDbEntity
  8
0
  6
Continuous
 62
   179
100
AcDbLine
 10
685.4525519751
 20
307.8901613371
 30
0.0
 11
880.9909831936
 21
200.7980430706
 31
0.0
  0
LINE
  5
EC
330
74
100
AcDbEntity
  8
0
  6
Continuous
 62
   179
100
AcDbLine
 10
880.9909831936
 20
200.7980430706
 30
0.0
 11
1088.9648544967
 21
120.3523112471
 31
0.0
  0
LINE
  5
ED
330
74
100
AcDbEntity
  8
0
  6
Continuous
 62
   179
100
AcDbLine
 10
1088.9648544967
 20
120.3523112471
 30
0.0
 11
1304.5983771836
 21
63.4027511638
 31
0.0
  0
LINE
  5
EE
330
74
100
AcDbEntity
  8
0
  6
Continuous
 62
   179
100
AcDbLine
 10
1304.5983771836
 20
63.4027511638
 30
0.0
 11
1524.5667113278
 21
26.4353113751
 31
0.0
  0
LINE
  5
EF
330
74
100
AcDbEntity
  8
0
  6
Continuous
 62
   179
100
AcDbLine
 10
1524.5667113278
 20
26.4353113751
 30
0.0
 11
1746.7181907984
 21
6.2021311101
 31
0.0
  0
LINE
  5
F0
330
74
100
AcDbEntity
  8
0
  6
Continuous
 62
   179
100
AcDbLine
 10
1746.7181907984
 20
6.2021311101
 30
0.0
 11
1969.7121896
 21
0.0000182946
 31
0.0
  0
LINE
  5
F1
330
74
100
AcDbEntity
  8
0
  6
Continuous
 62
   179
100
AcDbLine
 10
1969.7121896
 20
0.0000182946
 30
0.0
 11
2235.4163107967
 21
9.0474941519
 31
0.0
  0
LINE
  5
F2
330
74
100
AcDbEntity
  8
0
  6
Continuous
 62
   179
100
AcDbLine
 10
2235.4163107967
 20
9.0474941519
 30
0.0
 11
2499.6874650753
 21
37.9033605802
 31
0.0
  0
LINE
  5
F3
330
74
100
AcDbEntity
  8
0
  6
Continuous
 62
   179
100
AcDbLine
 10
2499.6874650753
 20
37.9033605802
 30
0.0
 11
2760.5117042792
 21
89.204615755
 31
0.0
  0
LINE
  5
F4
330
74
100
AcDbEntity
  8
0
  6
Continuous
 62
   179
100
AcDbLine
 10
2760.5117042792
 20
89.204615755
 30
0.0
 11
3015.1415277313
 21
165.4438899665
 31
0.0
  0
LINE
  5
F5
330
74
100
AcDbEntity
  8
0
  6
Continuous
 62
   179
100
AcDbLine
 10
3015.1415277313
 20
165.4438899665
 30
0.0
 11
3208.6236023082
 21
244.1201341123
 31
0.0
  0
LINE
  5
F6
330
74
100
AcDbEntity
  8
0
  6
Continuous
 62
   179
100
AcDbLine
 10
3208.6236023082
 20
244.1201341123
 30
0.0
 11
3394.246790929
 21
339.8610540042
 31
0.0
  0
LINE
  5
F7
330
74
100
AcDbEntity
  8
0
  6
Continuous
 62
   179
100
AcDbLine
 10
3394.246790929
 20
339.8610540042
 30
0.0
 11
3570.08287903
 21
452.5651803685
 31
0.0
  0
LINE
  5
F8
330
74
100
AcDbEntity
  8
0
  6
Continuous
 62
   179
100
AcDbLine
 10
3570.08287903
 20
452.5651803685
 30
0.0
 11
3734.3860796
 21
581.5020810946
 31
0.0
  0
LINE
  5
F9
330
74
100
AcDbEntity
  8
0
  6
Continuous
 62
   179
100
AcDbLine
 10
3734.3860796
 20
581.5020810946
 30
0.0
 11
3918.9619613187
 21
762.6068684982
 31
0.0
  0
LINE
  5
FA
330
74
100
AcDbEntity
  8
0
  6
Continuous
 62
   179
100
AcDbLine
 10
3918.9619613187
 20
762.6068684982
 30
0.0
 11
4080.6115034165
 21
964.4332031658
 31
0.0
  0
LINE
  5
FB
330
74
100
AcDbEntity
  8
0
  6
Continuous
 62
   179
100
AcDbLine
 10
4080.6115034165
 20
964.4332031658
 30
0.0
 11
4217.129324297
 21
1184.0491590435
 31
0.0
  0
LINE
  5
FC
330
74
100
AcDbEntity
  8
0
  6
Continuous
 62
   179
100
AcDbLine
 10
4217.129324297
 20
1184.0491590435
 30
0.0
 11
4327.807798901
 21
1417.7744861233
 31
0.0
  0
LINE
  5
FD
330
74
100
AcDbEntity
  8
0
  6
Continuous
 62
   179
100
AcDbLine
 10
4327.807798901
 20
1417.7744861233
 30
0.0
 11
4416.8403522579
 21
1673.6616360853
 31
0.0
  0
LINE
  5
FE
330
74
100
AcDbEntity
  8
0
  6
Continuous
 62
   179
100
AcDbLine
 10
4416.8403522579
 20
1673.6616360853
 30
0.0
 11
4480.332478423
 21
1937.0776350384
 31
0.0
  0
LINE
  5
FF
330
74
100
AcDbEntity
  8
0
  6
Continuous
 62
   179
100
AcDbLine
 10
4480.332478423
 20
1937.0776350384
 30
0.0
 11
4520.926442
 21
2205.0020598946
 31
0.0
  0
LINE
  5
100
330
74
100
AcDbEntity
  8
0
  6
Continuous
 62
   179
100
AcDbLine
 10
4520.926442
 20
2205.0020598946
 30
0.0
 11
4539.8604791128
 21
2434.751251137
 31
0.0
  0
LINE
  5
101
330
74
100
AcDbEntity
  8
0
  6
Continuous
 62
   179
100
AcDbLine
 10
4539.8604791128
 20
2434.751251137
 30
0.0
 11
4542.0136171636
 21
2665.2555763504
 31
0.0
  0
LINE
  5
102
330
74
100
AcDbEntity
  8
0
  6
Continuous
 62
   179
100
AcDbLine
 10
4542.0136171636
 20
2665.2555763504
 30
0.0
 11
4524.9874932226
 21
2895.1234497405
 31
0.0
  0
LINE
  5
103
330
74
100
AcDbEntity
  8
0
  6
Continuous
 62
   179
100
AcDbLine
 10
4524.9874932226
 20
2895.1234497405
 30
0.0
 11
4496.6310776622
 21
3074.0098021703
 31
0.0
  0
LINE
  5
104
330
74
100
AcDbEntity
  8
0
  6
Continuous
 62
   179
100
AcDbLine
 10
4496.6310776622
 20
3074.0098021703
 30
0.0
 11
4454.0379981851
 21
3250.0430485054
 31
0.0
  0
LINE
  5
105
330
74
100
AcDbEntity
  8
0
  6
Continuous
 62
   179
100
AcDbLine
 10
4454.0379981851
 20
3250.0430485054
 30
0.0
 11
4396.5589488
 21
3421.7867230946
 31
0.0
  0
LINE
  5
106
330
74
100
AcDbEntity
  8
0
  6
Continuous
 62
   179
100
AcDbLine
 10
4396.5589488
 20
3421.7867230946
 30
0.0
 11
4335.0775798529
 21
3551.3591107413
 31
0.0
  0
LINE
  5
107
330
74
100
AcDbEntity
  8
0
  6
Continuous
 62
   179
100
AcDbLine
 10
4335.0775798529
 20
3551.3591107413
 30
0.0
 11
4262.2002057756
 21
3674.9188547719
 31
0.0
  0
LINE
  5
108
330
74
100
AcDbEntity
  8
0
  6
Continuous
 62
   179
100
AcDbLine
 10
4262.2002057756
 20
3674.9188547719
 30
0.0
 11
4181.3183894369
 21
3793.4113089372
 31
0.0
  0
LINE
  5
109
330
74
100
AcDbEntity
  8
0
  6
Continuous
 62
   179
100
AcDbLine
 10
4181.3183894369
 20
3793.4113089372
 30
0.0
 11
4078.5227471571
 21
3927.6643628842
 31
0.0
  0
LINE
  5
10A
330
74
100
AcDbEntity
  8
0
  6
Continuous
 62
   179
100
AcDbLine
 10
4078.5227471571
 20
3927.6643628842
 30
0.0
 11
3969.6759316
 21
4057.0693234946
 31
0.0
  0
LINE
  5
10B
330
74
100
AcDbEntity
  8
0
  6
Continuous
 62
   179
100
AcDbLine
 10
3969.6759316
 20
4057.0693234946
 30
0.0
 11
3243.638674
 21
4803.2742826946
 31
0.0
  0
LINE
  5
10C
330
74
100
AcDbEntity
  8
0
  6
Continuous
 62
   179
100
AcDbLine
 10
2467.1821623981
 20
5616.7049138995
 30
0.0
 11
2391.5759134121
 21
5727.7039441288
 31
0.0
  0
LINE
  5
10D
330
74
100
AcDbEntity
  8
0
  6
Continuous
 62
   179
100
AcDbLine
 10
2391.5759134121
 20
5727.7039441288
 30
0.0
 11
2326.9023872324
 21
5845.3828817498
 31
0.0
  0
LINE
  5
10E
330
74
100
AcDbEntity
  8
0
  6
Continuous
 62
   179
100
AcDbLine
 10
2326.9023872324
 20
5845.3828817498
 30
0.0
 11
2276.7855321171
 21
5969.9206549293
 31
0.0
  0
LINE
  5
10F
330
74
100
AcDbEntity
  8
0
  6
Continuous
 62
   179
100
AcDbLine
 10
2276.7855321171
 20
5969.9206549293
 30
0.0
 11
2250.5432565423
 21
6072.0904771882
 31
0.0
  0
LINE
  5
110
330
74
100
AcDbEntity
  8
0
  6
Continuous
 62
   179
100
AcDbLine
 10
2250.5432565423
 20
6072.0904771882
 30
0.0
 11
2238.3532498759
 21
6176.8496579539
 31
0.0
  0
LINE
  5
111
330
74
100
AcDbEntity
  8
0
  6
Continuous
 62
   179
100
AcDbLine
 10
2238.3532498759
 20
6176.8496579539
 30
0.0
 11
2241.9761612
 21
6282.2390666946
 31
0.0
  0
LINE
  5
112
330
74
100
AcDbEntity
  8
0
  6
Continuous
 62
   179
100
AcDbLine
 10
2813.394373201
 20
6877.1862638961
 30
0.0
 11
2899.1450330725
 21
6871.9159884789
 31
0.0
  0
LINE
  5
113
330
74
100
AcDbEntity
  8
0
  6
Continuous
 62
   179
100
AcDbLine
 10
2899.1450330725
 20
6871.9159884789
 30
0.0
 11
2983.1458702521
 21
6854.0846279821
 31
0.0
  0
LINE
  5
114
330
74
100
AcDbEntity
  8
0
  6
Continuous
 62
   179
100
AcDbLine
 10
2983.1458702521
 20
6854.0846279821
 30
0.0
 11
3062.202014936
 21
6820.6931120196
 31
0.0
  0
LINE
  5
115
330
74
100
AcDbEntity
  8
0
  6
Continuous
 62
   179
100
AcDbLine
 10
3062.202014936
 20
6820.6931120196
 30
0.0
 11
3131.6623634801
 21
6770.3629356214
 31
0.0
  0
LINE
  5
116
330
74
100
AcDbEntity
  8
0
  6
Continuous
 62
   179
100
AcDbLine
 10
3131.6623634801
 20
6770.3629356214
 30
0.0
 11
3187.37124796
 21
6705.1184696235
 31
0.0
  0
LINE
  5
117
330
74
100
AcDbEntity
  8
0
  6
Continuous
 62
   179
100
AcDbLine
 10
3187.37124796
 20
6705.1184696235
 30
0.0
 11
3228.1274776793
 21
6629.5646068072
 31
0.0
  0
LINE
  5
118
330
74
100
AcDbEntity
  8
0
  6
Continuous
 62
   179
100
AcDbLine
 10
3228.1274776793
 20
6629.5646068072
 30
0.0
 11
3265.0334180049
 21
6506.2441361359
 31
0.0
  0
LINE
  5
119
330
74
100
AcDbEntity
  8
0
  6
Continuous
 62
   179
100
AcDbLine
 10
3265.0334180049
 20
6506.2441361359
 30
0.0
 11
3280.3602104272
 21
6378.3104742822
 31
0.0
  0
LINE
  5
11A
330
74
100
AcDbEntity
  8
0
  6
Continuous
 62
   179
100
AcDbLine
 10
3280.3602104272
 20
6378.3104742822
 30
0.0
 11
3280.7520241623
 21
6249.4122034737
 31
0.0
  0
LINE
  5
11B
330
74
100
AcDbEntity
  8
0
  6
Continuous
 62
   179
100
AcDbLine
 10
3280.7520241623
 20
6249.4122034737
 30
0.0
 11
3270.5289428
 21
6120.8974538946
 31
0.0
  0
LINE
  5
11C
330
74
100
AcDbEntity
  8
0
  6
Continuous
 62
   179
100
AcDbLine
 10
3270.5289428
 20
6120.8974538946
 30
0.0
 11
3206.6645544
 21
5566.2856598946
 31
0.0
  0
LINE
  5
11D
330
74
100
AcDbEntity
  8
0
  6
Continuous
 62
   179
100
AcDbLine
 10
3206.6645544
 20
5566.2856598946
 30
0.0
 11
4820.0806824005
 21
5566.2856598945
 31
0.0
  0
LINE
  5
11E
330
74
100
AcDbEntity
  8
0
  6
Continuous
 62
   179
100
AcDbLine
 10
4820.0806824005
 20
5566.2856598945
 30
0.0
 11
4894.0289216005
 21
6231.8198126945
 31
0.0
  0
LINE
  5
11F
330
74
100
AcDbEntity
  8
0
  6
Continuous
 62
   179
100
AcDbLine
 10
4894.0289216005
 20
6231.8198126945
 30
0.0
 11
4907.4740560005
 21
6366.2711566946
 31
0.0
  0
LINE
  5
120
330
74
100
AcDbEntity
  8
0
  6
Continuous
 62
   179
100
AcDbLine
 10
4907.4740560005
 20
6366.2711566946
 30
0.0
 11
4917.4861623745
 21
6641.1377165616
 31
0.0
  0
LINE
  5
121
330
74
100
AcDbEntity
  8
0
  6
Continuous
 62
   179
100
AcDbLine
 10
4917.4861623745
 20
6641.1377165616
 30
0.0
 11
4907.4740560005
 21
6857.0185622947
 31
0.0
  0
LINE
  5
122
330
74
100
AcDbEntity
  8
0
  6
Continuous
 62
   179
100
AcDbLine
 10
24964.5491205926
 20
0.0000125144
 30
0.0
 11
26583.7619200447
 21
0.0000125144
 31
0.0
  0
LINE
  5
123
330
74
100
AcDbEntity
  8
0
  6
Continuous
 62
   179
100
AcDbLine
 10
24964.5491205926
 20
1424.0948297115
 30
0.0
 11
24964.5491205926
 21
0.0000125144
 31
0.0
  0
LINE
  5
124
330
74
100
AcDbEntity
  8
0
  6
Continuous
 62
   179
100
AcDbLine
 10
25016.6135325926
 20
7008.8707569115
 30
0.0
 11
24971.491042193
 21
3444.1940153109
 31
0.0
  0
LINE
  5
125
330
74
100
AcDbEntity
  8
0
  6
Continuous
 62
   179
100
AcDbLine
 10
24180.1119797926
 20
3343.5361521115
 30
0.0
 11
25016.6135325926
 21
7008.8707569115
 31
0.0
  0
LINE
  5
126
330
74
100
AcDbEntity
  8
0
  6
Continuous
 62
   179
100
AcDbLine
 10
23399.1457997926
 20
0.0000125144
 30
0.0
 11
23791.3643701938
 21
1694.8297721102
 31
0.0
  0
LINE
  5
127
330
74
100
AcDbEntity
  8
0
  6
Continuous
 62
   179
100
AcDbLine
 10
21618.5429093926
 20
0.0000125144
 30
0.0
 11
23399.1457997926
 21
0.0000125144
 31
0.0
  0
LINE
  5
128
330
74
100
AcDbEntity
  8
0
  6
Continuous
 62
   179
100
AcDbLine
 10
23986.756270993
 20
8289.6552921115
 30
0.0
 11
21618.5429093926
 21
0.0000125144
 31
0.0
  0
LINE
  5
129
330
74
100
AcDbEntity
  8
0
  6
Continuous
 62
   179
100
AcDbLine
 10
26353.951536593
 20
8289.6552921115
 30
0.0
 11
23986.756270993
 21
8289.6552921115
 31
0.0
  0
LINE
  5
12A
330
74
100
AcDbEntity
  8
0
  6
Continuous
 62
   179
100
AcDbLine
 10
26583.7619200447
 20
0.0000125144
 30
0.0
 11
26353.951536593
 21
8289.6552921115
 31
0.0
  0
ENDBLK
  5
76
330
74
100
AcDbEntity
  8
0
100
AcDbBlockEnd
  0
BLOCK
  5
12C
330
12B
100
AcDbEntity
  8
0
100
AcDbBlockBegin
  2
Projekciju vaizdavimas_1
 70
     0
 10
0.0
 20
0.0
 30
0.0
  3
Projekciju vaizdavimas_1
  1

  0
CIRCLE
  5
12E
330
12B
100
AcDbEntity
  8
0
  6
Continuous
 62
     7
370
    30
100
AcDbCircle
 10
0.0
 20
0.0
 30
0.0
 40
3.5
  0
CIRCLE
  5
12F
330
12B
100
AcDbEntity
  8
0
  6
Continuous
 62
     7
370
    30
100
AcDbCircle
 10
0.0
 20
0.0
 30
0.0
 40
1.5
  0
LINE
  5
130
330
12B
100
AcDbEntity
  8
0
  6
CENTERX2
 62
     7
370
     0
100
AcDbLine
 10
4.5
 20
0.0
 30
0.0
 11
-14.5
 21
0.0
 31
0.0
  0
LINE
  5
131
330
12B
100
AcDbEntity
  8
0
  6
Continuous
 62
     7
370
    30
100
AcDbLine
 10
-13.5
 20
1.5
 30
0.0
 11
-13.5
 21
-1.5
 31
0.0
  0
LINE
  5
132
330
12B
100
AcDbEntity
  8
0
  6
Continuous
 62
     7
370
    30
100
AcDbLine
 10
-13.5
 20
-1.5
 30
0.0
 11
-6.5
 21
-3.5
 31
0.0
  0
LINE
  5
133
330
12B
100
AcDbEntity
  8
0
  6
Continuous
 62
     7
370
    30
100
AcDbLine
 10
-6.5
 20
-3.5
 30
0.0
 11
-6.5
 21
3.5
 31
0.0
  0
LINE
  5
134
330
12B
100
AcDbEntity
  8
0
  6
Continuous
 62
     7
370
    30
100
AcDbLine
 10
-6.5
 20
3.5
 30
0.0
 11
-13.5
 21
1.5
 31
0.0
  0
LINE
  5
135
330
12B
100
AcDbEntity
  8
0
  6
CENTERX2
 62
     7
370
     0
100
AcDbLine
 10
0.0
 20
4.5
 30
0.0
 11
0.0
 21
-4.5
 31
0.0
  0
ENDBLK
  5
12D
330
12B
100
AcDbEntity
  8
0
100
AcDbBlockEnd
  0
BLOCK
  5
137
330
136
100
AcDbEntity
  8
0
100
AcDbBlockBegin
  2
Block1
 70
     0
 10
0.0
 20
0.0
 30
0.0
  3
Block1
  1

  0
ARC
  5
139
330
136
100
AcDbEntity
  8
0
  6
Continuous
 62
   179
100
AcDbCircle
 10
7867.6649029635
 20
2430.1355419087
 30
0.0
 40
931.6078627493895
100
AcDbArc
 50
232.1189098069
 51
101.3462704492
  0
ARC
  5
13A
330
136
100
AcDbEntity
  8
0
  6
Continuous
 62
   179
100
AcDbCircle
 10
7943.5514462269
 20
2435.9613946537
 30
0.0
 40
1140.079096555486
100
AcDbArc
 50
297.434182935
 51
62.17203318890002
  0
ARC
  5
13B
330
136
100
AcDbEntity
  8
0
  6
Continuous
 62
   179
100
AcDbCircle
 10
20001.4103066854
 20
6936.2583481763
 30
0.0
 40
1270.831290716854
100
AcDbArc
 50
3.4391112699
 51
76.4197578922
  0
ARC
  5
13C
330
136
100
AcDbEntity
  8
0
  6
Continuous
 62
   179
100
AcDbCircle
 10
19239.4822949422
 20
3782.0667000728
 30
0.0
 40
4515.74411667143
100
AcDbArc
 50
76.4197578923
 51
91.6754644339
  0
ARC
  5
13D
330
136
100
AcDbEntity
  8
0
  6
Continuous
 62
   179
100
AcDbCircle
 10
18683.9539720184
 20
2160.1911622497
 30
0.0
 40
2139.476369555804
100
AcDbArc
 50
270.3210228954001
 51
307.7127911617
  0
ARC
  5
13E
330
136
100
AcDbEntity
  8
0
  6
Continuous
 62
   179
100
AcDbCircle
 10
18746.0422061702
 20
1962.8216117468
 30
0.0
 40
1946.678009873842
100
AcDbArc
 50
309.8210667380999
 51
331.7017265911999
  0
ARC
  5
13F
330
136
100
AcDbEntity
  8
0
  6
Continuous
 62
   179
100
AcDbCircle
 10
17863.1917469523
 20
2438.1532894658
 30
0.0
 40
2949.35698999881
100
AcDbArc
 50
331.7017265911999
 51
356.0927915539
  0
ARC
  5
140
330
136
100
AcDbEntity
  8
0
  6
Continuous
 62
   179
100
AcDbCircle
 10
16755.7856245826
 20
6709.226497343
 30
0.0
 40
4524.342739831098
100
AcDbArc
 50
353.5830630921
 51
3.8434115591
  0
ARC
  5
141
330
136
100
AcDbEntity
  8
0
  6
Continuous
 62
   179
100
AcDbCircle
 10
19039.3213693035
 20
6348.9928357667
 30
0.0
 40
506.1072723730909
100
AcDbArc
 50
52.45518083769999
 51
82.2716960779
  0
ARC
  5
142
330
136
100
AcDbEntity
  8
0
  6
Continuous
 62
   179
100
AcDbCircle
 10
19108.0528552878
 20
6495.6270812425
 30
0.0
 40
349.7025539282703
100
AcDbArc
 50
10.4012874263
 51
46.7340603611
  0
ARC
  5
143
330
136
100
AcDbEntity
  8
0
  6
Continuous
 62
   179
100
AcDbCircle
 10
17417.0070420698
 20
6262.2496105517
 30
0.0
 40
2056.490362340239
100
AcDbArc
 50
355.475249592
 51
8.290034904
  0
ARC
  5
144
330
136
100
AcDbEntity
  8
0
  6
Continuous
 62
   179
100
AcDbCircle
 10
16921.0810184775
 20
2478.8840573259
 30
0.0
 40
2122.330793892779
100
AcDbArc
 50
339.2065439429
 51
352.3366543813
  0
ARC
  5
145
330
136
100
AcDbEntity
  8
0
  6
Continuous
 62
   179
100
AcDbCircle
 10
18500.143747488
 20
1898.8589115903
 30
0.0
 40
440.5904503964751
100
AcDbArc
 50
293.838270217
 51
336.8232513296001
  0
ARC
  5
146
330
136
100
AcDbEntity
  8
0
  6
Continuous
 62
   179
100
AcDbCircle
 10
18201.1477532386
 20
2813.3138324813
 30
0.0
 40
1401.173285533761
100
AcDbArc
 50
267.1686990927
 51
289.9057704419
  0
ARC
  5
147
330
136
100
AcDbEntity
  8
0
  6
Continuous
 62
   179
100
AcDbCircle
 10
18751.2701169541
 20
4514.9970927066
 30
0.0
 40
2362.499275286643
100
AcDbArc
 50
81.3304997955
 51
90.0
  0
ARC
  5
148
330
136
100
AcDbEntity
  8
0
  6
Continuous
 62
   179
100
AcDbCircle
 10
6720.6044375296
 20
9296.0579653158
 30
0.0
 40
7520.148763137153
100
AcDbArc
 50
220.017667739
 51
227.0143029097
  0
ARC
  5
149
330
136
100
AcDbEntity
  8
0
  6
Continuous
 62
   179
100
AcDbCircle
 10
2021.3892535935
 20
2163.6755564521
 30
0.0
 40
795.0570373035339
100
AcDbArc
 50
316.8708555891
 51
354.9781479006
  0
ARC
  5
14A
330
136
100
AcDbEntity
  8
0
  6
Continuous
 62
   179
100
AcDbCircle
 10
2182.9124170468
 20
2011.9889486322
 30
0.0
 40
573.4753329004777
100
AcDbArc
 50
268.8486412909
 51
316.8986890901
  0
ARC
  5
14B
330
136
100
AcDbEntity
  8
0
  6
Continuous
 62
   179
100
AcDbCircle
 10
10525.696072633
 20
12531.6259047731
 30
0.0
 40
10618.65239809051
100
AcDbArc
 50
220.6325257886
 51
226.7030345034
  0
ARC
  5
14C
330
136
100
AcDbEntity
  8
0
  6
Continuous
 62
   179
100
AcDbCircle
 10
2962.700769446
 20
6223.5867799529
 30
0.0
 40
723.1072200381735
100
AcDbArc
 50
137.8203941731
 51
175.3475443105
  0
ARC
  5
14D
330
136
100
AcDbEntity
  8
0
  6
Continuous
 62
   179
100
AcDbCircle
 10
2808.3239355685
 20
6360.2864243508
 30
0.0
 40
516.9247077280753
100
AcDbArc
 50
89.4379852016
 51
137.5591461504
  0
ARC
  5
14E
330
136
100
AcDbEntity
  8
0
  6
Continuous
 62
   179
100
AcDbCircle
 10
24439.2811878643
 20
2435.9613946539
 30
0.0
 40
1140.079096554877
100
AcDbArc
 50
297.4341829348999
 51
62.17203318890002
  0
ARC
  5
14F
330
136
100
AcDbEntity
  8
0
  6
Continuous
 62
   179
100
AcDbCircle
 10
24363.3946446009
 20
2430.1355419089
 30
0.0
 40
931.6078627500976
100
AcDbArc
 50
232.118909807
 51
101.3462704493
  0
LINE
  5
150
330
136
100
AcDbEntity
  8
0
  6
Continuous
 62
   179
100
AcDbLine
 10
10088.0321784074
 20
0.0000125144
 30
0.0
 11
9858.2217949557
 21
8289.6552921115
 31
0.0
  0
LINE
  5
151
330
136
100
AcDbEntity
  8
0
  6
Continuous
 62
   179
100
AcDbLine
 10
9858.2217949557
 20
8289.6552921115
 30
0.0
 11
7491.0265293557
 21
8289.6552921115
 31
0.0
  0
LINE
  5
152
330
136
100
AcDbEntity
  8
0
  6
Continuous
 62
   179
100
AcDbLine
 10
7491.0265293557
 20
8289.6552921115
 30
0.0
 11
5122.8131677553
 21
0.0000125144
 31
0.0
  0
LINE
  5
153
330
136
100
AcDbEntity
  8
0
  6
Continuous
 62
   179
100
AcDbLine
 10
5122.8131677553
 20
0.0000125144
 30
0.0
 11
6903.4160581553
 21
0.0000125144
 31
0.0
  0
LINE
  5
154
330
136
100
AcDbEntity
  8
0
  6
Continuous
 62
   179
100
AcDbLine
 10
6903.4160581553
 20
0.0000125144
 30
0.0
 11
7295.6346285553
 21
1694.8297721115
 31
0.0
  0
LINE
  5
155
330
136
100
AcDbEntity
  8
0
  6
Continuous
 62
   179
100
AcDbLine
 10
7684.3822381561
 20
3343.5361521108
 30
0.0
 11
8520.8837909553
 21
7008.8707569115
 31
0.0
  0
LINE
  5
156
330
136
100
AcDbEntity
  8
0
  6
Continuous
 62
   179
100
AcDbLine
 10
8520.8837909553
 20
7008.8707569115
 30
0.0
 11
8475.7613005553
 21
3444.1940153115
 31
0.0
  0
LINE
  5
157
330
136
100
AcDbEntity
  8
0
  6
Continuous
 62
   179
100
AcDbLine
 10
8468.8193789565
 20
1424.0948297112
 30
0.0
 11
8468.8193789565
 21
0.0000125144
 31
0.0
  0
LINE
  5
158
330
136
100
AcDbEntity
  8
0
  6
Continuous
 62
   179
100
AcDbLine
 10
8468.8193789565
 20
0.0000125144
 30
0.0
 11
10088.0321784074
 21
0.0000125144
 31
0.0
  0
LINE
  5
159
330
136
100
AcDbEntity
  8
0
  6
Continuous
 62
   179
100
AcDbLine
 10
19107.4500497519
 20
8295.8802112275
 30
0.0
 11
16935.7898769541
 21
8295.8802112275
 31
0.0
  0
LINE
  5
15A
330
136
100
AcDbEntity
  8
0
  6
Continuous
 62
   179
100
AcDbLine
 10
16935.7898769541
 20
8295.8802112275
 30
0.0
 11
15991.7401521541
 21
0.0000288275
 31
0.0
  0
LINE
  5
15B
330
136
100
AcDbEntity
  8
0
  6
Continuous
 62
   179
100
AcDbLine
 10
15991.7401521541
 20
0.0000288275
 30
0.0
 11
17855.6331985541
 21
0.0000288275
 31
0.0
  0
LINE
  5
15C
330
136
100
AcDbEntity
  8
0
  6
Continuous
 62
   179
100
AcDbLine
 10
17855.6331985541
 20
0.0000288275
 30
0.0
 11
18695.9411953541
 21
20.7483744275
 31
0.0
  0
LINE
  5
15D
330
136
100
AcDbEntity
  8
0
  6
Continuous
 62
   179
100
AcDbLine
 10
20805.6935873772
 20
2237.1817154785
 30
0.0
 11
21251.7830177772
 21
6203.5737826763
 31
0.0
  0
LINE
  5
15E
330
136
100
AcDbEntity
  8
0
  6
Continuous
 62
   179
100
AcDbLine
 10
19024.4566673541
 20
2195.8666048275
 30
0.0
 11
19467.0880401544
 21
6100.0136352237
 31
0.0
  0
LINE
  5
15F
330
136
100
AcDbEntity
  8
0
  6
Continuous
 62
   179
100
AcDbLine
 10
17907.5040625541
 20
1417.8036448275
 30
0.0
 11
18131.936218492
 21
1413.8509571068
 31
0.0
  0
LINE
  5
160
330
136
100
AcDbEntity
  8
0
  6
Continuous
 62
   179
100
AcDbLine
 10
18529.9544305541
 20
6877.4963679933
 30
0.0
 11
17907.5040625541
 21
1417.8036448275
 31
0.0
  0
LINE
  5
161
330
136
100
AcDbEntity
  8
0
  6
Continuous
 62
   179
100
AcDbLine
 10
18751.2701169541
 20
6877.4963679933
 30
0.0
 11
18529.9544305541
 21
6877.4963679933
 31
0.0
  0
LINE
  5
162
330
136
100
AcDbEntity
  8
0
  6
Continuous
 62
   179
100
AcDbLine
 10
11134.6446741053
 20
0.0
 30
0.0
 11
14807.1018453053
 21
0.0
 31
0.0
  0
LINE
  5
163
330
136
100
AcDbEntity
  8
0
  6
Continuous
 62
   179
100
AcDbLine
 10
14807.1018453053
 20
0.0
 30
0.0
 11
14990.3788981053
 21
1625.287072
 31
0.0
  0
LINE
  5
164
330
136
100
AcDbEntity
  8
0
  6
Continuous
 62
   179
100
AcDbLine
 10
14990.3788981053
 20
1625.287072
 30
0.0
 11
13071.1569301053
 21
1625.287072
 31
0.0
  0
LINE
  5
165
330
136
100
AcDbEntity
  8
0
  6
Continuous
 62
   179
100
AcDbLine
 10
13071.1569301053
 20
1625.287072
 30
0.0
 11
13828.4715445053
 21
8295.8801824
 31
0.0
  0
LINE
  5
166
330
136
100
AcDbEntity
  8
0
  6
Continuous
 62
   179
100
AcDbLine
 10
13828.4715445053
 20
8295.8801824
 30
0.0
 11
12075.2363413053
 21
8295.8801824
 31
0.0
  0
LINE
  5
167
330
136
100
AcDbEntity
  8
0
  6
Continuous
 62
   179
100
AcDbLine
 10
12075.2363413053
 20
8295.8801824
 30
0.0
 11
11134.6446741053
 21
0.0
 31
0.0
  0
LINE
  5
168
330
136
100
AcDbEntity
  8
0
  6
Continuous
 62
   179
100
AcDbLine
 10
4907.4740560005
 20
6857.0185622947
 30
0.0
 11
4882.7391856278
 21
7041.1497513646
 31
0.0
  0
LINE
  5
169
330
136
100
AcDbEntity
  8
0
  6
Continuous
 62
   179
100
AcDbLine
 10
4882.7391856278
 20
7041.1497513646
 30
0.0
 11
4840.84097804
 21
7222.1279289072
 31
0.0
  0
LINE
  5
16A
330
136
100
AcDbEntity
  8
0
  6
Continuous
 62
   179
100
AcDbLine
 10
4840.84097804
 20
7222.1279289072
 30
0.0
 11
4779.230404759
 21
7397.3516386623
 31
0.0
  0
LINE
  5
16B
330
136
100
AcDbEntity
  8
0
  6
Continuous
 62
   179
100
AcDbLine
 10
4779.230404759
 20
7397.3516386623
 30
0.0
 11
4695.8753846469
 21
7563.306056288
 31
0.0
  0
LINE
  5
16C
330
136
100
AcDbEntity
  8
0
  6
Continuous
 62
   179
100
AcDbLine
 10
4695.8753846469
 20
7563.306056288
 30
0.0
 11
4590.0094760133
 21
7715.8622667097
 31
0.0
  0
LINE
  5
16D
330
136
100
AcDbEntity
  8
0
  6
Continuous
 62
   179
100
AcDbLine
 10
4590.0094760133
 20
7715.8622667097
 30
0.0
 11
4462.7758841487
 21
7851.1049960358
 31
0.0
  0
LINE
  5
16E
330
136
100
AcDbEntity
  8
0
  6
Continuous
 62
   179
100
AcDbLine
 10
4462.7758841487
 20
7851.1049960358
 30
0.0
 11
4317.19779369
 21
7966.3918164371
 31
0.0
  0
LINE
  5
16F
330
136
100
AcDbEntity
  8
0
  6
Continuous
 62
   179
100
AcDbLine
 10
4317.19779369
 20
7966.3918164371
 30
0.0
 11
4157.3549470669
 21
8060.9636993174
 31
0.0
  0
LINE
  5
170
330
136
100
AcDbEntity
  8
0
  6
Continuous
 62
   179
100
AcDbLine
 10
4157.3549470669
 20
8060.9636993174
 30
0.0
 11
3942.3832434805
 21
8152.0001345594
 31
0.0
  0
LINE
  5
171
330
136
100
AcDbEntity
  8
0
  6
Continuous
 62
   179
100
AcDbLine
 10
3942.3832434805
 20
8152.0001345594
 30
0.0
 11
3717.7379879586
 21
8215.7306159908
 31
0.0
  0
LINE
  5
172
330
136
100
AcDbEntity
  8
0
  6
Continuous
 62
   179
100
AcDbLine
 10
3717.7379879586
 20
8215.7306159908
 30
0.0
 11
3487.8010416052
 21
8256.6415379559
 31
0.0
  0
LINE
  5
173
330
136
100
AcDbEntity
  8
0
  6
Continuous
 62
   179
100
AcDbLine
 10
3487.8010416052
 20
8256.6415379559
 30
0.0
 11
3255.2826646592
 21
8278.7971759128
 31
0.0
  0
LINE
  5
174
330
136
100
AcDbEntity
  8
0
  6
Continuous
 62
   179
100
AcDbLine
 10
3255.2826646592
 20
8278.7971759128
 30
0.0
 11
3021.7939564
 21
8285.5640922951
 31
0.0
  0
LINE
  5
175
330
136
100
AcDbEntity
  8
0
  6
Continuous
 62
   179
100
AcDbLine
 10
3021.7939564
 20
8285.5640922951
 30
0.0
 11
2764.7286656624
 21
8276.8167344558
 31
0.0
  0
LINE
  5
176
330
136
100
AcDbEntity
  8
0
  6
Continuous
 62
   179
100
AcDbLine
 10
2764.7286656624
 20
8276.8167344558
 30
0.0
 11
2509.0566231212
 21
8248.8448730413
 31
0.0
  0
LINE
  5
177
330
136
100
AcDbEntity
  8
0
  6
Continuous
 62
   179
100
AcDbLine
 10
2509.0566231212
 20
8248.8448730413
 30
0.0
 11
2256.7624741697
 21
8198.9693632548
 31
0.0
  0
LINE
  5
178
330
136
100
AcDbEntity
  8
0
  6
Continuous
 62
   179
100
AcDbLine
 10
2256.7624741697
 20
8198.9693632548
 30
0.0
 11
2010.5862549102
 21
8124.6401609584
 31
0.0
  0
LINE
  5
179
330
136
100
AcDbEntity
  8
0
  6
Continuous
 62
   179
100
AcDbLine
 10
2010.5862549102
 20
8124.6401609584
 30
0.0
 11
1823.7042907144
 21
8047.7718170144
 31
0.0
  0
LINE
  5
17A
330
136
100
AcDbEntity
  8
0
  6
Continuous
 62
   179
100
AcDbLine
 10
1823.7042907144
 20
8047.7718170144
 30
0.0
 11
1644.6605427625
 21
7954.1022052786
 31
0.0
  0
LINE
  5
17B
330
136
100
AcDbEntity
  8
0
  6
Continuous
 62
   179
100
AcDbLine
 10
1644.6605427625
 20
7954.1022052786
 30
0.0
 11
1475.390327491
 21
7843.7545704421
 31
0.0
  0
LINE
  5
17C
330
136
100
AcDbEntity
  8
0
  6
Continuous
 62
   179
100
AcDbLine
 10
1475.390327491
 20
7843.7545704421
 30
0.0
 11
1317.6231711996
 21
7717.507163895
 31
0.0
  0
LINE
  5
17D
330
136
100
AcDbEntity
  8
0
  6
Continuous
 62
   179
100
AcDbLine
 10
1317.6231711996
 20
7717.507163895
 30
0.0
 11
1139.538084005
 21
7540.9583629978
 31
0.0
  0
LINE
  5
17E
330
136
100
AcDbEntity
  8
0
  6
Continuous
 62
   179
100
AcDbLine
 10
1139.538084005
 20
7540.9583629978
 30
0.0
 11
983.4661868123
 21
7344.6865403276
 31
0.0
  0
LINE
  5
17F
330
136
100
AcDbEntity
  8
0
  6
Continuous
 62
   179
100
AcDbLine
 10
983.4661868123
 20
7344.6865403276
 30
0.0
 11
851.5325681984
 21
7131.4315088069
 31
0.0
  0
LINE
  5
180
330
136
100
AcDbEntity
  8
0
  6
Continuous
 62
   179
100
AcDbLine
 10
851.5325681984
 20
7131.4315088069
 30
0.0
 11
744.4774564036
 21
6904.647070365
 31
0.0
  0
LINE
  5
181
330
136
100
AcDbEntity
  8
0
  6
Continuous
 62
   179
100
AcDbLine
 10
744.4774564036
 20
6904.647070365
 30
0.0
 11
658.3392621499
 21
6656.4327422403
 31
0.0
  0
LINE
  5
182
330
136
100
AcDbEntity
  8
0
  6
Continuous
 62
   179
100
AcDbLine
 10
658.3392621499
 20
6656.4327422403
 30
0.0
 11
596.9943576213
 21
6400.9335325463
 31
0.0
  0
LINE
  5
183
330
136
100
AcDbEntity
  8
0
  6
Continuous
 62
   179
100
AcDbLine
 10
596.9943576213
 20
6400.9335325463
 30
0.0
 11
557.9730775995
 21
6141.0651554946
 31
0.0
  0
LINE
  5
184
330
136
100
AcDbEntity
  8
0
  6
Continuous
 62
   179
100
AcDbLine
 10
557.9730775995
 20
6141.0651554946
 30
0.0
 11
538.0293793386
 21
5893.0807139359
 31
0.0
  0
LINE
  5
185
330
136
100
AcDbEntity
  8
0
  6
Continuous
 62
   179
100
AcDbLine
 10
538.0293793386
 20
5893.0807139359
 30
0.0
 11
537.9155556826
 21
5644.3161034396
 31
0.0
  0
LINE
  5
186
330
136
100
AcDbEntity
  8
0
  6
Continuous
 62
   179
100
AcDbLine
 10
537.9155556826
 20
5644.3161034396
 30
0.0
 11
561.0465619986
 21
5396.6565041751
 31
0.0
  0
LINE
  5
187
330
136
100
AcDbEntity
  8
0
  6
Continuous
 62
   179
100
AcDbLine
 10
561.0465619986
 20
5396.6565041751
 30
0.0
 11
610.8365836731
 21
5152.9862283491
 31
0.0
  0
LINE
  5
188
330
136
100
AcDbEntity
  8
0
  6
Continuous
 62
   179
100
AcDbLine
 10
610.8365836731
 20
5152.9862283491
 30
0.0
 11
670.4957765389
 21
4966.8752015955
 31
0.0
  0
LINE
  5
189
330
136
100
AcDbEntity
  8
0
  6
Continuous
 62
   179
100
AcDbLine
 10
670.4957765389
 20
4966.8752015955
 30
0.0
 11
749.0385092576
 21
4787.922755338
 31
0.0
  0
LINE
  5
18A
330
136
100
AcDbEntity
  8
0
  6
Continuous
 62
   179
100
AcDbLine
 10
749.0385092576
 20
4787.922755338
 30
0.0
 11
846.3298658912
 21
4618.4358151253
 31
0.0
  0
LINE
  5
18B
330
136
100
AcDbEntity
  8
0
  6
Continuous
 62
   179
100
AcDbLine
 10
846.3298658912
 20
4618.4358151253
 30
0.0
 11
961.3271095996
 21
4460.4233554942
 31
0.0
  0
LINE
  5
18C
330
136
100
AcDbEntity
  8
0
  6
Continuous
 62
   179
100
AcDbLine
 10
1593.2484263997
 20
3794.8892026942
 30
0.0
 11
2342.8146692
 21
3099.1034974946
 31
0.0
  0
LINE
  5
18D
330
136
100
AcDbEntity
  8
0
  6
Continuous
 62
   179
100
AcDbLine
 10
2342.8146692
 20
3099.1034974946
 30
0.0
 11
2457.4150864402
 21
2985.4804965343
 31
0.0
  0
LINE
  5
18E
330
136
100
AcDbEntity
  8
0
  6
Continuous
 62
   179
100
AcDbLine
 10
2457.4150864402
 20
2985.4804965343
 30
0.0
 11
2562.4777930784
 21
2863.0062246075
 31
0.0
  0
LINE
  5
18F
330
136
100
AcDbEntity
  8
0
  6
Continuous
 62
   179
100
AcDbLine
 10
2562.4777930784
 20
2863.0062246075
 30
0.0
 11
2654.9628244148
 21
2730.8077708033
 31
0.0
  0
LINE
  5
190
330
136
100
AcDbEntity
  8
0
  6
Continuous
 62
   179
100
AcDbLine
 10
2654.9628244148
 20
2730.8077708033
 30
0.0
 11
2730.9070108725
 21
2588.5028322591
 31
0.0
  0
LINE
  5
191
330
136
100
AcDbEntity
  8
0
  6
Continuous
 62
   179
100
AcDbLine
 10
2730.9070108725
 20
2588.5028322591
 30
0.0
 11
2787.6392767372
 21
2429.3959416825
 31
0.0
  0
LINE
  5
192
330
136
100
AcDbEntity
  8
0
  6
Continuous
 62
   179
100
AcDbLine
 10
2787.6392767372
 20
2429.3959416825
 30
0.0
 11
2816.0412804487
 21
2262.9265767885
 31
0.0
  0
LINE
  5
193
330
136
100
AcDbEntity
  8
0
  6
Continuous
 62
   179
100
AcDbLine
 10
2816.0412804487
 20
2262.9265767885
 30
0.0
 11
2813.3943732
 21
2094.0797010946
 31
0.0
  0
LINE
  5
194
330
136
100
AcDbEntity
  8
0
  6
Continuous
 62
   179
100
AcDbLine
 10
2171.3892056002
 20
1438.629399097
 30
0.0
 11
2081.3271648151
 21
1444.5220285234
 31
0.0
  0
LINE
  5
195
330
136
100
AcDbEntity
  8
0
  6
Continuous
 62
   179
100
AcDbLine
 10
2081.3271648151
 20
1444.5220285234
 30
0.0
 11
1993.3677378413
 21
1464.5260106363
 31
0.0
  0
LINE
  5
196
330
136
100
AcDbEntity
  8
0
  6
Continuous
 62
   179
100
AcDbLine
 10
1993.3677378413
 20
1464.5260106363
 30
0.0
 11
1911.3435803354
 21
1501.9115152047
 31
0.0
  0
LINE
  5
197
330
136
100
AcDbEntity
  8
0
  6
Continuous
 62
   179
100
AcDbLine
 10
1911.3435803354
 20
1501.9115152047
 30
0.0
 11
1840.5450992733
 21
1557.6494251181
 31
0.0
  0
LINE
  5
198
330
136
100
AcDbEntity
  8
0
  6
Continuous
 62
   179
100
AcDbLine
 10
1840.5450992733
 20
1557.6494251181
 30
0.0
 11
1785.0445168711
 21
1628.6751044787
 31
0.0
  0
LINE
  5
199
330
136
100
AcDbEntity
  8
0
  6
Continuous
 62
   179
100
AcDbLine
 10
1785.0445168711
 20
1628.6751044787
 30
0.0
 11
1745.2817682865
 21
1709.6405469696
 31
0.0
  0
LINE
  5
19A
330
136
100
AcDbEntity
  8
0
  6
Continuous
 62
   179
100
AcDbLine
 10
1745.2817682865
 20
1709.6405469696
 30
0.0
 11
1710.0353127013
 21
1840.2386565146
 31
0.0
  0
LINE
  5
19B
330
136
100
AcDbEntity
  8
0
  6
Continuous
 62
   179
100
AcDbLine
 10
1710.0353127013
 20
1840.2386565146
 30
0.0
 11
1696.0216688059
 21
1974.8977537186
 31
0.0
  0
LINE
  5
19C
330
136
100
AcDbEntity
  8
0
  6
Continuous
 62
   179
100
AcDbLine
 10
1696.0216688059
 20
1974.8977537186
 30
0.0
 11
1696.5924840549
 21
2110.3283975811
 31
0.0
  0
LINE
  5
19D
330
136
100
AcDbEntity
  8
0
  6
Continuous
 62
   179
100
AcDbLine
 10
1696.5924840549
 20
2110.3283975811
 30
0.0
 11
1707.5320688
 21
2245.3374630946
 31
0.0
  0
LINE
  5
19E
330
136
100
AcDbEntity
  8
0
  6
Continuous
 62
   179
100
AcDbLine
 10
1707.5320688
 20
2245.3374630946
 30
0.0
 11
1781.480308
 21
2897.4264814946
 31
0.0
  0
LINE
  5
19F
330
136
100
AcDbEntity
  8
0
  6
Continuous
 62
   179
100
AcDbLine
 10
1781.480308
 20
2897.4264814946
 30
0.0
 11
94.1159408
 21
2897.4264814946
 31
0.0
  0
LINE
  5
1A0
330
136
100
AcDbEntity
  8
0
  6
Continuous
 62
   179
100
AcDbLine
 10
94.1159408
 20
2897.4264814946
 30
0.0
 11
26.8902688
 21
2295.7567170946
 31
0.0
  0
LINE
  5
1A1
330
136
100
AcDbEntity
  8
0
  6
Continuous
 62
   179
100
AcDbLine
 10
26.8902688
 20
2295.7567170946
 30
0.0
 11
5.8201226117
 21
2068.3689705604
 31
0.0
  0
LINE
  5
1A2
330
136
100
AcDbEntity
  8
0
  6
Continuous
 62
   179
100
AcDbLine
 10
5.8201226117
 20
2068.3689705604
 30
0.0
 11
0.0
 21
1889.0414014946
 31
0.0
  0
LINE
  5
1A3
330
136
100
AcDbEntity
  8
0
  6
Continuous
 62
   179
100
AcDbLine
 10
0.0
 20
1889.0414014946
 30
0.0
 11
0.0
 21
1788.2028934946
 31
0.0
  0
LINE
  5
1A4
330
136
100
AcDbEntity
  8
0
  6
Continuous
 62
   179
100
AcDbLine
 10
0.0
 20
1788.2028934946
 30
0.0
 11
8.4741181851
 21
1597.5992610857
 31
0.0
  0
LINE
  5
1A5
330
136
100
AcDbEntity
  8
0
  6
Continuous
 62
   179
100
AcDbLine
 10
8.4741181851
 20
1597.5992610857
 30
0.0
 11
29.9475321698
 21
1408.0255515191
 31
0.0
  0
LINE
  5
1A6
330
136
100
AcDbEntity
  8
0
  6
Continuous
 62
   179
100
AcDbLine
 10
29.9475321698
 20
1408.0255515191
 30
0.0
 11
66.5196177454
 21
1220.7936775914
 31
0.0
  0
LINE
  5
1A7
330
136
100
AcDbEntity
  8
0
  6
Continuous
 62
   179
100
AcDbLine
 10
66.5196177454
 20
1220.7936775914
 30
0.0
 11
120.5660601196
 21
1037.8592313249
 31
0.0
  0
LINE
  5
1A8
330
136
100
AcDbEntity
  8
0
  6
Continuous
 62
   179
100
AcDbLine
 10
120.5660601196
 20
1037.8592313249
 30
0.0
 11
194.3311383855
 21
861.9730900702
 31
0.0
  0
LINE
  5
1A9
330
136
100
AcDbEntity
  8
0
  6
Continuous
 62
   179
100
AcDbLine
 10
194.3311383855
 20
861.9730900702
 30
0.0
 11
287.5295606573
 21
699.5021482411
 31
0.0
  0
LINE
  5
1AA
330
136
100
AcDbEntity
  8
0
  6
Continuous
 62
   179
100
AcDbLine
 10
287.5295606573
 20
699.5021482411
 30
0.0
 11
401.5974373649
 21
550.9580491856
 31
0.0
  0
LINE
  5
1AB
330
136
100
AcDbEntity
  8
0
  6
Continuous
 62
   179
100
AcDbLine
 10
401.5974373649
 20
550.9580491856
 30
0.0
 11
535.1901037299
 21
419.6995230367
 31
0.0
  0
LINE
  5
1AC
330
136
100
AcDbEntity
  8
0
  6
Continuous
 62
   179
100
AcDbLine
 10
535.1901037299
 20
419.6995230367
 30
0.0
 11
685.4525519751
 21
307.8901613371
 31
0.0
  0
LINE
  5
1AD
330
136
100
AcDbEntity
  8
0
  6
Continuous
 62
   179
100
AcDbLine
 10
685.4525519751
 20
307.8901613371
 30
0.0
 11
880.9909831936
 21
200.7980430706
 31
0.0
  0
LINE
  5
1AE
330
136
100
AcDbEntity
  8
0
  6
Continuous
 62
   179
100
AcDbLine
 10
880.9909831936
 20
200.7980430706
 30
0.0
 11
1088.9648544967
 21
120.3523112471
 31
0.0
  0
LINE
  5
1AF
330
136
100
AcDbEntity
  8
0
  6
Continuous
 62
   179
100
AcDbLine
 10
1088.9648544967
 20
120.3523112471
 30
0.0
 11
1304.5983771836
 21
63.4027511638
 31
0.0
  0
LINE
  5
1B0
330
136
100
AcDbEntity
  8
0
  6
Continuous
 62
   179
100
AcDbLine
 10
1304.5983771836
 20
63.4027511638
 30
0.0
 11
1524.5667113278
 21
26.4353113751
 31
0.0
  0
LINE
  5
1B1
330
136
100
AcDbEntity
  8
0
  6
Continuous
 62
   179
100
AcDbLine
 10
1524.5667113278
 20
26.4353113751
 30
0.0
 11
1746.7181907984
 21
6.2021311101
 31
0.0
  0
LINE
  5
1B2
330
136
100
AcDbEntity
  8
0
  6
Continuous
 62
   179
100
AcDbLine
 10
1746.7181907984
 20
6.2021311101
 30
0.0
 11
1969.7121896
 21
0.0000182946
 31
0.0
  0
LINE
  5
1B3
330
136
100
AcDbEntity
  8
0
  6
Continuous
 62
   179
100
AcDbLine
 10
1969.7121896
 20
0.0000182946
 30
0.0
 11
2235.4163107967
 21
9.0474941519
 31
0.0
  0
LINE
  5
1B4
330
136
100
AcDbEntity
  8
0
  6
Continuous
 62
   179
100
AcDbLine
 10
2235.4163107967
 20
9.0474941519
 30
0.0
 11
2499.6874650753
 21
37.9033605802
 31
0.0
  0
LINE
  5
1B5
330
136
100
AcDbEntity
  8
0
  6
Continuous
 62
   179
100
AcDbLine
 10
2499.6874650753
 20
37.9033605802
 30
0.0
 11
2760.5117042792
 21
89.204615755
 31
0.0
  0
LINE
  5
1B6
330
136
100
AcDbEntity
  8
0
  6
Continuous
 62
   179
100
AcDbLine
 10
2760.5117042792
 20
89.204615755
 30
0.0
 11
3015.1415277313
 21
165.4438899665
 31
0.0
  0
LINE
  5
1B7
330
136
100
AcDbEntity
  8
0
  6
Continuous
 62
   179
100
AcDbLine
 10
3015.1415277313
 20
165.4438899665
 30
0.0
 11
3208.6236023082
 21
244.1201341123
 31
0.0
  0
LINE
  5
1B8
330
136
100
AcDbEntity
  8
0
  6
Continuous
 62
   179
100
AcDbLine
 10
3208.6236023082
 20
244.1201341123
 30
0.0
 11
3394.246790929
 21
339.8610540042
 31
0.0
  0
LINE
  5
1B9
330
136
100
AcDbEntity
  8
0
  6
Continuous
 62
   179
100
AcDbLine
 10
3394.246790929
 20
339.8610540042
 30
0.0
 11
3570.08287903
 21
452.5651803685
 31
0.0
  0
LINE
  5
1BA
330
136
100
AcDbEntity
  8
0
  6
Continuous
 62
   179
100
AcDbLine
 10
3570.08287903
 20
452.5651803685
 30
0.0
 11
3734.3860796
 21
581.5020810946
 31
0.0
  0
LINE
  5
1BB
330
136
100
AcDbEntity
  8
0
  6
Continuous
 62
   179
100
AcDbLine
 10
3734.3860796
 20
581.5020810946
 30
0.0
 11
3918.9619613187
 21
762.6068684982
 31
0.0
  0
LINE
  5
1BC
330
136
100
AcDbEntity
  8
0
  6
Continuous
 62
   179
100
AcDbLine
 10
3918.9619613187
 20
762.6068684982
 30
0.0
 11
4080.6115034165
 21
964.4332031658
 31
0.0
  0
LINE
  5
1BD
330
136
100
AcDbEntity
  8
0
  6
Continuous
 62
   179
100
AcDbLine
 10
4080.6115034165
 20
964.4332031658
 30
0.0
 11
4217.129324297
 21
1184.0491590435
 31
0.0
  0
LINE
  5
1BE
330
136
100
AcDbEntity
  8
0
  6
Continuous
 62
   179
100
AcDbLine
 10
4217.129324297
 20
1184.0491590435
 30
0.0
 11
4327.807798901
 21
1417.7744861233
 31
0.0
  0
LINE
  5
1BF
330
136
100
AcDbEntity
  8
0
  6
Continuous
 62
   179
100
AcDbLine
 10
4327.807798901
 20
1417.7744861233
 30
0.0
 11
4416.8403522579
 21
1673.6616360853
 31
0.0
  0
LINE
  5
1C0
330
136
100
AcDbEntity
  8
0
  6
Continuous
 62
   179
100
AcDbLine
 10
4416.8403522579
 20
1673.6616360853
 30
0.0
 11
4480.332478423
 21
1937.0776350384
 31
0.0
  0
LINE
  5
1C1
330
136
100
AcDbEntity
  8
0
  6
Continuous
 62
   179
100
AcDbLine
 10
4480.332478423
 20
1937.0776350384
 30
0.0
 11
4520.926442
 21
2205.0020598946
 31
0.0
  0
LINE
  5
1C2
330
136
100
AcDbEntity
  8
0
  6
Continuous
 62
   179
100
AcDbLine
 10
4520.926442
 20
2205.0020598946
 30
0.0
 11
4539.8604791128
 21
2434.751251137
 31
0.0
  0
LINE
  5
1C3
330
136
100
AcDbEntity
  8
0
  6
Continuous
 62
   179
100
AcDbLine
 10
4539.8604791128
 20
2434.751251137
 30
0.0
 11
4542.0136171636
 21
2665.2555763504
 31
0.0
  0
LINE
  5
1C4
330
136
100
AcDbEntity
  8
0
  6
Continuous
 62
   179
100
AcDbLine
 10
4542.0136171636
 20
2665.2555763504
 30
0.0
 11
4524.9874932226
 21
2895.1234497405
 31
0.0
  0
LINE
  5
1C5
330
136
100
AcDbEntity
  8
0
  6
Continuous
 62
   179
100
AcDbLine
 10
4524.9874932226
 20
2895.1234497405
 30
0.0
 11
4496.6310776622
 21
3074.0098021703
 31
0.0
  0
LINE
  5
1C6
330
136
100
AcDbEntity
  8
0
  6
Continuous
 62
   179
100
AcDbLine
 10
4496.6310776622
 20
3074.0098021703
 30
0.0
 11
4454.0379981851
 21
3250.0430485054
 31
0.0
  0
LINE
  5
1C7
330
136
100
AcDbEntity
  8
0
  6
Continuous
 62
   179
100
AcDbLine
 10
4454.0379981851
 20
3250.0430485054
 30
0.0
 11
4396.5589488
 21
3421.7867230946
 31
0.0
  0
LINE
  5
1C8
330
136
100
AcDbEntity
  8
0
  6
Continuous
 62
   179
100
AcDbLine
 10
4396.5589488
 20
3421.7867230946
 30
0.0
 11
4335.0775798529
 21
3551.3591107413
 31
0.0
  0
LINE
  5
1C9
330
136
100
AcDbEntity
  8
0
  6
Continuous
 62
   179
100
AcDbLine
 10
4335.0775798529
 20
3551.3591107413
 30
0.0
 11
4262.2002057756
 21
3674.9188547719
 31
0.0
  0
LINE
  5
1CA
330
136
100
AcDbEntity
  8
0
  6
Continuous
 62
   179
100
AcDbLine
 10
4262.2002057756
 20
3674.9188547719
 30
0.0
 11
4181.3183894369
 21
3793.4113089372
 31
0.0
  0
LINE
  5
1CB
330
136
100
AcDbEntity
  8
0
  6
Continuous
 62
   179
100
AcDbLine
 10
4181.3183894369
 20
3793.4113089372
 30
0.0
 11
4078.5227471571
 21
3927.6643628842
 31
0.0
  0
LINE
  5
1CC
330
136
100
AcDbEntity
  8
0
  6
Continuous
 62
   179
100
AcDbLine
 10
4078.5227471571
 20
3927.6643628842
 30
0.0
 11
3969.6759316
 21
4057.0693234946
 31
0.0
  0
LINE
  5
1CD
330
136
100
AcDbEntity
  8
0
  6
Continuous
 62
   179
100
AcDbLine
 10
3969.6759316
 20
4057.0693234946
 30
0.0
 11
3243.638674
 21
4803.2742826946
 31
0.0
  0
LINE
  5
1CE
330
136
100
AcDbEntity
  8
0
  6
Continuous
 62
   179
100
AcDbLine
 10
2467.1821623981
 20
5616.7049138995
 30
0.0
 11
2391.5759134121
 21
5727.7039441288
 31
0.0
  0
LINE
  5
1CF
330
136
100
AcDbEntity
  8
0
  6
Continuous
 62
   179
100
AcDbLine
 10
2391.5759134121
 20
5727.7039441288
 30
0.0
 11
2326.9023872324
 21
5845.3828817498
 31
0.0
  0
LINE
  5
1D0
330
136
100
AcDbEntity
  8
0
  6
Continuous
 62
   179
100
AcDbLine
 10
2326.9023872324
 20
5845.3828817498
 30
0.0
 11
2276.7855321171
 21
5969.9206549293
 31
0.0
  0
LINE
  5
1D1
330
136
100
AcDbEntity
  8
0
  6
Continuous
 62
   179
100
AcDbLine
 10
2276.7855321171
 20
5969.9206549293
 30
0.0
 11
2250.5432565423
 21
6072.0904771882
 31
0.0
  0
LINE
  5
1D2
330
136
100
AcDbEntity
  8
0
  6
Continuous
 62
   179
100
AcDbLine
 10
2250.5432565423
 20
6072.0904771882
 30
0.0
 11
2238.3532498759
 21
6176.8496579539
 31
0.0
  0
LINE
  5
1D3
330
136
100
AcDbEntity
  8
0
  6
Continuous
 62
   179
100
AcDbLine
 10
2238.3532498759
 20
6176.8496579539
 30
0.0
 11
2241.9761612
 21
6282.2390666946
 31
0.0
  0
LINE
  5
1D4
330
136
100
AcDbEntity
  8
0
  6
Continuous
 62
   179
100
AcDbLine
 10
2813.394373201
 20
6877.1862638961
 30
0.0
 11
2899.1450330725
 21
6871.9159884789
 31
0.0
  0
LINE
  5
1D5
330
136
100
AcDbEntity
  8
0
  6
Continuous
 62
   179
100
AcDbLine
 10
2899.1450330725
 20
6871.9159884789
 30
0.0
 11
2983.1458702521
 21
6854.0846279821
 31
0.0
  0
LINE
  5
1D6
330
136
100
AcDbEntity
  8
0
  6
Continuous
 62
   179
100
AcDbLine
 10
2983.1458702521
 20
6854.0846279821
 30
0.0
 11
3062.202014936
 21
6820.6931120196
 31
0.0
  0
LINE
  5
1D7
330
136
100
AcDbEntity
  8
0
  6
Continuous
 62
   179
100
AcDbLine
 10
3062.202014936
 20
6820.6931120196
 30
0.0
 11
3131.6623634801
 21
6770.3629356214
 31
0.0
  0
LINE
  5
1D8
330
136
100
AcDbEntity
  8
0
  6
Continuous
 62
   179
100
AcDbLine
 10
3131.6623634801
 20
6770.3629356214
 30
0.0
 11
3187.37124796
 21
6705.1184696235
 31
0.0
  0
LINE
  5
1D9
330
136
100
AcDbEntity
  8
0
  6
Continuous
 62
   179
100
AcDbLine
 10
3187.37124796
 20
6705.1184696235
 30
0.0
 11
3228.1274776793
 21
6629.5646068072
 31
0.0
  0
LINE
  5
1DA
330
136
100
AcDbEntity
  8
0
  6
Continuous
 62
   179
100
AcDbLine
 10
3228.1274776793
 20
6629.5646068072
 30
0.0
 11
3265.0334180049
 21
6506.2441361359
 31
0.0
  0
LINE
  5
1DB
330
136
100
AcDbEntity
  8
0
  6
Continuous
 62
   179
100
AcDbLine
 10
3265.0334180049
 20
6506.2441361359
 30
0.0
 11
3280.3602104272
 21
6378.3104742822
 31
0.0
  0
LINE
  5
1DC
330
136
100
AcDbEntity
  8
0
  6
Continuous
 62
   179
100
AcDbLine
 10
3280.3602104272
 20
6378.3104742822
 30
0.0
 11
3280.7520241623
 21
6249.4122034737
 31
0.0
  0
LINE
  5
1DD
330
136
100
AcDbEntity
  8
0
  6
Continuous
 62
   179
100
AcDbLine
 10
3280.7520241623
 20
6249.4122034737
 30
0.0
 11
3270.5289428
 21
6120.8974538946
 31
0.0
  0
LINE
  5
1DE
330
136
100
AcDbEntity
  8
0
  6
Continuous
 62
   179
100
AcDbLine
 10
3270.5289428
 20
6120.8974538946
 30
0.0
 11
3206.6645544
 21
5566.2856598946
 31
0.0
  0
LINE
  5
1DF
330
136
100
AcDbEntity
  8
0
  6
Continuous
 62
   179
100
AcDbLine
 10
3206.6645544
 20
5566.2856598946
 30
0.0
 11
4820.0806824005
 21
5566.2856598945
 31
0.0
  0
LINE
  5
1E0
330
136
100
AcDbEntity
  8
0
  6
Continuous
 62
   179
100
AcDbLine
 10
4820.0806824005
 20
5566.2856598945
 30
0.0
 11
4894.0289216005
 21
6231.8198126945
 31
0.0
  0
LINE
  5
1E1
330
136
100
AcDbEntity
  8
0
  6
Continuous
 62
   179
100
AcDbLine
 10
4894.0289216005
 20
6231.8198126945
 30
0.0
 11
4907.4740560005
 21
6366.2711566946
 31
0.0
  0
LINE
  5
1E2
330
136
100
AcDbEntity
  8
0
  6
Continuous
 62
   179
100
AcDbLine
 10
4907.4740560005
 20
6366.2711566946
 30
0.0
 11
4917.4861623745
 21
6641.1377165616
 31
0.0
  0
LINE
  5
1E3
330
136
100
AcDbEntity
  8
0
  6
Continuous
 62
   179
100
AcDbLine
 10
4917.4861623745
 20
6641.1377165616
 30
0.0
 11
4907.4740560005
 21
6857.0185622947
 31
0.0
  0
LINE
  5
1E4
330
136
100
AcDbEntity
  8
0
  6
Continuous
 62
   179
100
AcDbLine
 10
24964.5491205926
 20
0.0000125144
 30
0.0
 11
26583.7619200447
 21
0.0000125144
 31
0.0
  0
LINE
  5
1E5
330
136
100
AcDbEntity
  8
0
  6
Continuous
 62
   179
100
AcDbLine
 10
24964.5491205926
 20
1424.0948297115
 30
0.0
 11
24964.5491205926
 21
0.0000125144
 31
0.0
  0
LINE
  5
1E6
330
136
100
AcDbEntity
  8
0
  6
Continuous
 62
   179
100
AcDbLine
 10
25016.6135325926
 20
7008.8707569115
 30
0.0
 11
24971.491042193
 21
3444.1940153109
 31
0.0
  0
LINE
  5
1E7
330
136
100
AcDbEntity
  8
0
  6
Continuous
 62
   179
100
AcDbLine
 10
24180.1119797926
 20
3343.5361521115
 30
0.0
 11
25016.6135325926
 21
7008.8707569115
 31
0.0
  0
LINE
  5
1E8
330
136
100
AcDbEntity
  8
0
  6
Continuous
 62
   179
100
AcDbLine
 10
23399.1457997926
 20
0.0000125144
 30
0.0
 11
23791.3643701938
 21
1694.8297721102
 31
0.0
  0
LINE
  5
1E9
330
136
100
AcDbEntity
  8
0
  6
Continuous
 62
   179
100
AcDbLine
 10
21618.5429093926
 20
0.0000125144
 30
0.0
 11
23399.1457997926
 21
0.0000125144
 31
0.0
  0
LINE
  5
1EA
330
136
100
AcDbEntity
  8
0
  6
Continuous
 62
   179
100
AcDbLine
 10
23986.756270993
 20
8289.6552921115
 30
0.0
 11
21618.5429093926
 21
0.0000125144
 31
0.0
  0
LINE
  5
1EB
330
136
100
AcDbEntity
  8
0
  6
Continuous
 62
   179
100
AcDbLine
 10
26353.951536593
 20
8289.6552921115
 30
0.0
 11
23986.756270993
 21
8289.6552921115
 31
0.0
  0
LINE
  5
1EC
330
136
100
AcDbEntity
  8
0
  6
Continuous
 62
   179
100
AcDbLine
 10
26583.7619200447
 20
0.0000125144
 30
0.0
 11
26353.951536593
 21
8289.6552921115
 31
0.0
  0
ENDBLK
  5
138
330
136
100
AcDbEntity
  8
0
100
AcDbBlockEnd
  0
BLOCK
  5
1EE
330
1ED
100
AcDbEntity
  8
0
100
AcDbBlockBegin
  2
Projekciju vaizdavimas_2
 70
     0
 10
0.0
 20
0.0
 30
0.0
  3
Projekciju vaizdavimas_2
  1

  0
CIRCLE
  5
1F0
330
1ED
100
AcDbEntity
  8
0
  6
Continuous
 62
     7
370
    30
100
AcDbCircle
 10
0.0
 20
0.0
 30
0.0
 40
3.5
  0
CIRCLE
  5
1F1
330
1ED
100
AcDbEntity
  8
0
  6
Continuous
 62
     7
370
    30
100
AcDbCircle
 10
0.0
 20
0.0
 30
0.0
 40
1.5
  0
LINE
  5
1F2
330
1ED
100
AcDbEntity
  8
0
  6
CENTERX2
 62
     7
370
     0
100
AcDbLine
 10
4.5
 20
0.0
 30
0.0
 11
-14.5
 21
0.0
 31
0.0
  0
LINE
  5
1F3
330
1ED
100
AcDbEntity
  8
0
  6
Continuous
 62
     7
370
    30
100
AcDbLine
 10
-13.5
 20
1.5
 30
0.0
 11
-13.5
 21
-1.5
 31
0.0
  0
LINE
  5
1F4
330
1ED
100
AcDbEntity
  8
0
  6
Continuous
 62
     7
370
    30
100
AcDbLine
 10
-13.5
 20
-1.5
 30
0.0
 11
-6.5
 21
-3.5
 31
0.0
  0
LINE
  5
1F5
330
1ED
100
AcDbEntity
  8
0
  6
Continuous
 62
     7
370
    30
100
AcDbLine
 10
-6.5
 20
-3.5
 30
0.0
 11
-6.5
 21
3.5
 31
0.0
  0
LINE
  5
1F6
330
1ED
100
AcDbEntity
  8
0
  6
Continuous
 62
     7
370
    30
100
AcDbLine
 10
-6.5
 20
3.5
 30
0.0
 11
-13.5
 21
1.5
 31
0.0
  0
LINE
  5
1F7
330
1ED
100
AcDbEntity
  8
0
  6
CENTERX2
 62
     7
370
     0
100
AcDbLine
 10
0.0
 20
4.5
 30
0.0
 11
0.0
 21
-4.5
 31
0.0
  0
ENDBLK
  5
1EF
330
1ED
100
AcDbEntity
  8
0
100
AcDbBlockEnd
  0
BLOCK
  5
1F9
330
1F8
100
AcDbEntity
  8
0
100
AcDbBlockBegin
  2
Block4
 70
     0
 10
0.0
 20
0.0
 30
0.0
  3
Block4
  1

  0
ARC
  5
1FB
330
1F8
100
AcDbEntity
  8
0
  6
Continuous
 62
   179
100
AcDbCircle
 10
7867.6649029635
 20
2430.1355419087
 30
0.0
 40
931.6078627493895
100
AcDbArc
 50
232.1189098069
 51
101.3462704492
  0
ARC
  5
1FC
330
1F8
100
AcDbEntity
  8
0
  6
Continuous
 62
   179
100
AcDbCircle
 10
7943.5514462269
 20
2435.9613946537
 30
0.0
 40
1140.079096555486
100
AcDbArc
 50
297.434182935
 51
62.17203318890002
  0
ARC
  5
1FD
330
1F8
100
AcDbEntity
  8
0
  6
Continuous
 62
   179
100
AcDbCircle
 10
20001.4103066854
 20
6936.2583481763
 30
0.0
 40
1270.831290716854
100
AcDbArc
 50
3.4391112699
 51
76.4197578922
  0
ARC
  5
1FE
330
1F8
100
AcDbEntity
  8
0
  6
Continuous
 62
   179
100
AcDbCircle
 10
19239.4822949422
 20
3782.0667000728
 30
0.0
 40
4515.74411667143
100
AcDbArc
 50
76.4197578923
 51
91.6754644339
  0
ARC
  5
1FF
330
1F8
100
AcDbEntity
  8
0
  6
Continuous
 62
   179
100
AcDbCircle
 10
18683.9539720184
 20
2160.1911622497
 30
0.0
 40
2139.476369555804
100
AcDbArc
 50
270.3210228954001
 51
307.7127911617
  0
ARC
  5
200
330
1F8
100
AcDbEntity
  8
0
  6
Continuous
 62
   179
100
AcDbCircle
 10
18746.0422061702
 20
1962.8216117468
 30
0.0
 40
1946.678009873842
100
AcDbArc
 50
309.8210667380999
 51
331.7017265911999
  0
ARC
  5
201
330
1F8
100
AcDbEntity
  8
0
  6
Continuous
 62
   179
100
AcDbCircle
 10
17863.1917469523
 20
2438.1532894658
 30
0.0
 40
2949.35698999881
100
AcDbArc
 50
331.7017265911999
 51
356.0927915539
  0
ARC
  5
202
330
1F8
100
AcDbEntity
  8
0
  6
Continuous
 62
   179
100
AcDbCircle
 10
16755.7856245826
 20
6709.226497343
 30
0.0
 40
4524.342739831098
100
AcDbArc
 50
353.5830630921
 51
3.8434115591
  0
ARC
  5
203
330
1F8
100
AcDbEntity
  8
0
  6
Continuous
 62
   179
100
AcDbCircle
 10
19039.3213693035
 20
6348.9928357667
 30
0.0
 40
506.1072723730909
100
AcDbArc
 50
52.45518083769999
 51
82.2716960779
  0
ARC
  5
204
330
1F8
100
AcDbEntity
  8
0
  6
Continuous
 62
   179
100
AcDbCircle
 10
19108.0528552878
 20
6495.6270812425
 30
0.0
 40
349.7025539282703
100
AcDbArc
 50
10.4012874263
 51
46.7340603611
  0
ARC
  5
205
330
1F8
100
AcDbEntity
  8
0
  6
Continuous
 62
   179
100
AcDbCircle
 10
17417.0070420698
 20
6262.2496105517
 30
0.0
 40
2056.490362340239
100
AcDbArc
 50
355.475249592
 51
8.290034904
  0
ARC
  5
206
330
1F8
100
AcDbEntity
  8
0
  6
Continuous
 62
   179
100
AcDbCircle
 10
16921.0810184775
 20
2478.8840573259
 30
0.0
 40
2122.330793892779
100
AcDbArc
 50
339.2065439429
 51
352.3366543813
  0
ARC
  5
207
330
1F8
100
AcDbEntity
  8
0
  6
Continuous
 62
   179
100
AcDbCircle
 10
18500.143747488
 20
1898.8589115903
 30
0.0
 40
440.5904503964751
100
AcDbArc
 50
293.838270217
 51
336.8232513296001
  0
ARC
  5
208
330
1F8
100
AcDbEntity
  8
0
  6
Continuous
 62
   179
100
AcDbCircle
 10
18201.1477532386
 20
2813.3138324813
 30
0.0
 40
1401.173285533761
100
AcDbArc
 50
267.1686990927
 51
289.9057704419
  0
ARC
  5
209
330
1F8
100
AcDbEntity
  8
0
  6
Continuous
 62
   179
100
AcDbCircle
 10
18751.2701169541
 20
4514.9970927066
 30
0.0
 40
2362.499275286643
100
AcDbArc
 50
81.3304997955
 51
90.0
  0
ARC
  5
20A
330
1F8
100
AcDbEntity
  8
0
  6
Continuous
 62
   179
100
AcDbCircle
 10
6720.6044375296
 20
9296.0579653158
 30
0.0
 40
7520.148763137153
100
AcDbArc
 50
220.017667739
 51
227.0143029097
  0
ARC
  5
20B
330
1F8
100
AcDbEntity
  8
0
  6
Continuous
 62
   179
100
AcDbCircle
 10
2021.3892535935
 20
2163.6755564521
 30
0.0
 40
795.0570373035339
100
AcDbArc
 50
316.8708555891
 51
354.9781479006
  0
ARC
  5
20C
330
1F8
100
AcDbEntity
  8
0
  6
Continuous
 62
   179
100
AcDbCircle
 10
2182.9124170468
 20
2011.9889486322
 30
0.0
 40
573.4753329004777
100
AcDbArc
 50
268.8486412909
 51
316.8986890901
  0
ARC
  5
20D
330
1F8
100
AcDbEntity
  8
0
  6
Continuous
 62
   179
100
AcDbCircle
 10
10525.696072633
 20
12531.6259047731
 30
0.0
 40
10618.65239809051
100
AcDbArc
 50
220.6325257886
 51
226.7030345034
  0
ARC
  5
20E
330
1F8
100
AcDbEntity
  8
0
  6
Continuous
 62
   179
100
AcDbCircle
 10
2962.700769446
 20
6223.5867799529
 30
0.0
 40
723.1072200381735
100
AcDbArc
 50
137.8203941731
 51
175.3475443105
  0
ARC
  5
20F
330
1F8
100
AcDbEntity
  8
0
  6
Continuous
 62
   179
100
AcDbCircle
 10
2808.3239355685
 20
6360.2864243508
 30
0.0
 40
516.9247077280753
100
AcDbArc
 50
89.4379852016
 51
137.5591461504
  0
ARC
  5
210
330
1F8
100
AcDbEntity
  8
0
  6
Continuous
 62
   179
100
AcDbCircle
 10
24439.2811878643
 20
2435.9613946539
 30
0.0
 40
1140.079096554877
100
AcDbArc
 50
297.4341829348999
 51
62.17203318890002
  0
ARC
  5
211
330
1F8
100
AcDbEntity
  8
0
  6
Continuous
 62
   179
100
AcDbCircle
 10
24363.3946446009
 20
2430.1355419089
 30
0.0
 40
931.6078627500976
100
AcDbArc
 50
232.118909807
 51
101.3462704493
  0
LINE
  5
212
330
1F8
100
AcDbEntity
  8
0
  6
Continuous
 62
   179
100
AcDbLine
 10
10088.0321784074
 20
0.0000125144
 30
0.0
 11
9858.2217949557
 21
8289.6552921115
 31
0.0
  0
LINE
  5
213
330
1F8
100
AcDbEntity
  8
0
  6
Continuous
 62
   179
100
AcDbLine
 10
9858.2217949557
 20
8289.6552921115
 30
0.0
 11
7491.0265293557
 21
8289.6552921115
 31
0.0
  0
LINE
  5
214
330
1F8
100
AcDbEntity
  8
0
  6
Continuous
 62
   179
100
AcDbLine
 10
7491.0265293557
 20
8289.6552921115
 30
0.0
 11
5122.8131677553
 21
0.0000125144
 31
0.0
  0
LINE
  5
215
330
1F8
100
AcDbEntity
  8
0
  6
Continuous
 62
   179
100
AcDbLine
 10
5122.8131677553
 20
0.0000125144
 30
0.0
 11
6903.4160581553
 21
0.0000125144
 31
0.0
  0
LINE
  5
216
330
1F8
100
AcDbEntity
  8
0
  6
Continuous
 62
   179
100
AcDbLine
 10
6903.4160581553
 20
0.0000125144
 30
0.0
 11
7295.6346285553
 21
1694.8297721115
 31
0.0
  0
LINE
  5
217
330
1F8
100
AcDbEntity
  8
0
  6
Continuous
 62
   179
100
AcDbLine
 10
7684.3822381561
 20
3343.5361521108
 30
0.0
 11
8520.8837909553
 21
7008.8707569115
 31
0.0
  0
LINE
  5
218
330
1F8
100
AcDbEntity
  8
0
  6
Continuous
 62
   179
100
AcDbLine
 10
8520.8837909553
 20
7008.8707569115
 30
0.0
 11
8475.7613005553
 21
3444.1940153115
 31
0.0
  0
LINE
  5
219
330
1F8
100
AcDbEntity
  8
0
  6
Continuous
 62
   179
100
AcDbLine
 10
8468.8193789565
 20
1424.0948297112
 30
0.0
 11
8468.8193789565
 21
0.0000125144
 31
0.0
  0
LINE
  5
21A
330
1F8
100
AcDbEntity
  8
0
  6
Continuous
 62
   179
100
AcDbLine
 10
8468.8193789565
 20
0.0000125144
 30
0.0
 11
10088.0321784074
 21
0.0000125144
 31
0.0
  0
LINE
  5
21B
330
1F8
100
AcDbEntity
  8
0
  6
Continuous
 62
   179
100
AcDbLine
 10
19107.4500497519
 20
8295.8802112275
 30
0.0
 11
16935.7898769541
 21
8295.8802112275
 31
0.0
  0
LINE
  5
21C
330
1F8
100
AcDbEntity
  8
0
  6
Continuous
 62
   179
100
AcDbLine
 10
16935.7898769541
 20
8295.8802112275
 30
0.0
 11
15991.7401521541
 21
0.0000288275
 31
0.0
  0
LINE
  5
21D
330
1F8
100
AcDbEntity
  8
0
  6
Continuous
 62
   179
100
AcDbLine
 10
15991.7401521541
 20
0.0000288275
 30
0.0
 11
17855.6331985541
 21
0.0000288275
 31
0.0
  0
LINE
  5
21E
330
1F8
100
AcDbEntity
  8
0
  6
Continuous
 62
   179
100
AcDbLine
 10
17855.6331985541
 20
0.0000288275
 30
0.0
 11
18695.9411953541
 21
20.7483744275
 31
0.0
  0
LINE
  5
21F
330
1F8
100
AcDbEntity
  8
0
  6
Continuous
 62
   179
100
AcDbLine
 10
20805.6935873772
 20
2237.1817154785
 30
0.0
 11
21251.7830177772
 21
6203.5737826763
 31
0.0
  0
LINE
  5
220
330
1F8
100
AcDbEntity
  8
0
  6
Continuous
 62
   179
100
AcDbLine
 10
19024.4566673541
 20
2195.8666048275
 30
0.0
 11
19467.0880401544
 21
6100.0136352237
 31
0.0
  0
LINE
  5
221
330
1F8
100
AcDbEntity
  8
0
  6
Continuous
 62
   179
100
AcDbLine
 10
17907.5040625541
 20
1417.8036448275
 30
0.0
 11
18131.936218492
 21
1413.8509571068
 31
0.0
  0
LINE
  5
222
330
1F8
100
AcDbEntity
  8
0
  6
Continuous
 62
   179
100
AcDbLine
 10
18529.9544305541
 20
6877.4963679933
 30
0.0
 11
17907.5040625541
 21
1417.8036448275
 31
0.0
  0
LINE
  5
223
330
1F8
100
AcDbEntity
  8
0
  6
Continuous
 62
   179
100
AcDbLine
 10
18751.2701169541
 20
6877.4963679933
 30
0.0
 11
18529.9544305541
 21
6877.4963679933
 31
0.0
  0
LINE
  5
224
330
1F8
100
AcDbEntity
  8
0
  6
Continuous
 62
   179
100
AcDbLine
 10
11134.6446741053
 20
0.0
 30
0.0
 11
14807.1018453053
 21
0.0
 31
0.0
  0
LINE
  5
225
330
1F8
100
AcDbEntity
  8
0
  6
Continuous
 62
   179
100
AcDbLine
 10
14807.1018453053
 20
0.0
 30
0.0
 11
14990.3788981053
 21
1625.287072
 31
0.0
  0
LINE
  5
226
330
1F8
100
AcDbEntity
  8
0
  6
Continuous
 62
   179
100
AcDbLine
 10
14990.3788981053
 20
1625.287072
 30
0.0
 11
13071.1569301053
 21
1625.287072
 31
0.0
  0
LINE
  5
227
330
1F8
100
AcDbEntity
  8
0
  6
Continuous
 62
   179
100
AcDbLine
 10
13071.1569301053
 20
1625.287072
 30
0.0
 11
13828.4715445053
 21
8295.8801824
 31
0.0
  0
LINE
  5
228
330
1F8
100
AcDbEntity
  8
0
  6
Continuous
 62
   179
100
AcDbLine
 10
13828.4715445053
 20
8295.8801824
 30
0.0
 11
12075.2363413053
 21
8295.8801824
 31
0.0
  0
LINE
  5
229
330
1F8
100
AcDbEntity
  8
0
  6
Continuous
 62
   179
100
AcDbLine
 10
12075.2363413053
 20
8295.8801824
 30
0.0
 11
11134.6446741053
 21
0.0
 31
0.0
  0
LINE
  5
22A
330
1F8
100
AcDbEntity
  8
0
  6
Continuous
 62
   179
100
AcDbLine
 10
4907.4740560005
 20
6857.0185622947
 30
0.0
 11
4882.7391856278
 21
7041.1497513646
 31
0.0
  0
LINE
  5
22B
330
1F8
100
AcDbEntity
  8
0
  6
Continuous
 62
   179
100
AcDbLine
 10
4882.7391856278
 20
7041.1497513646
 30
0.0
 11
4840.84097804
 21
7222.1279289072
 31
0.0
  0
LINE
  5
22C
330
1F8
100
AcDbEntity
  8
0
  6
Continuous
 62
   179
100
AcDbLine
 10
4840.84097804
 20
7222.1279289072
 30
0.0
 11
4779.230404759
 21
7397.3516386623
 31
0.0
  0
LINE
  5
22D
330
1F8
100
AcDbEntity
  8
0
  6
Continuous
 62
   179
100
AcDbLine
 10
4779.230404759
 20
7397.3516386623
 30
0.0
 11
4695.8753846469
 21
7563.306056288
 31
0.0
  0
LINE
  5
22E
330
1F8
100
AcDbEntity
  8
0
  6
Continuous
 62
   179
100
AcDbLine
 10
4695.8753846469
 20
7563.306056288
 30
0.0
 11
4590.0094760133
 21
7715.8622667097
 31
0.0
  0
LINE
  5
22F
330
1F8
100
AcDbEntity
  8
0
  6
Continuous
 62
   179
100
AcDbLine
 10
4590.0094760133
 20
7715.8622667097
 30
0.0
 11
4462.7758841487
 21
7851.1049960358
 31
0.0
  0
LINE
  5
230
330
1F8
100
AcDbEntity
  8
0
  6
Continuous
 62
   179
100
AcDbLine
 10
4462.7758841487
 20
7851.1049960358
 30
0.0
 11
4317.19779369
 21
7966.3918164371
 31
0.0
  0
LINE
  5
231
330
1F8
100
AcDbEntity
  8
0
  6
Continuous
 62
   179
100
AcDbLine
 10
4317.19779369
 20
7966.3918164371
 30
0.0
 11
4157.3549470669
 21
8060.9636993174
 31
0.0
  0
LINE
  5
232
330
1F8
100
AcDbEntity
  8
0
  6
Continuous
 62
   179
100
AcDbLine
 10
4157.3549470669
 20
8060.9636993174
 30
0.0
 11
3942.3832434805
 21
8152.0001345594
 31
0.0
  0
LINE
  5
233
330
1F8
100
AcDbEntity
  8
0
  6
Continuous
 62
   179
100
AcDbLine
 10
3942.3832434805
 20
8152.0001345594
 30
0.0
 11
3717.7379879586
 21
8215.7306159908
 31
0.0
  0
LINE
  5
234
330
1F8
100
AcDbEntity
  8
0
  6
Continuous
 62
   179
100
AcDbLine
 10
3717.7379879586
 20
8215.7306159908
 30
0.0
 11
3487.8010416052
 21
8256.6415379559
 31
0.0
  0
LINE
  5
235
330
1F8
100
AcDbEntity
  8
0
  6
Continuous
 62
   179
100
AcDbLine
 10
3487.8010416052
 20
8256.6415379559
 30
0.0
 11
3255.2826646592
 21
8278.7971759128
 31
0.0
  0
LINE
  5
236
330
1F8
100
AcDbEntity
  8
0
  6
Continuous
 62
   179
100
AcDbLine
 10
3255.2826646592
 20
8278.7971759128
 30
0.0
 11
3021.7939564
 21
8285.5640922951
 31
0.0
  0
LINE
  5
237
330
1F8
100
AcDbEntity
  8
0
  6
Continuous
 62
   179
100
AcDbLine
 10
3021.7939564
 20
8285.5640922951
 30
0.0
 11
2764.7286656624
 21
8276.8167344558
 31
0.0
  0
LINE
  5
238
330
1F8
100
AcDbEntity
  8
0
  6
Continuous
 62
   179
100
AcDbLine
 10
2764.7286656624
 20
8276.8167344558
 30
0.0
 11
2509.0566231212
 21
8248.8448730413
 31
0.0
  0
LINE
  5
239
330
1F8
100
AcDbEntity
  8
0
  6
Continuous
 62
   179
100
AcDbLine
 10
2509.0566231212
 20
8248.8448730413
 30
0.0
 11
2256.7624741697
 21
8198.9693632548
 31
0.0
  0
LINE
  5
23A
330
1F8
100
AcDbEntity
  8
0
  6
Continuous
 62
   179
100
AcDbLine
 10
2256.7624741697
 20
8198.9693632548
 30
0.0
 11
2010.5862549102
 21
8124.6401609584
 31
0.0
  0
LINE
  5
23B
330
1F8
100
AcDbEntity
  8
0
  6
Continuous
 62
   179
100
AcDbLine
 10
2010.5862549102
 20
8124.6401609584
 30
0.0
 11
1823.7042907144
 21
8047.7718170144
 31
0.0
  0
LINE
  5
23C
330
1F8
100
AcDbEntity
  8
0
  6
Continuous
 62
   179
100
AcDbLine
 10
1823.7042907144
 20
8047.7718170144
 30
0.0
 11
1644.6605427625
 21
7954.1022052786
 31
0.0
  0
LINE
  5
23D
330
1F8
100
AcDbEntity
  8
0
  6
Continuous
 62
   179
100
AcDbLine
 10
1644.6605427625
 20
7954.1022052786
 30
0.0
 11
1475.390327491
 21
7843.7545704421
 31
0.0
  0
LINE
  5
23E
330
1F8
100
AcDbEntity
  8
0
  6
Continuous
 62
   179
100
AcDbLine
 10
1475.390327491
 20
7843.7545704421
 30
0.0
 11
1317.6231711996
 21
7717.507163895
 31
0.0
  0
LINE
  5
23F
330
1F8
100
AcDbEntity
  8
0
  6
Continuous
 62
   179
100
AcDbLine
 10
1317.6231711996
 20
7717.507163895
 30
0.0
 11
1139.538084005
 21
7540.9583629978
 31
0.0
  0
LINE
  5
240
330
1F8
100
AcDbEntity
  8
0
  6
Continuous
 62
   179
100
AcDbLine
 10
1139.538084005
 20
7540.9583629978
 30
0.0
 11
983.4661868123
 21
7344.6865403276
 31
0.0
  0
LINE
  5
241
330
1F8
100
AcDbEntity
  8
0
  6
Continuous
 62
   179
100
AcDbLine
 10
983.4661868123
 20
7344.6865403276
 30
0.0
 11
851.5325681984
 21
7131.4315088069
 31
0.0
  0
LINE
  5
242
330
1F8
100
AcDbEntity
  8
0
  6
Continuous
 62
   179
100
AcDbLine
 10
851.5325681984
 20
7131.4315088069
 30
0.0
 11
744.4774564036
 21
6904.647070365
 31
0.0
  0
LINE
  5
243
330
1F8
100
AcDbEntity
  8
0
  6
Continuous
 62
   179
100
AcDbLine
 10
744.4774564036
 20
6904.647070365
 30
0.0
 11
658.3392621499
 21
6656.4327422403
 31
0.0
  0
LINE
  5
244
330
1F8
100
AcDbEntity
  8
0
  6
Continuous
 62
   179
100
AcDbLine
 10
658.3392621499
 20
6656.4327422403
 30
0.0
 11
596.9943576213
 21
6400.9335325463
 31
0.0
  0
LINE
  5
245
330
1F8
100
AcDbEntity
  8
0
  6
Continuous
 62
   179
100
AcDbLine
 10
596.9943576213
 20
6400.9335325463
 30
0.0
 11
557.9730775995
 21
6141.0651554946
 31
0.0
  0
LINE
  5
246
330
1F8
100
AcDbEntity
  8
0
  6
Continuous
 62
   179
100
AcDbLine
 10
557.9730775995
 20
6141.0651554946
 30
0.0
 11
538.0293793386
 21
5893.0807139359
 31
0.0
  0
LINE
  5
247
330
1F8
100
AcDbEntity
  8
0
  6
Continuous
 62
   179
100
AcDbLine
 10
538.0293793386
 20
5893.0807139359
 30
0.0
 11
537.9155556826
 21
5644.3161034396
 31
0.0
  0
LINE
  5
248
330
1F8
100
AcDbEntity
  8
0
  6
Continuous
 62
   179
100
AcDbLine
 10
537.9155556826
 20
5644.3161034396
 30
0.0
 11
561.0465619986
 21
5396.6565041751
 31
0.0
  0
LINE
  5
249
330
1F8
100
AcDbEntity
  8
0
  6
Continuous
 62
   179
100
AcDbLine
 10
561.0465619986
 20
5396.6565041751
 30
0.0
 11
610.8365836731
 21
5152.9862283491
 31
0.0
  0
LINE
  5
24A
330
1F8
100
AcDbEntity
  8
0
  6
Continuous
 62
   179
100
AcDbLine
 10
610.8365836731
 20
5152.9862283491
 30
0.0
 11
670.4957765389
 21
4966.8752015955
 31
0.0
  0
LINE
  5
24B
330
1F8
100
AcDbEntity
  8
0
  6
Continuous
 62
   179
100
AcDbLine
 10
670.4957765389
 20
4966.8752015955
 30
0.0
 11
749.0385092576
 21
4787.922755338
 31
0.0
  0
LINE
  5
24C
330
1F8
100
AcDbEntity
  8
0
  6
Continuous
 62
   179
100
AcDbLine
 10
749.0385092576
 20
4787.922755338
 30
0.0
 11
846.3298658912
 21
4618.4358151253
 31
0.0
  0
LINE
  5
24D
330
1F8
100
AcDbEntity
  8
0
  6
Continuous
 62
   179
100
AcDbLine
 10
846.3298658912
 20
4618.4358151253
 30
0.0
 11
961.3271095996
 21
4460.4233554942
 31
0.0
  0
LINE
  5
24E
330
1F8
100
AcDbEntity
  8
0
  6
Continuous
 62
   179
100
AcDbLine
 10
1593.2484263997
 20
3794.8892026942
 30
0.0
 11
2342.8146692
 21
3099.1034974946
 31
0.0
  0
LINE
  5
24F
330
1F8
100
AcDbEntity
  8
0
  6
Continuous
 62
   179
100
AcDbLine
 10
2342.8146692
 20
3099.1034974946
 30
0.0
 11
2457.4150864402
 21
2985.4804965343
 31
0.0
  0
LINE
  5
250
330
1F8
100
AcDbEntity
  8
0
  6
Continuous
 62
   179
100
AcDbLine
 10
2457.4150864402
 20
2985.4804965343
 30
0.0
 11
2562.4777930784
 21
2863.0062246075
 31
0.0
  0
LINE
  5
251
330
1F8
100
AcDbEntity
  8
0
  6
Continuous
 62
   179
100
AcDbLine
 10
2562.4777930784
 20
2863.0062246075
 30
0.0
 11
2654.9628244148
 21
2730.8077708033
 31
0.0
  0
LINE
  5
252
330
1F8
100
AcDbEntity
  8
0
  6
Continuous
 62
   179
100
AcDbLine
 10
2654.9628244148
 20
2730.8077708033
 30
0.0
 11
2730.9070108725
 21
2588.5028322591
 31
0.0
  0
LINE
  5
253
330
1F8
100
AcDbEntity
  8
0
  6
Continuous
 62
   179
100
AcDbLine
 10
2730.9070108725
 20
2588.5028322591
 30
0.0
 11
2787.6392767372
 21
2429.3959416825
 31
0.0
  0
LINE
  5
254
330
1F8
100
AcDbEntity
  8
0
  6
Continuous
 62
   179
100
AcDbLine
 10
2787.6392767372
 20
2429.3959416825
 30
0.0
 11
2816.0412804487
 21
2262.9265767885
 31
0.0
  0
LINE
  5
255
330
1F8
100
AcDbEntity
  8
0
  6
Continuous
 62
   179
100
AcDbLine
 10
2816.0412804487
 20
2262.9265767885
 30
0.0
 11
2813.3943732
 21
2094.0797010946
 31
0.0
  0
LINE
  5
256
330
1F8
100
AcDbEntity
  8
0
  6
Continuous
 62
   179
100
AcDbLine
 10
2171.3892056002
 20
1438.629399097
 30
0.0
 11
2081.3271648151
 21
1444.5220285234
 31
0.0
  0
LINE
  5
257
330
1F8
100
AcDbEntity
  8
0
  6
Continuous
 62
   179
100
AcDbLine
 10
2081.3271648151
 20
1444.5220285234
 30
0.0
 11
1993.3677378413
 21
1464.5260106363
 31
0.0
  0
LINE
  5
258
330
1F8
100
AcDbEntity
  8
0
  6
Continuous
 62
   179
100
AcDbLine
 10
1993.3677378413
 20
1464.5260106363
 30
0.0
 11
1911.3435803354
 21
1501.9115152047
 31
0.0
  0
LINE
  5
259
330
1F8
100
AcDbEntity
  8
0
  6
Continuous
 62
   179
100
AcDbLine
 10
1911.3435803354
 20
1501.9115152047
 30
0.0
 11
1840.5450992733
 21
1557.6494251181
 31
0.0
  0
LINE
  5
25A
330
1F8
100
AcDbEntity
  8
0
  6
Continuous
 62
   179
100
AcDbLine
 10
1840.5450992733
 20
1557.6494251181
 30
0.0
 11
1785.0445168711
 21
1628.6751044787
 31
0.0
  0
LINE
  5
25B
330
1F8
100
AcDbEntity
  8
0
  6
Continuous
 62
   179
100
AcDbLine
 10
1785.0445168711
 20
1628.6751044787
 30
0.0
 11
1745.2817682865
 21
1709.6405469696
 31
0.0
  0
LINE
  5
25C
330
1F8
100
AcDbEntity
  8
0
  6
Continuous
 62
   179
100
AcDbLine
 10
1745.2817682865
 20
1709.6405469696
 30
0.0
 11
1710.0353127013
 21
1840.2386565146
 31
0.0
  0
LINE
  5
25D
330
1F8
100
AcDbEntity
  8
0
  6
Continuous
 62
   179
100
AcDbLine
 10
1710.0353127013
 20
1840.2386565146
 30
0.0
 11
1696.0216688059
 21
1974.8977537186
 31
0.0
  0
LINE
  5
25E
330
1F8
100
AcDbEntity
  8
0
  6
Continuous
 62
   179
100
AcDbLine
 10
1696.0216688059
 20
1974.8977537186
 30
0.0
 11
1696.5924840549
 21
2110.3283975811
 31
0.0
  0
LINE
  5
25F
330
1F8
100
AcDbEntity
  8
0
  6
Continuous
 62
   179
100
AcDbLine
 10
1696.5924840549
 20
2110.3283975811
 30
0.0
 11
1707.5320688
 21
2245.3374630946
 31
0.0
  0
LINE
  5
260
330
1F8
100
AcDbEntity
  8
0
  6
Continuous
 62
   179
100
AcDbLine
 10
1707.5320688
 20
2245.3374630946
 30
0.0
 11
1781.480308
 21
2897.4264814946
 31
0.0
  0
LINE
  5
261
330
1F8
100
AcDbEntity
  8
0
  6
Continuous
 62
   179
100
AcDbLine
 10
1781.480308
 20
2897.4264814946
 30
0.0
 11
94.1159408
 21
2897.4264814946
 31
0.0
  0
LINE
  5
262
330
1F8
100
AcDbEntity
  8
0
  6
Continuous
 62
   179
100
AcDbLine
 10
94.1159408
 20
2897.4264814946
 30
0.0
 11
26.8902688
 21
2295.7567170946
 31
0.0
  0
LINE
  5
263
330
1F8
100
AcDbEntity
  8
0
  6
Continuous
 62
   179
100
AcDbLine
 10
26.8902688
 20
2295.7567170946
 30
0.0
 11
5.8201226117
 21
2068.3689705604
 31
0.0
  0
LINE
  5
264
330
1F8
100
AcDbEntity
  8
0
  6
Continuous
 62
   179
100
AcDbLine
 10
5.8201226117
 20
2068.3689705604
 30
0.0
 11
0.0
 21
1889.0414014946
 31
0.0
  0
LINE
  5
265
330
1F8
100
AcDbEntity
  8
0
  6
Continuous
 62
   179
100
AcDbLine
 10
0.0
 20
1889.0414014946
 30
0.0
 11
0.0
 21
1788.2028934946
 31
0.0
  0
LINE
  5
266
330
1F8
100
AcDbEntity
  8
0
  6
Continuous
 62
   179
100
AcDbLine
 10
0.0
 20
1788.2028934946
 30
0.0
 11
8.4741181851
 21
1597.5992610857
 31
0.0
  0
LINE
  5
267
330
1F8
100
AcDbEntity
  8
0
  6
Continuous
 62
   179
100
AcDbLine
 10
8.4741181851
 20
1597.5992610857
 30
0.0
 11
29.9475321698
 21
1408.0255515191
 31
0.0
  0
LINE
  5
268
330
1F8
100
AcDbEntity
  8
0
  6
Continuous
 62
   179
100
AcDbLine
 10
29.9475321698
 20
1408.0255515191
 30
0.0
 11
66.5196177454
 21
1220.7936775914
 31
0.0
  0
LINE
  5
269
330
1F8
100
AcDbEntity
  8
0
  6
Continuous
 62
   179
100
AcDbLine
 10
66.5196177454
 20
1220.7936775914
 30
0.0
 11
120.5660601196
 21
1037.8592313249
 31
0.0
  0
LINE
  5
26A
330
1F8
100
AcDbEntity
  8
0
  6
Continuous
 62
   179
100
AcDbLine
 10
120.5660601196
 20
1037.8592313249
 30
0.0
 11
194.3311383855
 21
861.9730900702
 31
0.0
  0
LINE
  5
26B
330
1F8
100
AcDbEntity
  8
0
  6
Continuous
 62
   179
100
AcDbLine
 10
194.3311383855
 20
861.9730900702
 30
0.0
 11
287.5295606573
 21
699.5021482411
 31
0.0
  0
LINE
  5
26C
330
1F8
100
AcDbEntity
  8
0
  6
Continuous
 62
   179
100
AcDbLine
 10
287.5295606573
 20
699.5021482411
 30
0.0
 11
401.5974373649
 21
550.9580491856
 31
0.0
  0
LINE
  5
26D
330
1F8
100
AcDbEntity
  8
0
  6
Continuous
 62
   179
100
AcDbLine
 10
401.5974373649
 20
550.9580491856
 30
0.0
 11
535.1901037299
 21
419.6995230367
 31
0.0
  0
LINE
  5
26E
330
1F8
100
AcDbEntity
  8
0
  6
Continuous
 62
   179
100
AcDbLine
 10
535.1901037299
 20
419.6995230367
 30
0.0
 11
685.4525519751
 21
307.8901613371
 31
0.0
  0
LINE
  5
26F
330
1F8
100
AcDbEntity
  8
0
  6
Continuous
 62
   179
100
AcDbLine
 10
685.4525519751
 20
307.8901613371
 30
0.0
 11
880.9909831936
 21
200.7980430706
 31
0.0
  0
LINE
  5
270
330
1F8
100
AcDbEntity
  8
0
  6
Continuous
 62
   179
100
AcDbLine
 10
880.9909831936
 20
200.7980430706
 30
0.0
 11
1088.9648544967
 21
120.3523112471
 31
0.0
  0
LINE
  5
271
330
1F8
100
AcDbEntity
  8
0
  6
Continuous
 62
   179
100
AcDbLine
 10
1088.9648544967
 20
120.3523112471
 30
0.0
 11
1304.5983771836
 21
63.4027511638
 31
0.0
  0
LINE
  5
272
330
1F8
100
AcDbEntity
  8
0
  6
Continuous
 62
   179
100
AcDbLine
 10
1304.5983771836
 20
63.4027511638
 30
0.0
 11
1524.5667113278
 21
26.4353113751
 31
0.0
  0
LINE
  5
273
330
1F8
100
AcDbEntity
  8
0
  6
Continuous
 62
   179
100
AcDbLine
 10
1524.5667113278
 20
26.4353113751
 30
0.0
 11
1746.7181907984
 21
6.2021311101
 31
0.0
  0
LINE
  5
274
330
1F8
100
AcDbEntity
  8
0
  6
Continuous
 62
   179
100
AcDbLine
 10
1746.7181907984
 20
6.2021311101
 30
0.0
 11
1969.7121896
 21
0.0000182946
 31
0.0
  0
LINE
  5
275
330
1F8
100
AcDbEntity
  8
0
  6
Continuous
 62
   179
100
AcDbLine
 10
1969.7121896
 20
0.0000182946
 30
0.0
 11
2235.4163107967
 21
9.0474941519
 31
0.0
  0
LINE
  5
276
330
1F8
100
AcDbEntity
  8
0
  6
Continuous
 62
   179
100
AcDbLine
 10
2235.4163107967
 20
9.0474941519
 30
0.0
 11
2499.6874650753
 21
37.9033605802
 31
0.0
  0
LINE
  5
277
330
1F8
100
AcDbEntity
  8
0
  6
Continuous
 62
   179
100
AcDbLine
 10
2499.6874650753
 20
37.9033605802
 30
0.0
 11
2760.5117042792
 21
89.204615755
 31
0.0
  0
LINE
  5
278
330
1F8
100
AcDbEntity
  8
0
  6
Continuous
 62
   179
100
AcDbLine
 10
2760.5117042792
 20
89.204615755
 30
0.0
 11
3015.1415277313
 21
165.4438899665
 31
0.0
  0
LINE
  5
279
330
1F8
100
AcDbEntity
  8
0
  6
Continuous
 62
   179
100
AcDbLine
 10
3015.1415277313
 20
165.4438899665
 30
0.0
 11
3208.6236023082
 21
244.1201341123
 31
0.0
  0
LINE
  5
27A
330
1F8
100
AcDbEntity
  8
0
  6
Continuous
 62
   179
100
AcDbLine
 10
3208.6236023082
 20
244.1201341123
 30
0.0
 11
3394.246790929
 21
339.8610540042
 31
0.0
  0
LINE
  5
27B
330
1F8
100
AcDbEntity
  8
0
  6
Continuous
 62
   179
100
AcDbLine
 10
3394.246790929
 20
339.8610540042
 30
0.0
 11
3570.08287903
 21
452.5651803685
 31
0.0
  0
LINE
  5
27C
330
1F8
100
AcDbEntity
  8
0
  6
Continuous
 62
   179
100
AcDbLine
 10
3570.08287903
 20
452.5651803685
 30
0.0
 11
3734.3860796
 21
581.5020810946
 31
0.0
  0
LINE
  5
27D
330
1F8
100
AcDbEntity
  8
0
  6
Continuous
 62
   179
100
AcDbLine
 10
3734.3860796
 20
581.5020810946
 30
0.0
 11
3918.9619613187
 21
762.6068684982
 31
0.0
  0
LINE
  5
27E
330
1F8
100
AcDbEntity
  8
0
  6
Continuous
 62
   179
100
AcDbLine
 10
3918.9619613187
 20
762.6068684982
 30
0.0
 11
4080.6115034165
 21
964.4332031658
 31
0.0
  0
LINE
  5
27F
330
1F8
100
AcDbEntity
  8
0
  6
Continuous
 62
   179
100
AcDbLine
 10
4080.6115034165
 20
964.4332031658
 30
0.0
 11
4217.129324297
 21
1184.0491590435
 31
0.0
  0
LINE
  5
280
330
1F8
100
AcDbEntity
  8
0
  6
Continuous
 62
   179
100
AcDbLine
 10
4217.129324297
 20
1184.0491590435
 30
0.0
 11
4327.807798901
 21
1417.7744861233
 31
0.0
  0
LINE
  5
281
330
1F8
100
AcDbEntity
  8
0
  6
Continuous
 62
   179
100
AcDbLine
 10
4327.807798901
 20
1417.7744861233
 30
0.0
 11
4416.8403522579
 21
1673.6616360853
 31
0.0
  0
LINE
  5
282
330
1F8
100
AcDbEntity
  8
0
  6
Continuous
 62
   179
100
AcDbLine
 10
4416.8403522579
 20
1673.6616360853
 30
0.0
 11
4480.332478423
 21
1937.0776350384
 31
0.0
  0
LINE
  5
283
330
1F8
100
AcDbEntity
  8
0
  6
Continuous
 62
   179
100
AcDbLine
 10
4480.332478423
 20
1937.0776350384
 30
0.0
 11
4520.926442
 21
2205.0020598946
 31
0.0
  0
LINE
  5
284
330
1F8
100
AcDbEntity
  8
0
  6
Continuous
 62
   179
100
AcDbLine
 10
4520.926442
 20
2205.0020598946
 30
0.0
 11
4539.8604791128
 21
2434.751251137
 31
0.0
  0
LINE
  5
285
330
1F8
100
AcDbEntity
  8
0
  6
Continuous
 62
   179
100
AcDbLine
 10
4539.8604791128
 20
2434.751251137
 30
0.0
 11
4542.0136171636
 21
2665.2555763504
 31
0.0
  0
LINE
  5
286
330
1F8
100
AcDbEntity
  8
0
  6
Continuous
 62
   179
100
AcDbLine
 10
4542.0136171636
 20
2665.2555763504
 30
0.0
 11
4524.9874932226
 21
2895.1234497405
 31
0.0
  0
LINE
  5
287
330
1F8
100
AcDbEntity
  8
0
  6
Continuous
 62
   179
100
AcDbLine
 10
4524.9874932226
 20
2895.1234497405
 30
0.0
 11
4496.6310776622
 21
3074.0098021703
 31
0.0
  0
LINE
  5
288
330
1F8
100
AcDbEntity
  8
0
  6
Continuous
 62
   179
100
AcDbLine
 10
4496.6310776622
 20
3074.0098021703
 30
0.0
 11
4454.0379981851
 21
3250.0430485054
 31
0.0
  0
LINE
  5
289
330
1F8
100
AcDbEntity
  8
0
  6
Continuous
 62
   179
100
AcDbLine
 10
4454.0379981851
 20
3250.0430485054
 30
0.0
 11
4396.5589488
 21
3421.7867230946
 31
0.0
  0
LINE
  5
28A
330
1F8
100
AcDbEntity
  8
0
  6
Continuous
 62
   179
100
AcDbLine
 10
4396.5589488
 20
3421.7867230946
 30
0.0
 11
4335.0775798529
 21
3551.3591107413
 31
0.0
  0
LINE
  5
28B
330
1F8
100
AcDbEntity
  8
0
  6
Continuous
 62
   179
100
AcDbLine
 10
4335.0775798529
 20
3551.3591107413
 30
0.0
 11
4262.2002057756
 21
3674.9188547719
 31
0.0
  0
LINE
  5
28C
330
1F8
100
AcDbEntity
  8
0
  6
Continuous
 62
   179
100
AcDbLine
 10
4262.2002057756
 20
3674.9188547719
 30
0.0
 11
4181.3183894369
 21
3793.4113089372
 31
0.0
  0
LINE
  5
28D
330
1F8
100
AcDbEntity
  8
0
  6
Continuous
 62
   179
100
AcDbLine
 10
4181.3183894369
 20
3793.4113089372
 30
0.0
 11
4078.5227471571
 21
3927.6643628842
 31
0.0
  0
LINE
  5
28E
330
1F8
100
AcDbEntity
  8
0
  6
Continuous
 62
   179
100
AcDbLine
 10
4078.5227471571
 20
3927.6643628842
 30
0.0
 11
3969.6759316
 21
4057.0693234946
 31
0.0
  0
LINE
  5
28F
330
1F8
100
AcDbEntity
  8
0
  6
Continuous
 62
   179
100
AcDbLine
 10
3969.6759316
 20
4057.0693234946
 30
0.0
 11
3243.638674
 21
4803.2742826946
 31
0.0
  0
LINE
  5
290
330
1F8
100
AcDbEntity
  8
0
  6
Continuous
 62
   179
100
AcDbLine
 10
2467.1821623981
 20
5616.7049138995
 30
0.0
 11
2391.5759134121
 21
5727.7039441288
 31
0.0
  0
LINE
  5
291
330
1F8
100
AcDbEntity
  8
0
  6
Continuous
 62
   179
100
AcDbLine
 10
2391.5759134121
 20
5727.7039441288
 30
0.0
 11
2326.9023872324
 21
5845.3828817498
 31
0.0
  0
LINE
  5
292
330
1F8
100
AcDbEntity
  8
0
  6
Continuous
 62
   179
100
AcDbLine
 10
2326.9023872324
 20
5845.3828817498
 30
0.0
 11
2276.7855321171
 21
5969.9206549293
 31
0.0
  0
LINE
  5
293
330
1F8
100
AcDbEntity
  8
0
  6
Continuous
 62
   179
100
AcDbLine
 10
2276.7855321171
 20
5969.9206549293
 30
0.0
 11
2250.5432565423
 21
6072.0904771882
 31
0.0
  0
LINE
  5
294
330
1F8
100
AcDbEntity
  8
0
  6
Continuous
 62
   179
100
AcDbLine
 10
2250.5432565423
 20
6072.0904771882
 30
0.0
 11
2238.3532498759
 21
6176.8496579539
 31
0.0
  0
LINE
  5
295
330
1F8
100
AcDbEntity
  8
0
  6
Continuous
 62
   179
100
AcDbLine
 10
2238.3532498759
 20
6176.8496579539
 30
0.0
 11
2241.9761612
 21
6282.2390666946
 31
0.0
  0
LINE
  5
296
330
1F8
100
AcDbEntity
  8
0
  6
Continuous
 62
   179
100
AcDbLine
 10
2813.394373201
 20
6877.1862638961
 30
0.0
 11
2899.1450330725
 21
6871.9159884789
 31
0.0
  0
LINE
  5
297
330
1F8
100
AcDbEntity
  8
0
  6
Continuous
 62
   179
100
AcDbLine
 10
2899.1450330725
 20
6871.9159884789
 30
0.0
 11
2983.1458702521
 21
6854.0846279821
 31
0.0
  0
LINE
  5
298
330
1F8
100
AcDbEntity
  8
0
  6
Continuous
 62
   179
100
AcDbLine
 10
2983.1458702521
 20
6854.0846279821
 30
0.0
 11
3062.202014936
 21
6820.6931120196
 31
0.0
  0
LINE
  5
299
330
1F8
100
AcDbEntity
  8
0
  6
Continuous
 62
   179
100
AcDbLine
 10
3062.202014936
 20
6820.6931120196
 30
0.0
 11
3131.6623634801
 21
6770.3629356214
 31
0.0
  0
LINE
  5
29A
330
1F8
100
AcDbEntity
  8
0
  6
Continuous
 62
   179
100
AcDbLine
 10
3131.6623634801
 20
6770.3629356214
 30
0.0
 11
3187.37124796
 21
6705.1184696235
 31
0.0
  0
LINE
  5
29B
330
1F8
100
AcDbEntity
  8
0
  6
Continuous
 62
   179
100
AcDbLine
 10
3187.37124796
 20
6705.1184696235
 30
0.0
 11
3228.1274776793
 21
6629.5646068072
 31
0.0
  0
LINE
  5
29C
330
1F8
100
AcDbEntity
  8
0
  6
Continuous
 62
   179
100
AcDbLine
 10
3228.1274776793
 20
6629.5646068072
 30
0.0
 11
3265.0334180049
 21
6506.2441361359
 31
0.0
  0
LINE
  5
29D
330
1F8
100
AcDbEntity
  8
0
  6
Continuous
 62
   179
100
AcDbLine
 10
3265.0334180049
 20
6506.2441361359
 30
0.0
 11
3280.3602104272
 21
6378.3104742822
 31
0.0
  0
LINE
  5
29E
330
1F8
100
AcDbEntity
  8
0
  6
Continuous
 62
   179
100
AcDbLine
 10
3280.3602104272
 20
6378.3104742822
 30
0.0
 11
3280.7520241623
 21
6249.4122034737
 31
0.0
  0
LINE
  5
29F
330
1F8
100
AcDbEntity
  8
0
  6
Continuous
 62
   179
100
AcDbLine
 10
3280.7520241623
 20
6249.4122034737
 30
0.0
 11
3270.5289428
 21
6120.8974538946
 31
0.0
  0
LINE
  5
2A0
330
1F8
100
AcDbEntity
  8
0
  6
Continuous
 62
   179
100
AcDbLine
 10
3270.5289428
 20
6120.8974538946
 30
0.0
 11
3206.6645544
 21
5566.2856598946
 31
0.0
  0
LINE
  5
2A1
330
1F8
100
AcDbEntity
  8
0
  6
Continuous
 62
   179
100
AcDbLine
 10
3206.6645544
 20
5566.2856598946
 30
0.0
 11
4820.0806824005
 21
5566.2856598945
 31
0.0
  0
LINE
  5
2A2
330
1F8
100
AcDbEntity
  8
0
  6
Continuous
 62
   179
100
AcDbLine
 10
4820.0806824005
 20
5566.2856598945
 30
0.0
 11
4894.0289216005
 21
6231.8198126945
 31
0.0
  0
LINE
  5
2A3
330
1F8
100
AcDbEntity
  8
0
  6
Continuous
 62
   179
100
AcDbLine
 10
4894.0289216005
 20
6231.8198126945
 30
0.0
 11
4907.4740560005
 21
6366.2711566946
 31
0.0
  0
LINE
  5
2A4
330
1F8
100
AcDbEntity
  8
0
  6
Continuous
 62
   179
100
AcDbLine
 10
4907.4740560005
 20
6366.2711566946
 30
0.0
 11
4917.4861623745
 21
6641.1377165616
 31
0.0
  0
LINE
  5
2A5
330
1F8
100
AcDbEntity
  8
0
  6
Continuous
 62
   179
100
AcDbLine
 10
4917.4861623745
 20
6641.1377165616
 30
0.0
 11
4907.4740560005
 21
6857.0185622947
 31
0.0
  0
LINE
  5
2A6
330
1F8
100
AcDbEntity
  8
0
  6
Continuous
 62
   179
100
AcDbLine
 10
24964.5491205926
 20
0.0000125144
 30
0.0
 11
26583.7619200447
 21
0.0000125144
 31
0.0
  0
LINE
  5
2A7
330
1F8
100
AcDbEntity
  8
0
  6
Continuous
 62
   179
100
AcDbLine
 10
24964.5491205926
 20
1424.0948297115
 30
0.0
 11
24964.5491205926
 21
0.0000125144
 31
0.0
  0
LINE
  5
2A8
330
1F8
100
AcDbEntity
  8
0
  6
Continuous
 62
   179
100
AcDbLine
 10
25016.6135325926
 20
7008.8707569115
 30
0.0
 11
24971.491042193
 21
3444.1940153109
 31
0.0
  0
LINE
  5
2A9
330
1F8
100
AcDbEntity
  8
0
  6
Continuous
 62
   179
100
AcDbLine
 10
24180.1119797926
 20
3343.5361521115
 30
0.0
 11
25016.6135325926
 21
7008.8707569115
 31
0.0
  0
LINE
  5
2AA
330
1F8
100
AcDbEntity
  8
0
  6
Continuous
 62
   179
100
AcDbLine
 10
23399.1457997926
 20
0.0000125144
 30
0.0
 11
23791.3643701938
 21
1694.8297721102
 31
0.0
  0
LINE
  5
2AB
330
1F8
100
AcDbEntity
  8
0
  6
Continuous
 62
   179
100
AcDbLine
 10
21618.5429093926
 20
0.0000125144
 30
0.0
 11
23399.1457997926
 21
0.0000125144
 31
0.0
  0
LINE
  5
2AC
330
1F8
100
AcDbEntity
  8
0
  6
Continuous
 62
   179
100
AcDbLine
 10
23986.756270993
 20
8289.6552921115
 30
0.0
 11
21618.5429093926
 21
0.0000125144
 31
0.0
  0
LINE
  5
2AD
330
1F8
100
AcDbEntity
  8
0
  6
Continuous
 62
   179
100
AcDbLine
 10
26353.951536593
 20
8289.6552921115
 30
0.0
 11
23986.756270993
 21
8289.6552921115
 31
0.0
  0
LINE
  5
2AE
330
1F8
100
AcDbEntity
  8
0
  6
Continuous
 62
   179
100
AcDbLine
 10
26583.7619200447
 20
0.0000125144
 30
0.0
 11
26353.951536593
 21
8289.6552921115
 31
0.0
  0
ENDBLK
  5
1FA
330
1F8
100
AcDbEntity
  8
0
100
AcDbBlockEnd
  0
BLOCK
  5
2B0
330
2AF
100
AcDbEntity
  8
0
100
AcDbBlockBegin
  2
Block5
 70
     0
 10
0.0
 20
0.0
 30
0.0
  3
Block5
  1

  0
CIRCLE
  5
2B2
330
2AF
100
AcDbEntity
  8
0
  6
Continuous
 62
     7
370
    30
100
AcDbCircle
 10
0.0
 20
0.0
 30
0.0
 40
3.5
  0
CIRCLE
  5
2B3
330
2AF
100
AcDbEntity
  8
0
  6
Continuous
 62
     7
370
    30
100
AcDbCircle
 10
0.0
 20
0.0
 30
0.0
 40
1.5
  0
LINE
  5
2B4
330
2AF
100
AcDbEntity
  8
0
  6
CENTERX2
 62
     7
370
     0
100
AcDbLine
 10
4.5
 20
0.0
 30
0.0
 11
-14.5
 21
0.0
 31
0.0
  0
LINE
  5
2B5
330
2AF
100
AcDbEntity
  8
0
  6
Continuous
 62
     7
370
    30
100
AcDbLine
 10
-13.5
 20
1.5
 30
0.0
 11
-13.5
 21
-1.5
 31
0.0
  0
LINE
  5
2B6
330
2AF
100
AcDbEntity
  8
0
  6
Continuous
 62
     7
370
    30
100
AcDbLine
 10
-13.5
 20
-1.5
 30
0.0
 11
-6.5
 21
-3.5
 31
0.0
  0
LINE
  5
2B7
330
2AF
100
AcDbEntity
  8
0
  6
Continuous
 62
     7
370
    30
100
AcDbLine
 10
-6.5
 20
-3.5
 30
0.0
 11
-6.5
 21
3.5
 31
0.0
  0
LINE
  5
2B8
330
2AF
100
AcDbEntity
  8
0
  6
Continuous
 62
     7
370
    30
100
AcDbLine
 10
-6.5
 20
3.5
 30
0.0
 11
-13.5
 21
1.5
 31
0.0
  0
LINE
  5
2B9
330
2AF
100
AcDbEntity
  8
0
  6
CENTERX2
 62
     7
370
     0
100
AcDbLine
 10
0.0
 20
4.5
 30
0.0
 11
0.0
 21
-4.5
 31
0.0
  0
ENDBLK
  5
2B1
330
2AF
100
AcDbEntity
  8
0
100
AcDbBlockEnd
  0
BLOCK
  5
798
330
797
100
AcDbEntity
  8
0
100
AcDbBlockBegin
  2
*U8
 70
     1
 10
0.0
 20
0.0
 30
0.0
  3
*U8
  1

  0
TEXT
  5
799
330
797
100
AcDbEntity
  8
LENKIMO
  6
CENTERX2
100
AcDbText
 10
799.0717146298566
 20
1100.336970457902
 30
0.0
 40
100.0
  1
A
100
AcDbText
  0
ENDBLK
  5
79A
330
797
100
AcDbEntity
  8
0
100
AcDbBlockEnd
  0
BLOCK
  5
7A0
330
79F
100
AcDbEntity
  8
0
100
AcDbBlockBegin
  2
*U9
 70
     1
 10
0.0
 20
0.0
 30
0.0
  3
*U9
  1

  0
TEXT
  5
7A1
330
79F
100
AcDbEntity
  8
LENKIMO
  6
CENTERX2
100
AcDbText
 10
801.2712978691851
 20
1410.897389739665
 30
0.0
 40
100.0
  1
B
100
AcDbText
  0
ENDBLK
  5
7A2
330
79F
100
AcDbEntity
  8
0
100
AcDbBlockEnd
  0
BLOCK
  5
7AC
330
7AB
100
AcDbEntity
  8
0
100
AcDbBlockBegin
  2
*U10
 70
     1
 10
0.0
 20
0.0
 30
0.0
  3
*U10
  1

  0
TEXT
  5
7AD
330
7AB
100
AcDbEntity
  8
LENKIMO
  6
CENTERX2
100
AcDbText
 10
799.0717146298566
 20
1100.336970457902
 30
0.0
 40
100.0
  1
A
100
AcDbText
  0
ENDBLK
  5
7AE
330
7AB
100
AcDbEntity
  8
0
100
AcDbBlockEnd
  0
BLOCK
  5
7B1
330
7B0
100
AcDbEntity
  8
0
100
AcDbBlockBegin
  2
*U11
 70
     1
 10
0.0
 20
0.0
 30
0.0
  3
*U11
  1

  0
TEXT
  5
7B2
330
7B0
100
AcDbEntity
  8
LENKIMO
  6
CENTERX2
100
AcDbText
 10
799.0717146298566
 20
1100.336970457902
 30
0.0
 40
100.0
  1
A
100
AcDbText
  0
ENDBLK
  5
7B3
330
7B0
100
AcDbEntity
  8
0
100
AcDbBlockEnd
  0
BLOCK
  5
7B6
330
7B5
100
AcDbEntity
  8
0
100
AcDbBlockBegin
  2
*U12
 70
     1
 10
0.0
 20
0.0
 30
0.0
  3
*U12
  1

  0
TEXT
  5
7B7
330
7B5
100
AcDbEntity
  8
LENKIMO
  6
CENTERX2
100
AcDbText
 10
801.2712978691851
 20
1410.897389739665
 30
0.0
 40
100.0
  1
B
100
AcDbText
  0
ENDBLK
  5
7B8
330
7B5
100
AcDbEntity
  8
0
100
AcDbBlockEnd
  0
BLOCK
  5
7EA
330
7E9
100
AcDbEntity
  8
0
100
AcDbBlockBegin
  2
*U14
 70
     1
 10
0.0
 20
0.0
 30
0.0
  3
*U14
  1

  0
TEXT
  5
7EB
330
7E9
100
AcDbEntity
  8
LENKIMO
  6
CENTERX2
100
AcDbText
 10
799.0717146298566
 20
1100.336970457902
 30
0.0
 40
100.0
  1
A
100
AcDbText
  0
ENDBLK
  5
7EC
330
7E9
100
AcDbEntity
  8
0
100
AcDbBlockEnd
  0
ENDSEC
  0
SECTION
  2
ENTITIES
  0
LINE
  5
2BA
330
1F
100
AcDbEntity
  8
0
100
AcDbLine
 10
139.2131848905
 20
89.1536026201
 30
0.0
 11
114.5131848905
 21
89.1536026201
 31
0.0
  0
LINE
  5
2BB
330
1F
100
AcDbEntity
  8
0
100
AcDbLine
 10
114.5131848905
 20
71.1536026201
 30
0.0
 11
139.2131848905
 21
71.1536026201
 31
0.0
  0
LINE
  5
2BC
330
1F
100
AcDbEntity
  8
0
100
AcDbLine
 10
139.2131848905
 20
227.1536026201
 30
0.0
 11
114.5131848905
 21
227.1536026201
 31
0.0
  0
LINE
  5
2BD
330
1F
100
AcDbEntity
  8
0
100
AcDbLine
 10
114.5131848905
 20
209.1536026201
 30
0.0
 11
139.2131848905
 21
209.1536026201
 31
0.0
  0
LINE
  5
2BE
330
1F
100
AcDbEntity
  8
0
100
AcDbLine
 10
82.5131848905
 20
69.5036026201
 30
0.0
 11
99.5131848905
 21
69.5036026201
 31
0.0
  0
LINE
  5
2BF
330
1F
100
AcDbEntity
  8
0
100
AcDbLine
 10
99.5131848905
 20
90.8036026201
 30
0.0
 11
82.5131848905
 21
90.8036026201
 31
0.0
  0
LINE
  5
2C0
330
1F
100
AcDbEntity
  8
0
100
AcDbLine
 10
82.5131848905
 20
207.5036026201
 30
0.0
 11
99.5131848905
 21
207.5036026201
 31
0.0
  0
LINE
  5
2C1
330
1F
100
AcDbEntity
  8
0
100
AcDbLine
 10
99.5131848905
 20
228.8036026201
 30
0.0
 11
82.5131848905
 21
228.8036026201
 31
0.0
  0
LINE
  5
2C2
330
1F
100
AcDbEntity
  8
0
100
AcDbLine
 10
149.4631848905
 20
232.0536026201
 30
0.0
 11
150.5131848905
 21
232.0536026201
 31
0.0
  0
LINE
  5
2C3
330
1F
100
AcDbEntity
  8
0
100
AcDbLine
 10
150.5131848905
 20
240.2536026201
 30
0.0
 11
149.4631848905
 21
240.2536026201
 31
0.0
  0
ARC
  5
2C4
330
1F
100
AcDbEntity
  8
0
100
AcDbCircle
 10
149.4631848905
 20
234.0536026201
 30
0.0
 40
2.0
100
AcDbArc
 50
180.0
 51
270.0
  0
ARC
  5
2C5
330
1F
100
AcDbEntity
  8
0
100
AcDbCircle
 10
149.4631848905
 20
238.2536026201
 30
0.0
 40
2.0
100
AcDbArc
 50
90.0
 51
180.0
  0
LINE
  5
2C6
330
1F
100
AcDbEntity
  8
0
100
AcDbLine
 10
150.5131848905
 20
234.0536026201
 30
0.0
 11
151.2131848905
 21
234.0536026201
 31
0.0
  0
LINE
  5
2C7
330
1F
100
AcDbEntity
  8
0
100
AcDbLine
 10
151.2131848905
 20
238.2536026201
 30
0.0
 11
150.5131848905
 21
238.2536026201
 31
0.0
  0
LINE
  5
2C8
330
1F
100
AcDbEntity
  8
0
100
AcDbLine
 10
149.4631848905
 20
60.0536026201
 30
0.0
 11
150.5131848905
 21
60.0536026201
 31
0.0
  0
LINE
  5
2C9
330
1F
100
AcDbEntity
  8
0
100
AcDbLine
 10
150.5131848905
 20
68.2536026201
 30
0.0
 11
149.4631848905
 21
68.2536026201
 31
0.0
  0
ARC
  5
2CA
330
1F
100
AcDbEntity
  8
0
100
AcDbCircle
 10
149.4631848905
 20
62.0536026201
 30
0.0
 40
2.000000000000007
100
AcDbArc
 50
180.0
 51
270.0
  0
ARC
  5
2CB
330
1F
100
AcDbEntity
  8
0
100
AcDbCircle
 10
149.4631848905
 20
66.2536026201
 30
0.0
 40
2.0
100
AcDbArc
 50
90.0
 51
180.0
  0
LINE
  5
2CC
330
1F
100
AcDbEntity
  8
0
100
AcDbLine
 10
150.5131848905
 20
62.0536026201
 30
0.0
 11
151.2131848905
 21
62.0536026201
 31
0.0
  0
LINE
  5
2CD
330
1F
100
AcDbEntity
  8
0
100
AcDbLine
 10
151.2131848905
 20
66.2536026201
 30
0.0
 11
150.5131848905
 21
66.2536026201
 31
0.0
  0
ARC
  5
2CE
330
1F
100
AcDbEntity
  8
0
100
AcDbCircle
 10
325.6825824594
 20
47.6065338921
 30
0.0
 40
4.999999999999987
100
AcDbArc
 50
277.8679237606
 51
303.8409923185
  0
ARC
  5
2D0
330
1F
100
AcDbEntity
  8
0
100
AcDbCircle
 10
249.9325824594
 20
252.700671348
 30
0.0
 40
4.999999999999995
100
AcDbArc
 50
56.15900768149999
 51
82.13207623940002
  0
LWPOLYLINE
  5
2D1
330
1F
100
AcDbEntity
  8
0
100
AcDbPolyline
 90
        3
 70
   128
 43
0.0
 10
248.8170324678
 20
257.6536026201
 10
248.5376260731
 20
257.6068899361
 10
248.4651086791
 20
257.5920851878
  0
LWPOLYLINE
  5
2D6
330
1F
100
AcDbEntity
  8
0
100
AcDbPolyline
 90
        3
 70
   128
 43
0.0
 10
248.4651086791
 20
42.7151200523
 10
248.5376260731
 20
42.700315304
 10
248.8170324678
 20
42.6536026201
  0
ARC
  5
2D7
330
1F
100
AcDbEntity
  8
0
100
AcDbCircle
 10
249.9325824594
 20
47.6065338921
 30
0.0
 40
5.000000000000003
100
AcDbArc
 50
277.8679237606
 51
303.8409923185
  0
ARC
  5
2D8
330
1F
100
AcDbEntity
  8
0
100
AcDbCircle
 10
337.0602536184
 20
226.6380526285
 30
0.0
 40
5.000000000000031
100
AcDbArc
 50
326.1590076815
 51
352.1320762394
  0
ARC
  5
2D9
330
1F
100
AcDbEntity
  8
0
100
AcDbCircle
 10
337.0602536184
 20
227.0691526117
 30
0.0
 40
5.000000000000031
100
AcDbArc
 50
7.867923760599999
 51
33.8409923185
  0
LINE
  5
2DA
330
1F
100
AcDbEntity
  8
0
100
AcDbLine
 10
337.7131848905
 20
228.8536026201
 30
0.0
 11
336.7131848905
 21
227.8536026201
 31
0.0
  0
LINE
  5
2DB
330
1F
100
AcDbEntity
  8
0
100
AcDbLine
 10
336.7131848905
 20
225.8536026201
 30
0.0
 11
337.7131848905
 21
224.8536026201
 31
0.0
  0
LINE
  5
2DC
330
1F
100
AcDbEntity
  8
0
100
AcDbLine
 10
337.7131848905
 20
225.3536026201
 30
0.0
 11
339.8131848905
 21
225.3536026201
 31
0.0
  0
LINE
  5
2DD
330
1F
100
AcDbEntity
  8
0
100
AcDbLine
 10
339.8131848905
 20
228.3536026201
 30
0.0
 11
337.7131848905
 21
228.3536026201
 31
0.0
  0
ARC
  5
2DE
330
1F
100
AcDbEntity
  8
0
100
AcDbCircle
 10
337.0602536184
 20
149.9380526285
 30
0.0
 40
4.999999999999979
100
AcDbArc
 50
326.1590076815
 51
352.1320762394
  0
ARC
  5
2DF
330
1F
100
AcDbEntity
  8
0
100
AcDbCircle
 10
337.0602536184
 20
150.3691526117
 30
0.0
 40
4.999999999999979
100
AcDbArc
 50
7.867923760599999
 51
33.8409923185
  0
LINE
  5
2E0
330
1F
100
AcDbEntity
  8
0
100
AcDbLine
 10
337.7131848905
 20
152.1536026201
 30
0.0
 11
336.7131848905
 21
151.1536026201
 31
0.0
  0
LINE
  5
2E1
330
1F
100
AcDbEntity
  8
0
100
AcDbLine
 10
336.7131848905
 20
149.1536026201
 30
0.0
 11
337.7131848905
 21
148.1536026201
 31
0.0
  0
LINE
  5
2E2
330
1F
100
AcDbEntity
  8
0
100
AcDbLine
 10
337.7131848905
 20
148.6536026201
 30
0.0
 11
339.8131848905
 21
148.6536026201
 31
0.0
  0
LINE
  5
2E3
330
1F
100
AcDbEntity
  8
0
100
AcDbLine
 10
339.8131848905
 20
151.6536026201
 30
0.0
 11
337.7131848905
 21
151.6536026201
 31
0.0
  0
ARC
  5
2E4
330
1F
100
AcDbEntity
  8
0
100
AcDbCircle
 10
169.6976348989
 20
47.6065338921
 30
0.0
 40
5.000000000000003
100
AcDbArc
 50
236.1590076815
 51
262.1320762394
  0
ARC
  5
2E5
330
1F
100
AcDbEntity
  8
0
100
AcDbCircle
 10
170.1287348821
 20
47.6065338921
 30
0.0
 40
4.999999999999987
100
AcDbArc
 50
277.8679237606
 51
303.8409923185
  0
LINE
  5
2E6
330
1F
100
AcDbEntity
  8
0
100
AcDbLine
 10
171.9131848905
 20
46.9536026201
 30
0.0
 11
170.9131848905
 21
47.9536026201
 31
0.0
  0
LINE
  5
2E7
330
1F
100
AcDbEntity
  8
0
100
AcDbLine
 10
168.9131848905
 20
47.9536026201
 30
0.0
 11
167.9131848905
 21
46.9536026201
 31
0.0
  0
LINE
  5
2E8
330
1F
100
AcDbEntity
  8
0
100
AcDbLine
 10
168.4131848905
 20
46.9536026201
 30
0.0
 11
168.4131848905
 21
44.8536026201
 31
0.0
  0
LINE
  5
2E9
330
1F
100
AcDbEntity
  8
0
100
AcDbLine
 10
171.4131848905
 20
44.8536026201
 30
0.0
 11
171.4131848905
 21
46.9536026201
 31
0.0
  0
ARC
  5
2EA
330
1F
100
AcDbEntity
  8
0
100
AcDbCircle
 10
324.2976348989
 20
47.6065338921
 30
0.0
 40
5.000000000000019
100
AcDbArc
 50
236.1590076815
 51
262.1320762394
  0
ARC
  5
2EB
330
1F
100
AcDbEntity
  8
0
100
AcDbCircle
 10
324.7287348821
 20
47.6065338921
 30
0.0
 40
5.000000000000019
100
AcDbArc
 50
277.8679237606
 51
303.8409923185
  0
LINE
  5
2EC
330
1F
100
AcDbEntity
  8
0
100
AcDbLine
 10
326.5131848905
 20
46.9536026201
 30
0.0
 11
325.5131848905
 21
47.9536026201
 31
0.0
  0
LINE
  5
2ED
330
1F
100
AcDbEntity
  8
0
100
AcDbLine
 10
323.5131848905
 20
47.9536026201
 30
0.0
 11
322.5131848905
 21
46.9536026201
 31
0.0
  0
LINE
  5
2EE
330
1F
100
AcDbEntity
  8
0
100
AcDbLine
 10
323.0131848905
 20
46.9536026201
 30
0.0
 11
323.0131848905
 21
44.8536026201
 31
0.0
  0
LINE
  5
2EF
330
1F
100
AcDbEntity
  8
0
100
AcDbLine
 10
326.0131848905
 20
44.8536026201
 30
0.0
 11
326.0131848905
 21
46.9536026201
 31
0.0
  0
ARC
  5
2F0
330
1F
100
AcDbEntity
  8
0
100
AcDbCircle
 10
337.0602536184
 20
73.2380526285
 30
0.0
 40
4.999999999999963
100
AcDbArc
 50
326.1590076815
 51
352.1320762394
  0
ARC
  5
2F1
330
1F
100
AcDbEntity
  8
0
100
AcDbCircle
 10
337.0602536184
 20
73.6691526117
 30
0.0
 40
4.999999999999963
100
AcDbArc
 50
7.867923760599999
 51
33.8409923185
  0
LINE
  5
2F2
330
1F
100
AcDbEntity
  8
0
100
AcDbLine
 10
337.7131848905
 20
75.4536026201
 30
0.0
 11
336.7131848905
 21
74.4536026201
 31
0.0
  0
LINE
  5
2F3
330
1F
100
AcDbEntity
  8
0
100
AcDbLine
 10
336.7131848905
 20
72.4536026201
 30
0.0
 11
337.7131848905
 21
71.4536026201
 31
0.0
  0
LINE
  5
2F4
330
1F
100
AcDbEntity
  8
0
100
AcDbLine
 10
337.7131848905
 20
71.9536026201
 30
0.0
 11
339.8131848905
 21
71.9536026201
 31
0.0
  0
LINE
  5
2F5
330
1F
100
AcDbEntity
  8
0
100
AcDbLine
 10
339.8131848905
 20
74.9536026201
 30
0.0
 11
337.7131848905
 21
74.9536026201
 31
0.0
  0
ARC
  5
2F6
330
1F
100
AcDbEntity
  8
0
100
AcDbCircle
 10
170.1287348821
 20
252.700671348
 30
0.0
 40
4.999999999999943
100
AcDbArc
 50
56.15900768149999
 51
82.13207623940002
  0
ARC
  5
2F7
330
1F
100
AcDbEntity
  8
0
100
AcDbCircle
 10
169.6976348989
 20
252.700671348
 30
0.0
 40
4.999999999999956
100
AcDbArc
 50
97.8679237606
 51
123.8409923185
  0
LINE
  5
2F8
330
1F
100
AcDbEntity
  8
0
100
AcDbLine
 10
167.9131848905
 20
253.3536026201
 30
0.0
 11
168.9131848905
 21
252.3536026201
 31
0.0
  0
LINE
  5
2F9
330
1F
100
AcDbEntity
  8
0
100
AcDbLine
 10
170.9131848905
 20
252.3536026201
 30
0.0
 11
171.9131848905
 21
253.3536026201
 31
0.0
  0
LINE
  5
2FA
330
1F
100
AcDbEntity
  8
0
100
AcDbLine
 10
171.4131848905
 20
253.3536026201
 30
0.0
 11
171.4131848905
 21
255.4536026201
 31
0.0
  0
LINE
  5
2FB
330
1F
100
AcDbEntity
  8
0
100
AcDbLine
 10
168.4131848905
 20
255.4536026201
 30
0.0
 11
168.4131848905
 21
253.3536026201
 31
0.0
  0
ARC
  5
2FC
330
1F
100
AcDbEntity
  8
0
100
AcDbCircle
 10
247.4287348821
 20
252.700671348
 30
0.0
 40
4.999999999999943
100
AcDbArc
 50
56.15900768149999
 51
82.13207623940002
  0
ARC
  5
2FD
330
1F
100
AcDbEntity
  8
0
100
AcDbCircle
 10
246.9976348989
 20
252.700671348
 30
0.0
 40
4.999999999999943
100
AcDbArc
 50
97.8679237606
 51
123.8409923185
  0
LINE
  5
2FE
330
1F
100
AcDbEntity
  8
0
100
AcDbLine
 10
245.2131848905
 20
253.3536026201
 30
0.0
 11
246.2131848905
 21
252.3536026201
 31
0.0
  0
LINE
  5
2FF
330
1F
100
AcDbEntity
  8
0
100
AcDbLine
 10
248.2131848905
 20
252.3536026201
 30
0.0
 11
249.2131848905
 21
253.3536026201
 31
0.0
  0
LINE
  5
300
330
1F
100
AcDbEntity
  8
0
100
AcDbLine
 10
248.7131848905
 20
253.3536026201
 30
0.0
 11
248.7131848905
 21
255.4536026201
 31
0.0
  0
LINE
  5
301
330
1F
100
AcDbEntity
  8
0
100
AcDbLine
 10
245.7131848905
 20
255.4536026201
 30
0.0
 11
245.7131848905
 21
253.3536026201
 31
0.0
  0
ARC
  5
302
330
1F
100
AcDbEntity
  8
0
100
AcDbCircle
 10
324.7287348821
 20
252.700671348
 30
0.0
 40
4.999999999999943
100
AcDbArc
 50
56.15900768149999
 51
82.13207623940002
  0
ARC
  5
303
330
1F
100
AcDbEntity
  8
0
100
AcDbCircle
 10
324.2976348989
 20
252.700671348
 30
0.0
 40
4.999999999999935
100
AcDbArc
 50
97.8679237606
 51
123.8409923185
  0
LINE
  5
304
330
1F
100
AcDbEntity
  8
0
100
AcDbLine
 10
322.5131848905
 20
253.3536026201
 30
0.0
 11
323.5131848905
 21
252.3536026201
 31
0.0
  0
LINE
  5
305
330
1F
100
AcDbEntity
  8
0
100
AcDbLine
 10
325.5131848905
 20
252.3536026201
 30
0.0
 11
326.5131848905
 21
253.3536026201
 31
0.0
  0
LINE
  5
306
330
1F
100
AcDbEntity
  8
0
100
AcDbLine
 10
326.0131848905
 20
253.3536026201
 30
0.0
 11
326.0131848905
 21
255.4536026201
 31
0.0
  0
LINE
  5
307
330
1F
100
AcDbEntity
  8
0
100
AcDbLine
 10
323.0131848905
 20
255.4536026201
 30
0.0
 11
323.0131848905
 21
253.3536026201
 31
0.0
  0
ARC
  5
308
330
1F
100
AcDbEntity
  8
0
100
AcDbCircle
 10
246.9976348989
 20
47.6065338921
 30
0.0
 40
4.999999999999987
100
AcDbArc
 50
236.1590076815
 51
262.1320762394
  0
ARC
  5
309
330
1F
100
AcDbEntity
  8
0
100
AcDbCircle
 10
247.4287348821
 20
47.6065338921
 30
0.0
 40
4.999999999999987
100
AcDbArc
 50
277.8679237606
 51
303.8409923185
  0
LINE
  5
30A
330
1F
100
AcDbEntity
  8
0
100
AcDbLine
 10
249.2131848905
 20
46.9536026201
 30
0.0
 11
248.2131848905
 21
47.9536026201
 31
0.0
  0
LINE
  5
30B
330
1F
100
AcDbEntity
  8
0
100
AcDbLine
 10
246.2131848905
 20
47.9536026201
 30
0.0
 11
245.2131848905
 21
46.9536026201
 31
0.0
  0
LINE
  5
30C
330
1F
100
AcDbEntity
  8
0
100
AcDbLine
 10
245.7131848905
 20
46.9536026201
 30
0.0
 11
245.7131848905
 21
44.8536026201
 31
0.0
  0
LINE
  5
30D
330
1F
100
AcDbEntity
  8
0
100
AcDbLine
 10
248.7131848905
 20
44.8536026201
 30
0.0
 11
248.7131848905
 21
46.9536026201
 31
0.0
  0
LINE
  5
30E
330
1F
100
AcDbEntity
  8
0
100
AcDbLine
 10
150.4131848905
 20
274.1536026201
 30
0.0
 11
148.8131848905
 21
274.1536026201
 31
0.0
  0
LINE
  5
30F
330
1F
100
AcDbEntity
  8
0
100
AcDbLine
 10
148.8131848905
 20
266.1536026201
 30
0.0
 11
150.4131848905
 21
266.1536026201
 31
0.0
  0
ARC
  5
310
330
1F
100
AcDbEntity
  8
0
100
AcDbCircle
 10
148.8131848905
 20
267.6536026201
 30
0.0
 40
1.5
100
AcDbArc
 50
180.0
 51
270.0
  0
ARC
  5
311
330
1F
100
AcDbEntity
  8
0
100
AcDbCircle
 10
148.8131848905
 20
272.6536026201
 30
0.0
 40
1.5
100
AcDbArc
 50
90.0
 51
180.0
  0
ARC
  5
312
330
1F
100
AcDbEntity
  8
0
100
AcDbCircle
 10
148.8131848905
 20
147.6536026201
 30
0.0
 40
1.500000000000028
100
AcDbArc
 50
180.0
 51
270.0
  0
ARC
  5
313
330
1F
100
AcDbEntity
  8
0
100
AcDbCircle
 10
148.8131848905
 20
152.6536026201
 30
0.0
 40
1.500000000000028
100
AcDbArc
 50
90.0
 51
180.0
  0
LINE
  5
314
330
1F
100
AcDbEntity
  8
0
100
AcDbLine
 10
150.4131848905
 20
154.1536026201
 30
0.0
 11
148.8131848905
 21
154.1536026201
 31
0.0
  0
LINE
  5
315
330
1F
100
AcDbEntity
  8
0
100
AcDbLine
 10
148.8131848905
 20
146.1536026201
 30
0.0
 11
150.4131848905
 21
146.1536026201
 31
0.0
  0
LINE
  5
316
330
1F
100
AcDbEntity
  8
0
100
AcDbLine
 10
150.4131848905
 20
34.1536026201
 30
0.0
 11
148.8131848905
 21
34.1536026201
 31
0.0
  0
LINE
  5
317
330
1F
100
AcDbEntity
  8
0
100
AcDbLine
 10
148.8131848905
 20
26.1536026201
 30
0.0
 11
150.4131848905
 21
26.1536026201
 31
0.0
  0
ARC
  5
318
330
1F
100
AcDbEntity
  8
0
100
AcDbCircle
 10
148.8131848905
 20
27.6536026201
 30
0.0
 40
1.5
100
AcDbArc
 50
180.0
 51
270.0
  0
ARC
  5
319
330
1F
100
AcDbEntity
  8
0
100
AcDbCircle
 10
148.8131848905
 20
32.6536026201
 30
0.0
 40
1.500000000000028
100
AcDbArc
 50
90.0
 51
180.0
  0
LINE
  5
31A
330
1F
100
AcDbEntity
  8
0
100
AcDbLine
 10
151.2131848905
 20
34.1536026201
 30
0.0
 11
150.4131848905
 21
34.1536026201
 31
0.0
  0
LINE
  5
31B
330
1F
100
AcDbEntity
  8
0
100
AcDbLine
 10
150.4131848905
 20
26.1536026201
 30
0.0
 11
151.2131848905
 21
26.1536026201
 31
0.0
  0
LINE
  5
31C
330
1F
100
AcDbEntity
  8
0
100
AcDbLine
 10
151.2131848905
 20
154.1536026201
 30
0.0
 11
150.4131848905
 21
154.1536026201
 31
0.0
  0
LINE
  5
31D
330
1F
100
AcDbEntity
  8
0
100
AcDbLine
 10
150.4131848905
 20
146.1536026201
 30
0.0
 11
151.2131848905
 21
146.1536026201
 31
0.0
  0
LINE
  5
31E
330
1F
100
AcDbEntity
  8
0
100
AcDbLine
 10
151.2131848905
 20
274.1536026201
 30
0.0
 11
150.4131848905
 21
274.1536026201
 31
0.0
  0
LINE
  5
31F
330
1F
100
AcDbEntity
  8
0
100
AcDbLine
 10
150.4131848905
 20
266.1536026201
 30
0.0
 11
151.2131848905
 21
266.1536026201
 31
0.0
  0
LINE
  5
320
330
1F
100
AcDbEntity
  8
0
100
AcDbLine
 10
151.2131848905
 20
114.1536026201
 30
0.0
 11
149.2131848905
 21
114.1536026201
 31
0.0
  0
LINE
  5
321
330
1F
100
AcDbEntity
  8
0
100
AcDbLine
 10
149.2131848905
 20
46.1536026201
 30
0.0
 11
151.2131848905
 21
46.1536026201
 31
0.0
  0
ARC
  5
322
330
1F
100
AcDbEntity
  8
0
100
AcDbCircle
 10
141.2131848905
 20
100.1536026201
 30
0.0
 40
8.0
100
AcDbArc
 50
270.0
 51
0.0
  0
ARC
  5
323
330
1F
100
AcDbEntity
  8
0
100
AcDbCircle
 10
141.2131848905
 20
60.1536026201
 30
0.0
 40
8.000000000000007
100
AcDbArc
 50
38.6248328731
 51
90.0
  0
LINE
  5
324
330
1F
100
AcDbEntity
  8
0
100
AcDbLine
 10
141.2131848905
 20
92.1536026201
 30
0.0
 11
139.2131848905
 21
92.1536026201
 31
0.0
  0
LINE
  5
325
330
1F
100
AcDbEntity
  8
0
100
AcDbLine
 10
139.2131848905
 20
68.1536026201
 30
0.0
 11
141.2131848905
 21
68.1536026201
 31
0.0
  0
LINE
  5
326
330
1F
100
AcDbEntity
  8
0
100
AcDbLine
 10
151.2131848905
 20
252.1536026201
 30
0.0
 11
149.2131848905
 21
252.1536026201
 31
0.0
  0
LINE
  5
327
330
1F
100
AcDbEntity
  8
0
100
AcDbLine
 10
149.2131848905
 20
184.1536026201
 30
0.0
 11
151.2131848905
 21
184.1536026201
 31
0.0
  0
ARC
  5
328
330
1F
100
AcDbEntity
  8
0
100
AcDbCircle
 10
141.2131848905
 20
238.1536026201
 30
0.0
 40
8.000000000000004
100
AcDbArc
 50
270.0
 51
322.9441132025
  0
ARC
  5
329
330
1F
100
AcDbEntity
  8
0
100
AcDbCircle
 10
141.2131848905
 20
198.1536026201
 30
0.0
 40
8.000000000000028
100
AcDbArc
 50
0.0
 51
90.0
  0
LINE
  5
32A
330
1F
100
AcDbEntity
  8
0
100
AcDbLine
 10
141.2131848905
 20
230.1536026201
 30
0.0
 11
139.2131848905
 21
230.1536026201
 31
0.0
  0
LINE
  5
32B
330
1F
100
AcDbEntity
  8
0
100
AcDbLine
 10
139.2131848905
 20
206.1536026201
 30
0.0
 11
141.2131848905
 21
206.1536026201
 31
0.0
  0
LINE
  5
32C
330
1F
100
AcDbEntity
  8
0
100
AcDbLine
 10
114.5131848905
 20
92.9036026201
 30
0.0
 11
99.5131848905
 21
92.9036026201
 31
0.0
  0
LINE
  5
32D
330
1F
100
AcDbEntity
  8
0
100
AcDbLine
 10
114.5131848905
 20
92.9036026201
 30
0.0
 11
114.5131848905
 21
86.5286026201
 31
0.0
  0
LINE
  5
32F
330
1F
100
AcDbEntity
  8
0
100
AcDbLine
 10
99.5131848905
 20
92.9036026201
 30
0.0
 11
99.5131848905
 21
86.5286026201
 31
0.0
  0
LINE
  5
330
330
1F
100
AcDbEntity
  8
0
100
AcDbLine
 10
114.5131848905
 20
86.5286026201
 30
0.0
 11
114.5131848905
 21
73.7786026201
 31
0.0
  0
LINE
  5
332
330
1F
100
AcDbEntity
  8
0
100
AcDbLine
 10
99.5131848905
 20
86.5286026201
 30
0.0
 11
99.5131848905
 21
73.7786026201
 31
0.0
  0
LINE
  5
333
330
1F
100
AcDbEntity
  8
0
100
AcDbLine
 10
114.5131848905
 20
67.4036026201
 30
0.0
 11
99.5131848905
 21
67.4036026201
 31
0.0
  0
LINE
  5
334
330
1F
100
AcDbEntity
  8
0
100
AcDbLine
 10
114.5131848905
 20
73.7786026201
 30
0.0
 11
114.5131848905
 21
67.4036026201
 31
0.0
  0
LINE
  5
335
330
1F
100
AcDbEntity
  8
0
100
AcDbLine
 10
99.5131848905
 20
73.7786026201
 30
0.0
 11
99.5131848905
 21
67.4036026201
 31
0.0
  0
LINE
  5
336
330
1F
100
AcDbEntity
  8
0
100
AcDbLine
 10
114.5131848905
 20
230.9036026201
 30
0.0
 11
99.5131848905
 21
230.9036026201
 31
0.0
  0
LINE
  5
337
330
1F
100
AcDbEntity
  8
0
100
AcDbLine
 10
114.5131848905
 20
230.9036026201
 30
0.0
 11
114.5131848905
 21
224.5286026201
 31
0.0
  0
LINE
  5
339
330
1F
100
AcDbEntity
  8
0
100
AcDbLine
 10
99.5131848905
 20
230.9036026201
 30
0.0
 11
99.5131848905
 21
224.5286026201
 31
0.0
  0
LINE
  5
33B
330
1F
100
AcDbEntity
  8
0
100
AcDbLine
 10
99.5131848905
 20
224.5286026201
 30
0.0
 11
99.5131848905
 21
211.7786026201
 31
0.0
  0
LINE
  5
33C
330
1F
100
AcDbEntity
  8
0
100
AcDbLine
 10
114.5131848905
 20
224.5286026201
 30
0.0
 11
114.5131848905
 21
211.7786026201
 31
0.0
  0
LINE
  5
33D
330
1F
100
AcDbEntity
  8
0
100
AcDbLine
 10
114.5131848905
 20
205.4036026201
 30
0.0
 11
99.5131848905
 21
205.4036026201
 31
0.0
  0
LINE
  5
33E
330
1F
100
AcDbEntity
  8
0
100
AcDbLine
 10
99.5131848905
 20
211.7786026201
 30
0.0
 11
99.5131848905
 21
205.4036026201
 31
0.0
  0
LINE
  5
33F
330
1F
100
AcDbEntity
  8
0
100
AcDbLine
 10
114.5131848905
 20
211.7786026201
 30
0.0
 11
114.5131848905
 21
205.4036026201
 31
0.0
  0
LINE
  5
362
330
1F
100
AcDbEntity
  8
0
100
AcDbLine
 10
82.5131848905
 20
69.5036026201
 30
0.0
 11
82.5131848905
 21
90.8036026201
 31
0.0
  0
LINE
  5
363
330
1F
100
AcDbEntity
  8
0
100
AcDbLine
 10
82.5131848905
 20
207.5036026201
 30
0.0
 11
82.5131848905
 21
228.8036026201
 31
0.0
  0
LINE
  5
364
330
1F
100
AcDbEntity
  8
0
100
AcDbLine
 10
150.5131848905
 20
232.0536026201
 30
0.0
 11
150.5131848905
 21
240.2536026201
 31
0.0
  0
LINE
  5
365
330
1F
100
AcDbEntity
  8
0
100
AcDbLine
 10
147.4631848905
 20
236.4036026201
 30
0.0
 11
147.4631848905
 21
238.2386685663
 31
0.0
  0
LINE
  5
366
330
1F
100
AcDbEntity
  8
0
100
AcDbLine
 10
147.4631848905
 20
238.2386685663
 30
0.0
 11
147.4631848905
 21
238.2536026201
 31
0.0
  0
LINE
  5
367
330
1F
100
AcDbEntity
  8
0
100
AcDbLine
 10
147.4631848905
 20
234.0536026201
 30
0.0
 11
147.4631848905
 21
234.0685366739
 31
0.0
  0
LINE
  5
368
330
1F
100
AcDbEntity
  8
0
100
AcDbLine
 10
147.4631848905
 20
234.0685366739
 30
0.0
 11
147.4631848905
 21
235.9036026201
 31
0.0
  0
LINE
  5
369
330
1F
100
AcDbEntity
  8
0
100
AcDbLine
 10
147.4631848905
 20
235.9036026201
 30
0.0
 11
147.4631848905
 21
236.4036026201
 31
0.0
  0
LINE
  5
36A
330
1F
100
AcDbEntity
  8
0
100
AcDbLine
 10
150.5131848905
 20
60.0536026201
 30
0.0
 11
150.5131848905
 21
68.2536026201
 31
0.0
  0
LINE
  5
36B
330
1F
100
AcDbEntity
  8
0
100
AcDbLine
 10
147.4631848905
 20
64.4036026201
 30
0.0
 11
147.4631848905
 21
66.2386685663
 31
0.0
  0
LINE
  5
36C
330
1F
100
AcDbEntity
  8
0
100
AcDbLine
 10
147.4631848905
 20
66.2386685663
 30
0.0
 11
147.4631848905
 21
66.2536026201
 31
0.0
  0
LINE
  5
36D
330
1F
100
AcDbEntity
  8
0
100
AcDbLine
 10
147.4631848905
 20
62.0536026201
 30
0.0
 11
147.4631848905
 21
62.0685366739
 31
0.0
  0
LINE
  5
36E
330
1F
100
AcDbEntity
  8
0
100
AcDbLine
 10
147.4631848905
 20
62.0685366739
 30
0.0
 11
147.4631848905
 21
63.9036026201
 31
0.0
  0
LINE
  5
36F
330
1F
100
AcDbEntity
  8
0
100
AcDbLine
 10
147.4631848905
 20
63.9036026201
 30
0.0
 11
147.4631848905
 21
64.4036026201
 31
0.0
  0
LINE
  5
370
330
1F
100
AcDbEntity
  8
0
100
AcDbLine
 10
325.4131848905
 20
42.6536026201
 30
0.0
 11
326.3670324678
 21
42.6536026201
 31
0.0
  0
LINE
  5
372
330
1F
100
AcDbEntity
  8
0
100
AcDbLine
 10
250.6170324678
 20
257.6536026201
 30
0.0
 11
248.8170324678
 21
257.6536026201
 31
0.0
  0
LINE
  5
375
330
1F
100
AcDbEntity
  8
0
100
AcDbLine
 10
248.8170324678
 20
42.6536026201
 30
0.0
 11
250.6170324678
 21
42.6536026201
 31
0.0
  0
LINE
  5
376
330
1F
100
AcDbEntity
  8
0
100
AcDbLine
 10
342.0131848905
 20
226.3613528953
 30
0.0
 11
342.0131848905
 21
227.7536026201
 31
0.0
  0
LINE
  5
377
330
1F
100
AcDbEntity
  8
0
100
AcDbLine
 10
342.0131848905
 20
225.9536026201
 30
0.0
 11
342.0131848905
 21
226.3613528953
 31
0.0
  0
LINE
  5
378
330
1F
100
AcDbEntity
  8
0
100
AcDbLine
 10
336.7131848905
 20
226.3066584815
 30
0.0
 11
336.7131848905
 21
227.8536026201
 31
0.0
  0
LINE
  5
379
330
1F
100
AcDbEntity
  8
0
100
AcDbLine
 10
336.7131848905
 20
225.8536026201
 30
0.0
 11
336.7131848905
 21
226.3066584815
 31
0.0
  0
LINE
  5
37A
330
1F
100
AcDbEntity
  8
0
100
AcDbLine
 10
337.7131848905
 20
225.7597143429
 30
0.0
 11
337.7131848905
 21
228.8536026201
 31
0.0
  0
LINE
  5
37B
330
1F
100
AcDbEntity
  8
0
100
AcDbLine
 10
337.7131848905
 20
224.8536026201
 30
0.0
 11
337.7131848905
 21
225.7597143429
 31
0.0
  0
LINE
  5
37C
330
1F
100
AcDbEntity
  8
0
100
AcDbLine
 10
342.0131848905
 20
149.6613528953
 30
0.0
 11
342.0131848905
 21
151.0536026201
 31
0.0
  0
LINE
  5
37D
330
1F
100
AcDbEntity
  8
0
100
AcDbLine
 10
342.0131848905
 20
149.2536026201
 30
0.0
 11
342.0131848905
 21
149.6613528953
 31
0.0
  0
LINE
  5
37E
330
1F
100
AcDbEntity
  8
0
100
AcDbLine
 10
336.7131848905
 20
149.6066584815
 30
0.0
 11
336.7131848905
 21
151.1536026201
 31
0.0
  0
LINE
  5
37F
330
1F
100
AcDbEntity
  8
0
100
AcDbLine
 10
336.7131848905
 20
149.1536026201
 30
0.0
 11
336.7131848905
 21
149.6066584815
 31
0.0
  0
LINE
  5
380
330
1F
100
AcDbEntity
  8
0
100
AcDbLine
 10
337.7131848905
 20
149.0597143429
 30
0.0
 11
337.7131848905
 21
152.1536026201
 31
0.0
  0
LINE
  5
381
330
1F
100
AcDbEntity
  8
0
100
AcDbLine
 10
337.7131848905
 20
148.1536026201
 30
0.0
 11
337.7131848905
 21
149.0597143429
 31
0.0
  0
LINE
  5
382
330
1F
100
AcDbEntity
  8
0
100
AcDbLine
 10
169.0131848905
 20
42.6536026201
 30
0.0
 11
170.8131848905
 21
42.6536026201
 31
0.0
  0
LINE
  5
383
330
1F
100
AcDbEntity
  8
0
100
AcDbLine
 10
168.9131848905
 20
47.9536026201
 30
0.0
 11
170.9131848905
 21
47.9536026201
 31
0.0
  0
LINE
  5
384
330
1F
100
AcDbEntity
  8
0
100
AcDbLine
 10
167.9131848905
 20
46.9536026201
 30
0.0
 11
171.9131848905
 21
46.9536026201
 31
0.0
  0
LINE
  5
385
330
1F
100
AcDbEntity
  8
0
100
AcDbLine
 10
323.6131848905
 20
42.6536026201
 30
0.0
 11
325.4131848905
 21
42.6536026201
 31
0.0
  0
LINE
  5
386
330
1F
100
AcDbEntity
  8
0
100
AcDbLine
 10
323.5131848905
 20
47.9536026201
 30
0.0
 11
325.5131848905
 21
47.9536026201
 31
0.0
  0
LINE
  5
387
330
1F
100
AcDbEntity
  8
0
100
AcDbLine
 10
322.5131848905
 20
46.9536026201
 30
0.0
 11
326.5131848905
 21
46.9536026201
 31
0.0
  0
LINE
  5
388
330
1F
100
AcDbEntity
  8
0
100
AcDbLine
 10
342.0131848905
 20
72.9613528953
 30
0.0
 11
342.0131848905
 21
74.3536026201
 31
0.0
  0
LINE
  5
389
330
1F
100
AcDbEntity
  8
0
100
AcDbLine
 10
342.0131848905
 20
72.5536026201
 30
0.0
 11
342.0131848905
 21
72.9613528953
 31
0.0
  0
LINE
  5
38A
330
1F
100
AcDbEntity
  8
0
100
AcDbLine
 10
336.7131848905
 20
72.9066584815
 30
0.0
 11
336.7131848905
 21
74.4536026201
 31
0.0
  0
LINE
  5
38B
330
1F
100
AcDbEntity
  8
0
100
AcDbLine
 10
336.7131848905
 20
72.4536026201
 30
0.0
 11
336.7131848905
 21
72.9066584815
 31
0.0
  0
LINE
  5
38C
330
1F
100
AcDbEntity
  8
0
100
AcDbLine
 10
337.7131848905
 20
72.3597143429
 30
0.0
 11
337.7131848905
 21
75.4536026201
 31
0.0
  0
LINE
  5
38D
330
1F
100
AcDbEntity
  8
0
100
AcDbLine
 10
337.7131848905
 20
71.4536026201
 30
0.0
 11
337.7131848905
 21
72.3597143429
 31
0.0
  0
LINE
  5
38E
330
1F
100
AcDbEntity
  8
0
100
AcDbLine
 10
170.8131848905
 20
257.6536026201
 30
0.0
 11
169.0131848905
 21
257.6536026201
 31
0.0
  0
LINE
  5
38F
330
1F
100
AcDbEntity
  8
0
100
AcDbLine
 10
170.9131848905
 20
252.3536026201
 30
0.0
 11
168.9131848905
 21
252.3536026201
 31
0.0
  0
LINE
  5
390
330
1F
100
AcDbEntity
  8
0
100
AcDbLine
 10
171.9131848905
 20
253.3536026201
 30
0.0
 11
167.9131848905
 21
253.3536026201
 31
0.0
  0
LINE
  5
391
330
1F
100
AcDbEntity
  8
0
100
AcDbLine
 10
248.1131848905
 20
257.6536026201
 30
0.0
 11
246.3131848905
 21
257.6536026201
 31
0.0
  0
LINE
  5
392
330
1F
100
AcDbEntity
  8
0
100
AcDbLine
 10
248.2131848905
 20
252.3536026201
 30
0.0
 11
246.2131848905
 21
252.3536026201
 31
0.0
  0
LINE
  5
393
330
1F
100
AcDbEntity
  8
0
100
AcDbLine
 10
249.2131848905
 20
253.3536026201
 30
0.0
 11
245.2131848905
 21
253.3536026201
 31
0.0
  0
LINE
  5
394
330
1F
100
AcDbEntity
  8
0
100
AcDbLine
 10
325.4131848905
 20
257.6536026201
 30
0.0
 11
323.6131848905
 21
257.6536026201
 31
0.0
  0
LINE
  5
395
330
1F
100
AcDbEntity
  8
0
100
AcDbLine
 10
325.5131848905
 20
252.3536026201
 30
0.0
 11
323.5131848905
 21
252.3536026201
 31
0.0
  0
LINE
  5
396
330
1F
100
AcDbEntity
  8
0
100
AcDbLine
 10
326.5131848905
 20
253.3536026201
 30
0.0
 11
322.5131848905
 21
253.3536026201
 31
0.0
  0
LINE
  5
397
330
1F
100
AcDbEntity
  8
0
100
AcDbLine
 10
246.3131848905
 20
42.6536026201
 30
0.0
 11
248.1131848905
 21
42.6536026201
 31
0.0
  0
LINE
  5
398
330
1F
100
AcDbEntity
  8
0
100
AcDbLine
 10
246.2131848905
 20
47.9536026201
 30
0.0
 11
248.2131848905
 21
47.9536026201
 31
0.0
  0
LINE
  5
399
330
1F
100
AcDbEntity
  8
0
100
AcDbLine
 10
245.2131848905
 20
46.9536026201
 30
0.0
 11
249.2131848905
 21
46.9536026201
 31
0.0
  0
LINE
  5
39C
330
1F
100
AcDbEntity
  8
0
100
AcDbLine
 10
147.3131848905
 20
270.1536026201
 30
0.0
 11
147.3131848905
 21
272.6536026201
 31
0.0
  0
LINE
  5
39D
330
1F
100
AcDbEntity
  8
0
100
AcDbLine
 10
147.3131848905
 20
267.6536026201
 30
0.0
 11
147.3131848905
 21
270.1536026201
 31
0.0
  0
LINE
  5
39E
330
1F
100
AcDbEntity
  8
0
100
AcDbLine
 10
147.3131848905
 20
147.6536026201
 30
0.0
 11
147.3131848905
 21
152.6536026201
 31
0.0
  0
LINE
  5
3A1
330
1F
100
AcDbEntity
  8
0
100
AcDbLine
 10
147.3131848905
 20
27.6536026201
 30
0.0
 11
147.3131848905
 21
32.6536026201
 31
0.0
  0
LINE
  5
3A6
330
1F
100
AcDbEntity
  8
0
100
AcDbLine
 10
149.2131848905
 20
114.1536026201
 30
0.0
 11
149.2131848905
 21
68.2379161034
 31
0.0
  0
LINE
  5
3A7
330
1F
100
AcDbEntity
  8
0
100
AcDbLine
 10
149.2131848905
 20
60.1536026201
 30
0.0
 11
149.2131848905
 21
46.1536026201
 31
0.0
  0
LINE
  5
3A8
330
1F
100
AcDbEntity
  8
0
100
AcDbLine
 10
139.2131848905
 20
92.1536026201
 30
0.0
 11
139.2131848905
 21
68.1536026201
 31
0.0
  0
LINE
  5
3A9
330
1F
100
AcDbEntity
  8
0
100
AcDbLine
 10
149.2131848905
 20
252.1536026201
 30
0.0
 11
149.2131848905
 21
240.2379161034
 31
0.0
  0
LINE
  5
3AA
330
1F
100
AcDbEntity
  8
0
100
AcDbLine
 10
149.2131848905
 20
232.0692891368
 30
0.0
 11
149.2131848905
 21
184.1536026201
 31
0.0
  0
LINE
  5
3AB
330
1F
100
AcDbEntity
  8
0
100
AcDbLine
 10
139.2131848905
 20
230.1536026201
 30
0.0
 11
139.2131848905
 21
206.1536026201
 31
0.0
  0
LINE
  5
3AC
330
1F
100
AcDbEntity
  8
0
100
AcDbLine
 10
160.2131848905
 20
21.45360262
 30
0.0
 11
160.2131848905
 21
278.8536026201
 31
0.0
  0
LINE
  5
3B2
330
1F
100
AcDbEntity
  8
0
100
AcDbLine
 10
151.2131848905
 20
23.1536026201
 30
0.0
 11
151.2131848905
 21
277.1536026201
 31
0.0
  0
LINE
  5
3B3
330
1F
100
AcDbEntity
  8
0
100
AcDbLine
 10
152.9131848905
 20
21.4536026201
 30
0.0
 11
160.2131848905
 21
21.45360262
 31
0.0
  0
ARC
  5
3B7
330
1F
100
AcDbEntity
  8
0
100
AcDbCircle
 10
152.9131848905
 20
23.1536026201
 30
0.0
 40
1.700000000000017
100
AcDbArc
 50
180.0
 51
270.0
  0
LINE
  5
3BB
330
1F
100
AcDbEntity
  8
0
100
AcDbLine
 10
160.2131848905
 20
278.8536026201
 30
0.0
 11
152.9131848905
 21
278.8536026201
 31
0.0
  0
ARC
  5
3BE
330
1F
100
AcDbEntity
  8
0
100
AcDbCircle
 10
152.9131848905
 20
277.1536026201
 30
0.0
 40
1.699999999999989
100
AcDbArc
 50
90.0
 51
179.9999999996
  0
LINE
  5
3BF
330
1F
100
AcDbEntity
  8
0
100
AcDbLine
 10
339.5131848905
 20
256.8536026201
 30
0.0
 11
160.2131848905
 21
256.8536026201
 31
0.0
  0
LINE
  5
3C4
330
1F
100
AcDbEntity
  8
0
100
AcDbLine
 10
160.2131848905
 20
43.4536026201
 30
0.0
 11
339.5131848905
 21
43.4536026201
 31
0.0
  0
LINE
  5
3C8
330
1F
100
AcDbEntity
  8
0
100
AcDbLine
 10
341.2131848905
 20
45.1536026201
 30
0.0
 11
341.2131848905
 21
255.1536026201
 31
0.0
  0
ARC
  5
3CA
330
1F
100
AcDbEntity
  8
0
100
AcDbCircle
 10
339.5131848905
 20
255.1536026201
 30
0.0
 40
1.700000000000017
100
AcDbArc
 50
0.0
 51
90.0
  0
ARC
  5
3CC
330
1F
100
AcDbEntity
  8
0
100
AcDbCircle
 10
339.5131848905
 20
45.1536026201
 30
0.0
 40
1.70000000000001
100
AcDbArc
 50
270.0
 51
0.0
  0
CIRCLE
  5
3CD
330
1F
100
AcDbEntity
  8
0
100
AcDbCircle
 10
190.291089005
 20
93.2315067345
 30
0.0
 40
3.900000000000006
  0
CIRCLE
  5
3CE
330
1F
100
AcDbEntity
  8
0
100
AcDbCircle
 10
190.291089005
 20
93.2315067345
 30
0.0
 40
1.100000000000023
  0
CIRCLE
  5
3CF
330
1F
100
AcDbEntity
  8
0
100
AcDbCircle
 10
304.135280776
 20
207.0756985056
 30
0.0
 40
3.899999999999977
  0
CIRCLE
  5
3D0
330
1F
100
AcDbEntity
  8
0
100
AcDbCircle
 10
304.135280776
 20
207.0756985056
 30
0.0
 40
1.100000000000023
  0
CIRCLE
  5
3D1
330
1F
100
AcDbEntity
  8
0
100
AcDbCircle
 10
190.291089005
 20
207.0756985056
 30
0.0
 40
3.900000000000034
  0
CIRCLE
  5
3D2
330
1F
100
AcDbEntity
  8
0
100
AcDbCircle
 10
190.291089005
 20
207.0756985056
 30
0.0
 40
1.100000000000023
  0
CIRCLE
  5
3D3
330
1F
100
AcDbEntity
  8
0
100
AcDbCircle
 10
304.135280776
 20
93.2315067345
 30
0.0
 40
3.899999999999977
  0
CIRCLE
  5
3D4
330
1F
100
AcDbEntity
  8
0
100
AcDbCircle
 10
304.135280776
 20
93.2315067345
 30
0.0
 40
1.100000000000023
  0
CIRCLE
  5
3D6
330
1F
100
AcDbEntity
  8
0
100
AcDbCircle
 10
247.2131848905
 20
150.1536026201
 30
0.0
 40
62.5
  0
CIRCLE
  5
3D8
330
1F
100
AcDbEntity
  8
0
100
AcDbCircle
 10
247.2131848905
 20
150.1536026201
 30
0.0
 40
58.90000000000001
  0
LINE
  5
3DD
330
1F
100
AcDbEntity
  8
0
100
AcDbLine
 10
339.8131848905
 20
255.3828919419
 30
0.0
 11
339.8131848905
 21
44.9243132982
 31
0.0
  0
LINE
  5
3DF
330
1F
100
AcDbEntity
  8
0
100
AcDbLine
 10
160.2131848905
 20
255.4536026201
 30
0.0
 11
339.7424742124
 21
255.4536026201
 31
0.0
  0
LINE
  5
3E1
330
1F
100
AcDbEntity
  8
0
100
AcDbLine
 10
339.7424742124
 20
44.8536026201
 30
0.0
 11
160.2131848905
 21
44.8536026201
 31
0.0
  0
SPLINE
  5
3E4
330
1F
100
AcDbEntity
  8
0
100
AcDbSpline
210
0.0
220
0.0
230
1.0
 70
     8
 71
     3
 72
    11
 73
     7
 74
     0
 42
0.000000001
 43
0.00000001
 40
0.0
 40
0.0
 40
0.0
 40
0.0
 40
0.2497194705775424
 40
0.4995459238715076
 40
0.7493726557942116
 40
1.0
 40
1.0
 40
1.0
 40
1.0
 10
339.7424742123749
 20
44.85360262006311
 30
0.0
 10
339.6651212961658
 20
44.86859999421874
 30
0.0
 10
339.5103823248612
 20
44.89860116757899
 30
0.0
 10
339.2782549172359
 20
45.12944818090184
 30
0.0
 10
339.0458497505801
 20
45.45991333079547
 30
0.0
 10
338.890822513253
 20
45.72223297312456
 30
0.0
 10
338.8131848904936
 20
45.85360262006311
 30
0.0
  0
SPLINE
  5
3E5
330
1F
100
AcDbEntity
  8
0
100
AcDbSpline
210
0.0
220
0.0
230
1.0
 70
     8
 71
     3
 72
    11
 73
     7
 74
     0
 42
0.000000001
 43
0.00000001
 40
0.0
 40
0.0
 40
0.0
 40
0.0
 40
0.2497194705775606
 40
0.4995459238715378
 40
0.7493726557942219
 40
1.0
 40
1.0
 40
1.0
 40
1.0
 10
339.8131848904936
 20
255.3828919419445
 30
0.0
 10
339.798187516338
 20
255.3055390257353
 30
0.0
 10
339.7681863429777
 20
255.1508000544308
 30
0.0
 10
339.5373393296548
 20
254.9186726468054
 30
0.0
 10
339.2068741797611
 20
254.6862674801497
 30
0.0
 10
338.9445545374321
 20
254.5312402428225
 30
0.0
 10
338.8131848904936
 20
254.4536026200632
 30
0.0
  0
SPLINE
  5
3E6
330
1F
100
AcDbEntity
  8
0
100
AcDbSpline
210
0.0
220
0.0
230
1.0
 70
     8
 71
     3
 72
    11
 73
     7
 74
     0
 42
0.000000001
 43
0.00000001
 40
0.0
 40
0.0
 40
0.0
 40
0.0
 40
0.2497194705775404
 40
0.4995459238715199
 40
0.7493726557942201
 40
1.0
 40
1.0
 40
1.0
 40
1.0
 10
338.8131848904936
 20
45.85360262006314
 30
0.0
 10
338.9440735925176
 20
45.77624970385391
 30
0.0
 10
339.2059070708029
 20
45.62151073254942
 30
0.0
 10
339.5362918497866
 20
45.38938332492415
 30
0.0
 10
339.7679142866098
 20
45.15697815826825
 30
0.0
 10
339.7980786038584
 20
45.0019509209412
 30
0.0
 10
339.8131848904936
 20
44.92431329818178
 30
0.0
  0
SPLINE
  5
3E7
330
1F
100
AcDbEntity
  8
0
100
AcDbSpline
210
0.0
220
0.0
230
1.0
 70
     8
 71
     3
 72
    11
 73
     7
 74
     0
 42
0.000000001
 43
0.00000001
 40
0.0
 40
0.0
 40
0.0
 40
0.0
 40
0.2497194705775669
 40
0.499545923871545
 40
0.7493726557942465
 40
1.0
 40
1.0
 40
1.0
 40
1.0
 10
338.8131848904936
 20
254.4536026200632
 30
0.0
 10
338.8905378067028
 20
254.5844913220871
 30
0.0
 10
339.0452767780073
 20
254.8463248003725
 30
0.0
 10
339.2774041856326
 20
255.1767095793562
 30
0.0
 10
339.5098093522884
 20
255.4083320161794
 30
0.0
 10
339.6648365896156
 20
255.4384963334279
 30
0.0
 10
339.7424742123749
 20
255.4536026200632
 30
0.0
  0
CIRCLE
  5
3E8
330
1F
100
AcDbEntity
  8
0
100
AcDbCircle
 10
247.2131848905
 20
150.1536026201
 30
0.0
 40
68.5
  0
LINE
  5
3F1
330
1F
100
AcDbEntity
  8
0
100
AcDbLine
 10
160.2131848905
 20
45.8536026201
 30
0.0
 11
168.4131848905
 21
45.8536026201
 31
0.0
  0
LINE
  5
3F2
330
1F
100
AcDbEntity
  8
0
100
AcDbLine
 10
171.4131848905
 20
45.8536026201
 30
0.0
 11
245.7131848905
 21
45.8536026201
 31
0.0
  0
LINE
  5
3F3
330
1F
100
AcDbEntity
  8
0
100
AcDbLine
 10
248.7131848905
 20
45.8536026201
 30
0.0
 11
323.0131848905
 21
45.8536026201
 31
0.0
  0
LINE
  5
3F4
330
1F
100
AcDbEntity
  8
0
100
AcDbLine
 10
326.0131848905
 20
45.8536026201
 30
0.0
 11
338.8131848905
 21
45.8536026201
 31
0.0
  0
LINE
  5
3F5
330
1F
100
AcDbEntity
  8
0
100
AcDbLine
 10
338.8131848905
 20
45.8536026201
 30
0.0
 11
338.8131848905
 21
71.9536026201
 31
0.0
  0
LINE
  5
3F6
330
1F
100
AcDbEntity
  8
0
100
AcDbLine
 10
338.8131848905
 20
74.9536026201
 30
0.0
 11
338.8131848905
 21
148.6536026201
 31
0.0
  0
LINE
  5
3F7
330
1F
100
AcDbEntity
  8
0
100
AcDbLine
 10
338.8131848905
 20
151.6536026201
 30
0.0
 11
338.8131848905
 21
225.3536026201
 31
0.0
  0
LINE
  5
3F8
330
1F
100
AcDbEntity
  8
0
100
AcDbLine
 10
338.8131848905
 20
228.3536026201
 30
0.0
 11
338.8131848905
 21
254.4536026201
 31
0.0
  0
LINE
  5
3F9
330
1F
100
AcDbEntity
  8
0
100
AcDbLine
 10
338.8131848905
 20
254.4536026201
 30
0.0
 11
326.0131848905
 21
254.4536026201
 31
0.0
  0
LINE
  5
3FA
330
1F
100
AcDbEntity
  8
0
100
AcDbLine
 10
323.0131848905
 20
254.4536026201
 30
0.0
 11
248.7131848905
 21
254.4536026201
 31
0.0
  0
LINE
  5
3FB
330
1F
100
AcDbEntity
  8
0
100
AcDbLine
 10
245.7131848905
 20
254.4536026201
 30
0.0
 11
171.4131848905
 21
254.4536026201
 31
0.0
  0
LINE
  5
3FC
330
1F
100
AcDbEntity
  8
0
100
AcDbLine
 10
168.4131848905
 20
254.4536026201
 30
0.0
 11
160.2131848905
 21
254.4536026201
 31
0.0
  0
LINE
  5
3FD
330
1F
100
AcDbEntity
  8
0
100
AcDbLine
 10
155.8627125758
 20
537.0447752977
 30
0.0
 11
131.1627125757
 21
537.0447752977
 31
0.0
  0
LINE
  5
3FE
330
1F
100
AcDbEntity
  8
0
100
AcDbLine
 10
131.1627125757
 20
519.0447752977
 30
0.0
 11
155.8627125758
 21
519.0447752977
 31
0.0
  0
LINE
  5
3FF
330
1F
100
AcDbEntity
  8
0
100
AcDbLine
 10
155.8627125758
 20
515.0447752977
 30
0.0
 11
131.1627125757
 21
515.0447752977
 31
0.0
  0
LINE
  5
400
330
1F
100
AcDbEntity
  8
0
100
AcDbLine
 10
131.1627125757
 20
497.0447752977
 30
0.0
 11
155.8627125758
 21
497.0447752977
 31
0.0
  0
LINE
  5
401
330
1F
100
AcDbEntity
  8
0
100
AcDbLine
 10
99.1627125757
 20
517.3947752977
 30
0.0
 11
116.1627125757
 21
517.3947752977
 31
0.0
  0
LINE
  5
402
330
1F
100
AcDbEntity
  8
0
100
AcDbLine
 10
116.1627125757
 20
538.6947752977
 30
0.0
 11
99.1627125757
 21
538.6947752977
 31
0.0
  0
LINE
  5
403
330
1F
100
AcDbEntity
  8
0
100
AcDbLine
 10
99.1627125757
 20
495.3947752977
 30
0.0
 11
116.1627125757
 21
495.3947752977
 31
0.0
  0
LINE
  5
404
330
1F
100
AcDbEntity
  8
0
100
AcDbLine
 10
116.1627125757
 20
516.6947752977
 30
0.0
 11
99.1627125757
 21
516.6947752977
 31
0.0
  0
ARC
  5
405
330
1F
100
AcDbEntity
  8
0
100
AcDbCircle
 10
166.1127125757
 20
642.7947752977
 30
0.0
 40
2.0
100
AcDbArc
 50
180.0
 51
270.0
  0
ARC
  5
406
330
1F
100
AcDbEntity
  8
0
100
AcDbCircle
 10
166.1127125757
 20
646.9947752977
 30
0.0
 40
2.0
100
AcDbArc
 50
90.0
 51
180.0
  0
LINE
  5
407
330
1F
100
AcDbEntity
  8
0
100
AcDbLine
 10
166.1127125757
 20
640.7947752977
 30
0.0
 11
167.1627125757
 21
640.7947752977
 31
0.0
  0
LINE
  5
408
330
1F
100
AcDbEntity
  8
0
100
AcDbLine
 10
167.1627125757
 20
648.9947752977
 30
0.0
 11
166.1127125757
 21
648.9947752977
 31
0.0
  0
LINE
  5
409
330
1F
100
AcDbEntity
  8
0
100
AcDbLine
 10
167.1627125757
 20
642.7947752977
 30
0.0
 11
167.8627125757
 21
642.7947752977
 31
0.0
  0
LINE
  5
40A
330
1F
100
AcDbEntity
  8
0
100
AcDbLine
 10
167.8627125757
 20
646.9947752977
 30
0.0
 11
167.1627125757
 21
646.9947752977
 31
0.0
  0
LINE
  5
40B
330
1F
100
AcDbEntity
  8
0
100
AcDbLine
 10
166.1127125757
 20
385.0947752977
 30
0.0
 11
167.1627125757
 21
385.0947752977
 31
0.0
  0
LINE
  5
40C
330
1F
100
AcDbEntity
  8
0
100
AcDbLine
 10
167.1627125757
 20
393.2947752977
 30
0.0
 11
166.1127125757
 21
393.2947752977
 31
0.0
  0
ARC
  5
40D
330
1F
100
AcDbEntity
  8
0
100
AcDbCircle
 10
166.1127125757
 20
387.0947752977
 30
0.0
 40
2.0
100
AcDbArc
 50
180.0
 51
270.0
  0
ARC
  5
40E
330
1F
100
AcDbEntity
  8
0
100
AcDbCircle
 10
166.1127125757
 20
391.2947752977
 30
0.0
 40
2.0
100
AcDbArc
 50
90.0
 51
180.0
  0
LINE
  5
40F
330
1F
100
AcDbEntity
  8
0
100
AcDbLine
 10
167.1627125757
 20
387.0947752977
 30
0.0
 11
167.8627125757
 21
387.0947752977
 31
0.0
  0
LINE
  5
410
330
1F
100
AcDbEntity
  8
0
100
AcDbLine
 10
167.8627125757
 20
391.2947752977
 30
0.0
 11
167.1627125757
 21
391.2947752977
 31
0.0
  0
ARC
  5
411
330
1F
100
AcDbEntity
  8
0
100
AcDbCircle
 10
353.7097813037
 20
386.1292253061
 30
0.0
 40
4.999999999999995
100
AcDbArc
 50
326.1590076815
 51
352.1320762394
  0
ARC
  5
412
330
1F
100
AcDbEntity
  8
0
100
AcDbCircle
 10
353.7097813037
 20
386.5603252893
 30
0.0
 40
4.999999999999995
100
AcDbArc
 50
7.867923760599999
 51
33.8409923185
  0
ARC
  5
413
330
1F
100
AcDbEntity
  8
0
100
AcDbCircle
 10
353.7097813037
 20
647.5292253061
 30
0.0
 40
5.000000000000011
100
AcDbArc
 50
326.1590076815
 51
352.1320762394
  0
ARC
  5
414
330
1F
100
AcDbEntity
  8
0
100
AcDbCircle
 10
353.7097813037
 20
647.9603252893
 30
0.0
 40
5.000000000000074
100
AcDbArc
 50
7.867923760599999
 51
33.8409923185
  0
LINE
  5
415
330
1F
100
AcDbEntity
  8
0
100
AcDbLine
 10
167.0627125757
 20
406.0447752977
 30
0.0
 11
165.4627125757
 21
406.0447752977
 31
0.0
  0
LINE
  5
416
330
1F
100
AcDbEntity
  8
0
100
AcDbLine
 10
165.4627125757
 20
398.0447752977
 30
0.0
 11
167.0627125757
 21
398.0447752977
 31
0.0
  0
ARC
  5
417
330
1F
100
AcDbEntity
  8
0
100
AcDbCircle
 10
165.4627125757
 20
399.5447752977
 30
0.0
 40
1.500000000000057
100
AcDbArc
 50
180.0
 51
270.0
  0
ARC
  5
418
330
1F
100
AcDbEntity
  8
0
100
AcDbCircle
 10
165.4627125757
 20
404.5447752977
 30
0.0
 40
1.500000000000057
100
AcDbArc
 50
90.0
 51
180.0
  0
LINE
  5
41F
330
1F
100
AcDbEntity
  8
0
100
AcDbLine
 10
167.0627125757
 20
636.0447752977
 30
0.0
 11
165.4627125757
 21
636.0447752977
 31
0.0
  0
LINE
  5
420
330
1F
100
AcDbEntity
  8
0
100
AcDbLine
 10
165.4627125757
 20
628.0447752977
 30
0.0
 11
167.0627125757
 21
628.0447752977
 31
0.0
  0
ARC
  5
421
330
1F
100
AcDbEntity
  8
0
100
AcDbCircle
 10
165.4627125757
 20
629.5447752977
 30
0.0
 40
1.5
100
AcDbArc
 50
180.0
 51
270.0
  0
ARC
  5
422
330
1F
100
AcDbEntity
  8
0
100
AcDbCircle
 10
165.4627125757
 20
634.5447752977
 30
0.0
 40
1.5
100
AcDbArc
 50
90.0
 51
180.0
  0
LINE
  5
425
330
1F
100
AcDbEntity
  8
0
100
AcDbLine
 10
167.8627125757
 20
636.0447752977
 30
0.0
 11
167.0627125757
 21
636.0447752977
 31
0.0
  0
LINE
  5
426
330
1F
100
AcDbEntity
  8
0
100
AcDbLine
 10
167.0627125757
 20
628.0447752977
 30
0.0
 11
167.8627125757
 21
628.0447752977
 31
0.0
  0
LINE
  5
427
330
1F
100
AcDbEntity
  8
0
100
AcDbLine
 10
167.8627125757
 20
406.0447752977
 30
0.0
 11
167.0627125757
 21
406.0447752977
 31
0.0
  0
LINE
  5
428
330
1F
100
AcDbEntity
  8
0
100
AcDbLine
 10
167.0627125757
 20
398.0447752977
 30
0.0
 11
167.8627125757
 21
398.0447752977
 31
0.0
  0
LINE
  5
42B
330
1F
100
AcDbEntity
  8
0
100
AcDbLine
 10
167.8627125757
 20
562.0447752977
 30
0.0
 11
165.8627125757
 21
562.0447752977
 31
0.0
  0
LINE
  5
42C
330
1F
100
AcDbEntity
  8
0
100
AcDbLine
 10
165.8627125757
 20
494.0447752977
 30
0.0
 11
167.8627125757
 21
494.0447752977
 31
0.0
  0
ARC
  5
42D
330
1F
100
AcDbEntity
  8
0
100
AcDbCircle
 10
157.8627125757
 20
548.0447752977
 30
0.0
 40
8.0
100
AcDbArc
 50
270.0
 51
0.0
  0
ARC
  5
42E
330
1F
100
AcDbEntity
  8
0
100
AcDbCircle
 10
157.8627125757
 20
508.0447752977
 30
0.0
 40
8.000000000000057
100
AcDbArc
 50
0.0
 51
90.0
  0
LINE
  5
42F
330
1F
100
AcDbEntity
  8
0
100
AcDbLine
 10
157.8627125757
 20
540.0447752977
 30
0.0
 11
155.8627125757
 21
540.0447752977
 31
0.0
  0
LINE
  5
430
330
1F
100
AcDbEntity
  8
0
100
AcDbLine
 10
155.8627125757
 20
516.0447752977
 30
0.0
 11
157.8627125757
 21
516.0447752977
 31
0.0
  0
LINE
  5
431
330
1F
100
AcDbEntity
  8
0
100
AcDbLine
 10
165.8627125757
 20
472.0447752977
 30
0.0
 11
167.8627125757
 21
472.0447752977
 31
0.0
  0
ARC
  5
432
330
1F
100
AcDbEntity
  8
0
100
AcDbCircle
 10
157.8627125757
 20
486.0447752977
 30
0.0
 40
8.0
100
AcDbArc
 50
0.0
 51
90.0
  0
LINE
  5
433
330
1F
100
AcDbEntity
  8
0
100
AcDbLine
 10
155.8627125757
 20
494.0447752977
 30
0.0
 11
157.8627125757
 21
494.0447752977
 31
0.0
  0
LINE
  5
434
330
1F
100
AcDbEntity
  8
0
100
AcDbLine
 10
196.3627125757
 20
367.0947752977
 30
0.0
 11
196.3627125757
 21
365.0947752977
 31
0.0
  0
LINE
  5
435
330
1F
100
AcDbEntity
  8
0
100
AcDbLine
 10
331.3627125757
 20
365.0947752977
 30
0.0
 11
331.3627125757
 21
367.0947752977
 31
0.0
  0
LINE
  5
436
330
1F
100
AcDbEntity
  8
0
100
AcDbLine
 10
201.3627125757
 20
359.0947752977
 30
0.0
 11
201.3627125757
 21
354.0947752977
 31
0.0
  0
LINE
  5
437
330
1F
100
AcDbEntity
  8
0
100
AcDbLine
 10
326.3627125757
 20
354.0947752977
 30
0.0
 11
326.3627125757
 21
359.0947752977
 31
0.0
  0
LINE
  5
438
330
1F
100
AcDbEntity
  8
0
100
AcDbLine
 10
201.3627125757
 20
354.0947752977
 30
0.0
 11
202.3627125757
 21
352.5947752977
 31
0.0
  0
LINE
  5
439
330
1F
100
AcDbEntity
  8
0
100
AcDbLine
 10
325.3627125757
 20
352.5947752977
 30
0.0
 11
326.3627125757
 21
354.0947752977
 31
0.0
  0
LINE
  5
43A
330
1F
100
AcDbEntity
  8
0
100
AcDbLine
 10
326.3627125757
 20
359.0947752977
 30
0.0
 11
323.3627125757
 21
361.0947752977
 31
0.0
  0
LINE
  5
43B
330
1F
100
AcDbEntity
  8
0
100
AcDbLine
 10
204.3627125757
 20
361.0947752977
 30
0.0
 11
201.3627125757
 21
359.0947752977
 31
0.0
  0
LINE
  5
43C
330
1F
100
AcDbEntity
  8
0
100
AcDbLine
 10
201.3627125757
 20
382.0447752977
 30
0.0
 11
201.3627125757
 21
373.0947752977
 31
0.0
  0
LINE
  5
43D
330
1F
100
AcDbEntity
  8
0
100
AcDbLine
 10
326.3627125757
 20
373.0947752977
 30
0.0
 11
326.3627125757
 21
382.0447752977
 31
0.0
  0
LINE
  5
43E
330
1F
100
AcDbEntity
  8
0
100
AcDbLine
 10
201.3627125757
 20
373.0947752977
 30
0.0
 11
204.3627125757
 21
371.0947752977
 31
0.0
  0
LINE
  5
43F
330
1F
100
AcDbEntity
  8
0
100
AcDbLine
 10
323.3627125757
 20
371.0947752977
 30
0.0
 11
326.3627125757
 21
373.0947752977
 31
0.0
  0
LINE
  5
440
330
1F
100
AcDbEntity
  8
0
100
AcDbLine
 10
202.3627125757
 20
365.0947752977
 30
0.0
 11
202.3627125757
 21
361.0947752977
 31
0.0
  0
LINE
  5
441
330
1F
100
AcDbEntity
  8
0
100
AcDbLine
 10
325.3627125757
 20
361.0947752977
 30
0.0
 11
325.3627125757
 21
365.0947752977
 31
0.0
  0
LINE
  5
442
330
1F
100
AcDbEntity
  8
0
100
AcDbLine
 10
202.3627125757
 20
371.0947752977
 30
0.0
 11
202.3627125757
 21
367.0947752977
 31
0.0
  0
LINE
  5
443
330
1F
100
AcDbEntity
  8
0
100
AcDbLine
 10
325.3627125757
 20
367.0947752977
 30
0.0
 11
325.3627125757
 21
371.0947752977
 31
0.0
  0
LINE
  5
444
330
1F
100
AcDbEntity
  8
0
100
AcDbLine
 10
331.3627125757
 20
666.9947752977
 30
0.0
 11
331.3627125757
 21
668.9947752977
 31
0.0
  0
LINE
  5
445
330
1F
100
AcDbEntity
  8
0
100
AcDbLine
 10
196.3627125757
 20
668.9947752977
 30
0.0
 11
196.3627125757
 21
666.9947752977
 31
0.0
  0
LINE
  5
446
330
1F
100
AcDbEntity
  8
0
100
AcDbLine
 10
326.3627125757
 20
652.0447752977
 30
0.0
 11
326.3627125757
 21
660.9947752977
 31
0.0
  0
LINE
  5
447
330
1F
100
AcDbEntity
  8
0
100
AcDbLine
 10
201.3627125757
 20
660.9947752977
 30
0.0
 11
201.3627125757
 21
652.0447752977
 31
0.0
  0
LINE
  5
448
330
1F
100
AcDbEntity
  8
0
100
AcDbLine
 10
326.3627125757
 20
660.9947752977
 30
0.0
 11
323.3627125757
 21
662.9947752977
 31
0.0
  0
LINE
  5
449
330
1F
100
AcDbEntity
  8
0
100
AcDbLine
 10
204.3627125757
 20
662.9947752977
 30
0.0
 11
201.3627125757
 21
660.9947752977
 31
0.0
  0
LINE
  5
44A
330
1F
100
AcDbEntity
  8
0
100
AcDbLine
 10
201.3627125757
 20
674.9947752977
 30
0.0
 11
204.3627125757
 21
672.9947752977
 31
0.0
  0
LINE
  5
44B
330
1F
100
AcDbEntity
  8
0
100
AcDbLine
 10
323.3627125757
 20
672.9947752977
 30
0.0
 11
326.3627125757
 21
674.9947752977
 31
0.0
  0
LINE
  5
44C
330
1F
100
AcDbEntity
  8
0
100
AcDbLine
 10
326.3627125757
 20
674.9947752977
 30
0.0
 11
326.3627125757
 21
679.9947752977
 31
0.0
  0
LINE
  5
44D
330
1F
100
AcDbEntity
  8
0
100
AcDbLine
 10
201.3627125757
 20
679.9947752977
 30
0.0
 11
201.3627125757
 21
674.9947752977
 31
0.0
  0
LINE
  5
44E
330
1F
100
AcDbEntity
  8
0
100
AcDbLine
 10
326.3627125757
 20
679.9947752977
 30
0.0
 11
325.3627125757
 21
681.4947752977
 31
0.0
  0
LINE
  5
44F
330
1F
100
AcDbEntity
  8
0
100
AcDbLine
 10
202.3627125757
 20
681.4947752977
 30
0.0
 11
201.3627125757
 21
679.9947752977
 31
0.0
  0
LINE
  5
450
330
1F
100
AcDbEntity
  8
0
100
AcDbLine
 10
325.3627125757
 20
662.9947752977
 30
0.0
 11
325.3627125757
 21
666.9947752977
 31
0.0
  0
LINE
  5
451
330
1F
100
AcDbEntity
  8
0
100
AcDbLine
 10
202.3627125757
 20
666.9947752977
 30
0.0
 11
202.3627125757
 21
662.9947752977
 31
0.0
  0
LINE
  5
452
330
1F
100
AcDbEntity
  8
0
100
AcDbLine
 10
325.3627125757
 20
668.9947752977
 30
0.0
 11
325.3627125757
 21
672.9947752977
 31
0.0
  0
LINE
  5
453
330
1F
100
AcDbEntity
  8
0
100
AcDbLine
 10
202.3627125757
 20
672.9947752977
 30
0.0
 11
202.3627125757
 21
668.9947752977
 31
0.0
  0
LINE
  5
455
330
1F
100
AcDbEntity
  8
0
100
AcDbLine
 10
131.1627125757
 20
528.0447752977
 30
0.0
 11
131.1627125757
 21
517.0029513994
 31
0.0
  0
LINE
  5
456
330
1F
100
AcDbEntity
  8
0
100
AcDbLine
 10
131.1627125757
 20
517.0029513994
 30
0.0
 11
116.1627125757
 21
517.0029513994
 31
0.0
  0
LINE
  5
457
330
1F
100
AcDbEntity
  8
0
100
AcDbLine
 10
116.1627125757
 20
528.0447752977
 30
0.0
 11
116.1627125757
 21
517.0029513994
 31
0.0
  0
LINE
  5
458
330
1F
100
AcDbEntity
  8
0
100
AcDbLine
 10
131.1627125757
 20
539.0865991959
 30
0.0
 11
116.1627125757
 21
539.0865991959
 31
0.0
  0
LINE
  5
459
330
1F
100
AcDbEntity
  8
0
100
AcDbLine
 10
131.1627125757
 20
539.0865991959
 30
0.0
 11
131.1627125757
 21
528.0447752977
 31
0.0
  0
LINE
  5
45A
330
1F
100
AcDbEntity
  8
0
100
AcDbLine
 10
116.1627125757
 20
539.0865991959
 30
0.0
 11
116.1627125757
 21
528.0447752977
 31
0.0
  0
LINE
  5
45C
330
1F
100
AcDbEntity
  8
0
100
AcDbLine
 10
131.1627125757
 20
506.0447752977
 30
0.0
 11
131.1627125757
 21
495.0029513994
 31
0.0
  0
LINE
  5
45D
330
1F
100
AcDbEntity
  8
0
100
AcDbLine
 10
131.1627125757
 20
495.0029513994
 30
0.0
 11
116.1627125757
 21
495.0029513994
 31
0.0
  0
LINE
  5
45E
330
1F
100
AcDbEntity
  8
0
100
AcDbLine
 10
116.1627125757
 20
506.0447752977
 30
0.0
 11
116.1627125757
 21
495.0029513994
 31
0.0
  0
LINE
  5
45F
330
1F
100
AcDbEntity
  8
0
100
AcDbLine
 10
131.1627125757
 20
517.0029513994
 30
0.0
 11
131.1627125757
 21
506.0447752977
 31
0.0
  0
LINE
  5
460
330
1F
100
AcDbEntity
  8
0
100
AcDbLine
 10
116.1627125757
 20
517.0029513994
 30
0.0
 11
116.1627125757
 21
506.0447752977
 31
0.0
  0
LINE
  5
461
330
1F
100
AcDbEntity
  8
0
100
AcDbLine
 10
99.1627125757
 20
517.3947752977
 30
0.0
 11
99.1627125757
 21
538.6947752977
 31
0.0
  0
LINE
  5
462
330
1F
100
AcDbEntity
  8
0
100
AcDbLine
 10
99.1627125757
 20
495.3947752977
 30
0.0
 11
99.1627125757
 21
516.6947752977
 31
0.0
  0
LINE
  5
463
330
1F
100
AcDbEntity
  8
0
100
AcDbLine
 10
164.1127125757
 20
642.7947752977
 30
0.0
 11
164.1127125757
 21
642.8097093515
 31
0.0
  0
LINE
  5
464
330
1F
100
AcDbEntity
  8
0
100
AcDbLine
 10
164.1127125757
 20
642.8097093515
 30
0.0
 11
164.1127125757
 21
644.6447752977
 31
0.0
  0
LINE
  5
465
330
1F
100
AcDbEntity
  8
0
100
AcDbLine
 10
164.1127125757
 20
644.6447752977
 30
0.0
 11
164.1127125757
 21
645.1447752977
 31
0.0
  0
LINE
  5
466
330
1F
100
AcDbEntity
  8
0
100
AcDbLine
 10
164.1127125757
 20
645.1447752977
 30
0.0
 11
164.1127125757
 21
646.9798412439
 31
0.0
  0
LINE
  5
467
330
1F
100
AcDbEntity
  8
0
100
AcDbLine
 10
164.1127125757
 20
646.9798412439
 30
0.0
 11
164.1127125757
 21
646.9947752977
 31
0.0
  0
LINE
  5
468
330
1F
100
AcDbEntity
  8
0
100
AcDbLine
 10
167.1627125757
 20
644.8947752977
 30
0.0
 11
167.1627125757
 21
648.9947752977
 31
0.0
  0
LINE
  5
469
330
1F
100
AcDbEntity
  8
0
100
AcDbLine
 10
167.1627125757
 20
640.7947752977
 30
0.0
 11
167.1627125757
 21
644.8947752977
 31
0.0
  0
LINE
  5
46A
330
1F
100
AcDbEntity
  8
0
100
AcDbLine
 10
167.1627125757
 20
389.1947752977
 30
0.0
 11
167.1627125757
 21
393.2947752977
 31
0.0
  0
LINE
  5
46B
330
1F
100
AcDbEntity
  8
0
100
AcDbLine
 10
167.1627125757
 20
385.0947752977
 30
0.0
 11
167.1627125757
 21
389.1947752977
 31
0.0
  0
LINE
  5
46C
330
1F
100
AcDbEntity
  8
0
100
AcDbLine
 10
164.1127125757
 20
387.0947752977
 30
0.0
 11
164.1127125757
 21
387.1097093515
 31
0.0
  0
LINE
  5
46D
330
1F
100
AcDbEntity
  8
0
100
AcDbLine
 10
164.1127125757
 20
387.1097093515
 30
0.0
 11
164.1127125757
 21
388.9447752977
 31
0.0
  0
LINE
  5
46E
330
1F
100
AcDbEntity
  8
0
100
AcDbLine
 10
164.1127125757
 20
388.9447752977
 30
0.0
 11
164.1127125757
 21
389.4447752977
 31
0.0
  0
LINE
  5
46F
330
1F
100
AcDbEntity
  8
0
100
AcDbLine
 10
164.1127125757
 20
389.4447752977
 30
0.0
 11
164.1127125757
 21
391.2798412439
 31
0.0
  0
LINE
  5
470
330
1F
100
AcDbEntity
  8
0
100
AcDbLine
 10
164.1127125757
 20
391.2798412439
 30
0.0
 11
164.1127125757
 21
391.2947752977
 31
0.0
  0
CIRCLE
  5
471
330
1F
100
AcDbEntity
  8
0
100
AcDbCircle
 10
342.116560153
 20
578.0447752977
 30
0.0
 40
3.0
  0
CIRCLE
  5
472
330
1F
100
AcDbEntity
  8
0
100
AcDbCircle
 10
342.116560153
 20
578.0447752977
 30
0.0
 40
0.8999999999998636
  0
CIRCLE
  5
473
330
1F
100
AcDbEntity
  8
0
100
AcDbCircle
 10
190.616560153
 20
456.0447752977
 30
0.0
 40
3.0
  0
CIRCLE
  5
474
330
1F
100
AcDbEntity
  8
0
100
AcDbCircle
 10
190.616560153
 20
456.0447752977
 30
0.0
 40
0.9000000000000341
  0
CIRCLE
  5
475
330
1F
100
AcDbEntity
  8
0
100
AcDbCircle
 10
266.366560153
 20
456.0447752977
 30
0.0
 40
3.000000000000057
  0
CIRCLE
  5
476
330
1F
100
AcDbEntity
  8
0
100
AcDbCircle
 10
266.366560153
 20
456.0447752977
 30
0.0
 40
0.8999999999999773
  0
CIRCLE
  5
477
330
1F
100
AcDbEntity
  8
0
100
AcDbCircle
 10
190.616560153
 20
578.0447752977
 30
0.0
 40
3.000000000000114
  0
CIRCLE
  5
478
330
1F
100
AcDbEntity
  8
0
100
AcDbCircle
 10
190.616560153
 20
578.0447752977
 30
0.0
 40
0.900000000000091
  0
CIRCLE
  5
479
330
1F
100
AcDbEntity
  8
0
100
AcDbCircle
 10
266.366560153
 20
578.0447752977
 30
0.0
 40
3.0
  0
CIRCLE
  5
47A
330
1F
100
AcDbEntity
  8
0
100
AcDbCircle
 10
266.366560153
 20
578.0447752977
 30
0.0
 40
0.900000000000091
  0
LINE
  5
47B
330
1F
100
AcDbEntity
  8
0
100
AcDbLine
 10
358.6627125757
 20
387.0982274916
 30
0.0
 11
358.6627125757
 21
387.2447752977
 31
0.0
  0
LINE
  5
47C
330
1F
100
AcDbEntity
  8
0
100
AcDbLine
 10
358.6627125757
 20
385.4447752977
 30
0.0
 11
358.6627125757
 21
387.0982274916
 31
0.0
  0
CIRCLE
  5
47D
330
1F
100
AcDbEntity
  8
0
100
AcDbCircle
 10
342.116560153
 20
456.0447752977
 30
0.0
 40
3.000000000000057
  0
CIRCLE
  5
47E
330
1F
100
AcDbEntity
  8
0
100
AcDbCircle
 10
342.116560153
 20
456.0447752977
 30
0.0
 40
0.8999999999999773
  0
CIRCLE
  5
47F
330
1F
100
AcDbEntity
  8
0
100
AcDbCircle
 10
186.5627125757
 20
386.3447752977
 30
0.0
 40
3.000000000000057
  0
CIRCLE
  5
480
330
1F
100
AcDbEntity
  8
0
100
AcDbCircle
 10
186.5627125757
 20
386.3447752977
 30
0.0
 40
0.9000000000000341
  0
CIRCLE
  5
481
330
1F
100
AcDbEntity
  8
0
100
AcDbCircle
 10
186.5627125757
 20
647.7447752977
 30
0.0
 40
3.0
  0
CIRCLE
  5
482
330
1F
100
AcDbEntity
  8
0
100
AcDbCircle
 10
186.5627125757
 20
647.7447752977
 30
0.0
 40
0.8999999999998636
  0
CIRCLE
  5
483
330
1F
100
AcDbEntity
  8
0
100
AcDbCircle
 10
263.8627125757
 20
386.3447752977
 30
0.0
 40
3.000000000000057
  0
CIRCLE
  5
484
330
1F
100
AcDbEntity
  8
0
100
AcDbCircle
 10
263.8627125757
 20
386.3447752977
 30
0.0
 40
0.9000000000000341
  0
CIRCLE
  5
485
330
1F
100
AcDbEntity
  8
0
100
AcDbCircle
 10
341.1627125757
 20
386.3447752977
 30
0.0
 40
3.000000000000057
  0
CIRCLE
  5
486
330
1F
100
AcDbEntity
  8
0
100
AcDbCircle
 10
341.1627125757
 20
386.3447752977
 30
0.0
 40
0.9000000000000341
  0
CIRCLE
  5
487
330
1F
100
AcDbEntity
  8
0
100
AcDbCircle
 10
341.1627125757
 20
647.7447752977
 30
0.0
 40
3.0
  0
CIRCLE
  5
488
330
1F
100
AcDbEntity
  8
0
100
AcDbCircle
 10
341.1627125757
 20
647.7447752977
 30
0.0
 40
0.8999999999998636
  0
LINE
  5
489
330
1F
100
AcDbEntity
  8
0
100
AcDbLine
 10
358.6627125757
 20
648.4982274916
 30
0.0
 11
358.6627125757
 21
648.6447752977
 31
0.0
  0
LINE
  5
48A
330
1F
100
AcDbEntity
  8
0
100
AcDbLine
 10
358.6627125757
 20
646.8447752977
 30
0.0
 11
358.6627125757
 21
648.4982274916
 31
0.0
  0
CIRCLE
  5
48B
330
1F
100
AcDbEntity
  8
0
100
AcDbCircle
 10
263.8627125757
 20
647.7447752977
 30
0.0
 40
3.0
  0
CIRCLE
  5
48C
330
1F
100
AcDbEntity
  8
0
100
AcDbCircle
 10
263.8627125757
 20
647.7447752977
 30
0.0
 40
0.8999999999998636
  0
LINE
  5
48E
330
1F
100
AcDbEntity
  8
0
100
AcDbLine
 10
163.9627125757
 20
399.5447752977
 30
0.0
 11
163.9627125757
 21
404.5447752977
 31
0.0
  0
LINE
  5
494
330
1F
100
AcDbEntity
  8
0
100
AcDbLine
 10
163.9627125757
 20
629.5447752977
 30
0.0
 11
163.9627125757
 21
634.5447752977
 31
0.0
  0
LINE
  5
495
330
1F
100
AcDbEntity
  8
0
100
AcDbLine
 10
165.8627125757
 20
562.0447752977
 30
0.0
 11
165.8627125757
 21
494.0447752977
 31
0.0
  0
LINE
  5
496
330
1F
100
AcDbEntity
  8
0
100
AcDbLine
 10
155.8627125757
 20
540.0447752977
 30
0.0
 11
155.8627125757
 21
516.0447752977
 31
0.0
  0
LINE
  5
497
330
1F
100
AcDbEntity
  8
0
100
AcDbLine
 10
165.8627125757
 20
494.0447752977
 30
0.0
 11
165.8627125757
 21
472.0447752977
 31
0.0
  0
LINE
  5
498
330
1F
100
AcDbEntity
  8
0
100
AcDbLine
 10
155.8627125757
 20
516.0447752977
 30
0.0
 11
155.8627125757
 21
494.0447752977
 31
0.0
  0
LINE
  5
49A
330
1F
100
AcDbEntity
  8
0
100
AcDbLine
 10
176.8627125757
 20
380.3447752977
 30
0.0
 11
176.8627125757
 21
653.7447752977
 31
0.0
  0
LINE
  5
49F
330
1F
100
AcDbEntity
  8
0
100
AcDbLine
 10
167.8627125757
 20
382.0447752977
 30
0.0
 11
167.8627125757
 21
652.0447752976
 31
0.0
  0
ARC
  5
4A1
330
1F
100
AcDbEntity
  8
0
100
AcDbCircle
 10
169.5627125757
 20
382.0447752977
 30
0.0
 40
1.700000000000017
100
AcDbArc
 50
180.0
 51
270.0
  0
LINE
  5
4A5
330
1F
100
AcDbEntity
  8
0
100
AcDbLine
 10
169.5627125757
 20
380.3447752977
 30
0.0
 11
176.8627125757
 21
380.3447752977
 31
0.0
  0
LINE
  5
4A7
330
1F
100
AcDbEntity
  8
0
100
AcDbLine
 10
176.8627125757
 20
653.7447752977
 30
0.0
 11
169.5627125757
 21
653.7447752977
 31
0.0
  0
ARC
  5
4AB
330
1F
100
AcDbEntity
  8
0
100
AcDbCircle
 10
169.5627125757
 20
652.0447752977
 30
0.0
 40
1.700000000000017
100
AcDbArc
 50
90.0
 51
180.0000000017
  0
LINE
  5
4AC
330
1F
100
AcDbEntity
  8
0
100
AcDbLine
 10
176.8627125757
 20
652.0447752977
 30
0.0
 11
356.1627125757
 21
652.0447752977
 31
0.0
  0
LINE
  5
4AE
330
1F
100
AcDbEntity
  8
0
100
AcDbLine
 10
176.8627125757
 20
382.0447752977
 30
0.0
 11
356.1627125757
 21
382.0447752977
 31
0.0
  0
LINE
  5
4AF
330
1F
100
AcDbEntity
  8
0
100
AcDbLine
 10
356.1627125757
 20
652.0447752977
 30
0.0
 11
357.8627125757
 21
652.0447752977
 31
0.0
  0
LINE
  5
4B0
330
1F
100
AcDbEntity
  8
0
100
AcDbLine
 10
357.8627125757
 20
652.0447752977
 30
0.0
 11
357.8627125757
 21
382.0447752977
 31
0.0
  0
LINE
  5
4B1
330
1F
100
AcDbEntity
  8
0
100
AcDbLine
 10
356.1627125757
 20
382.0447752977
 30
0.0
 11
357.8627125757
 21
382.0447752977
 31
0.0
  0
LINE
  5
4B2
330
1F
100
AcDbEntity
  8
0
100
AcDbLine
 10
196.3627125757
 20
367.0947752977
 30
0.0
 11
331.3627125757
 21
367.0947752977
 31
0.0
  0
LINE
  5
4B3
330
1F
100
AcDbEntity
  8
0
100
AcDbLine
 10
196.3627125757
 20
365.0947752977
 30
0.0
 11
331.3627125757
 21
365.0947752977
 31
0.0
  0
LINE
  5
4B6
330
1F
100
AcDbEntity
  8
0
100
AcDbLine
 10
202.3627125757
 20
352.5947752977
 30
0.0
 11
325.3627125757
 21
352.5947752977
 31
0.0
  0
LINE
  5
4B8
330
1F
100
AcDbEntity
  8
0
100
AcDbLine
 10
202.3627125757
 20
361.0947752977
 30
0.0
 11
325.3627125757
 21
361.0947752977
 31
0.0
  0
LINE
  5
4B9
330
1F
100
AcDbEntity
  8
0
100
AcDbLine
 10
202.3627125757
 20
371.0947752977
 30
0.0
 11
325.3627125757
 21
371.0947752977
 31
0.0
  0
LINE
  5
4BA
330
1F
100
AcDbEntity
  8
0
100
AcDbLine
 10
331.3627125757
 20
668.9947752977
 30
0.0
 11
196.3627125757
 21
668.9947752977
 31
0.0
  0
LINE
  5
4BB
330
1F
100
AcDbEntity
  8
0
100
AcDbLine
 10
331.3627125757
 20
666.9947752977
 30
0.0
 11
196.3627125757
 21
666.9947752977
 31
0.0
  0
LINE
  5
4BF
330
1F
100
AcDbEntity
  8
0
100
AcDbLine
 10
325.3627125757
 20
681.4947752977
 30
0.0
 11
202.3627125757
 21
681.4947752977
 31
0.0
  0
LINE
  5
4C0
330
1F
100
AcDbEntity
  8
0
100
AcDbLine
 10
325.3627125757
 20
662.9947752977
 30
0.0
 11
202.3627125757
 21
662.9947752977
 31
0.0
  0
LINE
  5
4C1
330
1F
100
AcDbEntity
  8
0
100
AcDbLine
 10
325.3627125757
 20
672.9947752977
 30
0.0
 11
202.3627125757
 21
672.9947752977
 31
0.0
  0
ARC
  5
4CC
330
1F
100
AcDbEntity
  8
0
100
AcDbCircle
 10
-261.8289411191
 20
47.6065338921
 30
0.0
 40
5.000000000000019
100
AcDbArc
 50
236.1590076815
 51
262.1320762394
  0
ARC
  5
4CD
330
1F
100
AcDbEntity
  8
0
100
AcDbCircle
 10
-261.3978411359
 20
47.6065338921
 30
0.0
 40
4.999999999999987
100
AcDbArc
 50
277.8679237606
 51
303.8409923185
  0
ARC
  5
4CE
330
1F
100
AcDbEntity
  8
0
100
AcDbCircle
 10
-139.3978411359
 20
252.700671348
 30
0.0
 40
4.999999999999947
100
AcDbArc
 50
56.15900768149999
 51
82.13207623940002
  0
ARC
  5
4CF
330
1F
100
AcDbEntity
  8
0
100
AcDbCircle
 10
-139.8289411191
 20
252.700671348
 30
0.0
 40
4.999999999999956
100
AcDbArc
 50
97.8679237606
 51
123.8409923185
  0
ARC
  5
4D0
330
1F
100
AcDbEntity
  8
0
100
AcDbCircle
 10
-261.3978411359
 20
252.700671348
 30
0.0
 40
4.99999999999994
100
AcDbArc
 50
56.15900768149999
 51
82.13207623940002
  0
ARC
  5
4D1
330
1F
100
AcDbEntity
  8
0
100
AcDbCircle
 10
-261.8289411191
 20
252.700671348
 30
0.0
 40
4.999999999999972
100
AcDbArc
 50
97.8679237606
 51
123.8409923185
  0
ARC
  5
4D2
330
1F
100
AcDbEntity
  8
0
100
AcDbCircle
 10
-331.5289411191
 20
47.6065338921
 30
0.0
 40
4.999999999999987
100
AcDbArc
 50
236.1590076815
 51
262.1320762394
  0
ARC
  5
4D3
330
1F
100
AcDbEntity
  8
0
100
AcDbCircle
 10
-331.0978411359
 20
47.6065338921
 30
0.0
 40
4.999999999999987
100
AcDbArc
 50
277.8679237606
 51
303.8409923185
  0
ARC
  5
4D4
330
1F
100
AcDbEntity
  8
0
100
AcDbCircle
 10
-70.1289411191
 20
47.6065338921
 30
0.0
 40
4.999999999999995
100
AcDbArc
 50
236.1590076815
 51
262.1320762394
  0
ARC
  5
4D5
330
1F
100
AcDbEntity
  8
0
100
AcDbCircle
 10
-69.6978411359
 20
47.6065338921
 30
0.0
 40
4.999999999999987
100
AcDbArc
 50
277.8679237606
 51
303.8409923185
  0
ARC
  5
4D6
330
1F
100
AcDbEntity
  8
0
100
AcDbCircle
 10
-139.8289411191
 20
47.6065338921
 30
0.0
 40
5.000000000000003
100
AcDbArc
 50
236.1590076815
 51
262.1320762394
  0
ARC
  5
4D7
330
1F
100
AcDbEntity
  8
0
100
AcDbCircle
 10
-139.3978411359
 20
47.6065338921
 30
0.0
 40
4.999999999999989
100
AcDbArc
 50
277.8679237606
 51
303.8409923185
  0
ARC
  5
4D8
330
1F
100
AcDbEntity
  8
0
100
AcDbCircle
 10
-331.0978411359
 20
252.700671348
 30
0.0
 40
4.999999999999943
100
AcDbArc
 50
56.15900768149999
 51
82.13207623940002
  0
ARC
  5
4D9
330
1F
100
AcDbEntity
  8
0
100
AcDbCircle
 10
-331.5289411191
 20
252.700671348
 30
0.0
 40
4.999999999999943
100
AcDbArc
 50
97.8679237606
 51
123.8409923185
  0
ARC
  5
4DA
330
1F
100
AcDbEntity
  8
0
100
AcDbCircle
 10
-69.6978411359
 20
252.700671348
 30
0.0
 40
4.999999999999963
100
AcDbArc
 50
56.15900768149999
 51
82.13207623940002
  0
ARC
  5
4DB
330
1F
100
AcDbEntity
  8
0
100
AcDbCircle
 10
-70.1289411191
 20
252.700671348
 30
0.0
 40
4.999999999999963
100
AcDbArc
 50
97.8679237606
 51
123.8409923185
  0
LINE
  5
4DC
330
1F
100
AcDbEntity
  8
0
100
AcDbLine
 10
-50.6633911275
 20
82.6536026201
 30
0.0
 11
-48.6633911275
 21
82.6536026201
 31
0.0
  0
LINE
  5
4DD
330
1F
100
AcDbEntity
  8
0
100
AcDbLine
 10
-48.6633911275
 20
217.6536026201
 30
0.0
 11
-50.6633911275
 21
217.6536026201
 31
0.0
  0
LINE
  5
4DE
330
1F
100
AcDbEntity
  8
0
100
AcDbLine
 10
-42.6633911275
 20
87.6536026201
 30
0.0
 11
-37.6633911275
 21
87.6536026201
 31
0.0
  0
LINE
  5
4DF
330
1F
100
AcDbEntity
  8
0
100
AcDbLine
 10
-37.6633911275
 20
212.6536026201
 30
0.0
 11
-42.6633911275
 21
212.6536026201
 31
0.0
  0
LINE
  5
4E0
330
1F
100
AcDbEntity
  8
0
100
AcDbLine
 10
-37.6633911275
 20
87.6536026201
 30
0.0
 11
-36.1633911275
 21
88.6536026201
 31
0.0
  0
LINE
  5
4E1
330
1F
100
AcDbEntity
  8
0
100
AcDbLine
 10
-36.1633911275
 20
211.6536026201
 30
0.0
 11
-37.6633911275
 21
212.6536026201
 31
0.0
  0
LINE
  5
4E2
330
1F
100
AcDbEntity
  8
0
100
AcDbLine
 10
-42.6633911275
 20
212.6536026201
 30
0.0
 11
-44.6633911275
 21
209.6536026201
 31
0.0
  0
LINE
  5
4E3
330
1F
100
AcDbEntity
  8
0
100
AcDbLine
 10
-44.6633911275
 20
90.6536026201
 30
0.0
 11
-42.6633911275
 21
87.6536026201
 31
0.0
  0
LINE
  5
4E4
330
1F
100
AcDbEntity
  8
0
100
AcDbLine
 10
-56.6633911275
 20
87.6536026201
 30
0.0
 11
-54.6633911275
 21
90.6536026201
 31
0.0
  0
LINE
  5
4E5
330
1F
100
AcDbEntity
  8
0
100
AcDbLine
 10
-54.6633911275
 20
209.6536026201
 30
0.0
 11
-56.6633911275
 21
212.6536026201
 31
0.0
  0
LINE
  5
4E6
330
1F
100
AcDbEntity
  8
0
100
AcDbLine
 10
-65.6133911275
 20
87.6536026201
 30
0.0
 11
-56.6633911275
 21
87.6536026201
 31
0.0
  0
LINE
  5
4E7
330
1F
100
AcDbEntity
  8
0
100
AcDbLine
 10
-56.6633911275
 20
212.6536026201
 30
0.0
 11
-65.6133911275
 21
212.6536026201
 31
0.0
  0
LINE
  5
4E8
330
1F
100
AcDbEntity
  8
0
100
AcDbLine
 10
-48.6633911275
 20
88.6536026201
 30
0.0
 11
-44.6633911275
 21
88.6536026201
 31
0.0
  0
LINE
  5
4E9
330
1F
100
AcDbEntity
  8
0
100
AcDbLine
 10
-44.6633911275
 20
211.6536026201
 30
0.0
 11
-48.6633911275
 21
211.6536026201
 31
0.0
  0
LINE
  5
4EA
330
1F
100
AcDbEntity
  8
0
100
AcDbLine
 10
-54.6633911275
 20
88.6536026201
 30
0.0
 11
-50.6633911275
 21
88.6536026201
 31
0.0
  0
LINE
  5
4EB
330
1F
100
AcDbEntity
  8
0
100
AcDbLine
 10
-50.6633911275
 20
211.6536026201
 30
0.0
 11
-54.6633911275
 21
211.6536026201
 31
0.0
  0
LINE
  5
4EC
330
1F
100
AcDbEntity
  8
0
100
AcDbLine
 10
-350.5633911275
 20
217.6536026201
 30
0.0
 11
-352.5633911275
 21
217.6536026201
 31
0.0
  0
LINE
  5
4ED
330
1F
100
AcDbEntity
  8
0
100
AcDbLine
 10
-352.5633911275
 20
82.6536026201
 30
0.0
 11
-350.5633911275
 21
82.6536026201
 31
0.0
  0
LINE
  5
4EE
330
1F
100
AcDbEntity
  8
0
100
AcDbLine
 10
-335.6133911275
 20
212.6536026201
 30
0.0
 11
-344.5633911275
 21
212.6536026201
 31
0.0
  0
LINE
  5
4EF
330
1F
100
AcDbEntity
  8
0
100
AcDbLine
 10
-344.5633911275
 20
87.6536026201
 30
0.0
 11
-335.6133911275
 21
87.6536026201
 31
0.0
  0
LINE
  5
4F0
330
1F
100
AcDbEntity
  8
0
100
AcDbLine
 10
-344.5633911275
 20
212.6536026201
 30
0.0
 11
-346.5633911275
 21
209.6536026201
 31
0.0
  0
LINE
  5
4F1
330
1F
100
AcDbEntity
  8
0
100
AcDbLine
 10
-346.5633911275
 20
90.6536026201
 30
0.0
 11
-344.5633911275
 21
87.6536026201
 31
0.0
  0
LINE
  5
4F2
330
1F
100
AcDbEntity
  8
0
100
AcDbLine
 10
-358.5633911275
 20
87.6536026201
 30
0.0
 11
-356.5633911275
 21
90.6536026201
 31
0.0
  0
LINE
  5
4F3
330
1F
100
AcDbEntity
  8
0
100
AcDbLine
 10
-356.5633911275
 20
209.6536026201
 30
0.0
 11
-358.5633911275
 21
212.6536026201
 31
0.0
  0
LINE
  5
4F4
330
1F
100
AcDbEntity
  8
0
100
AcDbLine
 10
-358.5633911275
 20
212.6536026201
 30
0.0
 11
-363.5633911275
 21
212.6536026201
 31
0.0
  0
LINE
  5
4F5
330
1F
100
AcDbEntity
  8
0
100
AcDbLine
 10
-363.5633911275
 20
87.6536026201
 30
0.0
 11
-358.5633911275
 21
87.6536026201
 31
0.0
  0
LINE
  5
4F6
330
1F
100
AcDbEntity
  8
0
100
AcDbLine
 10
-363.5633911275
 20
212.6536026201
 30
0.0
 11
-365.0633911275
 21
211.6536026201
 31
0.0
  0
LINE
  5
4F7
330
1F
100
AcDbEntity
  8
0
100
AcDbLine
 10
-365.0633911275
 20
88.6536026201
 30
0.0
 11
-363.5633911275
 21
87.6536026201
 31
0.0
  0
LINE
  5
4F8
330
1F
100
AcDbEntity
  8
0
100
AcDbLine
 10
-346.5633911275
 20
211.6536026201
 30
0.0
 11
-350.5633911275
 21
211.6536026201
 31
0.0
  0
LINE
  5
4F9
330
1F
100
AcDbEntity
  8
0
100
AcDbLine
 10
-350.5633911275
 20
88.6536026201
 30
0.0
 11
-346.5633911275
 21
88.6536026201
 31
0.0
  0
LINE
  5
4FA
330
1F
100
AcDbEntity
  8
0
100
AcDbLine
 10
-352.5633911275
 20
211.6536026201
 30
0.0
 11
-356.5633911275
 21
211.6536026201
 31
0.0
  0
LINE
  5
4FB
330
1F
100
AcDbEntity
  8
0
100
AcDbLine
 10
-356.5633911275
 20
88.6536026201
 30
0.0
 11
-352.5633911275
 21
88.6536026201
 31
0.0
  0
LINE
  5
4FC
330
1F
100
AcDbEntity
  8
0
100
AcDbLine
 10
-262.5133911275
 20
42.6536026201
 30
0.0
 11
-260.7133911275
 21
42.6536026201
 31
0.0
  0
LINE
  5
4FD
330
1F
100
AcDbEntity
  8
0
100
AcDbLine
 10
-138.7133911275
 20
257.6536026201
 30
0.0
 11
-140.5133911275
 21
257.6536026201
 31
0.0
  0
LINE
  5
4FE
330
1F
100
AcDbEntity
  8
0
100
AcDbLine
 10
-260.7133911275
 20
257.6536026201
 30
0.0
 11
-262.5133911275
 21
257.6536026201
 31
0.0
  0
CIRCLE
  5
4FF
330
1F
100
AcDbEntity
  8
0
100
AcDbCircle
 10
-69.9133911275
 20
73.4536026201
 30
0.0
 40
3.000000000000019
  0
CIRCLE
  5
500
330
1F
100
AcDbEntity
  8
0
100
AcDbCircle
 10
-69.9133911275
 20
73.4536026201
 30
0.0
 40
0.8999999999999974
  0
CIRCLE
  5
501
330
1F
100
AcDbEntity
  8
0
100
AcDbCircle
 10
-331.3133911275
 20
73.4536026201
 30
0.0
 40
2.999999999999968
  0
CIRCLE
  5
502
330
1F
100
AcDbEntity
  8
0
100
AcDbCircle
 10
-331.3133911275
 20
73.4536026201
 30
0.0
 40
0.900000000000017
  0
LINE
  5
503
330
1F
100
AcDbEntity
  8
0
100
AcDbLine
 10
-332.2133911275
 20
42.6536026201
 30
0.0
 11
-330.4133911275
 21
42.6536026201
 31
0.0
  0
LINE
  5
504
330
1F
100
AcDbEntity
  8
0
100
AcDbLine
 10
-70.8133911275
 20
42.6536026201
 30
0.0
 11
-69.0133911275
 21
42.6536026201
 31
0.0
  0
LINE
  5
505
330
1F
100
AcDbEntity
  8
0
100
AcDbLine
 10
-140.5133911275
 20
42.6536026201
 30
0.0
 11
-138.7133911275
 21
42.6536026201
 31
0.0
  0
CIRCLE
  5
506
330
1F
100
AcDbEntity
  8
0
100
AcDbCircle
 10
-69.9133911275
 20
150.1536026201
 30
0.0
 40
3.000000000000027
  0
CIRCLE
  5
507
330
1F
100
AcDbEntity
  8
0
100
AcDbCircle
 10
-69.9133911275
 20
150.1536026201
 30
0.0
 40
0.900000000000017
  0
LINE
  5
508
330
1F
100
AcDbEntity
  8
0
100
AcDbLine
 10
-330.4133911275
 20
257.6536026201
 30
0.0
 11
-332.2133911275
 21
257.6536026201
 31
0.0
  0
LINE
  5
509
330
1F
100
AcDbEntity
  8
0
100
AcDbLine
 10
-69.0133911275
 20
257.6536026201
 30
0.0
 11
-70.8133911275
 21
257.6536026201
 31
0.0
  0
CIRCLE
  5
50A
330
1F
100
AcDbEntity
  8
0
100
AcDbCircle
 10
-69.9133911275
 20
226.8536026201
 30
0.0
 40
3.000000000000027
  0
CIRCLE
  5
50B
330
1F
100
AcDbEntity
  8
0
100
AcDbCircle
 10
-69.9133911275
 20
226.8536026201
 30
0.0
 40
0.9000000000000015
  0
CIRCLE
  5
50C
330
1F
100
AcDbEntity
  8
0
100
AcDbCircle
 10
-331.3133911275
 20
226.8536026201
 30
0.0
 40
2.999999999999968
  0
CIRCLE
  5
50D
330
1F
100
AcDbEntity
  8
0
100
AcDbCircle
 10
-331.3133911275
 20
226.8536026201
 30
0.0
 40
0.900000000000017
  0
CIRCLE
  5
50E
330
1F
100
AcDbEntity
  8
0
100
AcDbCircle
 10
-331.3133911275
 20
150.1536026201
 30
0.0
 40
2.999999999999952
  0
CIRCLE
  5
50F
330
1F
100
AcDbEntity
  8
0
100
AcDbCircle
 10
-331.3133911275
 20
150.1536026201
 30
0.0
 40
0.9000000000000015
  0
CIRCLE
  5
510
330
1F
100
AcDbEntity
  8
0
100
AcDbCircle
 10
-315.6133911275
 20
30.1536026201
 30
0.0
 40
2.000000000000059
  0
CIRCLE
  5
511
330
1F
100
AcDbEntity
  8
0
100
AcDbCircle
 10
-85.6133911275
 20
30.1536026201
 30
0.0
 40
2.000000000000015
  0
CIRCLE
  5
512
330
1F
100
AcDbEntity
  8
0
100
AcDbCircle
 10
-315.6133911275
 20
270.1536026201
 30
0.0
 40
2.0
  0
CIRCLE
  5
513
330
1F
100
AcDbEntity
  8
0
100
AcDbCircle
 10
-85.6133911275
 20
270.1536026201
 30
0.0
 40
2.000000000000014
  0
LINE
  5
515
330
1F
100
AcDbEntity
  8
0
100
AcDbLine
 10
-64.7901678228
 20
21.45360262
 30
0.0
 11
-336.4366144322
 21
21.45360262
 31
0.0
  0
LINE
  5
516
330
1F
100
AcDbEntity
  8
0
100
AcDbLine
 10
-336.4366144322
 20
22.15360262
 30
0.0
 11
-336.4366144322
 21
21.45360262
 31
0.0
  0
LINE
  5
517
330
1F
100
AcDbEntity
  8
0
100
AcDbLine
 10
-64.7901678228
 20
22.15360262
 30
0.0
 11
-64.7901678228
 21
21.45360262
 31
0.0
  0
LINE
  5
51A
330
1F
100
AcDbEntity
  8
0
100
AcDbLine
 10
-64.6133911275
 20
277.9768259248
 30
0.0
 11
-63.9133911275
 21
277.9768259248
 31
0.0
  0
LINE
  5
51B
330
1F
100
AcDbEntity
  8
0
100
AcDbLine
 10
-63.9133911275
 20
277.9768259248
 30
0.0
 11
-63.9133911275
 21
212.6536026201
 31
0.0
  0
LINE
  5
51C
330
1F
100
AcDbEntity
  8
0
100
AcDbLine
 10
-63.9133911275
 20
87.6536026201
 30
0.0
 11
-63.9133911275
 21
22.3303793154
 31
0.0
  0
LINE
  5
51D
330
1F
100
AcDbEntity
  8
0
100
AcDbLine
 10
-64.6133911275
 20
22.3303793154
 30
0.0
 11
-63.9133911275
 21
22.3303793154
 31
0.0
  0
LINE
  5
51E
330
1F
100
AcDbEntity
  8
0
100
AcDbLine
 10
-336.6133911275
 20
22.3303793154
 30
0.0
 11
-337.3133911275
 21
22.3303793154
 31
0.0
  0
LINE
  5
51F
330
1F
100
AcDbEntity
  8
0
100
AcDbLine
 10
-337.3133911275
 20
22.3303793154
 30
0.0
 11
-337.3133911275
 21
87.6536026201
 31
0.0
  0
LINE
  5
520
330
1F
100
AcDbEntity
  8
0
100
AcDbLine
 10
-337.3133911275
 20
212.6536026201
 30
0.0
 11
-337.3133911275
 21
277.9768259248
 31
0.0
  0
LINE
  5
521
330
1F
100
AcDbEntity
  8
0
100
AcDbLine
 10
-336.6133911275
 20
277.9768259248
 30
0.0
 11
-337.3133911275
 21
277.9768259248
 31
0.0
  0
LINE
  5
525
330
1F
100
AcDbEntity
  8
0
100
AcDbLine
 10
-336.4366144322
 20
278.1536026201
 30
0.0
 11
-336.4366144322
 21
278.8536026201
 31
0.0
  0
LINE
  5
526
330
1F
100
AcDbEntity
  8
0
100
AcDbLine
 10
-336.4366144322
 20
278.8536026201
 30
0.0
 11
-64.7901678227
 21
278.8536026201
 31
0.0
  0
LINE
  5
527
330
1F
100
AcDbEntity
  8
0
100
AcDbLine
 10
-64.7901678227
 20
278.1536026201
 30
0.0
 11
-64.7901678227
 21
278.8536026201
 31
0.0
  0
LINE
  5
528
330
1F
100
AcDbEntity
  8
0
100
AcDbLine
 10
-64.7901678227
 20
22.1536026201
 30
0.0
 11
-65.6133911274
 21
23.1536026201
 31
0.0
  0
LINE
  5
529
330
1F
100
AcDbEntity
  8
0
100
AcDbLine
 10
-64.6133911275
 20
277.9768259248
 30
0.0
 11
-65.6133911275
 21
277.1536026201
 31
0.0
  0
LINE
  5
52A
330
1F
100
AcDbEntity
  8
0
100
AcDbLine
 10
-65.6133911274
 20
23.15360262
 30
0.0
 11
-64.6133911275
 21
22.3303793153
 31
0.0
  0
LINE
  5
52B
330
1F
100
AcDbEntity
  8
0
100
AcDbLine
 10
-335.6133911274
 20
23.15360262
 30
0.0
 11
-336.4366144321
 21
22.1536026201
 31
0.0
  0
LINE
  5
52C
330
1F
100
AcDbEntity
  8
0
100
AcDbLine
 10
-336.6133911275
 20
22.3303793154
 30
0.0
 11
-335.6133911275
 21
23.1536026201
 31
0.0
  0
LINE
  5
52D
330
1F
100
AcDbEntity
  8
0
100
AcDbLine
 10
-335.6133911275
 20
277.1536026201
 30
0.0
 11
-336.6133911275
 21
277.9768259248
 31
0.0
  0
LINE
  5
52E
330
1F
100
AcDbEntity
  8
0
100
AcDbLine
 10
-336.4366144322
 20
278.1536026201
 30
0.0
 11
-335.6133911275
 21
277.1536026201
 31
0.0
  0
LINE
  5
52F
330
1F
100
AcDbEntity
  8
0
100
AcDbLine
 10
-65.6133911275
 20
277.1536026201
 30
0.0
 11
-64.7901678228
 21
278.1536026201
 31
0.0
  0
LINE
  5
530
330
1F
100
AcDbEntity
  8
0
100
AcDbLine
 10
-335.6133911275
 20
45.1536026201
 30
0.0
 11
-65.6133911275
 21
45.1536026201
 31
0.0
  0
LINE
  5
531
330
1F
100
AcDbEntity
  8
0
100
AcDbLine
 10
-335.6133911275
 20
45.1536026201
 30
0.0
 11
-335.6133911275
 21
255.1536026201
 31
0.0
  0
LINE
  5
532
330
1F
100
AcDbEntity
  8
0
100
AcDbLine
 10
-335.6133911275
 20
255.1536026201
 30
0.0
 11
-65.6133911275
 21
255.1536026201
 31
0.0
  0
LINE
  5
533
330
1F
100
AcDbEntity
  8
0
100
AcDbLine
 10
-65.6133911275
 20
45.1536026201
 30
0.0
 11
-65.6133911275
 21
255.1536026201
 31
0.0
  0
LINE
  5
534
330
1F
100
AcDbEntity
  8
0
100
AcDbLine
 10
-335.6133911275
 20
43.4536026201
 30
0.0
 11
-65.6133911275
 21
43.4536026201
 31
0.0
  0
LINE
  5
535
330
1F
100
AcDbEntity
  8
0
100
AcDbLine
 10
-335.6133911275
 20
43.4536026201
 30
0.0
 11
-335.6133911275
 21
45.1536026201
 31
0.0
  0
LINE
  5
536
330
1F
100
AcDbEntity
  8
0
100
AcDbLine
 10
-65.6133911275
 20
43.4536026201
 30
0.0
 11
-65.6133911275
 21
45.1536026201
 31
0.0
  0
LINE
  5
537
330
1F
100
AcDbEntity
  8
0
100
AcDbLine
 10
-335.6133911275
 20
255.1536026201
 30
0.0
 11
-335.6133911275
 21
256.8536026201
 31
0.0
  0
LINE
  5
538
330
1F
100
AcDbEntity
  8
0
100
AcDbLine
 10
-335.6133911275
 20
256.8536026201
 30
0.0
 11
-65.6133911275
 21
256.8536026201
 31
0.0
  0
LINE
  5
539
330
1F
100
AcDbEntity
  8
0
100
AcDbLine
 10
-65.6133911275
 20
255.1536026201
 30
0.0
 11
-65.6133911275
 21
256.8536026201
 31
0.0
  0
LINE
  5
53A
330
1F
100
AcDbEntity
  8
0
100
AcDbLine
 10
-65.6133911275
 20
42.4536026201
 30
0.0
 11
-65.6133911275
 21
43.4536026201
 31
0.0
  0
LINE
  5
53B
330
1F
100
AcDbEntity
  8
0
100
AcDbLine
 10
-335.6133911275
 20
42.4536026201
 30
0.0
 11
-65.6133911275
 21
42.4536026201
 31
0.0
  0
LINE
  5
53C
330
1F
100
AcDbEntity
  8
0
100
AcDbLine
 10
-335.6133911275
 20
43.4536026201
 30
0.0
 11
-335.6133911275
 21
42.4536026201
 31
0.0
  0
LINE
  5
53D
330
1F
100
AcDbEntity
  8
0
100
AcDbLine
 10
-335.6133911275
 20
257.8536026201
 30
0.0
 11
-335.6133911275
 21
256.8536026201
 31
0.0
  0
LINE
  5
53E
330
1F
100
AcDbEntity
  8
0
100
AcDbLine
 10
-65.6133911275
 20
257.8536026201
 30
0.0
 11
-335.6133911275
 21
257.8536026201
 31
0.0
  0
LINE
  5
53F
330
1F
100
AcDbEntity
  8
0
100
AcDbLine
 10
-65.6133911275
 20
256.8536026201
 30
0.0
 11
-65.6133911275
 21
257.8536026201
 31
0.0
  0
LINE
  5
540
330
1F
100
AcDbEntity
  8
0
100
AcDbLine
 10
-65.6133911275
 20
42.4536026201
 30
0.0
 11
-65.6133911275
 21
28.1536026201
 31
0.0
  0
LINE
  5
542
330
1F
100
AcDbEntity
  8
0
100
AcDbLine
 10
-70.6133911275
 20
23.1536026201
 30
0.0
 11
-330.6133911275
 21
23.1536026201
 31
0.0
  0
LINE
  5
544
330
1F
100
AcDbEntity
  8
0
100
AcDbLine
 10
-335.6133911275
 20
28.1536026201
 30
0.0
 11
-335.6133911275
 21
42.4536026201
 31
0.0
  0
LINE
  5
546
330
1F
100
AcDbEntity
  8
0
100
AcDbLine
 10
-65.6133911275
 20
272.1536026201
 30
0.0
 11
-65.6133911275
 21
257.8536026201
 31
0.0
  0
LINE
  5
547
330
1F
100
AcDbEntity
  8
0
100
AcDbLine
 10
-335.6133911275
 20
257.8536026201
 30
0.0
 11
-335.6133911275
 21
272.1536026201
 31
0.0
  0
LINE
  5
549
330
1F
100
AcDbEntity
  8
0
100
AcDbLine
 10
-330.6133911275
 20
277.1536026201
 30
0.0
 11
-70.6133911275
 21
277.1536026201
 31
0.0
  0
LINE
  5
54A
330
1F
100
AcDbEntity
  8
0
100
AcDbLine
 10
-48.6633911275
 20
82.6536026201
 30
0.0
 11
-48.6633911275
 21
217.6536026201
 31
0.0
  0
LINE
  5
54B
330
1F
100
AcDbEntity
  8
0
100
AcDbLine
 10
-50.6633911275
 20
82.6536026201
 30
0.0
 11
-50.6633911275
 21
217.6536026201
 31
0.0
  0
LINE
  5
54E
330
1F
100
AcDbEntity
  8
0
100
AcDbLine
 10
-36.1633911275
 20
88.6536026201
 30
0.0
 11
-36.1633911275
 21
211.6536026201
 31
0.0
  0
LINE
  5
550
330
1F
100
AcDbEntity
  8
0
100
AcDbLine
 10
-44.6633911275
 20
88.6536026201
 30
0.0
 11
-44.6633911275
 21
211.6536026201
 31
0.0
  0
LINE
  5
551
330
1F
100
AcDbEntity
  8
0
100
AcDbLine
 10
-54.6633911275
 20
88.6536026201
 30
0.0
 11
-54.6633911275
 21
211.6536026201
 31
0.0
  0
LINE
  5
552
330
1F
100
AcDbEntity
  8
0
100
AcDbLine
 10
-350.5633911275
 20
217.6536026201
 30
0.0
 11
-350.5633911275
 21
82.6536026201
 31
0.0
  0
LINE
  5
553
330
1F
100
AcDbEntity
  8
0
100
AcDbLine
 10
-352.5633911275
 20
217.6536026201
 30
0.0
 11
-352.5633911275
 21
82.6536026201
 31
0.0
  0
LINE
  5
557
330
1F
100
AcDbEntity
  8
0
100
AcDbLine
 10
-365.0633911275
 20
211.6536026201
 30
0.0
 11
-365.0633911275
 21
88.6536026201
 31
0.0
  0
LINE
  5
558
330
1F
100
AcDbEntity
  8
0
100
AcDbLine
 10
-346.5633911275
 20
211.6536026201
 30
0.0
 11
-346.5633911275
 21
88.6536026201
 31
0.0
  0
LINE
  5
559
330
1F
100
AcDbEntity
  8
0
100
AcDbLine
 10
-356.5633911275
 20
211.6536026201
 30
0.0
 11
-356.5633911275
 21
88.6536026201
 31
0.0
  0
LINE
  5
55A
330
1F
100
AcDbEntity
  8
0
100
AcDbLine
 10
-65.6133911275
 20
277.1536026201
 30
0.0
 11
-65.6133911275
 21
272.1536026201
 31
0.0
  0
LINE
  5
55B
330
1F
100
AcDbEntity
  8
0
100
AcDbLine
 10
-65.6133911275
 20
28.1536026201
 30
0.0
 11
-65.6133911274
 21
23.1536026201
 31
0.0
  0
LINE
  5
55C
330
1F
100
AcDbEntity
  8
0
100
AcDbLine
 10
-65.6133911274
 20
23.1536026201
 30
0.0
 11
-70.6133911275
 21
23.1536026201
 31
0.0
  0
LINE
  5
55D
330
1F
100
AcDbEntity
  8
0
100
AcDbLine
 10
-330.6133911275
 20
23.1536026201
 30
0.0
 11
-335.6133911275
 21
23.1536026201
 31
0.0
  0
LINE
  5
55E
330
1F
100
AcDbEntity
  8
0
100
AcDbLine
 10
-335.6133911275
 20
23.1536026201
 30
0.0
 11
-335.6133911275
 21
28.1536026201
 31
0.0
  0
LINE
  5
55F
330
1F
100
AcDbEntity
  8
0
100
AcDbLine
 10
-335.6133911275
 20
272.1536026201
 30
0.0
 11
-335.6133911275
 21
277.1536026201
 31
0.0
  0
LINE
  5
560
330
1F
100
AcDbEntity
  8
0
100
AcDbLine
 10
-335.6133911275
 20
277.1536026201
 30
0.0
 11
-330.6133911275
 21
277.1536026201
 31
0.0
  0
LINE
  5
561
330
1F
100
AcDbEntity
  8
0
100
AcDbLine
 10
-70.6133911275
 20
277.1536026201
 30
0.0
 11
-65.6133911275
 21
277.1536026201
 31
0.0
  0
LINE
  5
562
330
1F
100
AcDbEntity
  8
0
100
AcDbLine
 10
589.16653431
 20
217.6536026201
 30
0.0
 11
587.16653431
 21
217.6536026201
 31
0.0
  0
LINE
  5
563
330
1F
100
AcDbEntity
  8
0
100
AcDbLine
 10
587.16653431
 20
82.6536026201
 30
0.0
 11
589.16653431
 21
82.6536026201
 31
0.0
  0
LINE
  5
564
330
1F
100
AcDbEntity
  8
0
100
AcDbLine
 10
576.16653431
 20
212.6536026201
 30
0.0
 11
574.66653431
 21
211.6536026201
 31
0.0
  0
LINE
  5
565
330
1F
100
AcDbEntity
  8
0
100
AcDbLine
 10
574.66653431
 20
88.6536026201
 30
0.0
 11
576.16653431
 21
87.6536026201
 31
0.0
  0
LINE
  5
566
330
1F
100
AcDbEntity
  8
0
100
AcDbLine
 10
581.16653431
 20
212.6536026201
 30
0.0
 11
576.16653431
 21
212.6536026201
 31
0.0
  0
LINE
  5
567
330
1F
100
AcDbEntity
  8
0
100
AcDbLine
 10
576.16653431
 20
87.6536026201
 30
0.0
 11
581.16653431
 21
87.6536026201
 31
0.0
  0
LINE
  5
568
330
1F
100
AcDbEntity
  8
0
100
AcDbLine
 10
581.16653431
 20
87.6536026201
 30
0.0
 11
583.16653431
 21
90.6536026201
 31
0.0
  0
LINE
  5
569
330
1F
100
AcDbEntity
  8
0
100
AcDbLine
 10
583.16653431
 20
209.6536026201
 30
0.0
 11
581.16653431
 21
212.6536026201
 31
0.0
  0
LINE
  5
56A
330
1F
100
AcDbEntity
  8
0
100
AcDbLine
 10
595.16653431
 20
212.6536026201
 30
0.0
 11
593.16653431
 21
209.6536026201
 31
0.0
  0
LINE
  5
56B
330
1F
100
AcDbEntity
  8
0
100
AcDbLine
 10
593.16653431
 20
90.6536026201
 30
0.0
 11
595.16653431
 21
87.6536026201
 31
0.0
  0
LINE
  5
56C
330
1F
100
AcDbEntity
  8
0
100
AcDbLine
 10
602.41653431
 20
212.6536026201
 30
0.0
 11
595.16653431
 21
212.6536026201
 31
0.0
  0
LINE
  5
56D
330
1F
100
AcDbEntity
  8
0
100
AcDbLine
 10
595.16653431
 20
87.6536026201
 30
0.0
 11
602.41653431
 21
87.6536026201
 31
0.0
  0
LINE
  5
56E
330
1F
100
AcDbEntity
  8
0
100
AcDbLine
 10
587.16653431
 20
211.6536026201
 30
0.0
 11
583.16653431
 21
211.6536026201
 31
0.0
  0
LINE
  5
56F
330
1F
100
AcDbEntity
  8
0
100
AcDbLine
 10
583.16653431
 20
88.6536026201
 30
0.0
 11
587.16653431
 21
88.6536026201
 31
0.0
  0
LINE
  5
570
330
1F
100
AcDbEntity
  8
0
100
AcDbLine
 10
593.16653431
 20
211.6536026201
 30
0.0
 11
589.16653431
 21
211.6536026201
 31
0.0
  0
LINE
  5
571
330
1F
100
AcDbEntity
  8
0
100
AcDbLine
 10
589.16653431
 20
88.6536026201
 30
0.0
 11
593.16653431
 21
88.6536026201
 31
0.0
  0
LINE
  5
572
330
1F
100
AcDbEntity
  8
0
100
AcDbLine
 10
889.06653431
 20
82.6536026201
 30
0.0
 11
891.06653431
 21
82.6536026201
 31
0.0
  0
LINE
  5
573
330
1F
100
AcDbEntity
  8
0
100
AcDbLine
 10
891.06653431
 20
217.6536026201
 30
0.0
 11
889.06653431
 21
217.6536026201
 31
0.0
  0
LINE
  5
574
330
1F
100
AcDbEntity
  8
0
100
AcDbLine
 10
875.81653431
 20
87.6536026201
 30
0.0
 11
883.06653431
 21
87.6536026201
 31
0.0
  0
LINE
  5
575
330
1F
100
AcDbEntity
  8
0
100
AcDbLine
 10
883.06653431
 20
212.6536026201
 30
0.0
 11
875.81653431
 21
212.6536026201
 31
0.0
  0
LINE
  5
576
330
1F
100
AcDbEntity
  8
0
100
AcDbLine
 10
883.06653431
 20
87.6536026201
 30
0.0
 11
885.06653431
 21
90.6536026201
 31
0.0
  0
LINE
  5
577
330
1F
100
AcDbEntity
  8
0
100
AcDbLine
 10
885.06653431
 20
209.6536026201
 30
0.0
 11
883.06653431
 21
212.6536026201
 31
0.0
  0
LINE
  5
578
330
1F
100
AcDbEntity
  8
0
100
AcDbLine
 10
897.06653431
 20
212.6536026201
 30
0.0
 11
895.06653431
 21
209.6536026201
 31
0.0
  0
LINE
  5
579
330
1F
100
AcDbEntity
  8
0
100
AcDbLine
 10
895.06653431
 20
90.6536026201
 30
0.0
 11
897.06653431
 21
87.6536026201
 31
0.0
  0
LINE
  5
57A
330
1F
100
AcDbEntity
  8
0
100
AcDbLine
 10
897.06653431
 20
87.6536026201
 30
0.0
 11
902.06653431
 21
87.6536026201
 31
0.0
  0
LINE
  5
57B
330
1F
100
AcDbEntity
  8
0
100
AcDbLine
 10
902.06653431
 20
212.6536026201
 30
0.0
 11
897.06653431
 21
212.6536026201
 31
0.0
  0
LINE
  5
57C
330
1F
100
AcDbEntity
  8
0
100
AcDbLine
 10
902.06653431
 20
87.6536026201
 30
0.0
 11
903.56653431
 21
88.6536026201
 31
0.0
  0
LINE
  5
57D
330
1F
100
AcDbEntity
  8
0
100
AcDbLine
 10
903.56653431
 20
211.6536026201
 30
0.0
 11
902.06653431
 21
212.6536026201
 31
0.0
  0
LINE
  5
57E
330
1F
100
AcDbEntity
  8
0
100
AcDbLine
 10
885.06653431
 20
88.6536026201
 30
0.0
 11
889.06653431
 21
88.6536026201
 31
0.0
  0
LINE
  5
57F
330
1F
100
AcDbEntity
  8
0
100
AcDbLine
 10
889.06653431
 20
211.6536026201
 30
0.0
 11
885.06653431
 21
211.6536026201
 31
0.0
  0
LINE
  5
580
330
1F
100
AcDbEntity
  8
0
100
AcDbLine
 10
891.06653431
 20
88.6536026201
 30
0.0
 11
895.06653431
 21
88.6536026201
 31
0.0
  0
LINE
  5
581
330
1F
100
AcDbEntity
  8
0
100
AcDbLine
 10
895.06653431
 20
211.6536026201
 30
0.0
 11
891.06653431
 21
211.6536026201
 31
0.0
  0
CIRCLE
  5
582
330
1F
100
AcDbEntity
  8
0
100
AcDbCircle
 10
728.11653431
 20
218.1536026201
 30
0.0
 40
4.499999999999886
  0
LINE
  5
583
330
1F
100
AcDbEntity
  8
0
100
AcDbLine
 10
728.11653431
 20
205.4036026201
 30
0.0
 11
717.0747104118
 21
211.7786026201
 31
0.0
  0
LINE
  5
584
330
1F
100
AcDbEntity
  8
0
100
AcDbLine
 10
717.0747104118
 20
211.7786026201
 30
0.0
 11
717.0747104118
 21
224.5286026201
 31
0.0
  0
LINE
  5
585
330
1F
100
AcDbEntity
  8
0
100
AcDbLine
 10
728.11653431
 20
230.9036026201
 30
0.0
 11
739.1583582083
 21
224.5286026201
 31
0.0
  0
LINE
  5
586
330
1F
100
AcDbEntity
  8
0
100
AcDbLine
 10
739.1583582083
 20
224.5286026201
 30
0.0
 11
739.1583582083
 21
211.7786026201
 31
0.0
  0
LINE
  5
587
330
1F
100
AcDbEntity
  8
0
100
AcDbLine
 10
739.1583582083
 20
211.7786026201
 30
0.0
 11
728.11653431
 21
205.4036026201
 31
0.0
  0
LINE
  5
588
330
1F
100
AcDbEntity
  8
0
100
AcDbLine
 10
717.0747104118
 20
224.5286026201
 30
0.0
 11
728.11653431
 21
230.9036026201
 31
0.0
  0
CIRCLE
  5
589
330
1F
100
AcDbEntity
  8
0
100
AcDbCircle
 10
750.11653431
 20
80.1536026201
 30
0.0
 40
4.5
  0
LINE
  5
58A
330
1F
100
AcDbEntity
  8
0
100
AcDbLine
 10
750.11653431
 20
67.4036026201
 30
0.0
 11
739.0747104118
 21
73.7786026201
 31
0.0
  0
LINE
  5
58B
330
1F
100
AcDbEntity
  8
0
100
AcDbLine
 10
739.0747104118
 20
73.7786026201
 30
0.0
 11
739.0747104118
 21
86.5286026201
 31
0.0
  0
LINE
  5
58C
330
1F
100
AcDbEntity
  8
0
100
AcDbLine
 10
750.11653431
 20
92.9036026201
 30
0.0
 11
761.1583582083
 21
86.5286026201
 31
0.0
  0
LINE
  5
58D
330
1F
100
AcDbEntity
  8
0
100
AcDbLine
 10
761.1583582083
 20
86.5286026201
 30
0.0
 11
761.1583582083
 21
73.7786026201
 31
0.0
  0
LINE
  5
58E
330
1F
100
AcDbEntity
  8
0
100
AcDbLine
 10
761.1583582083
 20
73.7786026201
 30
0.0
 11
750.11653431
 21
67.4036026201
 31
0.0
  0
LINE
  5
58F
330
1F
100
AcDbEntity
  8
0
100
AcDbLine
 10
739.0747104118
 20
86.5286026201
 30
0.0
 11
750.11653431
 21
92.9036026201
 31
0.0
  0
CIRCLE
  5
591
330
1F
100
AcDbEntity
  8
0
100
AcDbCircle
 10
750.11653431
 20
80.1536026201
 30
0.0
 40
10.04999999999995
  0
CIRCLE
  5
592
330
1F
100
AcDbEntity
  8
0
100
AcDbCircle
 10
728.11653431
 20
218.1536026201
 30
0.0
 40
10.05000000000007
  0
CIRCLE
  5
594
330
1F
100
AcDbEntity
  8
0
100
AcDbCircle
 10
611.26653431
 20
236.1536026201
 30
0.0
 40
4.099999999999994
  0
ARC
  5
595
330
1F
100
AcDbEntity
  8
0
100
AcDbCircle
 10
611.26653431
 20
236.1536026201
 30
0.0
 40
2.100000000000003
100
AcDbArc
 50
6.837141168099999
 51
83.16285883190001
  0
ARC
  5
596
330
1F
100
AcDbEntity
  8
0
100
AcDbCircle
 10
611.26653431
 20
236.1536026201
 30
0.0
 40
2.100000000000017
100
AcDbArc
 50
83.16285883190001
 51
96.83714116809999
  0
ARC
  5
597
330
1F
100
AcDbEntity
  8
0
100
AcDbCircle
 10
611.26653431
 20
236.1536026201
 30
0.0
 40
2.100000000000088
100
AcDbArc
 50
96.83714116809999
 51
173.1628588319
  0
ARC
  5
598
330
1F
100
AcDbEntity
  8
0
100
AcDbCircle
 10
611.26653431
 20
236.1536026201
 30
0.0
 40
2.100000000000088
100
AcDbArc
 50
173.1628588319
 51
186.8371411681
  0
ARC
  5
599
330
1F
100
AcDbEntity
  8
0
100
AcDbCircle
 10
611.26653431
 20
236.1536026201
 30
0.0
 40
2.100000000000088
100
AcDbArc
 50
186.8371411681
 51
263.1628588319
  0
ARC
  5
59A
330
1F
100
AcDbEntity
  8
0
100
AcDbCircle
 10
611.26653431
 20
236.1536026201
 30
0.0
 40
2.100000000000045
100
AcDbArc
 50
263.1628588319
 51
276.8371411681
  0
ARC
  5
59B
330
1F
100
AcDbEntity
  8
0
100
AcDbCircle
 10
611.26653431
 20
236.1536026201
 30
0.0
 40
2.100000000000032
100
AcDbArc
 50
276.8371411681
 51
353.1628588318999
  0
ARC
  5
59C
330
1F
100
AcDbEntity
  8
0
100
AcDbCircle
 10
611.26653431
 20
236.1536026201
 30
0.0
 40
2.099999999999975
100
AcDbArc
 50
353.1628588318999
 51
6.837141168099999
  0
LINE
  5
59D
330
1F
100
AcDbEntity
  8
0
100
AcDbLine
 10
611.51653431
 20
238.2386685663
 30
0.0
 11
611.01653431
 21
238.2386685663
 31
0.0
  0
LINE
  5
59E
330
1F
100
AcDbEntity
  8
0
100
AcDbLine
 10
613.3516002562
 20
236.4036026201
 30
0.0
 11
612.51653431
 21
236.4036026201
 31
0.0
  0
ARC
  5
59F
330
1F
100
AcDbEntity
  8
0
100
AcDbCircle
 10
612.51653431
 20
237.4036026201
 30
0.0
 40
1.0
100
AcDbArc
 50
180.0
 51
270.0
  0
LINE
  5
5A0
330
1F
100
AcDbEntity
  8
0
100
AcDbLine
 10
611.51653431
 20
237.4036026201
 30
0.0
 11
611.51653431
 21
238.2386685663
 31
0.0
  0
LINE
  5
5A1
330
1F
100
AcDbEntity
  8
0
100
AcDbLine
 10
610.01653431
 20
236.4036026201
 30
0.0
 11
609.1814683638
 21
236.4036026201
 31
0.0
  0
ARC
  5
5A2
330
1F
100
AcDbEntity
  8
0
100
AcDbCircle
 10
610.01653431
 20
237.4036026201
 30
0.0
 40
1.0
100
AcDbArc
 50
270.0
 51
0.0
  0
LINE
  5
5A3
330
1F
100
AcDbEntity
  8
0
100
AcDbLine
 10
611.01653431
 20
238.2386685663
 30
0.0
 11
611.01653431
 21
237.4036026201
 31
0.0
  0
LINE
  5
5A4
330
1F
100
AcDbEntity
  8
0
100
AcDbLine
 10
609.1814683638
 20
236.4036026201
 30
0.0
 11
609.1814683638
 21
235.9036026201
 31
0.0
  0
LINE
  5
5A5
330
1F
100
AcDbEntity
  8
0
100
AcDbLine
 10
611.01653431
 20
234.9036026201
 30
0.0
 11
611.01653431
 21
234.0685366739
 31
0.0
  0
LINE
  5
5A6
330
1F
100
AcDbEntity
  8
0
100
AcDbLine
 10
609.1814683638
 20
235.9036026201
 30
0.0
 11
610.01653431
 21
235.9036026201
 31
0.0
  0
ARC
  5
5A7
330
1F
100
AcDbEntity
  8
0
100
AcDbCircle
 10
610.01653431
 20
234.9036026201
 30
0.0
 40
1.0
100
AcDbArc
 50
0.0
 51
90.0
  0
LINE
  5
5A8
330
1F
100
AcDbEntity
  8
0
100
AcDbLine
 10
612.51653431
 20
235.9036026201
 30
0.0
 11
613.3516002562
 21
235.9036026201
 31
0.0
  0
ARC
  5
5A9
330
1F
100
AcDbEntity
  8
0
100
AcDbCircle
 10
612.51653431
 20
234.9036026201
 30
0.0
 40
1.0
100
AcDbArc
 50
90.0
 51
180.0
  0
LINE
  5
5AA
330
1F
100
AcDbEntity
  8
0
100
AcDbLine
 10
611.51653431
 20
234.0685366739
 30
0.0
 11
611.51653431
 21
234.9036026201
 31
0.0
  0
LINE
  5
5AB
330
1F
100
AcDbEntity
  8
0
100
AcDbLine
 10
611.01653431
 20
234.0685366739
 30
0.0
 11
611.51653431
 21
234.0685366739
 31
0.0
  0
LINE
  5
5AC
330
1F
100
AcDbEntity
  8
0
100
AcDbLine
 10
613.3516002562
 20
235.9036026201
 30
0.0
 11
613.3516002562
 21
236.4036026201
 31
0.0
  0
CIRCLE
  5
5AD
330
1F
100
AcDbEntity
  8
0
100
AcDbCircle
 10
866.96653431
 20
236.1536026201
 30
0.0
 40
4.099999999999994
  0
ARC
  5
5AE
330
1F
100
AcDbEntity
  8
0
100
AcDbCircle
 10
866.96653431
 20
236.1536026201
 30
0.0
 40
2.100000000000003
100
AcDbArc
 50
6.837141168099999
 51
83.16285883190001
  0
ARC
  5
5AF
330
1F
100
AcDbEntity
  8
0
100
AcDbCircle
 10
866.96653431
 20
236.1536026201
 30
0.0
 40
2.100000000000017
100
AcDbArc
 50
83.16285883190001
 51
96.83714116809999
  0
ARC
  5
5B0
330
1F
100
AcDbEntity
  8
0
100
AcDbCircle
 10
866.96653431
 20
236.1536026201
 30
0.0
 40
2.100000000000017
100
AcDbArc
 50
96.83714116809999
 51
173.1628588319
  0
ARC
  5
5B1
330
1F
100
AcDbEntity
  8
0
100
AcDbCircle
 10
866.96653431
 20
236.1536026201
 30
0.0
 40
2.099999999999975
100
AcDbArc
 50
173.1628588319
 51
186.8371411681
  0
ARC
  5
5B2
330
1F
100
AcDbEntity
  8
0
100
AcDbCircle
 10
866.96653431
 20
236.1536026201
 30
0.0
 40
2.100000000000045
100
AcDbArc
 50
186.8371411681
 51
263.1628588319
  0
ARC
  5
5B3
330
1F
100
AcDbEntity
  8
0
100
AcDbCircle
 10
866.96653431
 20
236.1536026201
 30
0.0
 40
2.100000000000045
100
AcDbArc
 50
263.1628588319
 51
276.8371411681
  0
ARC
  5
5B4
330
1F
100
AcDbEntity
  8
0
100
AcDbCircle
 10
866.96653431
 20
236.1536026201
 30
0.0
 40
2.100000000000032
100
AcDbArc
 50
276.8371411681
 51
353.1628588318999
  0
ARC
  5
5B5
330
1F
100
AcDbEntity
  8
0
100
AcDbCircle
 10
866.96653431
 20
236.1536026201
 30
0.0
 40
2.099999999999975
100
AcDbArc
 50
353.1628588318999
 51
6.837141168099999
  0
LINE
  5
5B6
330
1F
100
AcDbEntity
  8
0
100
AcDbLine
 10
867.21653431
 20
238.2386685663
 30
0.0
 11
866.71653431
 21
238.2386685663
 31
0.0
  0
LINE
  5
5B7
330
1F
100
AcDbEntity
  8
0
100
AcDbLine
 10
866.71653431
 20
238.2386685663
 30
0.0
 11
866.71653431
 21
237.4036026201
 31
0.0
  0
LINE
  5
5B8
330
1F
100
AcDbEntity
  8
0
100
AcDbLine
 10
865.71653431
 20
236.4036026201
 30
0.0
 11
864.8814683638
 21
236.4036026201
 31
0.0
  0
ARC
  5
5B9
330
1F
100
AcDbEntity
  8
0
100
AcDbCircle
 10
865.71653431
 20
237.4036026201
 30
0.0
 40
1.0
100
AcDbArc
 50
270.0
 51
0.0
  0
LINE
  5
5BA
330
1F
100
AcDbEntity
  8
0
100
AcDbLine
 10
869.0516002562
 20
236.4036026201
 30
0.0
 11
868.21653431
 21
236.4036026201
 31
0.0
  0
ARC
  5
5BB
330
1F
100
AcDbEntity
  8
0
100
AcDbCircle
 10
868.21653431
 20
237.4036026201
 30
0.0
 40
1.0
100
AcDbArc
 50
180.0
 51
270.0
  0
LINE
  5
5BC
330
1F
100
AcDbEntity
  8
0
100
AcDbLine
 10
867.21653431
 20
237.4036026201
 30
0.0
 11
867.21653431
 21
238.2386685663
 31
0.0
  0
LINE
  5
5BD
330
1F
100
AcDbEntity
  8
0
100
AcDbLine
 10
867.21653431
 20
234.0685366739
 30
0.0
 11
867.21653431
 21
234.9036026201
 31
0.0
  0
ARC
  5
5BE
330
1F
100
AcDbEntity
  8
0
100
AcDbCircle
 10
868.21653431
 20
234.9036026201
 30
0.0
 40
1.000000000000028
100
AcDbArc
 50
90.0
 51
180.0
  0
LINE
  5
5BF
330
1F
100
AcDbEntity
  8
0
100
AcDbLine
 10
868.21653431
 20
235.9036026201
 30
0.0
 11
869.0516002562
 21
235.9036026201
 31
0.0
  0
LINE
  5
5C0
330
1F
100
AcDbEntity
  8
0
100
AcDbLine
 10
864.8814683638
 20
235.9036026201
 30
0.0
 11
865.71653431
 21
235.9036026201
 31
0.0
  0
LINE
  5
5C1
330
1F
100
AcDbEntity
  8
0
100
AcDbLine
 10
866.71653431
 20
234.9036026201
 30
0.0
 11
866.71653431
 21
234.0685366739
 31
0.0
  0
ARC
  5
5C2
330
1F
100
AcDbEntity
  8
0
100
AcDbCircle
 10
865.71653431
 20
234.9036026201
 30
0.0
 40
1.000000000000028
100
AcDbArc
 50
0.0
 51
90.0
  0
LINE
  5
5C3
330
1F
100
AcDbEntity
  8
0
100
AcDbLine
 10
866.71653431
 20
234.0685366739
 30
0.0
 11
867.21653431
 21
234.0685366739
 31
0.0
  0
LINE
  5
5C4
330
1F
100
AcDbEntity
  8
0
100
AcDbLine
 10
864.8814683638
 20
236.4036026201
 30
0.0
 11
864.8814683638
 21
235.9036026201
 31
0.0
  0
LINE
  5
5C5
330
1F
100
AcDbEntity
  8
0
100
AcDbLine
 10
869.0516002562
 20
235.9036026201
 30
0.0
 11
869.0516002562
 21
236.4036026201
 31
0.0
  0
CIRCLE
  5
5C6
330
1F
100
AcDbEntity
  8
0
100
AcDbCircle
 10
866.96653431
 20
64.1536026201
 30
0.0
 40
4.099999999999987
  0
ARC
  5
5C7
330
1F
100
AcDbEntity
  8
0
100
AcDbCircle
 10
866.96653431
 20
64.1536026201
 30
0.0
 40
2.100000000000031
100
AcDbArc
 50
6.837141168099999
 51
83.16285883190001
  0
ARC
  5
5C8
330
1F
100
AcDbEntity
  8
0
100
AcDbCircle
 10
866.96653431
 20
64.1536026201
 30
0.0
 40
2.100000000000031
100
AcDbArc
 50
83.16285883190001
 51
96.83714116809999
  0
ARC
  5
5C9
330
1F
100
AcDbEntity
  8
0
100
AcDbCircle
 10
866.96653431
 20
64.1536026201
 30
0.0
 40
2.100000000000017
100
AcDbArc
 50
96.83714116809999
 51
173.1628588319
  0
ARC
  5
5CA
330
1F
100
AcDbEntity
  8
0
100
AcDbCircle
 10
866.96653431
 20
64.1536026201
 30
0.0
 40
2.099999999999975
100
AcDbArc
 50
173.1628588319
 51
186.8371411681
  0
ARC
  5
5CB
330
1F
100
AcDbEntity
  8
0
100
AcDbCircle
 10
866.96653431
 20
64.1536026201
 30
0.0
 40
2.100000000000003
100
AcDbArc
 50
186.8371411681
 51
263.1628588319
  0
ARC
  5
5CC
330
1F
100
AcDbEntity
  8
0
100
AcDbCircle
 10
866.96653431
 20
64.1536026201
 30
0.0
 40
2.100000000000017
100
AcDbArc
 50
263.1628588319
 51
276.8371411681
  0
ARC
  5
5CD
330
1F
100
AcDbEntity
  8
0
100
AcDbCircle
 10
866.96653431
 20
64.1536026201
 30
0.0
 40
2.100000000000017
100
AcDbArc
 50
276.8371411681
 51
353.1628588318999
  0
ARC
  5
5CE
330
1F
100
AcDbEntity
  8
0
100
AcDbCircle
 10
866.96653431
 20
64.1536026201
 30
0.0
 40
2.099999999999975
100
AcDbArc
 50
353.1628588318999
 51
6.837141168099999
  0
LINE
  5
5CF
330
1F
100
AcDbEntity
  8
0
100
AcDbLine
 10
867.21653431
 20
66.2386685663
 30
0.0
 11
866.71653431
 21
66.2386685663
 31
0.0
  0
LINE
  5
5D0
330
1F
100
AcDbEntity
  8
0
100
AcDbLine
 10
869.0516002562
 20
64.4036026201
 30
0.0
 11
868.21653431
 21
64.4036026201
 31
0.0
  0
ARC
  5
5D1
330
1F
100
AcDbEntity
  8
0
100
AcDbCircle
 10
868.21653431
 20
65.4036026201
 30
0.0
 40
1.0
100
AcDbArc
 50
180.0
 51
270.0
  0
LINE
  5
5D2
330
1F
100
AcDbEntity
  8
0
100
AcDbLine
 10
867.21653431
 20
65.4036026201
 30
0.0
 11
867.21653431
 21
66.2386685663
 31
0.0
  0
ARC
  5
5D3
330
1F
100
AcDbEntity
  8
0
100
AcDbCircle
 10
865.71653431
 20
65.4036026201
 30
0.0
 40
1.0
100
AcDbArc
 50
270.0
 51
0.0
  0
LINE
  5
5D4
330
1F
100
AcDbEntity
  8
0
100
AcDbLine
 10
865.71653431
 20
64.4036026201
 30
0.0
 11
864.8814683638
 21
64.4036026201
 31
0.0
  0
LINE
  5
5D5
330
1F
100
AcDbEntity
  8
0
100
AcDbLine
 10
866.71653431
 20
66.2386685663
 30
0.0
 11
866.71653431
 21
65.4036026201
 31
0.0
  0
LINE
  5
5D6
330
1F
100
AcDbEntity
  8
0
100
AcDbLine
 10
864.8814683638
 20
63.9036026201
 30
0.0
 11
865.71653431
 21
63.9036026201
 31
0.0
  0
ARC
  5
5D7
330
1F
100
AcDbEntity
  8
0
100
AcDbCircle
 10
865.71653431
 20
62.9036026201
 30
0.0
 40
1.0
100
AcDbArc
 50
0.0
 51
90.0
  0
LINE
  5
5D8
330
1F
100
AcDbEntity
  8
0
100
AcDbLine
 10
866.71653431
 20
62.9036026201
 30
0.0
 11
866.71653431
 21
62.0685366739
 31
0.0
  0
LINE
  5
5D9
330
1F
100
AcDbEntity
  8
0
100
AcDbLine
 10
864.8814683638
 20
64.4036026201
 30
0.0
 11
864.8814683638
 21
63.9036026201
 31
0.0
  0
LINE
  5
5DA
330
1F
100
AcDbEntity
  8
0
100
AcDbLine
 10
866.71653431
 20
62.0685366739
 30
0.0
 11
867.21653431
 21
62.0685366739
 31
0.0
  0
LINE
  5
5DB
330
1F
100
AcDbEntity
  8
0
100
AcDbLine
 10
868.21653431
 20
63.9036026201
 30
0.0
 11
869.0516002562
 21
63.9036026201
 31
0.0
  0
LINE
  5
5DC
330
1F
100
AcDbEntity
  8
0
100
AcDbLine
 10
867.21653431
 20
62.0685366739
 30
0.0
 11
867.21653431
 21
62.9036026201
 31
0.0
  0
ARC
  5
5DD
330
1F
100
AcDbEntity
  8
0
100
AcDbCircle
 10
868.21653431
 20
62.9036026201
 30
0.0
 40
1.0
100
AcDbArc
 50
90.0
 51
180.0
  0
LINE
  5
5DE
330
1F
100
AcDbEntity
  8
0
100
AcDbLine
 10
869.0516002562
 20
63.9036026201
 30
0.0
 11
869.0516002562
 21
64.4036026201
 31
0.0
  0
CIRCLE
  5
5DF
330
1F
100
AcDbEntity
  8
0
100
AcDbCircle
 10
611.26653431
 20
64.1536026201
 30
0.0
 40
4.099999999999987
  0
ARC
  5
5E0
330
1F
100
AcDbEntity
  8
0
100
AcDbCircle
 10
611.26653431
 20
64.1536026201
 30
0.0
 40
2.100000000000017
100
AcDbArc
 50
6.837141168099999
 51
83.16285883190001
  0
ARC
  5
5E1
330
1F
100
AcDbEntity
  8
0
100
AcDbCircle
 10
611.26653431
 20
64.1536026201
 30
0.0
 40
2.100000000000031
100
AcDbArc
 50
83.16285883190001
 51
96.83714116809999
  0
ARC
  5
5E2
330
1F
100
AcDbEntity
  8
0
100
AcDbCircle
 10
611.26653431
 20
64.1536026201
 30
0.0
 40
2.100000000000088
100
AcDbArc
 50
96.83714116809999
 51
173.1628588319
  0
ARC
  5
5E3
330
1F
100
AcDbEntity
  8
0
100
AcDbCircle
 10
611.26653431
 20
64.1536026201
 30
0.0
 40
2.100000000000088
100
AcDbArc
 50
173.1628588319
 51
186.8371411681
  0
ARC
  5
5E4
330
1F
100
AcDbEntity
  8
0
100
AcDbCircle
 10
611.26653431
 20
64.1536026201
 30
0.0
 40
2.100000000000087
100
AcDbArc
 50
186.8371411681
 51
263.1628588319
  0
ARC
  5
5E5
330
1F
100
AcDbEntity
  8
0
100
AcDbCircle
 10
611.26653431
 20
64.1536026201
 30
0.0
 40
2.10000000000001
100
AcDbArc
 50
263.1628588319
 51
276.8371411681
  0
ARC
  5
5E6
330
1F
100
AcDbEntity
  8
0
100
AcDbCircle
 10
611.26653431
 20
64.1536026201
 30
0.0
 40
2.099999999999996
100
AcDbArc
 50
276.8371411681
 51
353.1628588318999
  0
ARC
  5
5E7
330
1F
100
AcDbEntity
  8
0
100
AcDbCircle
 10
611.26653431
 20
64.1536026201
 30
0.0
 40
2.099999999999975
100
AcDbArc
 50
353.1628588318999
 51
6.837141168099999
  0
LINE
  5
5E8
330
1F
100
AcDbEntity
  8
0
100
AcDbLine
 10
611.51653431
 20
66.2386685663
 30
0.0
 11
611.01653431
 21
66.2386685663
 31
0.0
  0
LINE
  5
5E9
330
1F
100
AcDbEntity
  8
0
100
AcDbLine
 10
613.3516002562
 20
64.4036026201
 30
0.0
 11
612.51653431
 21
64.4036026201
 31
0.0
  0
ARC
  5
5EA
330
1F
100
AcDbEntity
  8
0
100
AcDbCircle
 10
612.51653431
 20
65.4036026201
 30
0.0
 40
1.000000000000014
100
AcDbArc
 50
180.0
 51
270.0
  0
LINE
  5
5EB
330
1F
100
AcDbEntity
  8
0
100
AcDbLine
 10
611.51653431
 20
65.4036026201
 30
0.0
 11
611.51653431
 21
66.2386685663
 31
0.0
  0
ARC
  5
5EC
330
1F
100
AcDbEntity
  8
0
100
AcDbCircle
 10
610.01653431
 20
65.4036026201
 30
0.0
 40
1.000000000000014
100
AcDbArc
 50
270.0
 51
0.0
  0
LINE
  5
5ED
330
1F
100
AcDbEntity
  8
0
100
AcDbLine
 10
610.01653431
 20
64.4036026201
 30
0.0
 11
609.1814683638
 21
64.4036026201
 31
0.0
  0
LINE
  5
5EE
330
1F
100
AcDbEntity
  8
0
100
AcDbLine
 10
611.01653431
 20
66.2386685663
 30
0.0
 11
611.01653431
 21
65.4036026201
 31
0.0
  0
LINE
  5
5EF
330
1F
100
AcDbEntity
  8
0
100
AcDbLine
 10
611.51653431
 20
62.0685366739
 30
0.0
 11
611.51653431
 21
62.9036026201
 31
0.0
  0
ARC
  5
5F0
330
1F
100
AcDbEntity
  8
0
100
AcDbCircle
 10
612.51653431
 20
62.9036026201
 30
0.0
 40
1.0
100
AcDbArc
 50
90.0
 51
180.0
  0
LINE
  5
5F1
330
1F
100
AcDbEntity
  8
0
100
AcDbLine
 10
612.51653431
 20
63.9036026201
 30
0.0
 11
613.3516002562
 21
63.9036026201
 31
0.0
  0
LINE
  5
5F2
330
1F
100
AcDbEntity
  8
0
100
AcDbLine
 10
609.1814683638
 20
64.4036026201
 30
0.0
 11
609.1814683638
 21
63.9036026201
 31
0.0
  0
ARC
  5
5F3
330
1F
100
AcDbEntity
  8
0
100
AcDbCircle
 10
610.01653431
 20
62.9036026201
 30
0.0
 40
1.0
100
AcDbArc
 50
0.0
 51
90.0
  0
LINE
  5
5F4
330
1F
100
AcDbEntity
  8
0
100
AcDbLine
 10
611.01653431
 20
62.9036026201
 30
0.0
 11
611.01653431
 21
62.0685366739
 31
0.0
  0
LINE
  5
5F5
330
1F
100
AcDbEntity
  8
0
100
AcDbLine
 10
609.1814683638
 20
63.9036026201
 30
0.0
 11
610.01653431
 21
63.9036026201
 31
0.0
  0
LINE
  5
5F6
330
1F
100
AcDbEntity
  8
0
100
AcDbLine
 10
611.01653431
 20
62.0685366739
 30
0.0
 11
611.51653431
 21
62.0685366739
 31
0.0
  0
LINE
  5
5F7
330
1F
100
AcDbEntity
  8
0
100
AcDbLine
 10
613.3516002562
 20
63.9036026201
 30
0.0
 11
613.3516002562
 21
64.4036026201
 31
0.0
  0
LINE
  5
5F8
330
1F
100
AcDbEntity
  8
0
100
AcDbLine
 10
622.11653431
 20
270.6536026201
 30
0.0
 11
622.11653431
 21
269.6536026201
 31
0.0
  0
LINE
  5
5F9
330
1F
100
AcDbEntity
  8
0
100
AcDbLine
 10
622.11653431
 20
269.6536026201
 30
0.0
 11
623.61653431
 21
269.6536026201
 31
0.0
  0
LINE
  5
5FA
330
1F
100
AcDbEntity
  8
0
100
AcDbLine
 10
623.61653431
 20
269.6536026201
 30
0.0
 11
623.61653431
 21
268.1536026201
 31
0.0
  0
LINE
  5
5FB
330
1F
100
AcDbEntity
  8
0
100
AcDbLine
 10
623.61653431
 20
268.1536026201
 30
0.0
 11
624.61653431
 21
268.1536026201
 31
0.0
  0
LINE
  5
5FC
330
1F
100
AcDbEntity
  8
0
100
AcDbLine
 10
624.61653431
 20
268.1536026201
 30
0.0
 11
624.61653431
 21
269.6536026201
 31
0.0
  0
LINE
  5
5FD
330
1F
100
AcDbEntity
  8
0
100
AcDbLine
 10
624.61653431
 20
269.6536026201
 30
0.0
 11
626.11653431
 21
269.6536026201
 31
0.0
  0
LINE
  5
5FE
330
1F
100
AcDbEntity
  8
0
100
AcDbLine
 10
626.11653431
 20
269.6536026201
 30
0.0
 11
626.11653431
 21
270.6536026201
 31
0.0
  0
LINE
  5
5FF
330
1F
100
AcDbEntity
  8
0
100
AcDbLine
 10
626.11653431
 20
270.6536026201
 30
0.0
 11
624.61653431
 21
270.6536026201
 31
0.0
  0
LINE
  5
600
330
1F
100
AcDbEntity
  8
0
100
AcDbLine
 10
624.61653431
 20
270.6536026201
 30
0.0
 11
624.61653431
 21
272.1536026201
 31
0.0
  0
LINE
  5
601
330
1F
100
AcDbEntity
  8
0
100
AcDbLine
 10
624.61653431
 20
272.1536026201
 30
0.0
 11
623.61653431
 21
272.1536026201
 31
0.0
  0
LINE
  5
602
330
1F
100
AcDbEntity
  8
0
100
AcDbLine
 10
623.61653431
 20
272.1536026201
 30
0.0
 11
623.61653431
 21
270.6536026201
 31
0.0
  0
LINE
  5
603
330
1F
100
AcDbEntity
  8
0
100
AcDbLine
 10
623.61653431
 20
270.6536026201
 30
0.0
 11
622.11653431
 21
270.6536026201
 31
0.0
  0
CIRCLE
  5
604
330
1F
100
AcDbEntity
  8
0
100
AcDbCircle
 10
624.11653431
 20
270.1536026201
 30
0.0
 40
2.5
  0
LINE
  5
605
330
1F
100
AcDbEntity
  8
0
100
AcDbLine
 10
623.8810247811
 20
269.9180930911
 30
0.0
 11
623.61653431
 21
269.6536026201
 31
0.0
  0
LINE
  5
606
330
1F
100
AcDbEntity
  8
0
100
AcDbLine
 10
623.8810247811
 20
269.9180930911
 30
0.0
 11
623.8810247811
 21
268.4180930911
 31
0.0
  0
LINE
  5
607
330
1F
100
AcDbEntity
  8
0
100
AcDbLine
 10
623.8810247811
 20
268.4180930911
 30
0.0
 11
623.61653431
 21
268.1536026201
 31
0.0
  0
LINE
  5
608
330
1F
100
AcDbEntity
  8
0
100
AcDbLine
 10
623.8810247811
 20
268.4180930911
 30
0.0
 11
624.3520438389
 21
268.4180930911
 31
0.0
  0
LINE
  5
609
330
1F
100
AcDbEntity
  8
0
100
AcDbLine
 10
624.3520438389
 20
268.4180930911
 30
0.0
 11
624.61653431
 21
268.1536026201
 31
0.0
  0
LINE
  5
60A
330
1F
100
AcDbEntity
  8
0
100
AcDbLine
 10
624.3520438389
 20
268.4180930911
 30
0.0
 11
624.3520438389
 21
269.9180930911
 31
0.0
  0
LINE
  5
60B
330
1F
100
AcDbEntity
  8
0
100
AcDbLine
 10
624.3520438389
 20
269.9180930911
 30
0.0
 11
624.61653431
 21
269.6536026201
 31
0.0
  0
LINE
  5
60C
330
1F
100
AcDbEntity
  8
0
100
AcDbLine
 10
624.3520438389
 20
269.9180930911
 30
0.0
 11
625.8520438389
 21
269.9180930911
 31
0.0
  0
LINE
  5
60D
330
1F
100
AcDbEntity
  8
0
100
AcDbLine
 10
625.8520438389
 20
269.9180930911
 30
0.0
 11
626.11653431
 21
269.6536026201
 31
0.0
  0
LINE
  5
60E
330
1F
100
AcDbEntity
  8
0
100
AcDbLine
 10
625.8520438389
 20
270.389112149
 30
0.0
 11
626.11653431
 21
270.6536026201
 31
0.0
  0
LINE
  5
60F
330
1F
100
AcDbEntity
  8
0
100
AcDbLine
 10
625.8520438389
 20
270.389112149
 30
0.0
 11
624.3520438389
 21
270.389112149
 31
0.0
  0
LINE
  5
610
330
1F
100
AcDbEntity
  8
0
100
AcDbLine
 10
624.3520438389
 20
270.389112149
 30
0.0
 11
624.61653431
 21
270.6536026201
 31
0.0
  0
LINE
  5
611
330
1F
100
AcDbEntity
  8
0
100
AcDbLine
 10
622.3810247811
 20
269.9180930911
 30
0.0
 11
622.11653431
 21
269.6536026201
 31
0.0
  0
LINE
  5
612
330
1F
100
AcDbEntity
  8
0
100
AcDbLine
 10
622.3810247811
 20
269.9180930911
 30
0.0
 11
623.8810247811
 21
269.9180930911
 31
0.0
  0
LINE
  5
613
330
1F
100
AcDbEntity
  8
0
100
AcDbLine
 10
625.8520438389
 20
269.9180930911
 30
0.0
 11
625.8520438389
 21
270.389112149
 31
0.0
  0
LINE
  5
614
330
1F
100
AcDbEntity
  8
0
100
AcDbLine
 10
622.3810247811
 20
270.389112149
 30
0.0
 11
622.11653431
 21
270.6536026201
 31
0.0
  0
LINE
  5
615
330
1F
100
AcDbEntity
  8
0
100
AcDbLine
 10
622.3810247811
 20
270.389112149
 30
0.0
 11
622.3810247811
 21
269.9180930911
 31
0.0
  0
LINE
  5
616
330
1F
100
AcDbEntity
  8
0
100
AcDbLine
 10
624.3520438389
 20
271.889112149
 30
0.0
 11
624.61653431
 21
272.1536026201
 31
0.0
  0
LINE
  5
617
330
1F
100
AcDbEntity
  8
0
100
AcDbLine
 10
624.3520438389
 20
271.889112149
 30
0.0
 11
623.8810247811
 21
271.889112149
 31
0.0
  0
LINE
  5
618
330
1F
100
AcDbEntity
  8
0
100
AcDbLine
 10
623.8810247811
 20
271.889112149
 30
0.0
 11
623.61653431
 21
272.1536026201
 31
0.0
  0
LINE
  5
619
330
1F
100
AcDbEntity
  8
0
100
AcDbLine
 10
623.8810247811
 20
271.889112149
 30
0.0
 11
623.8810247811
 21
270.389112149
 31
0.0
  0
LINE
  5
61A
330
1F
100
AcDbEntity
  8
0
100
AcDbLine
 10
623.8810247811
 20
270.389112149
 30
0.0
 11
623.61653431
 21
270.6536026201
 31
0.0
  0
LINE
  5
61B
330
1F
100
AcDbEntity
  8
0
100
AcDbLine
 10
623.8810247811
 20
270.389112149
 30
0.0
 11
622.3810247811
 21
270.389112149
 31
0.0
  0
CIRCLE
  5
61C
330
1F
100
AcDbEntity
  8
0
100
AcDbCircle
 10
624.11653431
 20
270.1536026201
 30
0.0
 40
4.000000000000114
  0
LINE
  5
61D
330
1F
100
AcDbEntity
  8
0
100
AcDbLine
 10
624.3520438389
 20
270.389112149
 30
0.0
 11
624.3520438389
 21
271.889112149
 31
0.0
  0
LINE
  5
61E
330
1F
100
AcDbEntity
  8
0
100
AcDbLine
 10
624.3894098501
 20
30.344569675
 30
0.0
 11
624.6958644571
 21
30.5590364379
 31
0.0
  0
LINE
  5
61F
330
1F
100
AcDbEntity
  8
0
100
AcDbLine
 10
624.3894098501
 20
30.344569675
 30
0.0
 11
624.6502543441
 21
31.8217156224
 31
0.0
  0
LINE
  5
620
330
1F
100
AcDbEntity
  8
0
100
AcDbLine
 10
624.6502543441
 20
31.8217156224
 30
0.0
 11
624.9567089511
 21
32.0361823853
 31
0.0
  0
LINE
  5
621
330
1F
100
AcDbEntity
  8
0
100
AcDbLine
 10
624.6958644571
 20
30.5590364379
 30
0.0
 11
624.9567089511
 21
32.0361823853
 31
0.0
  0
LINE
  5
622
330
1F
100
AcDbEntity
  8
0
100
AcDbLine
 10
625.9991140753
 20
29.313427979
 30
0.0
 11
626.1730104046
 21
30.2981919439
 31
0.0
  0
LINE
  5
623
330
1F
100
AcDbEntity
  8
0
100
AcDbLine
 10
626.1730104046
 20
30.2981919439
 30
0.0
 11
624.6958644571
 21
30.5590364379
 31
0.0
  0
LINE
  5
624
330
1F
100
AcDbEntity
  8
0
100
AcDbLine
 10
624.9567089511
 20
32.0361823853
 30
0.0
 11
623.9719449861
 21
32.2100787146
 31
0.0
  0
LINE
  5
625
330
1F
100
AcDbEntity
  8
0
100
AcDbLine
 10
623.9719449861
 20
32.2100787146
 30
0.0
 11
623.7111004922
 21
30.7329327672
 31
0.0
  0
LINE
  5
626
330
1F
100
AcDbEntity
  8
0
100
AcDbLine
 10
623.7111004922
 20
30.7329327672
 30
0.0
 11
622.2339545448
 21
30.9937772611
 31
0.0
  0
LINE
  5
627
330
1F
100
AcDbEntity
  8
0
100
AcDbLine
 10
622.2339545448
 20
30.9937772611
 30
0.0
 11
622.0600582155
 21
30.0090132962
 31
0.0
  0
LINE
  5
628
330
1F
100
AcDbEntity
  8
0
100
AcDbLine
 10
622.0600582155
 20
30.0090132962
 30
0.0
 11
623.5372041629
 21
29.7481688022
 31
0.0
  0
LINE
  5
629
330
1F
100
AcDbEntity
  8
0
100
AcDbLine
 10
623.5372041629
 20
29.7481688022
 30
0.0
 11
623.276359669
 21
28.2710228548
 31
0.0
  0
LINE
  5
62A
330
1F
100
AcDbEntity
  8
0
100
AcDbLine
 10
623.276359669
 20
28.2710228548
 30
0.0
 11
624.2611236339
 21
28.0971265255
 31
0.0
  0
LINE
  5
62B
330
1F
100
AcDbEntity
  8
0
100
AcDbLine
 10
624.2611236339
 20
28.0971265255
 30
0.0
 11
624.5219681278
 21
29.5742724729
 31
0.0
  0
LINE
  5
62C
330
1F
100
AcDbEntity
  8
0
100
AcDbLine
 10
624.5219681278
 20
29.5742724729
 30
0.0
 11
625.9991140753
 21
29.313427979
 31
0.0
  0
CIRCLE
  5
62D
330
1F
100
AcDbEntity
  8
0
100
AcDbCircle
 10
624.11653431
 20
30.1536026201
 30
0.0
 40
2.499999999999974
  0
LINE
  5
62E
330
1F
100
AcDbEntity
  8
0
100
AcDbLine
 10
624.6502543441
 20
31.8217156224
 30
0.0
 11
624.1864117491
 21
31.9036241076
 31
0.0
  0
LINE
  5
62F
330
1F
100
AcDbEntity
  8
0
100
AcDbLine
 10
624.1864117491
 20
31.9036241076
 30
0.0
 11
623.9719449861
 21
32.2100787146
 31
0.0
  0
LINE
  5
630
330
1F
100
AcDbEntity
  8
0
100
AcDbLine
 10
622.3665128225
 20
30.2234800591
 30
0.0
 11
622.0600582155
 21
30.0090132962
 31
0.0
  0
LINE
  5
631
330
1F
100
AcDbEntity
  8
0
100
AcDbLine
 10
622.3665128225
 20
30.2234800591
 30
0.0
 11
623.8436587699
 21
29.9626355652
 31
0.0
  0
LINE
  5
632
330
1F
100
AcDbEntity
  8
0
100
AcDbLine
 10
623.8436587699
 20
29.9626355652
 30
0.0
 11
623.5372041629
 21
29.7481688022
 31
0.0
  0
LINE
  5
633
330
1F
100
AcDbEntity
  8
0
100
AcDbLine
 10
622.4484213077
 20
30.6873226541
 30
0.0
 11
622.2339545448
 21
30.9937772611
 31
0.0
  0
LINE
  5
634
330
1F
100
AcDbEntity
  8
0
100
AcDbLine
 10
622.4484213077
 20
30.6873226541
 30
0.0
 11
622.3665128225
 21
30.2234800591
 31
0.0
  0
LINE
  5
635
330
1F
100
AcDbEntity
  8
0
100
AcDbLine
 10
623.9255672551
 20
30.4264781602
 30
0.0
 11
623.7111004922
 21
30.7329327672
 31
0.0
  0
LINE
  5
636
330
1F
100
AcDbEntity
  8
0
100
AcDbLine
 10
623.9255672551
 20
30.4264781602
 30
0.0
 11
622.4484213077
 21
30.6873226541
 31
0.0
  0
LINE
  5
637
330
1F
100
AcDbEntity
  8
0
100
AcDbLine
 10
624.1864117491
 20
31.9036241076
 30
0.0
 11
623.9255672551
 21
30.4264781602
 31
0.0
  0
LINE
  5
638
330
1F
100
AcDbEntity
  8
0
100
AcDbLine
 10
625.8665557975
 20
30.083725181
 30
0.0
 11
626.1730104046
 21
30.2981919439
 31
0.0
  0
LINE
  5
639
330
1F
100
AcDbEntity
  8
0
100
AcDbLine
 10
625.8665557975
 20
30.083725181
 30
0.0
 11
624.3894098501
 21
30.344569675
 31
0.0
  0
LINE
  5
63A
330
1F
100
AcDbEntity
  8
0
100
AcDbLine
 10
625.7846473123
 20
29.619882586
 30
0.0
 11
625.9991140753
 21
29.313427979
 31
0.0
  0
LINE
  5
63B
330
1F
100
AcDbEntity
  8
0
100
AcDbLine
 10
625.7846473123
 20
29.619882586
 30
0.0
 11
625.8665557975
 21
30.083725181
 31
0.0
  0
LINE
  5
63C
330
1F
100
AcDbEntity
  8
0
100
AcDbLine
 10
624.046656871
 20
28.4035811325
 30
0.0
 11
624.2611236339
 21
28.0971265255
 31
0.0
  0
LINE
  5
63D
330
1F
100
AcDbEntity
  8
0
100
AcDbLine
 10
624.046656871
 20
28.4035811325
 30
0.0
 11
624.3075013649
 21
29.88072708
 31
0.0
  0
LINE
  5
63E
330
1F
100
AcDbEntity
  8
0
100
AcDbLine
 10
624.3075013649
 20
29.88072708
 30
0.0
 11
624.5219681278
 21
29.5742724729
 31
0.0
  0
LINE
  5
63F
330
1F
100
AcDbEntity
  8
0
100
AcDbLine
 10
623.582814276
 20
28.4854896177
 30
0.0
 11
623.276359669
 21
28.2710228548
 31
0.0
  0
LINE
  5
640
330
1F
100
AcDbEntity
  8
0
100
AcDbLine
 10
623.582814276
 20
28.4854896177
 30
0.0
 11
624.046656871
 21
28.4035811325
 31
0.0
  0
LINE
  5
641
330
1F
100
AcDbEntity
  8
0
100
AcDbLine
 10
624.3075013649
 20
29.88072708
 30
0.0
 11
625.7846473123
 21
29.619882586
 31
0.0
  0
CIRCLE
  5
642
330
1F
100
AcDbEntity
  8
0
100
AcDbCircle
 10
624.11653431
 20
30.1536026201
 30
0.0
 40
4.000000000000005
  0
LINE
  5
643
330
1F
100
AcDbEntity
  8
0
100
AcDbLine
 10
623.8436587699
 20
29.9626355652
 30
0.0
 11
623.582814276
 21
28.4854896177
 31
0.0
  0
LINE
  5
644
330
1F
100
AcDbEntity
  8
0
100
AcDbLine
 10
852.11653431
 20
270.6536026201
 30
0.0
 11
852.11653431
 21
269.6536026201
 31
0.0
  0
LINE
  5
645
330
1F
100
AcDbEntity
  8
0
100
AcDbLine
 10
852.11653431
 20
269.6536026201
 30
0.0
 11
853.61653431
 21
269.6536026201
 31
0.0
  0
LINE
  5
646
330
1F
100
AcDbEntity
  8
0
100
AcDbLine
 10
853.61653431
 20
269.6536026201
 30
0.0
 11
853.61653431
 21
268.1536026201
 31
0.0
  0
LINE
  5
647
330
1F
100
AcDbEntity
  8
0
100
AcDbLine
 10
853.61653431
 20
268.1536026201
 30
0.0
 11
854.61653431
 21
268.1536026201
 31
0.0
  0
LINE
  5
648
330
1F
100
AcDbEntity
  8
0
100
AcDbLine
 10
854.61653431
 20
268.1536026201
 30
0.0
 11
854.61653431
 21
269.6536026201
 31
0.0
  0
LINE
  5
649
330
1F
100
AcDbEntity
  8
0
100
AcDbLine
 10
854.61653431
 20
269.6536026201
 30
0.0
 11
856.11653431
 21
269.6536026201
 31
0.0
  0
LINE
  5
64A
330
1F
100
AcDbEntity
  8
0
100
AcDbLine
 10
856.11653431
 20
269.6536026201
 30
0.0
 11
856.11653431
 21
270.6536026201
 31
0.0
  0
LINE
  5
64B
330
1F
100
AcDbEntity
  8
0
100
AcDbLine
 10
856.11653431
 20
270.6536026201
 30
0.0
 11
854.61653431
 21
270.6536026201
 31
0.0
  0
LINE
  5
64C
330
1F
100
AcDbEntity
  8
0
100
AcDbLine
 10
854.61653431
 20
270.6536026201
 30
0.0
 11
854.61653431
 21
272.1536026201
 31
0.0
  0
LINE
  5
64D
330
1F
100
AcDbEntity
  8
0
100
AcDbLine
 10
854.61653431
 20
272.1536026201
 30
0.0
 11
853.61653431
 21
272.1536026201
 31
0.0
  0
LINE
  5
64E
330
1F
100
AcDbEntity
  8
0
100
AcDbLine
 10
853.61653431
 20
272.1536026201
 30
0.0
 11
853.61653431
 21
270.6536026201
 31
0.0
  0
LINE
  5
64F
330
1F
100
AcDbEntity
  8
0
100
AcDbLine
 10
853.61653431
 20
270.6536026201
 30
0.0
 11
852.11653431
 21
270.6536026201
 31
0.0
  0
CIRCLE
  5
650
330
1F
100
AcDbEntity
  8
0
100
AcDbCircle
 10
854.11653431
 20
270.1536026201
 30
0.0
 40
2.500000000000114
  0
LINE
  5
651
330
1F
100
AcDbEntity
  8
0
100
AcDbLine
 10
853.8810247811
 20
269.9180930911
 30
0.0
 11
853.61653431
 21
269.6536026201
 31
0.0
  0
LINE
  5
652
330
1F
100
AcDbEntity
  8
0
100
AcDbLine
 10
853.8810247811
 20
269.9180930911
 30
0.0
 11
853.8810247811
 21
268.4180930911
 31
0.0
  0
LINE
  5
653
330
1F
100
AcDbEntity
  8
0
100
AcDbLine
 10
853.8810247811
 20
268.4180930911
 30
0.0
 11
853.61653431
 21
268.1536026201
 31
0.0
  0
LINE
  5
654
330
1F
100
AcDbEntity
  8
0
100
AcDbLine
 10
853.8810247811
 20
268.4180930911
 30
0.0
 11
854.3520438389
 21
268.4180930911
 31
0.0
  0
LINE
  5
655
330
1F
100
AcDbEntity
  8
0
100
AcDbLine
 10
854.3520438389
 20
268.4180930911
 30
0.0
 11
854.61653431
 21
268.1536026201
 31
0.0
  0
LINE
  5
656
330
1F
100
AcDbEntity
  8
0
100
AcDbLine
 10
855.8520438389
 20
270.389112149
 30
0.0
 11
856.11653431
 21
270.6536026201
 31
0.0
  0
LINE
  5
657
330
1F
100
AcDbEntity
  8
0
100
AcDbLine
 10
855.8520438389
 20
270.389112149
 30
0.0
 11
854.3520438389
 21
270.389112149
 31
0.0
  0
LINE
  5
658
330
1F
100
AcDbEntity
  8
0
100
AcDbLine
 10
854.3520438389
 20
270.389112149
 30
0.0
 11
854.61653431
 21
270.6536026201
 31
0.0
  0
LINE
  5
659
330
1F
100
AcDbEntity
  8
0
100
AcDbLine
 10
854.3520438389
 20
268.4180930911
 30
0.0
 11
854.3520438389
 21
269.9180930911
 31
0.0
  0
LINE
  5
65A
330
1F
100
AcDbEntity
  8
0
100
AcDbLine
 10
854.3520438389
 20
269.9180930911
 30
0.0
 11
854.61653431
 21
269.6536026201
 31
0.0
  0
LINE
  5
65B
330
1F
100
AcDbEntity
  8
0
100
AcDbLine
 10
854.3520438389
 20
269.9180930911
 30
0.0
 11
855.8520438389
 21
269.9180930911
 31
0.0
  0
LINE
  5
65C
330
1F
100
AcDbEntity
  8
0
100
AcDbLine
 10
855.8520438389
 20
269.9180930911
 30
0.0
 11
856.11653431
 21
269.6536026201
 31
0.0
  0
LINE
  5
65D
330
1F
100
AcDbEntity
  8
0
100
AcDbLine
 10
852.3810247811
 20
269.9180930911
 30
0.0
 11
852.11653431
 21
269.6536026201
 31
0.0
  0
LINE
  5
65E
330
1F
100
AcDbEntity
  8
0
100
AcDbLine
 10
852.3810247811
 20
269.9180930911
 30
0.0
 11
853.8810247811
 21
269.9180930911
 31
0.0
  0
LINE
  5
65F
330
1F
100
AcDbEntity
  8
0
100
AcDbLine
 10
855.8520438389
 20
269.9180930911
 30
0.0
 11
855.8520438389
 21
270.389112149
 31
0.0
  0
LINE
  5
660
330
1F
100
AcDbEntity
  8
0
100
AcDbLine
 10
852.3810247811
 20
270.389112149
 30
0.0
 11
852.11653431
 21
270.6536026201
 31
0.0
  0
LINE
  5
661
330
1F
100
AcDbEntity
  8
0
100
AcDbLine
 10
852.3810247811
 20
270.389112149
 30
0.0
 11
852.3810247811
 21
269.9180930911
 31
0.0
  0
LINE
  5
662
330
1F
100
AcDbEntity
  8
0
100
AcDbLine
 10
853.8810247811
 20
270.389112149
 30
0.0
 11
853.61653431
 21
270.6536026201
 31
0.0
  0
LINE
  5
663
330
1F
100
AcDbEntity
  8
0
100
AcDbLine
 10
853.8810247811
 20
270.389112149
 30
0.0
 11
852.3810247811
 21
270.389112149
 31
0.0
  0
LINE
  5
664
330
1F
100
AcDbEntity
  8
0
100
AcDbLine
 10
853.8810247811
 20
271.889112149
 30
0.0
 11
853.61653431
 21
272.1536026201
 31
0.0
  0
LINE
  5
665
330
1F
100
AcDbEntity
  8
0
100
AcDbLine
 10
853.8810247811
 20
271.889112149
 30
0.0
 11
853.8810247811
 21
270.389112149
 31
0.0
  0
LINE
  5
666
330
1F
100
AcDbEntity
  8
0
100
AcDbLine
 10
854.3520438389
 20
271.889112149
 30
0.0
 11
854.61653431
 21
272.1536026201
 31
0.0
  0
LINE
  5
667
330
1F
100
AcDbEntity
  8
0
100
AcDbLine
 10
854.3520438389
 20
271.889112149
 30
0.0
 11
853.8810247811
 21
271.889112149
 31
0.0
  0
CIRCLE
  5
668
330
1F
100
AcDbEntity
  8
0
100
AcDbCircle
 10
854.11653431
 20
270.1536026201
 30
0.0
 40
4.000000000000114
  0
LINE
  5
669
330
1F
100
AcDbEntity
  8
0
100
AcDbLine
 10
854.3520438389
 20
270.389112149
 30
0.0
 11
854.3520438389
 21
271.889112149
 31
0.0
  0
LINE
  5
66A
330
1F
100
AcDbEntity
  8
0
100
AcDbLine
 10
869.137956136
 20
149.7488140318
 30
0.0
 11
869.090630551
 21
150.7476935485
 31
0.0
  0
LINE
  5
66B
330
1F
100
AcDbEntity
  8
0
100
AcDbLine
 10
869.090630551
 20
150.7476935485
 30
0.0
 11
867.5923112759
 21
150.676705171
 31
0.0
  0
LINE
  5
66C
330
1F
100
AcDbEntity
  8
0
100
AcDbLine
 10
867.5923112759
 20
150.676705171
 30
0.0
 11
867.5213228983
 21
152.1750244461
 31
0.0
  0
LINE
  5
66D
330
1F
100
AcDbEntity
  8
0
100
AcDbLine
 10
867.5213228983
 20
152.1750244461
 30
0.0
 11
866.5224433816
 21
152.1276988611
 31
0.0
  0
LINE
  5
66E
330
1F
100
AcDbEntity
  8
0
100
AcDbLine
 10
866.5224433816
 20
152.1276988611
 30
0.0
 11
866.5934317591
 21
150.6293795859
 31
0.0
  0
LINE
  5
66F
330
1F
100
AcDbEntity
  8
0
100
AcDbLine
 10
866.5934317591
 20
150.6293795859
 30
0.0
 11
865.095112484
 21
150.5583912084
 31
0.0
  0
LINE
  5
670
330
1F
100
AcDbEntity
  8
0
100
AcDbLine
 10
865.095112484
 20
150.5583912084
 30
0.0
 11
865.142438069
 21
149.5595116916
 31
0.0
  0
LINE
  5
671
330
1F
100
AcDbEntity
  8
0
100
AcDbLine
 10
865.142438069
 20
149.5595116916
 30
0.0
 11
866.6407573441
 21
149.6305000692
 31
0.0
  0
LINE
  5
672
330
1F
100
AcDbEntity
  8
0
100
AcDbLine
 10
866.6407573441
 20
149.6305000692
 30
0.0
 11
866.7117457217
 21
148.132180794
 31
0.0
  0
LINE
  5
673
330
1F
100
AcDbEntity
  8
0
100
AcDbLine
 10
866.7117457217
 20
148.132180794
 30
0.0
 11
867.7106252385
 21
148.1795063791
 31
0.0
  0
LINE
  5
674
330
1F
100
AcDbEntity
  8
0
100
AcDbLine
 10
867.7106252385
 20
148.1795063791
 30
0.0
 11
867.6396368609
 21
149.6778256542
 31
0.0
  0
LINE
  5
675
330
1F
100
AcDbEntity
  8
0
100
AcDbLine
 10
867.6396368609
 20
149.6778256542
 30
0.0
 11
869.137956136
 21
149.7488140318
 31
0.0
  0
CIRCLE
  5
676
330
1F
100
AcDbEntity
  8
0
100
AcDbCircle
 10
867.11653431
 20
150.1536026201
 30
0.0
 40
2.499999999999909
  0
LINE
  5
677
330
1F
100
AcDbEntity
  8
0
100
AcDbLine
 10
867.3406343282
 20
150.3999938908
 30
0.0
 11
867.5923112759
 21
150.676705171
 31
0.0
  0
LINE
  5
678
330
1F
100
AcDbEntity
  8
0
100
AcDbLine
 10
867.3406343282
 20
150.3999938908
 30
0.0
 11
867.2696459507
 21
151.8983131659
 31
0.0
  0
LINE
  5
679
330
1F
100
AcDbEntity
  8
0
100
AcDbLine
 10
867.2696459507
 20
151.8983131659
 30
0.0
 11
867.5213228983
 21
152.1750244461
 31
0.0
  0
LINE
  5
67A
330
1F
100
AcDbEntity
  8
0
100
AcDbLine
 10
867.2696459507
 20
151.8983131659
 30
0.0
 11
866.7991546618
 21
151.8760219134
 31
0.0
  0
LINE
  5
67B
330
1F
100
AcDbEntity
  8
0
100
AcDbLine
 10
866.7991546618
 20
151.8760219134
 30
0.0
 11
866.5224433816
 21
152.1276988611
 31
0.0
  0
LINE
  5
67C
330
1F
100
AcDbEntity
  8
0
100
AcDbLine
 10
865.3941150167
 20
149.8362229718
 30
0.0
 11
865.142438069
 21
149.5595116916
 31
0.0
  0
LINE
  5
67D
330
1F
100
AcDbEntity
  8
0
100
AcDbLine
 10
865.3941150167
 20
149.8362229718
 30
0.0
 11
866.8924342918
 21
149.9072113494
 31
0.0
  0
LINE
  5
67E
330
1F
100
AcDbEntity
  8
0
100
AcDbLine
 10
866.8924342918
 20
149.9072113494
 30
0.0
 11
866.6407573441
 21
149.6305000692
 31
0.0
  0
LINE
  5
67F
330
1F
100
AcDbEntity
  8
0
100
AcDbLine
 10
866.8701430393
 20
150.3777026383
 30
0.0
 11
866.5934317591
 21
150.6293795859
 31
0.0
  0
LINE
  5
680
330
1F
100
AcDbEntity
  8
0
100
AcDbLine
 10
866.8701430393
 20
150.3777026383
 30
0.0
 11
865.3718237642
 21
150.3067142607
 31
0.0
  0
LINE
  5
681
330
1F
100
AcDbEntity
  8
0
100
AcDbLine
 10
865.3718237642
 20
150.3067142607
 30
0.0
 11
865.095112484
 21
150.5583912084
 31
0.0
  0
LINE
  5
682
330
1F
100
AcDbEntity
  8
0
100
AcDbLine
 10
866.7991546618
 20
151.8760219134
 30
0.0
 11
866.8701430393
 21
150.3777026383
 31
0.0
  0
LINE
  5
683
330
1F
100
AcDbEntity
  8
0
100
AcDbLine
 10
865.3718237642
 20
150.3067142607
 30
0.0
 11
865.3941150167
 21
149.8362229718
 31
0.0
  0
LINE
  5
684
330
1F
100
AcDbEntity
  8
0
100
AcDbLine
 10
868.8389536034
 20
150.4709822683
 30
0.0
 11
869.090630551
 21
150.7476935485
 31
0.0
  0
LINE
  5
685
330
1F
100
AcDbEntity
  8
0
100
AcDbLine
 10
868.8389536034
 20
150.4709822683
 30
0.0
 11
867.3406343282
 21
150.3999938908
 31
0.0
  0
LINE
  5
686
330
1F
100
AcDbEntity
  8
0
100
AcDbLine
 10
868.8612448558
 20
150.0004909794
 30
0.0
 11
869.137956136
 21
149.7488140318
 31
0.0
  0
LINE
  5
687
330
1F
100
AcDbEntity
  8
0
100
AcDbLine
 10
868.8612448558
 20
150.0004909794
 30
0.0
 11
868.8389536034
 21
150.4709822683
 31
0.0
  0
LINE
  5
688
330
1F
100
AcDbEntity
  8
0
100
AcDbLine
 10
867.4339139583
 20
148.4311833267
 30
0.0
 11
867.7106252385
 21
148.1795063791
 31
0.0
  0
LINE
  5
689
330
1F
100
AcDbEntity
  8
0
100
AcDbLine
 10
867.4339139583
 20
148.4311833267
 30
0.0
 11
867.3629255807
 21
149.9295026019
 31
0.0
  0
LINE
  5
68A
330
1F
100
AcDbEntity
  8
0
100
AcDbLine
 10
867.3629255807
 20
149.9295026019
 30
0.0
 11
867.6396368609
 21
149.6778256542
 31
0.0
  0
LINE
  5
68B
330
1F
100
AcDbEntity
  8
0
100
AcDbLine
 10
867.3629255807
 20
149.9295026019
 30
0.0
 11
868.8612448558
 21
150.0004909794
 31
0.0
  0
LINE
  5
68C
330
1F
100
AcDbEntity
  8
0
100
AcDbLine
 10
866.9634226693
 20
148.4088920742
 30
0.0
 11
866.7117457217
 21
148.132180794
 31
0.0
  0
LINE
  5
68D
330
1F
100
AcDbEntity
  8
0
100
AcDbLine
 10
866.9634226693
 20
148.4088920742
 30
0.0
 11
867.4339139583
 21
148.4311833267
 31
0.0
  0
CIRCLE
  5
68E
330
1F
100
AcDbEntity
  8
0
100
AcDbCircle
 10
867.11653431
 20
150.1536026201
 30
0.0
 40
4.000000000000081
  0
LINE
  5
68F
330
1F
100
AcDbEntity
  8
0
100
AcDbLine
 10
866.8924342918
 20
149.9072113494
 30
0.0
 11
866.9634226693
 21
148.4088920742
 31
0.0
  0
LINE
  5
690
330
1F
100
AcDbEntity
  8
0
100
AcDbLine
 10
611.2007836351
 20
148.0937720321
 30
0.0
 11
612.1602039912
 21
148.3757517836
 31
0.0
  0
LINE
  5
691
330
1F
100
AcDbEntity
  8
0
100
AcDbLine
 10
612.1602039912
 20
148.3757517836
 30
0.0
 11
611.7372343639
 21
149.8148823178
 31
0.0
  0
LINE
  5
692
330
1F
100
AcDbEntity
  8
0
100
AcDbLine
 10
611.7372343639
 20
149.8148823178
 30
0.0
 11
613.176364898
 21
150.2378519452
 31
0.0
  0
LINE
  5
693
330
1F
100
AcDbEntity
  8
0
100
AcDbLine
 10
613.176364898
 20
150.2378519452
 30
0.0
 11
612.8943851464
 21
151.1972723013
 31
0.0
  0
LINE
  5
694
330
1F
100
AcDbEntity
  8
0
100
AcDbLine
 10
612.8943851464
 20
151.1972723013
 30
0.0
 11
611.4552546123
 21
150.7743026739
 31
0.0
  0
LINE
  5
695
330
1F
100
AcDbEntity
  8
0
100
AcDbLine
 10
611.4552546123
 20
150.7743026739
 30
0.0
 11
611.0322849849
 21
152.213433208
 31
0.0
  0
LINE
  5
696
330
1F
100
AcDbEntity
  8
0
100
AcDbLine
 10
611.0322849849
 20
152.213433208
 30
0.0
 11
610.0728646288
 21
151.9314534565
 31
0.0
  0
LINE
  5
697
330
1F
100
AcDbEntity
  8
0
100
AcDbLine
 10
610.0728646288
 20
151.9314534565
 30
0.0
 11
610.4958342562
 21
150.4923229223
 31
0.0
  0
LINE
  5
698
330
1F
100
AcDbEntity
  8
0
100
AcDbLine
 10
610.4958342562
 20
150.4923229223
 30
0.0
 11
609.056703722
 21
150.069353295
 31
0.0
  0
LINE
  5
699
330
1F
100
AcDbEntity
  8
0
100
AcDbLine
 10
609.056703722
 20
150.069353295
 30
0.0
 11
609.3386834736
 21
149.1099329389
 31
0.0
  0
LINE
  5
69A
330
1F
100
AcDbEntity
  8
0
100
AcDbLine
 10
609.3386834736
 20
149.1099329389
 30
0.0
 11
610.7778140077
 21
149.5329025662
 31
0.0
  0
LINE
  5
69B
330
1F
100
AcDbEntity
  8
0
100
AcDbLine
 10
610.7778140077
 20
149.5329025662
 30
0.0
 11
611.2007836351
 21
148.0937720321
 31
0.0
  0
CIRCLE
  5
69C
330
1F
100
AcDbEntity
  8
0
100
AcDbCircle
 10
611.11653431
 20
150.1536026201
 30
0.0
 40
2.500000000000001
  0
LINE
  5
69D
330
1F
100
AcDbEntity
  8
0
100
AcDbLine
 10
612.8480263987
 20
150.4170285298
 30
0.0
 11
613.176364898
 21
150.2378519452
 31
0.0
  0
LINE
  5
69E
330
1F
100
AcDbEntity
  8
0
100
AcDbLine
 10
612.8480263987
 20
150.4170285298
 30
0.0
 11
612.7152085618
 21
150.868933802
 31
0.0
  0
LINE
  5
69F
330
1F
100
AcDbEntity
  8
0
100
AcDbLine
 10
612.7152085618
 20
150.868933802
 30
0.0
 11
612.8943851464
 21
151.1972723013
 31
0.0
  0
LINE
  5
6A0
330
1F
100
AcDbEntity
  8
0
100
AcDbLine
 10
611.4088958646
 20
149.9940589024
 30
0.0
 11
611.7372343639
 21
149.8148823178
 31
0.0
  0
LINE
  5
6A1
330
1F
100
AcDbEntity
  8
0
100
AcDbLine
 10
611.4088958646
 20
149.9940589024
 30
0.0
 11
612.8480263987
 21
150.4170285298
 31
0.0
  0
LINE
  5
6A2
330
1F
100
AcDbEntity
  8
0
100
AcDbLine
 10
610.4012031281
 20
151.7522768719
 30
0.0
 11
610.0728646288
 21
151.9314534565
 31
0.0
  0
LINE
  5
6A3
330
1F
100
AcDbEntity
  8
0
100
AcDbLine
 10
610.4012031281
 20
151.7522768719
 30
0.0
 11
610.8241727554
 21
150.3131463377
 31
0.0
  0
LINE
  5
6A4
330
1F
100
AcDbEntity
  8
0
100
AcDbLine
 10
610.8241727554
 20
150.3131463377
 30
0.0
 11
610.4958342562
 21
150.4923229223
 31
0.0
  0
LINE
  5
6A5
330
1F
100
AcDbEntity
  8
0
100
AcDbLine
 10
612.7152085618
 20
150.868933802
 30
0.0
 11
611.2760780277
 21
150.4459641746
 31
0.0
  0
LINE
  5
6A6
330
1F
100
AcDbEntity
  8
0
100
AcDbLine
 10
611.2760780277
 20
150.4459641746
 30
0.0
 11
611.4552546123
 21
150.7743026739
 31
0.0
  0
LINE
  5
6A7
330
1F
100
AcDbEntity
  8
0
100
AcDbLine
 10
610.8531084003
 20
151.8850947088
 30
0.0
 11
611.0322849849
 21
152.213433208
 31
0.0
  0
LINE
  5
6A8
330
1F
100
AcDbEntity
  8
0
100
AcDbLine
 10
610.8531084003
 20
151.8850947088
 30
0.0
 11
610.4012031281
 21
151.7522768719
 31
0.0
  0
LINE
  5
6A9
330
1F
100
AcDbEntity
  8
0
100
AcDbLine
 10
611.2760780277
 20
150.4459641746
 30
0.0
 11
610.8531084003
 21
151.8850947088
 31
0.0
  0
LINE
  5
6AA
330
1F
100
AcDbEntity
  8
0
100
AcDbLine
 10
611.831865492
 20
148.5549283683
 30
0.0
 11
612.1602039912
 21
148.3757517836
 31
0.0
  0
LINE
  5
6AB
330
1F
100
AcDbEntity
  8
0
100
AcDbLine
 10
611.831865492
 20
148.5549283683
 30
0.0
 11
611.4088958646
 21
149.9940589024
 31
0.0
  0
LINE
  5
6AC
330
1F
100
AcDbEntity
  8
0
100
AcDbLine
 10
611.3799602197
 20
148.4221105313
 30
0.0
 11
611.2007836351
 21
148.0937720321
 31
0.0
  0
LINE
  5
6AD
330
1F
100
AcDbEntity
  8
0
100
AcDbLine
 10
611.3799602197
 20
148.4221105313
 30
0.0
 11
611.831865492
 21
148.5549283683
 31
0.0
  0
LINE
  5
6AE
330
1F
100
AcDbEntity
  8
0
100
AcDbLine
 10
609.3850422213
 20
149.8901767104
 30
0.0
 11
609.056703722
 21
150.069353295
 31
0.0
  0
LINE
  5
6AF
330
1F
100
AcDbEntity
  8
0
100
AcDbLine
 10
609.3850422213
 20
149.8901767104
 30
0.0
 11
609.5178600582
 21
149.4382714381
 31
0.0
  0
LINE
  5
6B0
330
1F
100
AcDbEntity
  8
0
100
AcDbLine
 10
609.5178600582
 20
149.4382714381
 30
0.0
 11
609.3386834736
 21
149.1099329389
 31
0.0
  0
LINE
  5
6B1
330
1F
100
AcDbEntity
  8
0
100
AcDbLine
 10
610.9569905924
 20
149.8612410655
 30
0.0
 11
610.7778140077
 21
149.5329025662
 31
0.0
  0
LINE
  5
6B2
330
1F
100
AcDbEntity
  8
0
100
AcDbLine
 10
610.9569905924
 20
149.8612410655
 30
0.0
 11
611.3799602197
 21
148.4221105313
 31
0.0
  0
LINE
  5
6B3
330
1F
100
AcDbEntity
  8
0
100
AcDbLine
 10
609.5178600582
 20
149.4382714381
 30
0.0
 11
610.9569905924
 21
149.8612410655
 31
0.0
  0
LINE
  5
6B4
330
1F
100
AcDbEntity
  8
0
100
AcDbLine
 10
610.8241727554
 20
150.3131463377
 30
0.0
 11
609.3850422213
 21
149.8901767104
 31
0.0
  0
CIRCLE
  5
6B5
330
1F
100
AcDbEntity
  8
0
100
AcDbCircle
 10
611.11653431
 20
150.1536026201
 30
0.0
 40
4.000000000000062
  0
LINE
  5
6B6
330
1F
100
AcDbEntity
  8
0
100
AcDbLine
 10
855.1937093335
 20
28.3958500866
 30
0.0
 11
855.8941605229
 21
29.1095503957
 31
0.0
  0
LINE
  5
6B7
330
1F
100
AcDbEntity
  8
0
100
AcDbLine
 10
855.8941605229
 20
29.1095503957
 30
0.0
 11
854.8236100593
 21
30.1602271799
 31
0.0
  0
LINE
  5
6B8
330
1F
100
AcDbEntity
  8
0
100
AcDbLine
 10
854.8236100593
 20
30.1602271799
 30
0.0
 11
855.8742868435
 21
31.2307776435
 31
0.0
  0
LINE
  5
6B9
330
1F
100
AcDbEntity
  8
0
100
AcDbLine
 10
855.8742868435
 20
31.2307776435
 30
0.0
 11
855.1605865344
 21
31.931228833
 31
0.0
  0
LINE
  5
6BA
330
1F
100
AcDbEntity
  8
0
100
AcDbLine
 10
855.1605865344
 20
31.931228833
 30
0.0
 11
854.1099097502
 21
30.8606783693
 31
0.0
  0
LINE
  5
6BB
330
1F
100
AcDbEntity
  8
0
100
AcDbLine
 10
854.1099097502
 20
30.8606783693
 30
0.0
 11
853.0393592866
 21
31.9113551535
 31
0.0
  0
LINE
  5
6BC
330
1F
100
AcDbEntity
  8
0
100
AcDbLine
 10
853.0393592866
 20
31.9113551535
 30
0.0
 11
852.3389080971
 21
31.1976548444
 31
0.0
  0
LINE
  5
6BD
330
1F
100
AcDbEntity
  8
0
100
AcDbLine
 10
852.3389080971
 20
31.1976548444
 30
0.0
 11
853.4094585607
 21
30.1469780602
 31
0.0
  0
LINE
  5
6BE
330
1F
100
AcDbEntity
  8
0
100
AcDbLine
 10
853.4094585607
 20
30.1469780602
 30
0.0
 11
852.3587817766
 21
29.0764275966
 31
0.0
  0
LINE
  5
6BF
330
1F
100
AcDbEntity
  8
0
100
AcDbLine
 10
852.3587817766
 20
29.0764275966
 30
0.0
 11
853.0724820857
 21
28.3759764072
 31
0.0
  0
LINE
  5
6C0
330
1F
100
AcDbEntity
  8
0
100
AcDbLine
 10
853.0724820857
 20
28.3759764072
 30
0.0
 11
854.1231588698
 21
29.4465268708
 31
0.0
  0
LINE
  5
6C1
330
1F
100
AcDbEntity
  8
0
100
AcDbLine
 10
854.1231588698
 20
29.4465268708
 30
0.0
 11
855.1937093335
 21
28.3958500866
 31
0.0
  0
CIRCLE
  5
6C2
330
1F
100
AcDbEntity
  8
0
100
AcDbCircle
 10
854.11653431
 20
30.1536026201
 30
0.0
 40
2.500000000000033
  0
LINE
  5
6C3
330
1F
100
AcDbEntity
  8
0
100
AcDbLine
 10
854.4495804633
 20
30.156722914
 30
0.0
 11
854.8236100593
 21
30.1602271799
 31
0.0
  0
LINE
  5
6C4
330
1F
100
AcDbEntity
  8
0
100
AcDbLine
 10
854.4495804633
 20
30.156722914
 30
0.0
 11
855.5002572475
 21
31.2272733776
 31
0.0
  0
LINE
  5
6C5
330
1F
100
AcDbEntity
  8
0
100
AcDbLine
 10
855.5002572475
 20
31.2272733776
 30
0.0
 11
855.8742868435
 21
31.2307776435
 31
0.0
  0
LINE
  5
6C6
330
1F
100
AcDbEntity
  8
0
100
AcDbLine
 10
855.5002572475
 20
31.2272733776
 30
0.0
 11
855.1640908003
 21
31.557199237
 31
0.0
  0
LINE
  5
6C7
330
1F
100
AcDbEntity
  8
0
100
AcDbLine
 10
855.1640908003
 20
31.557199237
 30
0.0
 11
855.1605865344
 21
31.931228833
 31
0.0
  0
LINE
  5
6C8
330
1F
100
AcDbEntity
  8
0
100
AcDbLine
 10
852.7129376931
 20
31.2011591103
 30
0.0
 11
852.3389080971
 21
31.1976548444
 31
0.0
  0
LINE
  5
6C9
330
1F
100
AcDbEntity
  8
0
100
AcDbLine
 10
852.7129376931
 20
31.2011591103
 30
0.0
 11
853.7834881568
 21
30.1504823261
 31
0.0
  0
LINE
  5
6CA
330
1F
100
AcDbEntity
  8
0
100
AcDbLine
 10
853.7834881568
 20
30.1504823261
 30
0.0
 11
853.4094585607
 21
30.1469780602
 31
0.0
  0
LINE
  5
6CB
330
1F
100
AcDbEntity
  8
0
100
AcDbLine
 10
854.1134140161
 20
30.4866487733
 30
0.0
 11
854.1099097502
 21
30.8606783693
 31
0.0
  0
LINE
  5
6CC
330
1F
100
AcDbEntity
  8
0
100
AcDbLine
 10
854.1134140161
 20
30.4866487733
 30
0.0
 11
853.0428635525
 21
31.5373255575
 31
0.0
  0
LINE
  5
6CD
330
1F
100
AcDbEntity
  8
0
100
AcDbLine
 10
853.0428635525
 20
31.5373255575
 30
0.0
 11
853.0393592866
 21
31.9113551535
 31
0.0
  0
LINE
  5
6CE
330
1F
100
AcDbEntity
  8
0
100
AcDbLine
 10
855.1640908003
 20
31.557199237
 30
0.0
 11
854.1134140161
 21
30.4866487733
 31
0.0
  0
LINE
  5
6CF
330
1F
100
AcDbEntity
  8
0
100
AcDbLine
 10
853.0428635525
 20
31.5373255575
 30
0.0
 11
852.7129376931
 21
31.2011591103
 31
0.0
  0
LINE
  5
6D0
330
1F
100
AcDbEntity
  8
0
100
AcDbLine
 10
855.1902050676
 20
28.7698796826
 30
0.0
 11
855.1937093335
 21
28.3958500866
 31
0.0
  0
LINE
  5
6D1
330
1F
100
AcDbEntity
  8
0
100
AcDbLine
 10
855.1902050676
 20
28.7698796826
 30
0.0
 11
855.5201309269
 21
29.1060461298
 31
0.0
  0
LINE
  5
6D2
330
1F
100
AcDbEntity
  8
0
100
AcDbLine
 10
855.5201309269
 20
29.1060461298
 30
0.0
 11
855.8941605229
 21
29.1095503957
 31
0.0
  0
LINE
  5
6D3
330
1F
100
AcDbEntity
  8
0
100
AcDbLine
 10
855.5201309269
 20
29.1060461298
 30
0.0
 11
854.4495804633
 21
30.156722914
 31
0.0
  0
LINE
  5
6D4
330
1F
100
AcDbEntity
  8
0
100
AcDbLine
 10
854.1196546039
 20
29.8205564668
 30
0.0
 11
854.1231588698
 21
29.4465268708
 31
0.0
  0
LINE
  5
6D5
330
1F
100
AcDbEntity
  8
0
100
AcDbLine
 10
854.1196546039
 20
29.8205564668
 30
0.0
 11
855.1902050676
 21
28.7698796826
 31
0.0
  0
LINE
  5
6D6
330
1F
100
AcDbEntity
  8
0
100
AcDbLine
 10
852.7328113726
 20
29.0799318625
 30
0.0
 11
852.3587817766
 21
29.0764275966
 31
0.0
  0
LINE
  5
6D7
330
1F
100
AcDbEntity
  8
0
100
AcDbLine
 10
852.7328113726
 20
29.0799318625
 30
0.0
 11
853.0689778198
 21
28.7500060032
 31
0.0
  0
LINE
  5
6D8
330
1F
100
AcDbEntity
  8
0
100
AcDbLine
 10
853.0689778198
 20
28.7500060032
 30
0.0
 11
853.0724820857
 21
28.3759764072
 31
0.0
  0
LINE
  5
6D9
330
1F
100
AcDbEntity
  8
0
100
AcDbLine
 10
853.0689778198
 20
28.7500060032
 30
0.0
 11
854.1196546039
 21
29.8205564668
 31
0.0
  0
CIRCLE
  5
6DA
330
1F
100
AcDbEntity
  8
0
100
AcDbCircle
 10
854.11653431
 20
30.1536026201
 30
0.0
 40
4.000000000000031
  0
LINE
  5
6DB
330
1F
100
AcDbEntity
  8
0
100
AcDbLine
 10
853.7834881568
 20
30.1504823261
 30
0.0
 11
852.7328113726
 21
29.0799318625
 31
0.0
  0
LWPOLYLINE
  5
6DC
330
1F
100
AcDbEntity
  8
0
100
AcDbPolyline
 90
        3
 70
   128
 43
0.0
 10
614.9562028232
 20
149.0324667189
 10
615.1160777325
 20
150.2140378036
 10
614.9542157344
 20
151.2815216264
  0
ARC
  5
6DD
330
1F
100
AcDbEntity
  8
0
100
AcDbCircle
 10
611.11653431
 20
150.1536026201
 30
0.0
 40
4.000000000000045
100
AcDbArc
 50
106.3783980671
 51
343.7228460332
  0
LINE
  5
6DE
330
1F
100
AcDbEntity
  8
0
100
AcDbLine
 10
851.5020983615
 20
33.1809322472
 30
0.0
 11
851.2617330737
 21
32.9554073779
 31
0.0
  0
ARC
  5
6DF
330
1F
100
AcDbEntity
  8
0
100
AcDbCircle
 10
854.11653431
 20
30.1536026201
 30
0.0
 40
4.000000000000063
100
AcDbArc
 50
45.5367857887
 51
130.8142599591
  0
ARC
  5
6E0
330
1F
100
AcDbEntity
  8
0
100
AcDbCircle
 10
750.11653431
 20
80.1536026201
 30
0.0
 40
12.0
100
AcDbArc
 50
156.9483121777
 51
180.0
  0
ARC
  5
6E1
330
1F
100
AcDbEntity
  8
0
100
AcDbCircle
 10
750.11653431
 20
80.1536026201
 30
0.0
 40
12.0
100
AcDbArc
 50
96.9483121776
 51
143.0516878224
  0
ARC
  5
6E2
330
1F
100
AcDbEntity
  8
0
100
AcDbCircle
 10
750.11653431
 20
80.1536026201
 30
0.0
 40
12.00000000000002
100
AcDbArc
 50
36.9483121776
 51
83.05168782240001
  0
ARC
  5
6E3
330
1F
100
AcDbEntity
  8
0
100
AcDbCircle
 10
750.11653431
 20
80.1536026201
 30
0.0
 40
12.0
100
AcDbArc
 50
336.9483121776
 51
23.0516878224
  0
ARC
  5
6E4
330
1F
100
AcDbEntity
  8
0
100
AcDbCircle
 10
750.11653431
 20
80.1536026201
 30
0.0
 40
12.00000000000001
100
AcDbArc
 50
276.9483121776
 51
323.0516878224
  0
ARC
  5
6E5
330
1F
100
AcDbEntity
  8
0
100
AcDbCircle
 10
750.11653431
 20
80.1536026201
 30
0.0
 40
12.0
100
AcDbArc
 50
216.9483121777
 51
263.0516878223
  0
ARC
  5
6E6
330
1F
100
AcDbEntity
  8
0
100
AcDbCircle
 10
750.11653431
 20
80.1536026201
 30
0.0
 40
12.0
100
AcDbArc
 50
180.0
 51
203.0516878223
  0
CIRCLE
  5
6E7
330
1F
100
AcDbEntity
  8
0
100
AcDbCircle
 10
750.11653431
 20
80.1536026201
 30
0.0
 40
20.0
  0
CIRCLE
  5
6E8
330
1F
100
AcDbEntity
  8
0
100
AcDbCircle
 10
750.11653431
 20
80.1536026201
 30
0.0
 40
33.99999999999989
  0
ARC
  5
6E9
330
1F
100
AcDbEntity
  8
0
100
AcDbCircle
 10
728.11653431
 20
218.1536026201
 30
0.0
 40
12.0
100
AcDbArc
 50
156.9483121776
 51
180.0
  0
ARC
  5
6EA
330
1F
100
AcDbEntity
  8
0
100
AcDbCircle
 10
728.11653431
 20
218.1536026201
 30
0.0
 40
12.00000000000003
100
AcDbArc
 50
96.9483121776
 51
143.0516878224
  0
ARC
  5
6EB
330
1F
100
AcDbEntity
  8
0
100
AcDbCircle
 10
728.11653431
 20
218.1536026201
 30
0.0
 40
12.00000000000008
100
AcDbArc
 50
36.9483121776
 51
83.05168782240001
  0
ARC
  5
6EC
330
1F
100
AcDbEntity
  8
0
100
AcDbCircle
 10
728.11653431
 20
218.1536026201
 30
0.0
 40
11.99999999999997
100
AcDbArc
 50
336.9483121776
 51
23.0516878224
  0
ARC
  5
6ED
330
1F
100
AcDbEntity
  8
0
100
AcDbCircle
 10
728.11653431
 20
218.1536026201
 30
0.0
 40
12.0
100
AcDbArc
 50
276.9483121776
 51
323.0516878224
  0
ARC
  5
6EE
330
1F
100
AcDbEntity
  8
0
100
AcDbCircle
 10
728.11653431
 20
218.1536026201
 30
0.0
 40
11.99999999999999
100
AcDbArc
 50
216.9483121776
 51
263.0516878224
  0
ARC
  5
6EF
330
1F
100
AcDbEntity
  8
0
100
AcDbCircle
 10
728.11653431
 20
218.1536026201
 30
0.0
 40
12.0
100
AcDbArc
 50
180.0
 51
203.0516878224
  0
CIRCLE
  5
6F0
330
1F
100
AcDbEntity
  8
0
100
AcDbCircle
 10
728.11653431
 20
218.1536026201
 30
0.0
 40
20.0
  0
CIRCLE
  5
6F1
330
1F
100
AcDbEntity
  8
0
100
AcDbCircle
 10
728.11653431
 20
218.1536026201
 30
0.0
 40
34.0
  0
LINE
  5
6F2
330
1F
100
AcDbEntity
  8
0
100
AcDbLine
 10
604.11653431
 20
23.1536026201
 30
0.0
 11
602.41653431
 21
22.3303793153
 31
0.0
  0
LINE
  5
6F3
330
1F
100
AcDbEntity
  8
0
100
AcDbLine
 10
602.41653431
 20
277.9768259248
 30
0.0
 11
602.41653431
 21
22.3303793153
 31
0.0
  0
LINE
  5
6F4
330
1F
100
AcDbEntity
  8
0
100
AcDbLine
 10
602.41653431
 20
277.9768259248
 30
0.0
 11
604.11653431
 21
277.1536026201
 31
0.0
  0
LINE
  5
6F5
330
1F
100
AcDbEntity
  8
0
100
AcDbLine
 10
604.11653431
 20
277.1536026201
 30
0.0
 11
604.11653431
 21
23.1536026201
 31
0.0
  0
LINE
  5
6F6
330
1F
100
AcDbEntity
  8
0
100
AcDbLine
 10
604.11653431
 20
277.1536026201
 30
0.0
 11
603.2933110053
 21
278.8536026201
 31
0.0
  0
LINE
  5
6F7
330
1F
100
AcDbEntity
  8
0
100
AcDbLine
 10
874.9397576147
 20
278.8536026201
 30
0.0
 11
603.2933110053
 21
278.8536026201
 31
0.0
  0
LINE
  5
6F8
330
1F
100
AcDbEntity
  8
0
100
AcDbLine
 10
874.9397576147
 20
278.8536026201
 30
0.0
 11
874.11653431
 21
277.1536026201
 31
0.0
  0
LINE
  5
6F9
330
1F
100
AcDbEntity
  8
0
100
AcDbLine
 10
874.11653431
 20
277.1536026201
 30
0.0
 11
604.11653431
 21
277.1536026201
 31
0.0
  0
LINE
  5
6FC
330
1F
100
AcDbEntity
  8
0
100
AcDbLine
 10
874.11653431
 20
23.1536026201
 30
0.0
 11
874.11653431
 21
277.1536026201
 31
0.0
  0
LINE
  5
6FD
330
1F
100
AcDbEntity
  8
0
100
AcDbLine
 10
604.11653431
 20
23.1536026201
 30
0.0
 11
874.11653431
 21
23.1536026201
 31
0.0
  0
LINE
  5
700
330
1F
100
AcDbEntity
  8
0
100
AcDbLine
 10
874.11653431
 20
277.1536026201
 30
0.0
 11
875.81653431
 21
277.9768259248
 31
0.0
  0
LINE
  5
701
330
1F
100
AcDbEntity
  8
0
100
AcDbLine
 10
875.81653431
 20
22.3303793154
 30
0.0
 11
875.81653431
 21
277.9768259248
 31
0.0
  0
LINE
  5
702
330
1F
100
AcDbEntity
  8
0
100
AcDbLine
 10
875.81653431
 20
22.3303793154
 30
0.0
 11
874.11653431
 21
23.1536026201
 31
0.0
  0
LINE
  5
70A
330
1F
100
AcDbEntity
  8
0
100
AcDbLine
 10
603.2933110053
 20
21.4536026201
 30
0.0
 11
604.11653431
 21
23.1536026201
 31
0.0
  0
LINE
  5
70C
330
1F
100
AcDbEntity
  8
0
100
AcDbLine
 10
874.11653431
 20
23.1536026201
 30
0.0
 11
874.9397576147
 21
21.4536026201
 31
0.0
  0
LINE
  5
70D
330
1F
100
AcDbEntity
  8
0
100
AcDbLine
 10
603.2933110053
 20
21.4536026201
 30
0.0
 11
874.9397576147
 21
21.4536026201
 31
0.0
  0
LINE
  5
712
330
1F
100
AcDbEntity
  8
0
100
AcDbLine
 10
589.16653431
 20
150.1536026201
 30
0.0
 11
589.16653431
 21
82.6536026201
 31
0.0
  0
LINE
  5
713
330
1F
100
AcDbEntity
  8
0
100
AcDbLine
 10
589.16653431
 20
217.6536026201
 30
0.0
 11
589.16653431
 21
150.1536026201
 31
0.0
  0
LINE
  5
714
330
1F
100
AcDbEntity
  8
0
100
AcDbLine
 10
587.16653431
 20
150.1536026201
 30
0.0
 11
587.16653431
 21
82.6536026201
 31
0.0
  0
LINE
  5
715
330
1F
100
AcDbEntity
  8
0
100
AcDbLine
 10
587.16653431
 20
217.6536026201
 30
0.0
 11
587.16653431
 21
150.1536026201
 31
0.0
  0
LINE
  5
716
330
1F
100
AcDbEntity
  8
0
100
AcDbLine
 10
574.66653431
 20
150.1536026201
 30
0.0
 11
574.66653431
 21
88.6536026201
 31
0.0
  0
LINE
  5
717
330
1F
100
AcDbEntity
  8
0
100
AcDbLine
 10
574.66653431
 20
211.6536026201
 30
0.0
 11
574.66653431
 21
150.1536026201
 31
0.0
  0
LINE
  5
71E
330
1F
100
AcDbEntity
  8
0
100
AcDbLine
 10
583.16653431
 20
150.1536026201
 30
0.0
 11
583.16653431
 21
88.6536026201
 31
0.0
  0
LINE
  5
71F
330
1F
100
AcDbEntity
  8
0
100
AcDbLine
 10
583.16653431
 20
211.6536026201
 30
0.0
 11
583.16653431
 21
150.1536026201
 31
0.0
  0
LINE
  5
720
330
1F
100
AcDbEntity
  8
0
100
AcDbLine
 10
593.16653431
 20
150.1536026201
 30
0.0
 11
593.16653431
 21
88.6536026201
 31
0.0
  0
LINE
  5
721
330
1F
100
AcDbEntity
  8
0
100
AcDbLine
 10
593.16653431
 20
211.6536026201
 30
0.0
 11
593.16653431
 21
150.1536026201
 31
0.0
  0
LINE
  5
722
330
1F
100
AcDbEntity
  8
0
100
AcDbLine
 10
891.06653431
 20
150.1536026201
 30
0.0
 11
891.06653431
 21
217.6536026201
 31
0.0
  0
LINE
  5
723
330
1F
100
AcDbEntity
  8
0
100
AcDbLine
 10
891.06653431
 20
82.6536026201
 30
0.0
 11
891.06653431
 21
150.1536026201
 31
0.0
  0
LINE
  5
724
330
1F
100
AcDbEntity
  8
0
100
AcDbLine
 10
889.06653431
 20
150.1536026201
 30
0.0
 11
889.06653431
 21
217.6536026201
 31
0.0
  0
LINE
  5
725
330
1F
100
AcDbEntity
  8
0
100
AcDbLine
 10
889.06653431
 20
82.6536026201
 30
0.0
 11
889.06653431
 21
150.1536026201
 31
0.0
  0
LINE
  5
72C
330
1F
100
AcDbEntity
  8
0
100
AcDbLine
 10
903.56653431
 20
150.1536026201
 30
0.0
 11
903.56653431
 21
211.6536026201
 31
0.0
  0
LINE
  5
72D
330
1F
100
AcDbEntity
  8
0
100
AcDbLine
 10
903.56653431
 20
88.6536026201
 30
0.0
 11
903.56653431
 21
150.1536026201
 31
0.0
  0
LINE
  5
72E
330
1F
100
AcDbEntity
  8
0
100
AcDbLine
 10
885.06653431
 20
150.1536026201
 30
0.0
 11
885.06653431
 21
211.6536026201
 31
0.0
  0
LINE
  5
72F
330
1F
100
AcDbEntity
  8
0
100
AcDbLine
 10
885.06653431
 20
88.6536026201
 30
0.0
 11
885.06653431
 21
150.1536026201
 31
0.0
  0
LINE
  5
730
330
1F
100
AcDbEntity
  8
0
100
AcDbLine
 10
895.06653431
 20
150.1536026201
 30
0.0
 11
895.06653431
 21
211.6536026201
 31
0.0
  0
LINE
  5
731
330
1F
100
AcDbEntity
  8
0
100
AcDbLine
 10
895.06653431
 20
88.6536026201
 30
0.0
 11
895.06653431
 21
150.1536026201
 31
0.0
  0
LINE
  5
7C5
330
1F
100
AcDbEntity
  8
0
100
AcDbLine
 10
444.4269586671319
 20
138.0536026201001
 30
0.0
 11
444.4269586671319
 21
106.8536026201004
 31
0.0
  0
INSERT
  5
7C6
330
1F
100
AcDbEntity
  8
LENKIMO
  6
CENTERX2
100
AcDbBlockReference
  2
*U9
 10
220.6467720575968
 20
-445.4662033589784
 30
0.0
 41
0.39
 42
0.39
 43
0.39
  0
LINE
  5
7C7
330
1F
100
AcDbEntity
  8
0
100
AcDbLine
 10
483.4269586671319
 20
106.8536026201004
 30
0.0
 11
483.4269586671319
 21
91.2536026201
 31
0.0
  0
LINE
  5
7C8
330
1F
100
AcDbEntity
  8
0
100
AcDbLine
 10
483.4269586671319
 20
153.6536026201002
 30
0.0
 11
483.4269586671319
 21
138.0536026201001
 31
0.0
  0
LINE
  5
7C9
330
1F
100
AcDbEntity
  8
0
100
AcDbLine
 10
522.426958667131
 20
122.4536026201002
 30
0.0
 11
483.4269586671319
 21
91.2536026201
 31
0.0
  0
LINE
  5
7CA
330
1F
100
AcDbEntity
  8
0
100
AcDbLine
 10
483.4269586671319
 20
138.0536026201001
 30
0.0
 11
444.4269586671319
 21
138.0536026201001
 31
0.0
  0
LINE
  5
7CB
330
1F
100
AcDbEntity
  8
0
100
AcDbLine
 10
522.426958667131
 20
122.4536026201002
 30
0.0
 11
483.4269586671319
 21
153.6536026201002
 31
0.0
  0
LINE
  5
7CC
330
1F
100
AcDbEntity
  8
0
100
AcDbLine
 10
483.4269586671319
 20
106.8536026201004
 30
0.0
 11
444.4269586671319
 21
106.8536026201004
 31
0.0
  0
MTEXT
  5
7CD
330
1F
100
AcDbEntity
  8
0
100
AcDbMText
 10
453.1345442346849
 20
130.5451413085541
 30
0.0
 40
13.65
 41
8.176792514679505
 71
     1
 72
     5
  1
{ODA}
 73
     1
 44
1.0
1001
ACAD
1000
ACAD_MTEXT_DEFINED_HEIGHT_BEGIN
1070
    46
1040
35.595
1000
ACAD_MTEXT_DEFINED_HEIGHT_END
  0
INSERT
  5
7CE
330
1F
100
AcDbEntity
  8
LENKIMO
  6
CENTERX2
100
AcDbBlockReference
  2
*U10
 10
-64.42478381514408
 20
-321.2565012555389
 30
0.0
 41
0.39
 42
0.39
 43
0.39
  0
INSERT
  5
7CF
330
1F
100
AcDbEntity
  8
LENKIMO
  6
CENTERX2
100
AcDbBlockReference
  2
*U11
 10
-59.05224254734375
 20
270.6422142232425
 30
0.0
 41
0.39
 42
0.39
 43
0.39
  0
INSERT
  5
7D0
330
1F
100
AcDbEntity
  8
LENKIMO
  6
CENTERX2
100
AcDbBlockReference
  2
*U12
 10
-60.94164851334003
 20
-247.3759180768654
 30
0.0
 41
0.39
 42
0.39
 43
0.39
  0
LINE
  5
7F2
330
1F
100
AcDbEntity
  8
0
100
AcDbLine
 10
1019.537131166319
 20
138.6427575638034
 30
0.0
 11
980.5371311663192
 21
138.6427575638034
 31
0.0
  0
LINE
  5
7F3
330
1F
100
AcDbEntity
  8
0
100
AcDbLine
 10
980.5371311663192
 20
138.6427575638034
 30
0.0
 11
980.5371311663192
 21
107.4427575638036
 31
0.0
  0
LINE
  5
7F4
330
1F
100
AcDbEntity
  8
0
100
AcDbLine
 10
1019.537131166319
 20
107.4427575638036
 30
0.0
 11
1019.537131166319
 21
91.84275756380333
 31
0.0
  0
LINE
  5
7F5
330
1F
100
AcDbEntity
  8
0
100
AcDbLine
 10
1019.537131166319
 20
154.2427575638035
 30
0.0
 11
1019.537131166319
 21
138.6427575638034
 31
0.0
  0
LINE
  5
7F6
330
1F
100
AcDbEntity
  8
0
100
AcDbLine
 10
1058.537131166319
 20
123.0427575638035
 30
0.0
 11
1019.537131166319
 21
91.84275756380333
 31
0.0
  0
LINE
  5
7F7
330
1F
100
AcDbEntity
  8
0
100
AcDbLine
 10
1019.537131166319
 20
107.4427575638036
 30
0.0
 11
980.5371311663192
 21
107.4427575638036
 31
0.0
  0
INSERT
  5
7F8
330
1F
100
AcDbEntity
  8
LENKIMO
  6
CENTERX2
100
AcDbBlockReference
  2
*U14
 10
626.1910869189713
 20
-327.059657360907
 30
0.0
 41
0.39
 42
0.39
 43
0.39
  0
LINE
  5
7F9
330
1F
100
AcDbEntity
  8
0
100
AcDbLine
 10
1058.537131166319
 20
123.0427575638035
 30
0.0
 11
1019.537131166319
 21
154.2427575638035
 31
0.0
  0
MTEXT
  5
7FA
330
1F
100
AcDbEntity
  8
0
100
AcDbMText
 10
986.9012875852235
 20
129.3013014190104
 30
0.0
 40
13.65
 41
8.176792514679505
 71
     1
 72
     5
  1
{SUP}
 73
     1
 44
1.0
1001
ACAD
1000
ACAD_MTEXT_DEFINED_HEIGHT_BEGIN
1070
    46
1040
35.595
1000
ACAD_MTEXT_DEFINED_HEIGHT_END
  0
ENDSEC
  0
SECTION
  2
OBJECTS
  0
DICTIONARY
  5
C
330
0
100
AcDbDictionary
281
     1
  3
ACAD_DETAILVIEWSTYLE
350
75B
  3
ACAD_GROUP
350
D
  3
ACAD_IMAGE_VARS
350
755
  3
ACAD_LAYOUT
350
1A
  3
ACAD_MLINESTYLE
350
17
  3
ACAD_PLOTSETTINGS
350
19
  3
ACAD_PLOTSTYLENAME
350
E
  3
ACAD_SCALELIST
350
47
  3
ACAD_SECTIONVIEWSTYLE
350
75C
  3
AcDbVariableDictionary
350
756
  3
APPDATA
350
753
  3
DWGPROPS
350
7FE
  0
DICTIONARY
  5
7FB
330
1F
100
AcDbDictionary
280
     1
281
     1
  3
DIM_BOUNDING_BOXES_V1
360
7FC
  0
DICTIONARY
  5
75B
102
{ACAD_REACTORS
330
C
102
}
330
C
100
AcDbDictionary
281
     1
  0
DICTIONARY
  5
D
102
{ACAD_REACTORS
330
C
102
}
330
C
100
AcDbDictionary
281
     1
  0
RASTERVARIABLES
  5
755
102
{ACAD_REACTORS
330
C
102
}
330
C
100
AcDbRasterVariables
 90
        0
 70
     1
 71
     1
 72
     1
  0
DICTIONARY
  5
1A
102
{ACAD_REACTORS
330
C
102
}
330
C
100
AcDbDictionary
281
     1
  3
Layout1
350
1E
  3
Layout2
350
26
  3
Model
350
22
  0
DICTIONARY
  5
17
102
{ACAD_REACTORS
330
C
102
}
330
C
100
AcDbDictionary
281
     1
  3
Standard
350
18
  0
DICTIONARY
  5
19
102
{ACAD_REACTORS
330
C
102
}
330
C
100
AcDbDictionary
281
     1
  0
ACDBDICTIONARYWDFLT
  5
E
102
{ACAD_REACTORS
330
C
102
}
330
C
100
AcDbDictionary
281
     1
  3
Normal
350
F
100
AcDbDictionaryWithDefault
340
F
  0
DICTIONARY
  5
47
102
{ACAD_REACTORS
330
C
102
}
330
C
100
AcDbDictionary
281
     1
  3
A0
350
48
  3
A1
350
49
  3
A2
350
4A
  3
A3
350
4B
  3
A4
350
4C
  3
A5
350
4D
  3
A6
350
4E
  3
A7
350
4F
  3
A8
350
50
  3
A9
350
51
  3
B0
350
52
  3
B1
350
53
  3
B2
350
54
  3
B3
350
55
  3
B4
350
56
  3
B5
350
57
  3
B6
350
58
  3
B7
350
59
  3
B8
350
5A
  3
B9
350
5B
  3
C0
350
5C
  3
C1
350
5D
  3
C2
350
5E
  3
C3
350
5F
  3
C4
350
60
  3
C5
350
61
  3
C6
350
62
  3
C7
350
63
  3
C8
350
64
  3
C9
350
65
  3
D0
350
66
  3
D1
350
67
  3
D2
350
68
  0
DICTIONARY
  5
75C
102
{ACAD_REACTORS
330
C
102
}
330
C
100
AcDbDictionary
281
     1
  0
DICTIONARY
  5
756
102
{ACAD_REACTORS
330
C
102
}
330
C
100
AcDbDictionary
281
     1
  0
DICTIONARY
  5
753
102
{ACAD_REACTORS
330
C
102
}
330
C
100
AcDbDictionary
281
     1
  0
XRECORD
  5
7FE
102
{ACAD_REACTORS
330
C
102
}
330
C
100
AcDbXrecord
280
     1
  1
DWGPROPS COOKIE
  2

  3

  4

  6

  7

  8
mantvydas.surka
  9

300
=
301
=
302
=
303
=
304
=
305
=
306
=
307
=
308
=
309
=
 40
0.0
 41
2457870.306098079
 42
2459180.475992246
  1

 90
        0
  0
DICTIONARY
  5
7FC
102
{ACAD_REACTORS
330
7FB
102
}
330
7FB
100
AcDbDictionary
281
     1
  0
LAYOUT
  5
1E
102
{ACAD_REACTORS
330
1A
102
}
330
1A
100
AcDbPlotSettings
  1

  2
none_device
  4

  6

 40
0.0
 41
0.0
 42
0.0
 43
0.0
 44
0.0
 45
0.0
 46
0.0
 47
0.0
 48
0.0
 49
0.0
140
0.0
141
0.0
142
1.0
143
1.0
 70
   688
 72
     1
 73
     0
 74
     5
  7

 75
    16
147
1.0
148
0.0
149
0.0
100
AcDbLayout
  1
Layout1
 70
     1
 71
     1
 10
0.0
 20
0.0
 11
420.0
 21
297.0
 12
0.0
 22
0.0
 32
0.0
 14
1.000000000000000E+20
 24
1.000000000000000E+20
 34
1.000000000000000E+20
 15
-1.000000000000000E+20
 25
-1.000000000000000E+20
 35
-1.000000000000000E+20
146
0.0
 13
0.0
 23
0.0
 33
0.0
 16
1.0
 26
0.0
 36
0.0
 17
0.0
 27
1.0
 37
0.0
 76
     0
330
1B
  0
LAYOUT
  5
26
102
{ACAD_REACTORS
330
1A
102
}
330
1A
100
AcDbPlotSettings
  1

  2
none_device
  4

  6

 40
0.0
 41
0.0
 42
0.0
 43
0.0
 44
0.0
 45
0.0
 46
0.0
 47
0.0
 48
0.0
 49
0.0
140
0.0
141
0.0
142
1.0
143
1.0
 70
   688
 72
     1
 73
     0
 74
     5
  7

 75
    16
147
1.0
148
0.0
149
0.0
100
AcDbLayout
  1
Layout2
 70
     1
 71
     2
 10
0.0
 20
0.0
 11
0.0
 21
0.0
 12
0.0
 22
0.0
 32
0.0
 14
0.0
 24
0.0
 34
0.0
 15
0.0
 25
0.0
 35
0.0
146
0.0
 13
0.0
 23
0.0
 33
0.0
 16
1.0
 26
0.0
 36
0.0
 17
0.0
 27
1.0
 37
0.0
 76
     0
330
23
  0
LAYOUT
  5
22
102
{ACAD_REACTORS
330
1A
102
}
330
1A
100
AcDbPlotSettings
  1

  2
none_device
  4
Letter_(8.50_x_11.00_Inches)
  6

 40
6.35
 41
6.35
 42
6.35000508
 43
6.35000508
 44
215.9
 45
279.4
 46
0.0
 47
0.0
 48
0.0
 49
0.0
140
0.0
141
0.0
142
1.0
143
1.0
 70
  1712
 72
     1
 73
     0
 74
     0
  7

 75
     0
147
1.0
148
0.0
149
0.0
100
AcDbLayout
  1
Model
 70
     1
 71
     0
 10
0.0
 20
0.0
 11
420.0
 21
297.0
 12
0.0
 22
0.0
 32
0.0
 14
-365.0633911274999
 24
21.45360262
 34
0.0
 15
1058.537131166319
 25
738.7736327018243
 35
0.0
146
0.0
 13
0.0
 23
0.0
 33
0.0
 16
1.0
 26
0.0
 36
0.0
 17
0.0
 27
1.0
 37
0.0
 76
     0
330
1F
331
29
  0
MLINESTYLE
  5
18
102
{ACAD_REACTORS
330
17
102
}
330
17
100
AcDbMlineStyle
  2
Standard
 70
     0
  3

 62
   256
 51
90.0
 52
90.0
 71
     2
 49
0.5
 62
   256
  6
BYLAYER
 49
-0.5
 62
   256
  6
BYLAYER
  0
ACDBPLACEHOLDER
  5
F
102
{ACAD_REACTORS
330
E
102
}
330
E
  0
SCALE
  5
48
102
{ACAD_REACTORS
330
47
102
}
330
47
100
AcDbScale
 70
     0
300
1:1
140
1.0
141
1.0
290
     1
  0
SCALE
  5
49
102
{ACAD_REACTORS
330
47
102
}
330
47
100
AcDbScale
 70
     0
300
1:2
140
1.0
141
2.0
290
     0
  0
SCALE
  5
4A
102
{ACAD_REACTORS
330
47
102
}
330
47
100
AcDbScale
 70
     0
300
1:4
140
1.0
141
4.0
290
     0
  0
SCALE
  5
4B
102
{ACAD_REACTORS
330
47
102
}
330
47
100
AcDbScale
 70
     0
300
1:5
140
1.0
141
5.0
290
     0
  0
SCALE
  5
4C
102
{ACAD_REACTORS
330
47
102
}
330
47
100
AcDbScale
 70
     0
300
1:8
140
1.0
141
8.0
290
     0
  0
SCALE
  5
4D
102
{ACAD_REACTORS
330
47
102
}
330
47
100
AcDbScale
 70
     0
300
1:10
140
1.0
141
10.0
290
     0
  0
SCALE
  5
4E
102
{ACAD_REACTORS
330
47
102
}
330
47
100
AcDbScale
 70
     0
300
1:16
140
1.0
141
16.0
290
     0
  0
SCALE
  5
4F
102
{ACAD_REACTORS
330
47
102
}
330
47
100
AcDbScale
 70
     0
300
1:20
140
1.0
141
20.0
290
     0
  0
SCALE
  5
50
102
{ACAD_REACTORS
330
47
102
}
330
47
100
AcDbScale
 70
     0
300
1:30
140
1.0
141
30.0
290
     0
  0
SCALE
  5
51
102
{ACAD_REACTORS
330
47
102
}
330
47
100
AcDbScale
 70
     0
300
1:40
140
1.0
141
40.0
290
     0
  0
SCALE
  5
52
102
{ACAD_REACTORS
330
47
102
}
330
47
100
AcDbScale
 70
     0
300
1:50
140
1.0
141
50.0
290
     0
  0
SCALE
  5
53
102
{ACAD_REACTORS
330
47
102
}
330
47
100
AcDbScale
 70
     0
300
1:100
140
1.0
141
100.0
290
     0
  0
SCALE
  5
54
102
{ACAD_REACTORS
330
47
102
}
330
47
100
AcDbScale
 70
     0
300
2:1
140
2.0
141
1.0
290
     0
  0
SCALE
  5
55
102
{ACAD_REACTORS
330
47
102
}
330
47
100
AcDbScale
 70
     0
300
4:1
140
4.0
141
1.0
290
     0
  0
SCALE
  5
56
102
{ACAD_REACTORS
330
47
102
}
330
47
100
AcDbScale
 70
     0
300
8:1
140
8.0
141
1.0
290
     0
  0
SCALE
  5
57
102
{ACAD_REACTORS
330
47
102
}
330
47
100
AcDbScale
 70
     0
300
10:1
140
10.0
141
1.0
290
     0
  0
SCALE
  5
58
102
{ACAD_REACTORS
330
47
102
}
330
47
100
AcDbScale
 70
     0
300
100:1
140
100.0
141
1.0
290
     0
  0
SCALE
  5
59
102
{ACAD_REACTORS
330
47
102
}
330
47
100
AcDbScale
 70
     0
300
1/128" = 1'-0"
140
0.0078125
141
12.0
290
     0
  0
SCALE
  5
5A
102
{ACAD_REACTORS
330
47
102
}
330
47
100
AcDbScale
 70
     0
300
1/64" = 1'-0"
140
0.015625
141
12.0
290
     0
  0
SCALE
  5
5B
102
{ACAD_REACTORS
330
47
102
}
330
47
100
AcDbScale
 70
     0
300
1/32" = 1'-0"
140
0.03125
141
12.0
290
     0
  0
SCALE
  5
5C
102
{ACAD_REACTORS
330
47
102
}
330
47
100
AcDbScale
 70
     0
300
1/16" = 1'-0"
140
0.0625
141
12.0
290
     0
  0
SCALE
  5
5D
102
{ACAD_REACTORS
330
47
102
}
330
47
100
AcDbScale
 70
     0
300
3/32" = 1'-0"
140
0.09375
141
12.0
290
     0
  0
SCALE
  5
5E
102
{ACAD_REACTORS
330
47
102
}
330
47
100
AcDbScale
 70
     0
300
1/8" = 1'-0"
140
0.125
141
12.0
290
     0
  0
SCALE
  5
5F
102
{ACAD_REACTORS
330
47
102
}
330
47
100
AcDbScale
 70
     0
300
3/16" = 1'-0"
140
0.1875
141
12.0
290
     0
  0
SCALE
  5
60
102
{ACAD_REACTORS
330
47
102
}
330
47
100
AcDbScale
 70
     0
300
1/4" = 1'-0"
140
0.25
141
12.0
290
     0
  0
SCALE
  5
61
102
{ACAD_REACTORS
330
47
102
}
330
47
100
AcDbScale
 70
     0
300
3/8" = 1'-0"
140
0.375
141
12.0
290
     0
  0
SCALE
  5
62
102
{ACAD_REACTORS
330
47
102
}
330
47
100
AcDbScale
 70
     0
300
1/2" = 1'-0"
140
0.5
141
12.0
290
     0
  0
SCALE
  5
63
102
{ACAD_REACTORS
330
47
102
}
330
47
100
AcDbScale
 70
     0
300
3/4" = 1'-0"
140
0.75
141
12.0
290
     0
  0
SCALE
  5
64
102
{ACAD_REACTORS
330
47
102
}
330
47
100
AcDbScale
 70
     0
300
1" = 1'-0"
140
1.0
141
12.0
290
     0
  0
SCALE
  5
65
102
{ACAD_REACTORS
330
47
102
}
330
47
100
AcDbScale
 70
     0
300
1-1/2" = 1'-0"
140
1.5
141
12.0
290
     0
  0
SCALE
  5
66
102
{ACAD_REACTORS
330
47
102
}
330
47
100
AcDbScale
 70
     0
300
3" = 1'-0"
140
3.0
141
12.0
290
     0
  0
SCALE
  5
67
102
{ACAD_REACTORS
330
47
102
}
330
47
100
AcDbScale
 70
     0
300
6" = 1'-0"
140
6.0
141
12.0
290
     0
  0
SCALE
  5
68
102
{ACAD_REACTORS
330
47
102
}
330
47
100
AcDbScale
 70
     0
300
1'-0" = 1'-0"
140
12.0
141
12.0
290
     0
  0
ENDSEC
  0
EOF
