  0
SECTION
  2
HEADER
  9
$ACADVER
  1
AC1015
  9
$ACADMAINTVER
 70
     6
  9
$DWGCODEPAGE
  3
ANSI_1257
  9
$INSBASE
 10
0.0
 20
0.0
 30
0.0
  9
$EXTMIN
 10
-508.8299236983001
 20
-10.75486899570006
 30
0.0
  9
$EXTMAX
 10
1153.684931159273
 20
914.9386960045242
 30
0.0
  9
$LIMMIN
 10
0.0
 20
0.0
  9
$LIMMAX
 10
420.0
 20
297.0
  9
$ORTHOMODE
 70
     0
  9
$REGENMODE
 70
     1
  9
$FILLMODE
 70
     1
  9
$QTEXTMODE
 70
     0
  9
$MIRRTEXT
 70
     1
  9
$LTSCALE
 40
1.0
  9
$ATTMODE
 70
     1
  9
$TEXTSIZE
 40
3.5277777778
  9
$TRACEWID
 40
1.0
  9
$TEXTSTYLE
  7
Standard
  9
$CLAYER
  8
0
  9
$CELTYPE
  6
ByLayer
  9
$CECOLOR
 62
   256
  9
$CELTSCALE
 40
1.0
  9
$DISPSILH
 70
     0
  9
$DIMSCALE
 40
1.0
  9
$DIMASZ
 40
4.0
  9
$DIMEXO
 40
1.0
  9
$DIMDLI
 40
3.75
  9
$DIMRND
 40
0.0
  9
$DIMDLE
 40
0.0
  9
$DIMEXE
 40
1.0
  9
$DIMTP
 40
0.0
  9
$DIMTM
 40
0.0
  9
$DIMTXT
 40
3.5277777778
  9
$DIMCEN
 40
2.5
  9
$DIMTSZ
 40
0.0
  9
$DIMTOL
 70
     0
  9
$DIMLIM
 70
     0
  9
$DIMTIH
 70
     1
  9
$DIMTOH
 70
     1
  9
$DIMSE1
 70
     0
  9
$DIMSE2
 70
     0
  9
$DIMTAD
 70
     1
  9
$DIMZIN
 70
     0
  9
$DIMBLK
  1

  9
$DIMASO
 70
     1
  9
$DIMSHO
 70
     1
  9
$DIMPOST
  1

  9
$DIMAPOST
  1

  9
$DIMALT
 70
     0
  9
$DIMALTD
 70
     3
  9
$DIMALTF
 40
0.0393700787
  9
$DIMLFAC
 40
1.0
  9
$DIMTOFL
 70
     1
  9
$DIMTVP
 40
0.0
  9
$DIMTIX
 70
     0
  9
$DIMSOXD
 70
     0
  9
$DIMSAH
 70
     0
  9
$DIMBLK1
  1

  9
$DIMBLK2
  1

  9
$DIMSTYLE
  2
ISO-25
  9
$DIMCLRD
 70
     0
  9
$DIMCLRE
 70
     0
  9
$DIMCLRT
 70
     0
  9
$DIMTFAC
 40
1.0
  9
$DIMGAP
 40
1.524
  9
$DIMJUST
 70
     0
  9
$DIMSD1
 70
     0
  9
$DIMSD2
 70
     0
  9
$DIMTOLJ
 70
     0
  9
$DIMTZIN
 70
     0
  9
$DIMALTZ
 70
     0
  9
$DIMALTTZ
 70
     0
  9
$DIMUPT
 70
     0
  9
$DIMDEC
 70
     2
  9
$DIMTDEC
 70
     2
  9
$DIMALTU
 70
     2
  9
$DIMALTTD
 70
     3
  9
$DIMTXSTY
  7
Standard
  9
$DIMAUNIT
 70
     0
  9
$DIMADEC
 70
     2
  9
$DIMALTRND
 40
0.0
  9
$DIMAZIN
 70
     0
  9
$DIMDSEP
 70
    44
  9
$DIMATFIT
 70
     3
  9
$DIMFRAC
 70
     0
  9
$DIMLDRBLK
  1

  9
$DIMLUNIT
 70
     2
  9
$DIMLWD
 70
    -2
  9
$DIMLWE
 70
    -2
  9
$DIMTMOVE
 70
     0
  9
$LUNITS
 70
     2
  9
$LUPREC
 70
     2
  9
$SKETCHINC
 40
1.0
  9
$FILLETRAD
 40
10.0
  9
$AUNITS
 70
     0
  9
$AUPREC
 70
     2
  9
$MENU
  1
.
  9
$ELEVATION
 40
0.0
  9
$PELEVATION
 40
0.0
  9
$THICKNESS
 40
0.0
  9
$LIMCHECK
 70
     0
  9
$CHAMFERA
 40
0.0
  9
$CHAMFERB
 40
0.0
  9
$CHAMFERC
 40
0.0
  9
$CHAMFERD
 40
0.0
  9
$SKPOLY
 70
     0
  9
$TDCREATE
 40
2457870.395171632
  9
$TDUCREATE
 40
2457870.311838299
  9
$TDUPDATE
 40
2459180.559101794
  9
$TDUUPDATE
 40
2459180.47576846
  9
$TDINDWG
 40
0.019645162
  9
$TDUSRTIMER
 40
0.000103912
  9
$USRTIMER
 70
     1
  9
$ANGBASE
 50
0.0
  9
$ANGDIR
 70
     0
  9
$PDMODE
 70
     0
  9
$PDSIZE
 40
-1.0
  9
$PLINEWID
 40
0.0
  9
$SPLFRAME
 70
     0
  9
$SPLINETYPE
 70
     6
  9
$SPLINESEGS
 70
     8
  9
$HANDSEED
  5
CD9
  9
$SURFTAB1
 70
     6
  9
$SURFTAB2
 70
     6
  9
$SURFTYPE
 70
     6
  9
$SURFU
 70
     6
  9
$SURFV
 70
     6
  9
$UCSBASE
  2

  9
$UCSNAME
  2

  9
$UCSORG
 10
0.0
 20
0.0
 30
0.0
  9
$UCSXDIR
 10
1.0
 20
0.0
 30
0.0
  9
$UCSYDIR
 10
0.0
 20
1.0
 30
0.0
  9
$UCSORTHOREF
  2

  9
$UCSORTHOVIEW
 70
     0
  9
$UCSORGTOP
 10
0.0
 20
0.0
 30
0.0
  9
$UCSORGBOTTOM
 10
0.0
 20
0.0
 30
0.0
  9
$UCSORGLEFT
 10
0.0
 20
0.0
 30
0.0
  9
$UCSORGRIGHT
 10
0.0
 20
0.0
 30
0.0
  9
$UCSORGFRONT
 10
0.0
 20
0.0
 30
0.0
  9
$UCSORGBACK
 10
0.0
 20
0.0
 30
0.0
  9
$PUCSBASE
  2

  9
$PUCSNAME
  2

  9
$PUCSORG
 10
0.0
 20
0.0
 30
0.0
  9
$PUCSXDIR
 10
1.0
 20
0.0
 30
0.0
  9
$PUCSYDIR
 10
0.0
 20
1.0
 30
0.0
  9
$PUCSORTHOREF
  2

  9
$PUCSORTHOVIEW
 70
     0
  9
$PUCSORGTOP
 10
0.0
 20
0.0
 30
0.0
  9
$PUCSORGBOTTOM
 10
0.0
 20
0.0
 30
0.0
  9
$PUCSORGLEFT
 10
0.0
 20
0.0
 30
0.0
  9
$PUCSORGRIGHT
 10
0.0
 20
0.0
 30
0.0
  9
$PUCSORGFRONT
 10
0.0
 20
0.0
 30
0.0
  9
$PUCSORGBACK
 10
0.0
 20
0.0
 30
0.0
  9
$USERI1
 70
     0
  9
$USERI2
 70
     0
  9
$USERI3
 70
     0
  9
$USERI4
 70
     0
  9
$USERI5
 70
     0
  9
$USERR1
 40
0.0
  9
$USERR2
 40
0.0
  9
$USERR3
 40
0.0
  9
$USERR4
 40
0.0
  9
$USERR5
 40
0.0
  9
$WORLDVIEW
 70
     1
  9
$SHADEDGE
 70
     3
  9
$SHADEDIF
 70
    70
  9
$TILEMODE
 70
     1
  9
$MAXACTVP
 70
    64
  9
$PINSBASE
 10
0.0
 20
0.0
 30
0.0
  9
$PLIMCHECK
 70
     0
  9
$PEXTMIN
 10
1.000000000000000E+20
 20
1.000000000000000E+20
 30
1.000000000000000E+20
  9
$PEXTMAX
 10
-1.000000000000000E+20
 20
-1.000000000000000E+20
 30
-1.000000000000000E+20
  9
$PLIMMIN
 10
0.0
 20
0.0
  9
$PLIMMAX
 10
0.0
 20
0.0
  9
$UNITMODE
 70
     0
  9
$VISRETAIN
 70
     1
  9
$PLINEGEN
 70
     0
  9
$PSLTSCALE
 70
     1
  9
$TREEDEPTH
 70
  3020
  9
$CMLSTYLE
  2
Standard
  9
$CMLJUST
 70
     0
  9
$CMLSCALE
 40
20.0
  9
$PROXYGRAPHICS
 70
     1
  9
$MEASUREMENT
 70
     1
  9
$CELWEIGHT
370
    -1
  9
$ENDCAPS
280
     0
  9
$JOINSTYLE
280
     0
  9
$LWDISPLAY
290
     1
  9
$INSUNITS
 70
     4
  9
$HYPERLINKBASE
  1

  9
$STYLESHEET
  1

  9
$XEDIT
290
     1
  9
$CEPSNTYPE
380
     0
  9
$PSTYLEMODE
290
     1
  9
$FINGERPRINTGUID
  2
{6D576A8C-B707-45C9-855B-CB8E7B5FC00C}
  9
$VERSIONGUID
  2
{FAEB1C32-E019-11D5-929B-00C0DF256EC4}
  9
$EXTNAMES
290
     1
  9
$PSVPSCALE
 40
0.0
  9
$OLESTARTUP
290
     0
  0
ENDSEC
  0
SECTION
  2
CLASSES
  0
CLASS
  1
ACDBDICTIONARYWDFLT
  2
AcDbDictionaryWithDefault
  3
ObjectDBX Classes
 90
        0
280
     0
281
     0
  0
CLASS
  1
VISUALSTYLE
  2
AcDbVisualStyle
  3
ObjectDBX Classes
 90
     4095
280
     0
281
     0
  0
CLASS
  1
MATERIAL
  2
AcDbMaterial
  3
ObjectDBX Classes
 90
     1153
280
     0
281
     0
  0
CLASS
  1
SCALE
  2
AcDbScale
  3
ObjectDBX Classes
 90
     1153
280
     0
281
     0
  0
CLASS
  1
TABLESTYLE
  2
AcDbTableStyle
  3
ObjectDBX Classes
 90
     4095
280
     0
281
     0
  0
CLASS
  1
MLEADERSTYLE
  2
AcDbMLeaderStyle
  3
ACDB_MLEADERSTYLE_CLASS
 90
     4095
280
     0
281
     0
  0
CLASS
  1
SUN
  2
AcDbSun
  3
SCENEOE
 90
     1153
280
     0
281
     0
  0
CLASS
  1
ACDBPLACEHOLDER
  2
AcDbPlaceHolder
  3
ObjectDBX Classes
 90
        0
280
     0
281
     0
  0
CLASS
  1
LAYOUT
  2
AcDbLayout
  3
ObjectDBX Classes
 90
        0
280
     0
281
     0
  0
CLASS
  1
RASTERVARIABLES
  2
AcDbRasterVariables
  3
ISM
 90
        0
280
     0
281
     0
  0
CLASS
  1
DICTIONARYVAR
  2
AcDbDictionaryVar
  3
ObjectDBX Classes
 90
        0
280
     0
281
     0
  0
ENDSEC
  0
SECTION
  2
TABLES
  0
TABLE
  2
VPORT
  5
8
330
0
100
AcDbSymbolTable
 70
     1
  0
VPORT
  5
29
330
8
100
AcDbSymbolTableRecord
100
AcDbViewportTableRecord
  2
*Active
 70
     0
 10
0.0
 20
0.0
 11
1.0
 21
1.0
 12
811.0793795941868
 22
570.4637204309531
 13
0.0
 23
0.0
 14
10.0
 24
10.0
 15
10.0
 25
10.0
 16
0.0
 26
0.0
 36
1.0
 17
0.0
 27
0.0
 37
0.0
 40
2710.67939460381
 41
1.912558139534884
 42
50.0
 43
0.0
 44
0.0
 50
0.0
 51
0.0
 71
    16
 72
  2000
 73
     1
 74
     3
 75
     0
 76
     0
 77
     0
 78
     0
281
     0
 65
     1
110
0.0
120
0.0
130
0.0
111
1.0
121
0.0
131
0.0
112
0.0
122
1.0
132
0.0
 79
     0
146
0.0
  0
ENDTAB
  0
TABLE
  2
LTYPE
  5
5
330
0
100
AcDbSymbolTable
 70
     6
  0
LTYPE
  5
14
330
5
100
AcDbSymbolTableRecord
100
AcDbLinetypeTableRecord
  2
ByBlock
 70
     0
  3

 72
    65
 73
     0
 40
0.0
  0
LTYPE
  5
15
330
5
100
AcDbSymbolTableRecord
100
AcDbLinetypeTableRecord
  2
ByLayer
 70
     0
  3

 72
    65
 73
     0
 40
0.0
  0
LTYPE
  5
16
330
5
100
AcDbSymbolTableRecord
100
AcDbLinetypeTableRecord
  2
Continuous
 70
     0
  3
Solid line
 72
    65
 73
     0
 40
0.0
  0
LTYPE
  5
6E
330
5
100
AcDbSymbolTableRecord
100
AcDbLinetypeTableRecord
  2
HIDDEN
 70
     0
  3
Hidden __ __ __ __ __ __ __ __ __ __ __ __ __ __
 72
    65
 73
     2
 40
1.905
 49
1.27
 74
     0
 49
-0.635
 74
     0
  0
LTYPE
  5
6F
330
5
100
AcDbSymbolTableRecord
100
AcDbLinetypeTableRecord
  2
PHANTOM
 70
     0
  3
Phantom ______  __  __  ______  __  __  ______
 72
    65
 73
     6
 40
12.7
 49
6.35
 74
     0
 49
-1.27
 74
     0
 49
1.27
 74
     0
 49
-1.27
 74
     0
 49
1.27
 74
     0
 49
-1.27
 74
     0
  0
LTYPE
  5
70
330
5
100
AcDbSymbolTableRecord
100
AcDbLinetypeTableRecord
  2
CENTER
 70
     0
  3
Center ____ _ ____ _ ____ _ ____ _ ____ _ ____
 72
    65
 73
     4
 40
10.16
 49
6.35
 74
     0
 49
-1.27
 74
     0
 49
1.27
 74
     0
 49
-1.27
 74
     0
  0
LTYPE
  5
71
330
5
100
AcDbSymbolTableRecord
100
AcDbLinetypeTableRecord
  2
CENTERX2
 70
     0
  3
Center (2x) ________  __  ________  __  _____
 72
    65
 73
     4
 40
20.32
 49
12.7
 74
     0
 49
-2.54
 74
     0
 49
2.54
 74
     0
 49
-2.54
 74
     0
  0
LTYPE
  5
72
330
5
100
AcDbSymbolTableRecord
100
AcDbLinetypeTableRecord
  2
DOT2
 70
     0
  3
Dot (.5x) ........................................
 72
    65
 73
     2
 40
0.635
 49
0.0
 74
     0
 49
-0.635
 74
     0
  0
ENDTAB
  0
TABLE
  2
LAYER
  5
2
330
0
100
AcDbSymbolTable
 70
     2
  0
LAYER
  5
10
330
2
100
AcDbSymbolTableRecord
100
AcDbLayerTableRecord
  2
0
 70
     0
 62
     7
  6
Continuous
370
    -3
390
F
  0
LAYER
  5
73
330
2
100
AcDbSymbolTableRecord
100
AcDbLayerTableRecord
  2
LENKIMO
 70
     0
 62
     1
  6
CENTERX2
370
    -3
390
F
  0
ENDTAB
  0
TABLE
  2
STYLE
  5
3
330
0
100
AcDbSymbolTable
 70
     1
  0
STYLE
  5
11
330
3
100
AcDbSymbolTableRecord
100
AcDbTextStyleTableRecord
  2
Standard
 70
     0
 40
0.0
 41
1.0
 50
0.0
 71
     0
 42
3.5277777778
  3
txt
  4

  0
ENDTAB
  0
TABLE
  2
VIEW
  5
6
330
0
100
AcDbSymbolTable
 70
     0
  0
ENDTAB
  0
TABLE
  2
UCS
  5
7
330
0
100
AcDbSymbolTable
 70
     0
  0
ENDTAB
  0
TABLE
  2
APPID
  5
9
330
0
100
AcDbSymbolTable
 70
     1
  0
APPID
  5
12
330
9
100
AcDbSymbolTableRecord
100
AcDbRegAppTableRecord
  2
ACAD
 70
     0
  0
ENDTAB
  0
TABLE
  2
DIMSTYLE
  5
A
330
0
100
AcDbSymbolTable
 70
     5
100
AcDbDimStyleTable
  0
DIMSTYLE
105
27
330
A
100
AcDbSymbolTableRecord
100
AcDbDimStyleTableRecord
  2
ISO-25
 70
     0
 41
2.5
 42
0.625
 43
3.75
 44
1.25
 73
     0
 74
     0
 77
     1
 78
     8
140
2.5
141
2.5
143
0.0393700787
147
0.625
171
     3
172
     1
178
     0
271
     2
272
     2
274
     3
278
    44
283
     0
284
     8
340
11
  0
DIMSTYLE
105
864
330
A
100
AcDbSymbolTableRecord
100
AcDbDimStyleTableRecord
  2
SLDDIMSTYLE1
 70
     0
 41
4.0
 44
0.0
 45
0.000000001
 73
     0
 77
     1
 78
    12
140
2.6458333333
144
10.0
147
0.6614583333000001
173
     1
178
     0
340
11
  0
DIMSTYLE
105
865
330
A
100
AcDbSymbolTableRecord
100
AcDbDimStyleTableRecord
  2
SLDDIMSTYLE2
 70
     0
 41
4.0
 44
0.0
 45
0.000000001
 73
     0
 77
     1
 78
    12
140
2.6458333333
144
10.0
147
0.6614583333000001
173
     1
178
     0
340
11
  0
DIMSTYLE
105
866
330
A
100
AcDbSymbolTableRecord
100
AcDbDimStyleTableRecord
  2
SLDDIMSTYLE3
 70
     0
 41
4.0
 44
0.0
 45
0.000000001
146
4.0
147
0.0
173
     1
178
     0
340
11
  0
DIMSTYLE
105
867
330
A
100
AcDbSymbolTableRecord
100
AcDbDimStyleTableRecord
  2
SLDDIMSTYLE4
 70
     0
 41
4.0
 44
0.0
 73
     0
 77
     1
 78
    12
140
2.6458333333
144
7.5
147
0.6614583333000001
173
     1
178
     0
340
11
  0
ENDTAB
  0
TABLE
  2
BLOCK_RECORD
  5
1
330
0
100
AcDbSymbolTable
 70
    17
  0
BLOCK_RECORD
  5
1F
102
{ACAD_XDICTIONARY
360
CD4
102
}
330
1
100
AcDbSymbolTableRecord
100
AcDbBlockTableRecord
  2
*Model_Space
340
22
  0
BLOCK_RECORD
  5
1B
330
1
100
AcDbSymbolTableRecord
100
AcDbBlockTableRecord
  2
*Paper_Space
340
1E
  0
BLOCK_RECORD
  5
23
330
1
100
AcDbSymbolTableRecord
100
AcDbBlockTableRecord
  2
*Paper_Space0
340
26
  0
BLOCK_RECORD
  5
74
330
1
100
AcDbSymbolTableRecord
100
AcDbBlockTableRecord
  2
Block1_1
340
0
  0
BLOCK_RECORD
  5
12B
330
1
100
AcDbSymbolTableRecord
100
AcDbBlockTableRecord
  2
Projekciju vaizdavimas_1
340
0
  0
BLOCK_RECORD
  5
136
330
1
100
AcDbSymbolTableRecord
100
AcDbBlockTableRecord
  2
Block1
340
0
  0
BLOCK_RECORD
  5
1ED
330
1
100
AcDbSymbolTableRecord
100
AcDbBlockTableRecord
  2
Projekciju vaizdavimas_2
340
0
  0
BLOCK_RECORD
  5
1F8
330
1
100
AcDbSymbolTableRecord
100
AcDbBlockTableRecord
  2
Block4
340
0
  0
BLOCK_RECORD
  5
2AF
330
1
100
AcDbSymbolTableRecord
100
AcDbBlockTableRecord
  2
Block5
340
0
  0
BLOCK_RECORD
  5
872
330
1
100
AcDbSymbolTableRecord
100
AcDbBlockTableRecord
  2
*U8
340
0
102
{BLKREFS
331
871
331
0
102
}
  0
BLOCK_RECORD
  5
87D
330
1
100
AcDbSymbolTableRecord
100
AcDbBlockTableRecord
  2
*U9
340
0
102
{BLKREFS
331
87C
331
0
102
}
  0
BLOCK_RECORD
  5
88A
330
1
100
AcDbSymbolTableRecord
100
AcDbBlockTableRecord
  2
*U10
340
0
102
{BLKREFS
331
889
331
0
102
}
  0
BLOCK_RECORD
  5
88F
330
1
100
AcDbSymbolTableRecord
100
AcDbBlockTableRecord
  2
*U11
340
0
102
{BLKREFS
331
88E
331
0
102
}
  0
BLOCK_RECORD
  5
894
330
1
100
AcDbSymbolTableRecord
100
AcDbBlockTableRecord
  2
*U12
340
0
102
{BLKREFS
331
893
331
0
102
}
  0
BLOCK_RECORD
  5
C82
330
1
100
AcDbSymbolTableRecord
100
AcDbBlockTableRecord
  2
*U15
340
0
102
{BLKREFS
331
C81
331
C91
102
}
  0
BLOCK_RECORD
  5
CAA
330
1
100
AcDbSymbolTableRecord
100
AcDbBlockTableRecord
  2
*U17
340
0
102
{BLKREFS
331
CA9
331
CC8
102
}
  0
BLOCK_RECORD
  5
CB7
330
1
100
AcDbSymbolTableRecord
100
AcDbBlockTableRecord
  2
*U18
340
0
102
{BLKREFS
331
CB6
331
CD1
102
}
  0
BLOCK_RECORD
  5
CBC
330
1
100
AcDbSymbolTableRecord
100
AcDbBlockTableRecord
  2
*U19
340
0
102
{BLKREFS
331
CBB
331
CD2
102
}
  0
BLOCK_RECORD
  5
CC1
330
1
100
AcDbSymbolTableRecord
100
AcDbBlockTableRecord
  2
*U20
340
0
102
{BLKREFS
331
CC0
331
CD3
102
}
  0
ENDTAB
  0
ENDSEC
  0
SECTION
  2
BLOCKS
  0
BLOCK
  5
20
330
1F
100
AcDbEntity
  8
0
100
AcDbBlockBegin
  2
*Model_Space
 70
     0
 10
0.0
 20
0.0
 30
0.0
  3
*Model_Space
  1

  0
ENDBLK
  5
21
330
1F
100
AcDbEntity
  8
0
100
AcDbBlockEnd
  0
BLOCK
  5
1C
330
1B
100
AcDbEntity
 67
     1
  8
0
100
AcDbBlockBegin
  2
*Paper_Space
 70
     0
 10
0.0
 20
0.0
 30
0.0
  3
*Paper_Space
  1

  0
ENDBLK
  5
1D
330
1B
100
AcDbEntity
 67
     1
  8
0
100
AcDbBlockEnd
  0
BLOCK
  5
24
330
23
100
AcDbEntity
  8
0
100
AcDbBlockBegin
  2
*Paper_Space0
 70
     0
 10
0.0
 20
0.0
 30
0.0
  3
*Paper_Space0
  1

  0
ENDBLK
  5
25
330
23
100
AcDbEntity
  8
0
100
AcDbBlockEnd
  0
BLOCK
  5
75
330
74
100
AcDbEntity
  8
0
100
AcDbBlockBegin
  2
Block1_1
 70
     0
 10
0.0
 20
0.0
 30
0.0
  3
Block1_1
  1

  0
ARC
  5
77
330
74
100
AcDbEntity
  8
0
  6
Continuous
 62
   179
100
AcDbCircle
 10
7867.6649029635
 20
2430.1355419087
 30
0.0
 40
931.6078627493895
100
AcDbArc
 50
232.1189098069
 51
101.3462704492
  0
ARC
  5
78
330
74
100
AcDbEntity
  8
0
  6
Continuous
 62
   179
100
AcDbCircle
 10
7943.5514462269
 20
2435.9613946537
 30
0.0
 40
1140.079096555486
100
AcDbArc
 50
297.434182935
 51
62.17203318890002
  0
ARC
  5
79
330
74
100
AcDbEntity
  8
0
  6
Continuous
 62
   179
100
AcDbCircle
 10
20001.4103066854
 20
6936.2583481763
 30
0.0
 40
1270.831290716854
100
AcDbArc
 50
3.4391112699
 51
76.4197578922
  0
ARC
  5
7A
330
74
100
AcDbEntity
  8
0
  6
Continuous
 62
   179
100
AcDbCircle
 10
19239.4822949422
 20
3782.0667000728
 30
0.0
 40
4515.74411667143
100
AcDbArc
 50
76.4197578923
 51
91.6754644339
  0
ARC
  5
7B
330
74
100
AcDbEntity
  8
0
  6
Continuous
 62
   179
100
AcDbCircle
 10
18683.9539720184
 20
2160.1911622497
 30
0.0
 40
2139.476369555804
100
AcDbArc
 50
270.3210228954001
 51
307.7127911617
  0
ARC
  5
7C
330
74
100
AcDbEntity
  8
0
  6
Continuous
 62
   179
100
AcDbCircle
 10
18746.0422061702
 20
1962.8216117468
 30
0.0
 40
1946.678009873842
100
AcDbArc
 50
309.8210667380999
 51
331.7017265911999
  0
ARC
  5
7D
330
74
100
AcDbEntity
  8
0
  6
Continuous
 62
   179
100
AcDbCircle
 10
17863.1917469523
 20
2438.1532894658
 30
0.0
 40
2949.35698999881
100
AcDbArc
 50
331.7017265911999
 51
356.0927915539
  0
ARC
  5
7E
330
74
100
AcDbEntity
  8
0
  6
Continuous
 62
   179
100
AcDbCircle
 10
16755.7856245826
 20
6709.226497343
 30
0.0
 40
4524.342739831098
100
AcDbArc
 50
353.5830630921
 51
3.8434115591
  0
ARC
  5
7F
330
74
100
AcDbEntity
  8
0
  6
Continuous
 62
   179
100
AcDbCircle
 10
19039.3213693035
 20
6348.9928357667
 30
0.0
 40
506.1072723730909
100
AcDbArc
 50
52.45518083769999
 51
82.2716960779
  0
ARC
  5
80
330
74
100
AcDbEntity
  8
0
  6
Continuous
 62
   179
100
AcDbCircle
 10
19108.0528552878
 20
6495.6270812425
 30
0.0
 40
349.7025539282703
100
AcDbArc
 50
10.4012874263
 51
46.7340603611
  0
ARC
  5
81
330
74
100
AcDbEntity
  8
0
  6
Continuous
 62
   179
100
AcDbCircle
 10
17417.0070420698
 20
6262.2496105517
 30
0.0
 40
2056.490362340239
100
AcDbArc
 50
355.475249592
 51
8.290034904
  0
ARC
  5
82
330
74
100
AcDbEntity
  8
0
  6
Continuous
 62
   179
100
AcDbCircle
 10
16921.0810184775
 20
2478.8840573259
 30
0.0
 40
2122.330793892779
100
AcDbArc
 50
339.2065439429
 51
352.3366543813
  0
ARC
  5
83
330
74
100
AcDbEntity
  8
0
  6
Continuous
 62
   179
100
AcDbCircle
 10
18500.143747488
 20
1898.8589115903
 30
0.0
 40
440.5904503964751
100
AcDbArc
 50
293.838270217
 51
336.8232513296001
  0
ARC
  5
84
330
74
100
AcDbEntity
  8
0
  6
Continuous
 62
   179
100
AcDbCircle
 10
18201.1477532386
 20
2813.3138324813
 30
0.0
 40
1401.173285533761
100
AcDbArc
 50
267.1686990927
 51
289.9057704419
  0
ARC
  5
85
330
74
100
AcDbEntity
  8
0
  6
Continuous
 62
   179
100
AcDbCircle
 10
18751.2701169541
 20
4514.9970927066
 30
0.0
 40
2362.499275286643
100
AcDbArc
 50
81.3304997955
 51
90.0
  0
ARC
  5
86
330
74
100
AcDbEntity
  8
0
  6
Continuous
 62
   179
100
AcDbCircle
 10
6720.6044375296
 20
9296.0579653158
 30
0.0
 40
7520.148763137153
100
AcDbArc
 50
220.017667739
 51
227.0143029097
  0
ARC
  5
87
330
74
100
AcDbEntity
  8
0
  6
Continuous
 62
   179
100
AcDbCircle
 10
2021.3892535935
 20
2163.6755564521
 30
0.0
 40
795.0570373035339
100
AcDbArc
 50
316.8708555891
 51
354.9781479006
  0
ARC
  5
88
330
74
100
AcDbEntity
  8
0
  6
Continuous
 62
   179
100
AcDbCircle
 10
2182.9124170468
 20
2011.9889486322
 30
0.0
 40
573.4753329004777
100
AcDbArc
 50
268.8486412909
 51
316.8986890901
  0
ARC
  5
89
330
74
100
AcDbEntity
  8
0
  6
Continuous
 62
   179
100
AcDbCircle
 10
10525.696072633
 20
12531.6259047731
 30
0.0
 40
10618.65239809051
100
AcDbArc
 50
220.6325257886
 51
226.7030345034
  0
ARC
  5
8A
330
74
100
AcDbEntity
  8
0
  6
Continuous
 62
   179
100
AcDbCircle
 10
2962.700769446
 20
6223.5867799529
 30
0.0
 40
723.1072200381735
100
AcDbArc
 50
137.8203941731
 51
175.3475443105
  0
ARC
  5
8B
330
74
100
AcDbEntity
  8
0
  6
Continuous
 62
   179
100
AcDbCircle
 10
2808.3239355685
 20
6360.2864243508
 30
0.0
 40
516.9247077280753
100
AcDbArc
 50
89.4379852016
 51
137.5591461504
  0
ARC
  5
8C
330
74
100
AcDbEntity
  8
0
  6
Continuous
 62
   179
100
AcDbCircle
 10
24439.2811878643
 20
2435.9613946539
 30
0.0
 40
1140.079096554877
100
AcDbArc
 50
297.4341829348999
 51
62.17203318890002
  0
ARC
  5
8D
330
74
100
AcDbEntity
  8
0
  6
Continuous
 62
   179
100
AcDbCircle
 10
24363.3946446009
 20
2430.1355419089
 30
0.0
 40
931.6078627500976
100
AcDbArc
 50
232.118909807
 51
101.3462704493
  0
LINE
  5
8E
330
74
100
AcDbEntity
  8
0
  6
Continuous
 62
   179
100
AcDbLine
 10
10088.0321784074
 20
0.0000125144
 30
0.0
 11
9858.2217949557
 21
8289.6552921115
 31
0.0
  0
LINE
  5
8F
330
74
100
AcDbEntity
  8
0
  6
Continuous
 62
   179
100
AcDbLine
 10
9858.2217949557
 20
8289.6552921115
 30
0.0
 11
7491.0265293557
 21
8289.6552921115
 31
0.0
  0
LINE
  5
90
330
74
100
AcDbEntity
  8
0
  6
Continuous
 62
   179
100
AcDbLine
 10
7491.0265293557
 20
8289.6552921115
 30
0.0
 11
5122.8131677553
 21
0.0000125144
 31
0.0
  0
LINE
  5
91
330
74
100
AcDbEntity
  8
0
  6
Continuous
 62
   179
100
AcDbLine
 10
5122.8131677553
 20
0.0000125144
 30
0.0
 11
6903.4160581553
 21
0.0000125144
 31
0.0
  0
LINE
  5
92
330
74
100
AcDbEntity
  8
0
  6
Continuous
 62
   179
100
AcDbLine
 10
6903.4160581553
 20
0.0000125144
 30
0.0
 11
7295.6346285553
 21
1694.8297721115
 31
0.0
  0
LINE
  5
93
330
74
100
AcDbEntity
  8
0
  6
Continuous
 62
   179
100
AcDbLine
 10
7684.3822381561
 20
3343.5361521108
 30
0.0
 11
8520.8837909553
 21
7008.8707569115
 31
0.0
  0
LINE
  5
94
330
74
100
AcDbEntity
  8
0
  6
Continuous
 62
   179
100
AcDbLine
 10
8520.8837909553
 20
7008.8707569115
 30
0.0
 11
8475.7613005553
 21
3444.1940153115
 31
0.0
  0
LINE
  5
95
330
74
100
AcDbEntity
  8
0
  6
Continuous
 62
   179
100
AcDbLine
 10
8468.8193789565
 20
1424.0948297112
 30
0.0
 11
8468.8193789565
 21
0.0000125144
 31
0.0
  0
LINE
  5
96
330
74
100
AcDbEntity
  8
0
  6
Continuous
 62
   179
100
AcDbLine
 10
8468.8193789565
 20
0.0000125144
 30
0.0
 11
10088.0321784074
 21
0.0000125144
 31
0.0
  0
LINE
  5
97
330
74
100
AcDbEntity
  8
0
  6
Continuous
 62
   179
100
AcDbLine
 10
19107.4500497519
 20
8295.8802112275
 30
0.0
 11
16935.7898769541
 21
8295.8802112275
 31
0.0
  0
LINE
  5
98
330
74
100
AcDbEntity
  8
0
  6
Continuous
 62
   179
100
AcDbLine
 10
16935.7898769541
 20
8295.8802112275
 30
0.0
 11
15991.7401521541
 21
0.0000288275
 31
0.0
  0
LINE
  5
99
330
74
100
AcDbEntity
  8
0
  6
Continuous
 62
   179
100
AcDbLine
 10
15991.7401521541
 20
0.0000288275
 30
0.0
 11
17855.6331985541
 21
0.0000288275
 31
0.0
  0
LINE
  5
9A
330
74
100
AcDbEntity
  8
0
  6
Continuous
 62
   179
100
AcDbLine
 10
17855.6331985541
 20
0.0000288275
 30
0.0
 11
18695.9411953541
 21
20.7483744275
 31
0.0
  0
LINE
  5
9B
330
74
100
AcDbEntity
  8
0
  6
Continuous
 62
   179
100
AcDbLine
 10
20805.6935873772
 20
2237.1817154785
 30
0.0
 11
21251.7830177772
 21
6203.5737826763
 31
0.0
  0
LINE
  5
9C
330
74
100
AcDbEntity
  8
0
  6
Continuous
 62
   179
100
AcDbLine
 10
19024.4566673541
 20
2195.8666048275
 30
0.0
 11
19467.0880401544
 21
6100.0136352237
 31
0.0
  0
LINE
  5
9D
330
74
100
AcDbEntity
  8
0
  6
Continuous
 62
   179
100
AcDbLine
 10
17907.5040625541
 20
1417.8036448275
 30
0.0
 11
18131.936218492
 21
1413.8509571068
 31
0.0
  0
LINE
  5
9E
330
74
100
AcDbEntity
  8
0
  6
Continuous
 62
   179
100
AcDbLine
 10
18529.9544305541
 20
6877.4963679933
 30
0.0
 11
17907.5040625541
 21
1417.8036448275
 31
0.0
  0
LINE
  5
9F
330
74
100
AcDbEntity
  8
0
  6
Continuous
 62
   179
100
AcDbLine
 10
18751.2701169541
 20
6877.4963679933
 30
0.0
 11
18529.9544305541
 21
6877.4963679933
 31
0.0
  0
LINE
  5
A0
330
74
100
AcDbEntity
  8
0
  6
Continuous
 62
   179
100
AcDbLine
 10
11134.6446741053
 20
0.0
 30
0.0
 11
14807.1018453053
 21
0.0
 31
0.0
  0
LINE
  5
A1
330
74
100
AcDbEntity
  8
0
  6
Continuous
 62
   179
100
AcDbLine
 10
14807.1018453053
 20
0.0
 30
0.0
 11
14990.3788981053
 21
1625.287072
 31
0.0
  0
LINE
  5
A2
330
74
100
AcDbEntity
  8
0
  6
Continuous
 62
   179
100
AcDbLine
 10
14990.3788981053
 20
1625.287072
 30
0.0
 11
13071.1569301053
 21
1625.287072
 31
0.0
  0
LINE
  5
A3
330
74
100
AcDbEntity
  8
0
  6
Continuous
 62
   179
100
AcDbLine
 10
13071.1569301053
 20
1625.287072
 30
0.0
 11
13828.4715445053
 21
8295.8801824
 31
0.0
  0
LINE
  5
A4
330
74
100
AcDbEntity
  8
0
  6
Continuous
 62
   179
100
AcDbLine
 10
13828.4715445053
 20
8295.8801824
 30
0.0
 11
12075.2363413053
 21
8295.8801824
 31
0.0
  0
LINE
  5
A5
330
74
100
AcDbEntity
  8
0
  6
Continuous
 62
   179
100
AcDbLine
 10
12075.2363413053
 20
8295.8801824
 30
0.0
 11
11134.6446741053
 21
0.0
 31
0.0
  0
LINE
  5
A6
330
74
100
AcDbEntity
  8
0
  6
Continuous
 62
   179
100
AcDbLine
 10
4907.4740560005
 20
6857.0185622947
 30
0.0
 11
4882.7391856278
 21
7041.1497513646
 31
0.0
  0
LINE
  5
A7
330
74
100
AcDbEntity
  8
0
  6
Continuous
 62
   179
100
AcDbLine
 10
4882.7391856278
 20
7041.1497513646
 30
0.0
 11
4840.84097804
 21
7222.1279289072
 31
0.0
  0
LINE
  5
A8
330
74
100
AcDbEntity
  8
0
  6
Continuous
 62
   179
100
AcDbLine
 10
4840.84097804
 20
7222.1279289072
 30
0.0
 11
4779.230404759
 21
7397.3516386623
 31
0.0
  0
LINE
  5
A9
330
74
100
AcDbEntity
  8
0
  6
Continuous
 62
   179
100
AcDbLine
 10
4779.230404759
 20
7397.3516386623
 30
0.0
 11
4695.8753846469
 21
7563.306056288
 31
0.0
  0
LINE
  5
AA
330
74
100
AcDbEntity
  8
0
  6
Continuous
 62
   179
100
AcDbLine
 10
4695.8753846469
 20
7563.306056288
 30
0.0
 11
4590.0094760133
 21
7715.8622667097
 31
0.0
  0
LINE
  5
AB
330
74
100
AcDbEntity
  8
0
  6
Continuous
 62
   179
100
AcDbLine
 10
4590.0094760133
 20
7715.8622667097
 30
0.0
 11
4462.7758841487
 21
7851.1049960358
 31
0.0
  0
LINE
  5
AC
330
74
100
AcDbEntity
  8
0
  6
Continuous
 62
   179
100
AcDbLine
 10
4462.7758841487
 20
7851.1049960358
 30
0.0
 11
4317.19779369
 21
7966.3918164371
 31
0.0
  0
LINE
  5
AD
330
74
100
AcDbEntity
  8
0
  6
Continuous
 62
   179
100
AcDbLine
 10
4317.19779369
 20
7966.3918164371
 30
0.0
 11
4157.3549470669
 21
8060.9636993174
 31
0.0
  0
LINE
  5
AE
330
74
100
AcDbEntity
  8
0
  6
Continuous
 62
   179
100
AcDbLine
 10
4157.3549470669
 20
8060.9636993174
 30
0.0
 11
3942.3832434805
 21
8152.0001345594
 31
0.0
  0
LINE
  5
AF
330
74
100
AcDbEntity
  8
0
  6
Continuous
 62
   179
100
AcDbLine
 10
3942.3832434805
 20
8152.0001345594
 30
0.0
 11
3717.7379879586
 21
8215.7306159908
 31
0.0
  0
LINE
  5
B0
330
74
100
AcDbEntity
  8
0
  6
Continuous
 62
   179
100
AcDbLine
 10
3717.7379879586
 20
8215.7306159908
 30
0.0
 11
3487.8010416052
 21
8256.6415379559
 31
0.0
  0
LINE
  5
B1
330
74
100
AcDbEntity
  8
0
  6
Continuous
 62
   179
100
AcDbLine
 10
3487.8010416052
 20
8256.6415379559
 30
0.0
 11
3255.2826646592
 21
8278.7971759128
 31
0.0
  0
LINE
  5
B2
330
74
100
AcDbEntity
  8
0
  6
Continuous
 62
   179
100
AcDbLine
 10
3255.2826646592
 20
8278.7971759128
 30
0.0
 11
3021.7939564
 21
8285.5640922951
 31
0.0
  0
LINE
  5
B3
330
74
100
AcDbEntity
  8
0
  6
Continuous
 62
   179
100
AcDbLine
 10
3021.7939564
 20
8285.5640922951
 30
0.0
 11
2764.7286656624
 21
8276.8167344558
 31
0.0
  0
LINE
  5
B4
330
74
100
AcDbEntity
  8
0
  6
Continuous
 62
   179
100
AcDbLine
 10
2764.7286656624
 20
8276.8167344558
 30
0.0
 11
2509.0566231212
 21
8248.8448730413
 31
0.0
  0
LINE
  5
B5
330
74
100
AcDbEntity
  8
0
  6
Continuous
 62
   179
100
AcDbLine
 10
2509.0566231212
 20
8248.8448730413
 30
0.0
 11
2256.7624741697
 21
8198.9693632548
 31
0.0
  0
LINE
  5
B6
330
74
100
AcDbEntity
  8
0
  6
Continuous
 62
   179
100
AcDbLine
 10
2256.7624741697
 20
8198.9693632548
 30
0.0
 11
2010.5862549102
 21
8124.6401609584
 31
0.0
  0
LINE
  5
B7
330
74
100
AcDbEntity
  8
0
  6
Continuous
 62
   179
100
AcDbLine
 10
2010.5862549102
 20
8124.6401609584
 30
0.0
 11
1823.7042907144
 21
8047.7718170144
 31
0.0
  0
LINE
  5
B8
330
74
100
AcDbEntity
  8
0
  6
Continuous
 62
   179
100
AcDbLine
 10
1823.7042907144
 20
8047.7718170144
 30
0.0
 11
1644.6605427625
 21
7954.1022052786
 31
0.0
  0
LINE
  5
B9
330
74
100
AcDbEntity
  8
0
  6
Continuous
 62
   179
100
AcDbLine
 10
1644.6605427625
 20
7954.1022052786
 30
0.0
 11
1475.390327491
 21
7843.7545704421
 31
0.0
  0
LINE
  5
BA
330
74
100
AcDbEntity
  8
0
  6
Continuous
 62
   179
100
AcDbLine
 10
1475.390327491
 20
7843.7545704421
 30
0.0
 11
1317.6231711996
 21
7717.507163895
 31
0.0
  0
LINE
  5
BB
330
74
100
AcDbEntity
  8
0
  6
Continuous
 62
   179
100
AcDbLine
 10
1317.6231711996
 20
7717.507163895
 30
0.0
 11
1139.538084005
 21
7540.9583629978
 31
0.0
  0
LINE
  5
BC
330
74
100
AcDbEntity
  8
0
  6
Continuous
 62
   179
100
AcDbLine
 10
1139.538084005
 20
7540.9583629978
 30
0.0
 11
983.4661868123
 21
7344.6865403276
 31
0.0
  0
LINE
  5
BD
330
74
100
AcDbEntity
  8
0
  6
Continuous
 62
   179
100
AcDbLine
 10
983.4661868123
 20
7344.6865403276
 30
0.0
 11
851.5325681984
 21
7131.4315088069
 31
0.0
  0
LINE
  5
BE
330
74
100
AcDbEntity
  8
0
  6
Continuous
 62
   179
100
AcDbLine
 10
851.5325681984
 20
7131.4315088069
 30
0.0
 11
744.4774564036
 21
6904.647070365
 31
0.0
  0
LINE
  5
BF
330
74
100
AcDbEntity
  8
0
  6
Continuous
 62
   179
100
AcDbLine
 10
744.4774564036
 20
6904.647070365
 30
0.0
 11
658.3392621499
 21
6656.4327422403
 31
0.0
  0
LINE
  5
C0
330
74
100
AcDbEntity
  8
0
  6
Continuous
 62
   179
100
AcDbLine
 10
658.3392621499
 20
6656.4327422403
 30
0.0
 11
596.9943576213
 21
6400.9335325463
 31
0.0
  0
LINE
  5
C1
330
74
100
AcDbEntity
  8
0
  6
Continuous
 62
   179
100
AcDbLine
 10
596.9943576213
 20
6400.9335325463
 30
0.0
 11
557.9730775995
 21
6141.0651554946
 31
0.0
  0
LINE
  5
C2
330
74
100
AcDbEntity
  8
0
  6
Continuous
 62
   179
100
AcDbLine
 10
557.9730775995
 20
6141.0651554946
 30
0.0
 11
538.0293793386
 21
5893.0807139359
 31
0.0
  0
LINE
  5
C3
330
74
100
AcDbEntity
  8
0
  6
Continuous
 62
   179
100
AcDbLine
 10
538.0293793386
 20
5893.0807139359
 30
0.0
 11
537.9155556826
 21
5644.3161034396
 31
0.0
  0
LINE
  5
C4
330
74
100
AcDbEntity
  8
0
  6
Continuous
 62
   179
100
AcDbLine
 10
537.9155556826
 20
5644.3161034396
 30
0.0
 11
561.0465619986
 21
5396.6565041751
 31
0.0
  0
LINE
  5
C5
330
74
100
AcDbEntity
  8
0
  6
Continuous
 62
   179
100
AcDbLine
 10
561.0465619986
 20
5396.6565041751
 30
0.0
 11
610.8365836731
 21
5152.9862283491
 31
0.0
  0
LINE
  5
C6
330
74
100
AcDbEntity
  8
0
  6
Continuous
 62
   179
100
AcDbLine
 10
610.8365836731
 20
5152.9862283491
 30
0.0
 11
670.4957765389
 21
4966.8752015955
 31
0.0
  0
LINE
  5
C7
330
74
100
AcDbEntity
  8
0
  6
Continuous
 62
   179
100
AcDbLine
 10
670.4957765389
 20
4966.8752015955
 30
0.0
 11
749.0385092576
 21
4787.922755338
 31
0.0
  0
LINE
  5
C8
330
74
100
AcDbEntity
  8
0
  6
Continuous
 62
   179
100
AcDbLine
 10
749.0385092576
 20
4787.922755338
 30
0.0
 11
846.3298658912
 21
4618.4358151253
 31
0.0
  0
LINE
  5
C9
330
74
100
AcDbEntity
  8
0
  6
Continuous
 62
   179
100
AcDbLine
 10
846.3298658912
 20
4618.4358151253
 30
0.0
 11
961.3271095996
 21
4460.4233554942
 31
0.0
  0
LINE
  5
CA
330
74
100
AcDbEntity
  8
0
  6
Continuous
 62
   179
100
AcDbLine
 10
1593.2484263997
 20
3794.8892026942
 30
0.0
 11
2342.8146692
 21
3099.1034974946
 31
0.0
  0
LINE
  5
CB
330
74
100
AcDbEntity
  8
0
  6
Continuous
 62
   179
100
AcDbLine
 10
2342.8146692
 20
3099.1034974946
 30
0.0
 11
2457.4150864402
 21
2985.4804965343
 31
0.0
  0
LINE
  5
CC
330
74
100
AcDbEntity
  8
0
  6
Continuous
 62
   179
100
AcDbLine
 10
2457.4150864402
 20
2985.4804965343
 30
0.0
 11
2562.4777930784
 21
2863.0062246075
 31
0.0
  0
LINE
  5
CD
330
74
100
AcDbEntity
  8
0
  6
Continuous
 62
   179
100
AcDbLine
 10
2562.4777930784
 20
2863.0062246075
 30
0.0
 11
2654.9628244148
 21
2730.8077708033
 31
0.0
  0
LINE
  5
CE
330
74
100
AcDbEntity
  8
0
  6
Continuous
 62
   179
100
AcDbLine
 10
2654.9628244148
 20
2730.8077708033
 30
0.0
 11
2730.9070108725
 21
2588.5028322591
 31
0.0
  0
LINE
  5
CF
330
74
100
AcDbEntity
  8
0
  6
Continuous
 62
   179
100
AcDbLine
 10
2730.9070108725
 20
2588.5028322591
 30
0.0
 11
2787.6392767372
 21
2429.3959416825
 31
0.0
  0
LINE
  5
D0
330
74
100
AcDbEntity
  8
0
  6
Continuous
 62
   179
100
AcDbLine
 10
2787.6392767372
 20
2429.3959416825
 30
0.0
 11
2816.0412804487
 21
2262.9265767885
 31
0.0
  0
LINE
  5
D1
330
74
100
AcDbEntity
  8
0
  6
Continuous
 62
   179
100
AcDbLine
 10
2816.0412804487
 20
2262.9265767885
 30
0.0
 11
2813.3943732
 21
2094.0797010946
 31
0.0
  0
LINE
  5
D2
330
74
100
AcDbEntity
  8
0
  6
Continuous
 62
   179
100
AcDbLine
 10
2171.3892056002
 20
1438.629399097
 30
0.0
 11
2081.3271648151
 21
1444.5220285234
 31
0.0
  0
LINE
  5
D3
330
74
100
AcDbEntity
  8
0
  6
Continuous
 62
   179
100
AcDbLine
 10
2081.3271648151
 20
1444.5220285234
 30
0.0
 11
1993.3677378413
 21
1464.5260106363
 31
0.0
  0
LINE
  5
D4
330
74
100
AcDbEntity
  8
0
  6
Continuous
 62
   179
100
AcDbLine
 10
1993.3677378413
 20
1464.5260106363
 30
0.0
 11
1911.3435803354
 21
1501.9115152047
 31
0.0
  0
LINE
  5
D5
330
74
100
AcDbEntity
  8
0
  6
Continuous
 62
   179
100
AcDbLine
 10
1911.3435803354
 20
1501.9115152047
 30
0.0
 11
1840.5450992733
 21
1557.6494251181
 31
0.0
  0
LINE
  5
D6
330
74
100
AcDbEntity
  8
0
  6
Continuous
 62
   179
100
AcDbLine
 10
1840.5450992733
 20
1557.6494251181
 30
0.0
 11
1785.0445168711
 21
1628.6751044787
 31
0.0
  0
LINE
  5
D7
330
74
100
AcDbEntity
  8
0
  6
Continuous
 62
   179
100
AcDbLine
 10
1785.0445168711
 20
1628.6751044787
 30
0.0
 11
1745.2817682865
 21
1709.6405469696
 31
0.0
  0
LINE
  5
D8
330
74
100
AcDbEntity
  8
0
  6
Continuous
 62
   179
100
AcDbLine
 10
1745.2817682865
 20
1709.6405469696
 30
0.0
 11
1710.0353127013
 21
1840.2386565146
 31
0.0
  0
LINE
  5
D9
330
74
100
AcDbEntity
  8
0
  6
Continuous
 62
   179
100
AcDbLine
 10
1710.0353127013
 20
1840.2386565146
 30
0.0
 11
1696.0216688059
 21
1974.8977537186
 31
0.0
  0
LINE
  5
DA
330
74
100
AcDbEntity
  8
0
  6
Continuous
 62
   179
100
AcDbLine
 10
1696.0216688059
 20
1974.8977537186
 30
0.0
 11
1696.5924840549
 21
2110.3283975811
 31
0.0
  0
LINE
  5
DB
330
74
100
AcDbEntity
  8
0
  6
Continuous
 62
   179
100
AcDbLine
 10
1696.5924840549
 20
2110.3283975811
 30
0.0
 11
1707.5320688
 21
2245.3374630946
 31
0.0
  0
LINE
  5
DC
330
74
100
AcDbEntity
  8
0
  6
Continuous
 62
   179
100
AcDbLine
 10
1707.5320688
 20
2245.3374630946
 30
0.0
 11
1781.480308
 21
2897.4264814946
 31
0.0
  0
LINE
  5
DD
330
74
100
AcDbEntity
  8
0
  6
Continuous
 62
   179
100
AcDbLine
 10
1781.480308
 20
2897.4264814946
 30
0.0
 11
94.1159408
 21
2897.4264814946
 31
0.0
  0
LINE
  5
DE
330
74
100
AcDbEntity
  8
0
  6
Continuous
 62
   179
100
AcDbLine
 10
94.1159408
 20
2897.4264814946
 30
0.0
 11
26.8902688
 21
2295.7567170946
 31
0.0
  0
LINE
  5
DF
330
74
100
AcDbEntity
  8
0
  6
Continuous
 62
   179
100
AcDbLine
 10
26.8902688
 20
2295.7567170946
 30
0.0
 11
5.8201226117
 21
2068.3689705604
 31
0.0
  0
LINE
  5
E0
330
74
100
AcDbEntity
  8
0
  6
Continuous
 62
   179
100
AcDbLine
 10
5.8201226117
 20
2068.3689705604
 30
0.0
 11
0.0
 21
1889.0414014946
 31
0.0
  0
LINE
  5
E1
330
74
100
AcDbEntity
  8
0
  6
Continuous
 62
   179
100
AcDbLine
 10
0.0
 20
1889.0414014946
 30
0.0
 11
0.0
 21
1788.2028934946
 31
0.0
  0
LINE
  5
E2
330
74
100
AcDbEntity
  8
0
  6
Continuous
 62
   179
100
AcDbLine
 10
0.0
 20
1788.2028934946
 30
0.0
 11
8.4741181851
 21
1597.5992610857
 31
0.0
  0
LINE
  5
E3
330
74
100
AcDbEntity
  8
0
  6
Continuous
 62
   179
100
AcDbLine
 10
8.4741181851
 20
1597.5992610857
 30
0.0
 11
29.9475321698
 21
1408.0255515191
 31
0.0
  0
LINE
  5
E4
330
74
100
AcDbEntity
  8
0
  6
Continuous
 62
   179
100
AcDbLine
 10
29.9475321698
 20
1408.0255515191
 30
0.0
 11
66.5196177454
 21
1220.7936775914
 31
0.0
  0
LINE
  5
E5
330
74
100
AcDbEntity
  8
0
  6
Continuous
 62
   179
100
AcDbLine
 10
66.5196177454
 20
1220.7936775914
 30
0.0
 11
120.5660601196
 21
1037.8592313249
 31
0.0
  0
LINE
  5
E6
330
74
100
AcDbEntity
  8
0
  6
Continuous
 62
   179
100
AcDbLine
 10
120.5660601196
 20
1037.8592313249
 30
0.0
 11
194.3311383855
 21
861.9730900702
 31
0.0
  0
LINE
  5
E7
330
74
100
AcDbEntity
  8
0
  6
Continuous
 62
   179
100
AcDbLine
 10
194.3311383855
 20
861.9730900702
 30
0.0
 11
287.5295606573
 21
699.5021482411
 31
0.0
  0
LINE
  5
E8
330
74
100
AcDbEntity
  8
0
  6
Continuous
 62
   179
100
AcDbLine
 10
287.5295606573
 20
699.5021482411
 30
0.0
 11
401.5974373649
 21
550.9580491856
 31
0.0
  0
LINE
  5
E9
330
74
100
AcDbEntity
  8
0
  6
Continuous
 62
   179
100
AcDbLine
 10
401.5974373649
 20
550.9580491856
 30
0.0
 11
535.1901037299
 21
419.6995230367
 31
0.0
  0
LINE
  5
EA
330
74
100
AcDbEntity
  8
0
  6
Continuous
 62
   179
100
AcDbLine
 10
535.1901037299
 20
419.6995230367
 30
0.0
 11
685.4525519751
 21
307.8901613371
 31
0.0
  0
LINE
  5
EB
330
74
100
AcDbEntity
  8
0
  6
Continuous
 62
   179
100
AcDbLine
 10
685.4525519751
 20
307.8901613371
 30
0.0
 11
880.9909831936
 21
200.7980430706
 31
0.0
  0
LINE
  5
EC
330
74
100
AcDbEntity
  8
0
  6
Continuous
 62
   179
100
AcDbLine
 10
880.9909831936
 20
200.7980430706
 30
0.0
 11
1088.9648544967
 21
120.3523112471
 31
0.0
  0
LINE
  5
ED
330
74
100
AcDbEntity
  8
0
  6
Continuous
 62
   179
100
AcDbLine
 10
1088.9648544967
 20
120.3523112471
 30
0.0
 11
1304.5983771836
 21
63.4027511638
 31
0.0
  0
LINE
  5
EE
330
74
100
AcDbEntity
  8
0
  6
Continuous
 62
   179
100
AcDbLine
 10
1304.5983771836
 20
63.4027511638
 30
0.0
 11
1524.5667113278
 21
26.4353113751
 31
0.0
  0
LINE
  5
EF
330
74
100
AcDbEntity
  8
0
  6
Continuous
 62
   179
100
AcDbLine
 10
1524.5667113278
 20
26.4353113751
 30
0.0
 11
1746.7181907984
 21
6.2021311101
 31
0.0
  0
LINE
  5
F0
330
74
100
AcDbEntity
  8
0
  6
Continuous
 62
   179
100
AcDbLine
 10
1746.7181907984
 20
6.2021311101
 30
0.0
 11
1969.7121896
 21
0.0000182946
 31
0.0
  0
LINE
  5
F1
330
74
100
AcDbEntity
  8
0
  6
Continuous
 62
   179
100
AcDbLine
 10
1969.7121896
 20
0.0000182946
 30
0.0
 11
2235.4163107967
 21
9.0474941519
 31
0.0
  0
LINE
  5
F2
330
74
100
AcDbEntity
  8
0
  6
Continuous
 62
   179
100
AcDbLine
 10
2235.4163107967
 20
9.0474941519
 30
0.0
 11
2499.6874650753
 21
37.9033605802
 31
0.0
  0
LINE
  5
F3
330
74
100
AcDbEntity
  8
0
  6
Continuous
 62
   179
100
AcDbLine
 10
2499.6874650753
 20
37.9033605802
 30
0.0
 11
2760.5117042792
 21
89.204615755
 31
0.0
  0
LINE
  5
F4
330
74
100
AcDbEntity
  8
0
  6
Continuous
 62
   179
100
AcDbLine
 10
2760.5117042792
 20
89.204615755
 30
0.0
 11
3015.1415277313
 21
165.4438899665
 31
0.0
  0
LINE
  5
F5
330
74
100
AcDbEntity
  8
0
  6
Continuous
 62
   179
100
AcDbLine
 10
3015.1415277313
 20
165.4438899665
 30
0.0
 11
3208.6236023082
 21
244.1201341123
 31
0.0
  0
LINE
  5
F6
330
74
100
AcDbEntity
  8
0
  6
Continuous
 62
   179
100
AcDbLine
 10
3208.6236023082
 20
244.1201341123
 30
0.0
 11
3394.246790929
 21
339.8610540042
 31
0.0
  0
LINE
  5
F7
330
74
100
AcDbEntity
  8
0
  6
Continuous
 62
   179
100
AcDbLine
 10
3394.246790929
 20
339.8610540042
 30
0.0
 11
3570.08287903
 21
452.5651803685
 31
0.0
  0
LINE
  5
F8
330
74
100
AcDbEntity
  8
0
  6
Continuous
 62
   179
100
AcDbLine
 10
3570.08287903
 20
452.5651803685
 30
0.0
 11
3734.3860796
 21
581.5020810946
 31
0.0
  0
LINE
  5
F9
330
74
100
AcDbEntity
  8
0
  6
Continuous
 62
   179
100
AcDbLine
 10
3734.3860796
 20
581.5020810946
 30
0.0
 11
3918.9619613187
 21
762.6068684982
 31
0.0
  0
LINE
  5
FA
330
74
100
AcDbEntity
  8
0
  6
Continuous
 62
   179
100
AcDbLine
 10
3918.9619613187
 20
762.6068684982
 30
0.0
 11
4080.6115034165
 21
964.4332031658
 31
0.0
  0
LINE
  5
FB
330
74
100
AcDbEntity
  8
0
  6
Continuous
 62
   179
100
AcDbLine
 10
4080.6115034165
 20
964.4332031658
 30
0.0
 11
4217.129324297
 21
1184.0491590435
 31
0.0
  0
LINE
  5
FC
330
74
100
AcDbEntity
  8
0
  6
Continuous
 62
   179
100
AcDbLine
 10
4217.129324297
 20
1184.0491590435
 30
0.0
 11
4327.807798901
 21
1417.7744861233
 31
0.0
  0
LINE
  5
FD
330
74
100
AcDbEntity
  8
0
  6
Continuous
 62
   179
100
AcDbLine
 10
4327.807798901
 20
1417.7744861233
 30
0.0
 11
4416.8403522579
 21
1673.6616360853
 31
0.0
  0
LINE
  5
FE
330
74
100
AcDbEntity
  8
0
  6
Continuous
 62
   179
100
AcDbLine
 10
4416.8403522579
 20
1673.6616360853
 30
0.0
 11
4480.332478423
 21
1937.0776350384
 31
0.0
  0
LINE
  5
FF
330
74
100
AcDbEntity
  8
0
  6
Continuous
 62
   179
100
AcDbLine
 10
4480.332478423
 20
1937.0776350384
 30
0.0
 11
4520.926442
 21
2205.0020598946
 31
0.0
  0
LINE
  5
100
330
74
100
AcDbEntity
  8
0
  6
Continuous
 62
   179
100
AcDbLine
 10
4520.926442
 20
2205.0020598946
 30
0.0
 11
4539.8604791128
 21
2434.751251137
 31
0.0
  0
LINE
  5
101
330
74
100
AcDbEntity
  8
0
  6
Continuous
 62
   179
100
AcDbLine
 10
4539.8604791128
 20
2434.751251137
 30
0.0
 11
4542.0136171636
 21
2665.2555763504
 31
0.0
  0
LINE
  5
102
330
74
100
AcDbEntity
  8
0
  6
Continuous
 62
   179
100
AcDbLine
 10
4542.0136171636
 20
2665.2555763504
 30
0.0
 11
4524.9874932226
 21
2895.1234497405
 31
0.0
  0
LINE
  5
103
330
74
100
AcDbEntity
  8
0
  6
Continuous
 62
   179
100
AcDbLine
 10
4524.9874932226
 20
2895.1234497405
 30
0.0
 11
4496.6310776622
 21
3074.0098021703
 31
0.0
  0
LINE
  5
104
330
74
100
AcDbEntity
  8
0
  6
Continuous
 62
   179
100
AcDbLine
 10
4496.6310776622
 20
3074.0098021703
 30
0.0
 11
4454.0379981851
 21
3250.0430485054
 31
0.0
  0
LINE
  5
105
330
74
100
AcDbEntity
  8
0
  6
Continuous
 62
   179
100
AcDbLine
 10
4454.0379981851
 20
3250.0430485054
 30
0.0
 11
4396.5589488
 21
3421.7867230946
 31
0.0
  0
LINE
  5
106
330
74
100
AcDbEntity
  8
0
  6
Continuous
 62
   179
100
AcDbLine
 10
4396.5589488
 20
3421.7867230946
 30
0.0
 11
4335.0775798529
 21
3551.3591107413
 31
0.0
  0
LINE
  5
107
330
74
100
AcDbEntity
  8
0
  6
Continuous
 62
   179
100
AcDbLine
 10
4335.0775798529
 20
3551.3591107413
 30
0.0
 11
4262.2002057756
 21
3674.9188547719
 31
0.0
  0
LINE
  5
108
330
74
100
AcDbEntity
  8
0
  6
Continuous
 62
   179
100
AcDbLine
 10
4262.2002057756
 20
3674.9188547719
 30
0.0
 11
4181.3183894369
 21
3793.4113089372
 31
0.0
  0
LINE
  5
109
330
74
100
AcDbEntity
  8
0
  6
Continuous
 62
   179
100
AcDbLine
 10
4181.3183894369
 20
3793.4113089372
 30
0.0
 11
4078.5227471571
 21
3927.6643628842
 31
0.0
  0
LINE
  5
10A
330
74
100
AcDbEntity
  8
0
  6
Continuous
 62
   179
100
AcDbLine
 10
4078.5227471571
 20
3927.6643628842
 30
0.0
 11
3969.6759316
 21
4057.0693234946
 31
0.0
  0
LINE
  5
10B
330
74
100
AcDbEntity
  8
0
  6
Continuous
 62
   179
100
AcDbLine
 10
3969.6759316
 20
4057.0693234946
 30
0.0
 11
3243.638674
 21
4803.2742826946
 31
0.0
  0
LINE
  5
10C
330
74
100
AcDbEntity
  8
0
  6
Continuous
 62
   179
100
AcDbLine
 10
2467.1821623981
 20
5616.7049138995
 30
0.0
 11
2391.5759134121
 21
5727.7039441288
 31
0.0
  0
LINE
  5
10D
330
74
100
AcDbEntity
  8
0
  6
Continuous
 62
   179
100
AcDbLine
 10
2391.5759134121
 20
5727.7039441288
 30
0.0
 11
2326.9023872324
 21
5845.3828817498
 31
0.0
  0
LINE
  5
10E
330
74
100
AcDbEntity
  8
0
  6
Continuous
 62
   179
100
AcDbLine
 10
2326.9023872324
 20
5845.3828817498
 30
0.0
 11
2276.7855321171
 21
5969.9206549293
 31
0.0
  0
LINE
  5
10F
330
74
100
AcDbEntity
  8
0
  6
Continuous
 62
   179
100
AcDbLine
 10
2276.7855321171
 20
5969.9206549293
 30
0.0
 11
2250.5432565423
 21
6072.0904771882
 31
0.0
  0
LINE
  5
110
330
74
100
AcDbEntity
  8
0
  6
Continuous
 62
   179
100
AcDbLine
 10
2250.5432565423
 20
6072.0904771882
 30
0.0
 11
2238.3532498759
 21
6176.8496579539
 31
0.0
  0
LINE
  5
111
330
74
100
AcDbEntity
  8
0
  6
Continuous
 62
   179
100
AcDbLine
 10
2238.3532498759
 20
6176.8496579539
 30
0.0
 11
2241.9761612
 21
6282.2390666946
 31
0.0
  0
LINE
  5
112
330
74
100
AcDbEntity
  8
0
  6
Continuous
 62
   179
100
AcDbLine
 10
2813.394373201
 20
6877.1862638961
 30
0.0
 11
2899.1450330725
 21
6871.9159884789
 31
0.0
  0
LINE
  5
113
330
74
100
AcDbEntity
  8
0
  6
Continuous
 62
   179
100
AcDbLine
 10
2899.1450330725
 20
6871.9159884789
 30
0.0
 11
2983.1458702521
 21
6854.0846279821
 31
0.0
  0
LINE
  5
114
330
74
100
AcDbEntity
  8
0
  6
Continuous
 62
   179
100
AcDbLine
 10
2983.1458702521
 20
6854.0846279821
 30
0.0
 11
3062.202014936
 21
6820.6931120196
 31
0.0
  0
LINE
  5
115
330
74
100
AcDbEntity
  8
0
  6
Continuous
 62
   179
100
AcDbLine
 10
3062.202014936
 20
6820.6931120196
 30
0.0
 11
3131.6623634801
 21
6770.3629356214
 31
0.0
  0
LINE
  5
116
330
74
100
AcDbEntity
  8
0
  6
Continuous
 62
   179
100
AcDbLine
 10
3131.6623634801
 20
6770.3629356214
 30
0.0
 11
3187.37124796
 21
6705.1184696235
 31
0.0
  0
LINE
  5
117
330
74
100
AcDbEntity
  8
0
  6
Continuous
 62
   179
100
AcDbLine
 10
3187.37124796
 20
6705.1184696235
 30
0.0
 11
3228.1274776793
 21
6629.5646068072
 31
0.0
  0
LINE
  5
118
330
74
100
AcDbEntity
  8
0
  6
Continuous
 62
   179
100
AcDbLine
 10
3228.1274776793
 20
6629.5646068072
 30
0.0
 11
3265.0334180049
 21
6506.2441361359
 31
0.0
  0
LINE
  5
119
330
74
100
AcDbEntity
  8
0
  6
Continuous
 62
   179
100
AcDbLine
 10
3265.0334180049
 20
6506.2441361359
 30
0.0
 11
3280.3602104272
 21
6378.3104742822
 31
0.0
  0
LINE
  5
11A
330
74
100
AcDbEntity
  8
0
  6
Continuous
 62
   179
100
AcDbLine
 10
3280.3602104272
 20
6378.3104742822
 30
0.0
 11
3280.7520241623
 21
6249.4122034737
 31
0.0
  0
LINE
  5
11B
330
74
100
AcDbEntity
  8
0
  6
Continuous
 62
   179
100
AcDbLine
 10
3280.7520241623
 20
6249.4122034737
 30
0.0
 11
3270.5289428
 21
6120.8974538946
 31
0.0
  0
LINE
  5
11C
330
74
100
AcDbEntity
  8
0
  6
Continuous
 62
   179
100
AcDbLine
 10
3270.5289428
 20
6120.8974538946
 30
0.0
 11
3206.6645544
 21
5566.2856598946
 31
0.0
  0
LINE
  5
11D
330
74
100
AcDbEntity
  8
0
  6
Continuous
 62
   179
100
AcDbLine
 10
3206.6645544
 20
5566.2856598946
 30
0.0
 11
4820.0806824005
 21
5566.2856598945
 31
0.0
  0
LINE
  5
11E
330
74
100
AcDbEntity
  8
0
  6
Continuous
 62
   179
100
AcDbLine
 10
4820.0806824005
 20
5566.2856598945
 30
0.0
 11
4894.0289216005
 21
6231.8198126945
 31
0.0
  0
LINE
  5
11F
330
74
100
AcDbEntity
  8
0
  6
Continuous
 62
   179
100
AcDbLine
 10
4894.0289216005
 20
6231.8198126945
 30
0.0
 11
4907.4740560005
 21
6366.2711566946
 31
0.0
  0
LINE
  5
120
330
74
100
AcDbEntity
  8
0
  6
Continuous
 62
   179
100
AcDbLine
 10
4907.4740560005
 20
6366.2711566946
 30
0.0
 11
4917.4861623745
 21
6641.1377165616
 31
0.0
  0
LINE
  5
121
330
74
100
AcDbEntity
  8
0
  6
Continuous
 62
   179
100
AcDbLine
 10
4917.4861623745
 20
6641.1377165616
 30
0.0
 11
4907.4740560005
 21
6857.0185622947
 31
0.0
  0
LINE
  5
122
330
74
100
AcDbEntity
  8
0
  6
Continuous
 62
   179
100
AcDbLine
 10
24964.5491205926
 20
0.0000125144
 30
0.0
 11
26583.7619200447
 21
0.0000125144
 31
0.0
  0
LINE
  5
123
330
74
100
AcDbEntity
  8
0
  6
Continuous
 62
   179
100
AcDbLine
 10
24964.5491205926
 20
1424.0948297115
 30
0.0
 11
24964.5491205926
 21
0.0000125144
 31
0.0
  0
LINE
  5
124
330
74
100
AcDbEntity
  8
0
  6
Continuous
 62
   179
100
AcDbLine
 10
25016.6135325926
 20
7008.8707569115
 30
0.0
 11
24971.491042193
 21
3444.1940153109
 31
0.0
  0
LINE
  5
125
330
74
100
AcDbEntity
  8
0
  6
Continuous
 62
   179
100
AcDbLine
 10
24180.1119797926
 20
3343.5361521115
 30
0.0
 11
25016.6135325926
 21
7008.8707569115
 31
0.0
  0
LINE
  5
126
330
74
100
AcDbEntity
  8
0
  6
Continuous
 62
   179
100
AcDbLine
 10
23399.1457997926
 20
0.0000125144
 30
0.0
 11
23791.3643701938
 21
1694.8297721102
 31
0.0
  0
LINE
  5
127
330
74
100
AcDbEntity
  8
0
  6
Continuous
 62
   179
100
AcDbLine
 10
21618.5429093926
 20
0.0000125144
 30
0.0
 11
23399.1457997926
 21
0.0000125144
 31
0.0
  0
LINE
  5
128
330
74
100
AcDbEntity
  8
0
  6
Continuous
 62
   179
100
AcDbLine
 10
23986.756270993
 20
8289.6552921115
 30
0.0
 11
21618.5429093926
 21
0.0000125144
 31
0.0
  0
LINE
  5
129
330
74
100
AcDbEntity
  8
0
  6
Continuous
 62
   179
100
AcDbLine
 10
26353.951536593
 20
8289.6552921115
 30
0.0
 11
23986.756270993
 21
8289.6552921115
 31
0.0
  0
LINE
  5
12A
330
74
100
AcDbEntity
  8
0
  6
Continuous
 62
   179
100
AcDbLine
 10
26583.7619200447
 20
0.0000125144
 30
0.0
 11
26353.951536593
 21
8289.6552921115
 31
0.0
  0
ENDBLK
  5
76
330
74
100
AcDbEntity
  8
0
100
AcDbBlockEnd
  0
BLOCK
  5
12C
330
12B
100
AcDbEntity
  8
0
100
AcDbBlockBegin
  2
Projekciju vaizdavimas_1
 70
     0
 10
0.0
 20
0.0
 30
0.0
  3
Projekciju vaizdavimas_1
  1

  0
CIRCLE
  5
12E
330
12B
100
AcDbEntity
  8
0
  6
Continuous
 62
     7
370
    30
100
AcDbCircle
 10
0.0
 20
0.0
 30
0.0
 40
3.5
  0
CIRCLE
  5
12F
330
12B
100
AcDbEntity
  8
0
  6
Continuous
 62
     7
370
    30
100
AcDbCircle
 10
0.0
 20
0.0
 30
0.0
 40
1.5
  0
LINE
  5
130
330
12B
100
AcDbEntity
  8
0
  6
CENTERX2
 62
     7
370
     0
100
AcDbLine
 10
4.5
 20
0.0
 30
0.0
 11
-14.5
 21
0.0
 31
0.0
  0
LINE
  5
131
330
12B
100
AcDbEntity
  8
0
  6
Continuous
 62
     7
370
    30
100
AcDbLine
 10
-13.5
 20
1.5
 30
0.0
 11
-13.5
 21
-1.5
 31
0.0
  0
LINE
  5
132
330
12B
100
AcDbEntity
  8
0
  6
Continuous
 62
     7
370
    30
100
AcDbLine
 10
-13.5
 20
-1.5
 30
0.0
 11
-6.5
 21
-3.5
 31
0.0
  0
LINE
  5
133
330
12B
100
AcDbEntity
  8
0
  6
Continuous
 62
     7
370
    30
100
AcDbLine
 10
-6.5
 20
-3.5
 30
0.0
 11
-6.5
 21
3.5
 31
0.0
  0
LINE
  5
134
330
12B
100
AcDbEntity
  8
0
  6
Continuous
 62
     7
370
    30
100
AcDbLine
 10
-6.5
 20
3.5
 30
0.0
 11
-13.5
 21
1.5
 31
0.0
  0
LINE
  5
135
330
12B
100
AcDbEntity
  8
0
  6
CENTERX2
 62
     7
370
     0
100
AcDbLine
 10
0.0
 20
4.5
 30
0.0
 11
0.0
 21
-4.5
 31
0.0
  0
ENDBLK
  5
12D
330
12B
100
AcDbEntity
  8
0
100
AcDbBlockEnd
  0
BLOCK
  5
137
330
136
100
AcDbEntity
  8
0
100
AcDbBlockBegin
  2
Block1
 70
     0
 10
0.0
 20
0.0
 30
0.0
  3
Block1
  1

  0
ARC
  5
139
330
136
100
AcDbEntity
  8
0
  6
Continuous
 62
   179
100
AcDbCircle
 10
7867.6649029635
 20
2430.1355419087
 30
0.0
 40
931.6078627493895
100
AcDbArc
 50
232.1189098069
 51
101.3462704492
  0
ARC
  5
13A
330
136
100
AcDbEntity
  8
0
  6
Continuous
 62
   179
100
AcDbCircle
 10
7943.5514462269
 20
2435.9613946537
 30
0.0
 40
1140.079096555486
100
AcDbArc
 50
297.434182935
 51
62.17203318890002
  0
ARC
  5
13B
330
136
100
AcDbEntity
  8
0
  6
Continuous
 62
   179
100
AcDbCircle
 10
20001.4103066854
 20
6936.2583481763
 30
0.0
 40
1270.831290716854
100
AcDbArc
 50
3.4391112699
 51
76.4197578922
  0
ARC
  5
13C
330
136
100
AcDbEntity
  8
0
  6
Continuous
 62
   179
100
AcDbCircle
 10
19239.4822949422
 20
3782.0667000728
 30
0.0
 40
4515.74411667143
100
AcDbArc
 50
76.4197578923
 51
91.6754644339
  0
ARC
  5
13D
330
136
100
AcDbEntity
  8
0
  6
Continuous
 62
   179
100
AcDbCircle
 10
18683.9539720184
 20
2160.1911622497
 30
0.0
 40
2139.476369555804
100
AcDbArc
 50
270.3210228954001
 51
307.7127911617
  0
ARC
  5
13E
330
136
100
AcDbEntity
  8
0
  6
Continuous
 62
   179
100
AcDbCircle
 10
18746.0422061702
 20
1962.8216117468
 30
0.0
 40
1946.678009873842
100
AcDbArc
 50
309.8210667380999
 51
331.7017265911999
  0
ARC
  5
13F
330
136
100
AcDbEntity
  8
0
  6
Continuous
 62
   179
100
AcDbCircle
 10
17863.1917469523
 20
2438.1532894658
 30
0.0
 40
2949.35698999881
100
AcDbArc
 50
331.7017265911999
 51
356.0927915539
  0
ARC
  5
140
330
136
100
AcDbEntity
  8
0
  6
Continuous
 62
   179
100
AcDbCircle
 10
16755.7856245826
 20
6709.226497343
 30
0.0
 40
4524.342739831098
100
AcDbArc
 50
353.5830630921
 51
3.8434115591
  0
ARC
  5
141
330
136
100
AcDbEntity
  8
0
  6
Continuous
 62
   179
100
AcDbCircle
 10
19039.3213693035
 20
6348.9928357667
 30
0.0
 40
506.1072723730909
100
AcDbArc
 50
52.45518083769999
 51
82.2716960779
  0
ARC
  5
142
330
136
100
AcDbEntity
  8
0
  6
Continuous
 62
   179
100
AcDbCircle
 10
19108.0528552878
 20
6495.6270812425
 30
0.0
 40
349.7025539282703
100
AcDbArc
 50
10.4012874263
 51
46.7340603611
  0
ARC
  5
143
330
136
100
AcDbEntity
  8
0
  6
Continuous
 62
   179
100
AcDbCircle
 10
17417.0070420698
 20
6262.2496105517
 30
0.0
 40
2056.490362340239
100
AcDbArc
 50
355.475249592
 51
8.290034904
  0
ARC
  5
144
330
136
100
AcDbEntity
  8
0
  6
Continuous
 62
   179
100
AcDbCircle
 10
16921.0810184775
 20
2478.8840573259
 30
0.0
 40
2122.330793892779
100
AcDbArc
 50
339.2065439429
 51
352.3366543813
  0
ARC
  5
145
330
136
100
AcDbEntity
  8
0
  6
Continuous
 62
   179
100
AcDbCircle
 10
18500.143747488
 20
1898.8589115903
 30
0.0
 40
440.5904503964751
100
AcDbArc
 50
293.838270217
 51
336.8232513296001
  0
ARC
  5
146
330
136
100
AcDbEntity
  8
0
  6
Continuous
 62
   179
100
AcDbCircle
 10
18201.1477532386
 20
2813.3138324813
 30
0.0
 40
1401.173285533761
100
AcDbArc
 50
267.1686990927
 51
289.9057704419
  0
ARC
  5
147
330
136
100
AcDbEntity
  8
0
  6
Continuous
 62
   179
100
AcDbCircle
 10
18751.2701169541
 20
4514.9970927066
 30
0.0
 40
2362.499275286643
100
AcDbArc
 50
81.3304997955
 51
90.0
  0
ARC
  5
148
330
136
100
AcDbEntity
  8
0
  6
Continuous
 62
   179
100
AcDbCircle
 10
6720.6044375296
 20
9296.0579653158
 30
0.0
 40
7520.148763137153
100
AcDbArc
 50
220.017667739
 51
227.0143029097
  0
ARC
  5
149
330
136
100
AcDbEntity
  8
0
  6
Continuous
 62
   179
100
AcDbCircle
 10
2021.3892535935
 20
2163.6755564521
 30
0.0
 40
795.0570373035339
100
AcDbArc
 50
316.8708555891
 51
354.9781479006
  0
ARC
  5
14A
330
136
100
AcDbEntity
  8
0
  6
Continuous
 62
   179
100
AcDbCircle
 10
2182.9124170468
 20
2011.9889486322
 30
0.0
 40
573.4753329004777
100
AcDbArc
 50
268.8486412909
 51
316.8986890901
  0
ARC
  5
14B
330
136
100
AcDbEntity
  8
0
  6
Continuous
 62
   179
100
AcDbCircle
 10
10525.696072633
 20
12531.6259047731
 30
0.0
 40
10618.65239809051
100
AcDbArc
 50
220.6325257886
 51
226.7030345034
  0
ARC
  5
14C
330
136
100
AcDbEntity
  8
0
  6
Continuous
 62
   179
100
AcDbCircle
 10
2962.700769446
 20
6223.5867799529
 30
0.0
 40
723.1072200381735
100
AcDbArc
 50
137.8203941731
 51
175.3475443105
  0
ARC
  5
14D
330
136
100
AcDbEntity
  8
0
  6
Continuous
 62
   179
100
AcDbCircle
 10
2808.3239355685
 20
6360.2864243508
 30
0.0
 40
516.9247077280753
100
AcDbArc
 50
89.4379852016
 51
137.5591461504
  0
ARC
  5
14E
330
136
100
AcDbEntity
  8
0
  6
Continuous
 62
   179
100
AcDbCircle
 10
24439.2811878643
 20
2435.9613946539
 30
0.0
 40
1140.079096554877
100
AcDbArc
 50
297.4341829348999
 51
62.17203318890002
  0
ARC
  5
14F
330
136
100
AcDbEntity
  8
0
  6
Continuous
 62
   179
100
AcDbCircle
 10
24363.3946446009
 20
2430.1355419089
 30
0.0
 40
931.6078627500976
100
AcDbArc
 50
232.118909807
 51
101.3462704493
  0
LINE
  5
150
330
136
100
AcDbEntity
  8
0
  6
Continuous
 62
   179
100
AcDbLine
 10
10088.0321784074
 20
0.0000125144
 30
0.0
 11
9858.2217949557
 21
8289.6552921115
 31
0.0
  0
LINE
  5
151
330
136
100
AcDbEntity
  8
0
  6
Continuous
 62
   179
100
AcDbLine
 10
9858.2217949557
 20
8289.6552921115
 30
0.0
 11
7491.0265293557
 21
8289.6552921115
 31
0.0
  0
LINE
  5
152
330
136
100
AcDbEntity
  8
0
  6
Continuous
 62
   179
100
AcDbLine
 10
7491.0265293557
 20
8289.6552921115
 30
0.0
 11
5122.8131677553
 21
0.0000125144
 31
0.0
  0
LINE
  5
153
330
136
100
AcDbEntity
  8
0
  6
Continuous
 62
   179
100
AcDbLine
 10
5122.8131677553
 20
0.0000125144
 30
0.0
 11
6903.4160581553
 21
0.0000125144
 31
0.0
  0
LINE
  5
154
330
136
100
AcDbEntity
  8
0
  6
Continuous
 62
   179
100
AcDbLine
 10
6903.4160581553
 20
0.0000125144
 30
0.0
 11
7295.6346285553
 21
1694.8297721115
 31
0.0
  0
LINE
  5
155
330
136
100
AcDbEntity
  8
0
  6
Continuous
 62
   179
100
AcDbLine
 10
7684.3822381561
 20
3343.5361521108
 30
0.0
 11
8520.8837909553
 21
7008.8707569115
 31
0.0
  0
LINE
  5
156
330
136
100
AcDbEntity
  8
0
  6
Continuous
 62
   179
100
AcDbLine
 10
8520.8837909553
 20
7008.8707569115
 30
0.0
 11
8475.7613005553
 21
3444.1940153115
 31
0.0
  0
LINE
  5
157
330
136
100
AcDbEntity
  8
0
  6
Continuous
 62
   179
100
AcDbLine
 10
8468.8193789565
 20
1424.0948297112
 30
0.0
 11
8468.8193789565
 21
0.0000125144
 31
0.0
  0
LINE
  5
158
330
136
100
AcDbEntity
  8
0
  6
Continuous
 62
   179
100
AcDbLine
 10
8468.8193789565
 20
0.0000125144
 30
0.0
 11
10088.0321784074
 21
0.0000125144
 31
0.0
  0
LINE
  5
159
330
136
100
AcDbEntity
  8
0
  6
Continuous
 62
   179
100
AcDbLine
 10
19107.4500497519
 20
8295.8802112275
 30
0.0
 11
16935.7898769541
 21
8295.8802112275
 31
0.0
  0
LINE
  5
15A
330
136
100
AcDbEntity
  8
0
  6
Continuous
 62
   179
100
AcDbLine
 10
16935.7898769541
 20
8295.8802112275
 30
0.0
 11
15991.7401521541
 21
0.0000288275
 31
0.0
  0
LINE
  5
15B
330
136
100
AcDbEntity
  8
0
  6
Continuous
 62
   179
100
AcDbLine
 10
15991.7401521541
 20
0.0000288275
 30
0.0
 11
17855.6331985541
 21
0.0000288275
 31
0.0
  0
LINE
  5
15C
330
136
100
AcDbEntity
  8
0
  6
Continuous
 62
   179
100
AcDbLine
 10
17855.6331985541
 20
0.0000288275
 30
0.0
 11
18695.9411953541
 21
20.7483744275
 31
0.0
  0
LINE
  5
15D
330
136
100
AcDbEntity
  8
0
  6
Continuous
 62
   179
100
AcDbLine
 10
20805.6935873772
 20
2237.1817154785
 30
0.0
 11
21251.7830177772
 21
6203.5737826763
 31
0.0
  0
LINE
  5
15E
330
136
100
AcDbEntity
  8
0
  6
Continuous
 62
   179
100
AcDbLine
 10
19024.4566673541
 20
2195.8666048275
 30
0.0
 11
19467.0880401544
 21
6100.0136352237
 31
0.0
  0
LINE
  5
15F
330
136
100
AcDbEntity
  8
0
  6
Continuous
 62
   179
100
AcDbLine
 10
17907.5040625541
 20
1417.8036448275
 30
0.0
 11
18131.936218492
 21
1413.8509571068
 31
0.0
  0
LINE
  5
160
330
136
100
AcDbEntity
  8
0
  6
Continuous
 62
   179
100
AcDbLine
 10
18529.9544305541
 20
6877.4963679933
 30
0.0
 11
17907.5040625541
 21
1417.8036448275
 31
0.0
  0
LINE
  5
161
330
136
100
AcDbEntity
  8
0
  6
Continuous
 62
   179
100
AcDbLine
 10
18751.2701169541
 20
6877.4963679933
 30
0.0
 11
18529.9544305541
 21
6877.4963679933
 31
0.0
  0
LINE
  5
162
330
136
100
AcDbEntity
  8
0
  6
Continuous
 62
   179
100
AcDbLine
 10
11134.6446741053
 20
0.0
 30
0.0
 11
14807.1018453053
 21
0.0
 31
0.0
  0
LINE
  5
163
330
136
100
AcDbEntity
  8
0
  6
Continuous
 62
   179
100
AcDbLine
 10
14807.1018453053
 20
0.0
 30
0.0
 11
14990.3788981053
 21
1625.287072
 31
0.0
  0
LINE
  5
164
330
136
100
AcDbEntity
  8
0
  6
Continuous
 62
   179
100
AcDbLine
 10
14990.3788981053
 20
1625.287072
 30
0.0
 11
13071.1569301053
 21
1625.287072
 31
0.0
  0
LINE
  5
165
330
136
100
AcDbEntity
  8
0
  6
Continuous
 62
   179
100
AcDbLine
 10
13071.1569301053
 20
1625.287072
 30
0.0
 11
13828.4715445053
 21
8295.8801824
 31
0.0
  0
LINE
  5
166
330
136
100
AcDbEntity
  8
0
  6
Continuous
 62
   179
100
AcDbLine
 10
13828.4715445053
 20
8295.8801824
 30
0.0
 11
12075.2363413053
 21
8295.8801824
 31
0.0
  0
LINE
  5
167
330
136
100
AcDbEntity
  8
0
  6
Continuous
 62
   179
100
AcDbLine
 10
12075.2363413053
 20
8295.8801824
 30
0.0
 11
11134.6446741053
 21
0.0
 31
0.0
  0
LINE
  5
168
330
136
100
AcDbEntity
  8
0
  6
Continuous
 62
   179
100
AcDbLine
 10
4907.4740560005
 20
6857.0185622947
 30
0.0
 11
4882.7391856278
 21
7041.1497513646
 31
0.0
  0
LINE
  5
169
330
136
100
AcDbEntity
  8
0
  6
Continuous
 62
   179
100
AcDbLine
 10
4882.7391856278
 20
7041.1497513646
 30
0.0
 11
4840.84097804
 21
7222.1279289072
 31
0.0
  0
LINE
  5
16A
330
136
100
AcDbEntity
  8
0
  6
Continuous
 62
   179
100
AcDbLine
 10
4840.84097804
 20
7222.1279289072
 30
0.0
 11
4779.230404759
 21
7397.3516386623
 31
0.0
  0
LINE
  5
16B
330
136
100
AcDbEntity
  8
0
  6
Continuous
 62
   179
100
AcDbLine
 10
4779.230404759
 20
7397.3516386623
 30
0.0
 11
4695.8753846469
 21
7563.306056288
 31
0.0
  0
LINE
  5
16C
330
136
100
AcDbEntity
  8
0
  6
Continuous
 62
   179
100
AcDbLine
 10
4695.8753846469
 20
7563.306056288
 30
0.0
 11
4590.0094760133
 21
7715.8622667097
 31
0.0
  0
LINE
  5
16D
330
136
100
AcDbEntity
  8
0
  6
Continuous
 62
   179
100
AcDbLine
 10
4590.0094760133
 20
7715.8622667097
 30
0.0
 11
4462.7758841487
 21
7851.1049960358
 31
0.0
  0
LINE
  5
16E
330
136
100
AcDbEntity
  8
0
  6
Continuous
 62
   179
100
AcDbLine
 10
4462.7758841487
 20
7851.1049960358
 30
0.0
 11
4317.19779369
 21
7966.3918164371
 31
0.0
  0
LINE
  5
16F
330
136
100
AcDbEntity
  8
0
  6
Continuous
 62
   179
100
AcDbLine
 10
4317.19779369
 20
7966.3918164371
 30
0.0
 11
4157.3549470669
 21
8060.9636993174
 31
0.0
  0
LINE
  5
170
330
136
100
AcDbEntity
  8
0
  6
Continuous
 62
   179
100
AcDbLine
 10
4157.3549470669
 20
8060.9636993174
 30
0.0
 11
3942.3832434805
 21
8152.0001345594
 31
0.0
  0
LINE
  5
171
330
136
100
AcDbEntity
  8
0
  6
Continuous
 62
   179
100
AcDbLine
 10
3942.3832434805
 20
8152.0001345594
 30
0.0
 11
3717.7379879586
 21
8215.7306159908
 31
0.0
  0
LINE
  5
172
330
136
100
AcDbEntity
  8
0
  6
Continuous
 62
   179
100
AcDbLine
 10
3717.7379879586
 20
8215.7306159908
 30
0.0
 11
3487.8010416052
 21
8256.6415379559
 31
0.0
  0
LINE
  5
173
330
136
100
AcDbEntity
  8
0
  6
Continuous
 62
   179
100
AcDbLine
 10
3487.8010416052
 20
8256.6415379559
 30
0.0
 11
3255.2826646592
 21
8278.7971759128
 31
0.0
  0
LINE
  5
174
330
136
100
AcDbEntity
  8
0
  6
Continuous
 62
   179
100
AcDbLine
 10
3255.2826646592
 20
8278.7971759128
 30
0.0
 11
3021.7939564
 21
8285.5640922951
 31
0.0
  0
LINE
  5
175
330
136
100
AcDbEntity
  8
0
  6
Continuous
 62
   179
100
AcDbLine
 10
3021.7939564
 20
8285.5640922951
 30
0.0
 11
2764.7286656624
 21
8276.8167344558
 31
0.0
  0
LINE
  5
176
330
136
100
AcDbEntity
  8
0
  6
Continuous
 62
   179
100
AcDbLine
 10
2764.7286656624
 20
8276.8167344558
 30
0.0
 11
2509.0566231212
 21
8248.8448730413
 31
0.0
  0
LINE
  5
177
330
136
100
AcDbEntity
  8
0
  6
Continuous
 62
   179
100
AcDbLine
 10
2509.0566231212
 20
8248.8448730413
 30
0.0
 11
2256.7624741697
 21
8198.9693632548
 31
0.0
  0
LINE
  5
178
330
136
100
AcDbEntity
  8
0
  6
Continuous
 62
   179
100
AcDbLine
 10
2256.7624741697
 20
8198.9693632548
 30
0.0
 11
2010.5862549102
 21
8124.6401609584
 31
0.0
  0
LINE
  5
179
330
136
100
AcDbEntity
  8
0
  6
Continuous
 62
   179
100
AcDbLine
 10
2010.5862549102
 20
8124.6401609584
 30
0.0
 11
1823.7042907144
 21
8047.7718170144
 31
0.0
  0
LINE
  5
17A
330
136
100
AcDbEntity
  8
0
  6
Continuous
 62
   179
100
AcDbLine
 10
1823.7042907144
 20
8047.7718170144
 30
0.0
 11
1644.6605427625
 21
7954.1022052786
 31
0.0
  0
LINE
  5
17B
330
136
100
AcDbEntity
  8
0
  6
Continuous
 62
   179
100
AcDbLine
 10
1644.6605427625
 20
7954.1022052786
 30
0.0
 11
1475.390327491
 21
7843.7545704421
 31
0.0
  0
LINE
  5
17C
330
136
100
AcDbEntity
  8
0
  6
Continuous
 62
   179
100
AcDbLine
 10
1475.390327491
 20
7843.7545704421
 30
0.0
 11
1317.6231711996
 21
7717.507163895
 31
0.0
  0
LINE
  5
17D
330
136
100
AcDbEntity
  8
0
  6
Continuous
 62
   179
100
AcDbLine
 10
1317.6231711996
 20
7717.507163895
 30
0.0
 11
1139.538084005
 21
7540.9583629978
 31
0.0
  0
LINE
  5
17E
330
136
100
AcDbEntity
  8
0
  6
Continuous
 62
   179
100
AcDbLine
 10
1139.538084005
 20
7540.9583629978
 30
0.0
 11
983.4661868123
 21
7344.6865403276
 31
0.0
  0
LINE
  5
17F
330
136
100
AcDbEntity
  8
0
  6
Continuous
 62
   179
100
AcDbLine
 10
983.4661868123
 20
7344.6865403276
 30
0.0
 11
851.5325681984
 21
7131.4315088069
 31
0.0
  0
LINE
  5
180
330
136
100
AcDbEntity
  8
0
  6
Continuous
 62
   179
100
AcDbLine
 10
851.5325681984
 20
7131.4315088069
 30
0.0
 11
744.4774564036
 21
6904.647070365
 31
0.0
  0
LINE
  5
181
330
136
100
AcDbEntity
  8
0
  6
Continuous
 62
   179
100
AcDbLine
 10
744.4774564036
 20
6904.647070365
 30
0.0
 11
658.3392621499
 21
6656.4327422403
 31
0.0
  0
LINE
  5
182
330
136
100
AcDbEntity
  8
0
  6
Continuous
 62
   179
100
AcDbLine
 10
658.3392621499
 20
6656.4327422403
 30
0.0
 11
596.9943576213
 21
6400.9335325463
 31
0.0
  0
LINE
  5
183
330
136
100
AcDbEntity
  8
0
  6
Continuous
 62
   179
100
AcDbLine
 10
596.9943576213
 20
6400.9335325463
 30
0.0
 11
557.9730775995
 21
6141.0651554946
 31
0.0
  0
LINE
  5
184
330
136
100
AcDbEntity
  8
0
  6
Continuous
 62
   179
100
AcDbLine
 10
557.9730775995
 20
6141.0651554946
 30
0.0
 11
538.0293793386
 21
5893.0807139359
 31
0.0
  0
LINE
  5
185
330
136
100
AcDbEntity
  8
0
  6
Continuous
 62
   179
100
AcDbLine
 10
538.0293793386
 20
5893.0807139359
 30
0.0
 11
537.9155556826
 21
5644.3161034396
 31
0.0
  0
LINE
  5
186
330
136
100
AcDbEntity
  8
0
  6
Continuous
 62
   179
100
AcDbLine
 10
537.9155556826
 20
5644.3161034396
 30
0.0
 11
561.0465619986
 21
5396.6565041751
 31
0.0
  0
LINE
  5
187
330
136
100
AcDbEntity
  8
0
  6
Continuous
 62
   179
100
AcDbLine
 10
561.0465619986
 20
5396.6565041751
 30
0.0
 11
610.8365836731
 21
5152.9862283491
 31
0.0
  0
LINE
  5
188
330
136
100
AcDbEntity
  8
0
  6
Continuous
 62
   179
100
AcDbLine
 10
610.8365836731
 20
5152.9862283491
 30
0.0
 11
670.4957765389
 21
4966.8752015955
 31
0.0
  0
LINE
  5
189
330
136
100
AcDbEntity
  8
0
  6
Continuous
 62
   179
100
AcDbLine
 10
670.4957765389
 20
4966.8752015955
 30
0.0
 11
749.0385092576
 21
4787.922755338
 31
0.0
  0
LINE
  5
18A
330
136
100
AcDbEntity
  8
0
  6
Continuous
 62
   179
100
AcDbLine
 10
749.0385092576
 20
4787.922755338
 30
0.0
 11
846.3298658912
 21
4618.4358151253
 31
0.0
  0
LINE
  5
18B
330
136
100
AcDbEntity
  8
0
  6
Continuous
 62
   179
100
AcDbLine
 10
846.3298658912
 20
4618.4358151253
 30
0.0
 11
961.3271095996
 21
4460.4233554942
 31
0.0
  0
LINE
  5
18C
330
136
100
AcDbEntity
  8
0
  6
Continuous
 62
   179
100
AcDbLine
 10
1593.2484263997
 20
3794.8892026942
 30
0.0
 11
2342.8146692
 21
3099.1034974946
 31
0.0
  0
LINE
  5
18D
330
136
100
AcDbEntity
  8
0
  6
Continuous
 62
   179
100
AcDbLine
 10
2342.8146692
 20
3099.1034974946
 30
0.0
 11
2457.4150864402
 21
2985.4804965343
 31
0.0
  0
LINE
  5
18E
330
136
100
AcDbEntity
  8
0
  6
Continuous
 62
   179
100
AcDbLine
 10
2457.4150864402
 20
2985.4804965343
 30
0.0
 11
2562.4777930784
 21
2863.0062246075
 31
0.0
  0
LINE
  5
18F
330
136
100
AcDbEntity
  8
0
  6
Continuous
 62
   179
100
AcDbLine
 10
2562.4777930784
 20
2863.0062246075
 30
0.0
 11
2654.9628244148
 21
2730.8077708033
 31
0.0
  0
LINE
  5
190
330
136
100
AcDbEntity
  8
0
  6
Continuous
 62
   179
100
AcDbLine
 10
2654.9628244148
 20
2730.8077708033
 30
0.0
 11
2730.9070108725
 21
2588.5028322591
 31
0.0
  0
LINE
  5
191
330
136
100
AcDbEntity
  8
0
  6
Continuous
 62
   179
100
AcDbLine
 10
2730.9070108725
 20
2588.5028322591
 30
0.0
 11
2787.6392767372
 21
2429.3959416825
 31
0.0
  0
LINE
  5
192
330
136
100
AcDbEntity
  8
0
  6
Continuous
 62
   179
100
AcDbLine
 10
2787.6392767372
 20
2429.3959416825
 30
0.0
 11
2816.0412804487
 21
2262.9265767885
 31
0.0
  0
LINE
  5
193
330
136
100
AcDbEntity
  8
0
  6
Continuous
 62
   179
100
AcDbLine
 10
2816.0412804487
 20
2262.9265767885
 30
0.0
 11
2813.3943732
 21
2094.0797010946
 31
0.0
  0
LINE
  5
194
330
136
100
AcDbEntity
  8
0
  6
Continuous
 62
   179
100
AcDbLine
 10
2171.3892056002
 20
1438.629399097
 30
0.0
 11
2081.3271648151
 21
1444.5220285234
 31
0.0
  0
LINE
  5
195
330
136
100
AcDbEntity
  8
0
  6
Continuous
 62
   179
100
AcDbLine
 10
2081.3271648151
 20
1444.5220285234
 30
0.0
 11
1993.3677378413
 21
1464.5260106363
 31
0.0
  0
LINE
  5
196
330
136
100
AcDbEntity
  8
0
  6
Continuous
 62
   179
100
AcDbLine
 10
1993.3677378413
 20
1464.5260106363
 30
0.0
 11
1911.3435803354
 21
1501.9115152047
 31
0.0
  0
LINE
  5
197
330
136
100
AcDbEntity
  8
0
  6
Continuous
 62
   179
100
AcDbLine
 10
1911.3435803354
 20
1501.9115152047
 30
0.0
 11
1840.5450992733
 21
1557.6494251181
 31
0.0
  0
LINE
  5
198
330
136
100
AcDbEntity
  8
0
  6
Continuous
 62
   179
100
AcDbLine
 10
1840.5450992733
 20
1557.6494251181
 30
0.0
 11
1785.0445168711
 21
1628.6751044787
 31
0.0
  0
LINE
  5
199
330
136
100
AcDbEntity
  8
0
  6
Continuous
 62
   179
100
AcDbLine
 10
1785.0445168711
 20
1628.6751044787
 30
0.0
 11
1745.2817682865
 21
1709.6405469696
 31
0.0
  0
LINE
  5
19A
330
136
100
AcDbEntity
  8
0
  6
Continuous
 62
   179
100
AcDbLine
 10
1745.2817682865
 20
1709.6405469696
 30
0.0
 11
1710.0353127013
 21
1840.2386565146
 31
0.0
  0
LINE
  5
19B
330
136
100
AcDbEntity
  8
0
  6
Continuous
 62
   179
100
AcDbLine
 10
1710.0353127013
 20
1840.2386565146
 30
0.0
 11
1696.0216688059
 21
1974.8977537186
 31
0.0
  0
LINE
  5
19C
330
136
100
AcDbEntity
  8
0
  6
Continuous
 62
   179
100
AcDbLine
 10
1696.0216688059
 20
1974.8977537186
 30
0.0
 11
1696.5924840549
 21
2110.3283975811
 31
0.0
  0
LINE
  5
19D
330
136
100
AcDbEntity
  8
0
  6
Continuous
 62
   179
100
AcDbLine
 10
1696.5924840549
 20
2110.3283975811
 30
0.0
 11
1707.5320688
 21
2245.3374630946
 31
0.0
  0
LINE
  5
19E
330
136
100
AcDbEntity
  8
0
  6
Continuous
 62
   179
100
AcDbLine
 10
1707.5320688
 20
2245.3374630946
 30
0.0
 11
1781.480308
 21
2897.4264814946
 31
0.0
  0
LINE
  5
19F
330
136
100
AcDbEntity
  8
0
  6
Continuous
 62
   179
100
AcDbLine
 10
1781.480308
 20
2897.4264814946
 30
0.0
 11
94.1159408
 21
2897.4264814946
 31
0.0
  0
LINE
  5
1A0
330
136
100
AcDbEntity
  8
0
  6
Continuous
 62
   179
100
AcDbLine
 10
94.1159408
 20
2897.4264814946
 30
0.0
 11
26.8902688
 21
2295.7567170946
 31
0.0
  0
LINE
  5
1A1
330
136
100
AcDbEntity
  8
0
  6
Continuous
 62
   179
100
AcDbLine
 10
26.8902688
 20
2295.7567170946
 30
0.0
 11
5.8201226117
 21
2068.3689705604
 31
0.0
  0
LINE
  5
1A2
330
136
100
AcDbEntity
  8
0
  6
Continuous
 62
   179
100
AcDbLine
 10
5.8201226117
 20
2068.3689705604
 30
0.0
 11
0.0
 21
1889.0414014946
 31
0.0
  0
LINE
  5
1A3
330
136
100
AcDbEntity
  8
0
  6
Continuous
 62
   179
100
AcDbLine
 10
0.0
 20
1889.0414014946
 30
0.0
 11
0.0
 21
1788.2028934946
 31
0.0
  0
LINE
  5
1A4
330
136
100
AcDbEntity
  8
0
  6
Continuous
 62
   179
100
AcDbLine
 10
0.0
 20
1788.2028934946
 30
0.0
 11
8.4741181851
 21
1597.5992610857
 31
0.0
  0
LINE
  5
1A5
330
136
100
AcDbEntity
  8
0
  6
Continuous
 62
   179
100
AcDbLine
 10
8.4741181851
 20
1597.5992610857
 30
0.0
 11
29.9475321698
 21
1408.0255515191
 31
0.0
  0
LINE
  5
1A6
330
136
100
AcDbEntity
  8
0
  6
Continuous
 62
   179
100
AcDbLine
 10
29.9475321698
 20
1408.0255515191
 30
0.0
 11
66.5196177454
 21
1220.7936775914
 31
0.0
  0
LINE
  5
1A7
330
136
100
AcDbEntity
  8
0
  6
Continuous
 62
   179
100
AcDbLine
 10
66.5196177454
 20
1220.7936775914
 30
0.0
 11
120.5660601196
 21
1037.8592313249
 31
0.0
  0
LINE
  5
1A8
330
136
100
AcDbEntity
  8
0
  6
Continuous
 62
   179
100
AcDbLine
 10
120.5660601196
 20
1037.8592313249
 30
0.0
 11
194.3311383855
 21
861.9730900702
 31
0.0
  0
LINE
  5
1A9
330
136
100
AcDbEntity
  8
0
  6
Continuous
 62
   179
100
AcDbLine
 10
194.3311383855
 20
861.9730900702
 30
0.0
 11
287.5295606573
 21
699.5021482411
 31
0.0
  0
LINE
  5
1AA
330
136
100
AcDbEntity
  8
0
  6
Continuous
 62
   179
100
AcDbLine
 10
287.5295606573
 20
699.5021482411
 30
0.0
 11
401.5974373649
 21
550.9580491856
 31
0.0
  0
LINE
  5
1AB
330
136
100
AcDbEntity
  8
0
  6
Continuous
 62
   179
100
AcDbLine
 10
401.5974373649
 20
550.9580491856
 30
0.0
 11
535.1901037299
 21
419.6995230367
 31
0.0
  0
LINE
  5
1AC
330
136
100
AcDbEntity
  8
0
  6
Continuous
 62
   179
100
AcDbLine
 10
535.1901037299
 20
419.6995230367
 30
0.0
 11
685.4525519751
 21
307.8901613371
 31
0.0
  0
LINE
  5
1AD
330
136
100
AcDbEntity
  8
0
  6
Continuous
 62
   179
100
AcDbLine
 10
685.4525519751
 20
307.8901613371
 30
0.0
 11
880.9909831936
 21
200.7980430706
 31
0.0
  0
LINE
  5
1AE
330
136
100
AcDbEntity
  8
0
  6
Continuous
 62
   179
100
AcDbLine
 10
880.9909831936
 20
200.7980430706
 30
0.0
 11
1088.9648544967
 21
120.3523112471
 31
0.0
  0
LINE
  5
1AF
330
136
100
AcDbEntity
  8
0
  6
Continuous
 62
   179
100
AcDbLine
 10
1088.9648544967
 20
120.3523112471
 30
0.0
 11
1304.5983771836
 21
63.4027511638
 31
0.0
  0
LINE
  5
1B0
330
136
100
AcDbEntity
  8
0
  6
Continuous
 62
   179
100
AcDbLine
 10
1304.5983771836
 20
63.4027511638
 30
0.0
 11
1524.5667113278
 21
26.4353113751
 31
0.0
  0
LINE
  5
1B1
330
136
100
AcDbEntity
  8
0
  6
Continuous
 62
   179
100
AcDbLine
 10
1524.5667113278
 20
26.4353113751
 30
0.0
 11
1746.7181907984
 21
6.2021311101
 31
0.0
  0
LINE
  5
1B2
330
136
100
AcDbEntity
  8
0
  6
Continuous
 62
   179
100
AcDbLine
 10
1746.7181907984
 20
6.2021311101
 30
0.0
 11
1969.7121896
 21
0.0000182946
 31
0.0
  0
LINE
  5
1B3
330
136
100
AcDbEntity
  8
0
  6
Continuous
 62
   179
100
AcDbLine
 10
1969.7121896
 20
0.0000182946
 30
0.0
 11
2235.4163107967
 21
9.0474941519
 31
0.0
  0
LINE
  5
1B4
330
136
100
AcDbEntity
  8
0
  6
Continuous
 62
   179
100
AcDbLine
 10
2235.4163107967
 20
9.0474941519
 30
0.0
 11
2499.6874650753
 21
37.9033605802
 31
0.0
  0
LINE
  5
1B5
330
136
100
AcDbEntity
  8
0
  6
Continuous
 62
   179
100
AcDbLine
 10
2499.6874650753
 20
37.9033605802
 30
0.0
 11
2760.5117042792
 21
89.204615755
 31
0.0
  0
LINE
  5
1B6
330
136
100
AcDbEntity
  8
0
  6
Continuous
 62
   179
100
AcDbLine
 10
2760.5117042792
 20
89.204615755
 30
0.0
 11
3015.1415277313
 21
165.4438899665
 31
0.0
  0
LINE
  5
1B7
330
136
100
AcDbEntity
  8
0
  6
Continuous
 62
   179
100
AcDbLine
 10
3015.1415277313
 20
165.4438899665
 30
0.0
 11
3208.6236023082
 21
244.1201341123
 31
0.0
  0
LINE
  5
1B8
330
136
100
AcDbEntity
  8
0
  6
Continuous
 62
   179
100
AcDbLine
 10
3208.6236023082
 20
244.1201341123
 30
0.0
 11
3394.246790929
 21
339.8610540042
 31
0.0
  0
LINE
  5
1B9
330
136
100
AcDbEntity
  8
0
  6
Continuous
 62
   179
100
AcDbLine
 10
3394.246790929
 20
339.8610540042
 30
0.0
 11
3570.08287903
 21
452.5651803685
 31
0.0
  0
LINE
  5
1BA
330
136
100
AcDbEntity
  8
0
  6
Continuous
 62
   179
100
AcDbLine
 10
3570.08287903
 20
452.5651803685
 30
0.0
 11
3734.3860796
 21
581.5020810946
 31
0.0
  0
LINE
  5
1BB
330
136
100
AcDbEntity
  8
0
  6
Continuous
 62
   179
100
AcDbLine
 10
3734.3860796
 20
581.5020810946
 30
0.0
 11
3918.9619613187
 21
762.6068684982
 31
0.0
  0
LINE
  5
1BC
330
136
100
AcDbEntity
  8
0
  6
Continuous
 62
   179
100
AcDbLine
 10
3918.9619613187
 20
762.6068684982
 30
0.0
 11
4080.6115034165
 21
964.4332031658
 31
0.0
  0
LINE
  5
1BD
330
136
100
AcDbEntity
  8
0
  6
Continuous
 62
   179
100
AcDbLine
 10
4080.6115034165
 20
964.4332031658
 30
0.0
 11
4217.129324297
 21
1184.0491590435
 31
0.0
  0
LINE
  5
1BE
330
136
100
AcDbEntity
  8
0
  6
Continuous
 62
   179
100
AcDbLine
 10
4217.129324297
 20
1184.0491590435
 30
0.0
 11
4327.807798901
 21
1417.7744861233
 31
0.0
  0
LINE
  5
1BF
330
136
100
AcDbEntity
  8
0
  6
Continuous
 62
   179
100
AcDbLine
 10
4327.807798901
 20
1417.7744861233
 30
0.0
 11
4416.8403522579
 21
1673.6616360853
 31
0.0
  0
LINE
  5
1C0
330
136
100
AcDbEntity
  8
0
  6
Continuous
 62
   179
100
AcDbLine
 10
4416.8403522579
 20
1673.6616360853
 30
0.0
 11
4480.332478423
 21
1937.0776350384
 31
0.0
  0
LINE
  5
1C1
330
136
100
AcDbEntity
  8
0
  6
Continuous
 62
   179
100
AcDbLine
 10
4480.332478423
 20
1937.0776350384
 30
0.0
 11
4520.926442
 21
2205.0020598946
 31
0.0
  0
LINE
  5
1C2
330
136
100
AcDbEntity
  8
0
  6
Continuous
 62
   179
100
AcDbLine
 10
4520.926442
 20
2205.0020598946
 30
0.0
 11
4539.8604791128
 21
2434.751251137
 31
0.0
  0
LINE
  5
1C3
330
136
100
AcDbEntity
  8
0
  6
Continuous
 62
   179
100
AcDbLine
 10
4539.8604791128
 20
2434.751251137
 30
0.0
 11
4542.0136171636
 21
2665.2555763504
 31
0.0
  0
LINE
  5
1C4
330
136
100
AcDbEntity
  8
0
  6
Continuous
 62
   179
100
AcDbLine
 10
4542.0136171636
 20
2665.2555763504
 30
0.0
 11
4524.9874932226
 21
2895.1234497405
 31
0.0
  0
LINE
  5
1C5
330
136
100
AcDbEntity
  8
0
  6
Continuous
 62
   179
100
AcDbLine
 10
4524.9874932226
 20
2895.1234497405
 30
0.0
 11
4496.6310776622
 21
3074.0098021703
 31
0.0
  0
LINE
  5
1C6
330
136
100
AcDbEntity
  8
0
  6
Continuous
 62
   179
100
AcDbLine
 10
4496.6310776622
 20
3074.0098021703
 30
0.0
 11
4454.0379981851
 21
3250.0430485054
 31
0.0
  0
LINE
  5
1C7
330
136
100
AcDbEntity
  8
0
  6
Continuous
 62
   179
100
AcDbLine
 10
4454.0379981851
 20
3250.0430485054
 30
0.0
 11
4396.5589488
 21
3421.7867230946
 31
0.0
  0
LINE
  5
1C8
330
136
100
AcDbEntity
  8
0
  6
Continuous
 62
   179
100
AcDbLine
 10
4396.5589488
 20
3421.7867230946
 30
0.0
 11
4335.0775798529
 21
3551.3591107413
 31
0.0
  0
LINE
  5
1C9
330
136
100
AcDbEntity
  8
0
  6
Continuous
 62
   179
100
AcDbLine
 10
4335.0775798529
 20
3551.3591107413
 30
0.0
 11
4262.2002057756
 21
3674.9188547719
 31
0.0
  0
LINE
  5
1CA
330
136
100
AcDbEntity
  8
0
  6
Continuous
 62
   179
100
AcDbLine
 10
4262.2002057756
 20
3674.9188547719
 30
0.0
 11
4181.3183894369
 21
3793.4113089372
 31
0.0
  0
LINE
  5
1CB
330
136
100
AcDbEntity
  8
0
  6
Continuous
 62
   179
100
AcDbLine
 10
4181.3183894369
 20
3793.4113089372
 30
0.0
 11
4078.5227471571
 21
3927.6643628842
 31
0.0
  0
LINE
  5
1CC
330
136
100
AcDbEntity
  8
0
  6
Continuous
 62
   179
100
AcDbLine
 10
4078.5227471571
 20
3927.6643628842
 30
0.0
 11
3969.6759316
 21
4057.0693234946
 31
0.0
  0
LINE
  5
1CD
330
136
100
AcDbEntity
  8
0
  6
Continuous
 62
   179
100
AcDbLine
 10
3969.6759316
 20
4057.0693234946
 30
0.0
 11
3243.638674
 21
4803.2742826946
 31
0.0
  0
LINE
  5
1CE
330
136
100
AcDbEntity
  8
0
  6
Continuous
 62
   179
100
AcDbLine
 10
2467.1821623981
 20
5616.7049138995
 30
0.0
 11
2391.5759134121
 21
5727.7039441288
 31
0.0
  0
LINE
  5
1CF
330
136
100
AcDbEntity
  8
0
  6
Continuous
 62
   179
100
AcDbLine
 10
2391.5759134121
 20
5727.7039441288
 30
0.0
 11
2326.9023872324
 21
5845.3828817498
 31
0.0
  0
LINE
  5
1D0
330
136
100
AcDbEntity
  8
0
  6
Continuous
 62
   179
100
AcDbLine
 10
2326.9023872324
 20
5845.3828817498
 30
0.0
 11
2276.7855321171
 21
5969.9206549293
 31
0.0
  0
LINE
  5
1D1
330
136
100
AcDbEntity
  8
0
  6
Continuous
 62
   179
100
AcDbLine
 10
2276.7855321171
 20
5969.9206549293
 30
0.0
 11
2250.5432565423
 21
6072.0904771882
 31
0.0
  0
LINE
  5
1D2
330
136
100
AcDbEntity
  8
0
  6
Continuous
 62
   179
100
AcDbLine
 10
2250.5432565423
 20
6072.0904771882
 30
0.0
 11
2238.3532498759
 21
6176.8496579539
 31
0.0
  0
LINE
  5
1D3
330
136
100
AcDbEntity
  8
0
  6
Continuous
 62
   179
100
AcDbLine
 10
2238.3532498759
 20
6176.8496579539
 30
0.0
 11
2241.9761612
 21
6282.2390666946
 31
0.0
  0
LINE
  5
1D4
330
136
100
AcDbEntity
  8
0
  6
Continuous
 62
   179
100
AcDbLine
 10
2813.394373201
 20
6877.1862638961
 30
0.0
 11
2899.1450330725
 21
6871.9159884789
 31
0.0
  0
LINE
  5
1D5
330
136
100
AcDbEntity
  8
0
  6
Continuous
 62
   179
100
AcDbLine
 10
2899.1450330725
 20
6871.9159884789
 30
0.0
 11
2983.1458702521
 21
6854.0846279821
 31
0.0
  0
LINE
  5
1D6
330
136
100
AcDbEntity
  8
0
  6
Continuous
 62
   179
100
AcDbLine
 10
2983.1458702521
 20
6854.0846279821
 30
0.0
 11
3062.202014936
 21
6820.6931120196
 31
0.0
  0
LINE
  5
1D7
330
136
100
AcDbEntity
  8
0
  6
Continuous
 62
   179
100
AcDbLine
 10
3062.202014936
 20
6820.6931120196
 30
0.0
 11
3131.6623634801
 21
6770.3629356214
 31
0.0
  0
LINE
  5
1D8
330
136
100
AcDbEntity
  8
0
  6
Continuous
 62
   179
100
AcDbLine
 10
3131.6623634801
 20
6770.3629356214
 30
0.0
 11
3187.37124796
 21
6705.1184696235
 31
0.0
  0
LINE
  5
1D9
330
136
100
AcDbEntity
  8
0
  6
Continuous
 62
   179
100
AcDbLine
 10
3187.37124796
 20
6705.1184696235
 30
0.0
 11
3228.1274776793
 21
6629.5646068072
 31
0.0
  0
LINE
  5
1DA
330
136
100
AcDbEntity
  8
0
  6
Continuous
 62
   179
100
AcDbLine
 10
3228.1274776793
 20
6629.5646068072
 30
0.0
 11
3265.0334180049
 21
6506.2441361359
 31
0.0
  0
LINE
  5
1DB
330
136
100
AcDbEntity
  8
0
  6
Continuous
 62
   179
100
AcDbLine
 10
3265.0334180049
 20
6506.2441361359
 30
0.0
 11
3280.3602104272
 21
6378.3104742822
 31
0.0
  0
LINE
  5
1DC
330
136
100
AcDbEntity
  8
0
  6
Continuous
 62
   179
100
AcDbLine
 10
3280.3602104272
 20
6378.3104742822
 30
0.0
 11
3280.7520241623
 21
6249.4122034737
 31
0.0
  0
LINE
  5
1DD
330
136
100
AcDbEntity
  8
0
  6
Continuous
 62
   179
100
AcDbLine
 10
3280.7520241623
 20
6249.4122034737
 30
0.0
 11
3270.5289428
 21
6120.8974538946
 31
0.0
  0
LINE
  5
1DE
330
136
100
AcDbEntity
  8
0
  6
Continuous
 62
   179
100
AcDbLine
 10
3270.5289428
 20
6120.8974538946
 30
0.0
 11
3206.6645544
 21
5566.2856598946
 31
0.0
  0
LINE
  5
1DF
330
136
100
AcDbEntity
  8
0
  6
Continuous
 62
   179
100
AcDbLine
 10
3206.6645544
 20
5566.2856598946
 30
0.0
 11
4820.0806824005
 21
5566.2856598945
 31
0.0
  0
LINE
  5
1E0
330
136
100
AcDbEntity
  8
0
  6
Continuous
 62
   179
100
AcDbLine
 10
4820.0806824005
 20
5566.2856598945
 30
0.0
 11
4894.0289216005
 21
6231.8198126945
 31
0.0
  0
LINE
  5
1E1
330
136
100
AcDbEntity
  8
0
  6
Continuous
 62
   179
100
AcDbLine
 10
4894.0289216005
 20
6231.8198126945
 30
0.0
 11
4907.4740560005
 21
6366.2711566946
 31
0.0
  0
LINE
  5
1E2
330
136
100
AcDbEntity
  8
0
  6
Continuous
 62
   179
100
AcDbLine
 10
4907.4740560005
 20
6366.2711566946
 30
0.0
 11
4917.4861623745
 21
6641.1377165616
 31
0.0
  0
LINE
  5
1E3
330
136
100
AcDbEntity
  8
0
  6
Continuous
 62
   179
100
AcDbLine
 10
4917.4861623745
 20
6641.1377165616
 30
0.0
 11
4907.4740560005
 21
6857.0185622947
 31
0.0
  0
LINE
  5
1E4
330
136
100
AcDbEntity
  8
0
  6
Continuous
 62
   179
100
AcDbLine
 10
24964.5491205926
 20
0.0000125144
 30
0.0
 11
26583.7619200447
 21
0.0000125144
 31
0.0
  0
LINE
  5
1E5
330
136
100
AcDbEntity
  8
0
  6
Continuous
 62
   179
100
AcDbLine
 10
24964.5491205926
 20
1424.0948297115
 30
0.0
 11
24964.5491205926
 21
0.0000125144
 31
0.0
  0
LINE
  5
1E6
330
136
100
AcDbEntity
  8
0
  6
Continuous
 62
   179
100
AcDbLine
 10
25016.6135325926
 20
7008.8707569115
 30
0.0
 11
24971.491042193
 21
3444.1940153109
 31
0.0
  0
LINE
  5
1E7
330
136
100
AcDbEntity
  8
0
  6
Continuous
 62
   179
100
AcDbLine
 10
24180.1119797926
 20
3343.5361521115
 30
0.0
 11
25016.6135325926
 21
7008.8707569115
 31
0.0
  0
LINE
  5
1E8
330
136
100
AcDbEntity
  8
0
  6
Continuous
 62
   179
100
AcDbLine
 10
23399.1457997926
 20
0.0000125144
 30
0.0
 11
23791.3643701938
 21
1694.8297721102
 31
0.0
  0
LINE
  5
1E9
330
136
100
AcDbEntity
  8
0
  6
Continuous
 62
   179
100
AcDbLine
 10
21618.5429093926
 20
0.0000125144
 30
0.0
 11
23399.1457997926
 21
0.0000125144
 31
0.0
  0
LINE
  5
1EA
330
136
100
AcDbEntity
  8
0
  6
Continuous
 62
   179
100
AcDbLine
 10
23986.756270993
 20
8289.6552921115
 30
0.0
 11
21618.5429093926
 21
0.0000125144
 31
0.0
  0
LINE
  5
1EB
330
136
100
AcDbEntity
  8
0
  6
Continuous
 62
   179
100
AcDbLine
 10
26353.951536593
 20
8289.6552921115
 30
0.0
 11
23986.756270993
 21
8289.6552921115
 31
0.0
  0
LINE
  5
1EC
330
136
100
AcDbEntity
  8
0
  6
Continuous
 62
   179
100
AcDbLine
 10
26583.7619200447
 20
0.0000125144
 30
0.0
 11
26353.951536593
 21
8289.6552921115
 31
0.0
  0
ENDBLK
  5
138
330
136
100
AcDbEntity
  8
0
100
AcDbBlockEnd
  0
BLOCK
  5
1EE
330
1ED
100
AcDbEntity
  8
0
100
AcDbBlockBegin
  2
Projekciju vaizdavimas_2
 70
     0
 10
0.0
 20
0.0
 30
0.0
  3
Projekciju vaizdavimas_2
  1

  0
CIRCLE
  5
1F0
330
1ED
100
AcDbEntity
  8
0
  6
Continuous
 62
     7
370
    30
100
AcDbCircle
 10
0.0
 20
0.0
 30
0.0
 40
3.5
  0
CIRCLE
  5
1F1
330
1ED
100
AcDbEntity
  8
0
  6
Continuous
 62
     7
370
    30
100
AcDbCircle
 10
0.0
 20
0.0
 30
0.0
 40
1.5
  0
LINE
  5
1F2
330
1ED
100
AcDbEntity
  8
0
  6
CENTERX2
 62
     7
370
     0
100
AcDbLine
 10
4.5
 20
0.0
 30
0.0
 11
-14.5
 21
0.0
 31
0.0
  0
LINE
  5
1F3
330
1ED
100
AcDbEntity
  8
0
  6
Continuous
 62
     7
370
    30
100
AcDbLine
 10
-13.5
 20
1.5
 30
0.0
 11
-13.5
 21
-1.5
 31
0.0
  0
LINE
  5
1F4
330
1ED
100
AcDbEntity
  8
0
  6
Continuous
 62
     7
370
    30
100
AcDbLine
 10
-13.5
 20
-1.5
 30
0.0
 11
-6.5
 21
-3.5
 31
0.0
  0
LINE
  5
1F5
330
1ED
100
AcDbEntity
  8
0
  6
Continuous
 62
     7
370
    30
100
AcDbLine
 10
-6.5
 20
-3.5
 30
0.0
 11
-6.5
 21
3.5
 31
0.0
  0
LINE
  5
1F6
330
1ED
100
AcDbEntity
  8
0
  6
Continuous
 62
     7
370
    30
100
AcDbLine
 10
-6.5
 20
3.5
 30
0.0
 11
-13.5
 21
1.5
 31
0.0
  0
LINE
  5
1F7
330
1ED
100
AcDbEntity
  8
0
  6
CENTERX2
 62
     7
370
     0
100
AcDbLine
 10
0.0
 20
4.5
 30
0.0
 11
0.0
 21
-4.5
 31
0.0
  0
ENDBLK
  5
1EF
330
1ED
100
AcDbEntity
  8
0
100
AcDbBlockEnd
  0
BLOCK
  5
1F9
330
1F8
100
AcDbEntity
  8
0
100
AcDbBlockBegin
  2
Block4
 70
     0
 10
0.0
 20
0.0
 30
0.0
  3
Block4
  1

  0
ARC
  5
1FB
330
1F8
100
AcDbEntity
  8
0
  6
Continuous
 62
   179
100
AcDbCircle
 10
7867.6649029635
 20
2430.1355419087
 30
0.0
 40
931.6078627493895
100
AcDbArc
 50
232.1189098069
 51
101.3462704492
  0
ARC
  5
1FC
330
1F8
100
AcDbEntity
  8
0
  6
Continuous
 62
   179
100
AcDbCircle
 10
7943.5514462269
 20
2435.9613946537
 30
0.0
 40
1140.079096555486
100
AcDbArc
 50
297.434182935
 51
62.17203318890002
  0
ARC
  5
1FD
330
1F8
100
AcDbEntity
  8
0
  6
Continuous
 62
   179
100
AcDbCircle
 10
20001.4103066854
 20
6936.2583481763
 30
0.0
 40
1270.831290716854
100
AcDbArc
 50
3.4391112699
 51
76.4197578922
  0
ARC
  5
1FE
330
1F8
100
AcDbEntity
  8
0
  6
Continuous
 62
   179
100
AcDbCircle
 10
19239.4822949422
 20
3782.0667000728
 30
0.0
 40
4515.74411667143
100
AcDbArc
 50
76.4197578923
 51
91.6754644339
  0
ARC
  5
1FF
330
1F8
100
AcDbEntity
  8
0
  6
Continuous
 62
   179
100
AcDbCircle
 10
18683.9539720184
 20
2160.1911622497
 30
0.0
 40
2139.476369555804
100
AcDbArc
 50
270.3210228954001
 51
307.7127911617
  0
ARC
  5
200
330
1F8
100
AcDbEntity
  8
0
  6
Continuous
 62
   179
100
AcDbCircle
 10
18746.0422061702
 20
1962.8216117468
 30
0.0
 40
1946.678009873842
100
AcDbArc
 50
309.8210667380999
 51
331.7017265911999
  0
ARC
  5
201
330
1F8
100
AcDbEntity
  8
0
  6
Continuous
 62
   179
100
AcDbCircle
 10
17863.1917469523
 20
2438.1532894658
 30
0.0
 40
2949.35698999881
100
AcDbArc
 50
331.7017265911999
 51
356.0927915539
  0
ARC
  5
202
330
1F8
100
AcDbEntity
  8
0
  6
Continuous
 62
   179
100
AcDbCircle
 10
16755.7856245826
 20
6709.226497343
 30
0.0
 40
4524.342739831098
100
AcDbArc
 50
353.5830630921
 51
3.8434115591
  0
ARC
  5
203
330
1F8
100
AcDbEntity
  8
0
  6
Continuous
 62
   179
100
AcDbCircle
 10
19039.3213693035
 20
6348.9928357667
 30
0.0
 40
506.1072723730909
100
AcDbArc
 50
52.45518083769999
 51
82.2716960779
  0
ARC
  5
204
330
1F8
100
AcDbEntity
  8
0
  6
Continuous
 62
   179
100
AcDbCircle
 10
19108.0528552878
 20
6495.6270812425
 30
0.0
 40
349.7025539282703
100
AcDbArc
 50
10.4012874263
 51
46.7340603611
  0
ARC
  5
205
330
1F8
100
AcDbEntity
  8
0
  6
Continuous
 62
   179
100
AcDbCircle
 10
17417.0070420698
 20
6262.2496105517
 30
0.0
 40
2056.490362340239
100
AcDbArc
 50
355.475249592
 51
8.290034904
  0
ARC
  5
206
330
1F8
100
AcDbEntity
  8
0
  6
Continuous
 62
   179
100
AcDbCircle
 10
16921.0810184775
 20
2478.8840573259
 30
0.0
 40
2122.330793892779
100
AcDbArc
 50
339.2065439429
 51
352.3366543813
  0
ARC
  5
207
330
1F8
100
AcDbEntity
  8
0
  6
Continuous
 62
   179
100
AcDbCircle
 10
18500.143747488
 20
1898.8589115903
 30
0.0
 40
440.5904503964751
100
AcDbArc
 50
293.838270217
 51
336.8232513296001
  0
ARC
  5
208
330
1F8
100
AcDbEntity
  8
0
  6
Continuous
 62
   179
100
AcDbCircle
 10
18201.1477532386
 20
2813.3138324813
 30
0.0
 40
1401.173285533761
100
AcDbArc
 50
267.1686990927
 51
289.9057704419
  0
ARC
  5
209
330
1F8
100
AcDbEntity
  8
0
  6
Continuous
 62
   179
100
AcDbCircle
 10
18751.2701169541
 20
4514.9970927066
 30
0.0
 40
2362.499275286643
100
AcDbArc
 50
81.3304997955
 51
90.0
  0
ARC
  5
20A
330
1F8
100
AcDbEntity
  8
0
  6
Continuous
 62
   179
100
AcDbCircle
 10
6720.6044375296
 20
9296.0579653158
 30
0.0
 40
7520.148763137153
100
AcDbArc
 50
220.017667739
 51
227.0143029097
  0
ARC
  5
20B
330
1F8
100
AcDbEntity
  8
0
  6
Continuous
 62
   179
100
AcDbCircle
 10
2021.3892535935
 20
2163.6755564521
 30
0.0
 40
795.0570373035339
100
AcDbArc
 50
316.8708555891
 51
354.9781479006
  0
ARC
  5
20C
330
1F8
100
AcDbEntity
  8
0
  6
Continuous
 62
   179
100
AcDbCircle
 10
2182.9124170468
 20
2011.9889486322
 30
0.0
 40
573.4753329004777
100
AcDbArc
 50
268.8486412909
 51
316.8986890901
  0
ARC
  5
20D
330
1F8
100
AcDbEntity
  8
0
  6
Continuous
 62
   179
100
AcDbCircle
 10
10525.696072633
 20
12531.6259047731
 30
0.0
 40
10618.65239809051
100
AcDbArc
 50
220.6325257886
 51
226.7030345034
  0
ARC
  5
20E
330
1F8
100
AcDbEntity
  8
0
  6
Continuous
 62
   179
100
AcDbCircle
 10
2962.700769446
 20
6223.5867799529
 30
0.0
 40
723.1072200381735
100
AcDbArc
 50
137.8203941731
 51
175.3475443105
  0
ARC
  5
20F
330
1F8
100
AcDbEntity
  8
0
  6
Continuous
 62
   179
100
AcDbCircle
 10
2808.3239355685
 20
6360.2864243508
 30
0.0
 40
516.9247077280753
100
AcDbArc
 50
89.4379852016
 51
137.5591461504
  0
ARC
  5
210
330
1F8
100
AcDbEntity
  8
0
  6
Continuous
 62
   179
100
AcDbCircle
 10
24439.2811878643
 20
2435.9613946539
 30
0.0
 40
1140.079096554877
100
AcDbArc
 50
297.4341829348999
 51
62.17203318890002
  0
ARC
  5
211
330
1F8
100
AcDbEntity
  8
0
  6
Continuous
 62
   179
100
AcDbCircle
 10
24363.3946446009
 20
2430.1355419089
 30
0.0
 40
931.6078627500976
100
AcDbArc
 50
232.118909807
 51
101.3462704493
  0
LINE
  5
212
330
1F8
100
AcDbEntity
  8
0
  6
Continuous
 62
   179
100
AcDbLine
 10
10088.0321784074
 20
0.0000125144
 30
0.0
 11
9858.2217949557
 21
8289.6552921115
 31
0.0
  0
LINE
  5
213
330
1F8
100
AcDbEntity
  8
0
  6
Continuous
 62
   179
100
AcDbLine
 10
9858.2217949557
 20
8289.6552921115
 30
0.0
 11
7491.0265293557
 21
8289.6552921115
 31
0.0
  0
LINE
  5
214
330
1F8
100
AcDbEntity
  8
0
  6
Continuous
 62
   179
100
AcDbLine
 10
7491.0265293557
 20
8289.6552921115
 30
0.0
 11
5122.8131677553
 21
0.0000125144
 31
0.0
  0
LINE
  5
215
330
1F8
100
AcDbEntity
  8
0
  6
Continuous
 62
   179
100
AcDbLine
 10
5122.8131677553
 20
0.0000125144
 30
0.0
 11
6903.4160581553
 21
0.0000125144
 31
0.0
  0
LINE
  5
216
330
1F8
100
AcDbEntity
  8
0
  6
Continuous
 62
   179
100
AcDbLine
 10
6903.4160581553
 20
0.0000125144
 30
0.0
 11
7295.6346285553
 21
1694.8297721115
 31
0.0
  0
LINE
  5
217
330
1F8
100
AcDbEntity
  8
0
  6
Continuous
 62
   179
100
AcDbLine
 10
7684.3822381561
 20
3343.5361521108
 30
0.0
 11
8520.8837909553
 21
7008.8707569115
 31
0.0
  0
LINE
  5
218
330
1F8
100
AcDbEntity
  8
0
  6
Continuous
 62
   179
100
AcDbLine
 10
8520.8837909553
 20
7008.8707569115
 30
0.0
 11
8475.7613005553
 21
3444.1940153115
 31
0.0
  0
LINE
  5
219
330
1F8
100
AcDbEntity
  8
0
  6
Continuous
 62
   179
100
AcDbLine
 10
8468.8193789565
 20
1424.0948297112
 30
0.0
 11
8468.8193789565
 21
0.0000125144
 31
0.0
  0
LINE
  5
21A
330
1F8
100
AcDbEntity
  8
0
  6
Continuous
 62
   179
100
AcDbLine
 10
8468.8193789565
 20
0.0000125144
 30
0.0
 11
10088.0321784074
 21
0.0000125144
 31
0.0
  0
LINE
  5
21B
330
1F8
100
AcDbEntity
  8
0
  6
Continuous
 62
   179
100
AcDbLine
 10
19107.4500497519
 20
8295.8802112275
 30
0.0
 11
16935.7898769541
 21
8295.8802112275
 31
0.0
  0
LINE
  5
21C
330
1F8
100
AcDbEntity
  8
0
  6
Continuous
 62
   179
100
AcDbLine
 10
16935.7898769541
 20
8295.8802112275
 30
0.0
 11
15991.7401521541
 21
0.0000288275
 31
0.0
  0
LINE
  5
21D
330
1F8
100
AcDbEntity
  8
0
  6
Continuous
 62
   179
100
AcDbLine
 10
15991.7401521541
 20
0.0000288275
 30
0.0
 11
17855.6331985541
 21
0.0000288275
 31
0.0
  0
LINE
  5
21E
330
1F8
100
AcDbEntity
  8
0
  6
Continuous
 62
   179
100
AcDbLine
 10
17855.6331985541
 20
0.0000288275
 30
0.0
 11
18695.9411953541
 21
20.7483744275
 31
0.0
  0
LINE
  5
21F
330
1F8
100
AcDbEntity
  8
0
  6
Continuous
 62
   179
100
AcDbLine
 10
20805.6935873772
 20
2237.1817154785
 30
0.0
 11
21251.7830177772
 21
6203.5737826763
 31
0.0
  0
LINE
  5
220
330
1F8
100
AcDbEntity
  8
0
  6
Continuous
 62
   179
100
AcDbLine
 10
19024.4566673541
 20
2195.8666048275
 30
0.0
 11
19467.0880401544
 21
6100.0136352237
 31
0.0
  0
LINE
  5
221
330
1F8
100
AcDbEntity
  8
0
  6
Continuous
 62
   179
100
AcDbLine
 10
17907.5040625541
 20
1417.8036448275
 30
0.0
 11
18131.936218492
 21
1413.8509571068
 31
0.0
  0
LINE
  5
222
330
1F8
100
AcDbEntity
  8
0
  6
Continuous
 62
   179
100
AcDbLine
 10
18529.9544305541
 20
6877.4963679933
 30
0.0
 11
17907.5040625541
 21
1417.8036448275
 31
0.0
  0
LINE
  5
223
330
1F8
100
AcDbEntity
  8
0
  6
Continuous
 62
   179
100
AcDbLine
 10
18751.2701169541
 20
6877.4963679933
 30
0.0
 11
18529.9544305541
 21
6877.4963679933
 31
0.0
  0
LINE
  5
224
330
1F8
100
AcDbEntity
  8
0
  6
Continuous
 62
   179
100
AcDbLine
 10
11134.6446741053
 20
0.0
 30
0.0
 11
14807.1018453053
 21
0.0
 31
0.0
  0
LINE
  5
225
330
1F8
100
AcDbEntity
  8
0
  6
Continuous
 62
   179
100
AcDbLine
 10
14807.1018453053
 20
0.0
 30
0.0
 11
14990.3788981053
 21
1625.287072
 31
0.0
  0
LINE
  5
226
330
1F8
100
AcDbEntity
  8
0
  6
Continuous
 62
   179
100
AcDbLine
 10
14990.3788981053
 20
1625.287072
 30
0.0
 11
13071.1569301053
 21
1625.287072
 31
0.0
  0
LINE
  5
227
330
1F8
100
AcDbEntity
  8
0
  6
Continuous
 62
   179
100
AcDbLine
 10
13071.1569301053
 20
1625.287072
 30
0.0
 11
13828.4715445053
 21
8295.8801824
 31
0.0
  0
LINE
  5
228
330
1F8
100
AcDbEntity
  8
0
  6
Continuous
 62
   179
100
AcDbLine
 10
13828.4715445053
 20
8295.8801824
 30
0.0
 11
12075.2363413053
 21
8295.8801824
 31
0.0
  0
LINE
  5
229
330
1F8
100
AcDbEntity
  8
0
  6
Continuous
 62
   179
100
AcDbLine
 10
12075.2363413053
 20
8295.8801824
 30
0.0
 11
11134.6446741053
 21
0.0
 31
0.0
  0
LINE
  5
22A
330
1F8
100
AcDbEntity
  8
0
  6
Continuous
 62
   179
100
AcDbLine
 10
4907.4740560005
 20
6857.0185622947
 30
0.0
 11
4882.7391856278
 21
7041.1497513646
 31
0.0
  0
LINE
  5
22B
330
1F8
100
AcDbEntity
  8
0
  6
Continuous
 62
   179
100
AcDbLine
 10
4882.7391856278
 20
7041.1497513646
 30
0.0
 11
4840.84097804
 21
7222.1279289072
 31
0.0
  0
LINE
  5
22C
330
1F8
100
AcDbEntity
  8
0
  6
Continuous
 62
   179
100
AcDbLine
 10
4840.84097804
 20
7222.1279289072
 30
0.0
 11
4779.230404759
 21
7397.3516386623
 31
0.0
  0
LINE
  5
22D
330
1F8
100
AcDbEntity
  8
0
  6
Continuous
 62
   179
100
AcDbLine
 10
4779.230404759
 20
7397.3516386623
 30
0.0
 11
4695.8753846469
 21
7563.306056288
 31
0.0
  0
LINE
  5
22E
330
1F8
100
AcDbEntity
  8
0
  6
Continuous
 62
   179
100
AcDbLine
 10
4695.8753846469
 20
7563.306056288
 30
0.0
 11
4590.0094760133
 21
7715.8622667097
 31
0.0
  0
LINE
  5
22F
330
1F8
100
AcDbEntity
  8
0
  6
Continuous
 62
   179
100
AcDbLine
 10
4590.0094760133
 20
7715.8622667097
 30
0.0
 11
4462.7758841487
 21
7851.1049960358
 31
0.0
  0
LINE
  5
230
330
1F8
100
AcDbEntity
  8
0
  6
Continuous
 62
   179
100
AcDbLine
 10
4462.7758841487
 20
7851.1049960358
 30
0.0
 11
4317.19779369
 21
7966.3918164371
 31
0.0
  0
LINE
  5
231
330
1F8
100
AcDbEntity
  8
0
  6
Continuous
 62
   179
100
AcDbLine
 10
4317.19779369
 20
7966.3918164371
 30
0.0
 11
4157.3549470669
 21
8060.9636993174
 31
0.0
  0
LINE
  5
232
330
1F8
100
AcDbEntity
  8
0
  6
Continuous
 62
   179
100
AcDbLine
 10
4157.3549470669
 20
8060.9636993174
 30
0.0
 11
3942.3832434805
 21
8152.0001345594
 31
0.0
  0
LINE
  5
233
330
1F8
100
AcDbEntity
  8
0
  6
Continuous
 62
   179
100
AcDbLine
 10
3942.3832434805
 20
8152.0001345594
 30
0.0
 11
3717.7379879586
 21
8215.7306159908
 31
0.0
  0
LINE
  5
234
330
1F8
100
AcDbEntity
  8
0
  6
Continuous
 62
   179
100
AcDbLine
 10
3717.7379879586
 20
8215.7306159908
 30
0.0
 11
3487.8010416052
 21
8256.6415379559
 31
0.0
  0
LINE
  5
235
330
1F8
100
AcDbEntity
  8
0
  6
Continuous
 62
   179
100
AcDbLine
 10
3487.8010416052
 20
8256.6415379559
 30
0.0
 11
3255.2826646592
 21
8278.7971759128
 31
0.0
  0
LINE
  5
236
330
1F8
100
AcDbEntity
  8
0
  6
Continuous
 62
   179
100
AcDbLine
 10
3255.2826646592
 20
8278.7971759128
 30
0.0
 11
3021.7939564
 21
8285.5640922951
 31
0.0
  0
LINE
  5
237
330
1F8
100
AcDbEntity
  8
0
  6
Continuous
 62
   179
100
AcDbLine
 10
3021.7939564
 20
8285.5640922951
 30
0.0
 11
2764.7286656624
 21
8276.8167344558
 31
0.0
  0
LINE
  5
238
330
1F8
100
AcDbEntity
  8
0
  6
Continuous
 62
   179
100
AcDbLine
 10
2764.7286656624
 20
8276.8167344558
 30
0.0
 11
2509.0566231212
 21
8248.8448730413
 31
0.0
  0
LINE
  5
239
330
1F8
100
AcDbEntity
  8
0
  6
Continuous
 62
   179
100
AcDbLine
 10
2509.0566231212
 20
8248.8448730413
 30
0.0
 11
2256.7624741697
 21
8198.9693632548
 31
0.0
  0
LINE
  5
23A
330
1F8
100
AcDbEntity
  8
0
  6
Continuous
 62
   179
100
AcDbLine
 10
2256.7624741697
 20
8198.9693632548
 30
0.0
 11
2010.5862549102
 21
8124.6401609584
 31
0.0
  0
LINE
  5
23B
330
1F8
100
AcDbEntity
  8
0
  6
Continuous
 62
   179
100
AcDbLine
 10
2010.5862549102
 20
8124.6401609584
 30
0.0
 11
1823.7042907144
 21
8047.7718170144
 31
0.0
  0
LINE
  5
23C
330
1F8
100
AcDbEntity
  8
0
  6
Continuous
 62
   179
100
AcDbLine
 10
1823.7042907144
 20
8047.7718170144
 30
0.0
 11
1644.6605427625
 21
7954.1022052786
 31
0.0
  0
LINE
  5
23D
330
1F8
100
AcDbEntity
  8
0
  6
Continuous
 62
   179
100
AcDbLine
 10
1644.6605427625
 20
7954.1022052786
 30
0.0
 11
1475.390327491
 21
7843.7545704421
 31
0.0
  0
LINE
  5
23E
330
1F8
100
AcDbEntity
  8
0
  6
Continuous
 62
   179
100
AcDbLine
 10
1475.390327491
 20
7843.7545704421
 30
0.0
 11
1317.6231711996
 21
7717.507163895
 31
0.0
  0
LINE
  5
23F
330
1F8
100
AcDbEntity
  8
0
  6
Continuous
 62
   179
100
AcDbLine
 10
1317.6231711996
 20
7717.507163895
 30
0.0
 11
1139.538084005
 21
7540.9583629978
 31
0.0
  0
LINE
  5
240
330
1F8
100
AcDbEntity
  8
0
  6
Continuous
 62
   179
100
AcDbLine
 10
1139.538084005
 20
7540.9583629978
 30
0.0
 11
983.4661868123
 21
7344.6865403276
 31
0.0
  0
LINE
  5
241
330
1F8
100
AcDbEntity
  8
0
  6
Continuous
 62
   179
100
AcDbLine
 10
983.4661868123
 20
7344.6865403276
 30
0.0
 11
851.5325681984
 21
7131.4315088069
 31
0.0
  0
LINE
  5
242
330
1F8
100
AcDbEntity
  8
0
  6
Continuous
 62
   179
100
AcDbLine
 10
851.5325681984
 20
7131.4315088069
 30
0.0
 11
744.4774564036
 21
6904.647070365
 31
0.0
  0
LINE
  5
243
330
1F8
100
AcDbEntity
  8
0
  6
Continuous
 62
   179
100
AcDbLine
 10
744.4774564036
 20
6904.647070365
 30
0.0
 11
658.3392621499
 21
6656.4327422403
 31
0.0
  0
LINE
  5
244
330
1F8
100
AcDbEntity
  8
0
  6
Continuous
 62
   179
100
AcDbLine
 10
658.3392621499
 20
6656.4327422403
 30
0.0
 11
596.9943576213
 21
6400.9335325463
 31
0.0
  0
LINE
  5
245
330
1F8
100
AcDbEntity
  8
0
  6
Continuous
 62
   179
100
AcDbLine
 10
596.9943576213
 20
6400.9335325463
 30
0.0
 11
557.9730775995
 21
6141.0651554946
 31
0.0
  0
LINE
  5
246
330
1F8
100
AcDbEntity
  8
0
  6
Continuous
 62
   179
100
AcDbLine
 10
557.9730775995
 20
6141.0651554946
 30
0.0
 11
538.0293793386
 21
5893.0807139359
 31
0.0
  0
LINE
  5
247
330
1F8
100
AcDbEntity
  8
0
  6
Continuous
 62
   179
100
AcDbLine
 10
538.0293793386
 20
5893.0807139359
 30
0.0
 11
537.9155556826
 21
5644.3161034396
 31
0.0
  0
LINE
  5
248
330
1F8
100
AcDbEntity
  8
0
  6
Continuous
 62
   179
100
AcDbLine
 10
537.9155556826
 20
5644.3161034396
 30
0.0
 11
561.0465619986
 21
5396.6565041751
 31
0.0
  0
LINE
  5
249
330
1F8
100
AcDbEntity
  8
0
  6
Continuous
 62
   179
100
AcDbLine
 10
561.0465619986
 20
5396.6565041751
 30
0.0
 11
610.8365836731
 21
5152.9862283491
 31
0.0
  0
LINE
  5
24A
330
1F8
100
AcDbEntity
  8
0
  6
Continuous
 62
   179
100
AcDbLine
 10
610.8365836731
 20
5152.9862283491
 30
0.0
 11
670.4957765389
 21
4966.8752015955
 31
0.0
  0
LINE
  5
24B
330
1F8
100
AcDbEntity
  8
0
  6
Continuous
 62
   179
100
AcDbLine
 10
670.4957765389
 20
4966.8752015955
 30
0.0
 11
749.0385092576
 21
4787.922755338
 31
0.0
  0
LINE
  5
24C
330
1F8
100
AcDbEntity
  8
0
  6
Continuous
 62
   179
100
AcDbLine
 10
749.0385092576
 20
4787.922755338
 30
0.0
 11
846.3298658912
 21
4618.4358151253
 31
0.0
  0
LINE
  5
24D
330
1F8
100
AcDbEntity
  8
0
  6
Continuous
 62
   179
100
AcDbLine
 10
846.3298658912
 20
4618.4358151253
 30
0.0
 11
961.3271095996
 21
4460.4233554942
 31
0.0
  0
LINE
  5
24E
330
1F8
100
AcDbEntity
  8
0
  6
Continuous
 62
   179
100
AcDbLine
 10
1593.2484263997
 20
3794.8892026942
 30
0.0
 11
2342.8146692
 21
3099.1034974946
 31
0.0
  0
LINE
  5
24F
330
1F8
100
AcDbEntity
  8
0
  6
Continuous
 62
   179
100
AcDbLine
 10
2342.8146692
 20
3099.1034974946
 30
0.0
 11
2457.4150864402
 21
2985.4804965343
 31
0.0
  0
LINE
  5
250
330
1F8
100
AcDbEntity
  8
0
  6
Continuous
 62
   179
100
AcDbLine
 10
2457.4150864402
 20
2985.4804965343
 30
0.0
 11
2562.4777930784
 21
2863.0062246075
 31
0.0
  0
LINE
  5
251
330
1F8
100
AcDbEntity
  8
0
  6
Continuous
 62
   179
100
AcDbLine
 10
2562.4777930784
 20
2863.0062246075
 30
0.0
 11
2654.9628244148
 21
2730.8077708033
 31
0.0
  0
LINE
  5
252
330
1F8
100
AcDbEntity
  8
0
  6
Continuous
 62
   179
100
AcDbLine
 10
2654.9628244148
 20
2730.8077708033
 30
0.0
 11
2730.9070108725
 21
2588.5028322591
 31
0.0
  0
LINE
  5
253
330
1F8
100
AcDbEntity
  8
0
  6
Continuous
 62
   179
100
AcDbLine
 10
2730.9070108725
 20
2588.5028322591
 30
0.0
 11
2787.6392767372
 21
2429.3959416825
 31
0.0
  0
LINE
  5
254
330
1F8
100
AcDbEntity
  8
0
  6
Continuous
 62
   179
100
AcDbLine
 10
2787.6392767372
 20
2429.3959416825
 30
0.0
 11
2816.0412804487
 21
2262.9265767885
 31
0.0
  0
LINE
  5
255
330
1F8
100
AcDbEntity
  8
0
  6
Continuous
 62
   179
100
AcDbLine
 10
2816.0412804487
 20
2262.9265767885
 30
0.0
 11
2813.3943732
 21
2094.0797010946
 31
0.0
  0
LINE
  5
256
330
1F8
100
AcDbEntity
  8
0
  6
Continuous
 62
   179
100
AcDbLine
 10
2171.3892056002
 20
1438.629399097
 30
0.0
 11
2081.3271648151
 21
1444.5220285234
 31
0.0
  0
LINE
  5
257
330
1F8
100
AcDbEntity
  8
0
  6
Continuous
 62
   179
100
AcDbLine
 10
2081.3271648151
 20
1444.5220285234
 30
0.0
 11
1993.3677378413
 21
1464.5260106363
 31
0.0
  0
LINE
  5
258
330
1F8
100
AcDbEntity
  8
0
  6
Continuous
 62
   179
100
AcDbLine
 10
1993.3677378413
 20
1464.5260106363
 30
0.0
 11
1911.3435803354
 21
1501.9115152047
 31
0.0
  0
LINE
  5
259
330
1F8
100
AcDbEntity
  8
0
  6
Continuous
 62
   179
100
AcDbLine
 10
1911.3435803354
 20
1501.9115152047
 30
0.0
 11
1840.5450992733
 21
1557.6494251181
 31
0.0
  0
LINE
  5
25A
330
1F8
100
AcDbEntity
  8
0
  6
Continuous
 62
   179
100
AcDbLine
 10
1840.5450992733
 20
1557.6494251181
 30
0.0
 11
1785.0445168711
 21
1628.6751044787
 31
0.0
  0
LINE
  5
25B
330
1F8
100
AcDbEntity
  8
0
  6
Continuous
 62
   179
100
AcDbLine
 10
1785.0445168711
 20
1628.6751044787
 30
0.0
 11
1745.2817682865
 21
1709.6405469696
 31
0.0
  0
LINE
  5
25C
330
1F8
100
AcDbEntity
  8
0
  6
Continuous
 62
   179
100
AcDbLine
 10
1745.2817682865
 20
1709.6405469696
 30
0.0
 11
1710.0353127013
 21
1840.2386565146
 31
0.0
  0
LINE
  5
25D
330
1F8
100
AcDbEntity
  8
0
  6
Continuous
 62
   179
100
AcDbLine
 10
1710.0353127013
 20
1840.2386565146
 30
0.0
 11
1696.0216688059
 21
1974.8977537186
 31
0.0
  0
LINE
  5
25E
330
1F8
100
AcDbEntity
  8
0
  6
Continuous
 62
   179
100
AcDbLine
 10
1696.0216688059
 20
1974.8977537186
 30
0.0
 11
1696.5924840549
 21
2110.3283975811
 31
0.0
  0
LINE
  5
25F
330
1F8
100
AcDbEntity
  8
0
  6
Continuous
 62
   179
100
AcDbLine
 10
1696.5924840549
 20
2110.3283975811
 30
0.0
 11
1707.5320688
 21
2245.3374630946
 31
0.0
  0
LINE
  5
260
330
1F8
100
AcDbEntity
  8
0
  6
Continuous
 62
   179
100
AcDbLine
 10
1707.5320688
 20
2245.3374630946
 30
0.0
 11
1781.480308
 21
2897.4264814946
 31
0.0
  0
LINE
  5
261
330
1F8
100
AcDbEntity
  8
0
  6
Continuous
 62
   179
100
AcDbLine
 10
1781.480308
 20
2897.4264814946
 30
0.0
 11
94.1159408
 21
2897.4264814946
 31
0.0
  0
LINE
  5
262
330
1F8
100
AcDbEntity
  8
0
  6
Continuous
 62
   179
100
AcDbLine
 10
94.1159408
 20
2897.4264814946
 30
0.0
 11
26.8902688
 21
2295.7567170946
 31
0.0
  0
LINE
  5
263
330
1F8
100
AcDbEntity
  8
0
  6
Continuous
 62
   179
100
AcDbLine
 10
26.8902688
 20
2295.7567170946
 30
0.0
 11
5.8201226117
 21
2068.3689705604
 31
0.0
  0
LINE
  5
264
330
1F8
100
AcDbEntity
  8
0
  6
Continuous
 62
   179
100
AcDbLine
 10
5.8201226117
 20
2068.3689705604
 30
0.0
 11
0.0
 21
1889.0414014946
 31
0.0
  0
LINE
  5
265
330
1F8
100
AcDbEntity
  8
0
  6
Continuous
 62
   179
100
AcDbLine
 10
0.0
 20
1889.0414014946
 30
0.0
 11
0.0
 21
1788.2028934946
 31
0.0
  0
LINE
  5
266
330
1F8
100
AcDbEntity
  8
0
  6
Continuous
 62
   179
100
AcDbLine
 10
0.0
 20
1788.2028934946
 30
0.0
 11
8.4741181851
 21
1597.5992610857
 31
0.0
  0
LINE
  5
267
330
1F8
100
AcDbEntity
  8
0
  6
Continuous
 62
   179
100
AcDbLine
 10
8.4741181851
 20
1597.5992610857
 30
0.0
 11
29.9475321698
 21
1408.0255515191
 31
0.0
  0
LINE
  5
268
330
1F8
100
AcDbEntity
  8
0
  6
Continuous
 62
   179
100
AcDbLine
 10
29.9475321698
 20
1408.0255515191
 30
0.0
 11
66.5196177454
 21
1220.7936775914
 31
0.0
  0
LINE
  5
269
330
1F8
100
AcDbEntity
  8
0
  6
Continuous
 62
   179
100
AcDbLine
 10
66.5196177454
 20
1220.7936775914
 30
0.0
 11
120.5660601196
 21
1037.8592313249
 31
0.0
  0
LINE
  5
26A
330
1F8
100
AcDbEntity
  8
0
  6
Continuous
 62
   179
100
AcDbLine
 10
120.5660601196
 20
1037.8592313249
 30
0.0
 11
194.3311383855
 21
861.9730900702
 31
0.0
  0
LINE
  5
26B
330
1F8
100
AcDbEntity
  8
0
  6
Continuous
 62
   179
100
AcDbLine
 10
194.3311383855
 20
861.9730900702
 30
0.0
 11
287.5295606573
 21
699.5021482411
 31
0.0
  0
LINE
  5
26C
330
1F8
100
AcDbEntity
  8
0
  6
Continuous
 62
   179
100
AcDbLine
 10
287.5295606573
 20
699.5021482411
 30
0.0
 11
401.5974373649
 21
550.9580491856
 31
0.0
  0
LINE
  5
26D
330
1F8
100
AcDbEntity
  8
0
  6
Continuous
 62
   179
100
AcDbLine
 10
401.5974373649
 20
550.9580491856
 30
0.0
 11
535.1901037299
 21
419.6995230367
 31
0.0
  0
LINE
  5
26E
330
1F8
100
AcDbEntity
  8
0
  6
Continuous
 62
   179
100
AcDbLine
 10
535.1901037299
 20
419.6995230367
 30
0.0
 11
685.4525519751
 21
307.8901613371
 31
0.0
  0
LINE
  5
26F
330
1F8
100
AcDbEntity
  8
0
  6
Continuous
 62
   179
100
AcDbLine
 10
685.4525519751
 20
307.8901613371
 30
0.0
 11
880.9909831936
 21
200.7980430706
 31
0.0
  0
LINE
  5
270
330
1F8
100
AcDbEntity
  8
0
  6
Continuous
 62
   179
100
AcDbLine
 10
880.9909831936
 20
200.7980430706
 30
0.0
 11
1088.9648544967
 21
120.3523112471
 31
0.0
  0
LINE
  5
271
330
1F8
100
AcDbEntity
  8
0
  6
Continuous
 62
   179
100
AcDbLine
 10
1088.9648544967
 20
120.3523112471
 30
0.0
 11
1304.5983771836
 21
63.4027511638
 31
0.0
  0
LINE
  5
272
330
1F8
100
AcDbEntity
  8
0
  6
Continuous
 62
   179
100
AcDbLine
 10
1304.5983771836
 20
63.4027511638
 30
0.0
 11
1524.5667113278
 21
26.4353113751
 31
0.0
  0
LINE
  5
273
330
1F8
100
AcDbEntity
  8
0
  6
Continuous
 62
   179
100
AcDbLine
 10
1524.5667113278
 20
26.4353113751
 30
0.0
 11
1746.7181907984
 21
6.2021311101
 31
0.0
  0
LINE
  5
274
330
1F8
100
AcDbEntity
  8
0
  6
Continuous
 62
   179
100
AcDbLine
 10
1746.7181907984
 20
6.2021311101
 30
0.0
 11
1969.7121896
 21
0.0000182946
 31
0.0
  0
LINE
  5
275
330
1F8
100
AcDbEntity
  8
0
  6
Continuous
 62
   179
100
AcDbLine
 10
1969.7121896
 20
0.0000182946
 30
0.0
 11
2235.4163107967
 21
9.0474941519
 31
0.0
  0
LINE
  5
276
330
1F8
100
AcDbEntity
  8
0
  6
Continuous
 62
   179
100
AcDbLine
 10
2235.4163107967
 20
9.0474941519
 30
0.0
 11
2499.6874650753
 21
37.9033605802
 31
0.0
  0
LINE
  5
277
330
1F8
100
AcDbEntity
  8
0
  6
Continuous
 62
   179
100
AcDbLine
 10
2499.6874650753
 20
37.9033605802
 30
0.0
 11
2760.5117042792
 21
89.204615755
 31
0.0
  0
LINE
  5
278
330
1F8
100
AcDbEntity
  8
0
  6
Continuous
 62
   179
100
AcDbLine
 10
2760.5117042792
 20
89.204615755
 30
0.0
 11
3015.1415277313
 21
165.4438899665
 31
0.0
  0
LINE
  5
279
330
1F8
100
AcDbEntity
  8
0
  6
Continuous
 62
   179
100
AcDbLine
 10
3015.1415277313
 20
165.4438899665
 30
0.0
 11
3208.6236023082
 21
244.1201341123
 31
0.0
  0
LINE
  5
27A
330
1F8
100
AcDbEntity
  8
0
  6
Continuous
 62
   179
100
AcDbLine
 10
3208.6236023082
 20
244.1201341123
 30
0.0
 11
3394.246790929
 21
339.8610540042
 31
0.0
  0
LINE
  5
27B
330
1F8
100
AcDbEntity
  8
0
  6
Continuous
 62
   179
100
AcDbLine
 10
3394.246790929
 20
339.8610540042
 30
0.0
 11
3570.08287903
 21
452.5651803685
 31
0.0
  0
LINE
  5
27C
330
1F8
100
AcDbEntity
  8
0
  6
Continuous
 62
   179
100
AcDbLine
 10
3570.08287903
 20
452.5651803685
 30
0.0
 11
3734.3860796
 21
581.5020810946
 31
0.0
  0
LINE
  5
27D
330
1F8
100
AcDbEntity
  8
0
  6
Continuous
 62
   179
100
AcDbLine
 10
3734.3860796
 20
581.5020810946
 30
0.0
 11
3918.9619613187
 21
762.6068684982
 31
0.0
  0
LINE
  5
27E
330
1F8
100
AcDbEntity
  8
0
  6
Continuous
 62
   179
100
AcDbLine
 10
3918.9619613187
 20
762.6068684982
 30
0.0
 11
4080.6115034165
 21
964.4332031658
 31
0.0
  0
LINE
  5
27F
330
1F8
100
AcDbEntity
  8
0
  6
Continuous
 62
   179
100
AcDbLine
 10
4080.6115034165
 20
964.4332031658
 30
0.0
 11
4217.129324297
 21
1184.0491590435
 31
0.0
  0
LINE
  5
280
330
1F8
100
AcDbEntity
  8
0
  6
Continuous
 62
   179
100
AcDbLine
 10
4217.129324297
 20
1184.0491590435
 30
0.0
 11
4327.807798901
 21
1417.7744861233
 31
0.0
  0
LINE
  5
281
330
1F8
100
AcDbEntity
  8
0
  6
Continuous
 62
   179
100
AcDbLine
 10
4327.807798901
 20
1417.7744861233
 30
0.0
 11
4416.8403522579
 21
1673.6616360853
 31
0.0
  0
LINE
  5
282
330
1F8
100
AcDbEntity
  8
0
  6
Continuous
 62
   179
100
AcDbLine
 10
4416.8403522579
 20
1673.6616360853
 30
0.0
 11
4480.332478423
 21
1937.0776350384
 31
0.0
  0
LINE
  5
283
330
1F8
100
AcDbEntity
  8
0
  6
Continuous
 62
   179
100
AcDbLine
 10
4480.332478423
 20
1937.0776350384
 30
0.0
 11
4520.926442
 21
2205.0020598946
 31
0.0
  0
LINE
  5
284
330
1F8
100
AcDbEntity
  8
0
  6
Continuous
 62
   179
100
AcDbLine
 10
4520.926442
 20
2205.0020598946
 30
0.0
 11
4539.8604791128
 21
2434.751251137
 31
0.0
  0
LINE
  5
285
330
1F8
100
AcDbEntity
  8
0
  6
Continuous
 62
   179
100
AcDbLine
 10
4539.8604791128
 20
2434.751251137
 30
0.0
 11
4542.0136171636
 21
2665.2555763504
 31
0.0
  0
LINE
  5
286
330
1F8
100
AcDbEntity
  8
0
  6
Continuous
 62
   179
100
AcDbLine
 10
4542.0136171636
 20
2665.2555763504
 30
0.0
 11
4524.9874932226
 21
2895.1234497405
 31
0.0
  0
LINE
  5
287
330
1F8
100
AcDbEntity
  8
0
  6
Continuous
 62
   179
100
AcDbLine
 10
4524.9874932226
 20
2895.1234497405
 30
0.0
 11
4496.6310776622
 21
3074.0098021703
 31
0.0
  0
LINE
  5
288
330
1F8
100
AcDbEntity
  8
0
  6
Continuous
 62
   179
100
AcDbLine
 10
4496.6310776622
 20
3074.0098021703
 30
0.0
 11
4454.0379981851
 21
3250.0430485054
 31
0.0
  0
LINE
  5
289
330
1F8
100
AcDbEntity
  8
0
  6
Continuous
 62
   179
100
AcDbLine
 10
4454.0379981851
 20
3250.0430485054
 30
0.0
 11
4396.5589488
 21
3421.7867230946
 31
0.0
  0
LINE
  5
28A
330
1F8
100
AcDbEntity
  8
0
  6
Continuous
 62
   179
100
AcDbLine
 10
4396.5589488
 20
3421.7867230946
 30
0.0
 11
4335.0775798529
 21
3551.3591107413
 31
0.0
  0
LINE
  5
28B
330
1F8
100
AcDbEntity
  8
0
  6
Continuous
 62
   179
100
AcDbLine
 10
4335.0775798529
 20
3551.3591107413
 30
0.0
 11
4262.2002057756
 21
3674.9188547719
 31
0.0
  0
LINE
  5
28C
330
1F8
100
AcDbEntity
  8
0
  6
Continuous
 62
   179
100
AcDbLine
 10
4262.2002057756
 20
3674.9188547719
 30
0.0
 11
4181.3183894369
 21
3793.4113089372
 31
0.0
  0
LINE
  5
28D
330
1F8
100
AcDbEntity
  8
0
  6
Continuous
 62
   179
100
AcDbLine
 10
4181.3183894369
 20
3793.4113089372
 30
0.0
 11
4078.5227471571
 21
3927.6643628842
 31
0.0
  0
LINE
  5
28E
330
1F8
100
AcDbEntity
  8
0
  6
Continuous
 62
   179
100
AcDbLine
 10
4078.5227471571
 20
3927.6643628842
 30
0.0
 11
3969.6759316
 21
4057.0693234946
 31
0.0
  0
LINE
  5
28F
330
1F8
100
AcDbEntity
  8
0
  6
Continuous
 62
   179
100
AcDbLine
 10
3969.6759316
 20
4057.0693234946
 30
0.0
 11
3243.638674
 21
4803.2742826946
 31
0.0
  0
LINE
  5
290
330
1F8
100
AcDbEntity
  8
0
  6
Continuous
 62
   179
100
AcDbLine
 10
2467.1821623981
 20
5616.7049138995
 30
0.0
 11
2391.5759134121
 21
5727.7039441288
 31
0.0
  0
LINE
  5
291
330
1F8
100
AcDbEntity
  8
0
  6
Continuous
 62
   179
100
AcDbLine
 10
2391.5759134121
 20
5727.7039441288
 30
0.0
 11
2326.9023872324
 21
5845.3828817498
 31
0.0
  0
LINE
  5
292
330
1F8
100
AcDbEntity
  8
0
  6
Continuous
 62
   179
100
AcDbLine
 10
2326.9023872324
 20
5845.3828817498
 30
0.0
 11
2276.7855321171
 21
5969.9206549293
 31
0.0
  0
LINE
  5
293
330
1F8
100
AcDbEntity
  8
0
  6
Continuous
 62
   179
100
AcDbLine
 10
2276.7855321171
 20
5969.9206549293
 30
0.0
 11
2250.5432565423
 21
6072.0904771882
 31
0.0
  0
LINE
  5
294
330
1F8
100
AcDbEntity
  8
0
  6
Continuous
 62
   179
100
AcDbLine
 10
2250.5432565423
 20
6072.0904771882
 30
0.0
 11
2238.3532498759
 21
6176.8496579539
 31
0.0
  0
LINE
  5
295
330
1F8
100
AcDbEntity
  8
0
  6
Continuous
 62
   179
100
AcDbLine
 10
2238.3532498759
 20
6176.8496579539
 30
0.0
 11
2241.9761612
 21
6282.2390666946
 31
0.0
  0
LINE
  5
296
330
1F8
100
AcDbEntity
  8
0
  6
Continuous
 62
   179
100
AcDbLine
 10
2813.394373201
 20
6877.1862638961
 30
0.0
 11
2899.1450330725
 21
6871.9159884789
 31
0.0
  0
LINE
  5
297
330
1F8
100
AcDbEntity
  8
0
  6
Continuous
 62
   179
100
AcDbLine
 10
2899.1450330725
 20
6871.9159884789
 30
0.0
 11
2983.1458702521
 21
6854.0846279821
 31
0.0
  0
LINE
  5
298
330
1F8
100
AcDbEntity
  8
0
  6
Continuous
 62
   179
100
AcDbLine
 10
2983.1458702521
 20
6854.0846279821
 30
0.0
 11
3062.202014936
 21
6820.6931120196
 31
0.0
  0
LINE
  5
299
330
1F8
100
AcDbEntity
  8
0
  6
Continuous
 62
   179
100
AcDbLine
 10
3062.202014936
 20
6820.6931120196
 30
0.0
 11
3131.6623634801
 21
6770.3629356214
 31
0.0
  0
LINE
  5
29A
330
1F8
100
AcDbEntity
  8
0
  6
Continuous
 62
   179
100
AcDbLine
 10
3131.6623634801
 20
6770.3629356214
 30
0.0
 11
3187.37124796
 21
6705.1184696235
 31
0.0
  0
LINE
  5
29B
330
1F8
100
AcDbEntity
  8
0
  6
Continuous
 62
   179
100
AcDbLine
 10
3187.37124796
 20
6705.1184696235
 30
0.0
 11
3228.1274776793
 21
6629.5646068072
 31
0.0
  0
LINE
  5
29C
330
1F8
100
AcDbEntity
  8
0
  6
Continuous
 62
   179
100
AcDbLine
 10
3228.1274776793
 20
6629.5646068072
 30
0.0
 11
3265.0334180049
 21
6506.2441361359
 31
0.0
  0
LINE
  5
29D
330
1F8
100
AcDbEntity
  8
0
  6
Continuous
 62
   179
100
AcDbLine
 10
3265.0334180049
 20
6506.2441361359
 30
0.0
 11
3280.3602104272
 21
6378.3104742822
 31
0.0
  0
LINE
  5
29E
330
1F8
100
AcDbEntity
  8
0
  6
Continuous
 62
   179
100
AcDbLine
 10
3280.3602104272
 20
6378.3104742822
 30
0.0
 11
3280.7520241623
 21
6249.4122034737
 31
0.0
  0
LINE
  5
29F
330
1F8
100
AcDbEntity
  8
0
  6
Continuous
 62
   179
100
AcDbLine
 10
3280.7520241623
 20
6249.4122034737
 30
0.0
 11
3270.5289428
 21
6120.8974538946
 31
0.0
  0
LINE
  5
2A0
330
1F8
100
AcDbEntity
  8
0
  6
Continuous
 62
   179
100
AcDbLine
 10
3270.5289428
 20
6120.8974538946
 30
0.0
 11
3206.6645544
 21
5566.2856598946
 31
0.0
  0
LINE
  5
2A1
330
1F8
100
AcDbEntity
  8
0
  6
Continuous
 62
   179
100
AcDbLine
 10
3206.6645544
 20
5566.2856598946
 30
0.0
 11
4820.0806824005
 21
5566.2856598945
 31
0.0
  0
LINE
  5
2A2
330
1F8
100
AcDbEntity
  8
0
  6
Continuous
 62
   179
100
AcDbLine
 10
4820.0806824005
 20
5566.2856598945
 30
0.0
 11
4894.0289216005
 21
6231.8198126945
 31
0.0
  0
LINE
  5
2A3
330
1F8
100
AcDbEntity
  8
0
  6
Continuous
 62
   179
100
AcDbLine
 10
4894.0289216005
 20
6231.8198126945
 30
0.0
 11
4907.4740560005
 21
6366.2711566946
 31
0.0
  0
LINE
  5
2A4
330
1F8
100
AcDbEntity
  8
0
  6
Continuous
 62
   179
100
AcDbLine
 10
4907.4740560005
 20
6366.2711566946
 30
0.0
 11
4917.4861623745
 21
6641.1377165616
 31
0.0
  0
LINE
  5
2A5
330
1F8
100
AcDbEntity
  8
0
  6
Continuous
 62
   179
100
AcDbLine
 10
4917.4861623745
 20
6641.1377165616
 30
0.0
 11
4907.4740560005
 21
6857.0185622947
 31
0.0
  0
LINE
  5
2A6
330
1F8
100
AcDbEntity
  8
0
  6
Continuous
 62
   179
100
AcDbLine
 10
24964.5491205926
 20
0.0000125144
 30
0.0
 11
26583.7619200447
 21
0.0000125144
 31
0.0
  0
LINE
  5
2A7
330
1F8
100
AcDbEntity
  8
0
  6
Continuous
 62
   179
100
AcDbLine
 10
24964.5491205926
 20
1424.0948297115
 30
0.0
 11
24964.5491205926
 21
0.0000125144
 31
0.0
  0
LINE
  5
2A8
330
1F8
100
AcDbEntity
  8
0
  6
Continuous
 62
   179
100
AcDbLine
 10
25016.6135325926
 20
7008.8707569115
 30
0.0
 11
24971.491042193
 21
3444.1940153109
 31
0.0
  0
LINE
  5
2A9
330
1F8
100
AcDbEntity
  8
0
  6
Continuous
 62
   179
100
AcDbLine
 10
24180.1119797926
 20
3343.5361521115
 30
0.0
 11
25016.6135325926
 21
7008.8707569115
 31
0.0
  0
LINE
  5
2AA
330
1F8
100
AcDbEntity
  8
0
  6
Continuous
 62
   179
100
AcDbLine
 10
23399.1457997926
 20
0.0000125144
 30
0.0
 11
23791.3643701938
 21
1694.8297721102
 31
0.0
  0
LINE
  5
2AB
330
1F8
100
AcDbEntity
  8
0
  6
Continuous
 62
   179
100
AcDbLine
 10
21618.5429093926
 20
0.0000125144
 30
0.0
 11
23399.1457997926
 21
0.0000125144
 31
0.0
  0
LINE
  5
2AC
330
1F8
100
AcDbEntity
  8
0
  6
Continuous
 62
   179
100
AcDbLine
 10
23986.756270993
 20
8289.6552921115
 30
0.0
 11
21618.5429093926
 21
0.0000125144
 31
0.0
  0
LINE
  5
2AD
330
1F8
100
AcDbEntity
  8
0
  6
Continuous
 62
   179
100
AcDbLine
 10
26353.951536593
 20
8289.6552921115
 30
0.0
 11
23986.756270993
 21
8289.6552921115
 31
0.0
  0
LINE
  5
2AE
330
1F8
100
AcDbEntity
  8
0
  6
Continuous
 62
   179
100
AcDbLine
 10
26583.7619200447
 20
0.0000125144
 30
0.0
 11
26353.951536593
 21
8289.6552921115
 31
0.0
  0
ENDBLK
  5
1FA
330
1F8
100
AcDbEntity
  8
0
100
AcDbBlockEnd
  0
BLOCK
  5
2B0
330
2AF
100
AcDbEntity
  8
0
100
AcDbBlockBegin
  2
Block5
 70
     0
 10
0.0
 20
0.0
 30
0.0
  3
Block5
  1

  0
CIRCLE
  5
2B2
330
2AF
100
AcDbEntity
  8
0
  6
Continuous
 62
     7
370
    30
100
AcDbCircle
 10
0.0
 20
0.0
 30
0.0
 40
3.5
  0
CIRCLE
  5
2B3
330
2AF
100
AcDbEntity
  8
0
  6
Continuous
 62
     7
370
    30
100
AcDbCircle
 10
0.0
 20
0.0
 30
0.0
 40
1.5
  0
LINE
  5
2B4
330
2AF
100
AcDbEntity
  8
0
  6
CENTERX2
 62
     7
370
     0
100
AcDbLine
 10
4.5
 20
0.0
 30
0.0
 11
-14.5
 21
0.0
 31
0.0
  0
LINE
  5
2B5
330
2AF
100
AcDbEntity
  8
0
  6
Continuous
 62
     7
370
    30
100
AcDbLine
 10
-13.5
 20
1.5
 30
0.0
 11
-13.5
 21
-1.5
 31
0.0
  0
LINE
  5
2B6
330
2AF
100
AcDbEntity
  8
0
  6
Continuous
 62
     7
370
    30
100
AcDbLine
 10
-13.5
 20
-1.5
 30
0.0
 11
-6.5
 21
-3.5
 31
0.0
  0
LINE
  5
2B7
330
2AF
100
AcDbEntity
  8
0
  6
Continuous
 62
     7
370
    30
100
AcDbLine
 10
-6.5
 20
-3.5
 30
0.0
 11
-6.5
 21
3.5
 31
0.0
  0
LINE
  5
2B8
330
2AF
100
AcDbEntity
  8
0
  6
Continuous
 62
     7
370
    30
100
AcDbLine
 10
-6.5
 20
3.5
 30
0.0
 11
-13.5
 21
1.5
 31
0.0
  0
LINE
  5
2B9
330
2AF
100
AcDbEntity
  8
0
  6
CENTERX2
 62
     7
370
     0
100
AcDbLine
 10
0.0
 20
4.5
 30
0.0
 11
0.0
 21
-4.5
 31
0.0
  0
ENDBLK
  5
2B1
330
2AF
100
AcDbEntity
  8
0
100
AcDbBlockEnd
  0
BLOCK
  5
873
330
872
100
AcDbEntity
  8
0
100
AcDbBlockBegin
  2
*U8
 70
     1
 10
0.0
 20
0.0
 30
0.0
  3
*U8
  1

  0
TEXT
  5
874
330
872
100
AcDbEntity
  8
LENKIMO
  6
CENTERX2
100
AcDbText
 10
799.0717146298566
 20
1100.336970457902
 30
0.0
 40
100.0
  1
A
100
AcDbText
  0
ENDBLK
  5
875
330
872
100
AcDbEntity
  8
0
100
AcDbBlockEnd
  0
BLOCK
  5
87E
330
87D
100
AcDbEntity
  8
0
100
AcDbBlockBegin
  2
*U9
 70
     1
 10
0.0
 20
0.0
 30
0.0
  3
*U9
  1

  0
TEXT
  5
87F
330
87D
100
AcDbEntity
  8
LENKIMO
  6
CENTERX2
100
AcDbText
 10
801.2712978691851
 20
1410.897389739665
 30
0.0
 40
100.0
  1
B
100
AcDbText
  0
ENDBLK
  5
880
330
87D
100
AcDbEntity
  8
0
100
AcDbBlockEnd
  0
BLOCK
  5
88B
330
88A
100
AcDbEntity
  8
0
100
AcDbBlockBegin
  2
*U10
 70
     1
 10
0.0
 20
0.0
 30
0.0
  3
*U10
  1

  0
TEXT
  5
88C
330
88A
100
AcDbEntity
  8
LENKIMO
  6
CENTERX2
100
AcDbText
 10
799.0717146298566
 20
1100.336970457902
 30
0.0
 40
100.0
  1
A
100
AcDbText
  0
ENDBLK
  5
88D
330
88A
100
AcDbEntity
  8
0
100
AcDbBlockEnd
  0
BLOCK
  5
890
330
88F
100
AcDbEntity
  8
0
100
AcDbBlockBegin
  2
*U11
 70
     1
 10
0.0
 20
0.0
 30
0.0
  3
*U11
  1

  0
TEXT
  5
891
330
88F
100
AcDbEntity
  8
LENKIMO
  6
CENTERX2
100
AcDbText
 10
799.0717146298566
 20
1100.336970457902
 30
0.0
 40
100.0
  1
A
100
AcDbText
  0
ENDBLK
  5
892
330
88F
100
AcDbEntity
  8
0
100
AcDbBlockEnd
  0
BLOCK
  5
895
330
894
100
AcDbEntity
  8
0
100
AcDbBlockBegin
  2
*U12
 70
     1
 10
0.0
 20
0.0
 30
0.0
  3
*U12
  1

  0
TEXT
  5
896
330
894
100
AcDbEntity
  8
LENKIMO
  6
CENTERX2
100
AcDbText
 10
801.2712978691851
 20
1410.897389739665
 30
0.0
 40
100.0
  1
B
100
AcDbText
  0
ENDBLK
  5
897
330
894
100
AcDbEntity
  8
0
100
AcDbBlockEnd
  0
BLOCK
  5
C83
330
C82
100
AcDbEntity
  8
0
100
AcDbBlockBegin
  2
*U15
 70
     1
 10
0.0
 20
0.0
 30
0.0
  3
*U15
  1

  0
TEXT
  5
C84
330
C82
100
AcDbEntity
  8
LENKIMO
  6
CENTERX2
100
AcDbText
 10
799.0717146298566
 20
1100.336970457902
 30
0.0
 40
100.0
  1
A
100
AcDbText
  0
ENDBLK
  5
C85
330
C82
100
AcDbEntity
  8
0
100
AcDbBlockEnd
  0
BLOCK
  5
CAB
330
CAA
100
AcDbEntity
  8
0
100
AcDbBlockBegin
  2
*U17
 70
     1
 10
0.0
 20
0.0
 30
0.0
  3
*U17
  1

  0
TEXT
  5
CAC
330
CAA
100
AcDbEntity
  8
LENKIMO
  6
CENTERX2
100
AcDbText
 10
801.2712978691851
 20
1410.897389739665
 30
0.0
 40
100.0
  1
B
100
AcDbText
  0
ENDBLK
  5
CAD
330
CAA
100
AcDbEntity
  8
0
100
AcDbBlockEnd
  0
BLOCK
  5
CB8
330
CB7
100
AcDbEntity
  8
0
100
AcDbBlockBegin
  2
*U18
 70
     1
 10
0.0
 20
0.0
 30
0.0
  3
*U18
  1

  0
TEXT
  5
CB9
330
CB7
100
AcDbEntity
  8
LENKIMO
  6
CENTERX2
100
AcDbText
 10
799.0717146298566
 20
1100.336970457902
 30
0.0
 40
100.0
  1
A
100
AcDbText
  0
ENDBLK
  5
CBA
330
CB7
100
AcDbEntity
  8
0
100
AcDbBlockEnd
  0
BLOCK
  5
CBD
330
CBC
100
AcDbEntity
  8
0
100
AcDbBlockBegin
  2
*U19
 70
     1
 10
0.0
 20
0.0
 30
0.0
  3
*U19
  1

  0
TEXT
  5
CBE
330
CBC
100
AcDbEntity
  8
LENKIMO
  6
CENTERX2
100
AcDbText
 10
799.0717146298566
 20
1100.336970457902
 30
0.0
 40
100.0
  1
A
100
AcDbText
  0
ENDBLK
  5
CBF
330
CBC
100
AcDbEntity
  8
0
100
AcDbBlockEnd
  0
BLOCK
  5
CC2
330
CC1
100
AcDbEntity
  8
0
100
AcDbBlockBegin
  2
*U20
 70
     1
 10
0.0
 20
0.0
 30
0.0
  3
*U20
  1

  0
TEXT
  5
CC3
330
CC1
100
AcDbEntity
  8
LENKIMO
  6
CENTERX2
100
AcDbText
 10
801.2712978691851
 20
1410.897389739665
 30
0.0
 40
100.0
  1
B
100
AcDbText
  0
ENDBLK
  5
CC4
330
CC1
100
AcDbEntity
  8
0
100
AcDbBlockEnd
  0
ENDSEC
  0
SECTION
  2
ENTITIES
  0
LINE
  5
2BA
330
1F
100
AcDbEntity
  8
0
100
AcDbLine
 10
33.1951717901
 20
37.2951310043
 30
0.0
 11
50.1951717901
 21
37.2951310043
 31
0.0
  0
LINE
  5
2BB
330
1F
100
AcDbEntity
  8
0
100
AcDbLine
 10
50.1951717901
 20
58.5951310043
 30
0.0
 11
33.1951717901
 21
58.5951310043
 31
0.0
  0
LINE
  5
2BC
330
1F
100
AcDbEntity
  8
0
100
AcDbLine
 10
65.1951717901
 20
38.9451310043
 30
0.0
 11
94.9951717901
 21
38.9451310043
 31
0.0
  0
LINE
  5
2BD
330
1F
100
AcDbEntity
  8
0
100
AcDbLine
 10
94.9951717901
 20
56.9451310043
 30
0.0
 11
65.1951717901
 21
56.9451310043
 31
0.0
  0
LINE
  5
2BE
330
1F
100
AcDbEntity
  8
0
100
AcDbLine
 10
33.1951717901
 20
250.2951310043
 30
0.0
 11
50.1951717901
 21
250.2951310043
 31
0.0
  0
LINE
  5
2BF
330
1F
100
AcDbEntity
  8
0
100
AcDbLine
 10
50.1951717901
 20
271.5951310043
 30
0.0
 11
33.1951717901
 21
271.5951310043
 31
0.0
  0
LINE
  5
2C0
330
1F
100
AcDbEntity
  8
0
100
AcDbLine
 10
65.1951717901
 20
251.9451310043
 30
0.0
 11
94.9951717901
 21
251.9451310043
 31
0.0
  0
LINE
  5
2C1
330
1F
100
AcDbEntity
  8
0
100
AcDbLine
 10
94.9951717901
 20
269.9451310043
 30
0.0
 11
65.1951717901
 21
269.9451310043
 31
0.0
  0
LINE
  5
2C2
330
1F
100
AcDbEntity
  8
0
100
AcDbLine
 10
105.2451717901
 20
274.8451310043
 30
0.0
 11
106.2951717901
 21
274.8451310043
 31
0.0
  0
LINE
  5
2C3
330
1F
100
AcDbEntity
  8
0
100
AcDbLine
 10
106.2951717901
 20
283.0451310043
 30
0.0
 11
105.2451717901
 21
283.0451310043
 31
0.0
  0
ARC
  5
2C4
330
1F
100
AcDbEntity
  8
0
100
AcDbCircle
 10
105.2451717901
 20
276.8451310043
 30
0.0
 40
2.0
100
AcDbArc
 50
180.0
 51
270.0
  0
ARC
  5
2C5
330
1F
100
AcDbEntity
  8
0
100
AcDbCircle
 10
105.2451717901
 20
281.0451310043
 30
0.0
 40
2.0
100
AcDbArc
 50
90.0
 51
180.0
  0
LINE
  5
2C6
330
1F
100
AcDbEntity
  8
0
100
AcDbLine
 10
106.2951717901
 20
276.8451310043
 30
0.0
 11
106.9951717901
 21
276.8451310043
 31
0.0
  0
LINE
  5
2C7
330
1F
100
AcDbEntity
  8
0
100
AcDbLine
 10
106.9951717901
 20
281.0451310043
 30
0.0
 11
106.2951717901
 21
281.0451310043
 31
0.0
  0
LINE
  5
2C8
330
1F
100
AcDbEntity
  8
0
100
AcDbLine
 10
105.2451717901
 20
27.8451310043
 30
0.0
 11
106.2951717901
 21
27.8451310043
 31
0.0
  0
LINE
  5
2C9
330
1F
100
AcDbEntity
  8
0
100
AcDbLine
 10
106.2951717901
 20
36.0451310043
 30
0.0
 11
105.2451717901
 21
36.0451310043
 31
0.0
  0
ARC
  5
2CA
330
1F
100
AcDbEntity
  8
0
100
AcDbCircle
 10
105.2451717901
 20
29.8451310043
 30
0.0
 40
2.000000000000014
100
AcDbArc
 50
180.0
 51
270.0
  0
ARC
  5
2CB
330
1F
100
AcDbEntity
  8
0
100
AcDbCircle
 10
105.2451717901
 20
34.0451310043
 30
0.0
 40
2.000000000000014
100
AcDbArc
 50
90.0
 51
180.0
  0
LINE
  5
2CC
330
1F
100
AcDbEntity
  8
0
100
AcDbLine
 10
106.2951717901
 20
29.8451310043
 30
0.0
 11
106.9951717901
 21
29.8451310043
 31
0.0
  0
LINE
  5
2CD
330
1F
100
AcDbEntity
  8
0
100
AcDbLine
 10
106.9951717901
 20
34.0451310043
 30
0.0
 11
106.2951717901
 21
34.0451310043
 31
0.0
  0
ARC
  5
2CE
330
1F
100
AcDbEntity
  8
0
100
AcDbCircle
 10
125.4334693758
 20
15.3980622764
 30
0.0
 40
4.999999999999993
100
AcDbArc
 50
236.1590076815
 51
262.1320762394
  0
ARC
  5
2D0
330
1F
100
AcDbEntity
  8
0
100
AcDbCircle
 10
125.4334693758
 20
295.4921997323
 30
0.0
 40
5.000000000000074
100
AcDbArc
 50
97.8679237606
 51
123.8409923185
  0
ARC
  5
2D2
330
1F
100
AcDbEntity
  8
0
100
AcDbCircle
 10
352.4107217816
 20
295.4921997323
 30
0.0
 40
5.000000000000068
100
AcDbArc
 50
56.15900768149999
 51
82.13207623940002
  0
ARC
  5
2D3
330
1F
100
AcDbEntity
  8
0
100
AcDbCircle
 10
351.9796217985
 20
295.4921997323
 30
0.0
 40
5.000000000000068
100
AcDbArc
 50
97.8679237606
 51
123.8409923185
  0
LINE
  5
2D4
330
1F
100
AcDbEntity
  8
0
100
AcDbLine
 10
350.1951717901
 20
296.1451310043
 30
0.0
 11
351.1951717901
 21
295.1451310043
 31
0.0
  0
LINE
  5
2D5
330
1F
100
AcDbEntity
  8
0
100
AcDbLine
 10
353.1951717901
 20
295.1451310043
 30
0.0
 11
354.1951717901
 21
296.1451310043
 31
0.0
  0
LINE
  5
2D6
330
1F
100
AcDbEntity
  8
0
100
AcDbLine
 10
353.6951717901
 20
296.1451310043
 30
0.0
 11
353.6951717901
 21
298.2451310043
 31
0.0
  0
LINE
  5
2D7
330
1F
100
AcDbEntity
  8
0
100
AcDbLine
 10
350.6951717901
 20
298.2451310043
 30
0.0
 11
350.6951717901
 21
296.1451310043
 31
0.0
  0
ARC
  5
2D8
330
1F
100
AcDbEntity
  8
0
100
AcDbCircle
 10
239.1607217816
 20
295.4921997323
 30
0.0
 40
5.000000000000072
100
AcDbArc
 50
56.15900768149999
 51
82.13207623940002
  0
ARC
  5
2D9
330
1F
100
AcDbEntity
  8
0
100
AcDbCircle
 10
238.7296217985
 20
295.4921997323
 30
0.0
 40
5.000000000000075
100
AcDbArc
 50
97.8679237606
 51
123.8409923185
  0
LINE
  5
2DA
330
1F
100
AcDbEntity
  8
0
100
AcDbLine
 10
236.9451717901
 20
296.1451310043
 30
0.0
 11
237.9451717901
 21
295.1451310043
 31
0.0
  0
LINE
  5
2DB
330
1F
100
AcDbEntity
  8
0
100
AcDbLine
 10
239.9451717901
 20
295.1451310043
 30
0.0
 11
240.9451717901
 21
296.1451310043
 31
0.0
  0
LINE
  5
2DC
330
1F
100
AcDbEntity
  8
0
100
AcDbLine
 10
240.4451717901
 20
296.1451310043
 30
0.0
 11
240.4451717901
 21
298.2451310043
 31
0.0
  0
LINE
  5
2DD
330
1F
100
AcDbEntity
  8
0
100
AcDbLine
 10
237.4451717901
 20
298.2451310043
 30
0.0
 11
237.4451717901
 21
296.1451310043
 31
0.0
  0
ARC
  5
2DE
330
1F
100
AcDbEntity
  8
0
100
AcDbCircle
 10
125.4796217985
 20
15.3980622764
 30
0.0
 40
4.999999999999993
100
AcDbArc
 50
236.1590076815
 51
262.1320762394
  0
ARC
  5
2DF
330
1F
100
AcDbEntity
  8
0
100
AcDbCircle
 10
125.9107217816
 20
15.3980622764
 30
0.0
 40
5.000000000000017
100
AcDbArc
 50
277.8679237606
 51
303.8409923185
  0
LINE
  5
2E0
330
1F
100
AcDbEntity
  8
0
100
AcDbLine
 10
127.6951717901
 20
14.7451310043
 30
0.0
 11
126.6951717901
 21
15.7451310043
 31
0.0
  0
LINE
  5
2E1
330
1F
100
AcDbEntity
  8
0
100
AcDbLine
 10
124.6951717901
 20
15.7451310043
 30
0.0
 11
123.6951717901
 21
14.7451310043
 31
0.0
  0
LINE
  5
2E2
330
1F
100
AcDbEntity
  8
0
100
AcDbLine
 10
124.1951717901
 20
14.7451310043
 30
0.0
 11
124.1951717901
 21
12.6451310043
 31
0.0
  0
LINE
  5
2E3
330
1F
100
AcDbEntity
  8
0
100
AcDbLine
 10
127.1951717901
 20
12.6451310043
 30
0.0
 11
127.1951717901
 21
14.7451310043
 31
0.0
  0
ARC
  5
2E4
330
1F
100
AcDbEntity
  8
0
100
AcDbCircle
 10
364.742240518
 20
41.0295810128
 30
0.0
 40
5.000000000000017
100
AcDbArc
 50
326.1590076815
 51
352.1320762394
  0
ARC
  5
2E5
330
1F
100
AcDbEntity
  8
0
100
AcDbCircle
 10
364.742240518
 20
41.4606809959
 30
0.0
 40
5.000000000000016
100
AcDbArc
 50
7.867923760599999
 51
33.8409923185
  0
LINE
  5
2E6
330
1F
100
AcDbEntity
  8
0
100
AcDbLine
 10
365.3951717901
 20
43.2451310043
 30
0.0
 11
364.3951717901
 21
42.2451310043
 31
0.0
  0
LINE
  5
2E7
330
1F
100
AcDbEntity
  8
0
100
AcDbLine
 10
364.3951717901
 20
40.2451310043
 30
0.0
 11
365.3951717901
 21
39.2451310043
 31
0.0
  0
LINE
  5
2E8
330
1F
100
AcDbEntity
  8
0
100
AcDbLine
 10
365.3951717901
 20
39.7451310043
 30
0.0
 11
367.4951717901
 21
39.7451310043
 31
0.0
  0
LINE
  5
2E9
330
1F
100
AcDbEntity
  8
0
100
AcDbLine
 10
367.4951717901
 20
42.7451310043
 30
0.0
 11
365.3951717901
 21
42.7451310043
 31
0.0
  0
ARC
  5
2EA
330
1F
100
AcDbEntity
  8
0
100
AcDbCircle
 10
364.742240518
 20
155.2295810128
 30
0.0
 40
5.000000000000016
100
AcDbArc
 50
326.1590076815
 51
352.1320762394
  0
ARC
  5
2EB
330
1F
100
AcDbEntity
  8
0
100
AcDbCircle
 10
364.742240518
 20
155.6606809959
 30
0.0
 40
5.00000000000002
100
AcDbArc
 50
7.867923760599999
 51
33.8409923185
  0
LINE
  5
2EC
330
1F
100
AcDbEntity
  8
0
100
AcDbLine
 10
365.3951717901
 20
157.4451310043
 30
0.0
 11
364.3951717901
 21
156.4451310043
 31
0.0
  0
LINE
  5
2ED
330
1F
100
AcDbEntity
  8
0
100
AcDbLine
 10
364.3951717901
 20
154.4451310043
 30
0.0
 11
365.3951717901
 21
153.4451310043
 31
0.0
  0
LINE
  5
2EE
330
1F
100
AcDbEntity
  8
0
100
AcDbLine
 10
365.3951717901
 20
153.9451310043
 30
0.0
 11
367.4951717901
 21
153.9451310043
 31
0.0
  0
LINE
  5
2EF
330
1F
100
AcDbEntity
  8
0
100
AcDbLine
 10
367.4951717901
 20
156.9451310043
 30
0.0
 11
365.3951717901
 21
156.9451310043
 31
0.0
  0
ARC
  5
2F0
330
1F
100
AcDbEntity
  8
0
100
AcDbCircle
 10
125.9107217816
 20
295.4921997323
 30
0.0
 40
5.000000000000072
100
AcDbArc
 50
56.15900768149999
 51
82.13207623940002
  0
ARC
  5
2F1
330
1F
100
AcDbEntity
  8
0
100
AcDbCircle
 10
125.4796217985
 20
295.4921997323
 30
0.0
 40
5.000000000000075
100
AcDbArc
 50
97.8679237606
 51
123.8409923185
  0
LINE
  5
2F2
330
1F
100
AcDbEntity
  8
0
100
AcDbLine
 10
123.6951717901
 20
296.1451310043
 30
0.0
 11
124.6951717901
 21
295.1451310043
 31
0.0
  0
LINE
  5
2F3
330
1F
100
AcDbEntity
  8
0
100
AcDbLine
 10
126.6951717901
 20
295.1451310043
 30
0.0
 11
127.6951717901
 21
296.1451310043
 31
0.0
  0
LINE
  5
2F4
330
1F
100
AcDbEntity
  8
0
100
AcDbLine
 10
127.1951717901
 20
296.1451310043
 30
0.0
 11
127.1951717901
 21
298.2451310043
 31
0.0
  0
LINE
  5
2F5
330
1F
100
AcDbEntity
  8
0
100
AcDbLine
 10
124.1951717901
 20
298.2451310043
 30
0.0
 11
124.1951717901
 21
296.1451310043
 31
0.0
  0
ARC
  5
2F6
330
1F
100
AcDbEntity
  8
0
100
AcDbCircle
 10
364.742240518
 20
269.4295810128
 30
0.0
 40
5.000000000000075
100
AcDbArc
 50
326.1590076815
 51
352.1320762394
  0
ARC
  5
2F7
330
1F
100
AcDbEntity
  8
0
100
AcDbCircle
 10
364.742240518
 20
269.8606809959
 30
0.0
 40
5.000000000000075
100
AcDbArc
 50
7.867923760599999
 51
33.8409923185
  0
LINE
  5
2F8
330
1F
100
AcDbEntity
  8
0
100
AcDbLine
 10
365.3951717901
 20
271.6451310043
 30
0.0
 11
364.3951717901
 21
270.6451310043
 31
0.0
  0
LINE
  5
2F9
330
1F
100
AcDbEntity
  8
0
100
AcDbLine
 10
364.3951717901
 20
268.6451310043
 30
0.0
 11
365.3951717901
 21
267.6451310043
 31
0.0
  0
LINE
  5
2FA
330
1F
100
AcDbEntity
  8
0
100
AcDbLine
 10
365.3951717901
 20
268.1451310043
 30
0.0
 11
367.4951717901
 21
268.1451310043
 31
0.0
  0
LINE
  5
2FB
330
1F
100
AcDbEntity
  8
0
100
AcDbLine
 10
367.4951717901
 20
271.1451310043
 30
0.0
 11
365.3951717901
 21
271.1451310043
 31
0.0
  0
ARC
  5
2FC
330
1F
100
AcDbEntity
  8
0
100
AcDbCircle
 10
238.7296217985
 20
15.3980622764
 30
0.0
 40
5.000000000000026
100
AcDbArc
 50
236.1590076815
 51
262.1320762394
  0
ARC
  5
2FD
330
1F
100
AcDbEntity
  8
0
100
AcDbCircle
 10
239.1607217816
 20
15.3980622764
 30
0.0
 40
5.000000000000026
100
AcDbArc
 50
277.8679237606
 51
303.8409923185
  0
LINE
  5
2FE
330
1F
100
AcDbEntity
  8
0
100
AcDbLine
 10
240.9451717901
 20
14.7451310043
 30
0.0
 11
239.9451717901
 21
15.7451310043
 31
0.0
  0
LINE
  5
2FF
330
1F
100
AcDbEntity
  8
0
100
AcDbLine
 10
237.9451717901
 20
15.7451310043
 30
0.0
 11
236.9451717901
 21
14.7451310043
 31
0.0
  0
LINE
  5
300
330
1F
100
AcDbEntity
  8
0
100
AcDbLine
 10
237.4451717901
 20
14.7451310043
 30
0.0
 11
237.4451717901
 21
12.6451310043
 31
0.0
  0
LINE
  5
301
330
1F
100
AcDbEntity
  8
0
100
AcDbLine
 10
240.4451717901
 20
12.6451310043
 30
0.0
 11
240.4451717901
 21
14.7451310043
 31
0.0
  0
ARC
  5
302
330
1F
100
AcDbEntity
  8
0
100
AcDbCircle
 10
351.9796217985
 20
15.3980622764
 30
0.0
 40
5.000000000000012
100
AcDbArc
 50
236.1590076815
 51
262.1320762394
  0
ARC
  5
303
330
1F
100
AcDbEntity
  8
0
100
AcDbCircle
 10
352.4107217816
 20
15.3980622764
 30
0.0
 40
5.000000000000028
100
AcDbArc
 50
277.8679237606
 51
303.8409923185
  0
LINE
  5
304
330
1F
100
AcDbEntity
  8
0
100
AcDbLine
 10
354.1951717901
 20
14.7451310043
 30
0.0
 11
353.1951717901
 21
15.7451310043
 31
0.0
  0
LINE
  5
305
330
1F
100
AcDbEntity
  8
0
100
AcDbLine
 10
351.1951717901
 20
15.7451310043
 30
0.0
 11
350.1951717901
 21
14.7451310043
 31
0.0
  0
LINE
  5
306
330
1F
100
AcDbEntity
  8
0
100
AcDbLine
 10
350.6951717901
 20
14.7451310043
 30
0.0
 11
350.6951717901
 21
12.6451310043
 31
0.0
  0
LINE
  5
307
330
1F
100
AcDbEntity
  8
0
100
AcDbLine
 10
353.6951717901
 20
12.6451310043
 30
0.0
 11
353.6951717901
 21
14.7451310043
 31
0.0
  0
LINE
  5
308
330
1F
100
AcDbEntity
  8
0
100
AcDbLine
 10
106.1951717901
 20
1.9451310043
 30
0.0
 11
104.5951717901
 21
1.9451310043
 31
0.0
  0
LINE
  5
309
330
1F
100
AcDbEntity
  8
0
100
AcDbLine
 10
104.5951717901
 20
-6.0548689957
 30
0.0
 11
106.1951717901
 21
-6.0548689957
 31
0.0
  0
ARC
  5
30A
330
1F
100
AcDbEntity
  8
0
100
AcDbCircle
 10
104.5951717901
 20
-4.5548689957
 30
0.0
 40
1.500000000000002
100
AcDbArc
 50
180.0
 51
270.0
  0
ARC
  5
30B
330
1F
100
AcDbEntity
  8
0
100
AcDbCircle
 10
104.5951717901
 20
0.4451310043
 30
0.0
 40
1.500000000000001
100
AcDbArc
 50
90.0
 51
180.0
  0
LINE
  5
30C
330
1F
100
AcDbEntity
  8
0
100
AcDbLine
 10
106.1951717901
 20
316.9451310043
 30
0.0
 11
104.5951717901
 21
316.9451310043
 31
0.0
  0
LINE
  5
30D
330
1F
100
AcDbEntity
  8
0
100
AcDbLine
 10
104.5951717901
 20
308.9451310043
 30
0.0
 11
106.1951717901
 21
308.9451310043
 31
0.0
  0
ARC
  5
30E
330
1F
100
AcDbEntity
  8
0
100
AcDbCircle
 10
104.5951717901
 20
310.4451310043
 30
0.0
 40
1.5
100
AcDbArc
 50
180.0
 51
270.0
  0
ARC
  5
30F
330
1F
100
AcDbEntity
  8
0
100
AcDbCircle
 10
104.5951717901
 20
315.4451310043
 30
0.0
 40
1.500000000000057
100
AcDbArc
 50
90.0
 51
180.0
  0
ARC
  5
310
330
1F
100
AcDbEntity
  8
0
100
AcDbCircle
 10
104.5951717901
 20
152.9451310043
 30
0.0
 40
1.500000000000028
100
AcDbArc
 50
180.0
 51
270.0
  0
ARC
  5
311
330
1F
100
AcDbEntity
  8
0
100
AcDbCircle
 10
104.5951717901
 20
157.9451310043
 30
0.0
 40
1.500000000000028
100
AcDbArc
 50
90.0
 51
180.0
  0
LINE
  5
312
330
1F
100
AcDbEntity
  8
0
100
AcDbLine
 10
106.1951717901
 20
159.4451310043
 30
0.0
 11
104.5951717901
 21
159.4451310043
 31
0.0
  0
LINE
  5
313
330
1F
100
AcDbEntity
  8
0
100
AcDbLine
 10
104.5951717901
 20
151.4451310043
 30
0.0
 11
106.1951717901
 21
151.4451310043
 31
0.0
  0
LINE
  5
314
330
1F
100
AcDbEntity
  8
0
100
AcDbLine
 10
106.9951717901
 20
1.9451310043
 30
0.0
 11
106.1951717901
 21
1.9451310043
 31
0.0
  0
LINE
  5
315
330
1F
100
AcDbEntity
  8
0
100
AcDbLine
 10
106.1951717901
 20
-6.0548689957
 30
0.0
 11
106.9951717901
 21
-6.0548689957
 31
0.0
  0
LINE
  5
316
330
1F
100
AcDbEntity
  8
0
100
AcDbLine
 10
106.9951717901
 20
316.9451310043
 30
0.0
 11
106.1951717901
 21
316.9451310043
 31
0.0
  0
LINE
  5
317
330
1F
100
AcDbEntity
  8
0
100
AcDbLine
 10
106.1951717901
 20
308.9451310043
 30
0.0
 11
106.9951717901
 21
308.9451310043
 31
0.0
  0
LINE
  5
318
330
1F
100
AcDbEntity
  8
0
100
AcDbLine
 10
106.9951717901
 20
159.4451310043
 30
0.0
 11
106.1951717901
 21
159.4451310043
 31
0.0
  0
LINE
  5
319
330
1F
100
AcDbEntity
  8
0
100
AcDbLine
 10
106.1951717901
 20
151.4451310043
 30
0.0
 11
106.9951717901
 21
151.4451310043
 31
0.0
  0
LINE
  5
31A
330
1F
100
AcDbEntity
  8
0
100
AcDbLine
 10
106.9951717901
 20
81.9451310043
 30
0.0
 11
104.9951717901
 21
81.9451310043
 31
0.0
  0
LINE
  5
31B
330
1F
100
AcDbEntity
  8
0
100
AcDbLine
 10
104.9951717901
 20
13.9451310043
 30
0.0
 11
106.9951717901
 21
13.9451310043
 31
0.0
  0
ARC
  5
31C
330
1F
100
AcDbEntity
  8
0
100
AcDbCircle
 10
96.9951717901
 20
67.9451310043
 30
0.0
 40
8.000000000000014
100
AcDbArc
 50
270.0
 51
0.0
  0
ARC
  5
31D
330
1F
100
AcDbEntity
  8
0
100
AcDbCircle
 10
96.9951717901
 20
27.9451310043
 30
0.0
 40
8.000000000000012
100
AcDbArc
 50
38.624832873
 51
90.0
  0
LINE
  5
31E
330
1F
100
AcDbEntity
  8
0
100
AcDbLine
 10
96.9951717901
 20
59.9451310043
 30
0.0
 11
94.9951717901
 21
59.9451310043
 31
0.0
  0
LINE
  5
31F
330
1F
100
AcDbEntity
  8
0
100
AcDbLine
 10
94.9951717901
 20
35.9451310043
 30
0.0
 11
96.9951717901
 21
35.9451310043
 31
0.0
  0
LINE
  5
320
330
1F
100
AcDbEntity
  8
0
100
AcDbLine
 10
106.9951717901
 20
294.9451310043
 30
0.0
 11
104.9951717901
 21
294.9451310043
 31
0.0
  0
LINE
  5
321
330
1F
100
AcDbEntity
  8
0
100
AcDbLine
 10
104.9951717901
 20
226.9451310043
 30
0.0
 11
106.9951717901
 21
226.9451310043
 31
0.0
  0
ARC
  5
322
330
1F
100
AcDbEntity
  8
0
100
AcDbCircle
 10
96.9951717901
 20
280.9451310043
 30
0.0
 40
7.999999999999983
100
AcDbArc
 50
270.0
 51
322.9441132024
  0
ARC
  5
323
330
1F
100
AcDbEntity
  8
0
100
AcDbCircle
 10
96.9951717901
 20
240.9451310043
 30
0.0
 40
8.000000000000014
100
AcDbArc
 50
0.0
 51
90.0
  0
LINE
  5
324
330
1F
100
AcDbEntity
  8
0
100
AcDbLine
 10
96.9951717901
 20
272.9451310043
 30
0.0
 11
94.9951717901
 21
272.9451310043
 31
0.0
  0
LINE
  5
325
330
1F
100
AcDbEntity
  8
0
100
AcDbLine
 10
94.9951717901
 20
248.9451310043
 30
0.0
 11
96.9951717901
 21
248.9451310043
 31
0.0
  0
CIRCLE
  5
326
330
1F
100
AcDbEntity
  8
0
100
AcDbCircle
 10
238.9451717901
 20
155.4451310043
 30
0.0
 40
87.40000000000005
  0
LINE
  5
328
330
1F
100
AcDbEntity
  8
0
100
AcDbLine
 10
65.1951717901
 20
35.1951310043
 30
0.0
 11
50.1951717901
 21
35.1951310043
 31
0.0
  0
LINE
  5
329
330
1F
100
AcDbEntity
  8
0
100
AcDbLine
 10
65.1951717901
 20
41.5701310043
 30
0.0
 11
65.1951717901
 21
35.1951310043
 31
0.0
  0
LINE
  5
32A
330
1F
100
AcDbEntity
  8
0
100
AcDbLine
 10
50.1951717901
 20
41.5701310043
 30
0.0
 11
50.1951717901
 21
35.1951310043
 31
0.0
  0
LINE
  5
32C
330
1F
100
AcDbEntity
  8
0
100
AcDbLine
 10
65.1951717901
 20
54.3201310043
 30
0.0
 11
65.1951717901
 21
41.5701310043
 31
0.0
  0
LINE
  5
32D
330
1F
100
AcDbEntity
  8
0
100
AcDbLine
 10
50.1951717901
 20
54.3201310043
 30
0.0
 11
50.1951717901
 21
41.5701310043
 31
0.0
  0
LINE
  5
32E
330
1F
100
AcDbEntity
  8
0
100
AcDbLine
 10
65.1951717901
 20
60.6951310043
 30
0.0
 11
50.1951717901
 21
60.6951310043
 31
0.0
  0
LINE
  5
32F
330
1F
100
AcDbEntity
  8
0
100
AcDbLine
 10
65.1951717901
 20
60.6951310043
 30
0.0
 11
65.1951717901
 21
54.3201310043
 31
0.0
  0
LINE
  5
330
330
1F
100
AcDbEntity
  8
0
100
AcDbLine
 10
50.1951717901
 20
60.6951310043
 30
0.0
 11
50.1951717901
 21
54.3201310043
 31
0.0
  0
LINE
  5
331
330
1F
100
AcDbEntity
  8
0
100
AcDbLine
 10
33.1951717901
 20
37.2951310043
 30
0.0
 11
33.1951717901
 21
58.5951310043
 31
0.0
  0
LINE
  5
332
330
1F
100
AcDbEntity
  8
0
100
AcDbLine
 10
65.1951717901
 20
273.6951310043
 30
0.0
 11
50.1951717901
 21
273.6951310043
 31
0.0
  0
LINE
  5
333
330
1F
100
AcDbEntity
  8
0
100
AcDbLine
 10
65.1951717901
 20
273.6951310043
 30
0.0
 11
65.1951717901
 21
267.3201310043
 31
0.0
  0
LINE
  5
335
330
1F
100
AcDbEntity
  8
0
100
AcDbLine
 10
50.1951717901
 20
273.6951310043
 30
0.0
 11
50.1951717901
 21
267.3201310043
 31
0.0
  0
LINE
  5
337
330
1F
100
AcDbEntity
  8
0
100
AcDbLine
 10
50.1951717901
 20
267.3201310043
 30
0.0
 11
50.1951717901
 21
254.5701310043
 31
0.0
  0
LINE
  5
338
330
1F
100
AcDbEntity
  8
0
100
AcDbLine
 10
65.1951717901
 20
267.3201310043
 30
0.0
 11
65.1951717901
 21
254.5701310043
 31
0.0
  0
LINE
  5
339
330
1F
100
AcDbEntity
  8
0
100
AcDbLine
 10
65.1951717901
 20
248.1951310043
 30
0.0
 11
50.1951717901
 21
248.1951310043
 31
0.0
  0
LINE
  5
33A
330
1F
100
AcDbEntity
  8
0
100
AcDbLine
 10
50.1951717901
 20
254.5701310043
 30
0.0
 11
50.1951717901
 21
248.1951310043
 31
0.0
  0
LINE
  5
33B
330
1F
100
AcDbEntity
  8
0
100
AcDbLine
 10
65.1951717901
 20
254.5701310043
 30
0.0
 11
65.1951717901
 21
248.1951310043
 31
0.0
  0
LINE
  5
33C
330
1F
100
AcDbEntity
  8
0
100
AcDbLine
 10
33.1951717901
 20
250.2951310043
 30
0.0
 11
33.1951717901
 21
271.5951310043
 31
0.0
  0
LINE
  5
35B
330
1F
100
AcDbEntity
  8
0
100
AcDbLine
 10
106.2951717901
 20
274.8451310043
 30
0.0
 11
106.2951717901
 21
283.0451310043
 31
0.0
  0
LINE
  5
35C
330
1F
100
AcDbEntity
  8
0
100
AcDbLine
 10
103.2451717901
 20
279.1951310043
 30
0.0
 11
103.2451717901
 21
281.0301969505
 31
0.0
  0
LINE
  5
35D
330
1F
100
AcDbEntity
  8
0
100
AcDbLine
 10
103.2451717901
 20
281.0301969505
 30
0.0
 11
103.2451717901
 21
281.0451310043
 31
0.0
  0
LINE
  5
35E
330
1F
100
AcDbEntity
  8
0
100
AcDbLine
 10
103.2451717901
 20
276.8451310043
 30
0.0
 11
103.2451717901
 21
276.8600650581
 31
0.0
  0
LINE
  5
35F
330
1F
100
AcDbEntity
  8
0
100
AcDbLine
 10
103.2451717901
 20
276.8600650581
 30
0.0
 11
103.2451717901
 21
278.6951310043
 31
0.0
  0
LINE
  5
360
330
1F
100
AcDbEntity
  8
0
100
AcDbLine
 10
103.2451717901
 20
278.6951310043
 30
0.0
 11
103.2451717901
 21
279.1951310043
 31
0.0
  0
LINE
  5
361
330
1F
100
AcDbEntity
  8
0
100
AcDbLine
 10
106.2951717901
 20
27.8451310043
 30
0.0
 11
106.2951717901
 21
36.0451310043
 31
0.0
  0
LINE
  5
362
330
1F
100
AcDbEntity
  8
0
100
AcDbLine
 10
103.2451717901
 20
32.1951310043
 30
0.0
 11
103.2451717901
 21
34.0301969505
 31
0.0
  0
LINE
  5
363
330
1F
100
AcDbEntity
  8
0
100
AcDbLine
 10
103.2451717901
 20
34.0301969505
 30
0.0
 11
103.2451717901
 21
34.0451310043
 31
0.0
  0
LINE
  5
364
330
1F
100
AcDbEntity
  8
0
100
AcDbLine
 10
103.2451717901
 20
29.8451310043
 30
0.0
 11
103.2451717901
 21
29.8600650581
 31
0.0
  0
LINE
  5
365
330
1F
100
AcDbEntity
  8
0
100
AcDbLine
 10
103.2451717901
 20
29.8600650581
 30
0.0
 11
103.2451717901
 21
31.6951310043
 31
0.0
  0
LINE
  5
366
330
1F
100
AcDbEntity
  8
0
100
AcDbLine
 10
103.2451717901
 20
31.6951310043
 30
0.0
 11
103.2451717901
 21
32.1951310043
 31
0.0
  0
LINE
  5
367
330
1F
100
AcDbEntity
  8
0
100
AcDbLine
 10
124.7490193674
 20
10.4451310043
 30
0.0
 11
124.7951717901
 21
10.4451310043
 31
0.0
  0
LINE
  5
369
330
1F
100
AcDbEntity
  8
0
100
AcDbLine
 10
124.7951717901
 20
300.4451310043
 30
0.0
 11
124.7490193674
 21
300.4451310043
 31
0.0
  0
LINE
  5
36B
330
1F
100
AcDbEntity
  8
0
100
AcDbLine
 10
353.0951717901
 20
300.4451310043
 30
0.0
 11
351.2951717901
 21
300.4451310043
 31
0.0
  0
LINE
  5
36C
330
1F
100
AcDbEntity
  8
0
100
AcDbLine
 10
353.1951717901
 20
295.1451310043
 30
0.0
 11
351.1951717901
 21
295.1451310043
 31
0.0
  0
LINE
  5
36D
330
1F
100
AcDbEntity
  8
0
100
AcDbLine
 10
354.1951717901
 20
296.1451310043
 30
0.0
 11
350.1951717901
 21
296.1451310043
 31
0.0
  0
LINE
  5
36E
330
1F
100
AcDbEntity
  8
0
100
AcDbLine
 10
239.8451717901
 20
300.4451310043
 30
0.0
 11
238.0451717901
 21
300.4451310043
 31
0.0
  0
LINE
  5
36F
330
1F
100
AcDbEntity
  8
0
100
AcDbLine
 10
239.9451717901
 20
295.1451310043
 30
0.0
 11
237.9451717901
 21
295.1451310043
 31
0.0
  0
LINE
  5
370
330
1F
100
AcDbEntity
  8
0
100
AcDbLine
 10
240.9451717901
 20
296.1451310043
 30
0.0
 11
236.9451717901
 21
296.1451310043
 31
0.0
  0
LINE
  5
371
330
1F
100
AcDbEntity
  8
0
100
AcDbLine
 10
124.7951717901
 20
10.4451310043
 30
0.0
 11
126.5951717901
 21
10.4451310043
 31
0.0
  0
LINE
  5
372
330
1F
100
AcDbEntity
  8
0
100
AcDbLine
 10
124.6951717901
 20
15.7451310043
 30
0.0
 11
126.6951717901
 21
15.7451310043
 31
0.0
  0
LINE
  5
373
330
1F
100
AcDbEntity
  8
0
100
AcDbLine
 10
123.6951717901
 20
14.7451310043
 30
0.0
 11
127.6951717901
 21
14.7451310043
 31
0.0
  0
LINE
  5
374
330
1F
100
AcDbEntity
  8
0
100
AcDbLine
 10
369.6951717901
 20
40.7528812796
 30
0.0
 11
369.6951717901
 21
42.1451310043
 31
0.0
  0
LINE
  5
375
330
1F
100
AcDbEntity
  8
0
100
AcDbLine
 10
369.6951717901
 20
40.3451310043
 30
0.0
 11
369.6951717901
 21
40.7528812796
 31
0.0
  0
LINE
  5
376
330
1F
100
AcDbEntity
  8
0
100
AcDbLine
 10
364.3951717901
 20
40.6981868657
 30
0.0
 11
364.3951717901
 21
42.2451310043
 31
0.0
  0
LINE
  5
377
330
1F
100
AcDbEntity
  8
0
100
AcDbLine
 10
364.3951717901
 20
40.2451310043
 30
0.0
 11
364.3951717901
 21
40.6981868657
 31
0.0
  0
LINE
  5
378
330
1F
100
AcDbEntity
  8
0
100
AcDbLine
 10
365.3951717901
 20
40.1512427271
 30
0.0
 11
365.3951717901
 21
43.2451310043
 31
0.0
  0
LINE
  5
379
330
1F
100
AcDbEntity
  8
0
100
AcDbLine
 10
365.3951717901
 20
39.2451310043
 30
0.0
 11
365.3951717901
 21
40.1512427271
 31
0.0
  0
LINE
  5
37A
330
1F
100
AcDbEntity
  8
0
100
AcDbLine
 10
369.6951717901
 20
154.9528812796
 30
0.0
 11
369.6951717901
 21
156.3451310043
 31
0.0
  0
LINE
  5
37B
330
1F
100
AcDbEntity
  8
0
100
AcDbLine
 10
369.6951717901
 20
154.5451310043
 30
0.0
 11
369.6951717901
 21
154.9528812796
 31
0.0
  0
LINE
  5
37C
330
1F
100
AcDbEntity
  8
0
100
AcDbLine
 10
364.3951717901
 20
154.8981868657
 30
0.0
 11
364.3951717901
 21
156.4451310043
 31
0.0
  0
LINE
  5
37D
330
1F
100
AcDbEntity
  8
0
100
AcDbLine
 10
364.3951717901
 20
154.4451310043
 30
0.0
 11
364.3951717901
 21
154.8981868657
 31
0.0
  0
LINE
  5
37E
330
1F
100
AcDbEntity
  8
0
100
AcDbLine
 10
365.3951717901
 20
154.3512427271
 30
0.0
 11
365.3951717901
 21
157.4451310043
 31
0.0
  0
LINE
  5
37F
330
1F
100
AcDbEntity
  8
0
100
AcDbLine
 10
365.3951717901
 20
153.4451310043
 30
0.0
 11
365.3951717901
 21
154.3512427271
 31
0.0
  0
LINE
  5
380
330
1F
100
AcDbEntity
  8
0
100
AcDbLine
 10
126.5951717901
 20
300.4451310043
 30
0.0
 11
124.7951717901
 21
300.4451310043
 31
0.0
  0
LINE
  5
381
330
1F
100
AcDbEntity
  8
0
100
AcDbLine
 10
126.6951717901
 20
295.1451310043
 30
0.0
 11
124.6951717901
 21
295.1451310043
 31
0.0
  0
LINE
  5
382
330
1F
100
AcDbEntity
  8
0
100
AcDbLine
 10
127.6951717901
 20
296.1451310043
 30
0.0
 11
123.6951717901
 21
296.1451310043
 31
0.0
  0
LINE
  5
383
330
1F
100
AcDbEntity
  8
0
100
AcDbLine
 10
369.6951717901
 20
269.1528812796
 30
0.0
 11
369.6951717901
 21
270.5451310043
 31
0.0
  0
LINE
  5
384
330
1F
100
AcDbEntity
  8
0
100
AcDbLine
 10
369.6951717901
 20
268.7451310043
 30
0.0
 11
369.6951717901
 21
269.1528812796
 31
0.0
  0
LINE
  5
385
330
1F
100
AcDbEntity
  8
0
100
AcDbLine
 10
364.3951717901
 20
269.0981868657
 30
0.0
 11
364.3951717901
 21
270.6451310043
 31
0.0
  0
LINE
  5
386
330
1F
100
AcDbEntity
  8
0
100
AcDbLine
 10
364.3951717901
 20
268.6451310043
 30
0.0
 11
364.3951717901
 21
269.0981868657
 31
0.0
  0
LINE
  5
387
330
1F
100
AcDbEntity
  8
0
100
AcDbLine
 10
365.3951717901
 20
268.5512427271
 30
0.0
 11
365.3951717901
 21
271.6451310043
 31
0.0
  0
LINE
  5
388
330
1F
100
AcDbEntity
  8
0
100
AcDbLine
 10
365.3951717901
 20
267.6451310043
 30
0.0
 11
365.3951717901
 21
268.5512427271
 31
0.0
  0
LINE
  5
389
330
1F
100
AcDbEntity
  8
0
100
AcDbLine
 10
238.0451717901
 20
10.4451310043
 30
0.0
 11
239.8451717901
 21
10.4451310043
 31
0.0
  0
LINE
  5
38A
330
1F
100
AcDbEntity
  8
0
100
AcDbLine
 10
237.9451717901
 20
15.7451310043
 30
0.0
 11
239.9451717901
 21
15.7451310043
 31
0.0
  0
LINE
  5
38B
330
1F
100
AcDbEntity
  8
0
100
AcDbLine
 10
236.9451717901
 20
14.7451310043
 30
0.0
 11
240.9451717901
 21
14.7451310043
 31
0.0
  0
LINE
  5
38C
330
1F
100
AcDbEntity
  8
0
100
AcDbLine
 10
351.2951717901
 20
10.4451310043
 30
0.0
 11
353.0951717901
 21
10.4451310043
 31
0.0
  0
LINE
  5
38D
330
1F
100
AcDbEntity
  8
0
100
AcDbLine
 10
351.1951717901
 20
15.7451310043
 30
0.0
 11
353.1951717901
 21
15.7451310043
 31
0.0
  0
LINE
  5
38E
330
1F
100
AcDbEntity
  8
0
100
AcDbLine
 10
350.1951717901
 20
14.7451310043
 30
0.0
 11
354.1951717901
 21
14.7451310043
 31
0.0
  0
LINE
  5
390
330
1F
100
AcDbEntity
  8
0
100
AcDbLine
 10
103.0951717901
 20
-4.5548689957
 30
0.0
 11
103.0951717901
 21
0.4451310043
 31
0.0
  0
LINE
  5
393
330
1F
100
AcDbEntity
  8
0
100
AcDbLine
 10
103.0951717901
 20
312.9451310043
 30
0.0
 11
103.0951717901
 21
315.4451310043
 31
0.0
  0
LINE
  5
394
330
1F
100
AcDbEntity
  8
0
100
AcDbLine
 10
103.0951717901
 20
310.4451310043
 30
0.0
 11
103.0951717901
 21
312.9451310043
 31
0.0
  0
LINE
  5
395
330
1F
100
AcDbEntity
  8
0
100
AcDbLine
 10
103.0951717901
 20
152.9451310043
 30
0.0
 11
103.0951717901
 21
157.9451310043
 31
0.0
  0
LINE
  5
396
330
1F
100
AcDbEntity
  8
0
100
AcDbLine
 10
106.1951717901
 20
151.4451310043
 30
0.0
 11
106.1951717901
 21
159.4451310043
 31
0.0
  0
LINE
  5
399
330
1F
100
AcDbEntity
  8
0
100
AcDbLine
 10
106.1951717901
 20
154.5056713588
 30
0.0
 11
106.1951717901
 21
159.4451310043
 31
0.0
  0
LINE
  5
39A
330
1F
100
AcDbEntity
  8
0
100
AcDbLine
 10
106.1951717901
 20
151.4451310043
 30
0.0
 11
106.1951717901
 21
154.5056713588
 31
0.0
  0
LINE
  5
39B
330
1F
100
AcDbEntity
  8
0
100
AcDbLine
 10
104.9951717901
 20
81.9451310043
 30
0.0
 11
104.9951717901
 21
36.0294444876
 31
0.0
  0
LINE
  5
39C
330
1F
100
AcDbEntity
  8
0
100
AcDbLine
 10
104.9951717901
 20
27.9451310043
 30
0.0
 11
104.9951717901
 21
13.9451310043
 31
0.0
  0
LINE
  5
39D
330
1F
100
AcDbEntity
  8
0
100
AcDbLine
 10
94.9951717901
 20
59.9451310043
 30
0.0
 11
94.9951717901
 21
35.9451310043
 31
0.0
  0
LINE
  5
39E
330
1F
100
AcDbEntity
  8
0
100
AcDbLine
 10
104.9951717901
 20
294.9451310043
 30
0.0
 11
104.9951717901
 21
283.0294444876
 31
0.0
  0
LINE
  5
39F
330
1F
100
AcDbEntity
  8
0
100
AcDbLine
 10
104.9951717901
 20
274.860817521
 30
0.0
 11
104.9951717901
 21
226.9451310043
 31
0.0
  0
LINE
  5
3A0
330
1F
100
AcDbEntity
  8
0
100
AcDbLine
 10
94.9951717901
 20
272.9451310043
 30
0.0
 11
94.9951717901
 21
248.9451310043
 31
0.0
  0
LINE
  5
3A4
330
1F
100
AcDbEntity
  8
0
100
AcDbLine
 10
115.9951717901
 20
-10.7548689957
 30
0.0
 11
115.9951717901
 21
321.6451310044
 31
0.0
  0
LINE
  5
3A7
330
1F
100
AcDbEntity
  8
0
100
AcDbLine
 10
106.9951717901
 20
-9.0548689957
 30
0.0
 11
106.9951717901
 21
319.9451310044
 31
0.0
  0
LINE
  5
3AA
330
1F
100
AcDbEntity
  8
0
100
AcDbLine
 10
115.9951717901
 20
321.6451310044
 30
0.0
 11
108.6951717901
 21
321.6451310043
 31
0.0
  0
LINE
  5
3AD
330
1F
100
AcDbEntity
  8
0
100
AcDbLine
 10
108.6951717901
 20
-10.7548689957
 30
0.0
 11
115.9951717901
 21
-10.7548689957
 31
0.0
  0
ARC
  5
3B1
330
1F
100
AcDbEntity
  8
0
100
AcDbCircle
 10
108.6951717901
 20
-9.0548689957
 30
0.0
 40
1.700000000000035
100
AcDbArc
 50
180.0
 51
270.0
  0
ARC
  5
3B3
330
1F
100
AcDbEntity
  8
0
100
AcDbCircle
 10
108.6951717901
 20
319.9451310043
 30
0.0
 40
1.700000000000017
100
AcDbArc
 50
90.0
 51
179.9999999993
  0
LINE
  5
3B4
330
1F
100
AcDbEntity
  8
0
100
AcDbLine
 10
367.1951717901
 20
299.6451310043
 30
0.0
 11
115.9951717901
 21
299.6451310043
 31
0.0
  0
ARC
  5
3B9
330
1F
100
AcDbEntity
  8
0
100
AcDbCircle
 10
367.1951717901
 20
12.9451310043
 30
0.0
 40
1.699999999999989
100
AcDbArc
 50
270.0
 51
0.0
  0
LINE
  5
3BC
330
1F
100
AcDbEntity
  8
0
100
AcDbLine
 10
368.8951717901
 20
12.9451310043
 30
0.0
 11
368.8951717901
 21
297.9451310043
 31
0.0
  0
LINE
  5
3BE
330
1F
100
AcDbEntity
  8
0
100
AcDbLine
 10
115.9951717901
 20
11.2451310043
 30
0.0
 11
367.1951717901
 21
11.2451310043
 31
0.0
  0
ARC
  5
3C1
330
1F
100
AcDbEntity
  8
0
100
AcDbCircle
 10
367.1951717901
 20
297.9451310043
 30
0.0
 40
1.699999999999989
100
AcDbArc
 50
0.0
 51
90.0
  0
CIRCLE
  5
3C2
330
1F
100
AcDbEntity
  8
0
100
AcDbCircle
 10
136.4451717901
 20
155.4451310043
 30
0.0
 40
3.899999999999977
  0
CIRCLE
  5
3C3
330
1F
100
AcDbEntity
  8
0
100
AcDbCircle
 10
136.4451717901
 20
155.4451310043
 30
0.0
 40
1.099999999999994
  0
CIRCLE
  5
3C4
330
1F
100
AcDbEntity
  8
0
100
AcDbCircle
 10
187.6951717901
 20
244.2127348922
 30
0.0
 40
3.899999999999977
  0
CIRCLE
  5
3C5
330
1F
100
AcDbEntity
  8
0
100
AcDbCircle
 10
187.6951717901
 20
244.2127348922
 30
0.0
 40
1.100000000000023
  0
CIRCLE
  5
3C6
330
1F
100
AcDbEntity
  8
0
100
AcDbCircle
 10
290.1951717901
 20
244.2127348922
 30
0.0
 40
3.89999999999992
  0
CIRCLE
  5
3C7
330
1F
100
AcDbEntity
  8
0
100
AcDbCircle
 10
290.1951717901
 20
244.2127348922
 30
0.0
 40
1.099999999999966
  0
CIRCLE
  5
3C8
330
1F
100
AcDbEntity
  8
0
100
AcDbCircle
 10
341.4451717901
 20
155.4451310043
 30
0.0
 40
3.900000000000017
  0
CIRCLE
  5
3C9
330
1F
100
AcDbEntity
  8
0
100
AcDbCircle
 10
341.4451717901
 20
155.4451310043
 30
0.0
 40
1.100000000000022
  0
CIRCLE
  5
3CA
330
1F
100
AcDbEntity
  8
0
100
AcDbCircle
 10
290.1951717901
 20
66.6775271164
 30
0.0
 40
3.899999999999977
  0
CIRCLE
  5
3CB
330
1F
100
AcDbEntity
  8
0
100
AcDbCircle
 10
290.1951717901
 20
66.6775271164
 30
0.0
 40
1.099999999999966
  0
CIRCLE
  5
3CC
330
1F
100
AcDbEntity
  8
0
100
AcDbCircle
 10
187.6951717901
 20
66.6775271164
 30
0.0
 40
3.900000000000006
  0
CIRCLE
  5
3CD
330
1F
100
AcDbEntity
  8
0
100
AcDbCircle
 10
187.6951717901
 20
66.6775271164
 30
0.0
 40
1.100000000000023
  0
CIRCLE
  5
3CE
330
1F
100
AcDbEntity
  8
0
100
AcDbCircle
 10
238.9451717901
 20
155.4451310043
 30
0.0
 40
86.94346606769385
  0
CIRCLE
  5
3CF
330
1F
100
AcDbEntity
  8
0
100
AcDbCircle
 10
238.9451717901
 20
155.4451310043
 30
0.0
 40
76.6999997578477
  0
CIRCLE
  5
3D0
330
1F
100
AcDbEntity
  8
0
100
AcDbCircle
 10
238.9451717901
 20
155.4451310043
 30
0.0
 40
77.84999999999997
  0
CIRCLE
  5
3D1
330
1F
100
AcDbEntity
  8
0
100
AcDbCircle
 10
238.9451717901
 20
155.4451310043
 30
0.0
 40
74.89999975784764
  0
CIRCLE
  5
3D2
330
1F
100
AcDbEntity
  8
0
100
AcDbCircle
 10
238.9451717901
 20
155.4451310043
 30
0.0
 40
79.64999999999998
  0
CIRCLE
  5
3D3
330
1F
100
AcDbEntity
  8
0
100
AcDbCircle
 10
238.9451717901
 20
155.4451310043
 30
0.0
 40
97.80000000000001
  0
LINE
  5
3D5
330
1F
100
AcDbEntity
  8
0
100
AcDbLine
 10
115.9951717901
 20
298.2451310043
 30
0.0
 11
367.4244611119
 21
298.2451310043
 31
0.0
  0
LINE
  5
3DA
330
1F
100
AcDbEntity
  8
0
100
AcDbLine
 10
367.4951717901
 20
298.1744203262
 30
0.0
 11
367.4951717901
 21
12.7158416825
 31
0.0
  0
LINE
  5
3DC
330
1F
100
AcDbEntity
  8
0
100
AcDbLine
 10
367.4244611119
 20
12.6451310043
 30
0.0
 11
115.9951717901
 21
12.6451310043
 31
0.0
  0
SPLINE
  5
3DE
330
1F
100
AcDbEntity
  8
0
100
AcDbSpline
210
0.0
220
0.0
230
1.0
 70
     8
 71
     3
 72
    11
 73
     7
 74
     0
 42
0.000000001
 43
0.00000001
 40
0.0
 40
0.0
 40
0.0
 40
0.0
 40
0.2497194705775357
 40
0.4995459238714933
 40
0.7493726557942206
 40
1.0
 40
1.0
 40
1.0
 40
1.0
 10
367.4951717900576
 20
298.1744203262199
 30
0.0
 10
367.4801744159019
 20
298.0970674100107
 30
0.0
 10
367.4501732425417
 20
297.9423284387062
 30
0.0
 10
367.2193262292188
 20
297.7102010310808
 30
0.0
 10
366.8888610793252
 20
297.477795864425
 30
0.0
 10
366.6265414369961
 20
297.3227686270979
 30
0.0
 10
366.4951717900576
 20
297.2451310043385
 30
0.0
  0
SPLINE
  5
3DF
330
1F
100
AcDbEntity
  8
0
100
AcDbSpline
210
0.0
220
0.0
230
1.0
 70
     8
 71
     3
 72
    11
 73
     7
 74
     0
 42
0.000000001
 43
0.00000001
 40
0.0
 40
0.0
 40
0.0
 40
0.0
 40
0.249719470577551
 40
0.4995459238715387
 40
0.7493726557942343
 40
1.0
 40
1.0
 40
1.0
 40
1.0
 10
366.4951717900576
 20
13.64513100433848
 30
0.0
 10
366.6260604920815
 20
13.56777808812923
 30
0.0
 10
366.8878939703668
 20
13.41303911682465
 30
0.0
 10
367.2182787493505
 20
13.18091170919941
 30
0.0
 10
367.4499011861737
 20
12.94850654254362
 30
0.0
 10
367.4800655034222
 20
12.79347930521654
 30
0.0
 10
367.4951717900576
 20
12.71584168245712
 30
0.0
  0
SPLINE
  5
3E0
330
1F
100
AcDbEntity
  8
0
100
AcDbSpline
210
0.0
220
0.0
230
1.0
 70
     8
 71
     3
 72
    11
 73
     7
 74
     0
 42
0.000000001
 43
0.00000001
 40
0.0
 40
0.0
 40
0.0
 40
0.0
 40
0.2497194705775678
 40
0.4995459238715675
 40
0.7493726557943051
 40
1.0
 40
1.0
 40
1.0
 40
1.0
 10
366.4951717900576
 20
297.2451310043385
 30
0.0
 10
366.5725247062667
 20
297.3760197063625
 30
0.0
 10
366.7272636775713
 20
297.6378531846478
 30
0.0
 10
366.9593910851967
 20
297.9682379636316
 30
0.0
 10
367.1917962518524
 20
298.1998604004548
 30
0.0
 10
367.3468234891795
 20
298.2300247177032
 30
0.0
 10
367.4244611119389
 20
298.2451310043385
 30
0.0
  0
SPLINE
  5
3E1
330
1F
100
AcDbEntity
  8
0
100
AcDbSpline
210
0.0
220
0.0
230
1.0
 70
     8
 71
     3
 72
    11
 73
     7
 74
     0
 42
0.000000001
 43
0.00000001
 40
0.0
 40
0.0
 40
0.0
 40
0.0
 40
0.2497194705775529
 40
0.4995459238715266
 40
0.7493726557942465
 40
1.0
 40
1.0
 40
1.0
 40
1.0
 10
367.4244611119389
 20
12.64513100433842
 30
0.0
 10
367.3471081957297
 20
12.66012837849409
 30
0.0
 10
367.1923692244251
 20
12.69012955185431
 30
0.0
 10
366.9602418167998
 20
12.92097656517729
 30
0.0
 10
366.7278366501441
 20
13.25144171507078
 30
0.0
 10
366.5728094128169
 20
13.51376135739993
 30
0.0
 10
366.4951717900576
 20
13.64513100433848
 30
0.0
  0
CIRCLE
  5
3E2
330
1F
100
AcDbEntity
  8
0
100
AcDbCircle
 10
238.9451717901
 20
155.4451310043
 30
0.0
 40
98.50000000000003
  0
LINE
  5
3E8
330
1F
100
AcDbEntity
  8
0
100
AcDbLine
 10
104.5951717901
 20
159.4451310043
 30
0.0
 11
104.5951717901
 21
151.4451310043
 31
0.0
  0
LINE
  5
3EB
330
1F
100
AcDbEntity
  8
0
100
AcDbLine
 10
366.4951717901
 20
13.6451310043
 30
0.0
 11
366.4951717901
 21
39.7451310043
 31
0.0
  0
LINE
  5
3EC
330
1F
100
AcDbEntity
  8
0
100
AcDbLine
 10
366.4951717901
 20
42.7451310043
 30
0.0
 11
366.4951717901
 21
153.9451310043
 31
0.0
  0
LINE
  5
3ED
330
1F
100
AcDbEntity
  8
0
100
AcDbLine
 10
366.4951717901
 20
156.9451310043
 30
0.0
 11
366.4951717901
 21
268.1451310043
 31
0.0
  0
LINE
  5
3EE
330
1F
100
AcDbEntity
  8
0
100
AcDbLine
 10
366.4951717901
 20
271.1451310043
 30
0.0
 11
366.4951717901
 21
297.2451310043
 31
0.0
  0
LINE
  5
3EF
330
1F
100
AcDbEntity
  8
0
100
AcDbLine
 10
366.4951717901
 20
297.2451310043
 30
0.0
 11
353.6951717901
 21
297.2451310043
 31
0.0
  0
LINE
  5
3F0
330
1F
100
AcDbEntity
  8
0
100
AcDbLine
 10
350.6951717901
 20
297.2451310043
 30
0.0
 11
240.4451717901
 21
297.2451310043
 31
0.0
  0
LINE
  5
3F1
330
1F
100
AcDbEntity
  8
0
100
AcDbLine
 10
237.4451717901
 20
297.2451310043
 30
0.0
 11
127.1951717901
 21
297.2451310043
 31
0.0
  0
LINE
  5
3F2
330
1F
100
AcDbEntity
  8
0
100
AcDbLine
 10
124.1951717901
 20
297.2451310043
 30
0.0
 11
115.9951717901
 21
297.2451310043
 31
0.0
  0
LINE
  5
3F3
330
1F
100
AcDbEntity
  8
0
100
AcDbLine
 10
115.9951717901
 20
13.6451310043
 30
0.0
 11
124.1951717901
 21
13.6451310043
 31
0.0
  0
LINE
  5
3F4
330
1F
100
AcDbEntity
  8
0
100
AcDbLine
 10
127.1951717901
 20
13.6451310043
 30
0.0
 11
237.4451717901
 21
13.6451310043
 31
0.0
  0
LINE
  5
3F5
330
1F
100
AcDbEntity
  8
0
100
AcDbLine
 10
240.4451717901
 20
13.6451310043
 30
0.0
 11
350.6951717901
 21
13.6451310043
 31
0.0
  0
LINE
  5
3F6
330
1F
100
AcDbEntity
  8
0
100
AcDbLine
 10
353.6951717901
 20
13.6451310043
 30
0.0
 11
366.4951717901
 21
13.6451310043
 31
0.0
  0
LINE
  5
3F7
330
1F
100
AcDbEntity
  8
0
100
AcDbLine
 10
47.2946994753
 20
649.2858261965
 30
0.0
 11
64.2946994753
 21
649.2858261965
 31
0.0
  0
LINE
  5
3F8
330
1F
100
AcDbEntity
  8
0
100
AcDbLine
 10
64.2946994753
 20
670.5858261965
 30
0.0
 11
47.2946994753
 21
670.5858261965
 31
0.0
  0
LINE
  5
3F9
330
1F
100
AcDbEntity
  8
0
100
AcDbLine
 10
79.2946994753
 20
650.9358261965
 30
0.0
 11
109.0946994753
 21
650.9358261965
 31
0.0
  0
LINE
  5
3FA
330
1F
100
AcDbEntity
  8
0
100
AcDbLine
 10
109.0946994753
 20
668.9358261965
 30
0.0
 11
79.2946994753
 21
668.9358261965
 31
0.0
  0
LINE
  5
3FB
330
1F
100
AcDbEntity
  8
0
100
AcDbLine
 10
47.2946994753
 20
627.2858261965
 30
0.0
 11
64.2946994753
 21
627.2858261965
 31
0.0
  0
LINE
  5
3FC
330
1F
100
AcDbEntity
  8
0
100
AcDbLine
 10
64.2946994753
 20
648.5858261965
 30
0.0
 11
47.2946994753
 21
648.5858261965
 31
0.0
  0
LINE
  5
3FD
330
1F
100
AcDbEntity
  8
0
100
AcDbLine
 10
79.2946994753
 20
628.9358261965
 30
0.0
 11
109.0946994753
 21
628.9358261965
 31
0.0
  0
LINE
  5
3FE
330
1F
100
AcDbEntity
  8
0
100
AcDbLine
 10
109.0946994753
 20
646.9358261965
 30
0.0
 11
79.2946994753
 21
646.9358261965
 31
0.0
  0
ARC
  5
3FF
330
1F
100
AcDbEntity
  8
0
100
AcDbCircle
 10
119.3446994753
 20
774.6858261965
 30
0.0
 40
2.0
100
AcDbArc
 50
180.0
 51
270.0
  0
ARC
  5
400
330
1F
100
AcDbEntity
  8
0
100
AcDbCircle
 10
119.3446994753
 20
778.8858261965
 30
0.0
 40
2.000000000000114
100
AcDbArc
 50
90.0
 51
180.0
  0
LINE
  5
401
330
1F
100
AcDbEntity
  8
0
100
AcDbLine
 10
119.3446994753
 20
772.6858261965
 30
0.0
 11
120.3946994753
 21
772.6858261965
 31
0.0
  0
LINE
  5
402
330
1F
100
AcDbEntity
  8
0
100
AcDbLine
 10
120.3946994753
 20
780.8858261965
 30
0.0
 11
119.3446994753
 21
780.8858261965
 31
0.0
  0
LINE
  5
403
330
1F
100
AcDbEntity
  8
0
100
AcDbLine
 10
120.3946994753
 20
774.6858261965
 30
0.0
 11
121.0946994753
 21
774.6858261965
 31
0.0
  0
LINE
  5
404
330
1F
100
AcDbEntity
  8
0
100
AcDbLine
 10
121.0946994753
 20
778.8858261965
 30
0.0
 11
120.3946994753
 21
778.8858261965
 31
0.0
  0
LINE
  5
405
330
1F
100
AcDbEntity
  8
0
100
AcDbLine
 10
119.3446994753
 20
516.9858261965
 30
0.0
 11
120.3946994753
 21
516.9858261965
 31
0.0
  0
LINE
  5
406
330
1F
100
AcDbEntity
  8
0
100
AcDbLine
 10
120.3946994753
 20
525.1858261965
 30
0.0
 11
119.3446994753
 21
525.1858261965
 31
0.0
  0
ARC
  5
407
330
1F
100
AcDbEntity
  8
0
100
AcDbCircle
 10
119.3446994753
 20
518.9858261965
 30
0.0
 40
2.0
100
AcDbArc
 50
180.0
 51
270.0
  0
ARC
  5
408
330
1F
100
AcDbEntity
  8
0
100
AcDbCircle
 10
119.3446994753
 20
523.1858261965
 30
0.0
 40
2.0
100
AcDbArc
 50
90.0
 51
180.0
  0
LINE
  5
409
330
1F
100
AcDbEntity
  8
0
100
AcDbLine
 10
120.3946994753
 20
518.9858261965
 30
0.0
 11
121.0946994753
 21
518.9858261965
 31
0.0
  0
LINE
  5
40A
330
1F
100
AcDbEntity
  8
0
100
AcDbLine
 10
121.0946994753
 20
523.1858261965
 30
0.0
 11
120.3946994753
 21
523.1858261965
 31
0.0
  0
ARC
  5
40B
330
1F
100
AcDbEntity
  8
0
100
AcDbCircle
 10
378.8417682032
 20
779.4202762049
 30
0.0
 40
5.000000000000074
100
AcDbArc
 50
326.1590076815
 51
352.1320762394
  0
ARC
  5
40C
330
1F
100
AcDbEntity
  8
0
100
AcDbCircle
 10
378.8417682032
 20
779.851376188
 30
0.0
 40
4.999999999999996
100
AcDbArc
 50
7.867923760599999
 51
33.8409923185
  0
ARC
  5
40D
330
1F
100
AcDbEntity
  8
0
100
AcDbCircle
 10
378.8417682032
 20
518.0202762049
 30
0.0
 40
5.000000000000012
100
AcDbArc
 50
326.1590076815
 51
352.1320762394
  0
ARC
  5
40E
330
1F
100
AcDbEntity
  8
0
100
AcDbCircle
 10
378.8417682032
 20
518.451376188
 30
0.0
 40
5.000000000000028
100
AcDbArc
 50
7.867923760599999
 51
33.8409923185
  0
ARC
  5
40F
330
1F
100
AcDbEntity
  8
0
100
AcDbCircle
 10
118.6946994753
 20
761.4358261965
 30
0.0
 40
1.5
100
AcDbArc
 50
180.0
 51
270.0
  0
ARC
  5
410
330
1F
100
AcDbEntity
  8
0
100
AcDbCircle
 10
118.6946994753
 20
766.4358261965
 30
0.0
 40
1.5
100
AcDbArc
 50
90.0
 51
180.0
  0
LINE
  5
411
330
1F
100
AcDbEntity
  8
0
100
AcDbLine
 10
120.2946994753
 20
767.9358261965
 30
0.0
 11
118.6946994753
 21
767.9358261965
 31
0.0
  0
LINE
  5
412
330
1F
100
AcDbEntity
  8
0
100
AcDbLine
 10
118.6946994753
 20
759.9358261965
 30
0.0
 11
120.2946994753
 21
759.9358261965
 31
0.0
  0
LINE
  5
413
330
1F
100
AcDbEntity
  8
0
100
AcDbLine
 10
120.2946994753
 20
537.9358261965
 30
0.0
 11
118.6946994753
 21
537.9358261965
 31
0.0
  0
LINE
  5
414
330
1F
100
AcDbEntity
  8
0
100
AcDbLine
 10
118.6946994753
 20
529.9358261965
 30
0.0
 11
120.2946994753
 21
529.9358261965
 31
0.0
  0
ARC
  5
415
330
1F
100
AcDbEntity
  8
0
100
AcDbCircle
 10
118.6946994753
 20
531.4358261965
 30
0.0
 40
1.5
100
AcDbArc
 50
180.0
 51
270.0
  0
ARC
  5
416
330
1F
100
AcDbEntity
  8
0
100
AcDbCircle
 10
118.6946994753
 20
536.4358261965
 30
0.0
 40
1.5
100
AcDbArc
 50
90.0
 51
180.0
  0
LINE
  5
41F
330
1F
100
AcDbEntity
  8
0
100
AcDbLine
 10
121.0946994753
 20
767.9358261965
 30
0.0
 11
120.2946994753
 21
767.9358261965
 31
0.0
  0
LINE
  5
420
330
1F
100
AcDbEntity
  8
0
100
AcDbLine
 10
120.2946994753
 20
759.9358261965
 30
0.0
 11
121.0946994753
 21
759.9358261965
 31
0.0
  0
LINE
  5
421
330
1F
100
AcDbEntity
  8
0
100
AcDbLine
 10
121.0946994753
 20
537.9358261965
 30
0.0
 11
120.2946994753
 21
537.9358261965
 31
0.0
  0
LINE
  5
422
330
1F
100
AcDbEntity
  8
0
100
AcDbLine
 10
120.2946994753
 20
529.9358261965
 30
0.0
 11
121.0946994753
 21
529.9358261965
 31
0.0
  0
LINE
  5
425
330
1F
100
AcDbEntity
  8
0
100
AcDbLine
 10
121.0946994753
 20
693.9358261965
 30
0.0
 11
119.0946994753
 21
693.9358261965
 31
0.0
  0
ARC
  5
427
330
1F
100
AcDbEntity
  8
0
100
AcDbCircle
 10
111.0946994753
 20
679.9358261965
 30
0.0
 40
8.000000000000014
100
AcDbArc
 50
270.0
 51
0.0
  0
ARC
  5
428
330
1F
100
AcDbEntity
  8
0
100
AcDbCircle
 10
111.0946994753
 20
639.9358261965
 30
0.0
 40
8.000000000000014
100
AcDbArc
 50
0.0
 51
90.0
  0
LINE
  5
429
330
1F
100
AcDbEntity
  8
0
100
AcDbLine
 10
111.0946994753
 20
671.9358261965
 30
0.0
 11
109.0946994753
 21
671.9358261965
 31
0.0
  0
LINE
  5
42A
330
1F
100
AcDbEntity
  8
0
100
AcDbLine
 10
109.0946994753
 20
647.9358261965
 30
0.0
 11
111.0946994753
 21
647.9358261965
 31
0.0
  0
LINE
  5
42B
330
1F
100
AcDbEntity
  8
0
100
AcDbLine
 10
119.0946994753
 20
603.9358261965
 30
0.0
 11
121.0946994753
 21
603.9358261965
 31
0.0
  0
ARC
  5
42C
330
1F
100
AcDbEntity
  8
0
100
AcDbCircle
 10
111.0946994753
 20
617.9358261965
 30
0.0
 40
8.0
100
AcDbArc
 50
0.0
 51
90.0
  0
LINE
  5
42D
330
1F
100
AcDbEntity
  8
0
100
AcDbLine
 10
109.0946994753
 20
625.9358261965
 30
0.0
 11
111.0946994753
 21
625.9358261965
 31
0.0
  0
ARC
  5
42E
330
1F
100
AcDbEntity
  8
0
100
AcDbCircle
 10
166.1446994753
 20
828.9358261965
 30
0.0
 40
0.5
100
AcDbArc
 50
94.9871394293
 51
270.0
  0
ARC
  5
42F
330
1F
100
AcDbEntity
  8
0
100
AcDbCircle
 10
339.9446994753
 20
828.9358261965
 30
0.0
 40
0.5
100
AcDbArc
 50
270.0
 51
85.0128605707
  0
ARC
  5
430
330
1F
100
AcDbEntity
  8
0
100
AcDbCircle
 10
166.1446994753
 20
833.1358261965
 30
0.0
 40
0.5000000000001108
100
AcDbArc
 50
94.9871394293
 51
270.0
  0
ARC
  5
431
330
1F
100
AcDbEntity
  8
0
100
AcDbCircle
 10
339.9446994753
 20
833.1358261965
 30
0.0
 40
0.5000000000001084
100
AcDbArc
 50
270.0
 51
85.0128605707
  0
LINE
  5
432
330
1F
100
AcDbEntity
  8
0
100
AcDbLine
 10
339.988165543
 20
833.6339333144
 30
0.0
 11
332.1729664415
 21
834.3159070525
 31
0.0
  0
LINE
  5
433
330
1F
100
AcDbEntity
  8
0
100
AcDbLine
 10
173.9164325092
 20
834.3159070525
 30
0.0
 11
166.1012334076
 21
833.6339333144
 31
0.0
  0
LINE
  5
434
330
1F
100
AcDbEntity
  8
0
100
AcDbLine
 10
339.988165543
 20
829.4339333144
 30
0.0
 11
332.1729664415
 21
830.1159070525
 31
0.0
  0
LINE
  5
435
330
1F
100
AcDbEntity
  8
0
100
AcDbLine
 10
173.9164325092
 20
830.1159070525
 30
0.0
 11
166.1012334076
 21
829.4339333144
 31
0.0
  0
ARC
  5
436
330
1F
100
AcDbEntity
  8
0
100
AcDbCircle
 10
173.8946994753
 20
834.5649606114
 30
0.0
 40
0.2499999999999605
100
AcDbArc
 50
274.9871394292001
 51
0.0
  0
ARC
  5
437
330
1F
100
AcDbEntity
  8
0
100
AcDbCircle
 10
332.1946994753
 20
834.5649606114
 30
0.0
 40
0.249999999999958
100
AcDbArc
 50
180.0
 51
265.0128605708001
  0
ARC
  5
438
330
1F
100
AcDbEntity
  8
0
100
AcDbCircle
 10
173.8946994753
 20
830.3649606114
 30
0.0
 40
0.2500000000000663
100
AcDbArc
 50
274.9871394292001
 51
0.0
  0
ARC
  5
439
330
1F
100
AcDbEntity
  8
0
100
AcDbCircle
 10
332.1946994753
 20
830.3649606114
 30
0.0
 40
0.2500000000000614
100
AcDbArc
 50
180.0
 51
265.0128605708001
  0
LINE
  5
43A
330
1F
100
AcDbEntity
  8
0
100
AcDbLine
 10
174.1446994753
 20
832.6358261965
 30
0.0
 11
174.1446994753
 21
830.3649606114
 31
0.0
  0
LINE
  5
43B
330
1F
100
AcDbEntity
  8
0
100
AcDbLine
 10
331.9446994753
 20
830.3649606114
 30
0.0
 11
331.9446994753
 21
832.6358261965
 31
0.0
  0
LINE
  5
43C
330
1F
100
AcDbEntity
  8
0
100
AcDbLine
 10
174.1446994753
 20
835.4358261965
 30
0.0
 11
174.1446994753
 21
834.5649606114
 31
0.0
  0
LINE
  5
43D
330
1F
100
AcDbEntity
  8
0
100
AcDbLine
 10
331.9446994753
 20
834.5649606114
 30
0.0
 11
331.9446994753
 21
835.4358261965
 31
0.0
  0
ARC
  5
43E
330
1F
100
AcDbEntity
  8
0
100
AcDbCircle
 10
339.9446994753
 20
464.7358261965
 30
0.0
 40
0.5000000000000517
100
AcDbArc
 50
274.9871394293
 51
90.0
  0
ARC
  5
43F
330
1F
100
AcDbEntity
  8
0
100
AcDbCircle
 10
166.1446994753
 20
464.7358261965
 30
0.0
 40
0.5000000000000542
100
AcDbArc
 50
90.0
 51
265.0128605707
  0
ARC
  5
440
330
1F
100
AcDbEntity
  8
0
100
AcDbCircle
 10
339.9446994753
 20
468.9358261965
 30
0.0
 40
0.5000000000000568
100
AcDbArc
 50
274.9871394293
 51
90.0
  0
ARC
  5
441
330
1F
100
AcDbEntity
  8
0
100
AcDbCircle
 10
166.1446994753
 20
468.9358261965
 30
0.0
 40
0.5000000000000568
100
AcDbArc
 50
90.0
 51
265.0128605707
  0
LINE
  5
442
330
1F
100
AcDbEntity
  8
0
100
AcDbLine
 10
166.1012334076
 20
464.2377190785
 30
0.0
 11
173.9164325092
 21
463.5557453404
 31
0.0
  0
LINE
  5
443
330
1F
100
AcDbEntity
  8
0
100
AcDbLine
 10
332.1729664415
 20
463.5557453404
 30
0.0
 11
339.988165543
 21
464.2377190785
 31
0.0
  0
LINE
  5
444
330
1F
100
AcDbEntity
  8
0
100
AcDbLine
 10
166.1012334076
 20
468.4377190785
 30
0.0
 11
173.9164325092
 21
467.7557453404
 31
0.0
  0
LINE
  5
445
330
1F
100
AcDbEntity
  8
0
100
AcDbLine
 10
332.1729664415
 20
467.7557453404
 30
0.0
 11
339.988165543
 21
468.4377190785
 31
0.0
  0
ARC
  5
446
330
1F
100
AcDbEntity
  8
0
100
AcDbCircle
 10
332.1946994753
 20
463.3066917815
 30
0.0
 40
0.2500000000000147
100
AcDbArc
 50
94.9871394292
 51
180.0
  0
ARC
  5
447
330
1F
100
AcDbEntity
  8
0
100
AcDbCircle
 10
173.8946994753
 20
463.3066917815
 30
0.0
 40
0.2500000000000147
100
AcDbArc
 50
0.0
 51
85.0128605708
  0
ARC
  5
448
330
1F
100
AcDbEntity
  8
0
100
AcDbCircle
 10
332.1946994753
 20
467.5066917815
 30
0.0
 40
0.2500000000000147
100
AcDbArc
 50
94.9871394292
 51
180.0
  0
ARC
  5
449
330
1F
100
AcDbEntity
  8
0
100
AcDbCircle
 10
173.8946994753
 20
467.5066917815
 30
0.0
 40
0.2500000000000122
100
AcDbArc
 50
0.0
 51
85.0128605708
  0
LINE
  5
44A
330
1F
100
AcDbEntity
  8
0
100
AcDbLine
 10
331.9446994753
 20
462.4358261965
 30
0.0
 11
331.9446994753
 21
463.3066917815
 31
0.0
  0
LINE
  5
44B
330
1F
100
AcDbEntity
  8
0
100
AcDbLine
 10
174.1446994753
 20
463.3066917815
 30
0.0
 11
174.1446994753
 21
462.4358261965
 31
0.0
  0
LINE
  5
44C
330
1F
100
AcDbEntity
  8
0
100
AcDbLine
 10
331.9446994753
 20
465.2358261965
 30
0.0
 11
331.9446994753
 21
467.5066917815
 31
0.0
  0
LINE
  5
44D
330
1F
100
AcDbEntity
  8
0
100
AcDbLine
 10
174.1446994753
 20
467.5066917815
 30
0.0
 11
174.1446994753
 21
465.2358261965
 31
0.0
  0
ARC
  5
44E
330
1F
100
AcDbEntity
  8
0
100
AcDbCircle
 10
364.6803235851
 20
506.0814416857
 30
0.0
 40
32.00000000000011
100
AcDbArc
 50
165.7915997277
 51
181.7174981389
  0
ARC
  5
44F
330
1F
100
AcDbEntity
  8
0
100
AcDbCircle
 10
141.4090753655
 20
506.0814416857
 30
0.0
 40
32.00000000000006
100
AcDbArc
 50
358.2825018611
 51
14.2084002723
  0
ARC
  5
450
330
1F
100
AcDbEntity
  8
0
100
AcDbCircle
 10
332.4136994753
 20
488.1223534165
 30
0.0
 40
2.000000000000083
100
AcDbArc
 50
283.6505766732
 51
76.34942332680001
  0
ARC
  5
451
330
1F
100
AcDbEntity
  8
0
100
AcDbCircle
 10
173.6756994753
 20
488.1223534165
 30
0.0
 40
2.00000000000009
100
AcDbArc
 50
103.6505766732
 51
256.3494233268
  0
ARC
  5
452
330
1F
100
AcDbEntity
  8
0
100
AcDbCircle
 10
332.9446994753
 20
490.3087977903
 30
0.0
 40
0.2500000000000568
100
AcDbArc
 50
180.0
 51
256.3494233267
  0
ARC
  5
453
330
1F
100
AcDbEntity
  8
0
100
AcDbCircle
 10
173.1446994753
 20
490.3087977903
 30
0.0
 40
0.2500000000000175
100
AcDbArc
 50
283.6505766732
 51
0.0
  0
ARC
  5
454
330
1F
100
AcDbEntity
  8
0
100
AcDbCircle
 10
332.9446994753
 20
485.9359090426
 30
0.0
 40
0.2500000000001137
100
AcDbArc
 50
103.6505766733
 51
180.0
  0
ARC
  5
455
330
1F
100
AcDbEntity
  8
0
100
AcDbCircle
 10
173.1446994753
 20
485.9359090426
 30
0.0
 40
0.2500000000000377
100
AcDbArc
 50
0.0
 51
76.34942332680001
  0
ARC
  5
456
330
1F
100
AcDbEntity
  8
0
100
AcDbCircle
 10
330.8946994753
 20
457.7358261965
 30
0.0
 40
1.800000000000068
100
AcDbArc
 50
270.0
 51
0.0
  0
ARC
  5
457
330
1F
100
AcDbEntity
  8
0
100
AcDbCircle
 10
175.1946994753
 20
457.7358261965
 30
0.0
 40
1.800000000000068
100
AcDbArc
 50
180.0
 51
270.0
  0
LINE
  5
458
330
1F
100
AcDbEntity
  8
0
100
AcDbLine
 10
332.6946994753
 20
480.5514060242
 30
0.0
 11
332.6946994753
 21
485.9359090426
 31
0.0
  0
LINE
  5
459
330
1F
100
AcDbEntity
  8
0
100
AcDbLine
 10
173.3946994753
 20
485.9359090426
 30
0.0
 11
173.3946994753
 21
480.5514060242
 31
0.0
  0
LINE
  5
45A
330
1F
100
AcDbEntity
  8
0
100
AcDbLine
 10
332.6946994753
 20
457.7358261965
 30
0.0
 11
332.6946994753
 21
462.4358261965
 31
0.0
  0
LINE
  5
45B
330
1F
100
AcDbEntity
  8
0
100
AcDbLine
 10
173.3946994753
 20
462.4358261965
 30
0.0
 11
173.3946994753
 21
457.7358261965
 31
0.0
  0
LINE
  5
45C
330
1F
100
AcDbEntity
  8
0
100
AcDbLine
 10
173.3946994753
 20
480.5514060242
 30
0.0
 11
175.1446994753
 21
478.8014060242
 31
0.0
  0
LINE
  5
45D
330
1F
100
AcDbEntity
  8
0
100
AcDbLine
 10
330.9446994753
 20
478.8014060242
 30
0.0
 11
332.6946994753
 21
480.5514060242
 31
0.0
  0
LINE
  5
45E
330
1F
100
AcDbEntity
  8
0
100
AcDbLine
 10
332.6946994753
 20
490.3087977903
 30
0.0
 11
332.6946994753
 21
505.1223534164
 31
0.0
  0
LINE
  5
45F
330
1F
100
AcDbEntity
  8
0
100
AcDbLine
 10
173.3946994753
 20
505.1223534164
 30
0.0
 11
173.3946994753
 21
490.3087977903
 31
0.0
  0
LINE
  5
460
330
1F
100
AcDbEntity
  8
0
100
AcDbLine
 10
175.1446994753
 20
478.8014060242
 30
0.0
 11
177.0446994753
 21
471.8014060242
 31
0.0
  0
LINE
  5
461
330
1F
100
AcDbEntity
  8
0
100
AcDbLine
 10
329.0446994753
 20
471.8014060242
 30
0.0
 11
330.9446994753
 21
478.8014060242
 31
0.0
  0
LINE
  5
462
330
1F
100
AcDbEntity
  8
0
100
AcDbLine
 10
329.0446994753
 20
469.4358261965
 30
0.0
 11
329.0446994753
 21
471.8014060242
 31
0.0
  0
LINE
  5
463
330
1F
100
AcDbEntity
  8
0
100
AcDbLine
 10
177.0446994753
 20
471.8014060242
 30
0.0
 11
177.0446994753
 21
469.4358261965
 31
0.0
  0
ARC
  5
464
330
1F
100
AcDbEntity
  8
0
100
AcDbCircle
 10
141.4090753655
 20
791.7902107072
 30
0.0
 40
32.00000000000011
100
AcDbArc
 50
345.7915997277
 51
1.7174981389
  0
ARC
  5
465
330
1F
100
AcDbEntity
  8
0
100
AcDbCircle
 10
364.6803235851
 20
791.7902107072
 30
0.0
 40
32.00000000000003
100
AcDbArc
 50
178.2825018611
 51
194.2084002723
  0
ARC
  5
466
330
1F
100
AcDbEntity
  8
0
100
AcDbCircle
 10
173.6756994753
 20
809.7492989764
 30
0.0
 40
1.99999999999998
100
AcDbArc
 50
103.6505766732
 51
256.3494233268
  0
ARC
  5
467
330
1F
100
AcDbEntity
  8
0
100
AcDbCircle
 10
332.4136994753
 20
809.7492989764
 30
0.0
 40
1.999999999999973
100
AcDbArc
 50
283.6505766732
 51
76.34942332680001
  0
ARC
  5
468
330
1F
100
AcDbEntity
  8
0
100
AcDbCircle
 10
173.1446994753
 20
807.5628546026
 30
0.0
 40
0.2500000000000243
100
AcDbArc
 50
0.0
 51
76.34942332680001
  0
ARC
  5
469
330
1F
100
AcDbEntity
  8
0
100
AcDbCircle
 10
332.9446994753
 20
807.5628546026
 30
0.0
 40
0.2500000000000444
100
AcDbArc
 50
103.6505766733
 51
180.0
  0
ARC
  5
46A
330
1F
100
AcDbEntity
  8
0
100
AcDbCircle
 10
173.1446994753
 20
811.9357433503
 30
0.0
 40
0.250000000000031
100
AcDbArc
 50
283.6505766732
 51
0.0
  0
ARC
  5
46B
330
1F
100
AcDbEntity
  8
0
100
AcDbCircle
 10
332.9446994753
 20
811.9357433503
 30
0.0
 40
0.2500000000000444
100
AcDbArc
 50
180.0
 51
256.3494233267
  0
LINE
  5
46C
330
1F
100
AcDbEntity
  8
0
100
AcDbLine
 10
173.3946994753
 20
807.5628546026
 30
0.0
 11
173.3946994753
 21
792.7492989765
 31
0.0
  0
LINE
  5
46D
330
1F
100
AcDbEntity
  8
0
100
AcDbLine
 10
332.6946994753
 20
792.7492989765
 30
0.0
 11
332.6946994753
 21
807.5628546026
 31
0.0
  0
LINE
  5
46E
330
1F
100
AcDbEntity
  8
0
100
AcDbLine
 10
173.3946994753
 20
817.3202463687
 30
0.0
 11
173.3946994753
 21
811.9357433503
 31
0.0
  0
LINE
  5
46F
330
1F
100
AcDbEntity
  8
0
100
AcDbLine
 10
332.6946994753
 20
811.9357433503
 30
0.0
 11
332.6946994753
 21
817.3202463687
 31
0.0
  0
LINE
  5
470
330
1F
100
AcDbEntity
  8
0
100
AcDbLine
 10
332.6946994753
 20
817.3202463687
 30
0.0
 11
330.9446994753
 21
819.0702463687
 31
0.0
  0
LINE
  5
471
330
1F
100
AcDbEntity
  8
0
100
AcDbLine
 10
175.1446994753
 20
819.0702463687
 30
0.0
 11
173.3946994753
 21
817.3202463687
 31
0.0
  0
LINE
  5
472
330
1F
100
AcDbEntity
  8
0
100
AcDbLine
 10
173.3946994753
 20
840.1358261965
 30
0.0
 11
173.3946994753
 21
835.4358261965
 31
0.0
  0
LINE
  5
473
330
1F
100
AcDbEntity
  8
0
100
AcDbLine
 10
332.6946994753
 20
835.4358261965
 30
0.0
 11
332.6946994753
 21
840.1358261965
 31
0.0
  0
ARC
  5
474
330
1F
100
AcDbEntity
  8
0
100
AcDbCircle
 10
175.1946994753
 20
840.1358261965
 30
0.0
 40
1.800000000000068
100
AcDbArc
 50
90.0
 51
180.0
  0
ARC
  5
475
330
1F
100
AcDbEntity
  8
0
100
AcDbCircle
 10
330.8946994753
 20
840.1358261965
 30
0.0
 40
1.800000000000068
100
AcDbArc
 50
0.0
 51
90.0
  0
LINE
  5
476
330
1F
100
AcDbEntity
  8
0
100
AcDbLine
 10
330.9446994753
 20
819.0702463687
 30
0.0
 11
329.0446994753
 21
826.0702463687
 31
0.0
  0
LINE
  5
477
330
1F
100
AcDbEntity
  8
0
100
AcDbLine
 10
177.0446994753
 20
826.0702463687
 30
0.0
 11
175.1446994753
 21
819.0702463687
 31
0.0
  0
LINE
  5
478
330
1F
100
AcDbEntity
  8
0
100
AcDbLine
 10
177.0446994753
 20
828.4358261965
 30
0.0
 11
177.0446994753
 21
826.0702463687
 31
0.0
  0
LINE
  5
479
330
1F
100
AcDbEntity
  8
0
100
AcDbLine
 10
329.0446994753
 20
826.0702463687
 30
0.0
 11
329.0446994753
 21
828.4358261965
 31
0.0
  0
LINE
  5
47B
330
1F
100
AcDbEntity
  8
0
100
AcDbLine
 10
79.2946994753
 20
659.9358261965
 30
0.0
 11
79.2946994753
 21
648.8940022982
 31
0.0
  0
LINE
  5
47C
330
1F
100
AcDbEntity
  8
0
100
AcDbLine
 10
79.2946994753
 20
648.8940022982
 30
0.0
 11
64.2946994753
 21
648.8940022982
 31
0.0
  0
LINE
  5
47D
330
1F
100
AcDbEntity
  8
0
100
AcDbLine
 10
64.2946994753
 20
659.9358261965
 30
0.0
 11
64.2946994753
 21
648.8940022982
 31
0.0
  0
LINE
  5
47E
330
1F
100
AcDbEntity
  8
0
100
AcDbLine
 10
79.2946994753
 20
670.9776500947
 30
0.0
 11
64.2946994753
 21
670.9776500947
 31
0.0
  0
LINE
  5
47F
330
1F
100
AcDbEntity
  8
0
100
AcDbLine
 10
79.2946994753
 20
670.9776500947
 30
0.0
 11
79.2946994753
 21
659.9358261965
 31
0.0
  0
LINE
  5
480
330
1F
100
AcDbEntity
  8
0
100
AcDbLine
 10
64.2946994753
 20
670.9776500947
 30
0.0
 11
64.2946994753
 21
659.9358261965
 31
0.0
  0
LINE
  5
481
330
1F
100
AcDbEntity
  8
0
100
AcDbLine
 10
47.2946994753
 20
649.2858261965
 30
0.0
 11
47.2946994753
 21
670.5858261965
 31
0.0
  0
LINE
  5
483
330
1F
100
AcDbEntity
  8
0
100
AcDbLine
 10
79.2946994753
 20
637.9358261965
 30
0.0
 11
79.2946994753
 21
626.8940022982
 31
0.0
  0
LINE
  5
484
330
1F
100
AcDbEntity
  8
0
100
AcDbLine
 10
79.2946994753
 20
626.8940022982
 30
0.0
 11
64.2946994753
 21
626.8940022982
 31
0.0
  0
LINE
  5
485
330
1F
100
AcDbEntity
  8
0
100
AcDbLine
 10
64.2946994753
 20
637.9358261965
 30
0.0
 11
64.2946994753
 21
626.8940022982
 31
0.0
  0
LINE
  5
486
330
1F
100
AcDbEntity
  8
0
100
AcDbLine
 10
79.2946994753
 20
648.8940022982
 30
0.0
 11
79.2946994753
 21
637.9358261965
 31
0.0
  0
LINE
  5
487
330
1F
100
AcDbEntity
  8
0
100
AcDbLine
 10
64.2946994753
 20
648.8940022982
 30
0.0
 11
64.2946994753
 21
637.9358261965
 31
0.0
  0
LINE
  5
488
330
1F
100
AcDbEntity
  8
0
100
AcDbLine
 10
47.2946994753
 20
627.2858261965
 30
0.0
 11
47.2946994753
 21
648.5858261965
 31
0.0
  0
LINE
  5
489
330
1F
100
AcDbEntity
  8
0
100
AcDbLine
 10
117.3446994753
 20
774.6858261965
 30
0.0
 11
117.3446994753
 21
774.7007602503
 31
0.0
  0
LINE
  5
48A
330
1F
100
AcDbEntity
  8
0
100
AcDbLine
 10
117.3446994753
 20
774.7007602503
 30
0.0
 11
117.3446994753
 21
776.5358261965
 31
0.0
  0
LINE
  5
48B
330
1F
100
AcDbEntity
  8
0
100
AcDbLine
 10
117.3446994753
 20
776.5358261965
 30
0.0
 11
117.3446994753
 21
777.0358261965
 31
0.0
  0
LINE
  5
48C
330
1F
100
AcDbEntity
  8
0
100
AcDbLine
 10
117.3446994753
 20
777.0358261965
 30
0.0
 11
117.3446994753
 21
778.8708921427
 31
0.0
  0
LINE
  5
48D
330
1F
100
AcDbEntity
  8
0
100
AcDbLine
 10
117.3446994753
 20
778.8708921427
 30
0.0
 11
117.3446994753
 21
778.8858261965
 31
0.0
  0
LINE
  5
48E
330
1F
100
AcDbEntity
  8
0
100
AcDbLine
 10
120.3946994753
 20
776.7858261965
 30
0.0
 11
120.3946994753
 21
780.8858261965
 31
0.0
  0
LINE
  5
48F
330
1F
100
AcDbEntity
  8
0
100
AcDbLine
 10
120.3946994753
 20
772.6858261965
 30
0.0
 11
120.3946994753
 21
776.7858261965
 31
0.0
  0
LINE
  5
490
330
1F
100
AcDbEntity
  8
0
100
AcDbLine
 10
120.3946994753
 20
521.0858261965
 30
0.0
 11
120.3946994753
 21
525.1858261965
 31
0.0
  0
LINE
  5
491
330
1F
100
AcDbEntity
  8
0
100
AcDbLine
 10
120.3946994753
 20
516.9858261965
 30
0.0
 11
120.3946994753
 21
521.0858261965
 31
0.0
  0
LINE
  5
492
330
1F
100
AcDbEntity
  8
0
100
AcDbLine
 10
117.3446994753
 20
518.9858261965
 30
0.0
 11
117.3446994753
 21
519.0007602503
 31
0.0
  0
LINE
  5
493
330
1F
100
AcDbEntity
  8
0
100
AcDbLine
 10
117.3446994753
 20
519.0007602503
 30
0.0
 11
117.3446994753
 21
520.8358261965
 31
0.0
  0
LINE
  5
494
330
1F
100
AcDbEntity
  8
0
100
AcDbLine
 10
117.3446994753
 20
520.8358261965
 30
0.0
 11
117.3446994753
 21
521.3358261965
 31
0.0
  0
LINE
  5
495
330
1F
100
AcDbEntity
  8
0
100
AcDbLine
 10
117.3446994753
 20
521.3358261965
 30
0.0
 11
117.3446994753
 21
523.1708921427
 31
0.0
  0
LINE
  5
496
330
1F
100
AcDbEntity
  8
0
100
AcDbLine
 10
117.3446994753
 20
523.1708921427
 30
0.0
 11
117.3446994753
 21
523.1858261965
 31
0.0
  0
CIRCLE
  5
497
330
1F
100
AcDbEntity
  8
0
100
AcDbCircle
 10
139.7485470526
 20
587.9358261965
 30
0.0
 40
3.0
  0
CIRCLE
  5
498
330
1F
100
AcDbEntity
  8
0
100
AcDbCircle
 10
139.7485470526
 20
587.9358261965
 30
0.0
 40
0.8999999999998636
  0
CIRCLE
  5
499
330
1F
100
AcDbEntity
  8
0
100
AcDbCircle
 10
139.7485470526
 20
709.9358261965
 30
0.0
 40
3.0
  0
CIRCLE
  5
49A
330
1F
100
AcDbEntity
  8
0
100
AcDbCircle
 10
139.7485470526
 20
709.9358261965
 30
0.0
 40
0.900000000000091
  0
CIRCLE
  5
49B
330
1F
100
AcDbEntity
  8
0
100
AcDbCircle
 10
367.2485470526
 20
587.9358261965
 30
0.0
 40
3.0
  0
CIRCLE
  5
49C
330
1F
100
AcDbEntity
  8
0
100
AcDbCircle
 10
367.2485470526
 20
587.9358261965
 30
0.0
 40
0.900000000000091
  0
CIRCLE
  5
49D
330
1F
100
AcDbEntity
  8
0
100
AcDbCircle
 10
367.2485470526
 20
709.9358261965
 30
0.0
 40
3.0
  0
CIRCLE
  5
49E
330
1F
100
AcDbEntity
  8
0
100
AcDbCircle
 10
367.2485470526
 20
709.9358261965
 30
0.0
 40
0.8999999999999773
  0
CIRCLE
  5
49F
330
1F
100
AcDbEntity
  8
0
100
AcDbCircle
 10
139.7946994753
 20
518.2358261965
 30
0.0
 40
3.0
  0
CIRCLE
  5
4A0
330
1F
100
AcDbEntity
  8
0
100
AcDbCircle
 10
139.7946994753
 20
518.2358261965
 30
0.0
 40
0.8999999999999773
  0
CIRCLE
  5
4A1
330
1F
100
AcDbEntity
  8
0
100
AcDbCircle
 10
139.7946994753
 20
779.6358261965
 30
0.0
 40
3.0
  0
CIRCLE
  5
4A2
330
1F
100
AcDbEntity
  8
0
100
AcDbCircle
 10
139.7946994753
 20
779.6358261965
 30
0.0
 40
0.8999999999999773
  0
LINE
  5
4A3
330
1F
100
AcDbEntity
  8
0
100
AcDbLine
 10
383.7946994753
 20
780.3892783904
 30
0.0
 11
383.7946994753
 21
780.5358261965
 31
0.0
  0
LINE
  5
4A4
330
1F
100
AcDbEntity
  8
0
100
AcDbLine
 10
383.7946994753
 20
778.7358261965
 30
0.0
 11
383.7946994753
 21
780.3892783904
 31
0.0
  0
LINE
  5
4A5
330
1F
100
AcDbEntity
  8
0
100
AcDbLine
 10
383.7946994753
 20
518.9892783904
 30
0.0
 11
383.7946994753
 21
519.1358261965
 31
0.0
  0
LINE
  5
4A6
330
1F
100
AcDbEntity
  8
0
100
AcDbLine
 10
383.7946994753
 20
517.3358261965
 30
0.0
 11
383.7946994753
 21
518.9892783904
 31
0.0
  0
CIRCLE
  5
4A7
330
1F
100
AcDbEntity
  8
0
100
AcDbCircle
 10
366.2946994753
 20
518.2358261965
 30
0.0
 40
3.0
  0
CIRCLE
  5
4A8
330
1F
100
AcDbEntity
  8
0
100
AcDbCircle
 10
366.2946994753
 20
518.2358261965
 30
0.0
 40
0.8999999999999773
  0
CIRCLE
  5
4A9
330
1F
100
AcDbEntity
  8
0
100
AcDbCircle
 10
253.0446994753
 20
518.2358261965
 30
0.0
 40
3.0
  0
CIRCLE
  5
4AA
330
1F
100
AcDbEntity
  8
0
100
AcDbCircle
 10
253.0446994753
 20
518.2358261965
 30
0.0
 40
0.8999999999999773
  0
CIRCLE
  5
4AB
330
1F
100
AcDbEntity
  8
0
100
AcDbCircle
 10
253.0446994753
 20
779.6358261965
 30
0.0
 40
3.0
  0
CIRCLE
  5
4AC
330
1F
100
AcDbEntity
  8
0
100
AcDbCircle
 10
253.0446994753
 20
779.6358261965
 30
0.0
 40
0.8999999999999773
  0
CIRCLE
  5
4AD
330
1F
100
AcDbEntity
  8
0
100
AcDbCircle
 10
366.2946994753
 20
779.6358261965
 30
0.0
 40
3.0
  0
CIRCLE
  5
4AE
330
1F
100
AcDbEntity
  8
0
100
AcDbCircle
 10
366.2946994753
 20
779.6358261965
 30
0.0
 40
0.8999999999999773
  0
LINE
  5
4AF
330
1F
100
AcDbEntity
  8
0
100
AcDbLine
 10
117.1946994753
 20
761.4358261965
 30
0.0
 11
117.1946994753
 21
766.4358261965
 31
0.0
  0
LINE
  5
4B2
330
1F
100
AcDbEntity
  8
0
100
AcDbLine
 10
117.1946994753
 20
531.4358261965
 30
0.0
 11
117.1946994753
 21
536.4358261965
 31
0.0
  0
LINE
  5
4B9
330
1F
100
AcDbEntity
  8
0
100
AcDbLine
 10
119.0946994753
 20
627.4997682307
 30
0.0
 11
119.0946994753
 21
625.9358261965
 31
0.0
  0
LINE
  5
4BA
330
1F
100
AcDbEntity
  8
0
100
AcDbLine
 10
119.0946994753
 20
693.9358261965
 30
0.0
 11
119.0946994753
 21
627.4997682307
 31
0.0
  0
LINE
  5
4BB
330
1F
100
AcDbEntity
  8
0
100
AcDbLine
 10
109.0946994753
 20
648.4878057379
 30
0.0
 11
109.0946994753
 21
647.9358261965
 31
0.0
  0
LINE
  5
4BC
330
1F
100
AcDbEntity
  8
0
100
AcDbLine
 10
109.0946994753
 20
671.9358261965
 30
0.0
 11
109.0946994753
 21
648.4878057379
 31
0.0
  0
LINE
  5
4BD
330
1F
100
AcDbEntity
  8
0
100
AcDbLine
 10
119.0946994753
 20
625.9358261965
 30
0.0
 11
119.0946994753
 21
603.9358261965
 31
0.0
  0
LINE
  5
4BE
330
1F
100
AcDbEntity
  8
0
100
AcDbLine
 10
109.0946994753
 20
647.9358261965
 30
0.0
 11
109.0946994753
 21
625.9358261965
 31
0.0
  0
LINE
  5
4C0
330
1F
100
AcDbEntity
  8
0
100
AcDbLine
 10
130.0946994753
 20
512.2358261965
 30
0.0
 11
130.0946994753
 21
785.6358261965
 31
0.0
  0
LINE
  5
4C5
330
1F
100
AcDbEntity
  8
0
100
AcDbLine
 10
121.0946994753
 20
513.9358261964
 30
0.0
 11
121.0946994753
 21
783.9358261965
 31
0.0
  0
LINE
  5
4C8
330
1F
100
AcDbEntity
  8
0
100
AcDbLine
 10
130.0946994753
 20
785.6358261965
 30
0.0
 11
122.7946994753
 21
785.6358261965
 31
0.0
  0
ARC
  5
4CB
330
1F
100
AcDbEntity
  8
0
100
AcDbCircle
 10
122.7946994753
 20
513.9358261964
 30
0.0
 40
1.700000000000003
100
AcDbArc
 50
180.0
 51
270.0
  0
LINE
  5
4CF
330
1F
100
AcDbEntity
  8
0
100
AcDbLine
 10
122.7946994753
 20
512.2358261965
 30
0.0
 11
130.0946994753
 21
512.2358261965
 31
0.0
  0
ARC
  5
4D1
330
1F
100
AcDbEntity
  8
0
100
AcDbCircle
 10
122.7946994753
 20
783.9358261965
 30
0.0
 40
1.700000000000003
100
AcDbArc
 50
90.0
 51
179.9999999991
  0
LINE
  5
4D2
330
1F
100
AcDbEntity
  8
0
100
AcDbLine
 10
130.0946994753
 20
783.9358261965
 30
0.0
 11
381.2946994753
 21
783.9358261965
 31
0.0
  0
LINE
  5
4D3
330
1F
100
AcDbEntity
  8
0
100
AcDbLine
 10
381.2946994753
 20
783.9358261965
 30
0.0
 11
381.2946994753
 21
513.9358261965
 31
0.0
  0
LINE
  5
4D4
330
1F
100
AcDbEntity
  8
0
100
AcDbLine
 10
130.0946994753
 20
513.9358261965
 30
0.0
 11
381.2946994753
 21
513.9358261965
 31
0.0
  0
LINE
  5
4D5
330
1F
100
AcDbEntity
  8
0
100
AcDbLine
 10
381.2946994753
 20
783.9358261965
 30
0.0
 11
382.9946994753
 21
783.9358261965
 31
0.0
  0
LINE
  5
4D6
330
1F
100
AcDbEntity
  8
0
100
AcDbLine
 10
382.9946994753
 20
783.9358261965
 30
0.0
 11
382.9946994753
 21
513.9358261965
 31
0.0
  0
LINE
  5
4D7
330
1F
100
AcDbEntity
  8
0
100
AcDbLine
 10
381.2946994753
 20
513.9358261965
 30
0.0
 11
382.9946994753
 21
513.9358261965
 31
0.0
  0
LINE
  5
4D8
330
1F
100
AcDbEntity
  8
0
100
AcDbLine
 10
166.1446994753
 20
828.4358261965
 30
0.0
 11
339.9446994753
 21
828.4358261965
 31
0.0
  0
LINE
  5
4D9
330
1F
100
AcDbEntity
  8
0
100
AcDbLine
 10
166.1446994753
 20
832.6358261965
 30
0.0
 11
339.9446994753
 21
832.6358261965
 31
0.0
  0
LINE
  5
4DA
330
1F
100
AcDbEntity
  8
0
100
AcDbLine
 10
181.9729135024
 20
465.2358261965
 30
0.0
 11
166.1446994753
 21
465.2358261965
 31
0.0
  0
LINE
  5
4DB
330
1F
100
AcDbEntity
  8
0
100
AcDbLine
 10
339.9446994753
 20
465.2358261965
 30
0.0
 11
181.9729135024
 21
465.2358261965
 31
0.0
  0
LINE
  5
4DC
330
1F
100
AcDbEntity
  8
0
100
AcDbLine
 10
181.9729135024
 20
469.4358261965
 30
0.0
 11
166.1446994753
 21
469.4358261965
 31
0.0
  0
LINE
  5
4DD
330
1F
100
AcDbEntity
  8
0
100
AcDbLine
 10
339.9446994753
 20
469.4358261965
 30
0.0
 11
181.9729135024
 21
469.4358261965
 31
0.0
  0
LINE
  5
4DF
330
1F
100
AcDbEntity
  8
0
100
AcDbLine
 10
330.8946994753
 20
455.9358261965
 30
0.0
 11
175.1946994776
 21
455.9358261965
 31
0.0
  0
LINE
  5
4E1
330
1F
100
AcDbEntity
  8
0
100
AcDbLine
 10
332.6946994753
 20
462.4358261965
 30
0.0
 11
173.3946994753
 21
462.4358261965
 31
0.0
  0
LINE
  5
4E7
330
1F
100
AcDbEntity
  8
0
100
AcDbLine
 10
173.3946994753
 20
835.4358261965
 30
0.0
 11
332.6946994753
 21
835.4358261965
 31
0.0
  0
LINE
  5
4E8
330
1F
100
AcDbEntity
  8
0
100
AcDbLine
 10
175.1946994776
 20
841.9358261965
 30
0.0
 11
330.8946994753
 21
841.9358261965
 31
0.0
  0
ARC
  5
511
330
1F
100
AcDbEntity
  8
0
100
AcDbCircle
 10
-254.6143737067
 20
295.4921997323
 30
0.0
 40
5.000000000000016
100
AcDbArc
 50
56.15900768149999
 51
82.13207623940002
  0
ARC
  5
512
330
1F
100
AcDbEntity
  8
0
100
AcDbCircle
 10
-255.0454736899
 20
295.4921997323
 30
0.0
 40
5.00000000000002
100
AcDbArc
 50
97.8679237606
 51
123.8409923185
  0
ARC
  5
513
330
1F
100
AcDbEntity
  8
0
100
AcDbCircle
 10
-255.0454736899
 20
15.3980622764
 30
0.0
 40
5.000000000000009
100
AcDbArc
 50
236.1590076815
 51
262.1320762394
  0
ARC
  5
514
330
1F
100
AcDbEntity
  8
0
100
AcDbCircle
 10
-254.6143737067
 20
15.3980622764
 30
0.0
 40
5.000000000000009
100
AcDbArc
 50
277.8679237606
 51
303.8409923185
  0
ARC
  5
515
330
1F
100
AcDbEntity
  8
0
100
AcDbCircle
 10
-376.6143737067
 20
295.4921997323
 30
0.0
 40
5.000000000000042
100
AcDbArc
 50
56.15900768149999
 51
82.13207623940002
  0
ARC
  5
516
330
1F
100
AcDbEntity
  8
0
100
AcDbCircle
 10
-377.0454736899
 20
295.4921997323
 30
0.0
 40
5.000000000000012
100
AcDbArc
 50
97.8679237606
 51
123.8409923185
  0
ARC
  5
517
330
1F
100
AcDbEntity
  8
0
100
AcDbCircle
 10
-377.0454736899
 20
15.3980622764
 30
0.0
 40
5.00000000000002
100
AcDbArc
 50
236.1590076815
 51
262.1320762394
  0
ARC
  5
518
330
1F
100
AcDbEntity
  8
0
100
AcDbCircle
 10
-376.6143737067
 20
15.3980622764
 30
0.0
 40
5.000000000000039
100
AcDbArc
 50
277.8679237606
 51
303.8409923185
  0
ARC
  5
519
330
1F
100
AcDbEntity
  8
0
100
AcDbCircle
 10
-184.9143737067
 20
295.4921997323
 30
0.0
 40
5.000000000000016
100
AcDbArc
 50
56.15900768149999
 51
82.13207623940002
  0
ARC
  5
51A
330
1F
100
AcDbEntity
  8
0
100
AcDbCircle
 10
-185.3454736899
 20
295.4921997323
 30
0.0
 40
5.000000000000016
100
AcDbArc
 50
97.8679237606
 51
123.8409923185
  0
ARC
  5
51B
330
1F
100
AcDbEntity
  8
0
100
AcDbCircle
 10
-446.3143737067
 20
295.4921997323
 30
0.0
 40
5.00000000000006
100
AcDbArc
 50
56.15900768149999
 51
82.13207623940002
  0
ARC
  5
51C
330
1F
100
AcDbEntity
  8
0
100
AcDbCircle
 10
-446.7454736899
 20
295.4921997323
 30
0.0
 40
5.000000000000068
100
AcDbArc
 50
97.8679237606
 51
123.8409923185
  0
ARC
  5
51D
330
1F
100
AcDbEntity
  8
0
100
AcDbCircle
 10
-185.3454736899
 20
15.3980622764
 30
0.0
 40
5.00000000000003
100
AcDbArc
 50
236.1590076815
 51
262.1320762394
  0
ARC
  5
51E
330
1F
100
AcDbEntity
  8
0
100
AcDbCircle
 10
-184.9143737067
 20
15.3980622764
 30
0.0
 40
5.000000000000026
100
AcDbArc
 50
277.8679237606
 51
303.8409923185
  0
ARC
  5
51F
330
1F
100
AcDbEntity
  8
0
100
AcDbCircle
 10
-446.7454736899
 20
15.3980622764
 30
0.0
 40
5.00000000000002
100
AcDbArc
 50
236.1590076815
 51
262.1320762394
  0
ARC
  5
520
330
1F
100
AcDbEntity
  8
0
100
AcDbCircle
 10
-446.3143737067
 20
15.3980622764
 30
0.0
 40
5.000000000000012
100
AcDbArc
 50
277.8679237606
 51
303.8409923185
  0
ARC
  5
521
330
1F
100
AcDbEntity
  8
0
100
AcDbCircle
 10
-495.8299236983
 20
68.5451310043
 30
0.0
 40
0.5
100
AcDbArc
 50
184.9871394293
 51
360.0
  0
ARC
  5
522
330
1F
100
AcDbEntity
  8
0
100
AcDbCircle
 10
-495.8299236983
 20
242.3451310043
 30
0.0
 40
0.5
100
AcDbArc
 50
0.0
 51
175.0128605707
  0
ARC
  5
523
330
1F
100
AcDbEntity
  8
0
100
AcDbCircle
 10
-500.0299236983
 20
68.5451310043
 30
0.0
 40
0.5000000000000568
100
AcDbArc
 50
184.9871394293
 51
360.0
  0
ARC
  5
524
330
1F
100
AcDbEntity
  8
0
100
AcDbCircle
 10
-500.0299236983
 20
242.3451310043
 30
0.0
 40
0.5000000000000568
100
AcDbArc
 50
0.0
 51
175.0128605707
  0
LINE
  5
525
330
1F
100
AcDbEntity
  8
0
100
AcDbLine
 10
-500.5280308163
 20
242.388597072
 30
0.0
 11
-501.2100045543
 21
234.5733979705
 31
0.0
  0
LINE
  5
526
330
1F
100
AcDbEntity
  8
0
100
AcDbLine
 10
-501.2100045543
 20
76.3168640382
 30
0.0
 11
-500.5280308163
 21
68.5016649366
 31
0.0
  0
LINE
  5
527
330
1F
100
AcDbEntity
  8
0
100
AcDbLine
 10
-496.3280308163
 20
242.388597072
 30
0.0
 11
-497.0100045543
 21
234.5733979705
 31
0.0
  0
LINE
  5
528
330
1F
100
AcDbEntity
  8
0
100
AcDbLine
 10
-497.0100045543
 20
76.3168640382
 30
0.0
 11
-496.3280308163
 21
68.5016649366
 31
0.0
  0
ARC
  5
529
330
1F
100
AcDbEntity
  8
0
100
AcDbCircle
 10
-497.2590581133
 20
76.2951310043
 30
0.0
 40
0.2499999999999654
100
AcDbArc
 50
4.987139429199999
 51
90.0
  0
ARC
  5
52A
330
1F
100
AcDbEntity
  8
0
100
AcDbCircle
 10
-497.2590581133
 20
234.5951310043
 30
0.0
 40
0.2499999999999654
100
AcDbArc
 50
270.0
 51
355.0128605707999
  0
ARC
  5
52B
330
1F
100
AcDbEntity
  8
0
100
AcDbCircle
 10
-501.4590581133
 20
76.2951310043
 30
0.0
 40
0.2500000000000849
100
AcDbArc
 50
4.987139429299999
 51
90.0
  0
ARC
  5
52C
330
1F
100
AcDbEntity
  8
0
100
AcDbCircle
 10
-501.4590581133
 20
234.5951310043
 30
0.0
 40
0.2500000000000885
100
AcDbArc
 50
270.0
 51
355.0128605707
  0
LINE
  5
52D
330
1F
100
AcDbEntity
  8
0
100
AcDbLine
 10
-499.5299236983
 20
76.5451310043
 30
0.0
 11
-497.2590581133
 21
76.5451310043
 31
0.0
  0
LINE
  5
52E
330
1F
100
AcDbEntity
  8
0
100
AcDbLine
 10
-497.2590581133
 20
234.3451310043
 30
0.0
 11
-499.5299236983
 21
234.3451310043
 31
0.0
  0
LINE
  5
52F
330
1F
100
AcDbEntity
  8
0
100
AcDbLine
 10
-502.3299236983
 20
76.5451310043
 30
0.0
 11
-501.4590581133
 21
76.5451310043
 31
0.0
  0
LINE
  5
530
330
1F
100
AcDbEntity
  8
0
100
AcDbLine
 10
-501.4590581133
 20
234.3451310043
 30
0.0
 11
-502.3299236983
 21
234.3451310043
 31
0.0
  0
ARC
  5
531
330
1F
100
AcDbEntity
  8
0
100
AcDbCircle
 10
-131.6299236983
 20
242.3451310043
 30
0.0
 40
0.5000000000000209
100
AcDbArc
 50
4.987139429299999
 51
180.0
  0
ARC
  5
532
330
1F
100
AcDbEntity
  8
0
100
AcDbCircle
 10
-131.6299236983
 20
68.5451310043
 30
0.0
 40
0.5000000000000172
100
AcDbArc
 50
180.0
 51
355.0128605707
  0
ARC
  5
533
330
1F
100
AcDbEntity
  8
0
100
AcDbCircle
 10
-135.8299236983
 20
242.3451310043
 30
0.0
 40
0.5000000000000209
100
AcDbArc
 50
4.987139429299999
 51
180.0
  0
ARC
  5
534
330
1F
100
AcDbEntity
  8
0
100
AcDbCircle
 10
-135.8299236983
 20
68.5451310043
 30
0.0
 40
0.5000000000000172
100
AcDbArc
 50
180.0
 51
355.0128605707
  0
LINE
  5
535
330
1F
100
AcDbEntity
  8
0
100
AcDbLine
 10
-131.1318165803
 20
68.5016649366
 30
0.0
 11
-130.4498428423
 21
76.3168640382
 31
0.0
  0
LINE
  5
536
330
1F
100
AcDbEntity
  8
0
100
AcDbLine
 10
-130.4498428423
 20
234.5733979705
 30
0.0
 11
-131.1318165803
 21
242.388597072
 31
0.0
  0
LINE
  5
537
330
1F
100
AcDbEntity
  8
0
100
AcDbLine
 10
-135.3318165803
 20
68.5016649366
 30
0.0
 11
-134.6498428423
 21
76.3168640382
 31
0.0
  0
LINE
  5
538
330
1F
100
AcDbEntity
  8
0
100
AcDbLine
 10
-134.6498428423
 20
234.5733979705
 30
0.0
 11
-135.3318165803
 21
242.388597072
 31
0.0
  0
ARC
  5
539
330
1F
100
AcDbEntity
  8
0
100
AcDbCircle
 10
-130.2007892833
 20
234.5951310043
 30
0.0
 40
0.2499999999999728
100
AcDbArc
 50
184.9871394293
 51
270.0
  0
ARC
  5
53A
330
1F
100
AcDbEntity
  8
0
100
AcDbCircle
 10
-130.2007892833
 20
76.2951310043
 30
0.0
 40
0.2499999999999691
100
AcDbArc
 50
90.0
 51
175.0128605707
  0
ARC
  5
53B
330
1F
100
AcDbEntity
  8
0
100
AcDbCircle
 10
-134.4007892833
 20
234.5951310043
 30
0.0
 40
0.2499999999999654
100
AcDbArc
 50
184.9871394292
 51
270.0
  0
ARC
  5
53C
330
1F
100
AcDbEntity
  8
0
100
AcDbCircle
 10
-134.4007892833
 20
76.2951310043
 30
0.0
 40
0.2499999999999642
100
AcDbArc
 50
90.0
 51
175.0128605708
  0
LINE
  5
53D
330
1F
100
AcDbEntity
  8
0
100
AcDbLine
 10
-129.3299236983
 20
234.3451310043
 30
0.0
 11
-130.2007892833
 21
234.3451310043
 31
0.0
  0
LINE
  5
53E
330
1F
100
AcDbEntity
  8
0
100
AcDbLine
 10
-130.2007892833
 20
76.5451310043
 30
0.0
 11
-129.3299236983
 21
76.5451310043
 31
0.0
  0
LINE
  5
53F
330
1F
100
AcDbEntity
  8
0
100
AcDbLine
 10
-132.1299236983
 20
234.3451310043
 30
0.0
 11
-134.4007892833
 21
234.3451310043
 31
0.0
  0
LINE
  5
540
330
1F
100
AcDbEntity
  8
0
100
AcDbLine
 10
-134.4007892833
 20
76.5451310043
 30
0.0
 11
-132.1299236983
 21
76.5451310043
 31
0.0
  0
ARC
  5
541
330
1F
100
AcDbEntity
  8
0
100
AcDbCircle
 10
-172.9755391876
 20
267.0807551141
 30
0.0
 40
32.00000000000002
100
AcDbArc
 50
255.7915997277
 51
271.7174981389
  0
ARC
  5
542
330
1F
100
AcDbEntity
  8
0
100
AcDbCircle
 10
-172.9755391876
 20
43.8095068946
 30
0.0
 40
32.00000000000008
100
AcDbArc
 50
88.28250186110002
 51
104.2084002723
  0
ARC
  5
543
330
1F
100
AcDbEntity
  8
0
100
AcDbCircle
 10
-155.0164509183
 20
234.8141310043
 30
0.0
 40
2.000000000000008
100
AcDbArc
 50
13.6505766732
 51
166.3494233268
  0
ARC
  5
544
330
1F
100
AcDbEntity
  8
0
100
AcDbCircle
 10
-155.0164509183
 20
76.0761310043
 30
0.0
 40
2.000000000000011
100
AcDbArc
 50
193.6505766732
 51
346.3494233268
  0
ARC
  5
545
330
1F
100
AcDbEntity
  8
0
100
AcDbCircle
 10
-152.8300065444
 20
235.3451310043
 30
0.0
 40
0.2500000000000444
100
AcDbArc
 50
193.6505766733
 51
270.0
  0
ARC
  5
546
330
1F
100
AcDbEntity
  8
0
100
AcDbCircle
 10
-152.8300065444
 20
75.5451310043
 30
0.0
 40
0.2500000000000377
100
AcDbArc
 50
90.0
 51
166.3494233268
  0
ARC
  5
547
330
1F
100
AcDbEntity
  8
0
100
AcDbCircle
 10
-157.2028952922
 20
235.3451310043
 30
0.0
 40
0.2499999999999966
100
AcDbArc
 50
270.0
 51
346.3494233268
  0
ARC
  5
548
330
1F
100
AcDbEntity
  8
0
100
AcDbCircle
 10
-157.2028952922
 20
75.5451310043
 30
0.0
 40
0.2499999999999933
100
AcDbArc
 50
13.6505766732
 51
90.0
  0
LINE
  5
549
330
1F
100
AcDbEntity
  8
0
100
AcDbLine
 10
-124.6299236983
 20
235.0951310043
 30
0.0
 11
-129.3299236983
 21
235.0951310043
 31
0.0
  0
LINE
  5
54A
330
1F
100
AcDbEntity
  8
0
100
AcDbLine
 10
-129.3299236983
 20
75.7951310043
 30
0.0
 11
-124.6299236983
 21
75.7951310043
 31
0.0
  0
ARC
  5
54B
330
1F
100
AcDbEntity
  8
0
100
AcDbCircle
 10
-124.6299236983
 20
233.2951310043
 30
0.0
 40
1.800000000000011
100
AcDbArc
 50
0.0
 51
90.0
  0
ARC
  5
54C
330
1F
100
AcDbEntity
  8
0
100
AcDbCircle
 10
-124.6299236983
 20
77.5951310043
 30
0.0
 40
1.800000000000026
100
AcDbArc
 50
270.0
 51
0.0
  0
LINE
  5
54D
330
1F
100
AcDbEntity
  8
0
100
AcDbLine
 10
-147.4455035261
 20
75.7951310043
 30
0.0
 11
-145.6955035261
 21
77.5451310043
 31
0.0
  0
LINE
  5
54E
330
1F
100
AcDbEntity
  8
0
100
AcDbLine
 10
-145.6955035261
 20
233.3451310043
 30
0.0
 11
-147.4455035261
 21
235.0951310043
 31
0.0
  0
LINE
  5
54F
330
1F
100
AcDbEntity
  8
0
100
AcDbLine
 10
-147.4455035261
 20
235.0951310043
 30
0.0
 11
-152.8300065444
 21
235.0951310043
 31
0.0
  0
LINE
  5
550
330
1F
100
AcDbEntity
  8
0
100
AcDbLine
 10
-152.8300065444
 20
75.7951310043
 30
0.0
 11
-147.4455035261
 21
75.7951310043
 31
0.0
  0
LINE
  5
551
330
1F
100
AcDbEntity
  8
0
100
AcDbLine
 10
-157.2028952922
 20
235.0951310043
 30
0.0
 11
-172.0164509183
 21
235.0951310043
 31
0.0
  0
LINE
  5
552
330
1F
100
AcDbEntity
  8
0
100
AcDbLine
 10
-172.0164509183
 20
75.7951310043
 30
0.0
 11
-157.2028952922
 21
75.7951310043
 31
0.0
  0
LINE
  5
553
330
1F
100
AcDbEntity
  8
0
100
AcDbLine
 10
-145.6955035261
 20
77.5451310043
 30
0.0
 11
-138.6955035261
 21
79.4451310043
 31
0.0
  0
LINE
  5
554
330
1F
100
AcDbEntity
  8
0
100
AcDbLine
 10
-138.6955035261
 20
231.4451310043
 30
0.0
 11
-145.6955035261
 21
233.3451310043
 31
0.0
  0
LINE
  5
555
330
1F
100
AcDbEntity
  8
0
100
AcDbLine
 10
-136.3299236983
 20
231.4451310043
 30
0.0
 11
-138.6955035261
 21
231.4451310043
 31
0.0
  0
LINE
  5
556
330
1F
100
AcDbEntity
  8
0
100
AcDbLine
 10
-138.6955035261
 20
79.4451310043
 30
0.0
 11
-136.3299236983
 21
79.4451310043
 31
0.0
  0
ARC
  5
557
330
1F
100
AcDbEntity
  8
0
100
AcDbCircle
 10
-458.684308209
 20
43.8095068946
 30
0.0
 40
32.00000000000007
100
AcDbArc
 50
75.7915997277
 51
91.71749813890001
  0
ARC
  5
558
330
1F
100
AcDbEntity
  8
0
100
AcDbCircle
 10
-458.684308209
 20
267.0807551141
 30
0.0
 40
32.00000000000002
100
AcDbArc
 50
268.2825018611
 51
284.2084002723
  0
ARC
  5
559
330
1F
100
AcDbEntity
  8
0
100
AcDbCircle
 10
-476.6433964783
 20
76.0761310043
 30
0.0
 40
1.999999999999983
100
AcDbArc
 50
193.6505766732
 51
346.3494233268
  0
ARC
  5
55A
330
1F
100
AcDbEntity
  8
0
100
AcDbCircle
 10
-476.6433964783
 20
234.8141310043
 30
0.0
 40
1.99999999999998
100
AcDbArc
 50
13.6505766732
 51
166.3494233268
  0
ARC
  5
55B
330
1F
100
AcDbEntity
  8
0
100
AcDbCircle
 10
-474.4569521044
 20
75.5451310043
 30
0.0
 40
0.2499999999999716
100
AcDbArc
 50
90.0
 51
166.3494233268
  0
ARC
  5
55C
330
1F
100
AcDbEntity
  8
0
100
AcDbCircle
 10
-474.4569521044
 20
235.3451310043
 30
0.0
 40
0.2499999999999716
100
AcDbArc
 50
193.6505766732
 51
270.0
  0
ARC
  5
55D
330
1F
100
AcDbEntity
  8
0
100
AcDbCircle
 10
-478.8298408522
 20
75.5451310043
 30
0.0
 40
0.250000000000041
100
AcDbArc
 50
13.6505766733
 51
90.0
  0
ARC
  5
55E
330
1F
100
AcDbEntity
  8
0
100
AcDbCircle
 10
-478.8298408522
 20
235.3451310043
 30
0.0
 40
0.2500000000000444
100
AcDbArc
 50
270.0
 51
346.3494233267
  0
LINE
  5
55F
330
1F
100
AcDbEntity
  8
0
100
AcDbLine
 10
-474.4569521044
 20
75.7951310043
 30
0.0
 11
-459.6433964783
 21
75.7951310043
 31
0.0
  0
LINE
  5
560
330
1F
100
AcDbEntity
  8
0
100
AcDbLine
 10
-459.6433964783
 20
235.0951310043
 30
0.0
 11
-474.4569521044
 21
235.0951310043
 31
0.0
  0
LINE
  5
561
330
1F
100
AcDbEntity
  8
0
100
AcDbLine
 10
-484.2143438705
 20
75.7951310043
 30
0.0
 11
-478.8298408522
 21
75.7951310043
 31
0.0
  0
LINE
  5
562
330
1F
100
AcDbEntity
  8
0
100
AcDbLine
 10
-478.8298408522
 20
235.0951310043
 30
0.0
 11
-484.2143438705
 21
235.0951310043
 31
0.0
  0
LINE
  5
563
330
1F
100
AcDbEntity
  8
0
100
AcDbLine
 10
-484.2143438705
 20
235.0951310043
 30
0.0
 11
-485.9643438705
 21
233.3451310043
 31
0.0
  0
LINE
  5
564
330
1F
100
AcDbEntity
  8
0
100
AcDbLine
 10
-485.9643438705
 20
77.5451310043
 30
0.0
 11
-484.2143438705
 21
75.7951310043
 31
0.0
  0
LINE
  5
565
330
1F
100
AcDbEntity
  8
0
100
AcDbLine
 10
-507.0299236983
 20
75.7951310043
 30
0.0
 11
-502.3299236983
 21
75.7951310043
 31
0.0
  0
LINE
  5
566
330
1F
100
AcDbEntity
  8
0
100
AcDbLine
 10
-502.3299236983
 20
235.0951310043
 30
0.0
 11
-507.0299236983
 21
235.0951310043
 31
0.0
  0
ARC
  5
567
330
1F
100
AcDbEntity
  8
0
100
AcDbCircle
 10
-507.0299236983
 20
77.5951310043
 30
0.0
 40
1.800000000000026
100
AcDbArc
 50
180.0
 51
270.0
  0
ARC
  5
568
330
1F
100
AcDbEntity
  8
0
100
AcDbCircle
 10
-507.0299236983
 20
233.2951310043
 30
0.0
 40
1.800000000000011
100
AcDbArc
 50
90.0
 51
180.0
  0
LINE
  5
569
330
1F
100
AcDbEntity
  8
0
100
AcDbLine
 10
-485.9643438705
 20
233.3451310043
 30
0.0
 11
-492.9643438705
 21
231.4451310043
 31
0.0
  0
LINE
  5
56A
330
1F
100
AcDbEntity
  8
0
100
AcDbLine
 10
-492.9643438705
 20
79.4451310043
 30
0.0
 11
-485.9643438705
 21
77.5451310043
 31
0.0
  0
LINE
  5
56B
330
1F
100
AcDbEntity
  8
0
100
AcDbLine
 10
-495.3299236983
 20
79.4451310043
 30
0.0
 11
-492.9643438705
 21
79.4451310043
 31
0.0
  0
LINE
  5
56C
330
1F
100
AcDbEntity
  8
0
100
AcDbLine
 10
-492.9643438705
 20
231.4451310043
 30
0.0
 11
-495.3299236983
 21
231.4451310043
 31
0.0
  0
LINE
  5
56D
330
1F
100
AcDbEntity
  8
0
100
AcDbLine
 10
-253.9299236983
 20
300.4451310043
 30
0.0
 11
-255.7299236983
 21
300.4451310043
 31
0.0
  0
LINE
  5
56E
330
1F
100
AcDbEntity
  8
0
100
AcDbLine
 10
-255.7299236983
 20
10.4451310043
 30
0.0
 11
-253.9299236983
 21
10.4451310043
 31
0.0
  0
LINE
  5
56F
330
1F
100
AcDbEntity
  8
0
100
AcDbLine
 10
-375.9299236983
 20
300.4451310043
 30
0.0
 11
-377.7299236983
 21
300.4451310043
 31
0.0
  0
LINE
  5
570
330
1F
100
AcDbEntity
  8
0
100
AcDbLine
 10
-377.7299236983
 20
10.4451310043
 30
0.0
 11
-375.9299236983
 21
10.4451310043
 31
0.0
  0
CIRCLE
  5
571
330
1F
100
AcDbEntity
  8
0
100
AcDbCircle
 10
-185.1299236983
 20
269.6451310043
 30
0.0
 40
3.000000000000015
  0
CIRCLE
  5
572
330
1F
100
AcDbEntity
  8
0
100
AcDbCircle
 10
-185.1299236983
 20
269.6451310043
 30
0.0
 40
0.900000000000017
  0
LINE
  5
573
330
1F
100
AcDbEntity
  8
0
100
AcDbLine
 10
-184.2299236983
 20
300.4451310043
 30
0.0
 11
-186.0299236983
 21
300.4451310043
 31
0.0
  0
LINE
  5
574
330
1F
100
AcDbEntity
  8
0
100
AcDbLine
 10
-445.6299236983
 20
300.4451310043
 30
0.0
 11
-447.4299236983
 21
300.4451310043
 31
0.0
  0
CIRCLE
  5
575
330
1F
100
AcDbEntity
  8
0
100
AcDbCircle
 10
-446.5299236983
 20
41.2451310043
 30
0.0
 40
3.000000000000011
  0
CIRCLE
  5
576
330
1F
100
AcDbEntity
  8
0
100
AcDbCircle
 10
-446.5299236983
 20
41.2451310043
 30
0.0
 40
0.900000000000017
  0
CIRCLE
  5
577
330
1F
100
AcDbEntity
  8
0
100
AcDbCircle
 10
-185.1299236983
 20
41.2451310043
 30
0.0
 40
3.000000000000011
  0
CIRCLE
  5
578
330
1F
100
AcDbEntity
  8
0
100
AcDbCircle
 10
-185.1299236983
 20
41.2451310043
 30
0.0
 40
0.900000000000017
  0
CIRCLE
  5
579
330
1F
100
AcDbEntity
  8
0
100
AcDbCircle
 10
-185.1299236983
 20
155.4451310043
 30
0.0
 40
3.000000000000015
  0
CIRCLE
  5
57A
330
1F
100
AcDbEntity
  8
0
100
AcDbCircle
 10
-185.1299236983
 20
155.4451310043
 30
0.0
 40
0.900000000000017
  0
CIRCLE
  5
57B
330
1F
100
AcDbEntity
  8
0
100
AcDbCircle
 10
-446.5299236983
 20
155.4451310043
 30
0.0
 40
3.0
  0
CIRCLE
  5
57C
330
1F
100
AcDbEntity
  8
0
100
AcDbCircle
 10
-446.5299236983
 20
155.4451310043
 30
0.0
 40
0.9000000000000015
  0
CIRCLE
  5
57D
330
1F
100
AcDbEntity
  8
0
100
AcDbCircle
 10
-446.5299236983
 20
269.6451310043
 30
0.0
 40
2.999999999999984
  0
CIRCLE
  5
57E
330
1F
100
AcDbEntity
  8
0
100
AcDbCircle
 10
-446.5299236983
 20
269.6451310043
 30
0.0
 40
0.8999999999999859
  0
LINE
  5
57F
330
1F
100
AcDbEntity
  8
0
100
AcDbLine
 10
-186.0299236983
 20
10.4451310043
 30
0.0
 11
-184.2299236983
 21
10.4451310043
 31
0.0
  0
LINE
  5
580
330
1F
100
AcDbEntity
  8
0
100
AcDbLine
 10
-447.4299236983
 20
10.4451310043
 30
0.0
 11
-445.6299236983
 21
10.4451310043
 31
0.0
  0
CIRCLE
  5
581
330
1F
100
AcDbEntity
  8
0
100
AcDbCircle
 10
-200.8299236983
 20
-2.0548689957
 30
0.0
 40
2.000000000000033
  0
CIRCLE
  5
582
330
1F
100
AcDbEntity
  8
0
100
AcDbCircle
 10
-430.8299236983
 20
-2.0548689957
 30
0.0
 40
2.000000000000017
  0
CIRCLE
  5
583
330
1F
100
AcDbEntity
  8
0
100
AcDbCircle
 10
-430.8299236983
 20
312.9451310043
 30
0.0
 40
2.0
  0
CIRCLE
  5
584
330
1F
100
AcDbEntity
  8
0
100
AcDbCircle
 10
-200.8299236983
 20
312.9451310043
 30
0.0
 40
2.0
  0
LINE
  5
585
330
1F
100
AcDbEntity
  8
0
100
AcDbLine
 10
-179.8299236983
 20
320.7683543091
 30
0.0
 11
-179.1299236983
 21
320.7683543091
 31
0.0
  0
LINE
  5
586
330
1F
100
AcDbEntity
  8
0
100
AcDbLine
 10
-179.1299236983
 20
320.7683543091
 30
0.0
 11
-179.1299236983
 21
235.6781509021
 31
0.0
  0
LINE
  5
587
330
1F
100
AcDbEntity
  8
0
100
AcDbLine
 10
-179.1299236983
 20
75.2121111065
 30
0.0
 11
-179.1299236983
 21
-9.8780923004
 31
0.0
  0
LINE
  5
588
330
1F
100
AcDbEntity
  8
0
100
AcDbLine
 10
-179.8299236983
 20
-9.8780923004
 30
0.0
 11
-179.1299236983
 21
-9.8780923004
 31
0.0
  0
LINE
  5
58C
330
1F
100
AcDbEntity
  8
0
100
AcDbLine
 10
-180.0067003936
 20
-10.0548689957
 30
0.0
 11
-180.0067003936
 21
-10.7548689957
 31
0.0
  0
LINE
  5
58D
330
1F
100
AcDbEntity
  8
0
100
AcDbLine
 10
-451.653147003
 20
-10.0548689957
 30
0.0
 11
-451.653147003
 21
-10.7548689957
 31
0.0
  0
LINE
  5
58E
330
1F
100
AcDbEntity
  8
0
100
AcDbLine
 10
-180.0067003936
 20
-10.7548689957
 30
0.0
 11
-451.653147003
 21
-10.7548689957
 31
0.0
  0
LINE
  5
591
330
1F
100
AcDbEntity
  8
0
100
AcDbLine
 10
-451.8299236983
 20
-9.8780923004
 30
0.0
 11
-452.5299236983
 21
-9.8780923004
 31
0.0
  0
LINE
  5
592
330
1F
100
AcDbEntity
  8
0
100
AcDbLine
 10
-452.5299236983
 20
-9.8780923004
 30
0.0
 11
-452.5299236984
 21
75.2121111066
 31
0.0
  0
LINE
  5
593
330
1F
100
AcDbEntity
  8
0
100
AcDbLine
 10
-452.5299236984
 20
235.6781509021
 30
0.0
 11
-452.5299236984
 21
320.7683543091
 31
0.0
  0
LINE
  5
594
330
1F
100
AcDbEntity
  8
0
100
AcDbLine
 10
-451.8299236984
 20
320.7683543091
 30
0.0
 11
-452.5299236984
 21
320.7683543091
 31
0.0
  0
LINE
  5
596
330
1F
100
AcDbEntity
  8
0
100
AcDbLine
 10
-451.6531470031
 20
320.9451310044
 30
0.0
 11
-451.6531470031
 21
321.6451310044
 31
0.0
  0
LINE
  5
597
330
1F
100
AcDbEntity
  8
0
100
AcDbLine
 10
-180.0067003934
 20
320.9451310044
 30
0.0
 11
-180.0067003934
 21
321.6451310044
 31
0.0
  0
LINE
  5
598
330
1F
100
AcDbEntity
  8
0
100
AcDbLine
 10
-451.6531470031
 20
321.6451310044
 30
0.0
 11
-180.0067003934
 21
321.6451310044
 31
0.0
  0
LINE
  5
599
330
1F
100
AcDbEntity
  8
0
100
AcDbLine
 10
-179.8299236983
 20
320.7683543091
 30
0.0
 11
-180.8299236983
 21
319.9451310044
 31
0.0
  0
LINE
  5
59A
330
1F
100
AcDbEntity
  8
0
100
AcDbLine
 10
-180.8299236983
 20
-9.0548689957
 30
0.0
 11
-179.8299236983
 21
-9.8780923004
 31
0.0
  0
LINE
  5
59B
330
1F
100
AcDbEntity
  8
0
100
AcDbLine
 10
-180.0067003937
 20
-10.0548689957
 30
0.0
 11
-180.8299236983
 21
-9.0548689957
 31
0.0
  0
LINE
  5
59C
330
1F
100
AcDbEntity
  8
0
100
AcDbLine
 10
-450.8299236983
 20
-9.0548689956
 30
0.0
 11
-451.653147003
 21
-10.0548689957
 31
0.0
  0
LINE
  5
59D
330
1F
100
AcDbEntity
  8
0
100
AcDbLine
 10
-451.8299236983
 20
-9.8780923004
 30
0.0
 11
-450.8299236983
 21
-9.0548689956
 31
0.0
  0
LINE
  5
59E
330
1F
100
AcDbEntity
  8
0
100
AcDbLine
 10
-450.8299236983
 20
319.9451310044
 30
0.0
 11
-451.8299236983
 21
320.7683543091
 31
0.0
  0
LINE
  5
59F
330
1F
100
AcDbEntity
  8
0
100
AcDbLine
 10
-451.653147003
 20
320.9451310043
 30
0.0
 11
-450.8299236983
 21
319.9451310043
 31
0.0
  0
LINE
  5
5A0
330
1F
100
AcDbEntity
  8
0
100
AcDbLine
 10
-180.8299236983
 20
319.9451310044
 30
0.0
 11
-180.0067003935
 21
320.9451310044
 31
0.0
  0
LINE
  5
5A1
330
1F
100
AcDbEntity
  8
0
100
AcDbLine
 10
-450.8299236983
 20
11.2451310043
 30
0.0
 11
-180.8299236983
 21
11.2451310043
 31
0.0
  0
LINE
  5
5A2
330
1F
100
AcDbEntity
  8
0
100
AcDbLine
 10
-450.8299236983
 20
11.2451310043
 30
0.0
 11
-450.8299236983
 21
12.9451310043
 31
0.0
  0
LINE
  5
5A3
330
1F
100
AcDbEntity
  8
0
100
AcDbLine
 10
-450.8299236983
 20
12.9451310043
 30
0.0
 11
-180.8299236983
 21
12.9451310043
 31
0.0
  0
LINE
  5
5A4
330
1F
100
AcDbEntity
  8
0
100
AcDbLine
 10
-180.8299236983
 20
11.2451310043
 30
0.0
 11
-180.8299236983
 21
12.9451310043
 31
0.0
  0
LINE
  5
5A5
330
1F
100
AcDbEntity
  8
0
100
AcDbLine
 10
-450.8299236983
 20
12.9451310043
 30
0.0
 11
-450.8299236983
 21
297.9451310043
 31
0.0
  0
LINE
  5
5A6
330
1F
100
AcDbEntity
  8
0
100
AcDbLine
 10
-450.8299236983
 20
297.9451310043
 30
0.0
 11
-180.8299236983
 21
297.9451310043
 31
0.0
  0
LINE
  5
5A7
330
1F
100
AcDbEntity
  8
0
100
AcDbLine
 10
-180.8299236983
 20
12.9451310043
 30
0.0
 11
-180.8299236983
 21
297.9451310043
 31
0.0
  0
LINE
  5
5A8
330
1F
100
AcDbEntity
  8
0
100
AcDbLine
 10
-450.8299236983
 20
297.9451310043
 30
0.0
 11
-450.8299236983
 21
299.6451310043
 31
0.0
  0
LINE
  5
5A9
330
1F
100
AcDbEntity
  8
0
100
AcDbLine
 10
-450.8299236983
 20
299.6451310043
 30
0.0
 11
-180.8299236983
 21
299.6451310043
 31
0.0
  0
LINE
  5
5AA
330
1F
100
AcDbEntity
  8
0
100
AcDbLine
 10
-180.8299236983
 20
297.9451310043
 30
0.0
 11
-180.8299236983
 21
299.6451310043
 31
0.0
  0
LINE
  5
5AB
330
1F
100
AcDbEntity
  8
0
100
AcDbLine
 10
-180.8299236983
 20
10.2451310043
 30
0.0
 11
-180.8299236983
 21
11.2451310043
 31
0.0
  0
LINE
  5
5AC
330
1F
100
AcDbEntity
  8
0
100
AcDbLine
 10
-450.8299236983
 20
10.2451310043
 30
0.0
 11
-180.8299236983
 21
10.2451310043
 31
0.0
  0
LINE
  5
5AD
330
1F
100
AcDbEntity
  8
0
100
AcDbLine
 10
-450.8299236983
 20
11.2451310043
 30
0.0
 11
-450.8299236983
 21
10.2451310043
 31
0.0
  0
LINE
  5
5AE
330
1F
100
AcDbEntity
  8
0
100
AcDbLine
 10
-450.8299236983
 20
300.6451310043
 30
0.0
 11
-450.8299236983
 21
299.6451310043
 31
0.0
  0
LINE
  5
5AF
330
1F
100
AcDbEntity
  8
0
100
AcDbLine
 10
-180.8299236983
 20
300.6451310043
 30
0.0
 11
-450.8299236983
 21
300.6451310043
 31
0.0
  0
LINE
  5
5B0
330
1F
100
AcDbEntity
  8
0
100
AcDbLine
 10
-180.8299236983
 20
299.6451310043
 30
0.0
 11
-180.8299236983
 21
300.6451310043
 31
0.0
  0
LINE
  5
5B1
330
1F
100
AcDbEntity
  8
0
100
AcDbLine
 10
-180.8299236983
 20
10.2451310043
 30
0.0
 11
-180.8299236983
 21
-4.0548689957
 31
0.0
  0
LINE
  5
5B3
330
1F
100
AcDbEntity
  8
0
100
AcDbLine
 10
-185.8299236983
 20
-9.0548689957
 30
0.0
 11
-445.8299236983
 21
-9.0548689957
 31
0.0
  0
LINE
  5
5B5
330
1F
100
AcDbEntity
  8
0
100
AcDbLine
 10
-450.8299236983
 20
-4.0548689957
 30
0.0
 11
-450.8299236983
 21
10.2451310043
 31
0.0
  0
LINE
  5
5B7
330
1F
100
AcDbEntity
  8
0
100
AcDbLine
 10
-180.8299236983
 20
314.9451310043
 30
0.0
 11
-180.8299236983
 21
300.6451310043
 31
0.0
  0
LINE
  5
5B8
330
1F
100
AcDbEntity
  8
0
100
AcDbLine
 10
-450.8299236983
 20
300.6451310043
 30
0.0
 11
-450.8299236983
 21
314.9451310043
 31
0.0
  0
LINE
  5
5BA
330
1F
100
AcDbEntity
  8
0
100
AcDbLine
 10
-445.8299236983
 20
319.9451310043
 30
0.0
 11
-185.8299236983
 21
319.9451310043
 31
0.0
  0
LINE
  5
5BB
330
1F
100
AcDbEntity
  8
0
100
AcDbLine
 10
-495.3299236983
 20
68.5451310043
 30
0.0
 11
-495.3299236983
 21
242.3451310043
 31
0.0
  0
LINE
  5
5BC
330
1F
100
AcDbEntity
  8
0
100
AcDbLine
 10
-499.5299236983
 20
68.5451310043
 30
0.0
 11
-499.5299236983
 21
242.3451310043
 31
0.0
  0
LINE
  5
5BD
330
1F
100
AcDbEntity
  8
0
100
AcDbLine
 10
-132.1299236983
 20
242.3451310043
 30
0.0
 11
-132.1299236983
 21
68.5451310043
 31
0.0
  0
LINE
  5
5BE
330
1F
100
AcDbEntity
  8
0
100
AcDbLine
 10
-136.3299236983
 20
242.3451310043
 30
0.0
 11
-136.3299236983
 21
68.5451310043
 31
0.0
  0
LINE
  5
5C1
330
1F
100
AcDbEntity
  8
0
100
AcDbLine
 10
-129.3299236983
 20
155.4451310043
 30
0.0
 11
-129.3299236983
 21
75.7951310043
 31
0.0
  0
LINE
  5
5C2
330
1F
100
AcDbEntity
  8
0
100
AcDbLine
 10
-129.3299236983
 20
235.0951310043
 30
0.0
 11
-129.3299236983
 21
155.4451310043
 31
0.0
  0
LINE
  5
5C3
330
1F
100
AcDbEntity
  8
0
100
AcDbLine
 10
-122.8299236983
 20
155.4451310043
 30
0.0
 11
-122.8299236983
 21
77.5951310043
 31
0.0
  0
LINE
  5
5C4
330
1F
100
AcDbEntity
  8
0
100
AcDbLine
 10
-122.8299236983
 20
233.2951310043
 30
0.0
 11
-122.8299236983
 21
155.4451310043
 31
0.0
  0
LINE
  5
5D1
330
1F
100
AcDbEntity
  8
0
100
AcDbLine
 10
-502.3299236983
 20
155.4451310043
 30
0.0
 11
-502.3299236983
 21
235.0951310043
 31
0.0
  0
LINE
  5
5D2
330
1F
100
AcDbEntity
  8
0
100
AcDbLine
 10
-502.3299236983
 20
75.7951310043
 30
0.0
 11
-502.3299236983
 21
155.4451310043
 31
0.0
  0
LINE
  5
5D3
330
1F
100
AcDbEntity
  8
0
100
AcDbLine
 10
-508.8299236983
 20
155.4451310043
 30
0.0
 11
-508.8299236983
 21
233.2951310043
 31
0.0
  0
LINE
  5
5D4
330
1F
100
AcDbEntity
  8
0
100
AcDbLine
 10
-508.8299236983
 20
77.5951310043
 30
0.0
 11
-508.8299236983
 21
155.4451310043
 31
0.0
  0
LINE
  5
5D7
330
1F
100
AcDbEntity
  8
0
100
AcDbLine
 10
-180.8299236983
 20
319.9451310044
 30
0.0
 11
-180.8299236983
 21
314.9451310043
 31
0.0
  0
LINE
  5
5D8
330
1F
100
AcDbEntity
  8
0
100
AcDbLine
 10
-180.8299236983
 20
-4.0548689957
 30
0.0
 11
-180.8299236983
 21
-9.0548689957
 31
0.0
  0
LINE
  5
5D9
330
1F
100
AcDbEntity
  8
0
100
AcDbLine
 10
-180.8299236983
 20
-9.0548689957
 30
0.0
 11
-185.8299236983
 21
-9.0548689957
 31
0.0
  0
LINE
  5
5DA
330
1F
100
AcDbEntity
  8
0
100
AcDbLine
 10
-445.8299236983
 20
-9.0548689956
 30
0.0
 11
-450.8299236983
 21
-9.0548689956
 31
0.0
  0
LINE
  5
5DB
330
1F
100
AcDbEntity
  8
0
100
AcDbLine
 10
-450.8299236983
 20
-9.0548689956
 30
0.0
 11
-450.8299236983
 21
-4.0548689957
 31
0.0
  0
LINE
  5
5DC
330
1F
100
AcDbEntity
  8
0
100
AcDbLine
 10
-450.8299236983
 20
314.9451310043
 30
0.0
 11
-450.8299236983
 21
319.9451310043
 31
0.0
  0
LINE
  5
5DD
330
1F
100
AcDbEntity
  8
0
100
AcDbLine
 10
-450.8299236983
 20
319.9451310043
 30
0.0
 11
-445.8299236983
 21
319.9451310043
 31
0.0
  0
LINE
  5
5DE
330
1F
100
AcDbEntity
  8
0
100
AcDbLine
 10
-185.8299236983
 20
319.9451310044
 30
0.0
 11
-180.8299236983
 21
319.9451310044
 31
0.0
  0
ARC
  5
A98
330
1F
100
AcDbEntity
  8
0
100
AcDbCircle
 10
972.8130955678328
 20
242.3451310042999
 30
0.0
 40
0.5000000000001137
100
AcDbArc
 50
4.987139429300452
 51
180.0
  0
ARC
  5
A99
330
1F
100
AcDbEntity
  8
0
100
AcDbCircle
 10
972.8130955678328
 20
68.54513100429995
 30
0.0
 40
0.5000000000001137
100
AcDbArc
 50
180.0
 51
355.0128605706996
  0
ARC
  5
A9A
330
1F
100
AcDbEntity
  8
0
100
AcDbCircle
 10
977.0130955678328
 20
242.3451310042999
 30
0.0
 40
0.5
100
AcDbArc
 50
4.987139429301584
 51
180.0
  0
ARC
  5
A9B
330
1F
100
AcDbEntity
  8
0
100
AcDbCircle
 10
977.0130955678328
 20
68.54513100429995
 30
0.0
 40
0.5
100
AcDbArc
 50
180.0
 51
355.0128605707
  0
LINE
  5
A9C
330
1F
100
AcDbEntity
  8
0
100
AcDbLine
 10
973.3112026858328
 20
68.50166493659994
 30
0.0
 11
973.9931764238328
 21
76.31686403819994
 31
0.0
  0
LINE
  5
A9D
330
1F
100
AcDbEntity
  8
0
100
AcDbLine
 10
973.9931764238328
 20
234.5733979704999
 30
0.0
 11
973.3112026858328
 21
242.388597072
 31
0.0
  0
LINE
  5
A9E
330
1F
100
AcDbEntity
  8
0
100
AcDbLine
 10
977.5112026858328
 20
68.50166493659994
 30
0.0
 11
978.1931764238328
 21
76.31686403819994
 31
0.0
  0
LINE
  5
A9F
330
1F
100
AcDbEntity
  8
0
100
AcDbLine
 10
978.1931764238328
 20
234.5733979704999
 30
0.0
 11
977.5112026858328
 21
242.388597072
 31
0.0
  0
ARC
  5
AA0
330
1F
100
AcDbEntity
  8
0
100
AcDbCircle
 10
978.4422299828328
 20
234.5951310042999
 30
0.0
 40
0.2499999999998546
100
AcDbArc
 50
184.9871394293006
 51
270.0
  0
ARC
  5
AA1
330
1F
100
AcDbEntity
  8
0
100
AcDbCircle
 10
978.4422299828328
 20
76.29513100429995
 30
0.0
 40
0.2499999999998522
100
AcDbArc
 50
90.0
 51
175.0128605708
  0
ARC
  5
AA2
330
1F
100
AcDbEntity
  8
0
100
AcDbCircle
 10
974.2422299828328
 20
234.5951310042999
 30
0.0
 40
0.249999999999958
100
AcDbArc
 50
184.987139429201
 51
270.0
  0
ARC
  5
AA3
330
1F
100
AcDbEntity
  8
0
100
AcDbCircle
 10
974.2422299828328
 20
76.29513100429995
 30
0.0
 40
0.2499999999999605
100
AcDbArc
 50
90.0
 51
175.012860570799
  0
LINE
  5
AA4
330
1F
100
AcDbEntity
  8
0
100
AcDbLine
 10
976.5130955678328
 20
234.3451310042999
 30
0.0
 11
974.2422299828328
 21
234.3451310042999
 31
0.0
  0
LINE
  5
AA5
330
1F
100
AcDbEntity
  8
0
100
AcDbLine
 10
974.2422299828328
 20
76.54513100429995
 30
0.0
 11
976.5130955678328
 21
76.54513100429995
 31
0.0
  0
LINE
  5
AA6
330
1F
100
AcDbEntity
  8
0
100
AcDbLine
 10
979.3130955678328
 20
234.3451310042999
 30
0.0
 11
978.4422299828328
 21
234.3451310042999
 31
0.0
  0
LINE
  5
AA7
330
1F
100
AcDbEntity
  8
0
100
AcDbLine
 10
978.4422299828328
 20
76.54513100429995
 30
0.0
 11
979.3130955678328
 21
76.54513100429995
 31
0.0
  0
ARC
  5
AA8
330
1F
100
AcDbEntity
  8
0
100
AcDbCircle
 10
608.6130955678327
 20
68.54513100429995
 30
0.0
 40
0.5000000000000568
100
AcDbArc
 50
184.9871394293021
 51
0.0
  0
ARC
  5
AA9
330
1F
100
AcDbEntity
  8
0
100
AcDbCircle
 10
608.6130955678327
 20
242.3451310042999
 30
0.0
 40
0.5000000000000568
100
AcDbArc
 50
0.0
 51
175.0128605706996
  0
ARC
  5
AAA
330
1F
100
AcDbEntity
  8
0
100
AcDbCircle
 10
612.8130955678328
 20
68.54513100429995
 30
0.0
 40
0.5000000000000568
100
AcDbArc
 50
184.9871394293021
 51
0.0
  0
ARC
  5
AAB
330
1F
100
AcDbEntity
  8
0
100
AcDbCircle
 10
612.8130955678328
 20
242.3451310042999
 30
0.0
 40
0.5000000000000568
100
AcDbArc
 50
0.0
 51
175.0128605706996
  0
LINE
  5
AAC
330
1F
100
AcDbEntity
  8
0
100
AcDbLine
 10
608.1149884499328
 20
242.388597072
 30
0.0
 11
607.4330147118328
 21
234.5733979704999
 31
0.0
  0
LINE
  5
AAD
330
1F
100
AcDbEntity
  8
0
100
AcDbLine
 10
607.4330147118328
 20
76.31686403819994
 30
0.0
 11
608.1149884499328
 21
68.50166493659994
 31
0.0
  0
LINE
  5
AAE
330
1F
100
AcDbEntity
  8
0
100
AcDbLine
 10
612.3149884499328
 20
242.388597072
 30
0.0
 11
611.6330147118329
 21
234.5733979704999
 31
0.0
  0
LINE
  5
AAF
330
1F
100
AcDbEntity
  8
0
100
AcDbLine
 10
611.6330147118329
 20
76.31686403819994
 30
0.0
 11
612.3149884499328
 21
68.50166493659994
 31
0.0
  0
ARC
  5
AB0
330
1F
100
AcDbEntity
  8
0
100
AcDbCircle
 10
607.1839611528328
 20
76.29513100429995
 30
0.0
 40
0.2499999999999642
100
AcDbArc
 50
4.987139429201003
 51
90.0
  0
ARC
  5
AB1
330
1F
100
AcDbEntity
  8
0
100
AcDbCircle
 10
607.1839611528328
 20
234.5951310042999
 30
0.0
 40
0.2499999999999654
100
AcDbArc
 50
270.0
 51
355.012860570799
  0
ARC
  5
AB2
330
1F
100
AcDbEntity
  8
0
100
AcDbCircle
 10
611.3839611528329
 20
76.29513100429995
 30
0.0
 40
0.2499999999999593
100
AcDbArc
 50
4.987139429201003
 51
90.0
  0
ARC
  5
AB3
330
1F
100
AcDbEntity
  8
0
100
AcDbCircle
 10
611.3839611528329
 20
234.5951310042999
 30
0.0
 40
0.249999999999958
100
AcDbArc
 50
270.0
 51
355.012860570799
  0
LINE
  5
AB4
330
1F
100
AcDbEntity
  8
0
100
AcDbLine
 10
606.3130955678328
 20
76.54513100429995
 30
0.0
 11
607.1839611528328
 21
76.54513100429995
 31
0.0
  0
LINE
  5
AB5
330
1F
100
AcDbEntity
  8
0
100
AcDbLine
 10
607.1839611528328
 20
234.3451310042999
 30
0.0
 11
606.3130955678328
 21
234.3451310042999
 31
0.0
  0
LINE
  5
AB6
330
1F
100
AcDbEntity
  8
0
100
AcDbLine
 10
609.1130955678327
 20
76.54513100429995
 30
0.0
 11
611.3839611528329
 21
76.54513100429995
 31
0.0
  0
LINE
  5
AB7
330
1F
100
AcDbEntity
  8
0
100
AcDbLine
 10
611.3839611528329
 20
234.3451310042999
 30
0.0
 11
609.1130955678327
 21
234.3451310042999
 31
0.0
  0
ARC
  5
AB8
330
1F
100
AcDbEntity
  8
0
100
AcDbCircle
 10
649.9587110571327
 20
43.80950689459994
 30
0.0
 40
32.00000000000008
100
AcDbArc
 50
78.91152852889996
 51
91.71749813890004
  0
ARC
  5
AB9
330
1F
100
AcDbEntity
  8
0
100
AcDbCircle
 10
649.9587110571327
 20
267.0807551140999
 30
0.0
 40
32.00000000000002
100
AcDbArc
 50
268.2825018610999
 51
281.0884714710999
  0
ARC
  5
ABA
330
1F
100
AcDbEntity
  8
0
100
AcDbCircle
 10
631.9996227878328
 20
76.07613100429994
 30
0.0
 40
1.999999999999983
100
AcDbArc
 50
193.6505766731997
 51
346.3494233268004
  0
ARC
  5
ABB
330
1F
100
AcDbEntity
  8
0
100
AcDbCircle
 10
631.9996227878328
 20
234.8141310043
 30
0.0
 40
1.99999999999998
100
AcDbArc
 50
13.65057667320007
 51
166.3494233268
  0
ARC
  5
ABC
330
1F
100
AcDbEntity
  8
0
100
AcDbCircle
 10
634.1860671617328
 20
75.54513100429995
 30
0.0
 40
0.2500000000000209
100
AcDbArc
 50
90.0
 51
166.3494233267928
  0
ARC
  5
ABD
330
1F
100
AcDbEntity
  8
0
100
AcDbCircle
 10
634.1860671617328
 20
235.3451310042999
 30
0.0
 40
0.2500000000000243
100
AcDbArc
 50
193.650576673204
 51
270.0
  0
ARC
  5
ABE
330
1F
100
AcDbEntity
  8
0
100
AcDbCircle
 10
629.8131784140328
 20
75.54513100429995
 30
0.0
 40
0.2500000000001482
100
AcDbArc
 50
13.65057667320735
 51
90.0
  0
ARC
  5
ABF
330
1F
100
AcDbEntity
  8
0
100
AcDbCircle
 10
629.8131784140328
 20
235.3451310042999
 30
0.0
 40
0.2500000000001549
100
AcDbArc
 50
270.0
 51
346.3494233267958
  0
LINE
  5
AC0
330
1F
100
AcDbEntity
  8
0
100
AcDbLine
 10
601.6130955678327
 20
75.79513100429995
 30
0.0
 11
606.3130955678328
 21
75.79513100429995
 31
0.0
  0
LINE
  5
AC1
330
1F
100
AcDbEntity
  8
0
100
AcDbLine
 10
606.3130955678328
 20
235.0951310042999
 30
0.0
 11
601.6130955678327
 21
235.0951310042999
 31
0.0
  0
ARC
  5
AC2
330
1F
100
AcDbEntity
  8
0
100
AcDbCircle
 10
601.6130955678327
 20
77.59513100429994
 30
0.0
 40
1.800000000000026
100
AcDbArc
 50
180.0
 51
270.0
  0
ARC
  5
AC3
330
1F
100
AcDbEntity
  8
0
100
AcDbCircle
 10
601.6130955678327
 20
233.2951310042999
 30
0.0
 40
1.800000000000011
100
AcDbArc
 50
90.0
 51
180.0
  0
LINE
  5
AC4
330
1F
100
AcDbEntity
  8
0
100
AcDbLine
 10
624.4286753956328
 20
235.0951310042999
 30
0.0
 11
622.6786753956328
 21
233.3451310042999
 31
0.0
  0
LINE
  5
AC5
330
1F
100
AcDbEntity
  8
0
100
AcDbLine
 10
622.6786753956328
 20
77.54513100429995
 30
0.0
 11
624.4286753956328
 21
75.79513100429995
 31
0.0
  0
LINE
  5
AC6
330
1F
100
AcDbEntity
  8
0
100
AcDbLine
 10
624.4286753956328
 20
75.79513100429995
 30
0.0
 11
629.8131784140328
 21
75.79513100429995
 31
0.0
  0
LINE
  5
AC7
330
1F
100
AcDbEntity
  8
0
100
AcDbLine
 10
629.8131784140328
 20
235.0951310042999
 30
0.0
 11
624.4286753956328
 21
235.0951310042999
 31
0.0
  0
LINE
  5
AC8
330
1F
100
AcDbEntity
  8
0
100
AcDbLine
 10
634.1860671617328
 20
75.79513100429995
 30
0.0
 11
648.9996227878328
 21
75.79513100429995
 31
0.0
  0
LINE
  5
AC9
330
1F
100
AcDbEntity
  8
0
100
AcDbLine
 10
648.9996227878328
 20
235.0951310042999
 30
0.0
 11
634.1860671617328
 21
235.0951310042999
 31
0.0
  0
LINE
  5
ACA
330
1F
100
AcDbEntity
  8
0
100
AcDbLine
 10
622.6786753956328
 20
233.3451310042999
 30
0.0
 11
615.6786753956328
 21
231.4451310043
 31
0.0
  0
LINE
  5
ACB
330
1F
100
AcDbEntity
  8
0
100
AcDbLine
 10
615.6786753956328
 20
79.44513100429994
 30
0.0
 11
622.6786753956328
 21
77.54513100429995
 31
0.0
  0
LINE
  5
ACC
330
1F
100
AcDbEntity
  8
0
100
AcDbLine
 10
613.3130955678328
 20
79.44513100429994
 30
0.0
 11
615.6786753956328
 21
79.44513100429994
 31
0.0
  0
LINE
  5
ACD
330
1F
100
AcDbEntity
  8
0
100
AcDbLine
 10
615.6786753956328
 20
231.4451310043
 30
0.0
 11
613.3130955678328
 21
231.4451310043
 31
0.0
  0
ARC
  5
ACE
330
1F
100
AcDbEntity
  8
0
100
AcDbCircle
 10
935.6674800786328
 20
267.0807551140999
 30
0.0
 40
32.00000000000003
100
AcDbArc
 50
258.9115285290001
 51
271.7174981389001
  0
ARC
  5
ACF
330
1F
100
AcDbEntity
  8
0
100
AcDbCircle
 10
935.6674800786328
 20
43.80950689459994
 30
0.0
 40
32.00000000000007
100
AcDbArc
 50
88.28250186109997
 51
101.0884714710001
  0
ARC
  5
AD0
330
1F
100
AcDbEntity
  8
0
100
AcDbCircle
 10
953.6265683478327
 20
234.8141310043
 30
0.0
 40
1.999999999999973
100
AcDbArc
 50
13.65057667320086
 51
166.3494233267992
  0
ARC
  5
AD1
330
1F
100
AcDbEntity
  8
0
100
AcDbCircle
 10
953.6265683478327
 20
76.07613100429994
 30
0.0
 40
1.999999999999976
100
AcDbArc
 50
193.6505766731997
 51
346.3494233267999
  0
ARC
  5
AD2
330
1F
100
AcDbEntity
  8
0
100
AcDbCircle
 10
951.4401239740328
 20
235.3451310042999
 30
0.0
 40
0.2500000000000243
100
AcDbArc
 50
270.0
 51
346.349423326796
  0
ARC
  5
AD3
330
1F
100
AcDbEntity
  8
0
100
AcDbCircle
 10
951.4401239740328
 20
75.54513100429995
 30
0.0
 40
0.2500000000000209
100
AcDbArc
 50
13.65057667320716
 51
90.0
  0
ARC
  5
AD4
330
1F
100
AcDbEntity
  8
0
100
AcDbCircle
 10
955.8130127217328
 20
235.3451310042999
 30
0.0
 40
0.2500000000001549
100
AcDbArc
 50
193.6505766731979
 51
270.0
  0
ARC
  5
AD5
330
1F
100
AcDbEntity
  8
0
100
AcDbCircle
 10
955.8130127217328
 20
75.54513100429995
 30
0.0
 40
0.2500000000001515
100
AcDbArc
 50
90.0
 51
166.349423326799
  0
LINE
  5
AD6
330
1F
100
AcDbEntity
  8
0
100
AcDbLine
 10
951.4401239740328
 20
235.0951310042999
 30
0.0
 11
936.6265683478327
 21
235.0951310042999
 31
0.0
  0
LINE
  5
AD7
330
1F
100
AcDbEntity
  8
0
100
AcDbLine
 10
936.6265683478327
 20
75.79513100429995
 30
0.0
 11
951.4401239740328
 21
75.79513100429995
 31
0.0
  0
LINE
  5
AD8
330
1F
100
AcDbEntity
  8
0
100
AcDbLine
 10
961.1975157400328
 20
235.0951310042999
 30
0.0
 11
955.8130127217328
 21
235.0951310042999
 31
0.0
  0
LINE
  5
AD9
330
1F
100
AcDbEntity
  8
0
100
AcDbLine
 10
955.8130127217328
 20
75.79513100429995
 30
0.0
 11
961.1975157400328
 21
75.79513100429995
 31
0.0
  0
LINE
  5
ADA
330
1F
100
AcDbEntity
  8
0
100
AcDbLine
 10
961.1975157400328
 20
75.79513100429995
 30
0.0
 11
962.9475157400328
 21
77.54513100429995
 31
0.0
  0
LINE
  5
ADB
330
1F
100
AcDbEntity
  8
0
100
AcDbLine
 10
962.9475157400328
 20
233.3451310042999
 30
0.0
 11
961.1975157400328
 21
235.0951310042999
 31
0.0
  0
LINE
  5
ADC
330
1F
100
AcDbEntity
  8
0
100
AcDbLine
 10
984.0130955678328
 20
235.0951310042999
 30
0.0
 11
979.3130955678328
 21
235.0951310042999
 31
0.0
  0
LINE
  5
ADD
330
1F
100
AcDbEntity
  8
0
100
AcDbLine
 10
979.3130955678328
 20
75.79513100429995
 30
0.0
 11
984.0130955678328
 21
75.79513100429995
 31
0.0
  0
ARC
  5
ADE
330
1F
100
AcDbEntity
  8
0
100
AcDbCircle
 10
984.0130955678328
 20
233.2951310042999
 30
0.0
 40
1.800000000000011
100
AcDbArc
 50
0.0
 51
90.0
  0
ARC
  5
ADF
330
1F
100
AcDbEntity
  8
0
100
AcDbCircle
 10
984.0130955678328
 20
77.59513100429994
 30
0.0
 40
1.800000000000026
100
AcDbArc
 50
270.0
 51
0.0
  0
LINE
  5
AE0
330
1F
100
AcDbEntity
  8
0
100
AcDbLine
 10
962.9475157400328
 20
77.54513100429995
 30
0.0
 11
969.9475157400328
 21
79.44513100429994
 31
0.0
  0
LINE
  5
AE1
330
1F
100
AcDbEntity
  8
0
100
AcDbLine
 10
969.9475157400328
 20
231.4451310043
 30
0.0
 11
962.9475157400328
 21
233.3451310042999
 31
0.0
  0
LINE
  5
AE2
330
1F
100
AcDbEntity
  8
0
100
AcDbLine
 10
972.3130955678328
 20
231.4451310043
 30
0.0
 11
969.9475157400328
 21
231.4451310043
 31
0.0
  0
LINE
  5
AE3
330
1F
100
AcDbEntity
  8
0
100
AcDbLine
 10
969.9475157400328
 20
79.44513100429994
 30
0.0
 11
972.3130955678328
 21
79.44513100429994
 31
0.0
  0
CIRCLE
  5
AE4
330
1F
100
AcDbEntity
  8
0
100
AcDbCircle
 10
803.8130955678328
 20
47.94513100429995
 30
0.0
 40
10.64999999999998
  0
CIRCLE
  5
AE5
330
1F
100
AcDbEntity
  8
0
100
AcDbCircle
 10
803.8130955678328
 20
47.94513100429995
 30
0.0
 40
10.04999999999995
  0
LINE
  5
AE6
330
1F
100
AcDbEntity
  8
0
100
AcDbLine
 10
792.7712716696328
 20
41.57013100429995
 30
0.0
 11
792.7712716696328
 21
54.32013100429995
 31
0.0
  0
LINE
  5
AE7
330
1F
100
AcDbEntity
  8
0
100
AcDbLine
 10
792.7712716696328
 20
54.32013100429995
 30
0.0
 11
803.8130955678328
 21
60.69513100429995
 31
0.0
  0
LINE
  5
AE8
330
1F
100
AcDbEntity
  8
0
100
AcDbLine
 10
803.8130955678328
 20
60.69513100429995
 30
0.0
 11
814.8549194661327
 21
54.32013100429995
 31
0.0
  0
LINE
  5
AE9
330
1F
100
AcDbEntity
  8
0
100
AcDbLine
 10
814.8549194661327
 20
54.32013100429995
 30
0.0
 11
814.8549194661327
 21
41.57013100429995
 31
0.0
  0
LINE
  5
AEA
330
1F
100
AcDbEntity
  8
0
100
AcDbLine
 10
814.8549194661327
 20
41.57013100429995
 30
0.0
 11
803.8130955678328
 21
35.19513100429995
 31
0.0
  0
LINE
  5
AEB
330
1F
100
AcDbEntity
  8
0
100
AcDbLine
 10
803.8130955678328
 20
35.19513100429995
 30
0.0
 11
792.7712716696328
 21
41.57013100429995
 31
0.0
  0
CIRCLE
  5
AEC
330
1F
100
AcDbEntity
  8
0
100
AcDbCircle
 10
803.8130955678328
 20
47.94513100429995
 30
0.0
 40
4.500000000000114
  0
CIRCLE
  5
AED
330
1F
100
AcDbEntity
  8
0
100
AcDbCircle
 10
781.8130955678328
 20
260.9451310042999
 30
0.0
 40
10.65000000000009
  0
CIRCLE
  5
AEE
330
1F
100
AcDbEntity
  8
0
100
AcDbCircle
 10
781.8130955678328
 20
260.9451310042999
 30
0.0
 40
10.05000000000007
  0
LINE
  5
AEF
330
1F
100
AcDbEntity
  8
0
100
AcDbLine
 10
770.7712716696328
 20
254.5701310043
 30
0.0
 11
770.7712716696328
 21
267.3201310042999
 31
0.0
  0
LINE
  5
AF0
330
1F
100
AcDbEntity
  8
0
100
AcDbLine
 10
781.8130955678328
 20
273.6951310042999
 30
0.0
 11
792.8549194661327
 21
267.3201310042999
 31
0.0
  0
LINE
  5
AF1
330
1F
100
AcDbEntity
  8
0
100
AcDbLine
 10
792.8549194661327
 20
267.3201310042999
 30
0.0
 11
792.8549194661327
 21
254.5701310043
 31
0.0
  0
LINE
  5
AF2
330
1F
100
AcDbEntity
  8
0
100
AcDbLine
 10
792.8549194661327
 20
254.5701310043
 30
0.0
 11
781.8130955678328
 21
248.1951310043
 31
0.0
  0
LINE
  5
AF3
330
1F
100
AcDbEntity
  8
0
100
AcDbLine
 10
781.8130955678328
 20
248.1951310043
 30
0.0
 11
770.7712716696328
 21
254.5701310043
 31
0.0
  0
LINE
  5
AF4
330
1F
100
AcDbEntity
  8
0
100
AcDbLine
 10
770.7712716696328
 20
267.3201310042999
 30
0.0
 11
781.8130955678328
 21
273.6951310042999
 31
0.0
  0
CIRCLE
  5
AF5
330
1F
100
AcDbEntity
  8
0
100
AcDbCircle
 10
781.8130955678328
 20
260.9451310042999
 30
0.0
 40
4.499999999999886
  0
ARC
  5
AF6
330
1F
100
AcDbEntity
  8
0
100
AcDbCircle
 10
920.6630955678328
 20
278.9451310042999
 30
0.0
 40
2.099999999999989
100
AcDbArc
 50
96.8371411680987
 51
173.1628588318999
  0
LINE
  5
AF7
330
1F
100
AcDbEntity
  8
0
100
AcDbLine
 10
920.4130955678328
 20
281.0301969504999
 30
0.0
 11
920.4130955678328
 21
280.1951310042999
 31
0.0
  0
ARC
  5
AF8
330
1F
100
AcDbEntity
  8
0
100
AcDbCircle
 10
919.4130955678328
 20
280.1951310042999
 30
0.0
 40
1.0
100
AcDbArc
 50
270.0
 51
0.0
  0
LINE
  5
AF9
330
1F
100
AcDbEntity
  8
0
100
AcDbLine
 10
919.4130955678328
 20
279.1951310042999
 30
0.0
 11
918.5780296216328
 21
279.1951310042999
 31
0.0
  0
CIRCLE
  5
AFA
330
1F
100
AcDbEntity
  8
0
100
AcDbCircle
 10
920.6630955678328
 20
278.9451310042999
 30
0.0
 40
4.100000000000023
  0
ARC
  5
AFB
330
1F
100
AcDbEntity
  8
0
100
AcDbCircle
 10
920.6630955678328
 20
278.9451310042999
 30
0.0
 40
2.099999999999975
100
AcDbArc
 50
6.837141168100421
 51
83.16285883190132
  0
ARC
  5
AFC
330
1F
100
AcDbEntity
  8
0
100
AcDbCircle
 10
920.6630955678328
 20
278.9451310042999
 30
0.0
 40
2.099999999999989
100
AcDbArc
 50
83.16285883190132
 51
96.8371411680987
  0
ARC
  5
AFD
330
1F
100
AcDbEntity
  8
0
100
AcDbCircle
 10
920.6630955678328
 20
278.9451310042999
 30
0.0
 40
2.099999999999982
100
AcDbArc
 50
173.1628588318996
 51
186.8371411681004
  0
ARC
  5
AFE
330
1F
100
AcDbEntity
  8
0
100
AcDbCircle
 10
920.6630955678328
 20
278.9451310042999
 30
0.0
 40
2.100000000000045
100
AcDbArc
 50
186.8371411681
 51
263.1628588319015
  0
ARC
  5
AFF
330
1F
100
AcDbEntity
  8
0
100
AcDbCircle
 10
920.6630955678328
 20
278.9451310042999
 30
0.0
 40
2.100000000000045
100
AcDbArc
 50
263.1628588319015
 51
276.8371411680985
  0
ARC
  5
B00
330
1F
100
AcDbEntity
  8
0
100
AcDbCircle
 10
920.6630955678328
 20
278.9451310042999
 30
0.0
 40
2.100000000000032
100
AcDbArc
 50
276.8371411680985
 51
353.1628588318999
  0
ARC
  5
B01
330
1F
100
AcDbEntity
  8
0
100
AcDbCircle
 10
920.6630955678328
 20
278.9451310042999
 30
0.0
 40
2.099999999999982
100
AcDbArc
 50
353.1628588318996
 51
6.837141168100421
  0
LINE
  5
B02
330
1F
100
AcDbEntity
  8
0
100
AcDbLine
 10
922.7481615140327
 20
279.1951310042999
 30
0.0
 11
921.9130955678328
 21
279.1951310042999
 31
0.0
  0
ARC
  5
B03
330
1F
100
AcDbEntity
  8
0
100
AcDbCircle
 10
921.9130955678328
 20
280.1951310042999
 30
0.0
 40
1.0
100
AcDbArc
 50
180.0
 51
270.0
  0
LINE
  5
B04
330
1F
100
AcDbEntity
  8
0
100
AcDbLine
 10
920.9130955678328
 20
280.1951310042999
 30
0.0
 11
920.9130955678328
 21
281.0301969504999
 31
0.0
  0
LINE
  5
B05
330
1F
100
AcDbEntity
  8
0
100
AcDbLine
 10
918.5780296216328
 20
279.1951310042999
 30
0.0
 11
918.5780296216328
 21
278.6951310042999
 31
0.0
  0
ARC
  5
B06
330
1F
100
AcDbEntity
  8
0
100
AcDbCircle
 10
919.4130955678328
 20
277.6951310042999
 30
0.0
 40
1.0
100
AcDbArc
 50
0.0
 51
90.0
  0
LINE
  5
B07
330
1F
100
AcDbEntity
  8
0
100
AcDbLine
 10
920.4130955678328
 20
277.6951310042999
 30
0.0
 11
920.4130955678328
 21
276.8600650581
 31
0.0
  0
LINE
  5
B08
330
1F
100
AcDbEntity
  8
0
100
AcDbLine
 10
918.5780296216328
 20
278.6951310042999
 30
0.0
 11
919.4130955678328
 21
278.6951310042999
 31
0.0
  0
LINE
  5
B09
330
1F
100
AcDbEntity
  8
0
100
AcDbLine
 10
920.9130955678328
 20
281.0301969504999
 30
0.0
 11
920.4130955678328
 21
281.0301969504999
 31
0.0
  0
LINE
  5
B0A
330
1F
100
AcDbEntity
  8
0
100
AcDbLine
 10
922.7481615140327
 20
278.6951310042999
 30
0.0
 11
922.7481615140327
 21
279.1951310042999
 31
0.0
  0
LINE
  5
B0B
330
1F
100
AcDbEntity
  8
0
100
AcDbLine
 10
920.4130955678328
 20
276.8600650581
 30
0.0
 11
920.9130955678328
 21
276.8600650581
 31
0.0
  0
LINE
  5
B0C
330
1F
100
AcDbEntity
  8
0
100
AcDbLine
 10
920.9130955678328
 20
276.8600650581
 30
0.0
 11
920.9130955678328
 21
277.6951310042999
 31
0.0
  0
ARC
  5
B0D
330
1F
100
AcDbEntity
  8
0
100
AcDbCircle
 10
921.9130955678328
 20
277.6951310042999
 30
0.0
 40
1.0
100
AcDbArc
 50
90.0
 51
180.0
  0
LINE
  5
B0E
330
1F
100
AcDbEntity
  8
0
100
AcDbLine
 10
921.9130955678328
 20
278.6951310042999
 30
0.0
 11
922.7481615140327
 21
278.6951310042999
 31
0.0
  0
CIRCLE
  5
B0F
330
1F
100
AcDbEntity
  8
0
100
AcDbCircle
 10
920.6630955678328
 20
31.94513100429994
 30
0.0
 40
4.099999999999977
  0
ARC
  5
B10
330
1F
100
AcDbEntity
  8
0
100
AcDbCircle
 10
920.6630955678328
 20
31.94513100429994
 30
0.0
 40
2.099999999999993
100
AcDbArc
 50
6.837141168099474
 51
83.16285883190135
  0
ARC
  5
B11
330
1F
100
AcDbEntity
  8
0
100
AcDbCircle
 10
920.6630955678328
 20
31.94513100429994
 30
0.0
 40
2.100000000000021
100
AcDbArc
 50
83.16285883190146
 51
96.83714116809855
  0
ARC
  5
B12
330
1F
100
AcDbEntity
  8
0
100
AcDbCircle
 10
920.6630955678328
 20
31.94513100429994
 30
0.0
 40
2.100000000000201
100
AcDbArc
 50
96.83714116810111
 51
173.1628588318997
  0
ARC
  5
B13
330
1F
100
AcDbEntity
  8
0
100
AcDbCircle
 10
920.6630955678328
 20
31.94513100429994
 30
0.0
 40
2.100000000000201
100
AcDbArc
 50
173.1628588318997
 51
186.8371411680999
  0
ARC
  5
B14
330
1F
100
AcDbEntity
  8
0
100
AcDbCircle
 10
920.6630955678328
 20
31.94513100429994
 30
0.0
 40
2.100000000000201
100
AcDbArc
 50
186.8371411680999
 51
263.1628588318989
  0
ARC
  5
B15
330
1F
100
AcDbEntity
  8
0
100
AcDbCircle
 10
920.6630955678328
 20
31.94513100429994
 30
0.0
 40
2.100000000000031
100
AcDbArc
 50
263.1628588319015
 51
276.8371411680985
  0
ARC
  5
B16
330
1F
100
AcDbEntity
  8
0
100
AcDbCircle
 10
920.6630955678328
 20
31.94513100429994
 30
0.0
 40
2.100000000000004
100
AcDbArc
 50
276.8371411680986
 51
353.1628588319004
  0
ARC
  5
B17
330
1F
100
AcDbEntity
  8
0
100
AcDbCircle
 10
920.6630955678328
 20
31.94513100429994
 30
0.0
 40
2.099999999999976
100
AcDbArc
 50
353.1628588318999
 51
6.837141168100229
  0
LINE
  5
B18
330
1F
100
AcDbEntity
  8
0
100
AcDbLine
 10
920.4130955678328
 20
34.03019695049994
 30
0.0
 11
920.4130955678328
 21
33.19513100429995
 31
0.0
  0
ARC
  5
B19
330
1F
100
AcDbEntity
  8
0
100
AcDbCircle
 10
919.4130955678328
 20
33.19513100429995
 30
0.0
 40
1.0
100
AcDbArc
 50
270.0
 51
0.0
  0
LINE
  5
B1A
330
1F
100
AcDbEntity
  8
0
100
AcDbLine
 10
919.4130955678328
 20
32.19513100429995
 30
0.0
 11
918.5780296216328
 21
32.19513100429995
 31
0.0
  0
LINE
  5
B1B
330
1F
100
AcDbEntity
  8
0
100
AcDbLine
 10
922.7481615140327
 20
32.19513100429995
 30
0.0
 11
921.9130955678328
 21
32.19513100429995
 31
0.0
  0
ARC
  5
B1C
330
1F
100
AcDbEntity
  8
0
100
AcDbCircle
 10
921.9130955678328
 20
33.19513100429995
 30
0.0
 40
1.0
100
AcDbArc
 50
180.0
 51
270.0
  0
LINE
  5
B1D
330
1F
100
AcDbEntity
  8
0
100
AcDbLine
 10
920.9130955678328
 20
33.19513100429995
 30
0.0
 11
920.9130955678328
 21
34.03019695049994
 31
0.0
  0
LINE
  5
B1E
330
1F
100
AcDbEntity
  8
0
100
AcDbLine
 10
920.9130955678328
 20
34.03019695049994
 30
0.0
 11
920.4130955678328
 21
34.03019695049994
 31
0.0
  0
ARC
  5
B1F
330
1F
100
AcDbEntity
  8
0
100
AcDbCircle
 10
919.4130955678328
 20
30.69513100429994
 30
0.0
 40
1.0
100
AcDbArc
 50
0.0
 51
90.0
  0
LINE
  5
B20
330
1F
100
AcDbEntity
  8
0
100
AcDbLine
 10
920.4130955678328
 20
30.69513100429994
 30
0.0
 11
920.4130955678328
 21
29.86006505809994
 31
0.0
  0
LINE
  5
B21
330
1F
100
AcDbEntity
  8
0
100
AcDbLine
 10
918.5780296216328
 20
31.69513100429994
 30
0.0
 11
919.4130955678328
 21
31.69513100429994
 31
0.0
  0
LINE
  5
B22
330
1F
100
AcDbEntity
  8
0
100
AcDbLine
 10
918.5780296216328
 20
32.19513100429995
 30
0.0
 11
918.5780296216328
 21
31.69513100429994
 31
0.0
  0
LINE
  5
B23
330
1F
100
AcDbEntity
  8
0
100
AcDbLine
 10
922.7481615140327
 20
31.69513100429994
 30
0.0
 11
922.7481615140327
 21
32.19513100429995
 31
0.0
  0
LINE
  5
B24
330
1F
100
AcDbEntity
  8
0
100
AcDbLine
 10
920.9130955678328
 20
29.86006505809994
 30
0.0
 11
920.9130955678328
 21
30.69513100429994
 31
0.0
  0
ARC
  5
B25
330
1F
100
AcDbEntity
  8
0
100
AcDbCircle
 10
921.9130955678328
 20
30.69513100429994
 30
0.0
 40
1.0
100
AcDbArc
 50
90.0
 51
180.0
  0
LINE
  5
B26
330
1F
100
AcDbEntity
  8
0
100
AcDbLine
 10
921.9130955678328
 20
31.69513100429994
 30
0.0
 11
922.7481615140327
 21
31.69513100429994
 31
0.0
  0
LINE
  5
B27
330
1F
100
AcDbEntity
  8
0
100
AcDbLine
 10
920.4130955678328
 20
29.86006505809994
 30
0.0
 11
920.9130955678328
 21
29.86006505809994
 31
0.0
  0
ARC
  5
B28
330
1F
100
AcDbEntity
  8
0
100
AcDbCircle
 10
664.9630955678329
 20
31.94513100429994
 30
0.0
 40
2.100000000000007
100
AcDbArc
 50
96.83714116809861
 51
173.1628588319003
  0
LINE
  5
B29
330
1F
100
AcDbEntity
  8
0
100
AcDbLine
 10
664.7130955678329
 20
34.03019695049994
 30
0.0
 11
664.7130955678329
 21
33.19513100429995
 31
0.0
  0
ARC
  5
B2A
330
1F
100
AcDbEntity
  8
0
100
AcDbCircle
 10
663.7130955678329
 20
33.19513100429995
 30
0.0
 40
1.000000000000007
100
AcDbArc
 50
270.0
 51
0.0
  0
LINE
  5
B2B
330
1F
100
AcDbEntity
  8
0
100
AcDbLine
 10
663.7130955678329
 20
32.19513100429995
 30
0.0
 11
662.8780296216328
 21
32.19513100429995
 31
0.0
  0
CIRCLE
  5
B2C
330
1F
100
AcDbEntity
  8
0
100
AcDbCircle
 10
664.9630955678329
 20
31.94513100429994
 30
0.0
 40
4.09999999999998
  0
ARC
  5
B2D
330
1F
100
AcDbEntity
  8
0
100
AcDbCircle
 10
664.9630955678329
 20
31.94513100429994
 30
0.0
 40
2.100000000000007
100
AcDbArc
 50
6.837141168099667
 51
83.1628588319014
  0
ARC
  5
B2E
330
1F
100
AcDbEntity
  8
0
100
AcDbCircle
 10
664.9630955678329
 20
31.94513100429994
 30
0.0
 40
2.100000000000007
100
AcDbArc
 50
83.1628588319014
 51
96.83714116809861
  0
ARC
  5
B2F
330
1F
100
AcDbEntity
  8
0
100
AcDbCircle
 10
664.9630955678329
 20
31.94513100429994
 30
0.0
 40
2.099999999999975
100
AcDbArc
 50
173.1628588318994
 51
186.8371411681003
  0
ARC
  5
B30
330
1F
100
AcDbEntity
  8
0
100
AcDbCircle
 10
664.9630955678329
 20
31.94513100429994
 30
0.0
 40
2.100000000000021
100
AcDbArc
 50
186.8371411680997
 51
263.1628588319014
  0
ARC
  5
B31
330
1F
100
AcDbEntity
  8
0
100
AcDbCircle
 10
664.9630955678329
 20
31.94513100429994
 30
0.0
 40
2.100000000000021
100
AcDbArc
 50
263.1628588319014
 51
276.8371411680986
  0
ARC
  5
B32
330
1F
100
AcDbEntity
  8
0
100
AcDbCircle
 10
664.9630955678329
 20
31.94513100429994
 30
0.0
 40
2.100000000000021
100
AcDbArc
 50
276.8371411680986
 51
353.1628588319001
  0
ARC
  5
B33
330
1F
100
AcDbEntity
  8
0
100
AcDbCircle
 10
664.9630955678329
 20
31.94513100429994
 30
0.0
 40
2.099999999999975
100
AcDbArc
 50
353.1628588318996
 51
6.837141168100613
  0
LINE
  5
B34
330
1F
100
AcDbEntity
  8
0
100
AcDbLine
 10
665.2130955678329
 20
34.03019695049994
 30
0.0
 11
664.7130955678329
 21
34.03019695049994
 31
0.0
  0
LINE
  5
B35
330
1F
100
AcDbEntity
  8
0
100
AcDbLine
 10
662.8780296216328
 20
32.19513100429995
 30
0.0
 11
662.8780296216328
 21
31.69513100429994
 31
0.0
  0
LINE
  5
B36
330
1F
100
AcDbEntity
  8
0
100
AcDbLine
 10
662.8780296216328
 20
31.69513100429994
 30
0.0
 11
663.7130955678329
 21
31.69513100429994
 31
0.0
  0
ARC
  5
B37
330
1F
100
AcDbEntity
  8
0
100
AcDbCircle
 10
663.7130955678329
 20
30.69513100429994
 30
0.0
 40
1.000000000000004
100
AcDbArc
 50
0.0
 51
90.0
  0
LINE
  5
B38
330
1F
100
AcDbEntity
  8
0
100
AcDbLine
 10
664.7130955678329
 20
30.69513100429994
 30
0.0
 11
664.7130955678329
 21
29.86006505809994
 31
0.0
  0
LINE
  5
B39
330
1F
100
AcDbEntity
  8
0
100
AcDbLine
 10
667.0481615140328
 20
32.19513100429995
 30
0.0
 11
666.2130955678329
 21
32.19513100429995
 31
0.0
  0
ARC
  5
B3A
330
1F
100
AcDbEntity
  8
0
100
AcDbCircle
 10
666.2130955678329
 20
33.19513100429995
 30
0.0
 40
1.000000000000007
100
AcDbArc
 50
180.0
 51
270.0
  0
LINE
  5
B3B
330
1F
100
AcDbEntity
  8
0
100
AcDbLine
 10
665.2130955678329
 20
33.19513100429995
 30
0.0
 11
665.2130955678329
 21
34.03019695049994
 31
0.0
  0
LINE
  5
B3C
330
1F
100
AcDbEntity
  8
0
100
AcDbLine
 10
664.7130955678329
 20
29.86006505809994
 30
0.0
 11
665.2130955678329
 21
29.86006505809994
 31
0.0
  0
LINE
  5
B3D
330
1F
100
AcDbEntity
  8
0
100
AcDbLine
 10
667.0481615140328
 20
31.69513100429994
 30
0.0
 11
667.0481615140328
 21
32.19513100429995
 31
0.0
  0
LINE
  5
B3E
330
1F
100
AcDbEntity
  8
0
100
AcDbLine
 10
666.2130955678329
 20
31.69513100429994
 30
0.0
 11
667.0481615140328
 21
31.69513100429994
 31
0.0
  0
ARC
  5
B3F
330
1F
100
AcDbEntity
  8
0
100
AcDbCircle
 10
666.2130955678329
 20
30.69513100429994
 30
0.0
 40
1.000000000000004
100
AcDbArc
 50
90.0
 51
180.0
  0
LINE
  5
B40
330
1F
100
AcDbEntity
  8
0
100
AcDbLine
 10
665.2130955678329
 20
29.86006505809994
 30
0.0
 11
665.2130955678329
 21
30.69513100429994
 31
0.0
  0
CIRCLE
  5
B41
330
1F
100
AcDbEntity
  8
0
100
AcDbCircle
 10
664.9630955678329
 20
278.9451310042999
 30
0.0
 40
4.100000000000023
  0
ARC
  5
B42
330
1F
100
AcDbEntity
  8
0
100
AcDbCircle
 10
664.9630955678329
 20
278.9451310042999
 30
0.0
 40
2.099999999999975
100
AcDbArc
 50
6.837141168100421
 51
83.16285883190132
  0
ARC
  5
B43
330
1F
100
AcDbEntity
  8
0
100
AcDbCircle
 10
664.9630955678329
 20
278.9451310042999
 30
0.0
 40
2.099999999999975
100
AcDbArc
 50
83.16285883190132
 51
96.8371411680987
  0
ARC
  5
B44
330
1F
100
AcDbEntity
  8
0
100
AcDbCircle
 10
664.9630955678329
 20
278.9451310042999
 30
0.0
 40
2.099999999999975
100
AcDbArc
 50
96.8371411680987
 51
173.1628588318996
  0
ARC
  5
B45
330
1F
100
AcDbEntity
  8
0
100
AcDbCircle
 10
664.9630955678329
 20
278.9451310042999
 30
0.0
 40
2.099999999999975
100
AcDbArc
 50
173.1628588318996
 51
186.8371411681004
  0
ARC
  5
B46
330
1F
100
AcDbEntity
  8
0
100
AcDbCircle
 10
664.9630955678329
 20
278.9451310042999
 30
0.0
 40
2.099999999999975
100
AcDbArc
 50
186.8371411681004
 51
263.1628588319013
  0
ARC
  5
B47
330
1F
100
AcDbEntity
  8
0
100
AcDbCircle
 10
664.9630955678329
 20
278.9451310042999
 30
0.0
 40
2.099999999999975
100
AcDbArc
 50
263.1628588319013
 51
276.8371411680987
  0
ARC
  5
B48
330
1F
100
AcDbEntity
  8
0
100
AcDbCircle
 10
664.9630955678329
 20
278.9451310042999
 30
0.0
 40
2.099999999999975
100
AcDbArc
 50
276.8371411680987
 51
353.1628588318996
  0
ARC
  5
B49
330
1F
100
AcDbEntity
  8
0
100
AcDbCircle
 10
664.9630955678329
 20
278.9451310042999
 30
0.0
 40
2.099999999999975
100
AcDbArc
 50
353.1628588318996
 51
6.837141168100421
  0
LINE
  5
B4A
330
1F
100
AcDbEntity
  8
0
100
AcDbLine
 10
664.7130955678329
 20
281.0301969504999
 30
0.0
 11
664.7130955678329
 21
280.1951310042999
 31
0.0
  0
LINE
  5
B4B
330
1F
100
AcDbEntity
  8
0
100
AcDbLine
 10
663.7130955678329
 20
279.1951310042999
 30
0.0
 11
662.8780296216328
 21
279.1951310042999
 31
0.0
  0
ARC
  5
B4C
330
1F
100
AcDbEntity
  8
0
100
AcDbCircle
 10
663.7130955678329
 20
280.1951310042999
 30
0.0
 40
1.0
100
AcDbArc
 50
270.0
 51
0.0
  0
LINE
  5
B4D
330
1F
100
AcDbEntity
  8
0
100
AcDbLine
 10
665.2130955678329
 20
281.0301969504999
 30
0.0
 11
664.7130955678329
 21
281.0301969504999
 31
0.0
  0
LINE
  5
B4E
330
1F
100
AcDbEntity
  8
0
100
AcDbLine
 10
664.7130955678329
 20
276.8600650581
 30
0.0
 11
665.2130955678329
 21
276.8600650581
 31
0.0
  0
LINE
  5
B4F
330
1F
100
AcDbEntity
  8
0
100
AcDbLine
 10
662.8780296216328
 20
279.1951310042999
 30
0.0
 11
662.8780296216328
 21
278.6951310042999
 31
0.0
  0
ARC
  5
B50
330
1F
100
AcDbEntity
  8
0
100
AcDbCircle
 10
663.7130955678329
 20
277.6951310042999
 30
0.0
 40
1.0
100
AcDbArc
 50
0.0
 51
90.0
  0
LINE
  5
B51
330
1F
100
AcDbEntity
  8
0
100
AcDbLine
 10
664.7130955678329
 20
277.6951310042999
 30
0.0
 11
664.7130955678329
 21
276.8600650581
 31
0.0
  0
LINE
  5
B52
330
1F
100
AcDbEntity
  8
0
100
AcDbLine
 10
662.8780296216328
 20
278.6951310042999
 30
0.0
 11
663.7130955678329
 21
278.6951310042999
 31
0.0
  0
LINE
  5
B53
330
1F
100
AcDbEntity
  8
0
100
AcDbLine
 10
667.0481615140328
 20
279.1951310042999
 30
0.0
 11
666.2130955678329
 21
279.1951310042999
 31
0.0
  0
LINE
  5
B54
330
1F
100
AcDbEntity
  8
0
100
AcDbLine
 10
665.2130955678329
 20
280.1951310042999
 30
0.0
 11
665.2130955678329
 21
281.0301969504999
 31
0.0
  0
ARC
  5
B55
330
1F
100
AcDbEntity
  8
0
100
AcDbCircle
 10
666.2130955678329
 20
280.1951310042999
 30
0.0
 40
1.0
100
AcDbArc
 50
180.0
 51
270.0
  0
LINE
  5
B56
330
1F
100
AcDbEntity
  8
0
100
AcDbLine
 10
667.0481615140328
 20
278.6951310042999
 30
0.0
 11
667.0481615140328
 21
279.1951310042999
 31
0.0
  0
LINE
  5
B57
330
1F
100
AcDbEntity
  8
0
100
AcDbLine
 10
666.2130955678329
 20
278.6951310042999
 30
0.0
 11
667.0481615140328
 21
278.6951310042999
 31
0.0
  0
ARC
  5
B58
330
1F
100
AcDbEntity
  8
0
100
AcDbCircle
 10
666.2130955678329
 20
277.6951310042999
 30
0.0
 40
1.0
100
AcDbArc
 50
90.0
 51
180.0
  0
LINE
  5
B59
330
1F
100
AcDbEntity
  8
0
100
AcDbLine
 10
665.2130955678329
 20
276.8600650581
 30
0.0
 11
665.2130955678329
 21
277.6951310042999
 31
0.0
  0
LINE
  5
B5A
330
1F
100
AcDbEntity
  8
0
100
AcDbLine
 10
908.8902705913328
 20
-3.812621529100056
 30
0.0
 11
909.5907217807328
 21
-3.098921220000056
 31
0.0
  0
LINE
  5
B5B
330
1F
100
AcDbEntity
  8
0
100
AcDbLine
 10
909.5907217807328
 20
-3.098921220000056
 30
0.0
 11
908.5201713171328
 21
-2.048244435800058
 31
0.0
  0
LINE
  5
B5C
330
1F
100
AcDbEntity
  8
0
100
AcDbLine
 10
908.5201713171328
 20
-2.048244435800058
 30
0.0
 11
909.5708481013328
 21
-0.9776939722000577
 31
0.0
  0
LINE
  5
B5D
330
1F
100
AcDbEntity
  8
0
100
AcDbLine
 10
909.5708481013328
 20
-0.9776939722000577
 30
0.0
 11
908.8571477922328
 21
-0.277242782800057
 31
0.0
  0
LINE
  5
B5E
330
1F
100
AcDbEntity
  8
0
100
AcDbLine
 10
908.8571477922328
 20
-0.277242782800057
 30
0.0
 11
907.8064710080328
 21
-1.347793246400057
 31
0.0
  0
LINE
  5
B5F
330
1F
100
AcDbEntity
  8
0
100
AcDbLine
 10
907.8064710080328
 20
-1.347793246400057
 30
0.0
 11
906.7359205444328
 21
-0.2971164622000568
 31
0.0
  0
LINE
  5
B60
330
1F
100
AcDbEntity
  8
0
100
AcDbLine
 10
906.7359205444328
 20
-0.2971164622000568
 30
0.0
 11
906.0354693549328
 21
-1.010816771300057
 31
0.0
  0
LINE
  5
B61
330
1F
100
AcDbEntity
  8
0
100
AcDbLine
 10
906.0354693549328
 20
-1.010816771300057
 30
0.0
 11
907.1060198186328
 21
-2.061493555500057
 31
0.0
  0
LINE
  5
B62
330
1F
100
AcDbEntity
  8
0
100
AcDbLine
 10
907.1060198186328
 20
-2.061493555500057
 30
0.0
 11
906.0553430344328
 21
-3.132044019100057
 31
0.0
  0
LINE
  5
B63
330
1F
100
AcDbEntity
  8
0
100
AcDbLine
 10
906.0553430344328
 20
-3.132044019100057
 30
0.0
 11
906.7690433435328
 21
-3.832495208600057
 31
0.0
  0
LINE
  5
B64
330
1F
100
AcDbEntity
  8
0
100
AcDbLine
 10
906.7690433435328
 20
-3.832495208600057
 30
0.0
 11
907.8197201277328
 21
-2.761944744900057
 31
0.0
  0
LINE
  5
B65
330
1F
100
AcDbEntity
  8
0
100
AcDbLine
 10
907.8197201277328
 20
-2.761944744900057
 30
0.0
 11
908.8902705913328
 21
-3.812621529100056
 31
0.0
  0
CIRCLE
  5
B66
330
1F
100
AcDbEntity
  8
0
100
AcDbCircle
 10
907.8130955678328
 20
-2.054868995700057
 30
0.0
 40
2.49999999999995
  0
LINE
  5
B67
330
1F
100
AcDbEntity
  8
0
100
AcDbLine
 10
908.1461417211328
 20
-2.051748701700056
 30
0.0
 11
908.5201713171328
 21
-2.048244435800058
 31
0.0
  0
LINE
  5
B68
330
1F
100
AcDbEntity
  8
0
100
AcDbLine
 10
908.1461417211328
 20
-2.051748701700056
 30
0.0
 11
909.1968185053328
 21
-0.9811982381000561
 31
0.0
  0
LINE
  5
B69
330
1F
100
AcDbEntity
  8
0
100
AcDbLine
 10
909.1968185053328
 20
-0.9811982381000561
 30
0.0
 11
909.5708481013328
 21
-0.9776939722000577
 31
0.0
  0
LINE
  5
B6A
330
1F
100
AcDbEntity
  8
0
100
AcDbLine
 10
909.1968185053328
 20
-0.9811982381000561
 30
0.0
 11
908.8606520581328
 21
-0.6512723788000567
 31
0.0
  0
LINE
  5
B6B
330
1F
100
AcDbEntity
  8
0
100
AcDbLine
 10
908.8606520581328
 20
-0.6512723788000567
 30
0.0
 11
908.8571477922328
 21
-0.277242782800057
 31
0.0
  0
LINE
  5
B6C
330
1F
100
AcDbEntity
  8
0
100
AcDbLine
 10
908.8606520581328
 20
-0.6512723788000567
 30
0.0
 11
907.8099752739328
 21
-1.721822842400057
 31
0.0
  0
LINE
  5
B6D
330
1F
100
AcDbEntity
  8
0
100
AcDbLine
 10
907.8099752739328
 20
-1.721822842400057
 30
0.0
 11
907.8064710080328
 21
-1.347793246400057
 31
0.0
  0
LINE
  5
B6E
330
1F
100
AcDbEntity
  8
0
100
AcDbLine
 10
908.8867663254327
 20
-3.438591933100057
 30
0.0
 11
908.8902705913328
 21
-3.812621529100056
 31
0.0
  0
LINE
  5
B6F
330
1F
100
AcDbEntity
  8
0
100
AcDbLine
 10
908.8867663254327
 20
-3.438591933100057
 30
0.0
 11
909.2166921847328
 21
-3.102425485900056
 31
0.0
  0
LINE
  5
B70
330
1F
100
AcDbEntity
  8
0
100
AcDbLine
 10
909.2166921847328
 20
-3.102425485900056
 30
0.0
 11
909.5907217807328
 21
-3.098921220000056
 31
0.0
  0
LINE
  5
B71
330
1F
100
AcDbEntity
  8
0
100
AcDbLine
 10
907.8099752739328
 20
-1.721822842400057
 30
0.0
 11
906.7394248103328
 21
-0.6711460582000566
 31
0.0
  0
LINE
  5
B72
330
1F
100
AcDbEntity
  8
0
100
AcDbLine
 10
906.7394248103328
 20
-0.6711460582000566
 30
0.0
 11
906.7359205444328
 21
-0.2971164622000568
 31
0.0
  0
LINE
  5
B73
330
1F
100
AcDbEntity
  8
0
100
AcDbLine
 10
906.7394248103328
 20
-0.6711460582000566
 30
0.0
 11
906.4094989509327
 21
-1.007312505400057
 31
0.0
  0
LINE
  5
B74
330
1F
100
AcDbEntity
  8
0
100
AcDbLine
 10
906.4094989509327
 20
-1.007312505400057
 30
0.0
 11
906.0354693549328
 21
-1.010816771300057
 31
0.0
  0
LINE
  5
B75
330
1F
100
AcDbEntity
  8
0
100
AcDbLine
 10
909.2166921847328
 20
-3.102425485900056
 30
0.0
 11
908.1461417211328
 21
-2.051748701700056
 31
0.0
  0
LINE
  5
B76
330
1F
100
AcDbEntity
  8
0
100
AcDbLine
 10
907.4800494146328
 20
-2.057989289600057
 30
0.0
 11
907.1060198186328
 21
-2.061493555500057
 31
0.0
  0
LINE
  5
B77
330
1F
100
AcDbEntity
  8
0
100
AcDbLine
 10
907.4800494146328
 20
-2.057989289600057
 30
0.0
 11
906.4293726304328
 21
-3.128539753200057
 31
0.0
  0
LINE
  5
B78
330
1F
100
AcDbEntity
  8
0
100
AcDbLine
 10
906.4293726304328
 20
-3.128539753200057
 30
0.0
 11
906.0553430344328
 21
-3.132044019100057
 31
0.0
  0
LINE
  5
B79
330
1F
100
AcDbEntity
  8
0
100
AcDbLine
 10
906.4094989509327
 20
-1.007312505400057
 30
0.0
 11
907.4800494146328
 21
-2.057989289600057
 31
0.0
  0
LINE
  5
B7A
330
1F
100
AcDbEntity
  8
0
100
AcDbLine
 10
906.4293726304328
 20
-3.128539753200057
 30
0.0
 11
906.7655390776328
 21
-3.458465612600056
 31
0.0
  0
LINE
  5
B7B
330
1F
100
AcDbEntity
  8
0
100
AcDbLine
 10
906.7655390776328
 20
-3.458465612600056
 30
0.0
 11
906.7690433435328
 21
-3.832495208600057
 31
0.0
  0
LINE
  5
B7C
330
1F
100
AcDbEntity
  8
0
100
AcDbLine
 10
906.7655390776328
 20
-3.458465612600056
 30
0.0
 11
907.8162158618328
 21
-2.387915148900056
 31
0.0
  0
LINE
  5
B7D
330
1F
100
AcDbEntity
  8
0
100
AcDbLine
 10
907.8162158618328
 20
-2.387915148900056
 30
0.0
 11
907.8197201277328
 21
-2.761944744900057
 31
0.0
  0
CIRCLE
  5
B7E
330
1F
100
AcDbEntity
  8
0
100
AcDbCircle
 10
907.8130955678328
 20
-2.054868995700057
 30
0.0
 40
4.000000000000034
  0
LINE
  5
B7F
330
1F
100
AcDbEntity
  8
0
100
AcDbLine
 10
907.8162158618328
 20
-2.387915148900056
 30
0.0
 11
908.8867663254327
 21
-3.438591933100057
 31
0.0
  0
LINE
  5
B80
330
1F
100
AcDbEntity
  8
0
100
AcDbLine
 10
679.6956753331328
 20
-2.895043636700057
 30
0.0
 11
679.8695716624328
 21
-1.910279671800057
 31
0.0
  0
LINE
  5
B81
330
1F
100
AcDbEntity
  8
0
100
AcDbLine
 10
679.8695716624328
 20
-1.910279671800057
 30
0.0
 11
678.3924257150328
 21
-1.649435177800058
 31
0.0
  0
LINE
  5
B82
330
1F
100
AcDbEntity
  8
0
100
AcDbLine
 10
678.3924257150328
 20
-1.649435177800058
 30
0.0
 11
678.6532702089328
 21
-0.1722892304000574
 31
0.0
  0
LINE
  5
B83
330
1F
100
AcDbEntity
  8
0
100
AcDbLine
 10
678.6532702089328
 20
-0.1722892304000574
 30
0.0
 11
677.6685062440328
 21
0.0016070988999424
 31
0.0
  0
LINE
  5
B84
330
1F
100
AcDbEntity
  8
0
100
AcDbLine
 10
677.6685062440328
 20
0.0016070988999424
 30
0.0
 11
677.4076617500328
 21
-1.475538848500056
 31
0.0
  0
LINE
  5
B85
330
1F
100
AcDbEntity
  8
0
100
AcDbLine
 10
677.4076617500328
 20
-1.475538848500056
 30
0.0
 11
675.9305158026328
 21
-1.214694354600057
 31
0.0
  0
LINE
  5
B86
330
1F
100
AcDbEntity
  8
0
100
AcDbLine
 10
675.9305158026328
 20
-1.214694354600057
 30
0.0
 11
675.7566194733328
 21
-2.199458319500057
 31
0.0
  0
LINE
  5
B87
330
1F
100
AcDbEntity
  8
0
100
AcDbLine
 10
675.7566194733328
 20
-2.199458319500057
 30
0.0
 11
677.2337654207328
 21
-2.460302813500057
 31
0.0
  0
LINE
  5
B88
330
1F
100
AcDbEntity
  8
0
100
AcDbLine
 10
677.2337654207328
 20
-2.460302813500057
 30
0.0
 11
676.9729209268328
 21
-3.937448760900057
 31
0.0
  0
LINE
  5
B89
330
1F
100
AcDbEntity
  8
0
100
AcDbLine
 10
676.9729209268328
 20
-3.937448760900057
 30
0.0
 11
677.9576848917328
 21
-4.111345090200057
 31
0.0
  0
LINE
  5
B8A
330
1F
100
AcDbEntity
  8
0
100
AcDbLine
 10
677.9576848917328
 20
-4.111345090200057
 30
0.0
 11
678.2185293857328
 21
-2.634199142800057
 31
0.0
  0
LINE
  5
B8B
330
1F
100
AcDbEntity
  8
0
100
AcDbLine
 10
678.2185293857328
 20
-2.634199142800057
 30
0.0
 11
679.6956753331328
 21
-2.895043636700057
 31
0.0
  0
CIRCLE
  5
B8C
330
1F
100
AcDbEntity
  8
0
100
AcDbCircle
 10
677.8130955678328
 20
-2.054868995700057
 30
0.0
 40
2.500000000000091
  0
LINE
  5
B8D
330
1F
100
AcDbEntity
  8
0
100
AcDbLine
 10
678.0859711079328
 20
-1.863901940800057
 30
0.0
 11
678.3924257150328
 21
-1.649435177800058
 31
0.0
  0
LINE
  5
B8E
330
1F
100
AcDbEntity
  8
0
100
AcDbLine
 10
678.0859711079328
 20
-1.863901940800057
 30
0.0
 11
678.3468156019328
 21
-0.3867559933000564
 31
0.0
  0
LINE
  5
B8F
330
1F
100
AcDbEntity
  8
0
100
AcDbLine
 10
678.3468156019328
 20
-0.3867559933000564
 30
0.0
 11
678.6532702089328
 21
-0.1722892304000574
 31
0.0
  0
LINE
  5
B90
330
1F
100
AcDbEntity
  8
0
100
AcDbLine
 10
678.3468156019328
 20
-0.3867559933000564
 30
0.0
 11
677.8829730069328
 21
-0.3048475082000568
 31
0.0
  0
LINE
  5
B91
330
1F
100
AcDbEntity
  8
0
100
AcDbLine
 10
677.8829730069328
 20
-0.3048475082000568
 30
0.0
 11
677.6685062440328
 21
0.0016070988999424
 31
0.0
  0
LINE
  5
B92
330
1F
100
AcDbEntity
  8
0
100
AcDbLine
 10
677.8829730069328
 20
-0.3048475082000568
 30
0.0
 11
677.6221285129328
 21
-1.781993455600057
 31
0.0
  0
LINE
  5
B93
330
1F
100
AcDbEntity
  8
0
100
AcDbLine
 10
677.6221285129328
 20
-1.781993455600057
 30
0.0
 11
677.4076617500328
 21
-1.475538848500056
 31
0.0
  0
LINE
  5
B94
330
1F
100
AcDbEntity
  8
0
100
AcDbLine
 10
676.1449825655328
 20
-1.521148961600057
 30
0.0
 11
675.9305158026328
 21
-1.214694354600057
 31
0.0
  0
LINE
  5
B95
330
1F
100
AcDbEntity
  8
0
100
AcDbLine
 10
676.1449825655328
 20
-1.521148961600057
 30
0.0
 11
676.0630740803329
 21
-1.984991556600058
 31
0.0
  0
LINE
  5
B96
330
1F
100
AcDbEntity
  8
0
100
AcDbLine
 10
676.0630740803329
 20
-1.984991556600058
 30
0.0
 11
675.7566194733328
 21
-2.199458319500057
 31
0.0
  0
LINE
  5
B97
330
1F
100
AcDbEntity
  8
0
100
AcDbLine
 10
679.4812085702328
 20
-2.588589029700056
 30
0.0
 11
679.6956753331328
 21
-2.895043636700057
 31
0.0
  0
LINE
  5
B98
330
1F
100
AcDbEntity
  8
0
100
AcDbLine
 10
679.4812085702328
 20
-2.588589029700056
 30
0.0
 11
679.5631170554328
 21
-2.124746434700057
 31
0.0
  0
LINE
  5
B99
330
1F
100
AcDbEntity
  8
0
100
AcDbLine
 10
679.5631170554328
 20
-2.124746434700057
 30
0.0
 11
679.8695716624328
 21
-1.910279671800057
 31
0.0
  0
LINE
  5
B9A
330
1F
100
AcDbEntity
  8
0
100
AcDbLine
 10
677.6221285129328
 20
-1.781993455600057
 30
0.0
 11
676.1449825655328
 21
-1.521148961600057
 31
0.0
  0
LINE
  5
B9B
330
1F
100
AcDbEntity
  8
0
100
AcDbLine
 10
679.5631170554328
 20
-2.124746434700057
 30
0.0
 11
678.0859711079328
 21
-1.863901940800057
 31
0.0
  0
LINE
  5
B9C
330
1F
100
AcDbEntity
  8
0
100
AcDbLine
 10
677.7432181288328
 20
-3.804890483200056
 30
0.0
 11
677.9576848917328
 21
-4.111345090200057
 31
0.0
  0
LINE
  5
B9D
330
1F
100
AcDbEntity
  8
0
100
AcDbLine
 10
677.7432181288328
 20
-3.804890483200056
 30
0.0
 11
678.0040626227328
 21
-2.327744535800058
 31
0.0
  0
LINE
  5
B9E
330
1F
100
AcDbEntity
  8
0
100
AcDbLine
 10
678.0040626227328
 20
-2.327744535800058
 30
0.0
 11
678.2185293857328
 21
-2.634199142800057
 31
0.0
  0
LINE
  5
B9F
330
1F
100
AcDbEntity
  8
0
100
AcDbLine
 10
677.5402200277327
 20
-2.245836050600056
 30
0.0
 11
677.2337654207328
 21
-2.460302813500057
 31
0.0
  0
LINE
  5
BA0
330
1F
100
AcDbEntity
  8
0
100
AcDbLine
 10
677.5402200277327
 20
-2.245836050600056
 30
0.0
 11
677.2793755338328
 21
-3.722981998000057
 31
0.0
  0
LINE
  5
BA1
330
1F
100
AcDbEntity
  8
0
100
AcDbLine
 10
677.2793755338328
 20
-3.722981998000057
 30
0.0
 11
676.9729209268328
 21
-3.937448760900057
 31
0.0
  0
LINE
  5
BA2
330
1F
100
AcDbEntity
  8
0
100
AcDbLine
 10
677.2793755338328
 20
-3.722981998000057
 30
0.0
 11
677.7432181288328
 21
-3.804890483200056
 31
0.0
  0
LINE
  5
BA3
330
1F
100
AcDbEntity
  8
0
100
AcDbLine
 10
676.0630740803329
 20
-1.984991556600058
 30
0.0
 11
677.5402200277327
 21
-2.245836050600056
 31
0.0
  0
CIRCLE
  5
BA4
330
1F
100
AcDbEntity
  8
0
100
AcDbCircle
 10
677.8130955678328
 20
-2.054868995700057
 30
0.0
 40
4.000000000000122
  0
LINE
  5
BA5
330
1F
100
AcDbEntity
  8
0
100
AcDbLine
 10
678.0040626227328
 20
-2.327744535800058
 30
0.0
 11
679.4812085702328
 21
-2.588589029700056
 31
0.0
  0
LINE
  5
BA6
330
1F
100
AcDbEntity
  8
0
100
AcDbLine
 10
675.8130955679328
 20
313.4451310042999
 30
0.0
 11
675.8130955679328
 21
312.4451310042999
 31
0.0
  0
LINE
  5
BA7
330
1F
100
AcDbEntity
  8
0
100
AcDbLine
 10
675.8130955679328
 20
312.4451310042999
 30
0.0
 11
677.3130955679328
 21
312.4451310042999
 31
0.0
  0
LINE
  5
BA8
330
1F
100
AcDbEntity
  8
0
100
AcDbLine
 10
677.3130955679328
 20
312.4451310042999
 30
0.0
 11
677.3130955679328
 21
310.9451310042999
 31
0.0
  0
LINE
  5
BA9
330
1F
100
AcDbEntity
  8
0
100
AcDbLine
 10
677.3130955679328
 20
310.9451310042999
 30
0.0
 11
678.3130955679328
 21
310.9451310042999
 31
0.0
  0
LINE
  5
BAA
330
1F
100
AcDbEntity
  8
0
100
AcDbLine
 10
678.3130955679328
 20
310.9451310042999
 30
0.0
 11
678.3130955679328
 21
312.4451310042999
 31
0.0
  0
LINE
  5
BAB
330
1F
100
AcDbEntity
  8
0
100
AcDbLine
 10
678.3130955679328
 20
312.4451310042999
 30
0.0
 11
679.8130955679328
 21
312.4451310042999
 31
0.0
  0
LINE
  5
BAC
330
1F
100
AcDbEntity
  8
0
100
AcDbLine
 10
679.8130955679328
 20
312.4451310042999
 30
0.0
 11
679.8130955679328
 21
313.4451310042999
 31
0.0
  0
LINE
  5
BAD
330
1F
100
AcDbEntity
  8
0
100
AcDbLine
 10
679.8130955679328
 20
313.4451310042999
 30
0.0
 11
678.3130955679328
 21
313.4451310042999
 31
0.0
  0
LINE
  5
BAE
330
1F
100
AcDbEntity
  8
0
100
AcDbLine
 10
678.3130955679328
 20
313.4451310042999
 30
0.0
 11
678.3130955679328
 21
314.9451310042999
 31
0.0
  0
LINE
  5
BAF
330
1F
100
AcDbEntity
  8
0
100
AcDbLine
 10
678.3130955679328
 20
314.9451310042999
 30
0.0
 11
677.3130955679328
 21
314.9451310042999
 31
0.0
  0
LINE
  5
BB0
330
1F
100
AcDbEntity
  8
0
100
AcDbLine
 10
677.3130955679328
 20
314.9451310042999
 30
0.0
 11
677.3130955679328
 21
313.4451310042999
 31
0.0
  0
LINE
  5
BB1
330
1F
100
AcDbEntity
  8
0
100
AcDbLine
 10
677.3130955679328
 20
313.4451310042999
 30
0.0
 11
675.8130955679328
 21
313.4451310042999
 31
0.0
  0
CIRCLE
  5
BB2
330
1F
100
AcDbEntity
  8
0
100
AcDbCircle
 10
677.8130955679328
 20
312.9451310042999
 30
0.0
 40
2.500000000000114
  0
LINE
  5
BB3
330
1F
100
AcDbEntity
  8
0
100
AcDbLine
 10
677.5775860389328
 20
312.7096214754
 30
0.0
 11
677.3130955679328
 21
312.4451310042999
 31
0.0
  0
LINE
  5
BB4
330
1F
100
AcDbEntity
  8
0
100
AcDbLine
 10
677.5775860389328
 20
312.7096214754
 30
0.0
 11
677.5775860389328
 21
311.2096214754
 31
0.0
  0
LINE
  5
BB5
330
1F
100
AcDbEntity
  8
0
100
AcDbLine
 10
677.5775860389328
 20
311.2096214754
 30
0.0
 11
677.3130955679328
 21
310.9451310042999
 31
0.0
  0
LINE
  5
BB6
330
1F
100
AcDbEntity
  8
0
100
AcDbLine
 10
677.5775860389328
 20
311.2096214754
 30
0.0
 11
678.0486050968328
 21
311.2096214754
 31
0.0
  0
LINE
  5
BB7
330
1F
100
AcDbEntity
  8
0
100
AcDbLine
 10
678.0486050968328
 20
311.2096214754
 30
0.0
 11
678.3130955679328
 21
310.9451310042999
 31
0.0
  0
LINE
  5
BB8
330
1F
100
AcDbEntity
  8
0
100
AcDbLine
 10
678.0486050968328
 20
311.2096214754
 30
0.0
 11
678.0486050968328
 21
312.7096214754
 31
0.0
  0
LINE
  5
BB9
330
1F
100
AcDbEntity
  8
0
100
AcDbLine
 10
678.0486050968328
 20
312.7096214754
 30
0.0
 11
678.3130955679328
 21
312.4451310042999
 31
0.0
  0
LINE
  5
BBA
330
1F
100
AcDbEntity
  8
0
100
AcDbLine
 10
676.0775860389328
 20
312.7096214754
 30
0.0
 11
675.8130955679328
 21
312.4451310042999
 31
0.0
  0
LINE
  5
BBB
330
1F
100
AcDbEntity
  8
0
100
AcDbLine
 10
676.0775860389328
 20
312.7096214754
 30
0.0
 11
677.5775860389328
 21
312.7096214754
 31
0.0
  0
LINE
  5
BBC
330
1F
100
AcDbEntity
  8
0
100
AcDbLine
 10
679.5486050968328
 20
312.7096214754
 30
0.0
 11
679.8130955679328
 21
312.4451310042999
 31
0.0
  0
LINE
  5
BBD
330
1F
100
AcDbEntity
  8
0
100
AcDbLine
 10
679.5486050968328
 20
312.7096214754
 30
0.0
 11
679.5486050968328
 21
313.1806405332999
 31
0.0
  0
LINE
  5
BBE
330
1F
100
AcDbEntity
  8
0
100
AcDbLine
 10
679.5486050968328
 20
313.1806405332999
 30
0.0
 11
679.8130955679328
 21
313.4451310042999
 31
0.0
  0
LINE
  5
BBF
330
1F
100
AcDbEntity
  8
0
100
AcDbLine
 10
678.0486050968328
 20
312.7096214754
 30
0.0
 11
679.5486050968328
 21
312.7096214754
 31
0.0
  0
LINE
  5
BC0
330
1F
100
AcDbEntity
  8
0
100
AcDbLine
 10
676.0775860389328
 20
313.1806405332999
 30
0.0
 11
675.8130955679328
 21
313.4451310042999
 31
0.0
  0
LINE
  5
BC1
330
1F
100
AcDbEntity
  8
0
100
AcDbLine
 10
676.0775860389328
 20
313.1806405332999
 30
0.0
 11
676.0775860389328
 21
312.7096214754
 31
0.0
  0
LINE
  5
BC2
330
1F
100
AcDbEntity
  8
0
100
AcDbLine
 10
678.0486050968328
 20
314.6806405332999
 30
0.0
 11
678.3130955679328
 21
314.9451310042999
 31
0.0
  0
LINE
  5
BC3
330
1F
100
AcDbEntity
  8
0
100
AcDbLine
 10
678.0486050968328
 20
314.6806405332999
 30
0.0
 11
677.5775860389328
 21
314.6806405332999
 31
0.0
  0
LINE
  5
BC4
330
1F
100
AcDbEntity
  8
0
100
AcDbLine
 10
677.5775860389328
 20
314.6806405332999
 30
0.0
 11
677.3130955679328
 21
314.9451310042999
 31
0.0
  0
LINE
  5
BC5
330
1F
100
AcDbEntity
  8
0
100
AcDbLine
 10
678.0486050968328
 20
313.1806405332999
 30
0.0
 11
678.3130955679328
 21
313.4451310042999
 31
0.0
  0
LINE
  5
BC6
330
1F
100
AcDbEntity
  8
0
100
AcDbLine
 10
678.0486050968328
 20
313.1806405332999
 30
0.0
 11
678.0486050968328
 21
314.6806405332999
 31
0.0
  0
LINE
  5
BC7
330
1F
100
AcDbEntity
  8
0
100
AcDbLine
 10
679.5486050968328
 20
313.1806405332999
 30
0.0
 11
678.0486050968328
 21
313.1806405332999
 31
0.0
  0
LINE
  5
BC8
330
1F
100
AcDbEntity
  8
0
100
AcDbLine
 10
677.5775860389328
 20
314.6806405332999
 30
0.0
 11
677.5775860389328
 21
313.1806405332999
 31
0.0
  0
LINE
  5
BC9
330
1F
100
AcDbEntity
  8
0
100
AcDbLine
 10
677.5775860389328
 20
313.1806405332999
 30
0.0
 11
677.3130955679328
 21
313.4451310042999
 31
0.0
  0
CIRCLE
  5
BCA
330
1F
100
AcDbEntity
  8
0
100
AcDbCircle
 10
677.8130955679328
 20
312.9451310042999
 30
0.0
 40
4.000000000000114
  0
LINE
  5
BCB
330
1F
100
AcDbEntity
  8
0
100
AcDbLine
 10
677.5775860389328
 20
313.1806405332999
 30
0.0
 11
676.0775860389328
 21
313.1806405332999
 31
0.0
  0
LINE
  5
BCC
330
1F
100
AcDbEntity
  8
0
100
AcDbLine
 10
664.5296151502328
 20
155.2702929956999
 30
0.0
 11
664.2112506681328
 21
155.0739400605999
 31
0.0
  0
LINE
  5
BCD
330
1F
100
AcDbEntity
  8
0
100
AcDbLine
 10
664.5296151502328
 20
155.2702929956999
 30
0.0
 11
664.1836342162328
 21
153.8107392305999
 31
0.0
  0
LINE
  5
BCE
330
1F
100
AcDbEntity
  8
0
100
AcDbLine
 10
664.1836342162328
 20
153.8107392305999
 30
0.0
 11
663.8652697341328
 21
153.6143862954999
 31
0.0
  0
LINE
  5
BCF
330
1F
100
AcDbEntity
  8
0
100
AcDbLine
 10
664.2112506681328
 20
155.0739400605999
 30
0.0
 11
663.8652697341328
 21
153.6143862954999
 31
0.0
  0
LINE
  5
BD0
330
1F
100
AcDbEntity
  8
0
100
AcDbLine
 10
664.1836342162328
 20
153.8107392305999
 30
0.0
 11
664.6419526424328
 21
153.7020968216
 31
0.0
  0
LINE
  5
BD1
330
1F
100
AcDbEntity
  8
0
100
AcDbLine
 10
664.6419526424328
 20
153.7020968216
 30
0.0
 11
664.8383055775328
 21
153.3837323394999
 31
0.0
  0
LINE
  5
BD2
330
1F
100
AcDbEntity
  8
0
100
AcDbLine
 10
663.8652697341328
 20
153.6143862954999
 30
0.0
 11
664.8383055775328
 21
153.3837323394999
 31
0.0
  0
LINE
  5
BD3
330
1F
100
AcDbEntity
  8
0
100
AcDbLine
 10
662.9823508590327
 20
156.3929568379999
 30
0.0
 11
662.7516969030328
 21
155.4199209945999
 31
0.0
  0
LINE
  5
BD4
330
1F
100
AcDbEntity
  8
0
100
AcDbLine
 10
662.7516969030328
 20
155.4199209945999
 30
0.0
 11
664.2112506681328
 21
155.0739400605999
 31
0.0
  0
LINE
  5
BD5
330
1F
100
AcDbEntity
  8
0
100
AcDbLine
 10
664.8383055775328
 20
153.3837323394999
 30
0.0
 11
665.1842865115328
 21
154.8432861045999
 31
0.0
  0
LINE
  5
BD6
330
1F
100
AcDbEntity
  8
0
100
AcDbLine
 10
665.1842865115328
 20
154.8432861045999
 30
0.0
 11
666.6438402767328
 21
154.4973051705999
 31
0.0
  0
LINE
  5
BD7
330
1F
100
AcDbEntity
  8
0
100
AcDbLine
 10
666.6438402767328
 20
154.4973051705999
 30
0.0
 11
666.8744942327328
 21
155.470341014
 31
0.0
  0
LINE
  5
BD8
330
1F
100
AcDbEntity
  8
0
100
AcDbLine
 10
666.8744942327328
 20
155.470341014
 30
0.0
 11
665.4149404675328
 21
155.8163219479999
 31
0.0
  0
LINE
  5
BD9
330
1F
100
AcDbEntity
  8
0
100
AcDbLine
 10
665.4149404675328
 20
155.8163219479999
 30
0.0
 11
665.7609214015328
 21
157.2758757132
 31
0.0
  0
LINE
  5
BDA
330
1F
100
AcDbEntity
  8
0
100
AcDbLine
 10
665.7609214015328
 20
157.2758757132
 30
0.0
 11
664.7878855581328
 21
157.5065296691999
 31
0.0
  0
LINE
  5
BDB
330
1F
100
AcDbEntity
  8
0
100
AcDbLine
 10
664.7878855581328
 20
157.5065296691999
 30
0.0
 11
664.4419046241328
 21
156.0469759039999
 31
0.0
  0
LINE
  5
BDC
330
1F
100
AcDbEntity
  8
0
100
AcDbLine
 10
664.4419046241328
 20
156.0469759039999
 30
0.0
 11
662.9823508590327
 21
156.3929568379999
 31
0.0
  0
CIRCLE
  5
BDD
330
1F
100
AcDbEntity
  8
0
100
AcDbCircle
 10
664.8130955678328
 20
155.4451310043
 30
0.0
 40
2.500000000000127
  0
LINE
  5
BDE
330
1F
100
AcDbEntity
  8
0
100
AcDbLine
 10
664.6419526424328
 20
153.7020968216
 30
0.0
 11
664.9879335764329
 21
155.1616505866999
 31
0.0
  0
LINE
  5
BDF
330
1F
100
AcDbEntity
  8
0
100
AcDbLine
 10
664.9879335764329
 20
155.1616505866999
 30
0.0
 11
665.1842865115328
 21
154.8432861045999
 31
0.0
  0
LINE
  5
BE0
330
1F
100
AcDbEntity
  8
0
100
AcDbLine
 10
663.0700613850328
 20
155.6162739296999
 30
0.0
 11
662.7516969030328
 21
155.4199209945999
 31
0.0
  0
LINE
  5
BE1
330
1F
100
AcDbEntity
  8
0
100
AcDbLine
 10
663.0700613850328
 20
155.6162739296999
 30
0.0
 11
664.5296151502328
 21
155.2702929956999
 31
0.0
  0
LINE
  5
BE2
330
1F
100
AcDbEntity
  8
0
100
AcDbLine
 10
663.1787037941328
 20
156.074592356
 30
0.0
 11
662.9823508590327
 21
156.3929568379999
 31
0.0
  0
LINE
  5
BE3
330
1F
100
AcDbEntity
  8
0
100
AcDbLine
 10
663.1787037941328
 20
156.074592356
 30
0.0
 11
663.0700613850328
 21
155.6162739296999
 31
0.0
  0
LINE
  5
BE4
330
1F
100
AcDbEntity
  8
0
100
AcDbLine
 10
664.9879335764329
 20
155.1616505866999
 30
0.0
 11
666.4474873416328
 21
154.8156696526999
 31
0.0
  0
LINE
  5
BE5
330
1F
100
AcDbEntity
  8
0
100
AcDbLine
 10
666.4474873416328
 20
154.8156696526999
 30
0.0
 11
666.6438402767328
 21
154.4973051705999
 31
0.0
  0
LINE
  5
BE6
330
1F
100
AcDbEntity
  8
0
100
AcDbLine
 10
666.4474873416328
 20
154.8156696526999
 30
0.0
 11
666.5561297506327
 21
155.2739880788999
 31
0.0
  0
LINE
  5
BE7
330
1F
100
AcDbEntity
  8
0
100
AcDbLine
 10
666.5561297506327
 20
155.2739880788999
 30
0.0
 11
666.8744942327328
 21
155.470341014
 31
0.0
  0
LINE
  5
BE8
330
1F
100
AcDbEntity
  8
0
100
AcDbLine
 10
664.9842384932329
 20
157.1881651870999
 30
0.0
 11
664.7878855581328
 21
157.5065296691999
 31
0.0
  0
LINE
  5
BE9
330
1F
100
AcDbEntity
  8
0
100
AcDbLine
 10
664.9842384932329
 20
157.1881651870999
 30
0.0
 11
664.6382575592328
 21
155.7286114219999
 31
0.0
  0
LINE
  5
BEA
330
1F
100
AcDbEntity
  8
0
100
AcDbLine
 10
664.6382575592328
 20
155.7286114219999
 30
0.0
 11
664.4419046241328
 21
156.0469759039999
 31
0.0
  0
LINE
  5
BEB
330
1F
100
AcDbEntity
  8
0
100
AcDbLine
 10
665.4425569195328
 20
157.0795227780999
 30
0.0
 11
665.7609214015328
 21
157.2758757132
 31
0.0
  0
LINE
  5
BEC
330
1F
100
AcDbEntity
  8
0
100
AcDbLine
 10
665.4425569195328
 20
157.0795227780999
 30
0.0
 11
664.9842384932329
 21
157.1881651870999
 31
0.0
  0
LINE
  5
BED
330
1F
100
AcDbEntity
  8
0
100
AcDbLine
 10
666.5561297506327
 20
155.2739880788999
 30
0.0
 11
665.0965759855328
 21
155.6199690128999
 31
0.0
  0
LINE
  5
BEE
330
1F
100
AcDbEntity
  8
0
100
AcDbLine
 10
665.0965759855328
 20
155.6199690128999
 30
0.0
 11
665.4149404675328
 21
155.8163219479999
 31
0.0
  0
LINE
  5
BEF
330
1F
100
AcDbEntity
  8
0
100
AcDbLine
 10
665.0965759855328
 20
155.6199690128999
 30
0.0
 11
665.4425569195328
 21
157.0795227780999
 31
0.0
  0
LINE
  5
BF0
330
1F
100
AcDbEntity
  8
0
100
AcDbLine
 10
664.6382575592328
 20
155.7286114219999
 30
0.0
 11
663.1787037941328
 21
156.074592356
 31
0.0
  0
CIRCLE
  5
BF1
330
1F
100
AcDbEntity
  8
0
100
AcDbCircle
 10
664.8130955678328
 20
155.4451310043
 30
0.0
 40
4.000000000000013
  0
LINE
  5
BF2
330
1F
100
AcDbEntity
  8
0
100
AcDbLine
 10
905.8130955679328
 20
313.4451310042999
 30
0.0
 11
905.8130955679328
 21
312.4451310042999
 31
0.0
  0
LINE
  5
BF3
330
1F
100
AcDbEntity
  8
0
100
AcDbLine
 10
905.8130955679328
 20
312.4451310042999
 30
0.0
 11
907.3130955679328
 21
312.4451310042999
 31
0.0
  0
LINE
  5
BF4
330
1F
100
AcDbEntity
  8
0
100
AcDbLine
 10
907.3130955679328
 20
312.4451310042999
 30
0.0
 11
907.3130955679328
 21
310.9451310042999
 31
0.0
  0
LINE
  5
BF5
330
1F
100
AcDbEntity
  8
0
100
AcDbLine
 10
907.3130955679328
 20
310.9451310042999
 30
0.0
 11
908.3130955679328
 21
310.9451310042999
 31
0.0
  0
LINE
  5
BF6
330
1F
100
AcDbEntity
  8
0
100
AcDbLine
 10
908.3130955679328
 20
310.9451310042999
 30
0.0
 11
908.3130955679328
 21
312.4451310042999
 31
0.0
  0
LINE
  5
BF7
330
1F
100
AcDbEntity
  8
0
100
AcDbLine
 10
908.3130955679328
 20
312.4451310042999
 30
0.0
 11
909.8130955679328
 21
312.4451310042999
 31
0.0
  0
LINE
  5
BF8
330
1F
100
AcDbEntity
  8
0
100
AcDbLine
 10
909.8130955679328
 20
312.4451310042999
 30
0.0
 11
909.8130955679328
 21
313.4451310042999
 31
0.0
  0
LINE
  5
BF9
330
1F
100
AcDbEntity
  8
0
100
AcDbLine
 10
909.8130955679328
 20
313.4451310042999
 30
0.0
 11
908.3130955679328
 21
313.4451310042999
 31
0.0
  0
LINE
  5
BFA
330
1F
100
AcDbEntity
  8
0
100
AcDbLine
 10
908.3130955679328
 20
313.4451310042999
 30
0.0
 11
908.3130955679328
 21
314.9451310042999
 31
0.0
  0
LINE
  5
BFB
330
1F
100
AcDbEntity
  8
0
100
AcDbLine
 10
908.3130955679328
 20
314.9451310042999
 30
0.0
 11
907.3130955679328
 21
314.9451310042999
 31
0.0
  0
LINE
  5
BFC
330
1F
100
AcDbEntity
  8
0
100
AcDbLine
 10
907.3130955679328
 20
314.9451310042999
 30
0.0
 11
907.3130955679328
 21
313.4451310042999
 31
0.0
  0
LINE
  5
BFD
330
1F
100
AcDbEntity
  8
0
100
AcDbLine
 10
907.3130955679328
 20
313.4451310042999
 30
0.0
 11
905.8130955679328
 21
313.4451310042999
 31
0.0
  0
CIRCLE
  5
BFE
330
1F
100
AcDbEntity
  8
0
100
AcDbCircle
 10
907.8130955679328
 20
312.9451310042999
 30
0.0
 40
2.5
  0
LINE
  5
BFF
330
1F
100
AcDbEntity
  8
0
100
AcDbLine
 10
907.5775860389328
 20
312.7096214754
 30
0.0
 11
907.3130955679328
 21
312.4451310042999
 31
0.0
  0
LINE
  5
C00
330
1F
100
AcDbEntity
  8
0
100
AcDbLine
 10
907.5775860389328
 20
312.7096214754
 30
0.0
 11
907.5775860389328
 21
311.2096214754
 31
0.0
  0
LINE
  5
C01
330
1F
100
AcDbEntity
  8
0
100
AcDbLine
 10
907.5775860389328
 20
311.2096214754
 30
0.0
 11
907.3130955679328
 21
310.9451310042999
 31
0.0
  0
LINE
  5
C02
330
1F
100
AcDbEntity
  8
0
100
AcDbLine
 10
907.5775860389328
 20
311.2096214754
 30
0.0
 11
908.0486050968328
 21
311.2096214754
 31
0.0
  0
LINE
  5
C03
330
1F
100
AcDbEntity
  8
0
100
AcDbLine
 10
908.0486050968328
 20
311.2096214754
 30
0.0
 11
908.3130955679328
 21
310.9451310042999
 31
0.0
  0
LINE
  5
C04
330
1F
100
AcDbEntity
  8
0
100
AcDbLine
 10
908.0486050968328
 20
311.2096214754
 30
0.0
 11
908.0486050968328
 21
312.7096214754
 31
0.0
  0
LINE
  5
C05
330
1F
100
AcDbEntity
  8
0
100
AcDbLine
 10
908.0486050968328
 20
312.7096214754
 30
0.0
 11
908.3130955679328
 21
312.4451310042999
 31
0.0
  0
LINE
  5
C06
330
1F
100
AcDbEntity
  8
0
100
AcDbLine
 10
908.0486050968328
 20
312.7096214754
 30
0.0
 11
909.5486050968328
 21
312.7096214754
 31
0.0
  0
LINE
  5
C07
330
1F
100
AcDbEntity
  8
0
100
AcDbLine
 10
909.5486050968328
 20
312.7096214754
 30
0.0
 11
909.8130955679328
 21
312.4451310042999
 31
0.0
  0
LINE
  5
C08
330
1F
100
AcDbEntity
  8
0
100
AcDbLine
 10
906.0775860389328
 20
313.1806405332999
 30
0.0
 11
905.8130955679328
 21
313.4451310042999
 31
0.0
  0
LINE
  5
C09
330
1F
100
AcDbEntity
  8
0
100
AcDbLine
 10
906.0775860389328
 20
313.1806405332999
 30
0.0
 11
906.0775860389328
 21
312.7096214754
 31
0.0
  0
LINE
  5
C0A
330
1F
100
AcDbEntity
  8
0
100
AcDbLine
 10
906.0775860389328
 20
312.7096214754
 30
0.0
 11
905.8130955679328
 21
312.4451310042999
 31
0.0
  0
LINE
  5
C0B
330
1F
100
AcDbEntity
  8
0
100
AcDbLine
 10
906.0775860389328
 20
312.7096214754
 30
0.0
 11
907.5775860389328
 21
312.7096214754
 31
0.0
  0
LINE
  5
C0C
330
1F
100
AcDbEntity
  8
0
100
AcDbLine
 10
909.5486050968328
 20
312.7096214754
 30
0.0
 11
909.5486050968328
 21
313.1806405332999
 31
0.0
  0
LINE
  5
C0D
330
1F
100
AcDbEntity
  8
0
100
AcDbLine
 10
909.5486050968328
 20
313.1806405332999
 30
0.0
 11
909.8130955679328
 21
313.4451310042999
 31
0.0
  0
LINE
  5
C0E
330
1F
100
AcDbEntity
  8
0
100
AcDbLine
 10
908.0486050968328
 20
314.6806405332999
 30
0.0
 11
908.3130955679328
 21
314.9451310042999
 31
0.0
  0
LINE
  5
C0F
330
1F
100
AcDbEntity
  8
0
100
AcDbLine
 10
908.0486050968328
 20
314.6806405332999
 30
0.0
 11
907.5775860389328
 21
314.6806405332999
 31
0.0
  0
LINE
  5
C10
330
1F
100
AcDbEntity
  8
0
100
AcDbLine
 10
907.5775860389328
 20
314.6806405332999
 30
0.0
 11
907.3130955679328
 21
314.9451310042999
 31
0.0
  0
LINE
  5
C11
330
1F
100
AcDbEntity
  8
0
100
AcDbLine
 10
908.0486050968328
 20
313.1806405332999
 30
0.0
 11
908.3130955679328
 21
313.4451310042999
 31
0.0
  0
LINE
  5
C12
330
1F
100
AcDbEntity
  8
0
100
AcDbLine
 10
908.0486050968328
 20
313.1806405332999
 30
0.0
 11
908.0486050968328
 21
314.6806405332999
 31
0.0
  0
LINE
  5
C13
330
1F
100
AcDbEntity
  8
0
100
AcDbLine
 10
907.5775860389328
 20
314.6806405332999
 30
0.0
 11
907.5775860389328
 21
313.1806405332999
 31
0.0
  0
LINE
  5
C14
330
1F
100
AcDbEntity
  8
0
100
AcDbLine
 10
907.5775860389328
 20
313.1806405332999
 30
0.0
 11
907.3130955679328
 21
313.4451310042999
 31
0.0
  0
LINE
  5
C15
330
1F
100
AcDbEntity
  8
0
100
AcDbLine
 10
909.5486050968328
 20
313.1806405332999
 30
0.0
 11
908.0486050968328
 21
313.1806405332999
 31
0.0
  0
CIRCLE
  5
C16
330
1F
100
AcDbEntity
  8
0
100
AcDbCircle
 10
907.8130955679328
 20
312.9451310042999
 30
0.0
 40
4.0
  0
LINE
  5
C17
330
1F
100
AcDbEntity
  8
0
100
AcDbLine
 10
907.5775860389328
 20
313.1806405332999
 30
0.0
 11
906.0775860389328
 21
313.1806405332999
 31
0.0
  0
LINE
  5
C18
330
1F
100
AcDbEntity
  8
0
100
AcDbLine
 10
922.6305546125328
 20
156.4181893893999
 30
0.0
 11
921.9588260731329
 21
157.1589867769
 31
0.0
  0
LINE
  5
C19
330
1F
100
AcDbEntity
  8
0
100
AcDbLine
 10
921.9588260731329
 20
157.1589867769
 30
0.0
 11
920.8476299919328
 21
156.1513939677999
 31
0.0
  0
LINE
  5
C1A
330
1F
100
AcDbEntity
  8
0
100
AcDbLine
 10
920.8476299919328
 20
156.1513939677999
 30
0.0
 11
919.8400371827328
 21
157.262590049
 31
0.0
  0
LINE
  5
C1B
330
1F
100
AcDbEntity
  8
0
100
AcDbLine
 10
919.8400371827328
 20
157.262590049
 30
0.0
 11
919.0992397952328
 21
156.5908615095999
 31
0.0
  0
LINE
  5
C1C
330
1F
100
AcDbEntity
  8
0
100
AcDbLine
 10
919.0992397952328
 20
156.5908615095999
 30
0.0
 11
920.1068326044328
 21
155.4796654284
 31
0.0
  0
LINE
  5
C1D
330
1F
100
AcDbEntity
  8
0
100
AcDbLine
 10
920.1068326044328
 20
155.4796654284
 30
0.0
 11
918.9956365231328
 21
154.4720726191999
 31
0.0
  0
LINE
  5
C1E
330
1F
100
AcDbEntity
  8
0
100
AcDbLine
 10
918.9956365231328
 20
154.4720726191999
 30
0.0
 11
919.6673650625328
 21
153.7312752317
 31
0.0
  0
LINE
  5
C1F
330
1F
100
AcDbEntity
  8
0
100
AcDbLine
 10
919.6673650625328
 20
153.7312752317
 30
0.0
 11
920.7785611438328
 21
154.7388680408999
 31
0.0
  0
LINE
  5
C20
330
1F
100
AcDbEntity
  8
0
100
AcDbLine
 10
920.7785611438328
 20
154.7388680408999
 30
0.0
 11
921.7861539529328
 21
153.6276719596
 31
0.0
  0
LINE
  5
C21
330
1F
100
AcDbEntity
  8
0
100
AcDbLine
 10
921.7861539529328
 20
153.6276719596
 30
0.0
 11
922.5269513404328
 21
154.2994004990999
 31
0.0
  0
LINE
  5
C22
330
1F
100
AcDbEntity
  8
0
100
AcDbLine
 10
922.5269513404328
 20
154.2994004990999
 30
0.0
 11
921.5193585313328
 21
155.4105965802999
 31
0.0
  0
LINE
  5
C23
330
1F
100
AcDbEntity
  8
0
100
AcDbLine
 10
921.5193585313328
 20
155.4105965802999
 30
0.0
 11
922.6305546125328
 21
156.4181893893999
 31
0.0
  0
CIRCLE
  5
C24
330
1F
100
AcDbEntity
  8
0
100
AcDbCircle
 10
920.8130955678328
 20
155.4451310043
 30
0.0
 40
2.50000000000004
  0
LINE
  5
C25
330
1F
100
AcDbEntity
  8
0
100
AcDbLine
 10
919.8217691306328
 20
156.8889904011999
 30
0.0
 11
919.8400371827328
 21
157.262590049
 31
0.0
  0
LINE
  5
C26
330
1F
100
AcDbEntity
  8
0
100
AcDbLine
 10
919.8217691306328
 20
156.8889904011999
 30
0.0
 11
919.4728394430329
 21
156.5725934574999
 31
0.0
  0
LINE
  5
C27
330
1F
100
AcDbEntity
  8
0
100
AcDbLine
 10
919.4728394430329
 20
156.5725934574999
 30
0.0
 11
919.0992397952328
 21
156.5908615095999
 31
0.0
  0
LINE
  5
C28
330
1F
100
AcDbEntity
  8
0
100
AcDbLine
 10
920.8293619397328
 20
155.7777943199999
 30
0.0
 11
920.8476299919328
 21
156.1513939677999
 31
0.0
  0
LINE
  5
C29
330
1F
100
AcDbEntity
  8
0
100
AcDbLine
 10
920.8293619397328
 20
155.7777943199999
 30
0.0
 11
919.8217691306328
 21
156.8889904011999
 31
0.0
  0
LINE
  5
C2A
330
1F
100
AcDbEntity
  8
0
100
AcDbLine
 10
919.4728394430329
 20
156.5725934574999
 30
0.0
 11
920.4804322522328
 21
155.4613973762
 31
0.0
  0
LINE
  5
C2B
330
1F
100
AcDbEntity
  8
0
100
AcDbLine
 10
920.4804322522328
 20
155.4613973762
 30
0.0
 11
920.1068326044328
 21
155.4796654284
 31
0.0
  0
LINE
  5
C2C
330
1F
100
AcDbEntity
  8
0
100
AcDbLine
 10
920.4804322522328
 20
155.4613973762
 30
0.0
 11
919.3692361709328
 21
154.4538045671
 31
0.0
  0
LINE
  5
C2D
330
1F
100
AcDbEntity
  8
0
100
AcDbLine
 10
919.3692361709328
 20
154.4538045671
 30
0.0
 11
918.9956365231328
 21
154.4720726191999
 31
0.0
  0
LINE
  5
C2E
330
1F
100
AcDbEntity
  8
0
100
AcDbLine
 10
919.3692361709328
 20
154.4538045671
 30
0.0
 11
919.6856331147328
 21
154.1048748794999
 31
0.0
  0
LINE
  5
C2F
330
1F
100
AcDbEntity
  8
0
100
AcDbLine
 10
919.6856331147328
 20
154.1048748794999
 30
0.0
 11
919.6673650625328
 21
153.7312752317
 31
0.0
  0
LINE
  5
C30
330
1F
100
AcDbEntity
  8
0
100
AcDbLine
 10
922.2569549647328
 20
156.4364574415999
 30
0.0
 11
922.6305546125328
 21
156.4181893893999
 31
0.0
  0
LINE
  5
C31
330
1F
100
AcDbEntity
  8
0
100
AcDbLine
 10
922.2569549647328
 20
156.4364574415999
 30
0.0
 11
921.9405580209328
 21
156.7853871290999
 31
0.0
  0
LINE
  5
C32
330
1F
100
AcDbEntity
  8
0
100
AcDbLine
 10
921.9405580209328
 20
156.7853871290999
 30
0.0
 11
921.9588260731329
 21
157.1589867769
 31
0.0
  0
LINE
  5
C33
330
1F
100
AcDbEntity
  8
0
100
AcDbLine
 10
921.9405580209328
 20
156.7853871290999
 30
0.0
 11
920.8293619397328
 21
155.7777943199999
 31
0.0
  0
LINE
  5
C34
330
1F
100
AcDbEntity
  8
0
100
AcDbLine
 10
921.8044220051328
 20
154.0012716074
 30
0.0
 11
921.7861539529328
 21
153.6276719596
 31
0.0
  0
LINE
  5
C35
330
1F
100
AcDbEntity
  8
0
100
AcDbLine
 10
921.8044220051328
 20
154.0012716074
 30
0.0
 11
922.1533516926328
 21
154.3176685511999
 31
0.0
  0
LINE
  5
C36
330
1F
100
AcDbEntity
  8
0
100
AcDbLine
 10
922.1533516926328
 20
154.3176685511999
 30
0.0
 11
922.5269513404328
 21
154.2994004990999
 31
0.0
  0
LINE
  5
C37
330
1F
100
AcDbEntity
  8
0
100
AcDbLine
 10
922.1533516926328
 20
154.3176685511999
 30
0.0
 11
921.1457588835328
 21
155.4288646324999
 31
0.0
  0
LINE
  5
C38
330
1F
100
AcDbEntity
  8
0
100
AcDbLine
 10
921.1457588835328
 20
155.4288646324999
 30
0.0
 11
921.5193585313328
 21
155.4105965802999
 31
0.0
  0
LINE
  5
C39
330
1F
100
AcDbEntity
  8
0
100
AcDbLine
 10
919.6856331147328
 20
154.1048748794999
 30
0.0
 11
920.7968291960328
 21
155.1124676887
 31
0.0
  0
LINE
  5
C3A
330
1F
100
AcDbEntity
  8
0
100
AcDbLine
 10
920.7968291960328
 20
155.1124676887
 30
0.0
 11
920.7785611438328
 21
154.7388680408999
 31
0.0
  0
LINE
  5
C3B
330
1F
100
AcDbEntity
  8
0
100
AcDbLine
 10
920.7968291960328
 20
155.1124676887
 30
0.0
 11
921.8044220051328
 21
154.0012716074
 31
0.0
  0
CIRCLE
  5
C3C
330
1F
100
AcDbEntity
  8
0
100
AcDbCircle
 10
920.8130955678328
 20
155.4451310043
 30
0.0
 40
4.00000000000012
  0
LINE
  5
C3D
330
1F
100
AcDbEntity
  8
0
100
AcDbLine
 10
921.1457588835328
 20
155.4288646324999
 30
0.0
 11
922.2569549647328
 21
156.4364574415999
 31
0.0
  0
LINE
  5
C3E
330
1F
100
AcDbEntity
  8
0
100
AcDbLine
 10
905.1986596193328
 20
0.9724606313999438
 30
0.0
 11
904.9582943315328
 21
0.7469357621999428
 31
0.0
  0
ARC
  5
C3F
330
1F
100
AcDbEntity
  8
0
100
AcDbCircle
 10
907.8130955678328
 20
-2.054868995700057
 30
0.0
 40
4.000000000000083
100
AcDbArc
 50
45.53678578869931
 51
130.8142599590992
  0
ARC
  5
C40
330
1F
100
AcDbEntity
  8
0
100
AcDbCircle
 10
803.8130955678328
 20
47.94513100429995
 30
0.0
 40
12.00000000000013
100
AcDbArc
 50
156.9483121777
 51
197.4456618853
  0
ARC
  5
C41
330
1F
100
AcDbEntity
  8
0
100
AcDbCircle
 10
803.8130955678328
 20
47.94513100429995
 30
0.0
 40
12.00000000000004
100
AcDbArc
 50
96.9483121776
 51
143.0516878223999
  0
ARC
  5
C42
330
1F
100
AcDbEntity
  8
0
100
AcDbCircle
 10
803.8130955678328
 20
47.94513100429995
 30
0.0
 40
11.99999999999999
100
AcDbArc
 50
36.94831217750032
 51
83.05168782250004
  0
ARC
  5
C43
330
1F
100
AcDbEntity
  8
0
100
AcDbCircle
 10
803.8130955678328
 20
47.94513100429995
 30
0.0
 40
11.99999999999992
100
AcDbArc
 50
336.9483121774999
 51
23.05168782250002
  0
ARC
  5
C44
330
1F
100
AcDbEntity
  8
0
100
AcDbCircle
 10
803.8130955678328
 20
47.94513100429995
 30
0.0
 40
12.0
100
AcDbArc
 50
276.9483121776
 51
323.0516878224
  0
ARC
  5
C45
330
1F
100
AcDbEntity
  8
0
100
AcDbCircle
 10
803.8130955678328
 20
47.94513100429995
 30
0.0
 40
12.0
100
AcDbArc
 50
216.9483121777
 51
263.0516878222999
  0
LINE
  5
C46
330
1F
100
AcDbEntity
  8
0
100
AcDbLine
 10
792.7712716696328
 20
43.24639447209994
 30
0.0
 11
792.3650751093328
 21
44.34751685309994
 31
0.0
  0
CIRCLE
  5
C47
330
1F
100
AcDbEntity
  8
0
100
AcDbCircle
 10
803.8130955678328
 20
47.94513100429995
 30
0.0
 40
20.0
  0
CIRCLE
  5
C48
330
1F
100
AcDbEntity
  8
0
100
AcDbCircle
 10
803.8130955678328
 20
47.94513100429995
 30
0.0
 40
34.00000000000009
  0
ARC
  5
C49
330
1F
100
AcDbEntity
  8
0
100
AcDbCircle
 10
781.8130955679328
 20
260.9451310042999
 30
0.0
 40
12.00000000000011
100
AcDbArc
 50
156.948312178
 51
180.0
  0
ARC
  5
C4A
330
1F
100
AcDbEntity
  8
0
100
AcDbCircle
 10
781.8130955679328
 20
260.9451310042999
 30
0.0
 40
12.0
100
AcDbArc
 50
96.94831217780016
 51
143.0516878221999
  0
ARC
  5
C4B
330
1F
100
AcDbEntity
  8
0
100
AcDbCircle
 10
781.8130955679328
 20
260.9451310042999
 30
0.0
 40
11.99999999999999
100
AcDbArc
 50
36.94831217740008
 51
83.05168782260013
  0
ARC
  5
C4C
330
1F
100
AcDbEntity
  8
0
100
AcDbCircle
 10
781.8130955679328
 20
260.9451310042999
 30
0.0
 40
11.99999999999995
100
AcDbArc
 50
336.9483121773001
 51
23.05168782269991
  0
ARC
  5
C4D
330
1F
100
AcDbEntity
  8
0
100
AcDbCircle
 10
781.8130955679328
 20
260.9451310042999
 30
0.0
 40
11.99999999999999
100
AcDbArc
 50
276.9483121775
 51
323.0516878224998
  0
ARC
  5
C4E
330
1F
100
AcDbEntity
  8
0
100
AcDbCircle
 10
781.8130955679328
 20
260.9451310042999
 30
0.0
 40
12.00000000000004
100
AcDbArc
 50
216.9483121777998
 51
263.0516878221998
  0
ARC
  5
C4F
330
1F
100
AcDbEntity
  8
0
100
AcDbCircle
 10
781.8130955679328
 20
260.9451310042999
 30
0.0
 40
12.00000000000011
100
AcDbArc
 50
180.0
 51
203.051687822
  0
CIRCLE
  5
C50
330
1F
100
AcDbEntity
  8
0
100
AcDbCircle
 10
781.8130955679328
 20
260.9451310042999
 30
0.0
 40
20.00000000000011
  0
CIRCLE
  5
C51
330
1F
100
AcDbEntity
  8
0
100
AcDbCircle
 10
781.8130955679328
 20
260.9451310042999
 30
0.0
 40
34.00000000000011
  0
LINE
  5
C52
330
1F
100
AcDbEntity
  8
0
100
AcDbLine
 10
657.8130955678328
 20
-9.054868995600057
 30
0.0
 11
656.1130955678328
 21
-9.878092300400057
 31
0.0
  0
LINE
  5
C53
330
1F
100
AcDbEntity
  8
0
100
AcDbLine
 10
656.1130955678328
 20
320.7683543090999
 30
0.0
 11
656.1130955678328
 21
-9.878092300400057
 31
0.0
  0
LINE
  5
C54
330
1F
100
AcDbEntity
  8
0
100
AcDbLine
 10
656.1130955678328
 20
320.7683543090999
 30
0.0
 11
657.8130955678328
 21
319.9451310044
 31
0.0
  0
LINE
  5
C55
330
1F
100
AcDbEntity
  8
0
100
AcDbLine
 10
657.8130955678328
 20
319.9451310044
 30
0.0
 11
657.8130955678328
 21
-9.054868995700057
 31
0.0
  0
LINE
  5
C56
330
1F
100
AcDbEntity
  8
0
100
AcDbLine
 10
657.8130955678328
 20
319.9451310044
 30
0.0
 11
656.9898722630328
 21
321.6451310044
 31
0.0
  0
LINE
  5
C57
330
1F
100
AcDbEntity
  8
0
100
AcDbLine
 10
928.6363188725328
 20
321.6451310043
 30
0.0
 11
656.9898722630328
 21
321.6451310044
 31
0.0
  0
LINE
  5
C58
330
1F
100
AcDbEntity
  8
0
100
AcDbLine
 10
928.6363188725328
 20
321.6451310043
 30
0.0
 11
927.8130955678328
 21
319.9451310044
 31
0.0
  0
LINE
  5
C59
330
1F
100
AcDbEntity
  8
0
100
AcDbLine
 10
927.8130955678328
 20
319.9451310044
 30
0.0
 11
657.8130955678328
 21
319.9451310044
 31
0.0
  0
LINE
  5
C5A
330
1F
100
AcDbEntity
  8
0
100
AcDbLine
 10
927.8130955678328
 20
-9.054868995700057
 30
0.0
 11
927.8130955678328
 21
319.9451310044
 31
0.0
  0
LINE
  5
C5B
330
1F
100
AcDbEntity
  8
0
100
AcDbLine
 10
657.8130955678328
 20
-9.054868995700057
 30
0.0
 11
927.8130955678328
 21
-9.054868995700057
 31
0.0
  0
LINE
  5
C5C
330
1F
100
AcDbEntity
  8
0
100
AcDbLine
 10
927.8130955678328
 20
319.9451310044
 30
0.0
 11
929.5130955678328
 21
320.7683543090999
 31
0.0
  0
LINE
  5
C5D
330
1F
100
AcDbEntity
  8
0
100
AcDbLine
 10
929.5130955678328
 20
-9.878092300400057
 30
0.0
 11
929.5130955678328
 21
320.7683543090999
 31
0.0
  0
LINE
  5
C5E
330
1F
100
AcDbEntity
  8
0
100
AcDbLine
 10
929.5130955678328
 20
-9.878092300400057
 30
0.0
 11
927.8130955679328
 21
-9.054868995700057
 31
0.0
  0
LINE
  5
C5F
330
1F
100
AcDbEntity
  8
0
100
AcDbLine
 10
927.8130955678328
 20
-9.054868995700057
 30
0.0
 11
928.6363188726328
 21
-10.75486899570006
 31
0.0
  0
LINE
  5
C60
330
1F
100
AcDbEntity
  8
0
100
AcDbLine
 10
656.9898722632328
 20
-10.75486899570006
 30
0.0
 11
928.6363188726328
 21
-10.75486899570006
 31
0.0
  0
LINE
  5
C61
330
1F
100
AcDbEntity
  8
0
100
AcDbLine
 10
656.9898722632328
 20
-10.75486899570006
 30
0.0
 11
657.8130955678328
 21
-9.054868995700057
 31
0.0
  0
LINE
  5
C62
330
1F
100
AcDbEntity
  8
0
100
AcDbLine
 10
972.3130955678328
 20
205.4492432213999
 30
0.0
 11
972.3130955678328
 21
68.54513100429995
 31
0.0
  0
LINE
  5
C63
330
1F
100
AcDbEntity
  8
0
100
AcDbLine
 10
972.3130955678328
 20
242.3451310042999
 30
0.0
 11
972.3130955678328
 21
205.4492432213999
 31
0.0
  0
LINE
  5
C64
330
1F
100
AcDbEntity
  8
0
100
AcDbLine
 10
976.5130955678328
 20
205.4492432213999
 30
0.0
 11
976.5130955678328
 21
68.54513100429995
 31
0.0
  0
LINE
  5
C65
330
1F
100
AcDbEntity
  8
0
100
AcDbLine
 10
976.5130955678328
 20
242.3451310042999
 30
0.0
 11
976.5130955678328
 21
205.4492432213999
 31
0.0
  0
LINE
  5
C66
330
1F
100
AcDbEntity
  8
0
100
AcDbLine
 10
609.1130955678327
 20
105.4410187872999
 30
0.0
 11
609.1130955678327
 21
242.3451310042999
 31
0.0
  0
LINE
  5
C67
330
1F
100
AcDbEntity
  8
0
100
AcDbLine
 10
609.1130955678327
 20
68.54513100429995
 30
0.0
 11
609.1130955678327
 21
105.4410187872999
 31
0.0
  0
LINE
  5
C68
330
1F
100
AcDbEntity
  8
0
100
AcDbLine
 10
613.3130955678328
 20
105.4410187872999
 30
0.0
 11
613.3130955678328
 21
242.3451310042999
 31
0.0
  0
LINE
  5
C69
330
1F
100
AcDbEntity
  8
0
100
AcDbLine
 10
613.3130955678328
 20
68.54513100429995
 30
0.0
 11
613.3130955678328
 21
105.4410187872999
 31
0.0
  0
LINE
  5
C6A
330
1F
100
AcDbEntity
  8
0
100
AcDbLine
 10
606.3130955678328
 20
75.79513100429995
 30
0.0
 11
606.3130955678328
 21
235.0951310042999
 31
0.0
  0
LINE
  5
C6B
330
1F
100
AcDbEntity
  8
0
100
AcDbLine
 10
599.8130955678328
 20
77.59513100429994
 30
0.0
 11
599.8130955678328
 21
233.2951310042999
 31
0.0
  0
LINE
  5
C6C
330
1F
100
AcDbEntity
  8
0
100
AcDbLine
 10
979.3130955678328
 20
235.0951310042999
 30
0.0
 11
979.3130955678328
 21
75.79513100429995
 31
0.0
  0
LINE
  5
C6D
330
1F
100
AcDbEntity
  8
0
100
AcDbLine
 10
985.8130955678328
 20
233.2951310042999
 30
0.0
 11
985.8130955678328
 21
77.59513100429994
 31
0.0
  0
LINE
  5
C8F
330
1F
100
AcDbEntity
  8
0
100
AcDbLine
 10
1114.684931159273
 20
172.2079872704207
 30
0.0
 11
1075.684931159273
 21
172.2079872704207
 31
0.0
  0
LINE
  5
C90
330
1F
100
AcDbEntity
  8
0
100
AcDbLine
 10
1075.684931159273
 20
172.2079872704207
 30
0.0
 11
1075.684931159273
 21
141.0079872704209
 31
0.0
  0
INSERT
  5
C91
330
1F
100
AcDbEntity
  8
LENKIMO
  6
CENTERX2
100
AcDbBlockReference
  2
*U15
 10
721.3388869119249
 20
-293.4944276542897
 30
0.0
 41
0.39
 42
0.39
 43
0.39
  0
LINE
  5
C92
330
1F
100
AcDbEntity
  8
0
100
AcDbLine
 10
1114.684931159273
 20
187.8079872704208
 30
0.0
 11
1114.684931159273
 21
172.2079872704207
 31
0.0
  0
LINE
  5
C93
330
1F
100
AcDbEntity
  8
0
100
AcDbLine
 10
1114.684931159273
 20
141.0079872704209
 30
0.0
 11
1114.684931159273
 21
125.4079872704206
 31
0.0
  0
LINE
  5
C94
330
1F
100
AcDbEntity
  8
0
100
AcDbLine
 10
1114.684931159273
 20
141.0079872704209
 30
0.0
 11
1075.684931159273
 21
141.0079872704209
 31
0.0
  0
LINE
  5
C95
330
1F
100
AcDbEntity
  8
0
100
AcDbLine
 10
1153.684931159273
 20
156.6079872704208
 30
0.0
 11
1114.684931159273
 21
125.4079872704206
 31
0.0
  0
LINE
  5
C96
330
1F
100
AcDbEntity
  8
0
100
AcDbLine
 10
1153.684931159273
 20
156.6079872704208
 30
0.0
 11
1114.684931159273
 21
187.8079872704208
 31
0.0
  0
MTEXT
  5
C97
330
1F
100
AcDbEntity
  8
0
100
AcDbMText
 10
1082.049087578177
 20
162.8665311256277
 30
0.0
 40
13.65
 41
8.176792514679505
 71
     1
 72
     5
  1
{SUP}
 73
     1
 44
1.0
1001
ACAD
1000
ACAD_MTEXT_DEFINED_HEIGHT_BEGIN
1070
    46
1040
35.595
1000
ACAD_MTEXT_DEFINED_HEIGHT_END
  0
INSERT
  5
CC8
330
1F
100
AcDbEntity
  8
LENKIMO
  6
CENTERX2
100
AcDbBlockReference
  2
*U17
 10
222.2045900202147
 20
-416.3549431637348
 30
0.0
 41
0.39
 42
0.39
 43
0.39
  0
LINE
  5
CC9
330
1F
100
AcDbEntity
  8
0
100
AcDbLine
 10
445.9847766297498
 20
167.1648628153438
 30
0.0
 11
445.9847766297498
 21
135.9648628153441
 31
0.0
  0
LINE
  5
CCA
330
1F
100
AcDbEntity
  8
0
100
AcDbLine
 10
484.9847766297498
 20
182.7648628153439
 30
0.0
 11
484.9847766297498
 21
167.1648628153438
 31
0.0
  0
LINE
  5
CCB
330
1F
100
AcDbEntity
  8
0
100
AcDbLine
 10
523.9847766297489
 20
151.5648628153439
 30
0.0
 11
484.9847766297498
 21
182.7648628153439
 31
0.0
  0
LINE
  5
CCC
330
1F
100
AcDbEntity
  8
0
100
AcDbLine
 10
484.9847766297498
 20
135.9648628153441
 30
0.0
 11
445.9847766297498
 21
135.9648628153441
 31
0.0
  0
LINE
  5
CCD
330
1F
100
AcDbEntity
  8
0
100
AcDbLine
 10
484.9847766297498
 20
167.1648628153438
 30
0.0
 11
445.9847766297498
 21
167.1648628153438
 31
0.0
  0
LINE
  5
CCE
330
1F
100
AcDbEntity
  8
0
100
AcDbLine
 10
484.9847766297498
 20
135.9648628153441
 30
0.0
 11
484.9847766297498
 21
120.3648628153438
 31
0.0
  0
LINE
  5
CCF
330
1F
100
AcDbEntity
  8
0
100
AcDbLine
 10
523.9847766297489
 20
151.5648628153439
 30
0.0
 11
484.9847766297498
 21
120.3648628153438
 31
0.0
  0
MTEXT
  5
CD0
330
1F
100
AcDbEntity
  8
0
100
AcDbMText
 10
454.6923621973028
 20
159.6564015037979
 30
0.0
 40
13.65
 41
8.176792514679505
 71
     1
 72
     5
  1
{ODA}
 73
     1
 44
1.0
1001
ACAD
1000
ACAD_MTEXT_DEFINED_HEIGHT_BEGIN
1070
    46
1040
35.595
1000
ACAD_MTEXT_DEFINED_HEIGHT_END
  0
INSERT
  5
CD1
330
1F
100
AcDbEntity
  8
LENKIMO
  6
CENTERX2
100
AcDbBlockReference
  2
*U18
 10
-62.86696585252639
 20
-292.1452410602951
 30
0.0
 41
0.39
 42
0.39
 43
0.39
  0
INSERT
  5
CD2
330
1F
100
AcDbEntity
  8
LENKIMO
  6
CENTERX2
100
AcDbBlockReference
  2
*U19
 10
-68.67274055841176
 20
446.8072775259423
 30
0.0
 41
0.39
 42
0.39
 43
0.39
  0
INSERT
  5
CD3
330
1F
100
AcDbEntity
  8
LENKIMO
  6
CENTERX2
100
AcDbBlockReference
  2
*U20
 10
-76.65098128050772
 20
-161.0255637959558
 30
0.0
 41
0.39
 42
0.39
 43
0.39
  0
ENDSEC
  0
SECTION
  2
OBJECTS
  0
DICTIONARY
  5
C
330
0
100
AcDbDictionary
281
     1
  3
ACAD_DETAILVIEWSTYLE
350
85C
  3
ACAD_GROUP
350
D
  3
ACAD_IMAGE_VARS
350
832
  3
ACAD_LAYOUT
350
1A
  3
ACAD_MLINESTYLE
350
17
  3
ACAD_PLOTSETTINGS
350
19
  3
ACAD_PLOTSTYLENAME
350
E
  3
ACAD_SCALELIST
350
47
  3
ACAD_SECTIONVIEWSTYLE
350
85D
  3
AcDbVariableDictionary
350
857
  3
APPDATA
350
830
  3
DWGPROPS
350
CD8
  0
DICTIONARY
  5
CD4
330
1F
100
AcDbDictionary
280
     1
281
     1
  3
DIM_BOUNDING_BOXES_V1
360
CD5
  0
DICTIONARY
  5
85C
102
{ACAD_REACTORS
330
C
102
}
330
C
100
AcDbDictionary
281
     1
  0
DICTIONARY
  5
D
102
{ACAD_REACTORS
330
C
102
}
330
C
100
AcDbDictionary
281
     1
  0
RASTERVARIABLES
  5
832
102
{ACAD_REACTORS
330
C
102
}
330
C
100
AcDbRasterVariables
 90
        0
 70
     1
 71
     1
 72
     1
  0
DICTIONARY
  5
1A
102
{ACAD_REACTORS
330
C
102
}
330
C
100
AcDbDictionary
281
     1
  3
Layout1
350
1E
  3
Layout2
350
26
  3
Model
350
22
  0
DICTIONARY
  5
17
102
{ACAD_REACTORS
330
C
102
}
330
C
100
AcDbDictionary
281
     1
  3
Standard
350
18
  0
DICTIONARY
  5
19
102
{ACAD_REACTORS
330
C
102
}
330
C
100
AcDbDictionary
281
     1
  0
ACDBDICTIONARYWDFLT
  5
E
102
{ACAD_REACTORS
330
C
102
}
330
C
100
AcDbDictionary
281
     1
  3
Normal
350
F
100
AcDbDictionaryWithDefault
340
F
  0
DICTIONARY
  5
47
102
{ACAD_REACTORS
330
C
102
}
330
C
100
AcDbDictionary
281
     1
  3
A0
350
48
  3
A1
350
49
  3
A2
350
4A
  3
A3
350
4B
  3
A4
350
4C
  3
A5
350
4D
  3
A6
350
4E
  3
A7
350
4F
  3
A8
350
50
  3
A9
350
51
  3
B0
350
52
  3
B1
350
53
  3
B2
350
54
  3
B3
350
55
  3
B4
350
56
  3
B5
350
57
  3
B6
350
58
  3
B7
350
59
  3
B8
350
5A
  3
B9
350
5B
  3
C0
350
5C
  3
C1
350
5D
  3
C2
350
5E
  3
C3
350
5F
  3
C4
350
60
  3
C5
350
61
  3
C6
350
62
  3
C7
350
63
  3
C8
350
64
  3
C9
350
65
  3
D0
350
66
  3
D1
350
67
  3
D2
350
68
  0
DICTIONARY
  5
85D
102
{ACAD_REACTORS
330
C
102
}
330
C
100
AcDbDictionary
281
     1
  0
DICTIONARY
  5
857
102
{ACAD_REACTORS
330
C
102
}
330
C
100
AcDbDictionary
281
     1
  0
DICTIONARY
  5
830
102
{ACAD_REACTORS
330
C
102
}
330
C
100
AcDbDictionary
281
     1
  0
XRECORD
  5
CD8
102
{ACAD_REACTORS
330
C
102
}
330
C
100
AcDbXrecord
280
     1
  1
DWGPROPS COOKIE
  2

  3

  4

  6

  7

  8
mantvydas.surka
  9

300
=
301
=
302
=
303
=
304
=
305
=
306
=
307
=
308
=
309
=
 40
0.0
 41
2457870.311838299
 42
2459180.47576846
  1

 90
        0
  0
DICTIONARY
  5
CD5
102
{ACAD_REACTORS
330
CD4
102
}
330
CD4
100
AcDbDictionary
281
     1
  0
LAYOUT
  5
1E
102
{ACAD_REACTORS
330
1A
102
}
330
1A
100
AcDbPlotSettings
  1

  2
none_device
  4

  6

 40
0.0
 41
0.0
 42
0.0
 43
0.0
 44
0.0
 45
0.0
 46
0.0
 47
0.0
 48
0.0
 49
0.0
140
0.0
141
0.0
142
1.0
143
1.0
 70
   688
 72
     1
 73
     0
 74
     5
  7

 75
    16
147
1.0
148
0.0
149
0.0
100
AcDbLayout
  1
Layout1
 70
     1
 71
     1
 10
0.0
 20
0.0
 11
420.0
 21
297.0
 12
0.0
 22
0.0
 32
0.0
 14
1.000000000000000E+20
 24
1.000000000000000E+20
 34
1.000000000000000E+20
 15
-1.000000000000000E+20
 25
-1.000000000000000E+20
 35
-1.000000000000000E+20
146
0.0
 13
0.0
 23
0.0
 33
0.0
 16
1.0
 26
0.0
 36
0.0
 17
0.0
 27
1.0
 37
0.0
 76
     0
330
1B
  0
LAYOUT
  5
26
102
{ACAD_REACTORS
330
1A
102
}
330
1A
100
AcDbPlotSettings
  1

  2
none_device
  4

  6

 40
0.0
 41
0.0
 42
0.0
 43
0.0
 44
0.0
 45
0.0
 46
0.0
 47
0.0
 48
0.0
 49
0.0
140
0.0
141
0.0
142
1.0
143
1.0
 70
   688
 72
     1
 73
     0
 74
     5
  7

 75
    16
147
1.0
148
0.0
149
0.0
100
AcDbLayout
  1
Layout2
 70
     1
 71
     2
 10
0.0
 20
0.0
 11
0.0
 21
0.0
 12
0.0
 22
0.0
 32
0.0
 14
0.0
 24
0.0
 34
0.0
 15
0.0
 25
0.0
 35
0.0
146
0.0
 13
0.0
 23
0.0
 33
0.0
 16
1.0
 26
0.0
 36
0.0
 17
0.0
 27
1.0
 37
0.0
 76
     0
330
23
  0
LAYOUT
  5
22
102
{ACAD_REACTORS
330
1A
102
}
330
1A
100
AcDbPlotSettings
  1

  2
none_device
  4
Letter_(8.50_x_11.00_Inches)
  6

 40
6.35
 41
6.35
 42
6.35000508
 43
6.35000508
 44
215.9
 45
279.4
 46
0.0
 47
0.0
 48
0.0
 49
0.0
140
0.0
141
0.0
142
1.0
143
1.0
 70
  1712
 72
     1
 73
     0
 74
     0
  7

 75
     0
147
1.0
148
0.0
149
0.0
100
AcDbLayout
  1
Model
 70
     1
 71
     0
 10
0.0
 20
0.0
 11
420.0
 21
297.0
 12
0.0
 22
0.0
 32
0.0
 14
-508.8299236983001
 24
-10.75486899570006
 34
0.0
 15
1153.684931159273
 25
914.9386960045242
 35
0.0
146
0.0
 13
0.0
 23
0.0
 33
0.0
 16
1.0
 26
0.0
 36
0.0
 17
0.0
 27
1.0
 37
0.0
 76
     0
330
1F
331
29
  0
MLINESTYLE
  5
18
102
{ACAD_REACTORS
330
17
102
}
330
17
100
AcDbMlineStyle
  2
Standard
 70
     0
  3

 62
   256
 51
90.0
 52
90.0
 71
     2
 49
0.5
 62
   256
  6
BYLAYER
 49
-0.5
 62
   256
  6
BYLAYER
  0
ACDBPLACEHOLDER
  5
F
102
{ACAD_REACTORS
330
E
102
}
330
E
  0
SCALE
  5
48
102
{ACAD_REACTORS
330
47
102
}
330
47
100
AcDbScale
 70
     0
300
1:1
140
1.0
141
1.0
290
     1
  0
SCALE
  5
49
102
{ACAD_REACTORS
330
47
102
}
330
47
100
AcDbScale
 70
     0
300
1:2
140
1.0
141
2.0
290
     0
  0
SCALE
  5
4A
102
{ACAD_REACTORS
330
47
102
}
330
47
100
AcDbScale
 70
     0
300
1:4
140
1.0
141
4.0
290
     0
  0
SCALE
  5
4B
102
{ACAD_REACTORS
330
47
102
}
330
47
100
AcDbScale
 70
     0
300
1:5
140
1.0
141
5.0
290
     0
  0
SCALE
  5
4C
102
{ACAD_REACTORS
330
47
102
}
330
47
100
AcDbScale
 70
     0
300
1:8
140
1.0
141
8.0
290
     0
  0
SCALE
  5
4D
102
{ACAD_REACTORS
330
47
102
}
330
47
100
AcDbScale
 70
     0
300
1:10
140
1.0
141
10.0
290
     0
  0
SCALE
  5
4E
102
{ACAD_REACTORS
330
47
102
}
330
47
100
AcDbScale
 70
     0
300
1:16
140
1.0
141
16.0
290
     0
  0
SCALE
  5
4F
102
{ACAD_REACTORS
330
47
102
}
330
47
100
AcDbScale
 70
     0
300
1:20
140
1.0
141
20.0
290
     0
  0
SCALE
  5
50
102
{ACAD_REACTORS
330
47
102
}
330
47
100
AcDbScale
 70
     0
300
1:30
140
1.0
141
30.0
290
     0
  0
SCALE
  5
51
102
{ACAD_REACTORS
330
47
102
}
330
47
100
AcDbScale
 70
     0
300
1:40
140
1.0
141
40.0
290
     0
  0
SCALE
  5
52
102
{ACAD_REACTORS
330
47
102
}
330
47
100
AcDbScale
 70
     0
300
1:50
140
1.0
141
50.0
290
     0
  0
SCALE
  5
53
102
{ACAD_REACTORS
330
47
102
}
330
47
100
AcDbScale
 70
     0
300
1:100
140
1.0
141
100.0
290
     0
  0
SCALE
  5
54
102
{ACAD_REACTORS
330
47
102
}
330
47
100
AcDbScale
 70
     0
300
2:1
140
2.0
141
1.0
290
     0
  0
SCALE
  5
55
102
{ACAD_REACTORS
330
47
102
}
330
47
100
AcDbScale
 70
     0
300
4:1
140
4.0
141
1.0
290
     0
  0
SCALE
  5
56
102
{ACAD_REACTORS
330
47
102
}
330
47
100
AcDbScale
 70
     0
300
8:1
140
8.0
141
1.0
290
     0
  0
SCALE
  5
57
102
{ACAD_REACTORS
330
47
102
}
330
47
100
AcDbScale
 70
     0
300
10:1
140
10.0
141
1.0
290
     0
  0
SCALE
  5
58
102
{ACAD_REACTORS
330
47
102
}
330
47
100
AcDbScale
 70
     0
300
100:1
140
100.0
141
1.0
290
     0
  0
SCALE
  5
59
102
{ACAD_REACTORS
330
47
102
}
330
47
100
AcDbScale
 70
     0
300
1/128" = 1'-0"
140
0.0078125
141
12.0
290
     0
  0
SCALE
  5
5A
102
{ACAD_REACTORS
330
47
102
}
330
47
100
AcDbScale
 70
     0
300
1/64" = 1'-0"
140
0.015625
141
12.0
290
     0
  0
SCALE
  5
5B
102
{ACAD_REACTORS
330
47
102
}
330
47
100
AcDbScale
 70
     0
300
1/32" = 1'-0"
140
0.03125
141
12.0
290
     0
  0
SCALE
  5
5C
102
{ACAD_REACTORS
330
47
102
}
330
47
100
AcDbScale
 70
     0
300
1/16" = 1'-0"
140
0.0625
141
12.0
290
     0
  0
SCALE
  5
5D
102
{ACAD_REACTORS
330
47
102
}
330
47
100
AcDbScale
 70
     0
300
3/32" = 1'-0"
140
0.09375
141
12.0
290
     0
  0
SCALE
  5
5E
102
{ACAD_REACTORS
330
47
102
}
330
47
100
AcDbScale
 70
     0
300
1/8" = 1'-0"
140
0.125
141
12.0
290
     0
  0
SCALE
  5
5F
102
{ACAD_REACTORS
330
47
102
}
330
47
100
AcDbScale
 70
     0
300
3/16" = 1'-0"
140
0.1875
141
12.0
290
     0
  0
SCALE
  5
60
102
{ACAD_REACTORS
330
47
102
}
330
47
100
AcDbScale
 70
     0
300
1/4" = 1'-0"
140
0.25
141
12.0
290
     0
  0
SCALE
  5
61
102
{ACAD_REACTORS
330
47
102
}
330
47
100
AcDbScale
 70
     0
300
3/8" = 1'-0"
140
0.375
141
12.0
290
     0
  0
SCALE
  5
62
102
{ACAD_REACTORS
330
47
102
}
330
47
100
AcDbScale
 70
     0
300
1/2" = 1'-0"
140
0.5
141
12.0
290
     0
  0
SCALE
  5
63
102
{ACAD_REACTORS
330
47
102
}
330
47
100
AcDbScale
 70
     0
300
3/4" = 1'-0"
140
0.75
141
12.0
290
     0
  0
SCALE
  5
64
102
{ACAD_REACTORS
330
47
102
}
330
47
100
AcDbScale
 70
     0
300
1" = 1'-0"
140
1.0
141
12.0
290
     0
  0
SCALE
  5
65
102
{ACAD_REACTORS
330
47
102
}
330
47
100
AcDbScale
 70
     0
300
1-1/2" = 1'-0"
140
1.5
141
12.0
290
     0
  0
SCALE
  5
66
102
{ACAD_REACTORS
330
47
102
}
330
47
100
AcDbScale
 70
     0
300
3" = 1'-0"
140
3.0
141
12.0
290
     0
  0
SCALE
  5
67
102
{ACAD_REACTORS
330
47
102
}
330
47
100
AcDbScale
 70
     0
300
6" = 1'-0"
140
6.0
141
12.0
290
     0
  0
SCALE
  5
68
102
{ACAD_REACTORS
330
47
102
}
330
47
100
AcDbScale
 70
     0
300
1'-0" = 1'-0"
140
12.0
141
12.0
290
     0
  0
ENDSEC
  0
EOF
