  0
SECTION
  2
HEADER
  9
$ACADVER
  1
AC1015
  9
$ACADMAINTVER
 70
     6
  9
$DWGCODEPAGE
  3
ANSI_1257
  9
$INSBASE
 10
0.0
 20
0.0
 30
0.0
  9
$EXTMIN
 10
0.0
 20
0.0
 30
0.0
  9
$EXTMAX
 10
420.0
 20
297.0
 30
0.0
  9
$LIMMIN
 10
0.0
 20
0.0
  9
$LIMMAX
 10
420.0
 20
297.0
  9
$ORTHOMODE
 70
     0
  9
$REGENMODE
 70
     1
  9
$FILLMODE
 70
     1
  9
$QTEXTMODE
 70
     0
  9
$MIRRTEXT
 70
     1
  9
$LTSCALE
 40
1.0
  9
$ATTMODE
 70
     1
  9
$TEXTSIZE
 40
5.6444444444
  9
$TRACEWID
 40
1.0
  9
$TEXTSTYLE
  7
Standard
  9
$CLAYER
  8
0
  9
$CELTYPE
  6
ByLayer
  9
$CECOLOR
 62
   256
  9
$CELTSCALE
 40
1.0
  9
$DISPSILH
 70
     0
  9
$DIMSCALE
 40
1.0
  9
$DIMASZ
 40
3.175
  9
$DIMEXO
 40
1.0
  9
$DIMDLI
 40
3.75
  9
$DIMRND
 40
0.0
  9
$DIMDLE
 40
0.0
  9
$DIMEXE
 40
1.0
  9
$DIMTP
 40
0.0
  9
$DIMTM
 40
0.0
  9
$DIMTXT
 40
5.6444444444
  9
$DIMCEN
 40
2.5
  9
$DIMTSZ
 40
0.0
  9
$DIMTOL
 70
     0
  9
$DIMLIM
 70
     0
  9
$DIMTIH
 70
     1
  9
$DIMTOH
 70
     1
  9
$DIMSE1
 70
     0
  9
$DIMSE2
 70
     0
  9
$DIMTAD
 70
     1
  9
$DIMZIN
 70
     0
  9
$DIMBLK
  1

  9
$DIMASO
 70
     1
  9
$DIMSHO
 70
     1
  9
$DIMPOST
  1

  9
$DIMAPOST
  1

  9
$DIMALT
 70
     0
  9
$DIMALTD
 70
     3
  9
$DIMALTF
 40
0.0393700787
  9
$DIMLFAC
 40
1.0
  9
$DIMTOFL
 70
     1
  9
$DIMTVP
 40
0.0
  9
$DIMTIX
 70
     0
  9
$DIMSOXD
 70
     0
  9
$DIMSAH
 70
     0
  9
$DIMBLK1
  1

  9
$DIMBLK2
  1

  9
$DIMSTYLE
  2
ISO-25
  9
$DIMCLRD
 70
     0
  9
$DIMCLRE
 70
     0
  9
$DIMCLRT
 70
     0
  9
$DIMTFAC
 40
1.0
  9
$DIMGAP
 40
1.524
  9
$DIMJUST
 70
     0
  9
$DIMSD1
 70
     0
  9
$DIMSD2
 70
     0
  9
$DIMTOLJ
 70
     0
  9
$DIMTZIN
 70
     0
  9
$DIMALTZ
 70
     0
  9
$DIMALTTZ
 70
     0
  9
$DIMUPT
 70
     0
  9
$DIMDEC
 70
     1
  9
$DIMTDEC
 70
     1
  9
$DIMALTU
 70
     2
  9
$DIMALTTD
 70
     3
  9
$DIMTXSTY
  7
Standard
  9
$DIMAUNIT
 70
     0
  9
$DIMADEC
 70
     1
  9
$DIMALTRND
 40
0.0
  9
$DIMAZIN
 70
     0
  9
$DIMDSEP
 70
    44
  9
$DIMATFIT
 70
     3
  9
$DIMFRAC
 70
     0
  9
$DIMLDRBLK
  1

  9
$DIMLUNIT
 70
     2
  9
$DIMLWD
 70
    -2
  9
$DIMLWE
 70
    -2
  9
$DIMTMOVE
 70
     0
  9
$LUNITS
 70
     2
  9
$LUPREC
 70
     1
  9
$SKETCHINC
 40
1.0
  9
$FILLETRAD
 40
10.0
  9
$AUNITS
 70
     0
  9
$AUPREC
 70
     1
  9
$MENU
  1
.
  9
$ELEVATION
 40
0.0
  9
$PELEVATION
 40
0.0
  9
$THICKNESS
 40
0.0
  9
$LIMCHECK
 70
     0
  9
$CHAMFERA
 40
0.0
  9
$CHAMFERB
 40
0.0
  9
$CHAMFERC
 40
0.0
  9
$CHAMFERD
 40
0.0
  9
$SKPOLY
 70
     0
  9
$TDCREATE
 40
2459500.604073958
  9
$TDUCREATE
 40
2459500.479073958
  9
$TDUPDATE
 40
2459500.604074467
  9
$TDUUPDATE
 40
2459500.479074467
  9
$TDINDWG
 40
0.0000000116
  9
$TDUSRTIMER
 40
0.0000000116
  9
$USRTIMER
 70
     1
  9
$ANGBASE
 50
0.0
  9
$ANGDIR
 70
     0
  9
$PDMODE
 70
     0
  9
$PDSIZE
 40
-1.0
  9
$PLINEWID
 40
0.0
  9
$SPLFRAME
 70
     0
  9
$SPLINETYPE
 70
     6
  9
$SPLINESEGS
 70
     8
  9
$HANDSEED
  5
527
  9
$SURFTAB1
 70
     6
  9
$SURFTAB2
 70
     6
  9
$SURFTYPE
 70
     6
  9
$SURFU
 70
     6
  9
$SURFV
 70
     6
  9
$UCSBASE
  2

  9
$UCSNAME
  2

  9
$UCSORG
 10
0.0
 20
0.0
 30
0.0
  9
$UCSXDIR
 10
1.0
 20
0.0
 30
0.0
  9
$UCSYDIR
 10
0.0
 20
1.0
 30
0.0
  9
$UCSORTHOREF
  2

  9
$UCSORTHOVIEW
 70
     0
  9
$UCSORGTOP
 10
0.0
 20
0.0
 30
0.0
  9
$UCSORGBOTTOM
 10
0.0
 20
0.0
 30
0.0
  9
$UCSORGLEFT
 10
0.0
 20
0.0
 30
0.0
  9
$UCSORGRIGHT
 10
0.0
 20
0.0
 30
0.0
  9
$UCSORGFRONT
 10
0.0
 20
0.0
 30
0.0
  9
$UCSORGBACK
 10
0.0
 20
0.0
 30
0.0
  9
$PUCSBASE
  2

  9
$PUCSNAME
  2

  9
$PUCSORG
 10
0.0
 20
0.0
 30
0.0
  9
$PUCSXDIR
 10
1.0
 20
0.0
 30
0.0
  9
$PUCSYDIR
 10
0.0
 20
1.0
 30
0.0
  9
$PUCSORTHOREF
  2

  9
$PUCSORTHOVIEW
 70
     0
  9
$PUCSORGTOP
 10
0.0
 20
0.0
 30
0.0
  9
$PUCSORGBOTTOM
 10
0.0
 20
0.0
 30
0.0
  9
$PUCSORGLEFT
 10
0.0
 20
0.0
 30
0.0
  9
$PUCSORGRIGHT
 10
0.0
 20
0.0
 30
0.0
  9
$PUCSORGFRONT
 10
0.0
 20
0.0
 30
0.0
  9
$PUCSORGBACK
 10
0.0
 20
0.0
 30
0.0
  9
$USERI1
 70
     0
  9
$USERI2
 70
     0
  9
$USERI3
 70
     0
  9
$USERI4
 70
     0
  9
$USERI5
 70
     0
  9
$USERR1
 40
0.0
  9
$USERR2
 40
0.0
  9
$USERR3
 40
0.0
  9
$USERR4
 40
0.0
  9
$USERR5
 40
0.0
  9
$WORLDVIEW
 70
     1
  9
$SHADEDGE
 70
     3
  9
$SHADEDIF
 70
    70
  9
$TILEMODE
 70
     1
  9
$MAXACTVP
 70
    64
  9
$PINSBASE
 10
0.0
 20
0.0
 30
0.0
  9
$PLIMCHECK
 70
     0
  9
$PEXTMIN
 10
1.0000000000E+20
 20
1.0000000000E+20
 30
1.0000000000E+20
  9
$PEXTMAX
 10
-1.0000000000E+20
 20
-1.0000000000E+20
 30
-1.0000000000E+20
  9
$PLIMMIN
 10
0.0
 20
0.0
  9
$PLIMMAX
 10
420.0
 20
297.0
  9
$UNITMODE
 70
     0
  9
$VISRETAIN
 70
     1
  9
$PLINEGEN
 70
     0
  9
$PSLTSCALE
 70
     1
  9
$TREEDEPTH
 70
  3020
  9
$CMLSTYLE
  2
Standard
  9
$CMLJUST
 70
     0
  9
$CMLSCALE
 40
20.0
  9
$PROXYGRAPHICS
 70
     1
  9
$MEASUREMENT
 70
     1
  9
$CELWEIGHT
370
    -1
  9
$ENDCAPS
280
     0
  9
$JOINSTYLE
280
     0
  9
$LWDISPLAY
290
     1
  9
$INSUNITS
 70
     4
  9
$HYPERLINKBASE
  1

  9
$STYLESHEET
  1

  9
$XEDIT
290
     1
  9
$CEPSNTYPE
380
     0
  9
$PSTYLEMODE
290
     1
  9
$FINGERPRINTGUID
  2
{a071c1a6-fd6f-4706-956f-90486c2e5ed5}
  9
$VERSIONGUID
  2
{FAEB1C32-E019-11D5-929B-00C0DF256EC4}
  9
$EXTNAMES
290
     1
  9
$PSVPSCALE
 40
0.0
  9
$OLESTARTUP
290
     0
  0
ENDSEC
  0
SECTION
  2
CLASSES
  0
CLASS
  1
ACDBDICTIONARYWDFLT
  2
AcDbDictionaryWithDefault
  3
ObjectDBX Classes
 90
        0
280
     0
281
     0
  0
CLASS
  1
VISUALSTYLE
  2
AcDbVisualStyle
  3
ObjectDBX Classes
 90
     4095
280
     0
281
     0
  0
CLASS
  1
MATERIAL
  2
AcDbMaterial
  3
ObjectDBX Classes
 90
     1153
280
     0
281
     0
  0
CLASS
  1
SCALE
  2
AcDbScale
  3
ObjectDBX Classes
 90
     1153
280
     0
281
     0
  0
CLASS
  1
TABLESTYLE
  2
AcDbTableStyle
  3
ObjectDBX Classes
 90
     4095
280
     0
281
     0
  0
CLASS
  1
MLEADERSTYLE
  2
AcDbMLeaderStyle
  3
ACDB_MLEADERSTYLE_CLASS
 90
     4095
280
     0
281
     0
  0
CLASS
  1
SUN
  2
AcDbSun
  3
SCENEOE
 90
     1153
280
     0
281
     0
  0
CLASS
  1
ACDBPLACEHOLDER
  2
AcDbPlaceHolder
  3
ObjectDBX Classes
 90
        0
280
     0
281
     0
  0
CLASS
  1
LAYOUT
  2
AcDbLayout
  3
ObjectDBX Classes
 90
        0
280
     0
281
     0
  0
ENDSEC
  0
SECTION
  2
TABLES
  0
TABLE
  2
VPORT
  5
8
330
0
100
AcDbSymbolTable
 70
     1
  0
VPORT
  5
29
330
8
100
AcDbSymbolTableRecord
100
AcDbViewportTableRecord
  2
*Active
 70
     0
 10
0.0
 20
0.0
 11
1.0
 21
1.0
 12
210.0
 22
148.5
 13
0.0
 23
0.0
 14
10.0
 24
10.0
 15
10.0
 25
10.0
 16
0.0
 26
0.0
 36
1.0
 17
0.0
 27
0.0
 37
0.0
 40
297.0
 41
1.4141414141
 42
50.0
 43
0.0
 44
0.0
 50
0.0
 51
0.0
 71
     0
 72
  2000
 73
     1
 74
     3
 75
     0
 76
     0
 77
     0
 78
     0
281
     0
 65
     1
110
0.0
120
0.0
130
0.0
111
1.0
121
0.0
131
0.0
112
0.0
122
1.0
132
0.0
 79
     0
146
0.0
  0
ENDTAB
  0
TABLE
  2
LTYPE
  5
5
330
0
100
AcDbSymbolTable
 70
     6
  0
LTYPE
  5
14
330
5
100
AcDbSymbolTableRecord
100
AcDbLinetypeTableRecord
  2
ByBlock
 70
     0
  3

 72
    65
 73
     0
 40
0.0
  0
LTYPE
  5
15
330
5
100
AcDbSymbolTableRecord
100
AcDbLinetypeTableRecord
  2
ByLayer
 70
     0
  3

 72
    65
 73
     0
 40
0.0
  0
LTYPE
  5
16
330
5
100
AcDbSymbolTableRecord
100
AcDbLinetypeTableRecord
  2
Continuous
 70
     0
  3
Solid line
 72
    65
 73
     0
 40
0.0
  0
LTYPE
  5
6E
330
5
100
AcDbSymbolTableRecord
100
AcDbLinetypeTableRecord
  2
HIDDEN
 70
     0
  3
Hidden __ __ __ __ __ __ __ __ __ __ __ __ __ __
 72
    65
 73
     2
 40
1.905
 49
1.27
 74
     0
 49
-0.635
 74
     0
  0
LTYPE
  5
6F
330
5
100
AcDbSymbolTableRecord
100
AcDbLinetypeTableRecord
  2
PHANTOM
 70
     0
  3
Phantom ______  __  __  ______  __  __  ______
 72
    65
 73
     6
 40
12.7
 49
6.35
 74
     0
 49
-1.27
 74
     0
 49
1.27
 74
     0
 49
-1.27
 74
     0
 49
1.27
 74
     0
 49
-1.27
 74
     0
  0
LTYPE
  5
70
330
5
100
AcDbSymbolTableRecord
100
AcDbLinetypeTableRecord
  2
CENTER
 70
     0
  3
Center ____ _ ____ _ ____ _ ____ _ ____ _ ____
 72
    65
 73
     4
 40
10.16
 49
6.35
 74
     0
 49
-1.27
 74
     0
 49
1.27
 74
     0
 49
-1.27
 74
     0
  0
LTYPE
  5
71
330
5
100
AcDbSymbolTableRecord
100
AcDbLinetypeTableRecord
  2
CENTERX2
 70
     0
  3
Center (2x) ________  __  ________  __  _____
 72
    65
 73
     4
 40
20.32
 49
12.7
 74
     0
 49
-2.54
 74
     0
 49
2.54
 74
     0
 49
-2.54
 74
     0
  0
LTYPE
  5
72
330
5
100
AcDbSymbolTableRecord
100
AcDbLinetypeTableRecord
  2
DOT2
 70
     0
  3
Dot (.5x) ........................................
 72
    65
 73
     2
 40
0.635
 49
0.0
 74
     0
 49
-0.635
 74
     0
  0
ENDTAB
  0
TABLE
  2
LAYER
  5
2
330
0
100
AcDbSymbolTable
 70
     2
  0
LAYER
  5
10
330
2
100
AcDbSymbolTableRecord
100
AcDbLayerTableRecord
  2
0
 70
     0
 62
     7
  6
Continuous
370
    -3
390
F
  0
LAYER
  5
73
330
2
100
AcDbSymbolTableRecord
100
AcDbLayerTableRecord
  2
LENKIMO
 70
     0
 62
     1
  6
CENTERX2
370
    -3
390
F
  0
ENDTAB
  0
TABLE
  2
STYLE
  5
3
330
0
100
AcDbSymbolTable
 70
     2
  0
STYLE
  5
11
330
3
100
AcDbSymbolTableRecord
100
AcDbTextStyleTableRecord
  2
Standard
 70
     0
 40
0.0
 41
1.0
 50
0.0
 71
     0
 42
5.6444444444
  3
txt
  4

  0
STYLE
  5
81
330
3
100
AcDbSymbolTableRecord
100
AcDbTextStyleTableRecord
  2
SLDTEXTSTYLE0
 70
     0
 40
0.0
 41
0.605
 50
0.0
 71
     0
 42
5.6444444444
  3
TXT
  4

  0
ENDTAB
  0
TABLE
  2
VIEW
  5
6
330
0
100
AcDbSymbolTable
 70
     0
  0
ENDTAB
  0
TABLE
  2
UCS
  5
7
330
0
100
AcDbSymbolTable
 70
     0
  0
ENDTAB
  0
TABLE
  2
APPID
  5
9
330
0
100
AcDbSymbolTable
 70
     1
  0
APPID
  5
12
330
9
100
AcDbSymbolTableRecord
100
AcDbRegAppTableRecord
  2
ACAD
 70
     0
  0
ENDTAB
  0
TABLE
  2
DIMSTYLE
  5
A
330
0
100
AcDbSymbolTable
 70
     1
100
AcDbDimStyleTable
  0
DIMSTYLE
105
27
330
A
100
AcDbSymbolTableRecord
100
AcDbDimStyleTableRecord
  2
ISO-25
 70
     0
 41
2.5
 42
0.625
 43
3.75
 44
1.25
 73
     0
 74
     0
 77
     1
 78
     8
140
2.5
141
2.5
143
0.0393700787
147
0.625
171
     3
172
     1
178
     0
271
     2
272
     2
274
     3
278
    44
283
     0
284
     8
340
11
  0
ENDTAB
  0
TABLE
  2
BLOCK_RECORD
  5
1
330
0
100
AcDbSymbolTable
 70
     6
  0
BLOCK_RECORD
  5
1F
330
1
100
AcDbSymbolTableRecord
100
AcDbBlockTableRecord
  2
*Model_Space
340
22
  0
BLOCK_RECORD
  5
1B
330
1
100
AcDbSymbolTableRecord
100
AcDbBlockTableRecord
  2
*Paper_Space
340
1E
  0
BLOCK_RECORD
  5
23
330
1
100
AcDbSymbolTableRecord
100
AcDbBlockTableRecord
  2
*Paper_Space0
340
26
  0
BLOCK_RECORD
  5
74
330
1
100
AcDbSymbolTableRecord
100
AcDbBlockTableRecord
  2
ODA_2
340
0
102
{BLKREFS
331
205
102
}
  0
BLOCK_RECORD
  5
7E
330
1
100
AcDbSymbolTableRecord
100
AcDbBlockTableRecord
  2
SW_NOTE_0
340
0
102
{BLKREFS
331
83
102
}
  0
BLOCK_RECORD
  5
84
330
1
100
AcDbSymbolTableRecord
100
AcDbBlockTableRecord
  2
SUP_2_
340
0
102
{BLKREFS
331
204
102
}
  0
BLOCK_RECORD
  5
8E
330
1
100
AcDbSymbolTableRecord
100
AcDbBlockTableRecord
  2
SW_NOTE_0_1
340
0
102
{BLKREFS
331
92
102
}
  0
BLOCK_RECORD
  5
93
330
1
100
AcDbSymbolTableRecord
100
AcDbBlockTableRecord
  2
Block11_2
340
0
  0
ENDTAB
  0
ENDSEC
  0
SECTION
  2
BLOCKS
  0
BLOCK
  5
20
330
1F
100
AcDbEntity
  8
0
100
AcDbBlockBegin
  2
*Model_Space
 70
     0
 10
0.0
 20
0.0
 30
0.0
  3
*Model_Space
  1

  0
ENDBLK
  5
21
330
1F
100
AcDbEntity
  8
0
100
AcDbBlockEnd
  0
BLOCK
  5
1C
330
1B
100
AcDbEntity
 67
     1
  8
0
100
AcDbBlockBegin
  2
*Paper_Space
 70
     0
 10
0.0
 20
0.0
 30
0.0
  3
*Paper_Space
  1

  0
ENDBLK
  5
1D
330
1B
100
AcDbEntity
 67
     1
  8
0
100
AcDbBlockEnd
  0
BLOCK
  5
24
330
23
100
AcDbEntity
  8
0
100
AcDbBlockBegin
  2
*Paper_Space0
 70
     0
 10
0.0
 20
0.0
 30
0.0
  3
*Paper_Space0
  1

  0
ENDBLK
  5
25
330
23
100
AcDbEntity
  8
0
100
AcDbBlockEnd
  0
BLOCK
  5
75
330
74
100
AcDbEntity
  8
0
100
AcDbBlockBegin
  2
ODA_2
 70
     0
 10
0.0
 20
0.0
 30
0.0
  3
ODA_2
  1

  0
LINE
  5
77
330
74
100
AcDbEntity
  8
0
  6
Continuous
 62
     7
370
    18
100
AcDbLine
 10
-10.958767963
 20
2.5
 30
0.0
 11
-5.0
 21
-2.5
 31
0.0
  0
LINE
  5
78
330
74
100
AcDbEntity
  8
0
  6
Continuous
 62
     7
370
    18
100
AcDbLine
 10
-5.0
 20
-2.5
 30
0.0
 11
-5.0
 21
0.0
 31
0.0
  0
LINE
  5
79
330
74
100
AcDbEntity
  8
0
  6
Continuous
 62
     7
370
    18
100
AcDbLine
 10
-5.0
 20
0.0
 30
0.0
 11
5.0
 21
0.0
 31
0.0
  0
LINE
  5
7A
330
74
100
AcDbEntity
  8
0
  6
Continuous
 62
     7
370
    18
100
AcDbLine
 10
5.0
 20
0.0
 30
0.0
 11
5.0
 21
5.0
 31
0.0
  0
LINE
  5
7B
330
74
100
AcDbEntity
  8
0
  6
Continuous
 62
     7
370
    18
100
AcDbLine
 10
5.0
 20
5.0
 30
0.0
 11
-5.0
 21
5.0
 31
0.0
  0
LINE
  5
7C
330
74
100
AcDbEntity
  8
0
  6
Continuous
 62
     7
370
    18
100
AcDbLine
 10
-5.0
 20
5.0
 30
0.0
 11
-5.0
 21
7.5
 31
0.0
  0
LINE
  5
7D
330
74
100
AcDbEntity
  8
0
  6
Continuous
 62
     7
370
    18
100
AcDbLine
 10
-5.0
 20
7.5
 30
0.0
 11
-10.958767963
 21
2.5
 31
0.0
  0
INSERT
  5
83
330
74
100
AcDbEntity
  8
0
  6
Continuous
 62
     7
370
    18
100
AcDbBlockReference
  2
SW_NOTE_0
 10
-7.5124503659
 20
-0.180906557
 30
0.0
  0
ENDBLK
  5
76
330
74
100
AcDbEntity
  8
0
100
AcDbBlockEnd
  0
BLOCK
  5
7F
330
7E
100
AcDbEntity
  8
0
100
AcDbBlockBegin
  2
SW_NOTE_0
 70
     0
 10
0.0
 20
0.0
 30
0.0
  3
SW_NOTE_0
  1

  0
MTEXT
  5
82
330
7E
100
AcDbEntity
  8
0
  6
Continuous
 62
     0
370
    18
100
AcDbMText
 10
0.0
 20
4.7749217527
 30
0.0
 40
3.7041666667
 41
0.0
 71
     1
 72
     1
  1
ODA
  7
SLDTEXTSTYLE0
 73
     1
 44
1.0
  0
ENDBLK
  5
80
330
7E
100
AcDbEntity
  8
0
100
AcDbBlockEnd
  0
BLOCK
  5
85
330
84
100
AcDbEntity
  8
0
100
AcDbBlockBegin
  2
SUP_2_
 70
     0
 10
0.0
 20
0.0
 30
0.0
  3
SUP_2_
  1

  0
LINE
  5
87
330
84
100
AcDbEntity
  8
0
  6
Continuous
 62
     7
370
    18
100
AcDbLine
 10
-10.958767963
 20
2.5
 30
0.0
 11
-5.0
 21
-2.5
 31
0.0
  0
LINE
  5
88
330
84
100
AcDbEntity
  8
0
  6
Continuous
 62
     7
370
    18
100
AcDbLine
 10
-5.0
 20
-2.5
 30
0.0
 11
-5.0
 21
0.0
 31
0.0
  0
LINE
  5
89
330
84
100
AcDbEntity
  8
0
  6
Continuous
 62
     7
370
    18
100
AcDbLine
 10
-5.0
 20
0.0
 30
0.0
 11
5.0
 21
0.0
 31
0.0
  0
LINE
  5
8A
330
84
100
AcDbEntity
  8
0
  6
Continuous
 62
     7
370
    18
100
AcDbLine
 10
5.0
 20
0.0
 30
0.0
 11
5.0
 21
5.0
 31
0.0
  0
LINE
  5
8B
330
84
100
AcDbEntity
  8
0
  6
Continuous
 62
     7
370
    18
100
AcDbLine
 10
5.0
 20
5.0
 30
0.0
 11
-5.0
 21
5.0
 31
0.0
  0
LINE
  5
8C
330
84
100
AcDbEntity
  8
0
  6
Continuous
 62
     7
370
    18
100
AcDbLine
 10
-5.0
 20
5.0
 30
0.0
 11
-5.0
 21
7.5
 31
0.0
  0
LINE
  5
8D
330
84
100
AcDbEntity
  8
0
  6
Continuous
 62
     7
370
    18
100
AcDbLine
 10
-5.0
 20
7.5
 30
0.0
 11
-10.958767963
 21
2.5
 31
0.0
  0
INSERT
  5
92
330
84
100
AcDbEntity
  8
0
  6
Continuous
 62
     7
370
    18
100
AcDbBlockReference
  2
SW_NOTE_0_1
 10
-7.3511146643
 20
-0.194193237
 30
0.0
  0
ENDBLK
  5
86
330
84
100
AcDbEntity
  8
0
100
AcDbBlockEnd
  0
BLOCK
  5
8F
330
8E
100
AcDbEntity
  8
0
100
AcDbBlockBegin
  2
SW_NOTE_0_1
 70
     0
 10
0.0
 20
0.0
 30
0.0
  3
SW_NOTE_0_1
  1

  0
MTEXT
  5
91
330
8E
100
AcDbEntity
  8
0
  6
Continuous
 62
     0
370
    18
100
AcDbMText
 10
0.0
 20
4.7749217527
 30
0.0
 40
3.7041666667
 41
0.0
 71
     1
 72
     1
  1
SUP
  7
SLDTEXTSTYLE0
 73
     1
 44
1.0
  0
ENDBLK
  5
90
330
8E
100
AcDbEntity
  8
0
100
AcDbBlockEnd
  0
BLOCK
  5
94
330
93
100
AcDbEntity
  8
0
100
AcDbBlockBegin
  2
Block11_2
 70
     0
 10
0.0
 20
0.0
 30
0.0
  3
Block11_2
  1

  0
LINE
  5
96
330
93
100
AcDbEntity
  8
0
  6
Continuous
100
AcDbLine
 10
-15.7956326374
 20
2.3055746011
 30
0.0
 11
-18.0649288667
 21
1.8146036087
 31
0.0
  0
LINE
  5
97
330
93
100
AcDbEntity
  8
0
  6
Continuous
100
AcDbLine
 10
-15.6988785554
 20
-9.1195335787
 30
0.0
 11
-10.2261014967
 21
-7.9354771524
 31
0.0
  0
LINE
  5
98
330
93
100
AcDbEntity
  8
0
  6
Continuous
100
AcDbLine
 10
-10.2261014967
 20
-7.9354771524
 30
0.0
 11
-10.6655808869
 21
-5.9041780766
 31
0.0
  0
LINE
  5
99
330
93
100
AcDbEntity
  8
0
  6
Continuous
100
AcDbLine
 10
-10.6655808869
 20
-5.9041780766
 30
0.0
 11
-13.8699456036
 21
-6.5974547429
 31
0.0
  0
LINE
  5
9A
330
93
100
AcDbEntity
  8
0
  6
Continuous
100
AcDbLine
 10
-8.296070931
 20
1.802048972
 30
0.0
 11
-6.9198111955
 21
2.0998080743
 31
0.0
  0
LINE
  5
9B
330
93
100
AcDbEntity
  8
0
  6
Continuous
100
AcDbLine
 10
-5.4333831358
 20
-4.7719736412
 30
0.0
 11
-6.8095376466
 21
-5.0697099777
 31
0.0
  0
LINE
  5
9C
330
93
100
AcDbEntity
  8
0
  6
Continuous
100
AcDbLine
 10
-11.0044904538
 20
3.3421566929
 30
0.0
 11
-8.6388294738
 21
-7.5920647278
 31
0.0
  0
LINE
  5
9D
330
93
100
AcDbEntity
  8
0
  6
Continuous
100
AcDbLine
 10
-8.6388294738
 20
-7.5920647278
 30
0.0
 11
-8.6384401425
 21
-7.5919804944
 31
0.0
  0
LINE
  5
9E
330
93
100
AcDbEntity
  8
0
  6
Continuous
100
AcDbLine
 10
-8.6384401425
 20
-7.5919804944
 30
0.0
 11
-4.4940245505
 21
-6.6953201952
 31
0.0
  0
LINE
  5
9F
330
93
100
AcDbEntity
  8
0
  6
Continuous
100
AcDbLine
 10
-6.8595855671
 20
4.238922853
 30
0.0
 11
-11.0044904538
 21
3.3421566929
 31
0.0
  0
LINE
  5
A0
330
93
100
AcDbEntity
  8
0
  6
Continuous
100
AcDbLine
 10
-32.9933593229
 20
-3.3005605139
 30
0.0
 11
-32.8591663041
 21
-3.2715273367
 31
0.0
  0
LINE
  5
A1
330
93
100
AcDbEntity
  8
0
  6
Continuous
100
AcDbLine
 10
-31.5697721187
 20
-3.9678201523
 30
0.0
 11
-29.2969561243
 21
-3.4760876451
 31
0.0
  0
LINE
  5
A2
330
93
100
AcDbEntity
  8
0
  6
Continuous
100
AcDbLine
 10
-33.2794920496
 20
-1.2667721217
 30
0.0
 11
-33.3448839193
 21
-1.2809199049
 31
0.0
  0
LINE
  5
A3
330
93
100
AcDbEntity
  8
0
  6
Continuous
100
AcDbLine
 10
-31.3289079349
 20
-10.5856399919
 30
0.0
 11
-31.4650581325
 21
-10.6150966123
 31
0.0
  0
LINE
  5
A4
330
93
100
AcDbEntity
  8
0
  6
Continuous
100
AcDbLine
 10
-32.8822392925
 20
-9.9377601564
 30
0.0
 11
-35.1888692339
 21
-10.4368084414
 31
0.0
  0
LINE
  5
A5
330
93
100
AcDbEntity
  8
0
  6
Continuous
100
AcDbLine
 10
-31.5949683304
 20
-12.7295787952
 30
0.0
 11
-30.2063920476
 21
-12.4291549603
 31
0.0
  0
LINE
  5
A6
330
93
100
AcDbEntity
  8
0
  6
Continuous
100
AcDbLine
 10
6.262509235
 20
-4.3681026205
 30
0.0
 11
8.6370616994
 21
-3.8543590356
 31
0.0
  0
LINE
  5
A7
330
93
100
AcDbEntity
  8
0
  6
Continuous
100
AcDbLine
 10
8.6370616994
 20
-3.8543590356
 30
0.0
 11
3.9059396663
 21
6.5680857621
 31
0.0
  0
LINE
  5
A8
330
93
100
AcDbEntity
  8
0
  6
Continuous
100
AcDbLine
 10
3.9059396663
 20
6.5680857621
 30
0.0
 11
0.0
 21
5.7230206493
 31
0.0
  0
LINE
  5
A9
330
93
100
AcDbEntity
  8
0
  6
Continuous
100
AcDbLine
 10
0.0
 20
5.7230206493
 30
0.0
 11
0.0
 21
-5.7230206493
 31
0.0
  0
LINE
  5
AA
330
93
100
AcDbEntity
  8
0
  6
Continuous
100
AcDbLine
 10
0.0
 20
-5.7230206493
 30
0.0
 11
2.3746576891
 21
-5.2092542987
 31
0.0
  0
LINE
  5
AB
330
93
100
AcDbEntity
  8
0
  6
Continuous
100
AcDbLine
 10
2.3746576891
 20
-5.2092542987
 30
0.0
 11
2.3747844598
 21
-3.0912381741
 31
0.0
  0
LINE
  5
AC
330
93
100
AcDbEntity
  8
0
  6
Continuous
100
AcDbLine
 10
2.3747844598
 20
-3.0912381741
 30
0.0
 11
4.0318309599
 21
-2.7327297722
 31
0.0
  0
LINE
  5
AD
330
93
100
AcDbEntity
  8
0
  6
Continuous
100
AcDbLine
 10
4.0318309599
 20
-2.7327297722
 30
0.0
 11
3.5923515697
 21
-0.7014306964
 31
0.0
  0
LINE
  5
AE
330
93
100
AcDbEntity
  8
0
  6
Continuous
100
AcDbLine
 10
3.5923515697
 20
-0.7014306964
 30
0.0
 11
2.3750284336
 21
-0.9648032524
 31
0.0
  0
LINE
  5
AF
330
93
100
AcDbEntity
  8
0
  6
Continuous
100
AcDbLine
 10
2.3750284336
 20
-0.9648032524
 30
0.0
 11
2.3752084601
 21
4.1936873712
 31
0.0
  0
LINE
  5
B0
330
93
100
AcDbEntity
  8
0
  6
Continuous
100
AcDbLine
 10
2.3752084601
 20
4.1936873712
 30
0.0
 11
6.262509235
 21
-4.3681026205
 31
0.0
  0
LINE
  5
B1
330
93
100
AcDbEntity
  8
0
  6
Continuous
100
AcDbLine
 10
-53.0629352118
 20
-11.4801779454
 30
0.0
 11
-50.7945341276
 21
-8.0228043203
 31
0.0
  0
LINE
  5
B2
330
93
100
AcDbEntity
  8
0
  6
Continuous
100
AcDbLine
 10
-50.7945341276
 20
-8.0228043203
 30
0.0
 11
-54.2891069366
 21
-5.8122833411
 31
0.0
  0
LINE
  5
B3
330
93
100
AcDbEntity
  8
0
  6
Continuous
100
AcDbLine
 10
-54.2891069366
 20
-5.8122833411
 30
0.0
 11
-51.4073820962
 21
-5.1888110564
 31
0.0
  0
LINE
  5
B4
330
93
100
AcDbEntity
  8
0
  6
Continuous
100
AcDbLine
 10
-51.4073820962
 20
-5.1888110564
 30
0.0
 11
-47.9127327975
 21
-7.3992273667
 31
0.0
  0
LINE
  5
B5
330
93
100
AcDbEntity
  8
0
  6
Continuous
100
AcDbLine
 10
-47.9127327975
 20
-7.3992273667
 30
0.0
 11
-50.1813587974
 21
-10.8569360435
 31
0.0
  0
LINE
  5
B6
330
93
100
AcDbEntity
  8
0
  6
Continuous
100
AcDbLine
 10
-50.1813587974
 20
-10.8569360435
 30
0.0
 11
-53.0628942334
 21
-11.4803673498
 31
0.0
  0
LINE
  5
B7
330
93
100
AcDbEntity
  8
0
  6
Continuous
100
AcDbLine
 10
-53.0628942334
 20
-11.4803673498
 30
0.0
 11
-53.0629352118
 21
-11.4801779454
 31
0.0
  0
LINE
  5
B8
330
93
100
AcDbEntity
  8
0
  6
Continuous
100
AcDbLine
 10
-42.7624916815
 20
-3.31845567
 30
0.0
 11
-45.0307950789
 21
-6.7757971452
 31
0.0
  0
LINE
  5
B9
330
93
100
AcDbEntity
  8
0
  6
Continuous
100
AcDbLine
 10
-45.0307950789
 20
-6.7757971452
 30
0.0
 11
-48.5254573289
 21
-4.5652955168
 31
0.0
  0
LINE
  5
BA
330
93
100
AcDbEntity
  8
0
  6
Continuous
100
AcDbLine
 10
-48.5254573289
 20
-4.5652955168
 30
0.0
 11
-48.5257466967
 21
-4.5653581227
 31
0.0
  0
LINE
  5
BB
330
93
100
AcDbEntity
  8
0
  6
Continuous
100
AcDbLine
 10
-48.5257466967
 20
-4.5653581227
 30
0.0
 11
-47.9126146215
 21
-7.399289919
 31
0.0
  0
LINE
  5
BC
330
93
100
AcDbEntity
  8
0
  6
Continuous
100
AcDbLine
 10
-47.9126146215
 20
-7.399289919
 30
0.0
 11
-44.4177372167
 21
-9.6098441329
 31
0.0
  0
LINE
  5
BD
330
93
100
AcDbEntity
  8
0
  6
Continuous
100
AcDbLine
 10
-44.4177372167
 20
-9.6098441329
 30
0.0
 11
-42.1490649772
 21
-6.1523237222
 31
0.0
  0
LINE
  5
BE
330
93
100
AcDbEntity
  8
0
  6
Continuous
100
AcDbLine
 10
-42.1490649772
 20
-6.1523237222
 30
0.0
 11
-42.7621970524
 21
-3.3183919259
 31
0.0
  0
LINE
  5
BF
330
93
100
AcDbEntity
  8
0
  6
Continuous
100
AcDbLine
 10
-42.7621970524
 20
-3.3183919259
 30
0.0
 11
-42.7624916815
 21
-3.31845567
 31
0.0
  0
LINE
  5
C0
330
93
100
AcDbEntity
  8
0
  6
Continuous
100
AcDbLine
 10
-41.535889647
 20
-8.9864554454
 30
0.0
 11
-43.8045413973
 21
-12.4440705583
 31
0.0
  0
LINE
  5
C1
330
93
100
AcDbEntity
  8
0
  6
Continuous
100
AcDbLine
 10
-43.8045413973
 20
-12.4440705583
 30
0.0
 11
-40.3564529382
 21
-14.625159785
 31
0.0
  0
LINE
  5
C2
330
93
100
AcDbEntity
  8
0
  6
Continuous
100
AcDbLine
 10
-40.3564529382
 20
-14.625159785
 30
0.0
 11
-43.2382724808
 21
-15.2486525588
 31
0.0
  0
LINE
  5
C3
330
93
100
AcDbEntity
  8
0
  6
Continuous
100
AcDbLine
 10
-43.2382724808
 20
-15.2486525588
 30
0.0
 11
-46.686243472
 21
-13.0676480676
 31
0.0
  0
LINE
  5
C4
330
93
100
AcDbEntity
  8
0
  6
Continuous
100
AcDbLine
 10
-46.686243472
 20
-13.0676480676
 30
0.0
 11
-44.4177144509
 21
-9.6099493576
 31
0.0
  0
LINE
  5
C5
330
93
100
AcDbEntity
  8
0
  6
Continuous
100
AcDbLine
 10
-44.4177144509
 20
-9.6099493576
 30
0.0
 11
-41.535889647
 21
-8.9864554454
 31
0.0
  0
LINE
  5
C6
330
93
100
AcDbEntity
  8
0
  6
Continuous
100
AcDbLine
 10
-51.8063383656
 20
-17.1023866618
 30
0.0
 11
-49.5681857438
 21
-13.6910572443
 31
0.0
  0
LINE
  5
C7
330
93
100
AcDbEntity
  8
0
  6
Continuous
100
AcDbLine
 10
-49.5681857438
 20
-13.6910572443
 30
0.0
 11
-46.1199973213
 21
-15.8721248435
 31
0.0
  0
LINE
  5
C8
330
93
100
AcDbEntity
  8
0
  6
Continuous
100
AcDbLine
 10
-46.1199973213
 20
-15.8721248435
 30
0.0
 11
-46.0813956519
 21
-15.8637732234
 31
0.0
  0
LINE
  5
C9
330
93
100
AcDbEntity
  8
0
  6
Continuous
100
AcDbLine
 10
-46.0813956519
 20
-15.8637732234
 30
0.0
 11
-46.6863662012
 21
-13.0675644704
 31
0.0
  0
LINE
  5
CA
330
93
100
AcDbEntity
  8
0
  6
Continuous
100
AcDbLine
 10
-46.6863662012
 20
-13.0675644704
 30
0.0
 11
-50.1813587974
 21
-10.8569360435
 31
0.0
  0
LINE
  5
CB
330
93
100
AcDbEntity
  8
0
  6
Continuous
100
AcDbLine
 10
-50.1813587974
 20
-10.8569360435
 30
0.0
 11
-52.4497621582
 21
-14.3142991462
 31
0.0
  0
LINE
  5
CC
330
93
100
AcDbEntity
  8
0
  6
Continuous
100
AcDbLine
 10
-52.4497621582
 20
-14.3142991462
 30
0.0
 11
-51.8447506306
 21
-17.1106973035
 31
0.0
  0
LINE
  5
CD
330
93
100
AcDbEntity
  8
0
  6
Continuous
100
AcDbLine
 10
-51.8447506306
 20
-17.1106973035
 30
0.0
 11
-51.8063383656
 21
-17.1023866618
 31
0.0
  0
LINE
  5
CE
330
93
100
AcDbEntity
  8
0
  6
Continuous
100
AcDbLine
 10
-20.0432683672
 20
-10.0594590717
 30
0.0
 11
-17.6687053803
 21
-9.5457132103
 31
0.0
  0
LINE
  5
CF
330
93
100
AcDbEntity
  8
0
  6
Continuous
100
AcDbLine
 10
-17.6687053803
 20
-9.5457132103
 30
0.0
 11
-22.3998379359
 21
0.8767293109
 31
0.0
  0
LINE
  5
D0
330
93
100
AcDbEntity
  8
0
  6
Continuous
100
AcDbLine
 10
-22.3998379359
 20
0.8767293109
 30
0.0
 11
-26.3058670432
 21
0.0316448472
 31
0.0
  0
LINE
  5
D1
330
93
100
AcDbEntity
  8
0
  6
Continuous
100
AcDbLine
 10
-26.3058670432
 20
0.0316448472
 30
0.0
 11
-26.3056723775
 21
-11.4143543348
 31
0.0
  0
LINE
  5
D2
330
93
100
AcDbEntity
  8
0
  6
Continuous
100
AcDbLine
 10
-26.3056723775
 20
-11.4143543348
 30
0.0
 11
-23.9311146519
 21
-10.9006096116
 31
0.0
  0
LINE
  5
D3
330
93
100
AcDbEntity
  8
0
  6
Continuous
100
AcDbLine
 10
-23.9311146519
 20
-10.9006096116
 30
0.0
 11
-23.9309931424
 21
-8.7825946253
 31
0.0
  0
LINE
  5
D4
330
93
100
AcDbEntity
  8
0
  6
Continuous
100
AcDbLine
 10
-23.9309931424
 20
-8.7825946253
 30
0.0
 11
-22.2738308951
 21
-8.4240611811
 31
0.0
  0
LINE
  5
D5
330
93
100
AcDbEntity
  8
0
  6
Continuous
100
AcDbLine
 10
-22.2738308951
 20
-8.4240611811
 30
0.0
 11
-22.7133102854
 21
-6.3927621053
 31
0.0
  0
LINE
  5
D6
330
93
100
AcDbEntity
  8
0
  6
Continuous
100
AcDbLine
 10
-22.7133102854
 20
-6.3927621053
 30
0.0
 11
-23.9308333483
 21
-6.6561779162
 31
0.0
  0
LINE
  5
D7
330
93
100
AcDbEntity
  8
0
  6
Continuous
100
AcDbLine
 10
-23.9308333483
 20
-6.6561779162
 30
0.0
 11
-23.9305586196
 21
-1.4976668035
 31
0.0
  0
LINE
  5
D8
330
93
100
AcDbEntity
  8
0
  6
Continuous
100
AcDbLine
 10
-23.9305586196
 20
-1.4976668035
 30
0.0
 11
-20.0432683672
 21
-10.0594590717
 31
0.0
  0
SPLINE
  5
D9
330
93
100
AcDbEntity
  8
0
100
AcDbSpline
210
0.0
220
0.0
230
1.0
 70
     8
 71
     3
 72
     8
 73
     4
 74
     0
 42
0.00000001
 43
0.00000001
 40
0.0
 40
0.0
 40
0.0
 40
0.0
 40
1.0
 40
1.0
 40
1.0
 40
1.0
 10
-13.86994560355125
 20
-6.597454742918429
 30
0.0
 10
-13.88373254946556
 20
-6.53373068413859
 30
0.0
 10
-15.11365515797402
 20
-0.8489574873494021
 30
0.0
 10
-15.79563263740206
 20
2.305574601061459
 30
0.0
  0
SPLINE
  5
DA
330
93
100
AcDbEntity
  8
0
100
AcDbSpline
210
0.0
220
0.0
230
1.0
 70
     8
 71
     3
 72
     8
 73
     4
 74
     0
 42
0.00000001
 43
0.00000001
 40
2.0
 40
2.0
 40
2.0
 40
2.0
 40
3.0
 40
3.0
 40
3.0
 40
3.0
 10
-18.06492886668426
 20
1.814603608696524
 30
0.0
 10
-17.24003965005502
 20
-1.995739949107536
 30
0.0
 10
-15.71186186991051
 20
-9.059523950669432
 30
0.0
 10
-15.69887855542093
 20
-9.119533578677906
 30
0.0
  0
SPLINE
  5
DB
330
93
100
AcDbEntity
  8
0
100
AcDbSpline
210
0.0
220
0.0
230
1.0
 70
     8
 71
     3
 72
     8
 73
     4
 74
     0
 42
0.00000001
 43
0.00000001
 40
0.0
 40
0.0
 40
0.0
 40
0.0
 40
1.0
 40
1.0
 40
1.0
 40
1.0
 10
-6.809537646582547
 20
-5.069709977697404
 30
0.0
 10
-7.284290309572815
 20
-2.875375801708635
 30
0.0
 10
-7.897830097865885
 20
-0.0390758678013329
 30
0.0
 10
-8.296070930952649
 20
1.80204897196991
 30
0.0
  0
SPLINE
  5
DC
330
93
100
AcDbEntity
  8
0
100
AcDbSpline
210
0.0
220
0.0
230
1.0
 70
     8
 71
     3
 72
     8
 73
     4
 74
     0
 42
0.00000001
 43
0.00000001
 40
2.0
 40
2.0
 40
2.0
 40
2.0
 40
3.0
 40
3.0
 40
3.0
 40
3.0
 10
-6.919811195494074
 20
2.099808074263809
 30
0.0
 10
-6.228016878711183
 20
2.249480443098069
 30
0.0
 10
-5.547633595833446
 20
1.815851349115847
 30
0.0
 10
-5.399398884916104
 20
1.130701970100344
 30
0.0
  0
SPLINE
  5
DD
330
93
100
AcDbEntity
  8
0
100
AcDbSpline
210
0.0
220
0.0
230
1.0
 70
     8
 71
     3
 72
     8
 73
     4
 74
     0
 42
0.00000001
 43
0.00000001
 40
3.0
 40
3.0
 40
3.0
 40
3.0
 40
4.0
 40
4.0
 40
4.0
 40
4.0
 10
-5.399398884916104
 20
1.130701970100344
 30
0.0
 10
-5.107009087764085
 20
-0.2207405274728672
 30
0.0
 10
-4.711497421058354
 20
-2.048334586467611
 30
0.0
 10
-4.449160707297047
 20
-3.260870000165379
 30
0.0
  0
SPLINE
  5
DE
330
93
100
AcDbEntity
  8
0
100
AcDbSpline
210
0.0
220
0.0
230
1.0
 70
     8
 71
     3
 72
     8
 73
     4
 74
     0
 42
0.00000001
 43
0.00000001
 40
4.0
 40
4.0
 40
4.0
 40
4.0
 40
5.0
 40
5.0
 40
5.0
 40
5.0
 10
-4.449160707297047
 20
-3.260870000165379
 30
0.0
 10
-4.300905507193207
 20
-3.946114081381999
 30
0.0
 10
-4.741570606399121
 20
-4.622385452066122
 30
0.0
 10
-5.433383135791953
 20
-4.771973641166296
 30
0.0
  0
SPLINE
  5
DF
330
93
100
AcDbEntity
  8
0
100
AcDbSpline
210
0.0
220
0.0
230
1.0
 70
     8
 71
     3
 72
     8
 73
     4
 74
     0
 42
0.00000001
 43
0.00000001
 40
3.0
 40
3.0
 40
3.0
 40
3.0
 40
4.0
 40
4.0
 40
4.0
 40
4.0
 10
-4.494024550545999
 20
-6.695320195210662
 30
0.0
 10
-2.825524345390513
 20
-6.334333740063992
 30
0.0
 10
-1.762658323115034
 20
-4.702068307882374
 30
0.0
 10
-2.120071189640999
 20
-3.049576315093403
 30
0.0
  0
SPLINE
  5
E0
330
93
100
AcDbEntity
  8
0
100
AcDbSpline
210
0.0
220
0.0
230
1.0
 70
     8
 71
     3
 72
     8
 73
     4
 74
     0
 42
0.00000001
 43
0.00000001
 40
4.0
 40
4.0
 40
4.0
 40
4.0
 40
5.0
 40
5.0
 40
5.0
 40
5.0
 10
-2.120071189640999
 20
-3.049576315093403
 30
0.0
 10
-2.485983017556096
 20
-1.358310753073632
 30
0.0
 10
-2.867352798370483
 20
0.4044023583376265
 30
0.0
 10
-3.190995488197396
 20
1.900704823656681
 30
0.0
  0
SPLINE
  5
E1
330
93
100
AcDbEntity
  8
0
100
AcDbSpline
210
0.0
220
0.0
230
1.0
 70
     8
 71
     3
 72
     8
 73
     4
 74
     0
 42
0.00000001
 43
0.00000001
 40
5.0
 40
5.0
 40
5.0
 40
5.0
 40
6.0
 40
6.0
 40
6.0
 40
6.0
 10
-3.190995488197396
 20
1.900704823656681
 30
0.0
 10
-3.54857504695031
 20
3.553458157285876
 30
0.0
 10
-5.190901218780231
 20
4.599949148191988
 30
0.0
 10
-6.859585567104196
 20
4.238922852960538
 30
0.0
  0
SPLINE
  5
E2
330
93
100
AcDbEntity
  8
0
100
AcDbSpline
210
0.0
220
0.0
230
1.0
 70
     8
 71
     3
 72
     8
 73
     4
 74
     0
 42
0.00000001
 43
0.00000001
 40
0.0
 40
0.0
 40
0.0
 40
0.0
 40
1.0
 40
1.0
 40
1.0
 40
1.0
 10
-30.23703582864644
 20
-6.251438951366732
 30
0.0
 10
-30.9104300186728
 20
-6.015603382360459
 30
0.0
 10
-31.40848551125485
 20
-5.893156856121871
 30
0.0
 10
-32.67210357750635
 20
-5.496689523479785
 30
0.0
  0
SPLINE
  5
E3
330
93
100
AcDbEntity
  8
0
100
AcDbSpline
210
0.0
220
0.0
230
1.0
 70
     8
 71
     3
 72
     8
 73
     4
 74
     0
 42
0.00000001
 43
0.00000001
 40
1.0
 40
1.0
 40
1.0
 40
1.0
 40
2.0
 40
2.0
 40
2.0
 40
2.0
 10
-32.67210357750635
 20
-5.496689523479785
 30
0.0
 10
-33.03332194555517
 20
-5.383421617718132
 30
0.0
 10
-33.81210282496122
 20
-5.206692347750555
 30
0.0
 10
-33.94849250952588
 20
-4.576291363356936
 30
0.0
  0
SPLINE
  5
E4
330
93
100
AcDbEntity
  8
0
100
AcDbSpline
210
0.0
220
0.0
230
1.0
 70
     8
 71
     3
 72
     8
 73
     4
 74
     0
 42
0.00000001
 43
0.00000001
 40
2.0
 40
2.0
 40
2.0
 40
2.0
 40
3.0
 40
3.0
 40
3.0
 40
3.0
 10
-33.94849250952588
 20
-4.576291363356936
 30
0.0
 10
-34.11622381965225
 20
-3.801027578894063
 30
0.0
 10
-33.67528356585564
 20
-3.448097454184924
 30
0.0
 10
-32.99335932290604
 20
-3.30056051389548
 30
0.0
  0
SPLINE
  5
E5
330
93
100
AcDbEntity
  8
0
100
AcDbSpline
210
0.0
220
0.0
230
1.0
 70
     8
 71
     3
 72
     8
 73
     4
 74
     0
 42
0.00000001
 43
0.00000001
 40
4.0
 40
4.0
 40
4.0
 40
4.0
 40
5.0
 40
5.0
 40
5.0
 40
5.0
 10
-32.85916630414497
 20
-3.271527336675416
 30
0.0
 10
-32.2786944245911
 20
-3.14594000653005
 30
0.0
 10
-31.77109773641243
 20
-3.328116480283148
 30
0.0
 10
-31.56977211870437
 20
-3.967820152272103
 30
0.0
  0
SPLINE
  5
E6
330
93
100
AcDbEntity
  8
0
100
AcDbSpline
210
0.0
220
0.0
230
1.0
 70
     8
 71
     3
 72
     8
 73
     4
 74
     0
 42
0.00000001
 43
0.00000001
 40
6.0
 40
6.0
 40
6.0
 40
6.0
 40
7.0
 40
7.0
 40
7.0
 40
7.0
 10
-29.29695612428625
 20
-3.476087645143529
 30
0.0
 10
-29.68810071971012
 20
-1.866802583842748
 30
0.0
 10
-30.87776107222441
 20
-0.7599478056671497
 30
0.0
 10
-33.27949204955325
 20
-1.266772121690862
 30
0.0
  0
SPLINE
  5
E7
330
93
100
AcDbEntity
  8
0
100
AcDbSpline
210
0.0
220
0.0
230
1.0
 70
     8
 71
     3
 72
     8
 73
     4
 74
     0
 42
0.00000001
 43
0.00000001
 40
8.0
 40
8.0
 40
8.0
 40
8.0
 40
9.0
 40
9.0
 40
9.0
 40
9.0
 10
-33.34488391931659
 20
-1.280919904944554
 30
0.0
 10
-35.81152992452102
 20
-1.828202838410209
 30
0.0
 10
-36.33378487826545
 20
-3.54465012997844
 30
0.0
 10
-36.09207577942843
 20
-4.962606301827474
 30
0.0
  0
SPLINE
  5
E8
330
93
100
AcDbEntity
  8
0
100
AcDbSpline
210
0.0
220
0.0
230
1.0
 70
     8
 71
     3
 72
     8
 73
     4
 74
     0
 42
0.00000001
 43
0.00000001
 40
9.0
 40
9.0
 40
9.0
 40
9.0
 40
10.0
 40
10.0
 40
10.0
 40
10.0
 10
-36.09207577942843
 20
-4.962606301827474
 30
0.0
 10
-35.83736690020325
 20
-6.457652824126185
 30
0.0
 10
-34.96800490008025
 20
-7.196828812263726
 30
0.0
 10
-33.99931718292642
 20
-7.502708028683521
 30
0.0
  0
SPLINE
  5
E9
330
93
100
AcDbEntity
  8
0
100
AcDbSpline
210
0.0
220
0.0
230
1.0
 70
     8
 71
     3
 72
     8
 73
     4
 74
     0
 42
0.00000001
 43
0.00000001
 40
10.0
 40
10.0
 40
10.0
 40
10.0
 40
11.0
 40
11.0
 40
11.0
 40
11.0
 10
-33.99931718292642
 20
-7.502708028683521
 30
0.0
 10
-33.40907414696034
 20
-7.689011641945549
 30
0.0
 10
-32.48616403135102
 20
-7.975318844696811
 30
0.0
 10
-31.47547483016511
 20
-8.271505052332133
 30
0.0
  0
SPLINE
  5
EA
330
93
100
AcDbEntity
  8
0
100
AcDbSpline
210
0.0
220
0.0
230
1.0
 70
     8
 71
     3
 72
     8
 73
     4
 74
     0
 42
0.00000001
 43
0.00000001
 40
11.0
 40
11.0
 40
11.0
 40
11.0
 40
12.0
 40
12.0
 40
12.0
 40
12.0
 10
-31.47547483016511
 20
-8.271505052332133
 30
0.0
 10
-31.11213516930565
 20
-8.377980375833697
 30
0.0
 10
-30.40258052645035
 20
-8.55729511966404
 30
0.0
 10
-30.28870163819746
 20
-9.336631754491275
 30
0.0
  0
SPLINE
  5
EB
330
93
100
AcDbEntity
  8
0
100
AcDbSpline
210
0.0
220
0.0
230
1.0
 70
     8
 71
     3
 72
     8
 73
     4
 74
     0
 42
0.00000001
 43
0.00000001
 40
12.0
 40
12.0
 40
12.0
 40
12.0
 40
13.0
 40
13.0
 40
13.0
 40
13.0
 10
-30.28870163819746
 20
-9.336631754491275
 30
0.0
 10
-30.1883718252622
 20
-10.02498578462436
 30
0.0
 10
-30.64014408852681
 20
-10.43662327702193
 30
0.0
 10
-31.32890793487913
 20
-10.58563999188937
 30
0.0
  0
SPLINE
  5
EC
330
93
100
AcDbEntity
  8
0
100
AcDbSpline
210
0.0
220
0.0
230
1.0
 70
     8
 71
     3
 72
     8
 73
     4
 74
     0
 42
0.00000001
 43
0.00000001
 40
14.0
 40
14.0
 40
14.0
 40
14.0
 40
15.0
 40
15.0
 40
15.0
 40
15.0
 10
-31.46505813246006
 20
-10.61509661229636
 30
0.0
 10
-32.05208024758041
 20
-10.74210111117219
 30
0.0
 10
-32.71260096537058
 20
-10.55064660173623
 30
0.0
 10
-32.8822392924921
 20
-9.937760156430087
 30
0.0
  0
SPLINE
  5
ED
330
93
100
AcDbEntity
  8
0
100
AcDbSpline
210
0.0
220
0.0
230
1.0
 70
     8
 71
     3
 72
     8
 73
     4
 74
     0
 42
0.00000001
 43
0.00000001
 40
16.0
 40
16.0
 40
16.0
 40
16.0
 40
17.0
 40
17.0
 40
17.0
 40
17.0
 10
-35.1888692338865
 20
-10.43680844141459
 30
0.0
 10
-34.81471685749703
 20
-11.8843133271045
 30
0.0
 10
-33.72975075395794
 20
-12.95131992706823
 30
0.0
 10
-31.59496833044066
 20
-12.72957879515504
 30
0.0
  0
SPLINE
  5
EE
330
93
100
AcDbEntity
  8
0
100
AcDbSpline
210
0.0
220
0.0
230
1.0
 70
     8
 71
     3
 72
     8
 73
     4
 74
     0
 42
0.00000001
 43
0.00000001
 40
18.0
 40
18.0
 40
18.0
 40
18.0
 40
19.0
 40
19.0
 40
19.0
 40
19.0
 10
-30.20639204762402
 20
-12.42915496033268
 30
0.0
 10
-28.36320980349184
 20
-11.79454394754582
 30
0.0
 10
-27.78707037380765
 20
-10.41512978795686
 30
0.0
 10
-27.91988511866083
 20
-9.073464993912006
 30
0.0
  0
SPLINE
  5
EF
330
93
100
AcDbEntity
  8
0
100
AcDbSpline
210
0.0
220
0.0
230
1.0
 70
     8
 71
     3
 72
     8
 73
     4
 74
     0
 42
0.00000001
 43
0.00000001
 40
19.0
 40
19.0
 40
19.0
 40
19.0
 40
20.0
 40
20.0
 40
20.0
 40
20.0
 10
-27.91988511866083
 20
-9.073464993912006
 30
0.0
 10
-28.12563217330358
 20
-6.994152508733083
 30
0.0
 10
-29.51271678483619
 20
-6.50510505043454
 30
0.0
 10
-30.23703582864644
 20
-6.251438951366732
 30
0.0
  0
HATCH
  5
F0
330
93
100
AcDbEntity
  8
0
100
AcDbHatch
 10
0.0
 20
0.0
 30
0.0
210
0.0
220
0.0
230
1.0
  2
SOLID
 70
     1
 71
     0
 91
        1
 92
        0
 93
        7
 72
     1
 10
-53.06293521179145
 20
-11.48017794540906
 11
-53.0628942334185
 21
-11.48036734981106
 72
     1
 10
-53.0628942334185
 20
-11.48036734981106
 11
-50.18135879739363
 21
-10.85693604353014
 72
     1
 10
-50.18135879739363
 20
-10.85693604353014
 11
-47.91273279754322
 21
-7.399227366744369
 72
     1
 10
-47.91273279754322
 20
-7.399227366744369
 11
-51.40738209617635
 21
-5.188811056417426
 72
     1
 10
-51.40738209617635
 20
-5.188811056417426
 11
-54.28910693660305
 21
-5.812283341071309
 72
     1
 10
-54.28910693660305
 20
-5.812283341071309
 11
-50.79453412756107
 21
-8.022804320319173
 72
     1
 10
-50.79453412756107
 20
-8.022804320319173
 11
-53.06293521179145
 21
-11.48017794540906
 97
        0
 75
     0
 76
     1
 98
        1
 10
0.0
 20
0.0
  0
HATCH
  5
F1
330
93
100
AcDbEntity
  8
0
100
AcDbHatch
 10
0.0
 20
0.0
 30
0.0
210
0.0
220
0.0
230
1.0
  2
SOLID
 70
     1
 71
     0
 91
        1
 92
        0
 93
        6
 72
     1
 10
-41.53588964704281
 20
-8.986455445432597
 11
-44.41771445090438
 21
-9.609949357561213
 72
     1
 10
-44.41771445090438
 20
-9.609949357561213
 11
-46.68624347197728
 21
-13.06764806762683
 72
     1
 10
-46.68624347197728
 20
-13.06764806762683
 11
-43.23827248082917
 21
-15.24865255879992
 72
     1
 10
-43.23827248082917
 20
-15.24865255879992
 11
-40.35645293820115
 21
-14.62515978495947
 72
     1
 10
-40.35645293820115
 20
-14.62515978495947
 11
-43.80454139731328
 21
-12.44407055830516
 72
     1
 10
-43.80454139731328
 20
-12.44407055830516
 11
-41.53588964704281
 21
-8.986455445432597
 97
        0
 75
     0
 76
     1
 98
        1
 10
0.0
 20
0.0
  0
HATCH
  5
F2
330
93
100
AcDbEntity
  8
0
100
AcDbHatch
 10
0.0
 20
0.0
 30
0.0
210
0.0
220
0.0
230
1.0
  2
SOLID
 70
     1
 71
     0
 91
        1
 92
        0
 93
       20
 72
     4
 94
        3
 73
     1
 74
     0
 95
        8
 96
        4
 40
18.0
 40
18.0
 40
18.0
 40
18.0
 40
19.0
 40
19.0
 40
19.0
 40
19.0
 10
-30.20639204762402
 20
-12.42915496033267
 42
1.0
 10
-28.36320980349188
 20
-11.79454394754584
 42
1.0
 10
-27.78707037380775
 20
-10.41512978795687
 42
1.0
 10
-27.91988511866085
 20
-9.073464993912015
 42
1.0
 72
     4
 94
        3
 73
     1
 74
     0
 95
        8
 96
        4
 40
19.0
 40
19.0
 40
19.0
 40
19.0
 40
20.0
 40
20.0
 40
20.0
 40
20.0
 10
-27.91988511866085
 20
-9.073464993912015
 42
1.0
 10
-28.1256321733036
 20
-6.994152508733093
 42
1.0
 10
-29.51271678483624
 20
-6.505105050434554
 42
1.0
 10
-30.23703582864647
 20
-6.251438951366739
 42
1.0
 72
     4
 94
        3
 73
     1
 74
     0
 95
        8
 96
        4
 40
0.0
 40
0.0
 40
0.0
 40
0.0
 40
1.0
 40
1.0
 40
1.0
 40
1.0
 10
-30.23703582864647
 20
-6.251438951366739
 42
1.0
 10
-30.91043001867278
 20
-6.015603382360466
 42
1.0
 10
-31.40848551125484
 20
-5.893156856121866
 42
1.0
 10
-32.67210357750633
 20
-5.496689523479784
 42
1.0
 72
     4
 94
        3
 73
     1
 74
     0
 95
        8
 96
        4
 40
1.0
 40
1.0
 40
1.0
 40
1.0
 40
2.0
 40
2.0
 40
2.0
 40
2.0
 10
-32.67210357750633
 20
-5.496689523479784
 42
1.0
 10
-33.03332194555515
 20
-5.383421617718138
 42
1.0
 10
-33.81210282496121
 20
-5.206692347750558
 42
1.0
 10
-33.94849250952591
 20
-4.576291363356954
 42
1.0
 72
     4
 94
        3
 73
     1
 74
     0
 95
        8
 96
        4
 40
2.0
 40
2.0
 40
2.0
 40
2.0
 40
3.0
 40
3.0
 40
3.0
 40
3.0
 10
-33.94849250952591
 20
-4.576291363356954
 42
1.0
 10
-34.11622381965228
 20
-3.801027578894066
 42
1.0
 10
-33.67528356585566
 20
-3.448097454184939
 42
1.0
 10
-32.99335932290605
 20
-3.300560513895483
 42
1.0
 72
     1
 10
-32.99335932290605
 20
-3.300560513895483
 11
-32.85916630414502
 21
-3.271527336675422
 72
     4
 94
        3
 73
     1
 74
     0
 95
        8
 96
        4
 40
4.0
 40
4.0
 40
4.0
 40
4.0
 40
5.0
 40
5.0
 40
5.0
 40
5.0
 10
-32.85916630414502
 20
-3.271527336675422
 42
1.0
 10
-32.27869442459117
 20
-3.145940006530068
 42
1.0
 10
-31.77109773641243
 20
-3.328116480283154
 42
1.0
 10
-31.5697721187044
 20
-3.967820152272114
 42
1.0
 72
     1
 10
-31.5697721187044
 20
-3.967820152272114
 11
-29.29695612428624
 21
-3.476087645143523
 72
     4
 94
        3
 73
     1
 74
     0
 95
        8
 96
        4
 40
6.0
 40
6.0
 40
6.0
 40
6.0
 40
7.0
 40
7.0
 40
7.0
 40
7.0
 10
-29.2969561242863
 20
-3.476087645143538
 42
1.0
 10
-29.6881007197101
 20
-1.866802583842747
 42
1.0
 10
-30.87776107222446
 20
-0.7599478056671519
 42
1.0
 10
-33.27949204955327
 20
-1.266772121690873
 42
1.0
 72
     1
 10
-33.27949204955321
 20
-1.266772121690857
 11
-33.3448839193166
 21
-1.280919904944549
 72
     4
 94
        3
 73
     1
 74
     0
 95
        8
 96
        4
 40
8.0
 40
8.0
 40
8.0
 40
8.0
 40
9.0
 40
9.0
 40
9.0
 40
9.0
 10
-33.34488391931666
 20
-1.280919904944565
 42
1.0
 10
-35.8115299245211
 20
-1.828202838410234
 42
1.0
 10
-36.3337848782655
 20
-3.544650129978449
 42
1.0
 10
-36.09207577942846
 20
-4.962606301827486
 42
1.0
 72
     4
 94
        3
 73
     1
 74
     0
 95
        8
 96
        4
 40
9.0
 40
9.0
 40
9.0
 40
9.0
 40
10.0
 40
10.0
 40
10.0
 40
10.0
 10
-36.09207577942846
 20
-4.962606301827486
 42
1.0
 10
-35.83736690020323
 20
-6.457652824126184
 42
1.0
 10
-34.96800490008029
 20
-7.196828812263736
 42
1.0
 10
-33.99931718292643
 20
-7.502708028683525
 42
1.0
 72
     4
 94
        3
 73
     1
 74
     0
 95
        8
 96
        4
 40
10.0
 40
10.0
 40
10.0
 40
10.0
 40
11.0
 40
11.0
 40
11.0
 40
11.0
 10
-33.99931718292643
 20
-7.502708028683525
 42
1.0
 10
-33.40907414696031
 20
-7.689011641945555
 42
1.0
 10
-32.48616403135106
 20
-7.975318844696822
 42
1.0
 10
-31.47547483016516
 20
-8.27150505233215
 42
1.0
 72
     4
 94
        3
 73
     1
 74
     0
 95
        8
 96
        4
 40
11.0
 40
11.0
 40
11.0
 40
11.0
 40
12.0
 40
12.0
 40
12.0
 40
12.0
 10
-31.47547483016516
 20
-8.27150505233215
 42
1.0
 10
-31.11213516930568
 20
-8.377980375833708
 42
1.0
 10
-30.40258052645039
 20
-8.557295119664056
 42
1.0
 10
-30.28870163819752
 20
-9.336631754491272
 42
1.0
 72
     4
 94
        3
 73
     1
 74
     0
 95
        8
 96
        4
 40
12.0
 40
12.0
 40
12.0
 40
12.0
 40
13.0
 40
13.0
 40
13.0
 40
13.0
 10
-30.28870163819752
 20
-9.336631754491272
 42
1.0
 10
-30.18837182526216
 20
-10.02498578462435
 42
1.0
 10
-30.64014408852681
 20
-10.43662327702195
 42
1.0
 10
-31.32890793487914
 20
-10.58563999188937
 42
1.0
 72
     1
 10
-31.32890793487914
 20
-10.58563999188937
 11
-31.46505813246008
 21
-10.61509661229637
 72
     4
 94
        3
 73
     1
 74
     0
 95
        8
 96
        4
 40
14.0
 40
14.0
 40
14.0
 40
14.0
 40
15.0
 40
15.0
 40
15.0
 40
15.0
 10
-31.46505813246008
 20
-10.61509661229637
 42
1.0
 10
-32.05208024758041
 20
-10.7421011111722
 42
1.0
 10
-32.71260096537064
 20
-10.55064660173623
 42
1.0
 10
-32.88223929249212
 20
-9.937760156430087
 42
1.0
 72
     1
 10
-32.88223929249212
 20
-9.937760156430087
 11
-35.18886923388655
 21
-10.43680844141459
 72
     4
 94
        3
 73
     1
 74
     0
 95
        8
 96
        4
 40
16.0
 40
16.0
 40
16.0
 40
16.0
 40
17.0
 40
17.0
 40
17.0
 40
17.0
 10
-35.18886923388649
 20
-10.43680844141459
 42
1.0
 10
-34.81471685749708
 20
-11.88431332710451
 42
1.0
 10
-33.72975075395801
 20
-12.95131992706824
 42
1.0
 10
-31.59496833044075
 20
-12.72957879515506
 42
1.0
 72
     1
 10
-31.59496833044068
 20
-12.72957879515504
 11
-30.20639204762409
 21
-12.42915496033269
 97
        0
 75
     0
 76
     1
 98
        1
 10
0.0
 20
0.0
  0
HATCH
  5
F3
330
93
100
AcDbEntity
  8
0
100
AcDbHatch
 10
0.0
 20
0.0
 30
0.0
210
0.0
220
0.0
230
1.0
  2
SOLID
 70
     1
 71
     0
 91
        1
 92
        0
 93
       11
 72
     1
 10
-23.93083334830058
 20
-6.656177916224847
 11
-23.9305586195879
 21
-1.497666803489873
 72
     1
 10
-23.9305586195879
 20
-1.497666803489873
 11
-20.04326836721582
 21
-10.05945907169815
 72
     1
 10
-20.04326836721582
 20
-10.05945907169815
 11
-17.66870538033285
 21
-9.545713210289948
 72
     1
 10
-17.66870538033285
 20
-9.545713210289948
 11
-22.39983793591613
 21
0.8767293108990284
 72
     1
 10
-22.39983793591613
 20
0.8767293108990277
 11
-26.30586704316552
 21
0.0316448471579831
 72
     1
 10
-26.30586704316552
 20
0.0316448471579831
 11
-26.30567237753049
 21
-11.41435433475813
 72
     1
 10
-26.30567237753049
 20
-11.41435433475813
 11
-23.93111465188077
 21
-10.90060961163804
 72
     1
 10
-23.93111465188077
 20
-10.90060961163804
 11
-23.93099314235586
 21
-8.782594625323274
 72
     1
 10
-23.93099314235586
 20
-8.782594625323274
 11
-22.27383089514867
 21
-8.42406118111162
 72
     1
 10
-22.27383089514867
 20
-8.42406118111162
 11
-22.7133102853523
 21
-6.392762105309743
 72
     1
 10
-22.7133102853523
 20
-6.392762105309743
 11
-23.93083334830058
 21
-6.656177916224847
 97
        0
 75
     0
 76
     1
 98
        1
 10
0.0
 20
0.0
  0
HATCH
  5
F4
330
93
100
AcDbEntity
  8
0
100
AcDbHatch
 10
0.0
 20
0.0
 30
0.0
210
0.0
220
0.0
230
1.0
  2
SOLID
 70
     1
 71
     0
 91
        1
 92
        0
 93
        6
 72
     1
 10
-15.79563263740209
 20
2.305574601061446
 11
-18.06492886668423
 21
1.814603608696526
 72
     4
 94
        3
 73
     1
 74
     0
 95
        8
 96
        4
 40
2.0
 40
2.0
 40
2.0
 40
2.0
 40
3.0
 40
3.0
 40
3.0
 40
3.0
 10
-18.06492886668423
 20
1.814603608696526
 42
1.0
 10
-17.240039650055
 20
-1.995739949107533
 42
1.0
 10
-15.71186186991055
 20
-9.059523950669437
 42
1.0
 10
-15.69887855542098
 20
-9.119533578677919
 42
1.0
 72
     1
 10
-15.69887855542092
 20
-9.119533578677903
 11
-10.22610149671526
 21
-7.93547715235816
 72
     1
 10
-10.22610149671526
 20
-7.93547715235816
 11
-10.66558088691882
 21
-5.904178076556605
 72
     1
 10
-10.66558088691882
 20
-5.904178076556605
 11
-13.86994560355126
 21
-6.597454742918437
 72
     4
 94
        3
 73
     1
 74
     0
 95
        8
 96
        4
 40
0.0
 40
0.0
 40
0.0
 40
0.0
 40
1.0
 40
1.0
 40
1.0
 40
1.0
 10
-13.86994560355126
 20
-6.597454742918437
 42
1.0
 10
-13.88373254946556
 20
-6.533730684138598
 42
1.0
 10
-15.1136551579741
 20
-0.8489574873494129
 42
1.0
 10
-15.79563263740209
 20
2.305574601061446
 42
1.0
 97
        0
 75
     0
 76
     1
 98
        1
 10
0.0
 20
0.0
  0
HATCH
  5
F5
330
93
100
AcDbEntity
  8
0
100
AcDbHatch
 10
0.0
 20
0.0
 30
0.0
210
0.0
220
0.0
230
1.0
  2
SOLID
 70
     1
 71
     0
 91
        1
 92
        0
 93
       11
 72
     1
 10
2.375028433631206
 20
-0.9648032523823513
 11
2.375208460142868
 21
4.193687371166118
 72
     1
 10
2.375208460142868
 20
4.193687371166118
 11
6.262509234981617
 21
-4.368102620465918
 72
     1
 10
6.262509234981617
 20
-4.368102620465917
 11
8.637061699398163
 21
-3.854359035633896
 72
     1
 10
8.637061699398163
 20
-3.854359035633896
 11
3.905939666281055
 21
6.568085762131229
 72
     1
 10
3.905939666281055
 20
6.56808576213123
 11
-0.0000000000001235
 21
5.723020649288631
 72
     1
 10
-0.0000000000001234
 20
5.723020649288631
 11
-0.000000000000185
 21
-5.723020649288538
 72
     1
 10
-0.000000000000185
 20
-5.723020649288538
 11
2.37465768908423
 21
-5.20925429869377
 72
     1
 10
2.37465768908423
 20
-5.20925429869377
 11
2.374784459841949
 21
-3.091238174090979
 72
     1
 10
2.374784459841949
 20
-3.091238174090979
 11
4.031830959914354
 21
-2.732729772218408
 72
     1
 10
4.031830959914354
 20
-2.732729772218408
 11
3.592351569710606
 21
-0.701430696416514
 72
     1
 10
3.592351569710606
 20
-0.7014306964165138
 11
2.375028433631206
 21
-0.9648032523823513
 97
        0
 75
     0
 76
     1
 98
        1
 10
0.0
 20
0.0
  0
HATCH
  5
F6
330
93
100
AcDbEntity
  8
0
100
AcDbHatch
 10
0.0
 20
0.0
 30
0.0
210
0.0
220
0.0
230
1.0
  2
SOLID
 70
     1
 71
     0
 91
        1
 92
        0
 93
        8
 72
     1
 10
-42.14906497721024
 20
-6.152323722221632
 11
-42.76219705242848
 21
-3.318391925879333
 72
     1
 10
-42.76219705242848
 20
-3.318391925879333
 11
-42.76249168149826
 21
-3.318455670015027
 72
     1
 10
-42.76249168149826
 20
-3.318455670015027
 11
-45.03079507887072
 21
-6.775797145163721
 72
     1
 10
-45.03079507887072
 20
-6.775797145163721
 11
-48.52545732888054
 21
-4.565295516814268
 72
     1
 10
-48.52545732888054
 20
-4.565295516814268
 11
-48.52574669671678
 21
-4.565358122661792
 72
     1
 10
-48.52574669671678
 20
-4.565358122661792
 11
-47.91261462149855
 21
-7.39928991900409
 72
     1
 10
-47.91261462149855
 20
-7.39928991900409
 11
-44.41773721666716
 21
-9.60984413289331
 72
     1
 10
-44.41773721666716
 20
-9.60984413289331
 11
-42.14906497721024
 21
-6.152323722221632
 97
        0
 75
     0
 76
     1
 98
        1
 10
0.0
 20
0.0
  0
HATCH
  5
F7
330
93
100
AcDbEntity
  8
0
100
AcDbHatch
 10
0.0
 20
0.0
 30
0.0
210
0.0
220
0.0
230
1.0
  2
SOLID
 70
     1
 71
     0
 91
        1
 92
        0
 93
        8
 72
     1
 10
-46.11999732125613
 20
-15.87212484345383
 11
-46.08139565189786
 21
-15.8637732233933
 72
     1
 10
-46.08139565189786
 20
-15.8637732233933
 11
-46.68636620117444
 21
-13.06756447043367
 72
     1
 10
-46.68636620117444
 20
-13.06756447043367
 11
-50.18135879739361
 21
-10.85693604353009
 72
     1
 10
-50.18135879739361
 20
-10.85693604353009
 11
-52.44976215820033
 21
-14.31429914615315
 72
     1
 10
-52.44976215820033
 20
-14.31429914615315
 11
-51.84475063055083
 21
-17.11069730351469
 72
     1
 10
-51.84475063055083
 20
-17.11069730351469
 11
-51.80633836559459
 21
-17.1023866618271
 72
     1
 10
-51.80633836559459
 20
-17.1023866618271
 11
-49.56818574380249
 21
-13.69105724427409
 72
     1
 10
-49.56818574380249
 20
-13.69105724427409
 11
-46.11999732125613
 21
-15.87212484345383
 97
        0
 75
     0
 76
     1
 98
        1
 10
0.0
 20
0.0
  0
HATCH
  5
F8
330
93
100
AcDbEntity
  8
0
100
AcDbHatch
 10
0.0
 20
0.0
 30
0.0
210
0.0
220
0.0
230
1.0
  2
SOLID
 70
     1
 71
     0
 91
        2
 92
        0
 93
        7
 72
     1
 10
-6.859585567104196
 20
4.238922852960538
 11
-11.00449045380928
 21
3.342156692939393
 72
     1
 10
-11.00449045380928
 20
3.342156692939393
 11
-8.638829473816639
 21
-7.592064727757185
 72
     1
 10
-8.638829473816639
 20
-7.592064727757185
 11
-8.63844014254617
 21
-7.591980494435086
 72
     1
 10
-8.63844014254617
 20
-7.591980494435086
 11
-4.494024550545999
 21
-6.695320195210662
 72
     4
 94
        3
 73
     1
 74
     0
 95
        8
 96
        4
 40
3.0
 40
3.0
 40
3.0
 40
3.0
 40
4.0
 40
4.0
 40
4.0
 40
4.0
 10
-4.494024550545999
 20
-6.695320195210662
 42
1.0
 10
-2.825524345390513
 20
-6.334333740063992
 42
1.0
 10
-1.762658323115034
 20
-4.702068307882374
 42
1.0
 10
-2.120071189640999
 20
-3.049576315093403
 42
1.0
 72
     4
 94
        3
 73
     1
 74
     0
 95
        8
 96
        4
 40
4.0
 40
4.0
 40
4.0
 40
4.0
 40
5.0
 40
5.0
 40
5.0
 40
5.0
 10
-2.120071189640999
 20
-3.049576315093403
 42
1.0
 10
-2.485983017556096
 20
-1.358310753073632
 42
1.0
 10
-2.867352798370483
 20
0.4044023583376265
 42
1.0
 10
-3.190995488197396
 20
1.900704823656681
 42
1.0
 72
     4
 94
        3
 73
     1
 74
     0
 95
        8
 96
        4
 40
5.0
 40
5.0
 40
5.0
 40
5.0
 40
6.0
 40
6.0
 40
6.0
 40
6.0
 10
-3.190995488197396
 20
1.900704823656681
 42
1.0
 10
-3.54857504695031
 20
3.553458157285876
 42
1.0
 10
-5.190901218780231
 20
4.599949148191988
 42
1.0
 10
-6.859585567104196
 20
4.238922852960538
 42
1.0
 97
        0
 92
        0
 93
        6
 72
     4
 94
        3
 73
     1
 74
     0
 95
        8
 96
        4
 40
2.0
 40
2.0
 40
2.0
 40
2.0
 40
3.0
 40
3.0
 40
3.0
 40
3.0
 10
-6.919811195494074
 20
2.099808074263809
 42
1.0
 10
-6.228016878711183
 20
2.249480443098069
 42
1.0
 10
-5.547633595833446
 20
1.815851349115847
 42
1.0
 10
-5.399398884916104
 20
1.130701970100344
 42
1.0
 72
     4
 94
        3
 73
     1
 74
     0
 95
        8
 96
        4
 40
3.0
 40
3.0
 40
3.0
 40
3.0
 40
4.0
 40
4.0
 40
4.0
 40
4.0
 10
-5.399398884916104
 20
1.130701970100344
 42
1.0
 10
-5.107009087764085
 20
-0.2207405274728672
 42
1.0
 10
-4.711497421058354
 20
-2.048334586467611
 42
1.0
 10
-4.449160707297047
 20
-3.260870000165379
 42
1.0
 72
     4
 94
        3
 73
     1
 74
     0
 95
        8
 96
        4
 40
4.0
 40
4.0
 40
4.0
 40
4.0
 40
5.0
 40
5.0
 40
5.0
 40
5.0
 10
-4.449160707297047
 20
-3.260870000165379
 42
1.0
 10
-4.300905507193207
 20
-3.946114081381999
 42
1.0
 10
-4.741570606399121
 20
-4.622385452066122
 42
1.0
 10
-5.433383135791953
 20
-4.771973641166296
 42
1.0
 72
     1
 10
-5.433383135791953
 20
-4.771973641166296
 11
-6.809537646582547
 21
-5.069709977697404
 72
     4
 94
        3
 73
     1
 74
     0
 95
        8
 96
        4
 40
0.0
 40
0.0
 40
0.0
 40
0.0
 40
1.0
 40
1.0
 40
1.0
 40
1.0
 10
-6.809537646582547
 20
-5.069709977697404
 42
1.0
 10
-7.284290309572815
 20
-2.875375801708635
 42
1.0
 10
-7.897830097865885
 20
-0.0390758678013329
 42
1.0
 10
-8.296070930952649
 20
1.80204897196991
 42
1.0
 72
     1
 10
-8.296070930952649
 20
1.80204897196991
 11
-6.919811195494074
 21
2.099808074263809
 97
        0
 75
     0
 76
     1
 98
        1
 10
0.0
 20
0.0
  0
ENDBLK
  5
95
330
93
100
AcDbEntity
  8
0
100
AcDbBlockEnd
  0
ENDSEC
  0
SECTION
  2
ENTITIES
  0
LINE
  5
F9
330
1F
100
AcDbEntity
  8
0
100
AcDbLine
 10
151.6198413887
 20
322.3170148189
 30
0.0
 11
152.3698413887
 21
321.5670148189
 31
0.0
  0
LINE
  5
FA
330
1F
100
AcDbEntity
  8
0
100
AcDbLine
 10
176.3698413887
 20
321.5670148189
 30
0.0
 11
177.1198413887
 21
322.3170148189
 31
0.0
  0
LINE
  5
FB
330
1F
100
AcDbEntity
  8
0
100
AcDbLine
 10
151.6198413887
 20
331.5670148189
 30
0.0
 11
151.6198413887
 21
322.3170148189
 31
0.0
  0
LINE
  5
FC
330
1F
100
AcDbEntity
  8
0
100
AcDbLine
 10
177.1198413887
 20
322.3170148189
 30
0.0
 11
177.1198413887
 21
331.5670148189
 31
0.0
  0
LINE
  5
FD
330
1F
100
AcDbEntity
  8
0
100
AcDbLine
 10
175.0198413887
 20
339.0670148189
 30
0.0
 11
175.0198413887
 21
344.9670148189
 31
0.0
  0
LINE
  5
FE
330
1F
100
AcDbEntity
  8
0
100
AcDbLine
 10
153.7198413887
 20
344.9670148189
 30
0.0
 11
153.7198413887
 21
339.0670148189
 31
0.0
  0
LINE
  5
FF
330
1F
100
AcDbEntity
  8
0
100
AcDbLine
 10
176.3698413887
 20
344.9670148189
 30
0.0
 11
176.3698413887
 21
345.3670148189
 31
0.0
  0
LINE
  5
100
330
1F
100
AcDbEntity
  8
0
100
AcDbLine
 10
152.3698413887
 20
345.3670148189
 30
0.0
 11
152.3698413887
 21
344.9670148189
 31
0.0
  0
LINE
  5
101
330
1F
100
AcDbEntity
  8
0
100
AcDbLine
 10
153.4698413887
 20
353.5670148189
 30
0.0
 11
153.4698413887
 21
345.3670148189
 31
0.0
  0
LINE
  5
102
330
1F
100
AcDbEntity
  8
0
100
AcDbLine
 10
175.2698413887
 20
345.3670148189
 30
0.0
 11
175.2698413887
 21
353.5670148189
 31
0.0
  0
ARC
  5
103
330
1F
100
AcDbEntity
  8
0
100
AcDbCircle
 10
154.8698413887
 20
353.5670148189
 30
0.0
 40
1.400000000000034
100
AcDbArc
 50
90.0
 51
180.0
  0
ARC
  5
104
330
1F
100
AcDbEntity
  8
0
100
AcDbCircle
 10
173.8698413887
 20
353.5670148189
 30
0.0
 40
1.400000000000034
100
AcDbArc
 50
0.0
 51
90.0
  0
LINE
  5
105
330
1F
100
AcDbEntity
  8
0
100
AcDbLine
 10
175.3698413887
 20
320.5670148189
 30
0.0
 11
175.3698413887
 21
321.5670148189
 31
0.0
  0
LINE
  5
106
330
1F
100
AcDbEntity
  8
0
100
AcDbLine
 10
153.3698413887
 20
321.5670148189
 30
0.0
 11
153.3698413887
 21
320.5670148189
 31
0.0
  0
LINE
  5
107
330
1F
100
AcDbEntity
  8
0
100
AcDbLine
 10
176.4698413887
 20
311.5060627977
 30
0.0
 11
176.4698413887
 21
320.5670148189
 31
0.0
  0
LINE
  5
108
330
1F
100
AcDbEntity
  8
0
100
AcDbLine
 10
180.4898413925
 20
322.3170148189
 30
0.0
 11
181.2398413925
 21
321.5670148189
 31
0.0
  0
LINE
  5
109
330
1F
100
AcDbEntity
  8
0
100
AcDbLine
 10
205.2398413925
 20
321.5670148189
 30
0.0
 11
205.9898413925
 21
322.3170148189
 31
0.0
  0
LINE
  5
10A
330
1F
100
AcDbEntity
  8
0
100
AcDbLine
 10
180.4898413925
 20
331.5670148189
 30
0.0
 11
180.4898413925
 21
322.3170148189
 31
0.0
  0
LINE
  5
10B
330
1F
100
AcDbEntity
  8
0
100
AcDbLine
 10
205.9898413925
 20
322.3170148189
 30
0.0
 11
205.9898413925
 21
331.5670148189
 31
0.0
  0
LINE
  5
10C
330
1F
100
AcDbEntity
  8
0
100
AcDbLine
 10
203.8898413925
 20
339.0670148189
 30
0.0
 11
203.8898413925
 21
344.9670148189
 31
0.0
  0
LINE
  5
10D
330
1F
100
AcDbEntity
  8
0
100
AcDbLine
 10
182.5898413925
 20
344.9670148189
 30
0.0
 11
182.5898413925
 21
339.0670148189
 31
0.0
  0
LINE
  5
10E
330
1F
100
AcDbEntity
  8
0
100
AcDbLine
 10
205.2398413925
 20
344.9670148189
 30
0.0
 11
205.2398413925
 21
345.3670148189
 31
0.0
  0
LINE
  5
10F
330
1F
100
AcDbEntity
  8
0
100
AcDbLine
 10
181.2398413925
 20
345.3670148189
 30
0.0
 11
181.2398413925
 21
344.9670148189
 31
0.0
  0
LINE
  5
110
330
1F
100
AcDbEntity
  8
0
100
AcDbLine
 10
182.3398413925
 20
353.5670148189
 30
0.0
 11
182.3398413925
 21
345.3670148189
 31
0.0
  0
LINE
  5
111
330
1F
100
AcDbEntity
  8
0
100
AcDbLine
 10
204.1398413925
 20
345.3670148189
 30
0.0
 11
204.1398413925
 21
353.5670148189
 31
0.0
  0
ARC
  5
112
330
1F
100
AcDbEntity
  8
0
100
AcDbCircle
 10
183.7398413925
 20
353.5670148189
 30
0.0
 40
1.400000000000034
100
AcDbArc
 50
90.0
 51
180.0
  0
ARC
  5
113
330
1F
100
AcDbEntity
  8
0
100
AcDbCircle
 10
202.7398413925
 20
353.5670148189
 30
0.0
 40
1.400000000000034
100
AcDbArc
 50
0.0
 51
90.0
  0
LINE
  5
114
330
1F
100
AcDbEntity
  8
0
100
AcDbLine
 10
204.2398413925
 20
320.5670148189
 30
0.0
 11
204.2398413925
 21
321.5670148189
 31
0.0
  0
LINE
  5
115
330
1F
100
AcDbEntity
  8
0
100
AcDbLine
 10
182.2398413925
 20
321.5670148189
 30
0.0
 11
182.2398413925
 21
320.5670148189
 31
0.0
  0
LINE
  5
116
330
1F
100
AcDbEntity
  8
0
100
AcDbLine
 10
181.1398413925
 20
320.5670148189
 30
0.0
 11
181.1398413925
 21
311.5060627975
 31
0.0
  0
ARC
  5
117
330
1F
100
AcDbEntity
  8
0
100
AcDbCircle
 10
289.2048413926
 20
303.8170148189
 30
0.0
 40
2.0
100
AcDbArc
 50
90.0
 51
180.0
  0
ARC
  5
118
330
1F
100
AcDbEntity
  8
0
100
AcDbCircle
 10
293.4048413926
 20
303.8170148189
 30
0.0
 40
2.0
100
AcDbArc
 50
0.0
 51
90.0
  0
LINE
  5
119
330
1F
100
AcDbEntity
  8
0
100
AcDbLine
 10
287.2048413926
 20
303.8170148189
 30
0.0
 11
287.2048413926
 21
302.7670148189
 31
0.0
  0
LINE
  5
11A
330
1F
100
AcDbEntity
  8
0
100
AcDbLine
 10
295.4048413926
 20
302.7670148189
 30
0.0
 11
295.4048413926
 21
303.8170148189
 31
0.0
  0
ARC
  5
11B
330
1F
100
AcDbEntity
  8
0
100
AcDbCircle
 10
244.2048413926
 20
303.8170148189
 30
0.0
 40
2.0
100
AcDbArc
 50
90.0
 51
180.0
  0
ARC
  5
11C
330
1F
100
AcDbEntity
  8
0
100
AcDbCircle
 10
248.4048413926
 20
303.8170148189
 30
0.0
 40
2.0
100
AcDbArc
 50
0.0
 51
90.0
  0
LINE
  5
11D
330
1F
100
AcDbEntity
  8
0
100
AcDbLine
 10
242.2048413926
 20
303.8170148189
 30
0.0
 11
242.2048413926
 21
302.7670148189
 31
0.0
  0
LINE
  5
11E
330
1F
100
AcDbEntity
  8
0
100
AcDbLine
 10
250.4048413926
 20
302.7670148189
 30
0.0
 11
250.4048413926
 21
303.8170148189
 31
0.0
  0
LINE
  5
11F
330
1F
100
AcDbEntity
  8
0
100
AcDbLine
 10
245.7798413926
 20
293.7670148189
 30
0.0
 11
246.0048413926
 21
293.2670148189
 31
0.0
  0
LINE
  5
120
330
1F
100
AcDbEntity
  8
0
100
AcDbLine
 10
246.6048413926
 20
293.2670148189
 30
0.0
 11
246.8298413926
 21
293.7670148189
 31
0.0
  0
LINE
  5
121
330
1F
100
AcDbEntity
  8
0
100
AcDbLine
 10
62.2048413926
 20
303.8170148189
 30
0.0
 11
62.2048413926
 21
302.7670148189
 31
0.0
  0
LINE
  5
122
330
1F
100
AcDbEntity
  8
0
100
AcDbLine
 10
70.4048413926
 20
302.7670148189
 30
0.0
 11
70.4048413926
 21
303.8170148189
 31
0.0
  0
ARC
  5
123
330
1F
100
AcDbEntity
  8
0
100
AcDbCircle
 10
64.2048413926
 20
303.8170148189
 30
0.0
 40
2.0
100
AcDbArc
 50
90.0
 51
180.0
  0
ARC
  5
124
330
1F
100
AcDbEntity
  8
0
100
AcDbCircle
 10
68.4048413926
 20
303.8170148189
 30
0.0
 40
2.0
100
AcDbArc
 50
0.0
 51
90.0
  0
ARC
  5
125
330
1F
100
AcDbEntity
  8
0
100
AcDbCircle
 10
109.2048413926
 20
303.8170148189
 30
0.0
 40
2.0
100
AcDbArc
 50
90.0
 51
180.0
  0
ARC
  5
126
330
1F
100
AcDbEntity
  8
0
100
AcDbCircle
 10
113.4048413926
 20
303.8170148189
 30
0.0
 40
2.0
100
AcDbArc
 50
0.0
 51
90.0
  0
LINE
  5
127
330
1F
100
AcDbEntity
  8
0
100
AcDbLine
 10
107.2048413926
 20
303.8170148189
 30
0.0
 11
107.2048413926
 21
302.7670148189
 31
0.0
  0
LINE
  5
128
330
1F
100
AcDbEntity
  8
0
100
AcDbLine
 10
115.4048413926
 20
302.7670148189
 30
0.0
 11
115.4048413926
 21
303.8170148189
 31
0.0
  0
LINE
  5
129
330
1F
100
AcDbEntity
  8
0
100
AcDbLine
 10
110.7798413926
 20
293.7670148189
 30
0.0
 11
111.0048413926
 21
293.2670148189
 31
0.0
  0
LINE
  5
12A
330
1F
100
AcDbEntity
  8
0
100
AcDbLine
 10
111.6048413926
 20
293.2670148189
 30
0.0
 11
111.8298413926
 21
293.7670148189
 31
0.0
  0
ARC
  5
12B
330
1F
100
AcDbEntity
  8
0
100
AcDbCircle
 10
68.389291401
 20
7.5199460909
 30
0.0
 40
5.000000000000001
100
AcDbArc
 50
236.1590076815
 51
262.1320762394
  0
ARC
  5
12C
330
1F
100
AcDbEntity
  8
0
100
AcDbCircle
 10
68.8203913842
 20
7.5199460909
 30
0.0
 40
5.000000000000009
100
AcDbArc
 50
277.8679237606
 51
303.8409923185
  0
ARC
  5
12D
330
1F
100
AcDbEntity
  8
0
100
AcDbCircle
 10
288.789291401
 20
7.5199460909
 30
0.0
 40
5.000000000000009
100
AcDbArc
 50
236.1590076815
 51
262.1320762394
  0
ARC
  5
12E
330
1F
100
AcDbEntity
  8
0
100
AcDbCircle
 10
289.2203913842
 20
7.5199460909
 30
0.0
 40
4.999999999999986
100
AcDbArc
 50
277.8679237606
 51
303.8409923185
  0
LINE
  5
12F
330
1F
100
AcDbEntity
  8
0
100
AcDbLine
 10
198.3698413887
 20
302.7670148189
 30
0.0
 11
198.3698413887
 21
304.7670148189
 31
0.0
  0
LINE
  5
130
330
1F
100
AcDbEntity
  8
0
100
AcDbLine
 10
130.3698413887
 20
304.7670148189
 30
0.0
 11
130.3698413887
 21
302.7670148189
 31
0.0
  0
ARC
  5
131
330
1F
100
AcDbEntity
  8
0
100
AcDbCircle
 10
184.3698413887
 20
312.7670148189
 30
0.0
 40
8.0
100
AcDbArc
 50
189.0687215454
 51
270.0
  0
ARC
  5
132
330
1F
100
AcDbEntity
  8
0
100
AcDbCircle
 10
144.3698413887
 20
312.7670148189
 30
0.0
 40
8.000000000000012
100
AcDbArc
 50
270.0
 51
350.9312784533
  0
LINE
  5
133
330
1F
100
AcDbEntity
  8
0
100
AcDbLine
 10
227.2398413926
 20
302.7670148189
 30
0.0
 11
227.2398413926
 21
304.7670148189
 31
0.0
  0
ARC
  5
134
330
1F
100
AcDbEntity
  8
0
100
AcDbCircle
 10
213.2398413926
 20
312.7670148189
 30
0.0
 40
8.000000000000057
100
AcDbArc
 50
189.0687215454
 51
270.0
  0
ARC
  5
135
330
1F
100
AcDbEntity
  8
0
100
AcDbCircle
 10
173.2398413926
 20
312.7670148189
 30
0.0
 40
8.00000000000003
100
AcDbArc
 50
314.0770425568
 51
350.9312784533
  0
ARC
  5
136
330
1F
100
AcDbEntity
  8
0
100
AcDbCircle
 10
39.3048410904
 20
45.1670148189
 30
0.0
 40
0.5000000000000006
100
AcDbArc
 50
184.9871394293
 51
0.0
  0
ARC
  5
137
330
1F
100
AcDbEntity
  8
0
100
AcDbCircle
 10
39.3048410904
 20
258.9670148189
 30
0.0
 40
0.5000000000000037
100
AcDbArc
 50
0.0
 51
175.0128605707
  0
ARC
  5
138
330
1F
100
AcDbEntity
  8
0
100
AcDbCircle
 10
35.1048410904
 20
45.1670148189
 30
0.0
 40
0.5000000000000006
100
AcDbArc
 50
184.9871394293
 51
0.0
  0
ARC
  5
139
330
1F
100
AcDbEntity
  8
0
100
AcDbCircle
 10
35.1048410904
 20
258.9670148189
 30
0.0
 40
0.5000000000000037
100
AcDbArc
 50
0.0
 51
175.0128605707
  0
LINE
  5
13A
330
1F
100
AcDbEntity
  8
0
100
AcDbLine
 10
34.6067339724
 20
259.0104808865
 30
0.0
 11
33.9247602344
 21
251.195281785
 31
0.0
  0
LINE
  5
13B
330
1F
100
AcDbEntity
  8
0
100
AcDbLine
 10
33.9247602344
 20
52.9387478527
 30
0.0
 11
34.6067339724
 21
45.1235487512
 31
0.0
  0
LINE
  5
13C
330
1F
100
AcDbEntity
  8
0
100
AcDbLine
 10
38.8067339724
 20
259.0104808865
 30
0.0
 11
38.1247602344
 21
251.195281785
 31
0.0
  0
LINE
  5
13D
330
1F
100
AcDbEntity
  8
0
100
AcDbLine
 10
38.1247602344
 20
52.9387478527
 30
0.0
 11
38.8067339724
 21
45.1235487512
 31
0.0
  0
ARC
  5
13E
330
1F
100
AcDbEntity
  8
0
100
AcDbCircle
 10
33.6757066754
 20
52.9170148189
 30
0.0
 40
0.2500000000000031
100
AcDbArc
 50
4.9871394293
 51
90.0
  0
ARC
  5
13F
330
1F
100
AcDbEntity
  8
0
100
AcDbCircle
 10
33.6757066754
 20
251.2170148189
 30
0.0
 40
0.2500000000000284
100
AcDbArc
 50
270.0
 51
355.0128605707
  0
ARC
  5
140
330
1F
100
AcDbEntity
  8
0
100
AcDbCircle
 10
37.8757066754
 20
52.9170148189
 30
0.0
 40
0.2499999999999747
100
AcDbArc
 50
4.9871394293
 51
90.0
  0
ARC
  5
141
330
1F
100
AcDbEntity
  8
0
100
AcDbCircle
 10
37.8757066754
 20
251.2170148189
 30
0.0
 40
0.2500000000000284
100
AcDbArc
 50
270.0
 51
355.0128605707
  0
LINE
  5
142
330
1F
100
AcDbEntity
  8
0
100
AcDbLine
 10
35.6048410904
 20
53.1670148189
 30
0.0
 11
37.8757066754
 21
53.1670148189
 31
0.0
  0
LINE
  5
143
330
1F
100
AcDbEntity
  8
0
100
AcDbLine
 10
37.8757066754
 20
250.9670148189
 30
0.0
 11
35.6048410904
 21
250.9670148189
 31
0.0
  0
LINE
  5
144
330
1F
100
AcDbEntity
  8
0
100
AcDbLine
 10
32.8048413926
 20
53.1670148189
 30
0.0
 11
33.6757066754
 21
53.1670148189
 31
0.0
  0
LINE
  5
145
330
1F
100
AcDbEntity
  8
0
100
AcDbLine
 10
33.6757066754
 20
250.9670148189
 30
0.0
 11
32.8048413926
 21
250.9670148189
 31
0.0
  0
ARC
  5
146
330
1F
100
AcDbEntity
  8
0
100
AcDbCircle
 10
318.3048416948
 20
258.9670148189
 30
0.0
 40
0.4999999999999754
100
AcDbArc
 50
4.9871394293
 51
180.0
  0
ARC
  5
147
330
1F
100
AcDbEntity
  8
0
100
AcDbCircle
 10
318.3048416948
 20
45.1670148189
 30
0.0
 40
0.4999999999999722
100
AcDbArc
 50
180.0
 51
355.0128605707
  0
ARC
  5
148
330
1F
100
AcDbEntity
  8
0
100
AcDbCircle
 10
322.5048416948
 20
258.9670148189
 30
0.0
 40
0.5
100
AcDbArc
 50
4.9871394293
 51
180.0
  0
ARC
  5
149
330
1F
100
AcDbEntity
  8
0
100
AcDbCircle
 10
322.5048416948
 20
45.1670148189
 30
0.0
 40
0.5
100
AcDbArc
 50
180.0
 51
355.0128605707
  0
LINE
  5
14A
330
1F
100
AcDbEntity
  8
0
100
AcDbLine
 10
323.0029488127
 20
45.1235487512
 30
0.0
 11
323.6849225508
 21
52.9387478527
 31
0.0
  0
LINE
  5
14B
330
1F
100
AcDbEntity
  8
0
100
AcDbLine
 10
323.6849225508
 20
251.195281785
 30
0.0
 11
323.0029488127
 21
259.0104808865
 31
0.0
  0
LINE
  5
14C
330
1F
100
AcDbEntity
  8
0
100
AcDbLine
 10
318.8029488127
 20
45.1235487512
 30
0.0
 11
319.4849225508
 21
52.9387478527
 31
0.0
  0
LINE
  5
14D
330
1F
100
AcDbEntity
  8
0
100
AcDbLine
 10
319.4849225508
 20
251.195281785
 30
0.0
 11
318.8029488127
 21
259.0104808865
 31
0.0
  0
ARC
  5
14E
330
1F
100
AcDbEntity
  8
0
100
AcDbCircle
 10
323.9339761097
 20
251.2170148189
 30
0.0
 40
0.2500000000000284
100
AcDbArc
 50
184.9871394293
 51
270.0
  0
ARC
  5
14F
330
1F
100
AcDbEntity
  8
0
100
AcDbCircle
 10
323.9339761097
 20
52.9170148189
 30
0.0
 40
0.2499999999999889
100
AcDbArc
 50
90.0
 51
175.0128605707
  0
ARC
  5
150
330
1F
100
AcDbEntity
  8
0
100
AcDbCircle
 10
319.7339761097
 20
251.2170148189
 30
0.0
 40
0.2500000000000284
100
AcDbArc
 50
184.9871394293
 51
270.0
  0
ARC
  5
151
330
1F
100
AcDbEntity
  8
0
100
AcDbCircle
 10
319.7339761097
 20
52.9170148189
 30
0.0
 40
0.2499999999999716
100
AcDbArc
 50
90.0
 51
175.0128605707
  0
LINE
  5
152
330
1F
100
AcDbEntity
  8
0
100
AcDbLine
 10
322.0048416948
 20
250.9670148189
 30
0.0
 11
319.7339761097
 21
250.9670148189
 31
0.0
  0
LINE
  5
153
330
1F
100
AcDbEntity
  8
0
100
AcDbLine
 10
319.7339761097
 20
53.1670148189
 30
0.0
 11
322.0048416948
 21
53.1670148189
 31
0.0
  0
LINE
  5
154
330
1F
100
AcDbEntity
  8
0
100
AcDbLine
 10
324.8048413926
 20
250.9670148189
 30
0.0
 11
323.9339761097
 21
250.9670148189
 31
0.0
  0
LINE
  5
155
330
1F
100
AcDbEntity
  8
0
100
AcDbLine
 10
323.9339761097
 20
53.1670148189
 30
0.0
 11
324.8048413926
 21
53.1670148189
 31
0.0
  0
LINE
  5
156
330
1F
100
AcDbEntity
  8
0
100
AcDbLine
 10
329.5048413926
 20
252.0670148189
 30
0.0
 11
324.8048413926
 21
252.0670148189
 31
0.0
  0
LINE
  5
157
330
1F
100
AcDbEntity
  8
0
100
AcDbLine
 10
324.8048413926
 20
52.0670148189
 30
0.0
 11
329.5048413926
 21
52.0670148189
 31
0.0
  0
ARC
  5
158
330
1F
100
AcDbEntity
  8
0
100
AcDbCircle
 10
329.504842964
 20
250.7670148188
 30
0.0
 40
1.300000000004713
100
AcDbArc
 50
0.0
 51
90.0000692571
  0
ARC
  5
159
330
1F
100
AcDbEntity
  8
0
100
AcDbCircle
 10
329.504842964
 20
53.3670148189
 30
0.0
 40
1.300000000004673
100
AcDbArc
 50
269.9999307429
 51
0.0
  0
LINE
  5
15A
330
1F
100
AcDbEntity
  8
0
100
AcDbLine
 10
330.804842964
 20
53.3670148189
 30
0.0
 11
330.804842964
 21
250.7670148188
 31
0.0
  0
LINE
  5
15B
330
1F
100
AcDbEntity
  8
0
100
AcDbLine
 10
306.4838100529
 20
52.1170662193
 30
0.0
 11
308.2273751587
 21
53.8606313251
 31
0.0
  0
LINE
  5
15C
330
1F
100
AcDbEntity
  8
0
100
AcDbLine
 10
308.2273751587
 20
250.2733983126
 30
0.0
 11
306.4838100529
 21
252.0169634184
 31
0.0
  0
LINE
  5
15D
330
1F
100
AcDbEntity
  8
0
100
AcDbLine
 10
306.4838100529
 20
252.0169634184
 30
0.0
 11
293.3048413926
 21
252.0169634184
 31
0.0
  0
LINE
  5
15E
330
1F
100
AcDbEntity
  8
0
100
AcDbLine
 10
293.3048413926
 20
52.1170662193
 30
0.0
 11
306.4838100529
 21
52.1170662193
 31
0.0
  0
LINE
  5
15F
330
1F
100
AcDbEntity
  8
0
100
AcDbLine
 10
308.2273751587
 20
53.8606313251
 30
0.0
 11
315.249708958
 21
55.8677696325
 31
0.0
  0
LINE
  5
160
330
1F
100
AcDbEntity
  8
0
100
AcDbLine
 10
315.249708958
 20
248.2662600052
 30
0.0
 11
308.2273751587
 21
250.2733983126
 31
0.0
  0
LINE
  5
161
330
1F
100
AcDbEntity
  8
0
100
AcDbLine
 10
317.8048416948
 20
248.2662600052
 30
0.0
 11
315.249708958
 21
248.2662600052
 31
0.0
  0
LINE
  5
162
330
1F
100
AcDbEntity
  8
0
100
AcDbLine
 10
315.249708958
 20
55.8677696325
 30
0.0
 11
317.8048416948
 21
55.8677696325
 31
0.0
  0
LINE
  5
163
330
1F
100
AcDbEntity
  8
0
100
AcDbLine
 10
28.1048413926
 20
52.0670148189
 30
0.0
 11
32.8048413926
 21
52.0670148189
 31
0.0
  0
LINE
  5
164
330
1F
100
AcDbEntity
  8
0
100
AcDbLine
 10
32.8048413926
 20
252.0670148189
 30
0.0
 11
28.1048413926
 21
252.0670148189
 31
0.0
  0
ARC
  5
165
330
1F
100
AcDbEntity
  8
0
100
AcDbCircle
 10
28.1048398212
 20
53.3670148189
 30
0.0
 40
1.300000000004635
100
AcDbArc
 50
180.0
 51
270.0000692571
  0
ARC
  5
166
330
1F
100
AcDbEntity
  8
0
100
AcDbCircle
 10
28.1048398212
 20
250.7670148188
 30
0.0
 40
1.300000000004713
100
AcDbArc
 50
89.9999307429
 51
180.0
  0
LINE
  5
167
330
1F
100
AcDbEntity
  8
0
100
AcDbLine
 10
26.8048398212
 20
250.7670148188
 30
0.0
 11
26.8048398212
 21
53.3670148189
 31
0.0
  0
LINE
  5
168
330
1F
100
AcDbEntity
  8
0
100
AcDbLine
 10
51.1258727322
 20
52.1170662193
 30
0.0
 11
64.3048413926
 21
52.1170662193
 31
0.0
  0
LINE
  5
169
330
1F
100
AcDbEntity
  8
0
100
AcDbLine
 10
64.3048413926
 20
252.0169634184
 30
0.0
 11
51.1258727322
 21
252.0169634184
 31
0.0
  0
LINE
  5
16A
330
1F
100
AcDbEntity
  8
0
100
AcDbLine
 10
51.1258727322
 20
252.0169634184
 30
0.0
 11
49.3823076264
 21
250.2733983126
 31
0.0
  0
LINE
  5
16B
330
1F
100
AcDbEntity
  8
0
100
AcDbLine
 10
49.3823076264
 20
53.8606313251
 30
0.0
 11
51.1258727322
 21
52.1170662193
 31
0.0
  0
LINE
  5
16C
330
1F
100
AcDbEntity
  8
0
100
AcDbLine
 10
49.3823076264
 20
250.2733983126
 30
0.0
 11
42.3599738271
 21
248.2662600052
 31
0.0
  0
LINE
  5
16D
330
1F
100
AcDbEntity
  8
0
100
AcDbLine
 10
42.3599738271
 20
55.8677696325
 30
0.0
 11
49.3823076264
 21
53.8606313251
 31
0.0
  0
LINE
  5
16E
330
1F
100
AcDbEntity
  8
0
100
AcDbLine
 10
39.8048410904
 20
55.8677696325
 30
0.0
 11
42.3599738271
 21
55.8677696325
 31
0.0
  0
LINE
  5
16F
330
1F
100
AcDbEntity
  8
0
100
AcDbLine
 10
42.3599738271
 20
248.2662600052
 30
0.0
 11
39.8048410904
 21
248.2662600052
 31
0.0
  0
LINE
  5
170
330
1F
100
AcDbEntity
  8
0
100
AcDbLine
 10
164.3698413887
 20
339.0670148189
 30
0.0
 11
164.3698413887
 21
331.5670148189
 31
0.0
  0
LINE
  5
171
330
1F
100
AcDbEntity
  8
0
100
AcDbLine
 10
177.8698413887
 20
339.0670148189
 30
0.0
 11
177.8698413887
 21
331.5670148189
 31
0.0
  0
LINE
  5
172
330
1F
100
AcDbEntity
  8
0
100
AcDbLine
 10
164.3698413887
 20
331.5670148189
 30
0.0
 11
177.8698413887
 21
331.5670148189
 31
0.0
  0
LINE
  5
173
330
1F
100
AcDbEntity
  8
0
100
AcDbLine
 10
164.3698413887
 20
339.0670148189
 30
0.0
 11
177.8698413887
 21
339.0670148189
 31
0.0
  0
LINE
  5
174
330
1F
100
AcDbEntity
  8
0
100
AcDbLine
 10
150.8698413887
 20
339.0670148189
 30
0.0
 11
150.8698413887
 21
331.5670148189
 31
0.0
  0
LINE
  5
175
330
1F
100
AcDbEntity
  8
0
100
AcDbLine
 10
150.8698413887
 20
331.5670148189
 30
0.0
 11
164.3698413887
 21
331.5670148189
 31
0.0
  0
LINE
  5
176
330
1F
100
AcDbEntity
  8
0
100
AcDbLine
 10
150.8698413887
 20
339.0670148189
 30
0.0
 11
164.3698413887
 21
339.0670148189
 31
0.0
  0
LINE
  5
177
330
1F
100
AcDbEntity
  8
0
100
AcDbLine
 10
176.3698413887
 20
321.5670148189
 30
0.0
 11
152.3698413887
 21
321.5670148189
 31
0.0
  0
LINE
  5
178
330
1F
100
AcDbEntity
  8
0
100
AcDbLine
 10
151.6198413887
 20
322.3170148189
 30
0.0
 11
177.1198413887
 21
322.3170148189
 31
0.0
  0
LINE
  5
179
330
1F
100
AcDbEntity
  8
0
100
AcDbLine
 10
175.0198413887
 20
353.8170148189
 30
0.0
 11
153.7198413887
 21
353.8170148189
 31
0.0
  0
LINE
  5
17A
330
1F
100
AcDbEntity
  8
0
100
AcDbLine
 10
176.3698413887
 20
344.9670148189
 30
0.0
 11
152.3698413887
 21
344.9670148189
 31
0.0
  0
LINE
  5
17B
330
1F
100
AcDbEntity
  8
0
100
AcDbLine
 10
176.3698413887
 20
345.3670148189
 30
0.0
 11
152.3698413887
 21
345.3670148189
 31
0.0
  0
LINE
  5
17C
330
1F
100
AcDbEntity
  8
0
100
AcDbLine
 10
154.918107529
 20
354.9670148189
 30
0.0
 11
154.8698413887
 21
354.9670148189
 31
0.0
  0
LINE
  5
17D
330
1F
100
AcDbEntity
  8
0
100
AcDbLine
 10
173.8698413887
 20
354.9670148189
 30
0.0
 11
154.918107529
 21
354.9670148189
 31
0.0
  0
LINE
  5
17E
330
1F
100
AcDbEntity
  8
0
100
AcDbLine
 10
176.4698413887
 20
320.5670148189
 30
0.0
 11
152.2698413887
 21
320.5670148189
 31
0.0
  0
LINE
  5
17F
330
1F
100
AcDbEntity
  8
0
100
AcDbLine
 10
152.2698413887
 20
311.5060627975
 30
0.0
 11
152.2698413887
 21
320.5670148189
 31
0.0
  0
LINE
  5
180
330
1F
100
AcDbEntity
  8
0
100
AcDbLine
 10
193.2398413925
 20
339.0670148189
 30
0.0
 11
193.2398413925
 21
331.5670148189
 31
0.0
  0
LINE
  5
181
330
1F
100
AcDbEntity
  8
0
100
AcDbLine
 10
193.2398413925
 20
339.0670148189
 30
0.0
 11
206.7398413925
 21
339.0670148189
 31
0.0
  0
LINE
  5
182
330
1F
100
AcDbEntity
  8
0
100
AcDbLine
 10
206.7398413925
 20
339.0670148189
 30
0.0
 11
206.7398413925
 21
331.5670148189
 31
0.0
  0
LINE
  5
183
330
1F
100
AcDbEntity
  8
0
100
AcDbLine
 10
193.2398413925
 20
331.5670148189
 30
0.0
 11
206.7398413925
 21
331.5670148189
 31
0.0
  0
LINE
  5
184
330
1F
100
AcDbEntity
  8
0
100
AcDbLine
 10
179.7398413925
 20
339.0670148189
 30
0.0
 11
179.7398413925
 21
331.5670148189
 31
0.0
  0
LINE
  5
185
330
1F
100
AcDbEntity
  8
0
100
AcDbLine
 10
179.7398413925
 20
331.5670148189
 30
0.0
 11
193.2398413925
 21
331.5670148189
 31
0.0
  0
LINE
  5
186
330
1F
100
AcDbEntity
  8
0
100
AcDbLine
 10
179.7398413925
 20
339.0670148189
 30
0.0
 11
193.2398413925
 21
339.0670148189
 31
0.0
  0
LINE
  5
187
330
1F
100
AcDbEntity
  8
0
100
AcDbLine
 10
205.2398413925
 20
321.5670148189
 30
0.0
 11
181.2398413925
 21
321.5670148189
 31
0.0
  0
LINE
  5
188
330
1F
100
AcDbEntity
  8
0
100
AcDbLine
 10
180.4898413925
 20
322.3170148189
 30
0.0
 11
205.9898413925
 21
322.3170148189
 31
0.0
  0
LINE
  5
189
330
1F
100
AcDbEntity
  8
0
100
AcDbLine
 10
203.8898413925
 20
353.8170148189
 30
0.0
 11
182.5898413925
 21
353.8170148189
 31
0.0
  0
LINE
  5
18A
330
1F
100
AcDbEntity
  8
0
100
AcDbLine
 10
181.3008091488
 20
345.3670148189
 30
0.0
 11
181.2398413925
 21
345.3670148189
 31
0.0
  0
LINE
  5
18B
330
1F
100
AcDbEntity
  8
0
100
AcDbLine
 10
205.2398413925
 20
345.3670148189
 30
0.0
 11
181.3008091488
 21
345.3670148189
 31
0.0
  0
LINE
  5
18C
330
1F
100
AcDbEntity
  8
0
100
AcDbLine
 10
181.3008091488
 20
344.9670148189
 30
0.0
 11
181.2398413925
 21
344.9670148189
 31
0.0
  0
LINE
  5
18D
330
1F
100
AcDbEntity
  8
0
100
AcDbLine
 10
205.2398413925
 20
344.9670148189
 30
0.0
 11
181.3008091488
 21
344.9670148189
 31
0.0
  0
LINE
  5
18E
330
1F
100
AcDbEntity
  8
0
100
AcDbLine
 10
202.7398413925
 20
354.9670148189
 30
0.0
 11
183.7398413925
 21
354.9670148189
 31
0.0
  0
LINE
  5
18F
330
1F
100
AcDbEntity
  8
0
100
AcDbLine
 10
205.3398413925
 20
320.5670148189
 30
0.0
 11
181.1398413925
 21
320.5670148189
 31
0.0
  0
LINE
  5
190
330
1F
100
AcDbEntity
  8
0
100
AcDbLine
 10
205.3398413925
 20
311.5060627977
 30
0.0
 11
205.3398413925
 21
320.5670148189
 31
0.0
  0
LINE
  5
191
330
1F
100
AcDbEntity
  8
0
100
AcDbLine
 10
289.2048413926
 20
305.8170148189
 30
0.0
 11
289.2338300575
 21
305.8170148189
 31
0.0
  0
LINE
  5
192
330
1F
100
AcDbEntity
  8
0
100
AcDbLine
 10
289.2338300575
 20
305.8170148189
 30
0.0
 11
291.153118074
 21
305.8170148189
 31
0.0
  0
LINE
  5
193
330
1F
100
AcDbEntity
  8
0
100
AcDbLine
 10
291.153118074
 20
305.8170148189
 30
0.0
 11
291.6525654928
 21
305.8170148189
 31
0.0
  0
LINE
  5
194
330
1F
100
AcDbEntity
  8
0
100
AcDbLine
 10
291.6525654928
 20
305.8170148189
 30
0.0
 11
293.3993532771
 21
305.8170148189
 31
0.0
  0
LINE
  5
195
330
1F
100
AcDbEntity
  8
0
100
AcDbLine
 10
293.3993532771
 20
305.8170148189
 30
0.0
 11
293.4048413926
 21
305.8170148189
 31
0.0
  0
LINE
  5
196
330
1F
100
AcDbEntity
  8
0
100
AcDbLine
 10
244.2048413926
 20
305.8170148189
 30
0.0
 11
244.2338300575
 21
305.8170148189
 31
0.0
  0
LINE
  5
197
330
1F
100
AcDbEntity
  8
0
100
AcDbLine
 10
244.2338300575
 20
305.8170148189
 30
0.0
 11
246.153118074
 21
305.8170148189
 31
0.0
  0
LINE
  5
198
330
1F
100
AcDbEntity
  8
0
100
AcDbLine
 10
246.153118074
 20
305.8170148189
 30
0.0
 11
246.6525654928
 21
305.8170148189
 31
0.0
  0
LINE
  5
199
330
1F
100
AcDbEntity
  8
0
100
AcDbLine
 10
246.6525654928
 20
305.8170148189
 30
0.0
 11
248.3993532771
 21
305.8170148189
 31
0.0
  0
LINE
  5
19A
330
1F
100
AcDbEntity
  8
0
100
AcDbLine
 10
248.3993532771
 20
305.8170148189
 30
0.0
 11
248.4048413926
 21
305.8170148189
 31
0.0
  0
LINE
  5
19B
330
1F
100
AcDbEntity
  8
0
100
AcDbLine
 10
246.3189417222
 20
293.2670148189
 30
0.0
 11
246.0048413926
 21
293.2670148189
 31
0.0
  0
LINE
  5
19C
330
1F
100
AcDbEntity
  8
0
100
AcDbLine
 10
246.6048413926
 20
293.2670148189
 30
0.0
 11
246.3189417222
 21
293.2670148189
 31
0.0
  0
LINE
  5
19D
330
1F
100
AcDbEntity
  8
0
100
AcDbLine
 10
66.4565647112
 20
305.8170148189
 30
0.0
 11
68.3758527277
 21
305.8170148189
 31
0.0
  0
LINE
  5
19E
330
1F
100
AcDbEntity
  8
0
100
AcDbLine
 10
68.3758527277
 20
305.8170148189
 30
0.0
 11
68.4048413926
 21
305.8170148189
 31
0.0
  0
LINE
  5
19F
330
1F
100
AcDbEntity
  8
0
100
AcDbLine
 10
64.2048413926
 20
305.8170148189
 30
0.0
 11
64.210329508
 21
305.8170148189
 31
0.0
  0
LINE
  5
1A0
330
1F
100
AcDbEntity
  8
0
100
AcDbLine
 10
64.210329508
 20
305.8170148189
 30
0.0
 11
65.9571172923
 21
305.8170148189
 31
0.0
  0
LINE
  5
1A1
330
1F
100
AcDbEntity
  8
0
100
AcDbLine
 10
65.9571172923
 20
305.8170148189
 30
0.0
 11
66.4565647112
 21
305.8170148189
 31
0.0
  0
LINE
  5
1A2
330
1F
100
AcDbEntity
  8
0
100
AcDbLine
 10
111.4565647112
 20
305.8170148189
 30
0.0
 11
113.3758527277
 21
305.8170148189
 31
0.0
  0
LINE
  5
1A3
330
1F
100
AcDbEntity
  8
0
100
AcDbLine
 10
113.3758527277
 20
305.8170148189
 30
0.0
 11
113.4048413926
 21
305.8170148189
 31
0.0
  0
LINE
  5
1A4
330
1F
100
AcDbEntity
  8
0
100
AcDbLine
 10
109.2048413926
 20
305.8170148189
 30
0.0
 11
109.210329508
 21
305.8170148189
 31
0.0
  0
LINE
  5
1A5
330
1F
100
AcDbEntity
  8
0
100
AcDbLine
 10
109.210329508
 20
305.8170148189
 30
0.0
 11
110.9571172923
 21
305.8170148189
 31
0.0
  0
LINE
  5
1A6
330
1F
100
AcDbEntity
  8
0
100
AcDbLine
 10
110.9571172923
 20
305.8170148189
 30
0.0
 11
111.4565647112
 21
305.8170148189
 31
0.0
  0
LINE
  5
1A7
330
1F
100
AcDbEntity
  8
0
100
AcDbLine
 10
111.6048413926
 20
293.2670148189
 30
0.0
 11
111.0048413926
 21
293.2670148189
 31
0.0
  0
CIRCLE
  5
1A8
330
1F
100
AcDbEntity
  8
0
100
AcDbCircle
 10
289.0048413926
 20
284.0670148189
 30
0.0
 40
2.99999999999996
  0
CIRCLE
  5
1A9
330
1F
100
AcDbEntity
  8
0
100
AcDbCircle
 10
289.0048413926
 20
284.0670148189
 30
0.0
 40
0.8999999999999482
  0
CIRCLE
  5
1AA
330
1F
100
AcDbEntity
  8
0
100
AcDbCircle
 10
230.8048413926
 20
280.8631672416
 30
0.0
 40
3.0
  0
CIRCLE
  5
1AB
330
1F
100
AcDbEntity
  8
0
100
AcDbCircle
 10
230.8048413926
 20
280.8631672416
 30
0.0
 40
0.9000000000000341
  0
LINE
  5
1AC
330
1F
100
AcDbEntity
  8
0
100
AcDbLine
 10
67.7048413926
 20
2.5670148189
 30
0.0
 11
69.5048413926
 21
2.5670148189
 31
0.0
  0
CIRCLE
  5
1AD
330
1F
100
AcDbEntity
  8
0
100
AcDbCircle
 10
126.8048413926
 20
17.2631672416
 30
0.0
 40
3.000000000000014
  0
CIRCLE
  5
1AE
330
1F
100
AcDbEntity
  8
0
100
AcDbCircle
 10
126.8048413926
 20
17.2631672416
 30
0.0
 40
0.9000000000000199
  0
CIRCLE
  5
1AF
330
1F
100
AcDbEntity
  8
0
100
AcDbCircle
 10
68.6048413926
 20
19.3670148189
 30
0.0
 40
3.0
  0
CIRCLE
  5
1B0
330
1F
100
AcDbEntity
  8
0
100
AcDbCircle
 10
68.6048413926
 20
19.3670148189
 30
0.0
 40
0.9000000000000057
  0
CIRCLE
  5
1B1
330
1F
100
AcDbEntity
  8
0
100
AcDbCircle
 10
289.0048413926
 20
151.7170148189
 30
0.0
 40
3.0
  0
CIRCLE
  5
1B2
330
1F
100
AcDbEntity
  8
0
100
AcDbCircle
 10
289.0048413926
 20
151.7170148189
 30
0.0
 40
0.8999999999999773
  0
CIRCLE
  5
1B3
330
1F
100
AcDbEntity
  8
0
100
AcDbCircle
 10
68.6048413926
 20
284.0670148189
 30
0.0
 40
3.000000000000014
  0
CIRCLE
  5
1B4
330
1F
100
AcDbEntity
  8
0
100
AcDbCircle
 10
68.6048413926
 20
284.0670148189
 30
0.0
 40
0.9000000000000057
  0
CIRCLE
  5
1B5
330
1F
100
AcDbEntity
  8
0
100
AcDbCircle
 10
68.6048413926
 20
151.7170148189
 30
0.0
 40
3.000000000000014
  0
CIRCLE
  5
1B6
330
1F
100
AcDbEntity
  8
0
100
AcDbCircle
 10
68.6048413926
 20
151.7170148189
 30
0.0
 40
0.9000000000000057
  0
CIRCLE
  5
1B7
330
1F
100
AcDbEntity
  8
0
100
AcDbCircle
 10
289.0048413926
 20
19.3670148189
 30
0.0
 40
3.0
  0
CIRCLE
  5
1B8
330
1F
100
AcDbEntity
  8
0
100
AcDbCircle
 10
289.0048413926
 20
19.3670148189
 30
0.0
 40
0.8999999999999773
  0
LINE
  5
1B9
330
1F
100
AcDbEntity
  8
0
100
AcDbLine
 10
288.1048413926
 20
2.5670148189
 30
0.0
 11
289.9048413926
 21
2.5670148189
 31
0.0
  0
CIRCLE
  5
1BA
330
1F
100
AcDbEntity
  8
0
100
AcDbCircle
 10
126.8048413926
 20
280.8631672416
 30
0.0
 40
3.0
  0
CIRCLE
  5
1BB
330
1F
100
AcDbEntity
  8
0
100
AcDbCircle
 10
126.8048413926
 20
280.8631672416
 30
0.0
 40
0.8999999999999915
  0
CIRCLE
  5
1BC
330
1F
100
AcDbEntity
  8
0
100
AcDbCircle
 10
230.8048413926
 20
17.2631672416
 30
0.0
 40
3.0
  0
CIRCLE
  5
1BD
330
1F
100
AcDbEntity
  8
0
100
AcDbCircle
 10
230.8048413926
 20
17.2631672416
 30
0.0
 40
0.8999999999999773
  0
LINE
  5
1BE
330
1F
100
AcDbEntity
  8
0
100
AcDbLine
 10
198.3698413887
 20
304.7670148189
 30
0.0
 11
130.3698413887
 21
304.7670148189
 31
0.0
  0
LINE
  5
1BF
330
1F
100
AcDbEntity
  8
0
100
AcDbLine
 10
176.3698413887
 20
314.7670148189
 30
0.0
 11
152.3698413887
 21
314.7670148189
 31
0.0
  0
LINE
  5
1C0
330
1F
100
AcDbEntity
  8
0
100
AcDbLine
 10
227.2398413926
 20
304.7670148189
 30
0.0
 11
198.3698413887
 21
304.7670148189
 31
0.0
  0
LINE
  5
1C1
330
1F
100
AcDbEntity
  8
0
100
AcDbLine
 10
205.2398413926
 20
314.7670148189
 30
0.0
 11
181.2398413926
 21
314.7670148189
 31
0.0
  0
LINE
  5
1C2
330
1F
100
AcDbEntity
  8
0
100
AcDbLine
 10
297.1280646973
 20
301.0670148189
 30
0.0
 11
297.1280646975
 21
293.7670148189
 31
0.0
  0
LINE
  5
1C3
330
1F
100
AcDbEntity
  8
0
100
AcDbLine
 10
60.4816180878
 20
293.7670148189
 30
0.0
 11
60.4816180878
 21
301.0670148189
 31
0.0
  0
LINE
  5
1C4
330
1F
100
AcDbEntity
  8
0
100
AcDbLine
 10
60.4816180878
 20
293.7670148189
 30
0.0
 11
297.1280646975
 21
293.7670148189
 31
0.0
  0
ELLIPSE
  5
1C5
330
1F
100
AcDbEntity
  8
0
100
AcDbEllipse
 10
296.3048413925
 20
301.0670148189
 30
0.0
 11
0.0
 21
1.700000000000045
 31
0.0
210
0.0
220
0.0
230
1.0
 40
0.4842490028
 41
4.712388980384697
 42
6.283185307179586
  0
LWPOLYLINE
  5
1C6
330
1F
100
AcDbEntity
  8
0
100
AcDbPolyline
 90
       10
 70
   128
 43
0.0
 10
60.4816180878
 20
301.0670148189
 10
60.4941246996
 20
301.3622167209
 10
60.5312645278
 20
301.6484490625
 10
60.5919090977
 20
301.9170148189
 10
60.6742157545
 20
302.1597537553
 10
60.7756836523
 20
302.3692903722
 10
60.8932297402
 20
302.5392580053
 10
61.0232824399
 20
302.6644922742
 10
61.1618901659
 20
302.741187999
 10
61.3048413925
 20
302.7670148189
  0
LINE
  5
1C7
330
1F
100
AcDbEntity
  8
0
100
AcDbLine
 10
61.3048413926
 20
302.7670148189
 30
0.0
 11
296.3048413925
 21
302.7670148189
 31
0.0
  0
ARC
  5
1C8
330
1F
100
AcDbEntity
  8
0
100
AcDbCircle
 10
61.3048413926
 20
301.0670148189
 30
0.0
 40
1.70000000000001
100
AcDbArc
 50
90.0
 51
180.0
  0
ARC
  5
1C9
330
1F
100
AcDbEntity
  8
0
100
AcDbCircle
 10
61.3048413926
 20
301.0670148189
 30
0.0
 40
0.9999999999999929
100
AcDbArc
 50
139.5433892382
 51
180.0
  0
LINE
  5
1CA
330
1F
100
AcDbEntity
  8
0
100
AcDbLine
 10
59.6048413926
 20
301.0670148189
 30
0.0
 11
59.6048413925
 21
293.7670148189
 31
0.0
  0
LINE
  5
1CB
330
1F
100
AcDbEntity
  8
0
100
AcDbLine
 10
60.3048413925
 20
301.0670148189
 30
0.0
 11
60.3048413925
 21
293.7670148189
 31
0.0
  0
LINE
  5
1CC
330
1F
100
AcDbEntity
  8
0
100
AcDbLine
 10
60.3048413925
 20
293.7670148189
 30
0.0
 11
59.6048413925
 21
293.7670148189
 31
0.0
  0
LINE
  5
1CD
330
1F
100
AcDbEntity
  8
0
100
AcDbLine
 10
297.3048413926
 20
293.7670148189
 30
0.0
 11
297.3048413926
 21
301.0670148189
 31
0.0
  0
LINE
  5
1CE
330
1F
100
AcDbEntity
  8
0
100
AcDbLine
 10
298.0048413926
 20
293.7670148189
 30
0.0
 11
298.0048413926
 21
301.0670148189
 31
0.0
  0
LINE
  5
1CF
330
1F
100
AcDbEntity
  8
0
100
AcDbLine
 10
297.3048413926
 20
293.7670148189
 30
0.0
 11
298.0048413926
 21
293.7670148189
 31
0.0
  0
ARC
  5
1D0
330
1F
100
AcDbEntity
  8
0
100
AcDbCircle
 10
296.3048413926
 20
301.0670148189
 30
0.0
 40
1.700000000000045
100
AcDbArc
 50
0.0
 51
90.0000000018
  0
ARC
  5
1D1
330
1F
100
AcDbEntity
  8
0
100
AcDbCircle
 10
296.3048413926
 20
301.0670148189
 30
0.0
 40
1.000000000000057
100
AcDbArc
 50
0.0
 51
40.4566014936
  0
LINE
  5
1D2
330
1F
100
AcDbEntity
  8
0
100
AcDbLine
 10
64.3048413926
 20
5.0670148189
 30
0.0
 11
64.3048413926
 21
293.7670148189
 31
0.0
  0
LINE
  5
1D3
330
1F
100
AcDbEntity
  8
0
100
AcDbLine
 10
293.3048413926
 20
5.0670148189
 30
0.0
 11
293.3048413926
 21
293.7670148189
 31
0.0
  0
LINE
  5
1D4
330
1F
100
AcDbEntity
  8
0
100
AcDbLine
 10
64.3048413926
 20
3.3670148189
 30
0.0
 11
293.3048413926
 21
3.3670148189
 31
0.0
  0
LINE
  5
1D5
330
1F
100
AcDbEntity
  8
0
100
AcDbLine
 10
64.3048413926
 20
3.3670148189
 30
0.0
 11
64.3048413926
 21
5.0670148189
 31
0.0
  0
LINE
  5
1D6
330
1F
100
AcDbEntity
  8
0
100
AcDbLine
 10
293.3048413926
 20
3.3670148189
 30
0.0
 11
293.3048413926
 21
5.0670148189
 31
0.0
  0
LINE
  5
1D7
330
1F
100
AcDbEntity
  8
0
100
AcDbLine
 10
39.8048410904
 20
45.1670148189
 30
0.0
 11
39.8048410904
 21
258.9670148189
 31
0.0
  0
LINE
  5
1D8
330
1F
100
AcDbEntity
  8
0
100
AcDbLine
 10
35.6048410904
 20
45.1670148189
 30
0.0
 11
35.6048410904
 21
258.9670148189
 31
0.0
  0
LINE
  5
1D9
330
1F
100
AcDbEntity
  8
0
100
AcDbLine
 10
317.8048416948
 20
258.9670148189
 30
0.0
 11
317.8048416948
 21
45.1670148189
 31
0.0
  0
LINE
  5
1DA
330
1F
100
AcDbEntity
  8
0
100
AcDbLine
 10
322.0048416948
 20
258.9670148189
 30
0.0
 11
322.0048416948
 21
45.1670148189
 31
0.0
  0
LINE
  5
1DB
330
1F
100
AcDbEntity
  8
0
100
AcDbLine
 10
324.8048413926
 20
152.0670148189
 30
0.0
 11
324.8048413926
 21
52.0670148189
 31
0.0
  0
LINE
  5
1DC
330
1F
100
AcDbEntity
  8
0
100
AcDbLine
 10
324.8048413926
 20
252.0670148189
 30
0.0
 11
324.8048413926
 21
152.0670148189
 31
0.0
  0
LINE
  5
1DD
330
1F
100
AcDbEntity
  8
0
100
AcDbLine
 10
306.4838100529
 20
152.0670148189
 30
0.0
 11
306.4838100529
 21
52.1170662193
 31
0.0
  0
LINE
  5
1DE
330
1F
100
AcDbEntity
  8
0
100
AcDbLine
 10
306.4838100529
 20
252.0169634184
 30
0.0
 11
306.4838100529
 21
152.0670148189
 31
0.0
  0
LINE
  5
1DF
330
1F
100
AcDbEntity
  8
0
100
AcDbLine
 10
308.2273751587
 20
152.0670148189
 30
0.0
 11
308.2273751587
 21
53.8606313251
 31
0.0
  0
LINE
  5
1E0
330
1F
100
AcDbEntity
  8
0
100
AcDbLine
 10
308.2273751587
 20
250.2733983126
 30
0.0
 11
308.2273751587
 21
152.0670148189
 31
0.0
  0
LINE
  5
1E1
330
1F
100
AcDbEntity
  8
0
100
AcDbLine
 10
315.249708958
 20
152.0670148189
 30
0.0
 11
315.249708958
 21
55.8677696325
 31
0.0
  0
LINE
  5
1E2
330
1F
100
AcDbEntity
  8
0
100
AcDbLine
 10
315.249708958
 20
248.2662600052
 30
0.0
 11
315.249708958
 21
152.0670148189
 31
0.0
  0
LINE
  5
1E3
330
1F
100
AcDbEntity
  8
0
100
AcDbLine
 10
32.8048413926
 20
52.0670148189
 30
0.0
 11
32.8048413926
 21
252.0670148189
 31
0.0
  0
LINE
  5
1E4
330
1F
100
AcDbEntity
  8
0
100
AcDbLine
 10
51.1258727322
 20
52.1170662193
 30
0.0
 11
51.1258727322
 21
252.0169634184
 31
0.0
  0
LINE
  5
1E5
330
1F
100
AcDbEntity
  8
0
100
AcDbLine
 10
49.3823076264
 20
53.8606313251
 30
0.0
 11
49.3823076264
 21
250.2733983126
 31
0.0
  0
LINE
  5
1E6
330
1F
100
AcDbEntity
  8
0
100
AcDbLine
 10
42.3599738271
 20
55.8677696325
 30
0.0
 11
42.3599738271
 21
248.2662600052
 31
0.0
  0
LINE
  5
1E7
330
1F
100
AcDbEntity
  8
0
  6
PHANTOM
 62
     8
370
    18
100
AcDbLine
 10
153.4698413887
 20
353.5670148189
 30
0.0
 11
175.2698413887
 21
353.5670148189
 31
0.0
  0
LINE
  5
1E8
330
1F
100
AcDbEntity
  8
0
  6
PHANTOM
 62
     8
370
    18
100
AcDbLine
 10
153.5252204339
 20
353.5670148189
 30
0.0
 11
153.5252204339
 21
345.3670148189
 31
0.0
  0
ARC
  5
1E9
330
1F
100
AcDbEntity
  8
0
  6
PHANTOM
 62
     8
370
    18
100
AcDbCircle
 10
154.9216730621
 20
353.5705622368
 30
0.0
 40
1.396457133984052
100
AcDbArc
 50
90.1462917956
 51
180.1455485371
  0
LINE
  5
1EA
330
1F
100
AcDbEntity
  8
0
  6
PHANTOM
 62
     8
370
    18
100
AcDbLine
 10
182.3398413925
 20
353.5670148189
 30
0.0
 11
204.1398413925
 21
353.5670148189
 31
0.0
  0
LINE
  5
1EB
330
1F
100
AcDbEntity
  8
0
  6
PHANTOM
 62
     8
370
    18
100
AcDbLine
 10
287.2048413926
 20
303.8170148189
 30
0.0
 11
295.4048413926
 21
303.8170148189
 31
0.0
  0
LINE
  5
1EC
330
1F
100
AcDbEntity
  8
0
  6
PHANTOM
 62
     8
370
    18
100
AcDbLine
 10
242.2048413926
 20
303.8170148189
 30
0.0
 11
250.4048413926
 21
303.8170148189
 31
0.0
  0
LINE
  5
1ED
330
1F
100
AcDbEntity
  8
0
  6
PHANTOM
 62
     8
370
    18
100
AcDbLine
 10
62.2048413926
 20
303.8170148189
 30
0.0
 11
70.4048413926
 21
303.8170148189
 31
0.0
  0
LINE
  5
1EE
330
1F
100
AcDbEntity
  8
0
  6
PHANTOM
 62
     8
370
    18
100
AcDbLine
 10
107.2048413926
 20
303.8170148189
 30
0.0
 11
115.4048413926
 21
303.8170148189
 31
0.0
  0
LINE
  5
1EF
330
1F
100
AcDbEntity
  8
0
  6
PHANTOM
 62
     8
370
    18
100
AcDbLine
 10
176.3698413887
 20
312.7670148189
 30
0.0
 11
152.3698413887
 21
312.7670148189
 31
0.0
  0
LINE
  5
1F0
330
1F
100
AcDbEntity
  8
0
  6
PHANTOM
 62
     8
370
    18
100
AcDbLine
 10
205.2398413926
 20
312.7670148189
 30
0.0
 11
181.2398413926
 21
312.7670148189
 31
0.0
  0
LINE
  5
1F1
330
1F
100
AcDbEntity
  8
0
  6
PHANTOM
 62
     8
370
    18
100
AcDbLine
 10
60.4816180878
 20
301.0670148189
 30
0.0
 11
297.1280646973
 21
301.0670148189
 31
0.0
  0
LINE
  5
1F2
330
1F
100
AcDbEntity
  8
0
  6
PHANTOM
 62
     8
370
    18
100
AcDbLine
 10
60.3048413925
 20
301.0670148189
 30
0.0
 11
59.6048413926
 21
301.0670148189
 31
0.0
  0
LINE
  5
1F3
330
1F
100
AcDbEntity
  8
0
  6
PHANTOM
 62
     8
370
    18
100
AcDbLine
 10
297.3048413926
 20
301.0670148189
 30
0.0
 11
298.0048413926
 21
301.0670148189
 31
0.0
  0
LINE
  5
1F4
330
1F
100
AcDbEntity
  8
0
  6
PHANTOM
 62
     8
370
    18
100
AcDbLine
 10
64.3048413926
 20
5.0670148189
 30
0.0
 11
293.3048413926
 21
5.0670148189
 31
0.0
  0
LINE
  5
1F5
330
1F
100
AcDbEntity
  8
0
  6
PHANTOM
 62
     8
370
    18
100
AcDbLine
 10
38.8067339724
 20
45.1235487512
 30
0.0
 11
38.8067339724
 21
259.0104808865
 31
0.0
  0
LINE
  5
1F6
330
1F
100
AcDbEntity
  8
0
  6
PHANTOM
 62
     8
370
    18
100
AcDbLine
 10
34.6067339724
 20
45.1235487512
 30
0.0
 11
34.6067339724
 21
259.0104808865
 31
0.0
  0
LINE
  5
1F7
330
1F
100
AcDbEntity
  8
0
  6
PHANTOM
 62
     8
370
    18
100
AcDbLine
 10
33.9247602344
 20
52.9387478527
 30
0.0
 11
33.9247602344
 21
251.195281785
 31
0.0
  0
LINE
  5
1F8
330
1F
100
AcDbEntity
  8
0
  6
PHANTOM
 62
     8
370
    18
100
AcDbLine
 10
38.1247602344
 20
52.9387478527
 30
0.0
 11
38.1247602344
 21
251.195281785
 31
0.0
  0
LINE
  5
1F9
330
1F
100
AcDbEntity
  8
0
  6
PHANTOM
 62
     8
370
    18
100
AcDbLine
 10
33.6757066754
 20
53.1670148189
 30
0.0
 11
33.6757066754
 21
250.9670148189
 31
0.0
  0
LINE
  5
1FA
330
1F
100
AcDbEntity
  8
0
  6
PHANTOM
 62
     8
370
    18
100
AcDbLine
 10
37.8757066754
 20
53.1670148189
 30
0.0
 11
37.8757066754
 21
250.9670148189
 31
0.0
  0
LINE
  5
1FB
330
1F
100
AcDbEntity
  8
0
  6
PHANTOM
 62
     8
370
    18
100
AcDbLine
 10
318.8029488127
 20
259.0104808865
 30
0.0
 11
318.8029488127
 21
45.1235487512
 31
0.0
  0
LINE
  5
1FC
330
1F
100
AcDbEntity
  8
0
  6
PHANTOM
 62
     8
370
    18
100
AcDbLine
 10
323.0029488127
 20
259.0104808865
 30
0.0
 11
323.0029488127
 21
45.1235487512
 31
0.0
  0
LINE
  5
1FD
330
1F
100
AcDbEntity
  8
0
  6
PHANTOM
 62
     8
370
    18
100
AcDbLine
 10
323.6849225508
 20
251.195281785
 30
0.0
 11
323.6849225508
 21
52.9387478527
 31
0.0
  0
LINE
  5
1FE
330
1F
100
AcDbEntity
  8
0
  6
PHANTOM
 62
     8
370
    18
100
AcDbLine
 10
319.4849225508
 20
251.195281785
 30
0.0
 11
319.4849225508
 21
52.9387478527
 31
0.0
  0
LINE
  5
1FF
330
1F
100
AcDbEntity
  8
0
  6
PHANTOM
 62
     8
370
    18
100
AcDbLine
 10
323.9339761097
 20
250.9670148189
 30
0.0
 11
323.9339761097
 21
53.1670148189
 31
0.0
  0
LINE
  5
200
330
1F
100
AcDbEntity
  8
0
  6
PHANTOM
 62
     8
370
    18
100
AcDbLine
 10
319.7339761097
 20
250.9670148189
 30
0.0
 11
319.7339761097
 21
53.1670148189
 31
0.0
  0
LINE
  5
201
330
1F
100
AcDbEntity
  8
0
  6
PHANTOM
 62
     8
370
    18
100
AcDbLine
 10
329.5048413926
 20
152.0670148189
 30
0.0
 11
329.5048413926
 21
52.0670148189
 31
0.0
  0
LINE
  5
202
330
1F
100
AcDbEntity
  8
0
  6
PHANTOM
 62
     8
370
    18
100
AcDbLine
 10
329.5048413926
 20
252.0670148189
 30
0.0
 11
329.5048413926
 21
152.0670148189
 31
0.0
  0
LINE
  5
203
330
1F
100
AcDbEntity
  8
0
  6
PHANTOM
 62
     8
370
    18
100
AcDbLine
 10
28.1048413926
 20
52.0670148189
 30
0.0
 11
28.1048413926
 21
252.0670148189
 31
0.0
  0
INSERT
  5
204
330
1F
100
AcDbEntity
  8
0
  6
Continuous
 62
     7
100
AcDbBlockReference
  2
SUP_2_
 10
-20.4645369047
 20
144.5670148189
 30
0.0
 41
3.0
 42
3.0
 43
3.0
  0
INSERT
  5
205
330
1F
100
AcDbEntity
  8
0
  6
Continuous
 62
     7
100
AcDbBlockReference
  2
ODA_2
 10
390.3639997266
 20
147.5520148189
 30
0.0
 41
3.0
 42
3.0
 43
3.0
  0
LINE
  5
206
330
1F
100
AcDbEntity
  8
0
100
AcDbLine
 10
-251.0789113811
 20
171.9543801245
 30
0.0
 11
-251.0789113811
 21
168.2543801245
 31
0.0
  0
LINE
  5
207
330
1F
100
AcDbEntity
  8
0
100
AcDbLine
 10
-236.5789113811
 20
168.2543801245
 30
0.0
 11
-236.5789113811
 21
171.9543801245
 31
0.0
  0
LINE
  5
208
330
1F
100
AcDbEntity
  8
0
100
AcDbLine
 10
-284.4089113811
 20
171.9543801245
 30
0.0
 11
-284.4089113811
 21
168.2543801245
 31
0.0
  0
LINE
  5
209
330
1F
100
AcDbEntity
  8
0
100
AcDbLine
 10
-269.9089113811
 20
168.2543801245
 30
0.0
 11
-269.9089113811
 21
171.9543801245
 31
0.0
  0
LINE
  5
20A
330
1F
100
AcDbEntity
  8
0
100
AcDbLine
 10
-317.7389113811
 20
171.9543801245
 30
0.0
 11
-317.7389113811
 21
168.2543801245
 31
0.0
  0
LINE
  5
20B
330
1F
100
AcDbEntity
  8
0
100
AcDbLine
 10
-303.2389113811
 20
168.2543801245
 30
0.0
 11
-303.2389113811
 21
171.9543801245
 31
0.0
  0
LINE
  5
20C
330
1F
100
AcDbEntity
  8
0
100
AcDbLine
 10
-351.0689113811
 20
171.9543801245
 30
0.0
 11
-351.0689113811
 21
168.2543801245
 31
0.0
  0
LINE
  5
20D
330
1F
100
AcDbEntity
  8
0
100
AcDbLine
 10
-336.5689113811
 20
168.2543801245
 30
0.0
 11
-336.5689113811
 21
171.9543801245
 31
0.0
  0
LINE
  5
20E
330
1F
100
AcDbEntity
  8
0
100
AcDbLine
 10
-384.3989113811
 20
171.9543801245
 30
0.0
 11
-384.3989113811
 21
168.2543801245
 31
0.0
  0
LINE
  5
20F
330
1F
100
AcDbEntity
  8
0
100
AcDbLine
 10
-369.8989113811
 20
168.2543801245
 30
0.0
 11
-369.8989113811
 21
171.9543801245
 31
0.0
  0
LINE
  5
210
330
1F
100
AcDbEntity
  8
0
100
AcDbLine
 10
-403.2289113811
 20
168.2543801245
 30
0.0
 11
-403.2289113811
 21
171.9543801245
 31
0.0
  0
LINE
  5
211
330
1F
100
AcDbEntity
  8
0
100
AcDbLine
 10
-234.4139113811
 20
171.9543801245
 30
0.0
 11
-234.4139113811
 21
168.2543801245
 31
0.0
  0
LINE
  5
212
330
1F
100
AcDbEntity
  8
0
100
AcDbLine
 10
-267.7439113811
 20
171.9543801245
 30
0.0
 11
-267.7439113811
 21
168.2543801245
 31
0.0
  0
LINE
  5
213
330
1F
100
AcDbEntity
  8
0
100
AcDbLine
 10
-253.2439113811
 20
168.2543801245
 30
0.0
 11
-253.2439113811
 21
171.9543801245
 31
0.0
  0
LINE
  5
214
330
1F
100
AcDbEntity
  8
0
100
AcDbLine
 10
-301.0739113811
 20
171.9543801245
 30
0.0
 11
-301.0739113811
 21
168.2543801245
 31
0.0
  0
LINE
  5
215
330
1F
100
AcDbEntity
  8
0
100
AcDbLine
 10
-286.5739113811
 20
168.2543801245
 30
0.0
 11
-286.5739113811
 21
171.9543801245
 31
0.0
  0
LINE
  5
216
330
1F
100
AcDbEntity
  8
0
100
AcDbLine
 10
-334.4039113811
 20
171.9543801245
 30
0.0
 11
-334.4039113811
 21
168.2543801245
 31
0.0
  0
LINE
  5
217
330
1F
100
AcDbEntity
  8
0
100
AcDbLine
 10
-319.9039113811
 20
168.2543801245
 30
0.0
 11
-319.9039113811
 21
171.9543801245
 31
0.0
  0
LINE
  5
218
330
1F
100
AcDbEntity
  8
0
100
AcDbLine
 10
-367.7339113811
 20
171.9543801245
 30
0.0
 11
-367.7339113811
 21
168.2543801245
 31
0.0
  0
LINE
  5
219
330
1F
100
AcDbEntity
  8
0
100
AcDbLine
 10
-353.2339113811
 20
168.2543801245
 30
0.0
 11
-353.2339113811
 21
171.9543801245
 31
0.0
  0
LINE
  5
21A
330
1F
100
AcDbEntity
  8
0
100
AcDbLine
 10
-401.0639113811
 20
171.9543801245
 30
0.0
 11
-401.0639113811
 21
168.2543801245
 31
0.0
  0
LINE
  5
21B
330
1F
100
AcDbEntity
  8
0
100
AcDbLine
 10
-386.5639113811
 20
168.2543801245
 30
0.0
 11
-386.5639113811
 21
171.9543801245
 31
0.0
  0
LINE
  5
21C
330
1F
100
AcDbEntity
  8
0
100
AcDbLine
 10
-251.0789113834
 20
175.8543801245
 30
0.0
 11
-251.0789113834
 21
172.1543801245
 31
0.0
  0
LINE
  5
21D
330
1F
100
AcDbEntity
  8
0
100
AcDbLine
 10
-236.5789113834
 20
172.1543801245
 30
0.0
 11
-236.5789113834
 21
175.8543801245
 31
0.0
  0
LINE
  5
21E
330
1F
100
AcDbEntity
  8
0
100
AcDbLine
 10
-284.4089113834
 20
175.8543801245
 30
0.0
 11
-284.4089113834
 21
172.1543801245
 31
0.0
  0
LINE
  5
21F
330
1F
100
AcDbEntity
  8
0
100
AcDbLine
 10
-269.9089113834
 20
172.1543801245
 30
0.0
 11
-269.9089113834
 21
175.8543801245
 31
0.0
  0
LINE
  5
220
330
1F
100
AcDbEntity
  8
0
100
AcDbLine
 10
-317.7389113834
 20
175.8543801245
 30
0.0
 11
-317.7389113834
 21
172.1543801245
 31
0.0
  0
LINE
  5
221
330
1F
100
AcDbEntity
  8
0
100
AcDbLine
 10
-303.2389113834
 20
172.1543801245
 30
0.0
 11
-303.2389113834
 21
175.8543801245
 31
0.0
  0
LINE
  5
222
330
1F
100
AcDbEntity
  8
0
100
AcDbLine
 10
-351.0689113834
 20
175.8543801245
 30
0.0
 11
-351.0689113834
 21
172.1543801245
 31
0.0
  0
LINE
  5
223
330
1F
100
AcDbEntity
  8
0
100
AcDbLine
 10
-336.5689113834
 20
172.1543801245
 30
0.0
 11
-336.5689113834
 21
175.8543801245
 31
0.0
  0
LINE
  5
224
330
1F
100
AcDbEntity
  8
0
100
AcDbLine
 10
-384.3989113834
 20
175.8543801245
 30
0.0
 11
-384.3989113834
 21
172.1543801245
 31
0.0
  0
LINE
  5
225
330
1F
100
AcDbEntity
  8
0
100
AcDbLine
 10
-369.8989113834
 20
172.1543801245
 30
0.0
 11
-369.8989113834
 21
175.8543801245
 31
0.0
  0
LINE
  5
226
330
1F
100
AcDbEntity
  8
0
100
AcDbLine
 10
-403.2289113834
 20
172.1543801245
 30
0.0
 11
-403.2289113834
 21
175.8543801245
 31
0.0
  0
LINE
  5
227
330
1F
100
AcDbEntity
  8
0
100
AcDbLine
 10
-234.4139113834
 20
175.8543801245
 30
0.0
 11
-234.4139113834
 21
172.1543801245
 31
0.0
  0
LINE
  5
228
330
1F
100
AcDbEntity
  8
0
100
AcDbLine
 10
-267.7439113834
 20
175.8543801245
 30
0.0
 11
-267.7439113834
 21
172.1543801245
 31
0.0
  0
LINE
  5
229
330
1F
100
AcDbEntity
  8
0
100
AcDbLine
 10
-253.2439113834
 20
172.1543801245
 30
0.0
 11
-253.2439113834
 21
175.8543801245
 31
0.0
  0
LINE
  5
22A
330
1F
100
AcDbEntity
  8
0
100
AcDbLine
 10
-301.0739113834
 20
175.8543801245
 30
0.0
 11
-301.0739113834
 21
172.1543801245
 31
0.0
  0
LINE
  5
22B
330
1F
100
AcDbEntity
  8
0
100
AcDbLine
 10
-286.5739113834
 20
172.1543801245
 30
0.0
 11
-286.5739113834
 21
175.8543801245
 31
0.0
  0
LINE
  5
22C
330
1F
100
AcDbEntity
  8
0
100
AcDbLine
 10
-334.4039113834
 20
175.8543801245
 30
0.0
 11
-334.4039113834
 21
172.1543801245
 31
0.0
  0
LINE
  5
22D
330
1F
100
AcDbEntity
  8
0
100
AcDbLine
 10
-319.9039113834
 20
172.1543801245
 30
0.0
 11
-319.9039113834
 21
175.8543801245
 31
0.0
  0
LINE
  5
22E
330
1F
100
AcDbEntity
  8
0
100
AcDbLine
 10
-367.7339113834
 20
175.8543801245
 30
0.0
 11
-367.7339113834
 21
172.1543801245
 31
0.0
  0
LINE
  5
22F
330
1F
100
AcDbEntity
  8
0
100
AcDbLine
 10
-353.2339113834
 20
172.1543801245
 30
0.0
 11
-353.2339113834
 21
175.8543801245
 31
0.0
  0
LINE
  5
230
330
1F
100
AcDbEntity
  8
0
100
AcDbLine
 10
-401.0639113834
 20
175.8543801245
 30
0.0
 11
-401.0639113834
 21
172.1543801245
 31
0.0
  0
LINE
  5
231
330
1F
100
AcDbEntity
  8
0
100
AcDbLine
 10
-386.5639113834
 20
172.1543801245
 30
0.0
 11
-386.5639113834
 21
175.8543801245
 31
0.0
  0
LINE
  5
232
330
1F
100
AcDbEntity
  8
0
100
AcDbLine
 10
-439.8939113834
 20
331.5670148189
 30
0.0
 11
-439.8939113834
 21
322.3170148189
 31
0.0
  0
LINE
  5
233
330
1F
100
AcDbEntity
  8
0
100
AcDbLine
 10
-414.3939113834
 20
322.3170148189
 30
0.0
 11
-414.3939113834
 21
331.5670148189
 31
0.0
  0
LINE
  5
234
330
1F
100
AcDbEntity
  8
0
100
AcDbLine
 10
-439.8939113834
 20
322.3170148189
 30
0.0
 11
-439.1439113834
 21
321.5670148189
 31
0.0
  0
LINE
  5
235
330
1F
100
AcDbEntity
  8
0
100
AcDbLine
 10
-415.1439113834
 20
321.5670148189
 30
0.0
 11
-414.3939113834
 21
322.3170148189
 31
0.0
  0
LINE
  5
236
330
1F
100
AcDbEntity
  8
0
100
AcDbLine
 10
-416.4939113834
 20
339.0670148189
 30
0.0
 11
-416.4939113834
 21
344.9670148189
 31
0.0
  0
LINE
  5
237
330
1F
100
AcDbEntity
  8
0
100
AcDbLine
 10
-437.7939113834
 20
344.9670148189
 30
0.0
 11
-437.7939113834
 21
339.0670148189
 31
0.0
  0
LINE
  5
238
330
1F
100
AcDbEntity
  8
0
100
AcDbLine
 10
-415.1439113834
 20
344.9670148189
 30
0.0
 11
-415.1439113834
 21
345.3670148189
 31
0.0
  0
LINE
  5
239
330
1F
100
AcDbEntity
  8
0
100
AcDbLine
 10
-439.1439113834
 20
345.3670148189
 30
0.0
 11
-439.1439113834
 21
344.9670148189
 31
0.0
  0
ARC
  5
23A
330
1F
100
AcDbEntity
  8
0
100
AcDbCircle
 10
-436.6439113834
 20
353.5670148189
 30
0.0
 40
1.400000000000034
100
AcDbArc
 50
90.0
 51
180.0
  0
ARC
  5
23B
330
1F
100
AcDbEntity
  8
0
100
AcDbCircle
 10
-417.6439113834
 20
353.5670148189
 30
0.0
 40
1.400000000000091
100
AcDbArc
 50
0.0
 51
90.0
  0
LINE
  5
23C
330
1F
100
AcDbEntity
  8
0
100
AcDbLine
 10
-438.0439113834
 20
353.5670148189
 30
0.0
 11
-438.0439113834
 21
345.3670148189
 31
0.0
  0
LINE
  5
23D
330
1F
100
AcDbEntity
  8
0
100
AcDbLine
 10
-416.2439113834
 20
345.3670148189
 30
0.0
 11
-416.2439113834
 21
353.5670148189
 31
0.0
  0
LINE
  5
23E
330
1F
100
AcDbEntity
  8
0
100
AcDbLine
 10
-416.1439113834
 20
320.5670148189
 30
0.0
 11
-416.1439113834
 21
321.5670148189
 31
0.0
  0
LINE
  5
23F
330
1F
100
AcDbEntity
  8
0
100
AcDbLine
 10
-438.1439113834
 20
321.5670148189
 30
0.0
 11
-438.1439113834
 21
320.5670148189
 31
0.0
  0
LINE
  5
240
330
1F
100
AcDbEntity
  8
0
100
AcDbLine
 10
-415.0439113834
 20
311.5060627976
 30
0.0
 11
-415.0439113834
 21
320.5670148189
 31
0.0
  0
LINE
  5
241
330
1F
100
AcDbEntity
  8
0
100
AcDbLine
 10
-439.2439113834
 20
320.5670148189
 30
0.0
 11
-439.2439113834
 21
311.5060627976
 31
0.0
  0
LINE
  5
242
330
1F
100
AcDbEntity
  8
0
100
AcDbLine
 10
-223.2489113812
 20
331.5670148189
 30
0.0
 11
-223.2489113812
 21
322.3170148189
 31
0.0
  0
LINE
  5
243
330
1F
100
AcDbEntity
  8
0
100
AcDbLine
 10
-197.7489113812
 20
322.3170148189
 30
0.0
 11
-197.7489113812
 21
331.5670148189
 31
0.0
  0
LINE
  5
244
330
1F
100
AcDbEntity
  8
0
100
AcDbLine
 10
-223.2489113812
 20
322.3170148189
 30
0.0
 11
-222.4989113812
 21
321.5670148189
 31
0.0
  0
LINE
  5
245
330
1F
100
AcDbEntity
  8
0
100
AcDbLine
 10
-198.4989113812
 20
321.5670148189
 30
0.0
 11
-197.7489113812
 21
322.3170148189
 31
0.0
  0
LINE
  5
246
330
1F
100
AcDbEntity
  8
0
100
AcDbLine
 10
-199.8489113812
 20
339.0670148189
 30
0.0
 11
-199.8489113812
 21
344.9670148189
 31
0.0
  0
LINE
  5
247
330
1F
100
AcDbEntity
  8
0
100
AcDbLine
 10
-221.1489113812
 20
344.9670148189
 30
0.0
 11
-221.1489113812
 21
339.0670148189
 31
0.0
  0
LINE
  5
248
330
1F
100
AcDbEntity
  8
0
100
AcDbLine
 10
-198.4989113812
 20
344.9670148189
 30
0.0
 11
-198.4989113812
 21
345.3670148189
 31
0.0
  0
LINE
  5
249
330
1F
100
AcDbEntity
  8
0
100
AcDbLine
 10
-222.4989113812
 20
345.3670148189
 30
0.0
 11
-222.4989113812
 21
344.9670148189
 31
0.0
  0
ARC
  5
24A
330
1F
100
AcDbEntity
  8
0
100
AcDbCircle
 10
-219.9989113812
 20
353.5670148189
 30
0.0
 40
1.400000000000006
100
AcDbArc
 50
90.0
 51
180.0
  0
ARC
  5
24B
330
1F
100
AcDbEntity
  8
0
100
AcDbCircle
 10
-200.9989113812
 20
353.5670148189
 30
0.0
 40
1.400000000000006
100
AcDbArc
 50
0.0
 51
90.0
  0
LINE
  5
24C
330
1F
100
AcDbEntity
  8
0
100
AcDbLine
 10
-221.3989113812
 20
353.5670148189
 30
0.0
 11
-221.3989113812
 21
345.3670148189
 31
0.0
  0
LINE
  5
24D
330
1F
100
AcDbEntity
  8
0
100
AcDbLine
 10
-199.5989113812
 20
345.3670148189
 30
0.0
 11
-199.5989113812
 21
353.5670148189
 31
0.0
  0
LINE
  5
24E
330
1F
100
AcDbEntity
  8
0
100
AcDbLine
 10
-199.4989113812
 20
320.5670148189
 30
0.0
 11
-199.4989113812
 21
321.5670148189
 31
0.0
  0
LINE
  5
24F
330
1F
100
AcDbEntity
  8
0
100
AcDbLine
 10
-221.4989113812
 20
321.5670148189
 30
0.0
 11
-221.4989113812
 21
320.5670148189
 31
0.0
  0
LINE
  5
250
330
1F
100
AcDbEntity
  8
0
100
AcDbLine
 10
-198.3989113812
 20
311.5060627976
 30
0.0
 11
-198.3989113812
 21
320.5670148189
 31
0.0
  0
LINE
  5
251
330
1F
100
AcDbEntity
  8
0
100
AcDbLine
 10
-222.5989113812
 20
320.5670148189
 30
0.0
 11
-222.5989113812
 21
311.5060627976
 31
0.0
  0
LINE
  5
252
330
1F
100
AcDbEntity
  8
0
100
AcDbLine
 10
-403.7289113812
 20
107.9476933941
 30
0.0
 11
-403.7289113812
 21
168.2543801245
 31
0.0
  0
LINE
  5
253
330
1F
100
AcDbEntity
  8
0
100
AcDbLine
 10
-403.7289113812
 20
176.0543801245
 30
0.0
 11
-403.7289113812
 21
196.1863362436
 31
0.0
  0
LINE
  5
254
330
1F
100
AcDbEntity
  8
0
100
AcDbLine
 10
-383.8989113812
 20
222.2190780315
 30
0.0
 11
-383.8989113812
 21
176.0543801245
 31
0.0
  0
LINE
  5
255
330
1F
100
AcDbEntity
  8
0
100
AcDbLine
 10
-383.8989113812
 20
168.2543801245
 30
0.0
 11
-383.8989113812
 21
81.9149516063
 31
0.0
  0
LINE
  5
256
330
1F
100
AcDbEntity
  8
0
100
AcDbLine
 10
-370.3989113812
 20
71.4657774029
 30
0.0
 11
-370.3989113812
 21
168.2543801245
 31
0.0
  0
LINE
  5
257
330
1F
100
AcDbEntity
  8
0
100
AcDbLine
 10
-370.3989113812
 20
176.0543801245
 30
0.0
 11
-370.3989113812
 21
232.6682522348
 31
0.0
  0
LINE
  5
258
330
1F
100
AcDbEntity
  8
0
100
AcDbLine
 10
-400.5639113834
 20
201.8069054763
 30
0.0
 11
-400.5639113834
 21
176.0543801245
 31
0.0
  0
LINE
  5
259
330
1F
100
AcDbEntity
  8
0
100
AcDbLine
 10
-400.5639113834
 20
168.2543801245
 30
0.0
 11
-400.5639113834
 21
102.3271241614
 31
0.0
  0
LINE
  5
25A
330
1F
100
AcDbEntity
  8
0
100
AcDbLine
 10
-387.0639113834
 20
84.9904971493
 30
0.0
 11
-387.0639113834
 21
168.2543801245
 31
0.0
  0
LINE
  5
25B
330
1F
100
AcDbEntity
  8
0
100
AcDbLine
 10
-387.0639113834
 20
176.0543801245
 30
0.0
 11
-387.0639113834
 21
219.1435324884
 31
0.0
  0
LINE
  5
25C
330
1F
100
AcDbEntity
  8
0
100
AcDbLine
 10
-350.5689113812
 20
242.3415357148
 30
0.0
 11
-350.5689113812
 21
176.0543801245
 31
0.0
  0
LINE
  5
25D
330
1F
100
AcDbEntity
  8
0
100
AcDbLine
 10
-350.5689113812
 20
168.2543801245
 30
0.0
 11
-350.5689113812
 21
61.792493923
 31
0.0
  0
LINE
  5
25E
330
1F
100
AcDbEntity
  8
0
100
AcDbLine
 10
-337.0689113812
 20
58.1264664758
 30
0.0
 11
-337.0689113812
 21
168.2543801245
 31
0.0
  0
LINE
  5
25F
330
1F
100
AcDbEntity
  8
0
100
AcDbLine
 10
-337.0689113812
 20
176.0543801245
 30
0.0
 11
-337.0689113812
 21
246.0075631619
 31
0.0
  0
LINE
  5
260
330
1F
100
AcDbEntity
  8
0
100
AcDbLine
 10
-367.2339113834
 20
234.6086574774
 30
0.0
 11
-367.2339113834
 21
176.0543801245
 31
0.0
  0
LINE
  5
261
330
1F
100
AcDbEntity
  8
0
100
AcDbLine
 10
-367.2339113834
 20
168.2543801245
 30
0.0
 11
-367.2339113834
 21
69.5253721603
 31
0.0
  0
LINE
  5
262
330
1F
100
AcDbEntity
  8
0
100
AcDbLine
 10
-353.7339113834
 20
62.9692299259
 30
0.0
 11
-353.7339113834
 21
168.2543801245
 31
0.0
  0
LINE
  5
263
330
1F
100
AcDbEntity
  8
0
100
AcDbLine
 10
-353.7339113834
 20
176.0543801245
 30
0.0
 11
-353.7339113834
 21
241.1647997118
 31
0.0
  0
LINE
  5
264
330
1F
100
AcDbEntity
  8
0
100
AcDbLine
 10
-317.2389113812
 20
247.7534217583
 30
0.0
 11
-317.2389113812
 21
176.0543801245
 31
0.0
  0
LINE
  5
265
330
1F
100
AcDbEntity
  8
0
100
AcDbLine
 10
-317.2389113812
 20
168.2543801245
 30
0.0
 11
-317.2389113812
 21
56.3806078794
 31
0.0
  0
LINE
  5
266
330
1F
100
AcDbEntity
  8
0
100
AcDbLine
 10
-303.7389113812
 20
57.5613749185
 30
0.0
 11
-303.7389113812
 21
168.2543801245
 31
0.0
  0
LINE
  5
267
330
1F
100
AcDbEntity
  8
0
100
AcDbLine
 10
-303.7389113812
 20
176.0543801245
 30
0.0
 11
-303.7389113812
 21
246.5726547193
 31
0.0
  0
LINE
  5
268
330
1F
100
AcDbEntity
  8
0
100
AcDbLine
 10
-333.9039113834
 20
246.5678667881
 30
0.0
 11
-333.9039113834
 21
176.0543801245
 31
0.0
  0
LINE
  5
269
330
1F
100
AcDbEntity
  8
0
100
AcDbLine
 10
-333.9039113834
 20
168.2543801245
 30
0.0
 11
-333.9039113834
 21
57.5661628496
 31
0.0
  0
LINE
  5
26A
330
1F
100
AcDbEntity
  8
0
100
AcDbLine
 10
-320.4039113834
 20
56.3811040327
 30
0.0
 11
-320.4039113834
 21
168.2543801245
 31
0.0
  0
LINE
  5
26B
330
1F
100
AcDbEntity
  8
0
100
AcDbLine
 10
-320.4039113834
 20
176.0543801245
 30
0.0
 11
-320.4039113834
 21
247.752925605
 31
0.0
  0
LINE
  5
26C
330
1F
100
AcDbEntity
  8
0
100
AcDbLine
 10
-283.9089113812
 20
241.17655428
 30
0.0
 11
-283.9089113812
 21
176.0543801245
 31
0.0
  0
LINE
  5
26D
330
1F
100
AcDbEntity
  8
0
100
AcDbLine
 10
-283.9089113812
 20
168.2543801245
 30
0.0
 11
-283.9089113812
 21
62.9574753577
 31
0.0
  0
LINE
  5
26E
330
1F
100
AcDbEntity
  8
0
100
AcDbLine
 10
-270.4089113812
 20
69.5077783702
 30
0.0
 11
-270.4089113812
 21
168.2543801245
 31
0.0
  0
LINE
  5
26F
330
1F
100
AcDbEntity
  8
0
100
AcDbLine
 10
-270.4089113812
 20
176.0543801245
 30
0.0
 11
-270.4089113812
 21
234.6262512675
 31
0.0
  0
LINE
  5
270
330
1F
100
AcDbEntity
  8
0
100
AcDbLine
 10
-300.5739113834
 20
246.0133903374
 30
0.0
 11
-300.5739113834
 21
176.0543801245
 31
0.0
  0
LINE
  5
271
330
1F
100
AcDbEntity
  8
0
100
AcDbLine
 10
-300.5739113834
 20
168.2543801245
 30
0.0
 11
-300.5739113834
 21
58.1206393003
 31
0.0
  0
LINE
  5
272
330
1F
100
AcDbEntity
  8
0
100
AcDbLine
 10
-287.0739113834
 20
61.7819442195
 30
0.0
 11
-287.0739113834
 21
168.2543801245
 31
0.0
  0
LINE
  5
273
330
1F
100
AcDbEntity
  8
0
100
AcDbLine
 10
-287.0739113834
 20
176.0543801245
 30
0.0
 11
-287.0739113834
 21
242.3520854182
 31
0.0
  0
LINE
  5
274
330
1F
100
AcDbEntity
  8
0
100
AcDbLine
 10
-250.5789113812
 20
219.1740470359
 30
0.0
 11
-250.5789113812
 21
176.0543801245
 31
0.0
  0
LINE
  5
275
330
1F
100
AcDbEntity
  8
0
100
AcDbLine
 10
-250.5789113812
 20
168.2543801245
 30
0.0
 11
-250.5789113812
 21
84.9599826018
 31
0.0
  0
LINE
  5
276
330
1F
100
AcDbEntity
  8
0
100
AcDbLine
 10
-237.0789113812
 20
102.2778465894
 30
0.0
 11
-237.0789113812
 21
168.2543801245
 31
0.0
  0
LINE
  5
277
330
1F
100
AcDbEntity
  8
0
100
AcDbLine
 10
-237.0789113812
 20
176.0543801245
 30
0.0
 11
-237.0789113812
 21
201.8561830483
 31
0.0
  0
LINE
  5
278
330
1F
100
AcDbEntity
  8
0
100
AcDbLine
 10
-267.2439113834
 20
232.6874472365
 30
0.0
 11
-267.2439113834
 21
176.0543801245
 31
0.0
  0
LINE
  5
279
330
1F
100
AcDbEntity
  8
0
100
AcDbLine
 10
-267.2439113834
 20
168.2543801245
 30
0.0
 11
-267.2439113834
 21
71.4465824012
 31
0.0
  0
LINE
  5
27A
330
1F
100
AcDbEntity
  8
0
100
AcDbLine
 10
-253.7439113834
 20
81.8871272208
 30
0.0
 11
-253.7439113834
 21
168.2543801245
 31
0.0
  0
LINE
  5
27B
330
1F
100
AcDbEntity
  8
0
100
AcDbLine
 10
-253.7439113834
 20
176.0543801245
 30
0.0
 11
-253.7439113834
 21
222.2469024169
 31
0.0
  0
LINE
  5
27C
330
1F
100
AcDbEntity
  8
0
100
AcDbLine
 10
-233.9139113834
 20
196.2440334299
 30
0.0
 11
-233.9139113834
 21
176.0543801245
 31
0.0
  0
LINE
  5
27D
330
1F
100
AcDbEntity
  8
0
100
AcDbLine
 10
-233.9139113834
 20
168.2543801245
 30
0.0
 11
-233.9139113834
 21
107.8899962078
 31
0.0
  0
LINE
  5
27E
330
1F
100
AcDbEntity
  8
0
100
AcDbLine
 10
-402.9064113812
 20
303.8170148189
 30
0.0
 11
-402.9064113812
 21
302.7670148189
 31
0.0
  0
LINE
  5
27F
330
1F
100
AcDbEntity
  8
0
100
AcDbLine
 10
-394.7064113812
 20
302.7670148189
 30
0.0
 11
-394.7064113812
 21
303.8170148189
 31
0.0
  0
ARC
  5
280
330
1F
100
AcDbEntity
  8
0
100
AcDbCircle
 10
-400.9064113812
 20
303.8170148189
 30
0.0
 40
2.0
100
AcDbArc
 50
90.0
 51
180.0
  0
ARC
  5
281
330
1F
100
AcDbEntity
  8
0
100
AcDbCircle
 10
-396.7064113812
 20
303.8170148189
 30
0.0
 40
2.0
100
AcDbArc
 50
0.0
 51
90.0
  0
LINE
  5
282
330
1F
100
AcDbEntity
  8
0
100
AcDbLine
 10
-399.3314113812
 20
293.7670148189
 30
0.0
 11
-399.1064113812
 21
293.2670148189
 31
0.0
  0
LINE
  5
283
330
1F
100
AcDbEntity
  8
0
100
AcDbLine
 10
-398.5064113812
 20
293.2670148189
 30
0.0
 11
-398.2814113812
 21
293.7670148189
 31
0.0
  0
LINE
  5
284
330
1F
100
AcDbEntity
  8
0
100
AcDbLine
 10
-467.9064113812
 20
303.8170148189
 30
0.0
 11
-467.9064113812
 21
302.7670148189
 31
0.0
  0
LINE
  5
285
330
1F
100
AcDbEntity
  8
0
100
AcDbLine
 10
-459.7064113812
 20
302.7670148189
 30
0.0
 11
-459.7064113812
 21
303.8170148189
 31
0.0
  0
ARC
  5
286
330
1F
100
AcDbEntity
  8
0
100
AcDbCircle
 10
-465.9064113812
 20
303.8170148189
 30
0.0
 40
2.0
100
AcDbArc
 50
90.0
 51
180.0
  0
ARC
  5
287
330
1F
100
AcDbEntity
  8
0
100
AcDbCircle
 10
-461.7064113812
 20
303.8170148189
 30
0.0
 40
2.0
100
AcDbArc
 50
0.0
 51
90.0
  0
LINE
  5
288
330
1F
100
AcDbEntity
  8
0
100
AcDbLine
 10
-464.3314113812
 20
293.7670148189
 30
0.0
 11
-464.1064113812
 21
293.2670148189
 31
0.0
  0
LINE
  5
289
330
1F
100
AcDbEntity
  8
0
100
AcDbLine
 10
-463.5064113812
 20
293.2670148189
 30
0.0
 11
-463.2814113812
 21
293.7670148189
 31
0.0
  0
LINE
  5
28A
330
1F
100
AcDbEntity
  8
0
100
AcDbLine
 10
-177.9064113812
 20
303.8170148189
 30
0.0
 11
-177.9064113812
 21
302.7670148189
 31
0.0
  0
LINE
  5
28B
330
1F
100
AcDbEntity
  8
0
100
AcDbLine
 10
-169.7064113812
 20
302.7670148189
 30
0.0
 11
-169.7064113812
 21
303.8170148189
 31
0.0
  0
ARC
  5
28C
330
1F
100
AcDbEntity
  8
0
100
AcDbCircle
 10
-175.9064113812
 20
303.8170148189
 30
0.0
 40
2.0
100
AcDbArc
 50
90.0
 51
180.0
  0
ARC
  5
28D
330
1F
100
AcDbEntity
  8
0
100
AcDbCircle
 10
-171.7064113812
 20
303.8170148189
 30
0.0
 40
2.0
100
AcDbArc
 50
0.0
 51
90.0
  0
LINE
  5
28E
330
1F
100
AcDbEntity
  8
0
100
AcDbLine
 10
-174.3314113812
 20
293.7670148189
 30
0.0
 11
-174.1064113812
 21
293.2670148189
 31
0.0
  0
LINE
  5
28F
330
1F
100
AcDbEntity
  8
0
100
AcDbLine
 10
-173.5064113812
 20
293.2670148189
 30
0.0
 11
-173.2814113812
 21
293.7670148189
 31
0.0
  0
LINE
  5
290
330
1F
100
AcDbEntity
  8
0
100
AcDbLine
 10
-242.9064113812
 20
303.8170148189
 30
0.0
 11
-242.9064113812
 21
302.7670148189
 31
0.0
  0
LINE
  5
291
330
1F
100
AcDbEntity
  8
0
100
AcDbLine
 10
-234.7064113812
 20
302.7670148189
 30
0.0
 11
-234.7064113812
 21
303.8170148189
 31
0.0
  0
ARC
  5
292
330
1F
100
AcDbEntity
  8
0
100
AcDbCircle
 10
-240.9064113812
 20
303.8170148189
 30
0.0
 40
2.0
100
AcDbArc
 50
90.0
 51
180.0
  0
ARC
  5
293
330
1F
100
AcDbEntity
  8
0
100
AcDbCircle
 10
-236.7064113812
 20
303.8170148189
 30
0.0
 40
2.0
100
AcDbArc
 50
0.0
 51
90.0
  0
LINE
  5
294
330
1F
100
AcDbEntity
  8
0
100
AcDbLine
 10
-239.3314113812
 20
293.7670148189
 30
0.0
 11
-239.1064113812
 21
293.2670148189
 31
0.0
  0
LINE
  5
295
330
1F
100
AcDbEntity
  8
0
100
AcDbLine
 10
-238.5064113812
 20
293.2670148189
 30
0.0
 11
-238.2814113812
 21
293.7670148189
 31
0.0
  0
ARC
  5
296
330
1F
100
AcDbEntity
  8
0
100
AcDbCircle
 10
-452.3534801091
 20
284.2825648104
 30
0.0
 40
5.000000000000012
100
AcDbArc
 50
146.1590076815
 51
172.1320762394
  0
ARC
  5
297
330
1F
100
AcDbEntity
  8
0
100
AcDbCircle
 10
-452.3534801091
 20
283.8514648273
 30
0.0
 40
5.000000000000012
100
AcDbArc
 50
187.8679237606
 51
213.8409923185
  0
LINE
  5
298
330
1F
100
AcDbEntity
  8
0
100
AcDbLine
 10
-453.0064113812
 20
282.0670148189
 30
0.0
 11
-452.0064113812
 21
283.0670148189
 31
0.0
  0
LINE
  5
299
330
1F
100
AcDbEntity
  8
0
100
AcDbLine
 10
-452.0064113812
 20
285.0670148189
 30
0.0
 11
-453.0064113812
 21
286.0670148189
 31
0.0
  0
LINE
  5
29A
330
1F
100
AcDbEntity
  8
0
100
AcDbLine
 10
-453.0064113812
 20
285.5670148189
 30
0.0
 11
-455.1064113812
 21
285.5670148189
 31
0.0
  0
LINE
  5
29B
330
1F
100
AcDbEntity
  8
0
100
AcDbLine
 10
-455.1064113812
 20
282.5670148189
 30
0.0
 11
-453.0064113812
 21
282.5670148189
 31
0.0
  0
ARC
  5
29C
330
1F
100
AcDbEntity
  8
0
100
AcDbCircle
 10
-185.2593426533
 20
17.04761725
 30
0.0
 40
4.999999999999996
100
AcDbArc
 50
326.1590076815
 51
352.1320762394
  0
LINE
  5
29D
330
1F
100
AcDbEntity
  8
0
100
AcDbLine
 10
-180.3064113812
 20
18.1631672416
 30
0.0
 11
-180.329791064
 21
18.3150910302
 31
0.0
  0
ARC
  5
29E
330
1F
100
AcDbEntity
  8
0
100
AcDbCircle
 10
-452.3534801091
 20
281.0787172331
 30
0.0
 40
5.000000000000012
100
AcDbArc
 50
163.902379046
 51
172.1320762394
  0
ARC
  5
29F
330
1F
100
AcDbEntity
  8
0
100
AcDbCircle
 10
-452.3534801091
 20
280.64761725
 30
0.0
 40
5.000000000000012
100
AcDbArc
 50
187.8679237606
 51
213.8409923185
  0
ARC
  5
2A0
330
1F
100
AcDbEntity
  8
0
100
AcDbCircle
 10
-452.3534801091
 20
151.9325648104
 30
0.0
 40
5.000000000000016
100
AcDbArc
 50
146.1590076815
 51
172.1320762394
  0
ARC
  5
2A1
330
1F
100
AcDbEntity
  8
0
100
AcDbCircle
 10
-452.3534801091
 20
151.5014648273
 30
0.0
 40
5.000000000000012
100
AcDbArc
 50
187.8679237606
 51
213.8409923185
  0
LINE
  5
2A2
330
1F
100
AcDbEntity
  8
0
100
AcDbLine
 10
-453.0064113812
 20
149.7170148189
 30
0.0
 11
-452.0064113812
 21
150.7170148189
 31
0.0
  0
LINE
  5
2A3
330
1F
100
AcDbEntity
  8
0
100
AcDbLine
 10
-452.0064113812
 20
152.7170148189
 30
0.0
 11
-453.0064113812
 21
153.7170148189
 31
0.0
  0
LINE
  5
2A4
330
1F
100
AcDbEntity
  8
0
100
AcDbLine
 10
-453.0064113812
 20
153.2170148189
 30
0.0
 11
-455.1064113812
 21
153.2170148189
 31
0.0
  0
LINE
  5
2A5
330
1F
100
AcDbEntity
  8
0
100
AcDbLine
 10
-455.1064113812
 20
150.2170148189
 30
0.0
 11
-453.0064113812
 21
150.2170148189
 31
0.0
  0
ARC
  5
2A6
330
1F
100
AcDbEntity
  8
0
100
AcDbCircle
 10
-185.2593426533
 20
151.5014648273
 30
0.0
 40
5.000000000000011
100
AcDbArc
 50
326.1590076815
 51
352.1320762394
  0
ARC
  5
2A7
330
1F
100
AcDbEntity
  8
0
100
AcDbCircle
 10
-185.2593426533
 20
151.9325648104
 30
0.0
 40
5.000000000000011
100
AcDbArc
 50
7.8679237606
 51
33.8409923185
  0
LINE
  5
2A8
330
1F
100
AcDbEntity
  8
0
100
AcDbLine
 10
-184.6064113812
 20
153.7170148189
 30
0.0
 11
-185.6064113812
 21
152.7170148189
 31
0.0
  0
LINE
  5
2A9
330
1F
100
AcDbEntity
  8
0
100
AcDbLine
 10
-185.6064113812
 20
150.7170148189
 30
0.0
 11
-184.6064113812
 21
149.7170148189
 31
0.0
  0
LINE
  5
2AA
330
1F
100
AcDbEntity
  8
0
100
AcDbLine
 10
-184.6064113812
 20
150.2170148189
 30
0.0
 11
-182.5064113812
 21
150.2170148189
 31
0.0
  0
LINE
  5
2AB
330
1F
100
AcDbEntity
  8
0
100
AcDbLine
 10
-182.5064113812
 20
153.2170148189
 30
0.0
 11
-184.6064113812
 21
153.2170148189
 31
0.0
  0
ARC
  5
2AC
330
1F
100
AcDbEntity
  8
0
100
AcDbCircle
 10
-211.3219613728
 20
7.5199460909
 30
0.0
 40
4.999999999999994
100
AcDbArc
 50
236.1590076815
 51
262.1320762394
  0
ARC
  5
2AD
330
1F
100
AcDbEntity
  8
0
100
AcDbCircle
 10
-210.8908613896
 20
7.5199460909
 30
0.0
 40
4.999999999999994
100
AcDbArc
 50
277.8679237606
 51
303.8409923185
  0
LINE
  5
2AE
330
1F
100
AcDbEntity
  8
0
100
AcDbLine
 10
-209.1064113812
 20
6.8670148189
 30
0.0
 11
-210.1064113812
 21
7.8670148189
 31
0.0
  0
LINE
  5
2AF
330
1F
100
AcDbEntity
  8
0
100
AcDbLine
 10
-212.1064113812
 20
7.8670148189
 30
0.0
 11
-213.1064113812
 21
6.8670148189
 31
0.0
  0
LINE
  5
2B0
330
1F
100
AcDbEntity
  8
0
100
AcDbLine
 10
-212.6064113812
 20
6.8670148189
 30
0.0
 11
-212.6064113812
 21
4.7670148189
 31
0.0
  0
LINE
  5
2B1
330
1F
100
AcDbEntity
  8
0
100
AcDbLine
 10
-209.6064113812
 20
4.7670148189
 30
0.0
 11
-209.6064113812
 21
6.8670148189
 31
0.0
  0
ARC
  5
2B2
330
1F
100
AcDbEntity
  8
0
100
AcDbCircle
 10
-185.2593426533
 20
280.64761725
 30
0.0
 40
4.999999999999987
100
AcDbArc
 50
326.1590076815
 51
352.1320762394
  0
ARC
  5
2B3
330
1F
100
AcDbEntity
  8
0
100
AcDbCircle
 10
-185.2593426533
 20
281.0787172331
 30
0.0
 40
4.999999999999991
100
AcDbArc
 50
7.8679237606
 51
16.097620954
  0
ARC
  5
2B4
330
1F
100
AcDbEntity
  8
0
100
AcDbCircle
 10
-452.3534801091
 20
19.5825648104
 30
0.0
 40
5.000000000000009
100
AcDbArc
 50
146.1590076815
 51
172.1320762394
  0
ARC
  5
2B5
330
1F
100
AcDbEntity
  8
0
100
AcDbCircle
 10
-452.3534801091
 20
19.1514648273
 30
0.0
 40
5.000000000000009
100
AcDbArc
 50
187.8679237606
 51
213.8409923185
  0
LINE
  5
2B6
330
1F
100
AcDbEntity
  8
0
100
AcDbLine
 10
-453.0064113812
 20
17.3670148189
 30
0.0
 11
-452.0064113812
 21
18.3670148189
 31
0.0
  0
LINE
  5
2B7
330
1F
100
AcDbEntity
  8
0
100
AcDbLine
 10
-452.0064113812
 20
20.3670148189
 30
0.0
 11
-453.0064113812
 21
21.3670148189
 31
0.0
  0
LINE
  5
2B8
330
1F
100
AcDbEntity
  8
0
100
AcDbLine
 10
-453.0064113812
 20
20.8670148189
 30
0.0
 11
-455.1064113812
 21
20.8670148189
 31
0.0
  0
LINE
  5
2B9
330
1F
100
AcDbEntity
  8
0
100
AcDbLine
 10
-455.1064113812
 20
17.8670148189
 30
0.0
 11
-453.0064113812
 21
17.8670148189
 31
0.0
  0
ARC
  5
2BA
330
1F
100
AcDbEntity
  8
0
100
AcDbCircle
 10
-185.2593426533
 20
283.8514648273
 30
0.0
 40
4.999999999999983
100
AcDbArc
 50
326.1590076815
 51
352.1320762394
  0
ARC
  5
2BB
330
1F
100
AcDbEntity
  8
0
100
AcDbCircle
 10
-185.2593426533
 20
284.2825648104
 30
0.0
 40
4.999999999999979
100
AcDbArc
 50
7.8679237606
 51
33.8409923185
  0
LINE
  5
2BC
330
1F
100
AcDbEntity
  8
0
100
AcDbLine
 10
-184.6064113812
 20
286.0670148189
 30
0.0
 11
-185.6064113812
 21
285.0670148189
 31
0.0
  0
LINE
  5
2BD
330
1F
100
AcDbEntity
  8
0
100
AcDbLine
 10
-185.6064113812
 20
283.0670148189
 30
0.0
 11
-184.6064113812
 21
282.0670148189
 31
0.0
  0
LINE
  5
2BE
330
1F
100
AcDbEntity
  8
0
100
AcDbLine
 10
-184.6064113812
 20
282.5670148189
 30
0.0
 11
-182.5064113812
 21
282.5670148189
 31
0.0
  0
LINE
  5
2BF
330
1F
100
AcDbEntity
  8
0
100
AcDbLine
 10
-182.5064113812
 20
285.5670148189
 30
0.0
 11
-184.6064113812
 21
285.5670148189
 31
0.0
  0
ARC
  5
2C0
330
1F
100
AcDbEntity
  8
0
100
AcDbCircle
 10
-185.2593426533
 20
19.1514648273
 30
0.0
 40
5.000000000000011
100
AcDbArc
 50
326.1590076815
 51
352.1320762394
  0
ARC
  5
2C1
330
1F
100
AcDbEntity
  8
0
100
AcDbCircle
 10
-185.2593426533
 20
19.5825648104
 30
0.0
 40
4.999999999999996
100
AcDbArc
 50
7.8679237606
 51
33.8409923185
  0
LINE
  5
2C2
330
1F
100
AcDbEntity
  8
0
100
AcDbLine
 10
-184.6064113812
 20
21.3670148189
 30
0.0
 11
-185.6064113812
 21
20.3670148189
 31
0.0
  0
LINE
  5
2C3
330
1F
100
AcDbEntity
  8
0
100
AcDbLine
 10
-185.6064113812
 20
18.3670148189
 30
0.0
 11
-184.6064113812
 21
17.3670148189
 31
0.0
  0
LINE
  5
2C4
330
1F
100
AcDbEntity
  8
0
100
AcDbLine
 10
-184.6064113812
 20
17.8670148189
 30
0.0
 11
-182.5064113812
 21
17.8670148189
 31
0.0
  0
LINE
  5
2C5
330
1F
100
AcDbEntity
  8
0
100
AcDbLine
 10
-182.5064113812
 20
20.8670148189
 30
0.0
 11
-184.6064113812
 21
20.8670148189
 31
0.0
  0
LINE
  5
2C6
330
1F
100
AcDbEntity
  8
0
100
AcDbLine
 10
-184.6064113812
 20
286.0670148189
 30
0.0
 11
-185.6064113812
 21
285.0670148189
 31
0.0
  0
LINE
  5
2C7
330
1F
100
AcDbEntity
  8
0
100
AcDbLine
 10
-185.6064113812
 20
283.0670148189
 30
0.0
 11
-184.6064113812
 21
282.0670148189
 31
0.0
  0
LINE
  5
2C8
330
1F
100
AcDbEntity
  8
0
100
AcDbLine
 10
-184.6064113812
 20
282.5670148189
 30
0.0
 11
-182.5064113812
 21
282.5670148189
 31
0.0
  0
LINE
  5
2C9
330
1F
100
AcDbEntity
  8
0
100
AcDbLine
 10
-182.5064113812
 20
285.5670148189
 30
0.0
 11
-184.6064113812
 21
285.5670148189
 31
0.0
  0
ARC
  5
2CA
330
1F
100
AcDbEntity
  8
0
100
AcDbCircle
 10
-426.7219613728
 20
7.5199460909
 30
0.0
 40
5.000000000000029
100
AcDbArc
 50
236.1590076815
 51
262.1320762394
  0
ARC
  5
2CB
330
1F
100
AcDbEntity
  8
0
100
AcDbCircle
 10
-426.2908613896
 20
7.5199460909
 30
0.0
 40
5.000000000000021
100
AcDbArc
 50
277.8679237606
 51
303.8409923185
  0
LINE
  5
2CC
330
1F
100
AcDbEntity
  8
0
100
AcDbLine
 10
-424.5064113812
 20
6.8670148189
 30
0.0
 11
-425.5064113812
 21
7.8670148189
 31
0.0
  0
LINE
  5
2CD
330
1F
100
AcDbEntity
  8
0
100
AcDbLine
 10
-427.5064113812
 20
7.8670148189
 30
0.0
 11
-428.5064113812
 21
6.8670148189
 31
0.0
  0
LINE
  5
2CE
330
1F
100
AcDbEntity
  8
0
100
AcDbLine
 10
-428.0064113812
 20
6.8670148189
 30
0.0
 11
-428.0064113812
 21
4.7670148189
 31
0.0
  0
LINE
  5
2CF
330
1F
100
AcDbEntity
  8
0
100
AcDbLine
 10
-425.0064113812
 20
4.7670148189
 30
0.0
 11
-425.0064113812
 21
6.8670148189
 31
0.0
  0
LINE
  5
2D0
330
1F
100
AcDbEntity
  8
0
100
AcDbLine
 10
-457.2830316984
 20
18.3150910302
 30
0.0
 11
-457.3064113812
 21
18.1631672416
 31
0.0
  0
ARC
  5
2D1
330
1F
100
AcDbEntity
  8
0
100
AcDbCircle
 10
-452.3534801091
 20
17.04761725
 30
0.0
 40
5.000000000000017
100
AcDbArc
 50
187.8679237606
 51
213.8409923185
  0
LINE
  5
2D2
330
1F
100
AcDbEntity
  8
0
100
AcDbLine
 10
-453.0064113812
 20
149.7170148189
 30
0.0
 11
-452.0064113812
 21
150.7170148189
 31
0.0
  0
LINE
  5
2D3
330
1F
100
AcDbEntity
  8
0
100
AcDbLine
 10
-452.0064113812
 20
152.7170148189
 30
0.0
 11
-453.0064113812
 21
153.7170148189
 31
0.0
  0
LINE
  5
2D4
330
1F
100
AcDbEntity
  8
0
100
AcDbLine
 10
-453.0064113812
 20
153.2170148189
 30
0.0
 11
-455.1064113812
 21
153.2170148189
 31
0.0
  0
LINE
  5
2D5
330
1F
100
AcDbEntity
  8
0
100
AcDbLine
 10
-455.1064113812
 20
150.2170148189
 30
0.0
 11
-453.0064113812
 21
150.2170148189
 31
0.0
  0
ARC
  5
2D6
330
1F
100
AcDbEntity
  8
0
100
AcDbCircle
 10
-319.0219613728
 20
7.5199460909
 30
0.0
 40
5.000000000000041
100
AcDbArc
 50
236.1590076815
 51
262.1320762394
  0
ARC
  5
2D7
330
1F
100
AcDbEntity
  8
0
100
AcDbCircle
 10
-318.5908613896
 20
7.5199460909
 30
0.0
 40
5.000000000000013
100
AcDbArc
 50
277.8679237606
 51
303.8409923185
  0
LINE
  5
2D8
330
1F
100
AcDbEntity
  8
0
100
AcDbLine
 10
-316.8064113812
 20
6.8670148189
 30
0.0
 11
-317.8064113812
 21
7.8670148189
 31
0.0
  0
LINE
  5
2D9
330
1F
100
AcDbEntity
  8
0
100
AcDbLine
 10
-319.8064113812
 20
7.8670148189
 30
0.0
 11
-320.8064113812
 21
6.8670148189
 31
0.0
  0
LINE
  5
2DA
330
1F
100
AcDbEntity
  8
0
100
AcDbLine
 10
-320.3064113812
 20
6.8670148189
 30
0.0
 11
-320.3064113812
 21
4.7670148189
 31
0.0
  0
LINE
  5
2DB
330
1F
100
AcDbEntity
  8
0
100
AcDbLine
 10
-317.3064113812
 20
4.7670148189
 30
0.0
 11
-317.3064113812
 21
6.8670148189
 31
0.0
  0
LINE
  5
2DC
330
1F
100
AcDbEntity
  8
0
100
AcDbLine
 10
-393.1439113834
 20
302.7670148189
 30
0.0
 11
-393.1439113834
 21
304.7670148189
 31
0.0
  0
ARC
  5
2DD
330
1F
100
AcDbEntity
  8
0
100
AcDbCircle
 10
-407.1439113834
 20
312.7670148189
 30
0.0
 40
8.000000000000005
100
AcDbArc
 50
189.068721546
 51
270.0
  0
ARC
  5
2DE
330
1F
100
AcDbEntity
  8
0
100
AcDbCircle
 10
-447.1439113834
 20
312.7670148189
 30
0.0
 40
8.000000000000044
100
AcDbArc
 50
270.0
 51
350.931278454
  0
LINE
  5
2DF
330
1F
100
AcDbEntity
  8
0
100
AcDbLine
 10
-244.4989113812
 20
304.7670148189
 30
0.0
 11
-244.4989113812
 21
302.7670148189
 31
0.0
  0
ARC
  5
2E0
330
1F
100
AcDbEntity
  8
0
100
AcDbCircle
 10
-190.4989113812
 20
312.7670148189
 30
0.0
 40
8.000000000000057
100
AcDbArc
 50
189.0687215461
 51
270.0
  0
ARC
  5
2E1
330
1F
100
AcDbEntity
  8
0
100
AcDbCircle
 10
-230.4989113812
 20
312.7670148189
 30
0.0
 40
8.0
100
AcDbArc
 50
270.0
 51
350.931278454
  0
CIRCLE
  5
2E2
330
1F
100
AcDbEntity
  8
0
100
AcDbCircle
 10
-318.8064113812
 20
152.0670148189
 30
0.0
 40
107.4000000000001
  0
LINE
  5
2E3
330
1F
100
AcDbEntity
  8
0
100
AcDbLine
 10
-412.4164441257
 20
171.9543801245
 30
0.0
 11
-225.1963786366
 21
171.9543801245
 31
0.0
  0
LINE
  5
2E4
330
1F
100
AcDbEntity
  8
0
100
AcDbLine
 10
-412.3737309127
 20
172.1543801245
 30
0.0
 11
-225.2390918497
 21
172.1543801245
 31
0.0
  0
LINE
  5
2E5
330
1F
100
AcDbEntity
  8
0
100
AcDbLine
 10
-251.0789113811
 20
168.2543801245
 30
0.0
 11
-236.5789113811
 21
168.2543801245
 31
0.0
  0
LINE
  5
2E6
330
1F
100
AcDbEntity
  8
0
100
AcDbLine
 10
-284.4089113811
 20
168.2543801245
 30
0.0
 11
-269.9089113811
 21
168.2543801245
 31
0.0
  0
LINE
  5
2E7
330
1F
100
AcDbEntity
  8
0
100
AcDbLine
 10
-317.7389113811
 20
168.2543801245
 30
0.0
 11
-303.2389113811
 21
168.2543801245
 31
0.0
  0
LINE
  5
2E8
330
1F
100
AcDbEntity
  8
0
100
AcDbLine
 10
-351.0689113811
 20
168.2543801245
 30
0.0
 11
-336.5689113811
 21
168.2543801245
 31
0.0
  0
LINE
  5
2E9
330
1F
100
AcDbEntity
  8
0
100
AcDbLine
 10
-384.3989113811
 20
168.2543801245
 30
0.0
 11
-369.8989113811
 21
168.2543801245
 31
0.0
  0
LINE
  5
2EA
330
1F
100
AcDbEntity
  8
0
100
AcDbLine
 10
-413.126688807
 20
168.2543801245
 30
0.0
 11
-403.2289113811
 21
168.2543801245
 31
0.0
  0
LINE
  5
2EB
330
1F
100
AcDbEntity
  8
0
100
AcDbLine
 10
-234.4139113811
 20
168.2543801245
 30
0.0
 11
-224.4861339553
 21
168.2543801245
 31
0.0
  0
LINE
  5
2EC
330
1F
100
AcDbEntity
  8
0
100
AcDbLine
 10
-267.7439113811
 20
168.2543801245
 30
0.0
 11
-253.2439113811
 21
168.2543801245
 31
0.0
  0
LINE
  5
2ED
330
1F
100
AcDbEntity
  8
0
100
AcDbLine
 10
-301.0739113811
 20
168.2543801245
 30
0.0
 11
-286.5739113811
 21
168.2543801245
 31
0.0
  0
LINE
  5
2EE
330
1F
100
AcDbEntity
  8
0
100
AcDbLine
 10
-334.4039113811
 20
168.2543801245
 30
0.0
 11
-319.9039113811
 21
168.2543801245
 31
0.0
  0
LINE
  5
2EF
330
1F
100
AcDbEntity
  8
0
100
AcDbLine
 10
-367.7339113811
 20
168.2543801245
 30
0.0
 11
-353.2339113811
 21
168.2543801245
 31
0.0
  0
LINE
  5
2F0
330
1F
100
AcDbEntity
  8
0
100
AcDbLine
 10
-401.0639113811
 20
168.2543801245
 30
0.0
 11
-386.5639113811
 21
168.2543801245
 31
0.0
  0
LINE
  5
2F1
330
1F
100
AcDbEntity
  8
0
100
AcDbLine
 10
-411.450633192
 20
176.0543801245
 30
0.0
 11
-226.1621895704
 21
176.0543801245
 31
0.0
  0
LINE
  5
2F2
330
1F
100
AcDbEntity
  8
0
100
AcDbLine
 10
-411.502186803
 20
175.8543801245
 30
0.0
 11
-226.1106359594
 21
175.8543801245
 31
0.0
  0
LINE
  5
2F3
330
1F
100
AcDbEntity
  8
0
100
AcDbLine
 10
-419.3496827493
 20
339.0670148189
 30
0.0
 11
-419.3496827493
 21
331.5670148189
 31
0.0
  0
LINE
  5
2F4
330
1F
100
AcDbEntity
  8
0
100
AcDbLine
 10
-411.5554541153
 20
339.0670148189
 30
0.0
 11
-411.5554541153
 21
331.5670148189
 31
0.0
  0
LINE
  5
2F5
330
1F
100
AcDbEntity
  8
0
100
AcDbLine
 10
-419.3496827493
 20
331.5670148189
 30
0.0
 11
-411.5554541153
 21
331.5670148189
 31
0.0
  0
LINE
  5
2F6
330
1F
100
AcDbEntity
  8
0
100
AcDbLine
 10
-419.3496827493
 20
339.0670148189
 30
0.0
 11
-411.5554541153
 21
339.0670148189
 31
0.0
  0
LINE
  5
2F7
330
1F
100
AcDbEntity
  8
0
100
AcDbLine
 10
-434.9381400175
 20
339.0670148189
 30
0.0
 11
-434.9381400175
 21
331.5670148189
 31
0.0
  0
LINE
  5
2F8
330
1F
100
AcDbEntity
  8
0
100
AcDbLine
 10
-434.9381400175
 20
331.5670148189
 30
0.0
 11
-419.3496827493
 21
331.5670148189
 31
0.0
  0
LINE
  5
2F9
330
1F
100
AcDbEntity
  8
0
100
AcDbLine
 10
-434.9381400175
 20
339.0670148189
 30
0.0
 11
-419.3496827493
 21
339.0670148189
 31
0.0
  0
LINE
  5
2FA
330
1F
100
AcDbEntity
  8
0
100
AcDbLine
 10
-442.7323686515
 20
339.0670148189
 30
0.0
 11
-442.7323686515
 21
331.5670148189
 31
0.0
  0
LINE
  5
2FB
330
1F
100
AcDbEntity
  8
0
100
AcDbLine
 10
-442.7323686515
 20
331.5670148189
 30
0.0
 11
-434.9381400175
 21
331.5670148189
 31
0.0
  0
LINE
  5
2FC
330
1F
100
AcDbEntity
  8
0
100
AcDbLine
 10
-442.7323686515
 20
339.0670148189
 30
0.0
 11
-434.9381400175
 21
339.0670148189
 31
0.0
  0
LINE
  5
2FD
330
1F
100
AcDbEntity
  8
0
100
AcDbLine
 10
-427.1439113834
 20
322.3170148189
 30
0.0
 11
-414.3939113834
 21
322.3170148189
 31
0.0
  0
LINE
  5
2FE
330
1F
100
AcDbEntity
  8
0
100
AcDbLine
 10
-439.8939113834
 20
322.3170148189
 30
0.0
 11
-427.1439113834
 21
322.3170148189
 31
0.0
  0
LINE
  5
2FF
330
1F
100
AcDbEntity
  8
0
100
AcDbLine
 10
-427.1439113834
 20
321.5670148189
 30
0.0
 11
-439.1439113834
 21
321.5670148189
 31
0.0
  0
LINE
  5
300
330
1F
100
AcDbEntity
  8
0
100
AcDbLine
 10
-415.1439113834
 20
321.5670148189
 30
0.0
 11
-427.1439113834
 21
321.5670148189
 31
0.0
  0
LINE
  5
301
330
1F
100
AcDbEntity
  8
0
100
AcDbLine
 10
-416.4939113834
 20
353.8170148189
 30
0.0
 11
-437.7939113834
 21
353.8170148189
 31
0.0
  0
LINE
  5
302
330
1F
100
AcDbEntity
  8
0
100
AcDbLine
 10
-425.9358099462
 20
344.9670148189
 30
0.0
 11
-439.1439113834
 21
344.9670148189
 31
0.0
  0
LINE
  5
303
330
1F
100
AcDbEntity
  8
0
100
AcDbLine
 10
-415.1439113834
 20
344.9670148189
 30
0.0
 11
-425.9358099462
 21
344.9670148189
 31
0.0
  0
LINE
  5
304
330
1F
100
AcDbEntity
  8
0
100
AcDbLine
 10
-425.9358099462
 20
345.3670148189
 30
0.0
 11
-439.1439113834
 21
345.3670148189
 31
0.0
  0
LINE
  5
305
330
1F
100
AcDbEntity
  8
0
100
AcDbLine
 10
-415.1439113834
 20
345.3670148189
 30
0.0
 11
-425.9358099462
 21
345.3670148189
 31
0.0
  0
LINE
  5
306
330
1F
100
AcDbEntity
  8
0
100
AcDbLine
 10
-417.6439113834
 20
354.9670148189
 30
0.0
 11
-436.6439113834
 21
354.9670148189
 31
0.0
  0
LINE
  5
307
330
1F
100
AcDbEntity
  8
0
100
AcDbLine
 10
-415.0439113834
 20
320.5670148189
 30
0.0
 11
-439.2439113834
 21
320.5670148189
 31
0.0
  0
LINE
  5
308
330
1F
100
AcDbEntity
  8
0
100
AcDbLine
 10
-202.7046827471
 20
339.0670148189
 30
0.0
 11
-202.7046827471
 21
331.5670148189
 31
0.0
  0
LINE
  5
309
330
1F
100
AcDbEntity
  8
0
100
AcDbLine
 10
-194.910454113
 20
339.0670148189
 30
0.0
 11
-194.910454113
 21
331.5670148189
 31
0.0
  0
LINE
  5
30A
330
1F
100
AcDbEntity
  8
0
100
AcDbLine
 10
-202.7046827471
 20
331.5670148189
 30
0.0
 11
-194.910454113
 21
331.5670148189
 31
0.0
  0
LINE
  5
30B
330
1F
100
AcDbEntity
  8
0
100
AcDbLine
 10
-202.7046827471
 20
339.0670148189
 30
0.0
 11
-194.910454113
 21
339.0670148189
 31
0.0
  0
LINE
  5
30C
330
1F
100
AcDbEntity
  8
0
100
AcDbLine
 10
-218.2931400152
 20
339.0670148189
 30
0.0
 11
-218.2931400152
 21
331.5670148189
 31
0.0
  0
LINE
  5
30D
330
1F
100
AcDbEntity
  8
0
100
AcDbLine
 10
-218.2931400152
 20
331.5670148189
 30
0.0
 11
-202.7046827471
 21
331.5670148189
 31
0.0
  0
LINE
  5
30E
330
1F
100
AcDbEntity
  8
0
100
AcDbLine
 10
-218.2931400152
 20
339.0670148189
 30
0.0
 11
-202.7046827471
 21
339.0670148189
 31
0.0
  0
LINE
  5
30F
330
1F
100
AcDbEntity
  8
0
100
AcDbLine
 10
-226.0873686493
 20
339.0670148189
 30
0.0
 11
-226.0873686493
 21
331.5670148189
 31
0.0
  0
LINE
  5
310
330
1F
100
AcDbEntity
  8
0
100
AcDbLine
 10
-226.0873686493
 20
331.5670148189
 30
0.0
 11
-218.2931400152
 21
331.5670148189
 31
0.0
  0
LINE
  5
311
330
1F
100
AcDbEntity
  8
0
100
AcDbLine
 10
-226.0873686493
 20
339.0670148189
 30
0.0
 11
-218.2931400152
 21
339.0670148189
 31
0.0
  0
LINE
  5
312
330
1F
100
AcDbEntity
  8
0
100
AcDbLine
 10
-223.2489113812
 20
322.3170148189
 30
0.0
 11
-197.7489113812
 21
322.3170148189
 31
0.0
  0
LINE
  5
313
330
1F
100
AcDbEntity
  8
0
100
AcDbLine
 10
-198.4989113812
 20
321.5670148189
 30
0.0
 11
-222.4989113812
 21
321.5670148189
 31
0.0
  0
LINE
  5
314
330
1F
100
AcDbEntity
  8
0
100
AcDbLine
 10
-198.4989113812
 20
344.9670148189
 30
0.0
 11
-222.4989113812
 21
344.9670148189
 31
0.0
  0
LINE
  5
315
330
1F
100
AcDbEntity
  8
0
100
AcDbLine
 10
-198.4989113812
 20
345.3670148189
 30
0.0
 11
-222.4989113812
 21
345.3670148189
 31
0.0
  0
LINE
  5
316
330
1F
100
AcDbEntity
  8
0
100
AcDbLine
 10
-209.5424977434
 20
354.9670148189
 30
0.0
 11
-219.9989113812
 21
354.9670148189
 31
0.0
  0
LINE
  5
317
330
1F
100
AcDbEntity
  8
0
100
AcDbLine
 10
-200.9989113812
 20
354.9670148189
 30
0.0
 11
-209.5424977434
 21
354.9670148189
 31
0.0
  0
LINE
  5
318
330
1F
100
AcDbEntity
  8
0
100
AcDbLine
 10
-210.4989113812
 20
320.5670148189
 30
0.0
 11
-222.5989113812
 21
320.5670148189
 31
0.0
  0
LINE
  5
319
330
1F
100
AcDbEntity
  8
0
100
AcDbLine
 10
-198.3989113812
 20
320.5670148189
 30
0.0
 11
-210.4989113812
 21
320.5670148189
 31
0.0
  0
LINE
  5
31A
330
1F
100
AcDbEntity
  8
0
100
AcDbLine
 10
-400.9064113812
 20
305.8170148189
 30
0.0
 11
-400.8774227163
 21
305.8170148189
 31
0.0
  0
LINE
  5
31B
330
1F
100
AcDbEntity
  8
0
100
AcDbLine
 10
-400.8774227163
 20
305.8170148189
 30
0.0
 11
-398.9581346998
 21
305.8170148189
 31
0.0
  0
LINE
  5
31C
330
1F
100
AcDbEntity
  8
0
100
AcDbLine
 10
-398.9581346998
 20
305.8170148189
 30
0.0
 11
-398.458687281
 21
305.8170148189
 31
0.0
  0
LINE
  5
31D
330
1F
100
AcDbEntity
  8
0
100
AcDbLine
 10
-398.458687281
 20
305.8170148189
 30
0.0
 11
-396.7118994966
 21
305.8170148189
 31
0.0
  0
LINE
  5
31E
330
1F
100
AcDbEntity
  8
0
100
AcDbLine
 10
-396.7118994966
 20
305.8170148189
 30
0.0
 11
-396.7064113812
 21
305.8170148189
 31
0.0
  0
LINE
  5
31F
330
1F
100
AcDbEntity
  8
0
100
AcDbLine
 10
-399.1060798325
 20
293.2670148189
 30
0.0
 11
-399.1064113812
 21
293.2670148189
 31
0.0
  0
LINE
  5
320
330
1F
100
AcDbEntity
  8
0
100
AcDbLine
 10
-398.5064113812
 20
293.2670148189
 30
0.0
 11
-399.1060798325
 21
293.2670148189
 31
0.0
  0
LINE
  5
321
330
1F
100
AcDbEntity
  8
0
100
AcDbLine
 10
-465.9064113812
 20
305.8170148189
 30
0.0
 11
-465.8774227163
 21
305.8170148189
 31
0.0
  0
LINE
  5
322
330
1F
100
AcDbEntity
  8
0
100
AcDbLine
 10
-465.8774227163
 20
305.8170148189
 30
0.0
 11
-463.9581346998
 21
305.8170148189
 31
0.0
  0
LINE
  5
323
330
1F
100
AcDbEntity
  8
0
100
AcDbLine
 10
-463.9581346998
 20
305.8170148189
 30
0.0
 11
-463.458687281
 21
305.8170148189
 31
0.0
  0
LINE
  5
324
330
1F
100
AcDbEntity
  8
0
100
AcDbLine
 10
-463.458687281
 20
305.8170148189
 30
0.0
 11
-461.7118994966
 21
305.8170148189
 31
0.0
  0
LINE
  5
325
330
1F
100
AcDbEntity
  8
0
100
AcDbLine
 10
-461.7118994966
 20
305.8170148189
 30
0.0
 11
-461.7064113812
 21
305.8170148189
 31
0.0
  0
LINE
  5
326
330
1F
100
AcDbEntity
  8
0
100
AcDbLine
 10
-464.1060798325
 20
293.2670148189
 30
0.0
 11
-464.1064113812
 21
293.2670148189
 31
0.0
  0
LINE
  5
327
330
1F
100
AcDbEntity
  8
0
100
AcDbLine
 10
-463.5064113812
 20
293.2670148189
 30
0.0
 11
-464.1060798325
 21
293.2670148189
 31
0.0
  0
LINE
  5
328
330
1F
100
AcDbEntity
  8
0
100
AcDbLine
 10
-175.9064113812
 20
305.8170148189
 30
0.0
 11
-175.9009232657
 21
305.8170148189
 31
0.0
  0
LINE
  5
329
330
1F
100
AcDbEntity
  8
0
100
AcDbLine
 10
-175.9009232657
 20
305.8170148189
 30
0.0
 11
-174.1541354814
 21
305.8170148189
 31
0.0
  0
LINE
  5
32A
330
1F
100
AcDbEntity
  8
0
100
AcDbLine
 10
-174.1541354814
 20
305.8170148189
 30
0.0
 11
-173.6546880625
 21
305.8170148189
 31
0.0
  0
LINE
  5
32B
330
1F
100
AcDbEntity
  8
0
100
AcDbLine
 10
-173.6546880625
 20
305.8170148189
 30
0.0
 11
-171.7354000461
 21
305.8170148189
 31
0.0
  0
LINE
  5
32C
330
1F
100
AcDbEntity
  8
0
100
AcDbLine
 10
-171.7354000461
 20
305.8170148189
 30
0.0
 11
-171.7064113812
 21
305.8170148189
 31
0.0
  0
LINE
  5
32D
330
1F
100
AcDbEntity
  8
0
100
AcDbLine
 10
-173.5064113812
 20
293.2670148189
 30
0.0
 11
-174.1064113812
 21
293.2670148189
 31
0.0
  0
LINE
  5
32E
330
1F
100
AcDbEntity
  8
0
100
AcDbLine
 10
-240.9064113812
 20
305.8170148189
 30
0.0
 11
-240.9009232657
 21
305.8170148189
 31
0.0
  0
LINE
  5
32F
330
1F
100
AcDbEntity
  8
0
100
AcDbLine
 10
-240.9009232657
 20
305.8170148189
 30
0.0
 11
-239.1541354814
 21
305.8170148189
 31
0.0
  0
LINE
  5
330
330
1F
100
AcDbEntity
  8
0
100
AcDbLine
 10
-239.1541354814
 20
305.8170148189
 30
0.0
 11
-238.6546880625
 21
305.8170148189
 31
0.0
  0
LINE
  5
331
330
1F
100
AcDbEntity
  8
0
100
AcDbLine
 10
-238.6546880625
 20
305.8170148189
 30
0.0
 11
-236.7354000461
 21
305.8170148189
 31
0.0
  0
LINE
  5
332
330
1F
100
AcDbEntity
  8
0
100
AcDbLine
 10
-236.7354000461
 20
305.8170148189
 30
0.0
 11
-236.7064113812
 21
305.8170148189
 31
0.0
  0
LINE
  5
333
330
1F
100
AcDbEntity
  8
0
100
AcDbLine
 10
-238.5064113812
 20
293.2670148189
 30
0.0
 11
-239.1064113812
 21
293.2670148189
 31
0.0
  0
LINE
  5
334
330
1F
100
AcDbEntity
  8
0
100
AcDbLine
 10
-457.3064113812
 20
284.0441381005
 30
0.0
 11
-457.3064113812
 21
283.1670148189
 31
0.0
  0
LINE
  5
335
330
1F
100
AcDbEntity
  8
0
100
AcDbLine
 10
-457.3064113812
 20
284.9670148189
 30
0.0
 11
-457.3064113812
 21
284.0441381005
 31
0.0
  0
LINE
  5
336
330
1F
100
AcDbEntity
  8
0
100
AcDbLine
 10
-452.0064113812
 20
284.041596243
 30
0.0
 11
-452.0064113812
 21
283.0670148189
 31
0.0
  0
LINE
  5
337
330
1F
100
AcDbEntity
  8
0
100
AcDbLine
 10
-452.0064113812
 20
285.0670148189
 30
0.0
 11
-452.0064113812
 21
284.041596243
 31
0.0
  0
LINE
  5
338
330
1F
100
AcDbEntity
  8
0
100
AcDbLine
 10
-453.0064113812
 20
284.0161776671
 30
0.0
 11
-453.0064113812
 21
282.0670148189
 31
0.0
  0
LINE
  5
339
330
1F
100
AcDbEntity
  8
0
100
AcDbLine
 10
-453.0064113812
 20
286.0670148189
 30
0.0
 11
-453.0064113812
 21
284.0161776671
 31
0.0
  0
LINE
  5
33A
330
1F
100
AcDbEntity
  8
0
100
AcDbLine
 10
-180.3064113812
 20
17.2631672416
 30
0.0
 11
-180.3064113812
 21
18.1631672416
 31
0.0
  0
LINE
  5
33B
330
1F
100
AcDbEntity
  8
0
100
AcDbLine
 10
-180.3064113812
 20
16.3631672416
 30
0.0
 11
-180.3064113812
 21
17.2631672416
 31
0.0
  0
LINE
  5
33C
330
1F
100
AcDbEntity
  8
0
100
AcDbLine
 10
-457.3064113812
 20
280.8631672416
 30
0.0
 11
-457.3064113812
 21
279.9631672416
 31
0.0
  0
LINE
  5
33D
330
1F
100
AcDbEntity
  8
0
100
AcDbLine
 10
-457.3064113812
 20
281.7631672416
 30
0.0
 11
-457.3064113812
 21
280.8631672416
 31
0.0
  0
LINE
  5
33E
330
1F
100
AcDbEntity
  8
0
100
AcDbLine
 10
-457.3064113812
 20
151.7170148189
 30
0.0
 11
-457.3064113812
 21
150.8170148189
 31
0.0
  0
LINE
  5
33F
330
1F
100
AcDbEntity
  8
0
100
AcDbLine
 10
-457.3064113812
 20
152.6170148189
 30
0.0
 11
-457.3064113812
 21
151.7170148189
 31
0.0
  0
LINE
  5
340
330
1F
100
AcDbEntity
  8
0
100
AcDbLine
 10
-452.0064113812
 20
151.7170148189
 30
0.0
 11
-452.0064113812
 21
150.7170148189
 31
0.0
  0
LINE
  5
341
330
1F
100
AcDbEntity
  8
0
100
AcDbLine
 10
-452.0064113812
 20
152.7170148189
 30
0.0
 11
-452.0064113812
 21
151.7170148189
 31
0.0
  0
LINE
  5
342
330
1F
100
AcDbEntity
  8
0
100
AcDbLine
 10
-453.0064113812
 20
151.7170148189
 30
0.0
 11
-453.0064113812
 21
149.7170148189
 31
0.0
  0
LINE
  5
343
330
1F
100
AcDbEntity
  8
0
100
AcDbLine
 10
-453.0064113812
 20
153.7170148189
 30
0.0
 11
-453.0064113812
 21
151.7170148189
 31
0.0
  0
LINE
  5
344
330
1F
100
AcDbEntity
  8
0
100
AcDbLine
 10
-180.3064113812
 20
151.7170148189
 30
0.0
 11
-180.3064113812
 21
152.6170148189
 31
0.0
  0
LINE
  5
345
330
1F
100
AcDbEntity
  8
0
100
AcDbLine
 10
-180.3064113812
 20
150.8170148189
 30
0.0
 11
-180.3064113812
 21
151.7170148189
 31
0.0
  0
LINE
  5
346
330
1F
100
AcDbEntity
  8
0
100
AcDbLine
 10
-185.6064113812
 20
151.7170148189
 30
0.0
 11
-185.6064113812
 21
152.7170148189
 31
0.0
  0
LINE
  5
347
330
1F
100
AcDbEntity
  8
0
100
AcDbLine
 10
-185.6064113812
 20
150.7170148189
 30
0.0
 11
-185.6064113812
 21
151.7170148189
 31
0.0
  0
LINE
  5
348
330
1F
100
AcDbEntity
  8
0
100
AcDbLine
 10
-184.6064113812
 20
151.7170148189
 30
0.0
 11
-184.6064113812
 21
153.7170148189
 31
0.0
  0
LINE
  5
349
330
1F
100
AcDbEntity
  8
0
100
AcDbLine
 10
-184.6064113812
 20
149.7170148189
 30
0.0
 11
-184.6064113812
 21
151.7170148189
 31
0.0
  0
LINE
  5
34A
330
1F
100
AcDbEntity
  8
0
100
AcDbLine
 10
-212.0064113812
 20
2.5670148189
 30
0.0
 11
-210.2064113812
 21
2.5670148189
 31
0.0
  0
LINE
  5
34B
330
1F
100
AcDbEntity
  8
0
100
AcDbLine
 10
-212.1064113812
 20
7.8670148189
 30
0.0
 11
-210.1064113812
 21
7.8670148189
 31
0.0
  0
LINE
  5
34C
330
1F
100
AcDbEntity
  8
0
100
AcDbLine
 10
-213.1064113812
 20
6.8670148189
 30
0.0
 11
-209.1064113812
 21
6.8670148189
 31
0.0
  0
LINE
  5
34D
330
1F
100
AcDbEntity
  8
0
100
AcDbLine
 10
-180.3064113812
 20
280.8631672416
 30
0.0
 11
-180.3064113812
 21
281.7631672416
 31
0.0
  0
LINE
  5
34E
330
1F
100
AcDbEntity
  8
0
100
AcDbLine
 10
-180.3064113812
 20
279.9631672416
 30
0.0
 11
-180.3064113812
 21
280.8631672416
 31
0.0
  0
LINE
  5
34F
330
1F
100
AcDbEntity
  8
0
100
AcDbLine
 10
-457.3064113812
 20
19.3670148189
 30
0.0
 11
-457.3064113812
 21
18.4670148189
 31
0.0
  0
LINE
  5
350
330
1F
100
AcDbEntity
  8
0
100
AcDbLine
 10
-457.3064113812
 20
20.2670148189
 30
0.0
 11
-457.3064113812
 21
19.3670148189
 31
0.0
  0
LINE
  5
351
330
1F
100
AcDbEntity
  8
0
100
AcDbLine
 10
-452.0064113812
 20
19.3670148189
 30
0.0
 11
-452.0064113812
 21
18.3670148189
 31
0.0
  0
LINE
  5
352
330
1F
100
AcDbEntity
  8
0
100
AcDbLine
 10
-452.0064113812
 20
20.3670148189
 30
0.0
 11
-452.0064113812
 21
19.3670148189
 31
0.0
  0
LINE
  5
353
330
1F
100
AcDbEntity
  8
0
100
AcDbLine
 10
-453.0064113812
 20
19.3670148189
 30
0.0
 11
-453.0064113812
 21
17.3670148189
 31
0.0
  0
LINE
  5
354
330
1F
100
AcDbEntity
  8
0
100
AcDbLine
 10
-453.0064113812
 20
21.3670148189
 30
0.0
 11
-453.0064113812
 21
19.3670148189
 31
0.0
  0
LINE
  5
355
330
1F
100
AcDbEntity
  8
0
100
AcDbLine
 10
-180.3064113812
 20
284.0670148189
 30
0.0
 11
-180.3064113812
 21
284.9670148189
 31
0.0
  0
LINE
  5
356
330
1F
100
AcDbEntity
  8
0
100
AcDbLine
 10
-180.3064113812
 20
283.1670148189
 30
0.0
 11
-180.3064113812
 21
284.0670148189
 31
0.0
  0
LINE
  5
357
330
1F
100
AcDbEntity
  8
0
100
AcDbLine
 10
-185.6064113812
 20
284.0670148189
 30
0.0
 11
-185.6064113812
 21
285.0670148189
 31
0.0
  0
LINE
  5
358
330
1F
100
AcDbEntity
  8
0
100
AcDbLine
 10
-185.6064113812
 20
283.0670148189
 30
0.0
 11
-185.6064113812
 21
284.0670148189
 31
0.0
  0
LINE
  5
359
330
1F
100
AcDbEntity
  8
0
100
AcDbLine
 10
-184.6064113812
 20
284.0670148189
 30
0.0
 11
-184.6064113812
 21
286.0670148189
 31
0.0
  0
LINE
  5
35A
330
1F
100
AcDbEntity
  8
0
100
AcDbLine
 10
-184.6064113812
 20
282.0670148189
 30
0.0
 11
-184.6064113812
 21
284.0670148189
 31
0.0
  0
LINE
  5
35B
330
1F
100
AcDbEntity
  8
0
100
AcDbLine
 10
-180.3064113812
 20
19.3670148189
 30
0.0
 11
-180.3064113812
 21
20.2670148189
 31
0.0
  0
LINE
  5
35C
330
1F
100
AcDbEntity
  8
0
100
AcDbLine
 10
-180.3064113812
 20
18.4670148189
 30
0.0
 11
-180.3064113812
 21
19.3670148189
 31
0.0
  0
LINE
  5
35D
330
1F
100
AcDbEntity
  8
0
100
AcDbLine
 10
-185.6064113812
 20
19.3670148189
 30
0.0
 11
-185.6064113812
 21
20.3670148189
 31
0.0
  0
LINE
  5
35E
330
1F
100
AcDbEntity
  8
0
100
AcDbLine
 10
-185.6064113812
 20
18.3670148189
 30
0.0
 11
-185.6064113812
 21
19.3670148189
 31
0.0
  0
LINE
  5
35F
330
1F
100
AcDbEntity
  8
0
100
AcDbLine
 10
-184.6064113812
 20
19.3670148189
 30
0.0
 11
-184.6064113812
 21
21.3670148189
 31
0.0
  0
LINE
  5
360
330
1F
100
AcDbEntity
  8
0
100
AcDbLine
 10
-184.6064113812
 20
17.3670148189
 30
0.0
 11
-184.6064113812
 21
19.3670148189
 31
0.0
  0
LINE
  5
361
330
1F
100
AcDbEntity
  8
0
100
AcDbLine
 10
-427.4064113812
 20
2.5670148189
 30
0.0
 11
-425.6064113812
 21
2.5670148189
 31
0.0
  0
LINE
  5
362
330
1F
100
AcDbEntity
  8
0
100
AcDbLine
 10
-427.5064113812
 20
7.8670148189
 30
0.0
 11
-425.5064113812
 21
7.8670148189
 31
0.0
  0
LINE
  5
363
330
1F
100
AcDbEntity
  8
0
100
AcDbLine
 10
-428.5064113812
 20
6.8670148189
 30
0.0
 11
-424.5064113812
 21
6.8670148189
 31
0.0
  0
LINE
  5
364
330
1F
100
AcDbEntity
  8
0
100
AcDbLine
 10
-457.3064113812
 20
17.2631672416
 30
0.0
 11
-457.3064113812
 21
16.3631672416
 31
0.0
  0
LINE
  5
365
330
1F
100
AcDbEntity
  8
0
100
AcDbLine
 10
-457.3064113812
 20
18.1631672416
 30
0.0
 11
-457.3064113812
 21
17.2631672416
 31
0.0
  0
LINE
  5
366
330
1F
100
AcDbEntity
  8
0
100
AcDbLine
 10
-319.7064113812
 20
2.5670148189
 30
0.0
 11
-317.9064113812
 21
2.5670148189
 31
0.0
  0
LINE
  5
367
330
1F
100
AcDbEntity
  8
0
100
AcDbLine
 10
-319.8064113812
 20
7.8670148189
 30
0.0
 11
-317.8064113812
 21
7.8670148189
 31
0.0
  0
LINE
  5
368
330
1F
100
AcDbEntity
  8
0
100
AcDbLine
 10
-320.8064113812
 20
6.8670148189
 30
0.0
 11
-316.8064113812
 21
6.8670148189
 31
0.0
  0
LINE
  5
369
330
1F
100
AcDbEntity
  8
0
100
AcDbLine
 10
-427.1439113834
 20
304.7670148189
 30
0.0
 11
-459.9464397905
 21
304.7670148189
 31
0.0
  0
LINE
  5
36A
330
1F
100
AcDbEntity
  8
0
100
AcDbLine
 10
-393.1439113834
 20
304.7670148189
 30
0.0
 11
-394.9464397905
 21
304.7670148189
 31
0.0
  0
LINE
  5
36B
330
1F
100
AcDbEntity
  8
0
100
AcDbLine
 10
-402.6663829719
 20
304.7670148189
 30
0.0
 11
-427.1439113834
 21
304.7670148189
 31
0.0
  0
LINE
  5
36C
330
1F
100
AcDbEntity
  8
0
100
AcDbLine
 10
-427.1439113834
 20
314.7670148189
 30
0.0
 11
-439.1439113834
 21
314.7670148189
 31
0.0
  0
LINE
  5
36D
330
1F
100
AcDbEntity
  8
0
100
AcDbLine
 10
-415.1439113834
 20
314.7670148189
 30
0.0
 11
-427.1439113834
 21
314.7670148189
 31
0.0
  0
LINE
  5
36E
330
1F
100
AcDbEntity
  8
0
100
AcDbLine
 10
-196.954348434
 20
304.7670148189
 30
0.0
 11
-234.9464397905
 21
304.7670148189
 31
0.0
  0
LINE
  5
36F
330
1F
100
AcDbEntity
  8
0
100
AcDbLine
 10
-242.6663829718
 20
304.7670148189
 30
0.0
 11
-244.4989113812
 21
304.7670148189
 31
0.0
  0
LINE
  5
370
330
1F
100
AcDbEntity
  8
0
100
AcDbLine
 10
-177.6663829718
 20
304.7670148189
 30
0.0
 11
-196.954348434
 21
304.7670148189
 31
0.0
  0
LINE
  5
371
330
1F
100
AcDbEntity
  8
0
100
AcDbLine
 10
-205.7184773998
 20
314.7670148189
 30
0.0
 11
-222.4989113812
 21
314.7670148189
 31
0.0
  0
LINE
  5
372
330
1F
100
AcDbEntity
  8
0
100
AcDbLine
 10
-198.4989113812
 20
314.7670148189
 30
0.0
 11
-205.7184773998
 21
314.7670148189
 31
0.0
  0
LINE
  5
373
330
1F
100
AcDbEntity
  8
0
100
AcDbLine
 10
-167.9831880764
 20
301.0670148189
 30
0.0
 11
-167.9831880764
 21
293.7670148189
 31
0.0
  0
LINE
  5
374
330
1F
100
AcDbEntity
  8
0
100
AcDbLine
 10
-469.6296346858
 20
293.7670148189
 30
0.0
 11
-469.6296346858
 21
301.0670148189
 31
0.0
  0
LINE
  5
375
330
1F
100
AcDbEntity
  8
0
100
AcDbLine
 10
-469.6296346858
 20
293.7670148189
 30
0.0
 11
-167.9831880764
 21
293.7670148189
 31
0.0
  0
ELLIPSE
  5
376
330
1F
100
AcDbEntity
  8
0
100
AcDbEllipse
 10
-168.8064113811
 20
301.0670148189
 30
0.0
 11
0.0
 21
1.699999999999989
 31
0.0
210
0.0
220
0.0
230
1.0
 40
0.4842490028
 41
4.712388980384697
 42
6.283185307179586
  0
LINE
  5
377
330
1F
100
AcDbEntity
  8
0
100
AcDbLine
 10
-468.8064113812
 20
302.7670148189
 30
0.0
 11
-168.8064113812
 21
302.7670148189
 31
0.0
  0
ELLIPSE
  5
378
330
1F
100
AcDbEntity
  8
0
100
AcDbEllipse
 10
-468.8064113811
 20
301.0670148189
 30
0.0
 11
0.0
 21
1.699999999999989
 31
0.0
210
0.0
220
0.0
230
1.0
 40
0.4842490027
 41
0.0
 42
1.570796326794897
  0
LINE
  5
379
330
1F
100
AcDbEntity
  8
0
100
AcDbLine
 10
-469.8064113812
 20
293.7670148189
 30
0.0
 11
-470.5064113812
 21
293.7670148189
 31
0.0
  0
LINE
  5
37A
330
1F
100
AcDbEntity
  8
0
100
AcDbLine
 10
-470.5064113812
 20
301.0670148189
 30
0.0
 11
-470.5064113812
 21
293.7670148189
 31
0.0
  0
LINE
  5
37B
330
1F
100
AcDbEntity
  8
0
100
AcDbLine
 10
-469.8064113812
 20
301.0670148189
 30
0.0
 11
-469.8064113812
 21
293.7670148189
 31
0.0
  0
ARC
  5
37C
330
1F
100
AcDbEntity
  8
0
100
AcDbCircle
 10
-468.8064113812
 20
301.0670148189
 30
0.0
 40
1.699999999999989
100
AcDbArc
 50
90.0
 51
180.0
  0
ARC
  5
37D
330
1F
100
AcDbEntity
  8
0
100
AcDbCircle
 10
-468.8064113812
 20
301.0670148189
 30
0.0
 40
1.0
100
AcDbArc
 50
139.5433919284
 51
180.0
  0
LINE
  5
37E
330
1F
100
AcDbEntity
  8
0
100
AcDbLine
 10
-167.8064113811
 20
293.7670148189
 30
0.0
 11
-167.8064113812
 21
301.0670148189
 31
0.0
  0
LINE
  5
37F
330
1F
100
AcDbEntity
  8
0
100
AcDbLine
 10
-167.1064113811
 20
293.7670148189
 30
0.0
 11
-167.1064113812
 21
301.0670148189
 31
0.0
  0
LINE
  5
380
330
1F
100
AcDbEntity
  8
0
100
AcDbLine
 10
-167.8064113811
 20
293.7670148189
 30
0.0
 11
-167.1064113811
 21
293.7670148189
 31
0.0
  0
ARC
  5
381
330
1F
100
AcDbEntity
  8
0
100
AcDbCircle
 10
-168.8064113812
 20
301.0670148189
 30
0.0
 40
1.00000000000006
100
AcDbArc
 50
0.0
 51
40.4566087274
  0
ARC
  5
382
330
1F
100
AcDbEntity
  8
0
100
AcDbCircle
 10
-168.8064113812
 20
301.0670148189
 30
0.0
 40
1.700000000000045
100
AcDbArc
 50
0.0
 51
90.0
  0
LINE
  5
383
330
1F
100
AcDbEntity
  8
0
100
AcDbLine
 10
-181.8064113812
 20
293.7670148189
 30
0.0
 11
-181.8064113812
 21
5.0670148189
 31
0.0
  0
LINE
  5
384
330
1F
100
AcDbEntity
  8
0
100
AcDbLine
 10
-181.1064113812
 20
293.7670148189
 30
0.0
 11
-181.1064113812
 21
5.0670148189
 31
0.0
  0
ARC
  5
385
330
1F
100
AcDbEntity
  8
0
100
AcDbCircle
 10
-182.8064113812
 20
5.0670148189
 30
0.0
 40
1.000000000000001
100
AcDbArc
 50
270.0
 51
0.0
  0
ARC
  5
386
330
1F
100
AcDbEntity
  8
0
100
AcDbCircle
 10
-182.8064113812
 20
5.0670148189
 30
0.0
 40
1.700000000000017
100
AcDbArc
 50
270.0
 51
0.0
  0
LINE
  5
387
330
1F
100
AcDbEntity
  8
0
100
AcDbLine
 10
-182.8064113812
 20
4.0670148189
 30
0.0
 11
-454.8064113812
 21
4.0670148189
 31
0.0
  0
LINE
  5
388
330
1F
100
AcDbEntity
  8
0
100
AcDbLine
 10
-182.8064113812
 20
3.3670148189
 30
0.0
 11
-454.8064113812
 21
3.3670148189
 31
0.0
  0
ARC
  5
389
330
1F
100
AcDbEntity
  8
0
100
AcDbCircle
 10
-454.8064113812
 20
5.0670148189
 30
0.0
 40
1.700000000000045
100
AcDbArc
 50
180.0
 51
270.0
  0
ARC
  5
38A
330
1F
100
AcDbEntity
  8
0
100
AcDbCircle
 10
-454.8064113812
 20
5.0670148189
 30
0.0
 40
1.000000000000001
100
AcDbArc
 50
180.0
 51
270.0
  0
LINE
  5
38B
330
1F
100
AcDbEntity
  8
0
100
AcDbLine
 10
-456.5064113812
 20
5.0670148189
 30
0.0
 11
-456.5064113812
 21
293.7670148189
 31
0.0
  0
LINE
  5
38C
330
1F
100
AcDbEntity
  8
0
100
AcDbLine
 10
-455.8064113812
 20
5.0670148189
 30
0.0
 11
-455.8064113812
 21
293.7670148189
 31
0.0
  0
CIRCLE
  5
38D
330
1F
100
AcDbEntity
  8
0
100
AcDbCircle
 10
-318.8064113812
 20
152.0670148189
 30
0.0
 40
100.0000000000001
  0
CIRCLE
  5
38E
330
1F
100
AcDbEntity
  8
0
100
AcDbCircle
 10
-318.8064113812
 20
152.0670148189
 30
0.0
 40
95.70000000000289
  0
CIRCLE
  5
38F
330
1F
100
AcDbEntity
  8
0
100
AcDbCircle
 10
-318.8064113812
 20
152.0670148189
 30
0.0
 40
95.69924518633553
  0
CIRCLE
  5
390
330
1F
100
AcDbEntity
  8
0
100
AcDbCircle
 10
-220.5125280516
 20
95.3170148189
 30
0.0
 40
3.899999999999991
  0
CIRCLE
  5
391
330
1F
100
AcDbEntity
  8
0
100
AcDbCircle
 10
-220.5125280516
 20
95.3170148189
 30
0.0
 40
1.099999999999994
  0
CIRCLE
  5
392
330
1F
100
AcDbEntity
  8
0
100
AcDbCircle
 10
-318.8064113812
 20
38.5670148189
 30
0.0
 40
3.899999999999984
  0
CIRCLE
  5
393
330
1F
100
AcDbEntity
  8
0
100
AcDbCircle
 10
-318.8064113812
 20
38.5670148189
 30
0.0
 40
1.099999999999987
  0
CIRCLE
  5
394
330
1F
100
AcDbEntity
  8
0
100
AcDbCircle
 10
-220.5125280516
 20
208.8170148189
 30
0.0
 40
3.900000000000006
  0
CIRCLE
  5
395
330
1F
100
AcDbEntity
  8
0
100
AcDbCircle
 10
-220.5125280516
 20
208.8170148189
 30
0.0
 40
1.099999999999966
  0
CIRCLE
  5
396
330
1F
100
AcDbEntity
  8
0
100
AcDbCircle
 10
-417.1002947107
 20
208.8170148189
 30
0.0
 40
3.900000000000006
  0
CIRCLE
  5
397
330
1F
100
AcDbEntity
  8
0
100
AcDbCircle
 10
-417.1002947107
 20
208.8170148189
 30
0.0
 40
1.100000000000023
  0
CIRCLE
  5
398
330
1F
100
AcDbEntity
  8
0
100
AcDbCircle
 10
-318.8064113812
 20
265.5670148189
 30
0.0
 40
3.899999999999977
  0
CIRCLE
  5
399
330
1F
100
AcDbEntity
  8
0
100
AcDbCircle
 10
-318.8064113812
 20
265.5670148189
 30
0.0
 40
1.100000000000023
  0
CIRCLE
  5
39A
330
1F
100
AcDbEntity
  8
0
100
AcDbCircle
 10
-417.1002947107
 20
95.3170148189
 30
0.0
 40
3.900000000000006
  0
CIRCLE
  5
39B
330
1F
100
AcDbEntity
  8
0
100
AcDbCircle
 10
-417.1002947107
 20
95.3170148189
 30
0.0
 40
1.100000000000009
  0
LINE
  5
39C
330
1F
100
AcDbEntity
  8
0
100
AcDbLine
 10
-182.5771220593
 20
4.0670148189
 30
0.0
 11
-455.035700703
 21
4.0670148189
 31
0.0
  0
LINE
  5
39D
330
1F
100
AcDbEntity
  8
0
100
AcDbLine
 10
-455.035700703
 20
4.0670148189
 30
0.0
 11
-455.035700703
 21
4.7670148189
 31
0.0
  0
LINE
  5
39E
330
1F
100
AcDbEntity
  8
0
100
AcDbLine
 10
-182.5771220593
 20
4.7670148189
 30
0.0
 11
-455.035700703
 21
4.7670148189
 31
0.0
  0
LINE
  5
39F
330
1F
100
AcDbEntity
  8
0
100
AcDbLine
 10
-182.5771220593
 20
4.0670148189
 30
0.0
 11
-182.5771220593
 21
4.7670148189
 31
0.0
  0
LINE
  5
3A0
330
1F
100
AcDbEntity
  8
0
100
AcDbLine
 10
-182.5064113812
 20
293.7670148189
 30
0.0
 11
-182.5064113812
 21
4.837725497
 31
0.0
  0
LINE
  5
3A1
330
1F
100
AcDbEntity
  8
0
100
AcDbLine
 10
-181.8064113812
 20
4.837725497
 30
0.0
 11
-182.5064113812
 21
4.837725497
 31
0.0
  0
LINE
  5
3A2
330
1F
100
AcDbEntity
  8
0
100
AcDbLine
 10
-181.8064113812
 20
293.7670148189
 30
0.0
 11
-181.8064113812
 21
4.837725497
 31
0.0
  0
LINE
  5
3A3
330
1F
100
AcDbEntity
  8
0
100
AcDbLine
 10
-455.8064113812
 20
4.837725497
 30
0.0
 11
-455.1064113812
 21
4.837725497
 31
0.0
  0
LINE
  5
3A4
330
1F
100
AcDbEntity
  8
0
100
AcDbLine
 10
-455.8064113812
 20
4.837725497
 30
0.0
 11
-455.8064113812
 21
293.7670148189
 31
0.0
  0
LINE
  5
3A5
330
1F
100
AcDbEntity
  8
0
100
AcDbLine
 10
-455.1064113812
 20
4.837725497
 30
0.0
 11
-455.1064113812
 21
293.7670148189
 31
0.0
  0
SPLINE
  5
3A6
330
1F
100
AcDbEntity
  8
0
100
AcDbSpline
210
0.0
220
0.0
230
1.0
 70
     8
 71
     3
 72
    11
 73
     7
 74
     0
 42
0.00000001
 43
0.00000001
 40
0.0
 40
0.0
 40
0.0
 40
0.0
 40
0.2497194705775332
 40
0.4995459238714951
 40
0.7493726557942129
 40
0.9999999999999999
 40
0.9999999999999999
 40
0.9999999999999999
 40
0.9999999999999999
 10
-183.5064113811671
 20
5.767014818853583
 30
0.0
 10
-183.3755226791432
 20
5.689661902644444
 30
0.0
 10
-183.1136892008579
 20
5.534922931339947
 30
0.0
 10
-182.783304421874
 20
5.302795523714571
 30
0.0
 10
-182.5516819850508
 20
5.070390357058835
 30
0.0
 10
-182.5215176678024
 20
4.915363119731675
 30
0.0
 10
-182.5064113811671
 20
4.837725496972256
 30
0.0
  0
SPLINE
  5
3A7
330
1F
100
AcDbEntity
  8
0
100
AcDbSpline
210
0.0
220
0.0
230
1.0
 70
     8
 71
     3
 72
    11
 73
     7
 74
     0
 42
0.00000001
 43
0.00000001
 40
0.0
 40
0.0
 40
0.0
 40
0.0
 40
0.2497194705775829
 40
0.4995459238715623
 40
0.749372655794246
 40
0.9999999999999999
 40
0.9999999999999999
 40
0.9999999999999999
 40
0.9999999999999999
 10
-454.1064113811672
 20
5.767014818853583
 30
0.0
 10
-454.1837642973763
 20
5.636126116829621
 30
0.0
 10
-454.3385032686809
 20
5.374292638544303
 30
0.0
 10
-454.5706306763062
 20
5.043907859560465
 30
0.0
 10
-454.8030358429619
 20
4.812285422737345
 30
0.0
 10
-454.9580630802891
 20
4.782121105488896
 30
0.0
 10
-455.0357007030485
 20
4.76701481885361
 30
0.0
  0
SPLINE
  5
3A8
330
1F
100
AcDbEntity
  8
0
100
AcDbSpline
210
0.0
220
0.0
230
1.0
 70
     8
 71
     3
 72
    11
 73
     7
 74
     0
 42
0.00000001
 43
0.00000001
 40
0.0
 40
0.0
 40
0.0
 40
0.0
 40
0.2497194705775429
 40
0.4995459238715013
 40
0.749372655794198
 40
0.9999999999999999
 40
0.9999999999999999
 40
0.9999999999999999
 40
0.9999999999999999
 10
-182.5771220592858
 20
4.76701481885361
 30
0.0
 10
-182.654474975495
 20
4.782012193009249
 30
0.0
 10
-182.8092139467994
 20
4.812013366369467
 30
0.0
 10
-183.0413413544248
 20
5.042860379692399
 30
0.0
 10
-183.2737465210805
 20
5.373325529585943
 30
0.0
 10
-183.4287737584076
 20
5.635645171915033
 30
0.0
 10
-183.5064113811671
 20
5.76701481885361
 30
0.0
  0
SPLINE
  5
3A9
330
1F
100
AcDbEntity
  8
0
100
AcDbSpline
210
0.0
220
0.0
230
1.0
 70
     8
 71
     3
 72
    11
 73
     7
 74
     0
 42
0.00000001
 43
0.00000001
 40
0.0
 40
0.0
 40
0.0
 40
0.0
 40
0.2497194705775627
 40
0.4995459238715405
 40
0.7493726557942468
 40
1.0
 40
1.0
 40
1.0
 40
1.0
 10
-455.1064113811672
 20
4.837725496972256
 30
0.0
 10
-455.0914140070115
 20
4.915078413181479
 30
0.0
 10
-455.0614128336512
 20
5.069817384486003
 30
0.0
 10
-454.8305658203284
 20
5.301944792111351
 30
0.0
 10
-454.5001006704347
 20
5.534349958767088
 30
0.0
 10
-454.2377810281056
 20
5.689377196094219
 30
0.0
 10
-454.1064113811672
 20
5.76701481885361
 30
0.0
  0
LINE
  5
3AA
330
1F
100
AcDbEntity
  8
0
  6
PHANTOM
 62
     8
370
    18
100
AcDbLine
 10
-438.0439113834
 20
353.5670148189
 30
0.0
 11
-416.2439113834
 21
353.5670148189
 31
0.0
  0
LINE
  5
3AB
330
1F
100
AcDbEntity
  8
0
  6
PHANTOM
 62
     8
370
    18
100
AcDbLine
 10
-209.4015525757
 20
353.5670148189
 30
0.0
 11
-199.5989113812
 21
353.5670148189
 31
0.0
  0
LINE
  5
3AC
330
1F
100
AcDbEntity
  8
0
  6
PHANTOM
 62
     8
370
    18
100
AcDbLine
 10
-221.3989113812
 20
353.5670148189
 30
0.0
 11
-209.4015525757
 21
353.5670148189
 31
0.0
  0
ARC
  5
3AD
330
1F
100
AcDbEntity
  8
0
  6
PHANTOM
 62
     8
370
    18
100
AcDbCircle
 10
-212.9837907153
 20
353.9134674009
 30
0.0
 40
3.598952553178667
100
AcDbArc
 50
354.4758766626
 51
17.0219015372
  0
LINE
  5
3AE
330
1F
100
AcDbEntity
  8
0
  6
PHANTOM
 62
     8
370
    18
100
AcDbLine
 10
-209.4015525757
 20
353.5670148189
 30
0.0
 11
-209.4015525757
 21
345.3670148189
 31
0.0
  0
LINE
  5
3AF
330
1F
100
AcDbEntity
  8
0
  6
PHANTOM
 62
     8
370
    18
100
AcDbLine
 10
-210.4989113812
 20
311.5060627977
 30
0.0
 11
-210.4989113812
 21
320.5670148189
 31
0.0
  0
LINE
  5
3B0
330
1F
100
AcDbEntity
  8
0
  6
PHANTOM
 62
     8
370
    18
100
AcDbLine
 10
-398.6137068756
 20
303.8170148189
 30
0.0
 11
-394.7064113812
 21
303.8170148189
 31
0.0
  0
LINE
  5
3B1
330
1F
100
AcDbEntity
  8
0
  6
PHANTOM
 62
     8
370
    18
100
AcDbLine
 10
-402.9064113812
 20
303.8170148189
 30
0.0
 11
-398.6137068756
 21
303.8170148189
 31
0.0
  0
LINE
  5
3B2
330
1F
100
AcDbEntity
  8
0
  6
PHANTOM
 62
     8
370
    18
100
AcDbLine
 10
-463.6137068756
 20
303.8170148189
 30
0.0
 11
-459.7064113812
 21
303.8170148189
 31
0.0
  0
LINE
  5
3B3
330
1F
100
AcDbEntity
  8
0
  6
PHANTOM
 62
     8
370
    18
100
AcDbLine
 10
-467.9064113812
 20
303.8170148189
 30
0.0
 11
-463.6137068756
 21
303.8170148189
 31
0.0
  0
LINE
  5
3B4
330
1F
100
AcDbEntity
  8
0
  6
PHANTOM
 62
     8
370
    18
100
AcDbLine
 10
-173.9991158868
 20
303.8170148189
 30
0.0
 11
-169.7064113812
 21
303.8170148189
 31
0.0
  0
LINE
  5
3B5
330
1F
100
AcDbEntity
  8
0
  6
PHANTOM
 62
     8
370
    18
100
AcDbLine
 10
-177.9064113812
 20
303.8170148189
 30
0.0
 11
-173.9991158868
 21
303.8170148189
 31
0.0
  0
LINE
  5
3B6
330
1F
100
AcDbEntity
  8
0
  6
PHANTOM
 62
     8
370
    18
100
AcDbLine
 10
-238.9991158868
 20
303.8170148189
 30
0.0
 11
-234.7064113812
 21
303.8170148189
 31
0.0
  0
LINE
  5
3B7
330
1F
100
AcDbEntity
  8
0
  6
PHANTOM
 62
     8
370
    18
100
AcDbLine
 10
-242.9064113812
 20
303.8170148189
 30
0.0
 11
-238.9991158868
 21
303.8170148189
 31
0.0
  0
LINE
  5
3B8
330
1F
100
AcDbEntity
  8
0
  6
PHANTOM
 62
     8
370
    18
100
AcDbLine
 10
-427.1439113834
 20
312.7670148189
 30
0.0
 11
-439.1439113834
 21
312.7670148189
 31
0.0
  0
LINE
  5
3B9
330
1F
100
AcDbEntity
  8
0
  6
PHANTOM
 62
     8
370
    18
100
AcDbLine
 10
-415.1439113834
 20
312.7670148189
 30
0.0
 11
-427.1439113834
 21
312.7670148189
 31
0.0
  0
LINE
  5
3BA
330
1F
100
AcDbEntity
  8
0
  6
PHANTOM
 62
     8
370
    18
100
AcDbLine
 10
-205.7184773998
 20
312.7670148189
 30
0.0
 11
-222.4989113812
 21
312.7670148189
 31
0.0
  0
LINE
  5
3BB
330
1F
100
AcDbEntity
  8
0
  6
PHANTOM
 62
     8
370
    18
100
AcDbLine
 10
-198.4989113812
 20
312.7670148189
 30
0.0
 11
-205.7184773998
 21
312.7670148189
 31
0.0
  0
LINE
  5
3BC
330
1F
100
AcDbEntity
  8
0
  6
PHANTOM
 62
     8
370
    18
100
AcDbLine
 10
-469.6296346858
 20
301.0670148189
 30
0.0
 11
-167.9831880764
 21
301.0670148189
 31
0.0
  0
LINE
  5
3BD
330
1F
100
AcDbEntity
  8
0
  6
PHANTOM
 62
     8
370
    18
100
AcDbLine
 10
-469.8064113812
 20
301.0670148189
 30
0.0
 11
-470.5064113812
 21
301.0670148189
 31
0.0
  0
LINE
  5
3BE
330
1F
100
AcDbEntity
  8
0
  6
PHANTOM
 62
     8
370
    18
100
AcDbLine
 10
-167.8064113812
 20
301.0670148189
 30
0.0
 11
-167.1064113812
 21
301.0670148189
 31
0.0
  0
LINE
  5
3BF
330
1F
100
AcDbEntity
  8
0
  6
PHANTOM
 62
     8
370
    18
100
AcDbLine
 10
-181.8064113812
 20
5.0670148189
 30
0.0
 11
-181.1064113812
 21
5.0670148189
 31
0.0
  0
LINE
  5
3C0
330
1F
100
AcDbEntity
  8
0
  6
PHANTOM
 62
     8
370
    18
100
AcDbLine
 10
-182.8064113812
 20
3.3670148189
 30
0.0
 11
-182.8064113812
 21
4.0670148189
 31
0.0
  0
LINE
  5
3C1
330
1F
100
AcDbEntity
  8
0
  6
PHANTOM
 62
     8
370
    18
100
AcDbLine
 10
-454.8064113812
 20
4.0670148189
 30
0.0
 11
-454.8064113812
 21
3.3670148189
 31
0.0
  0
LINE
  5
3C2
330
1F
100
AcDbEntity
  8
0
  6
PHANTOM
 62
     8
370
    18
100
AcDbLine
 10
-456.5064113812
 20
5.0670148189
 30
0.0
 11
-455.8064113812
 21
5.0670148189
 31
0.0
  0
CIRCLE
  5
3C3
330
1F
100
AcDbEntity
  8
0
  6
PHANTOM
 62
     8
370
    18
100
AcDbCircle
 10
-318.8064113812
 20
152.0670148189
 30
0.0
 40
106.9434660676937
  0
CIRCLE
  5
3C4
330
1F
100
AcDbEntity
  8
0
  6
PHANTOM
 62
     8
370
    18
100
AcDbCircle
 10
-318.8064113812
 20
152.0670148189
 30
0.0
 40
96.99840052040298
  0
CIRCLE
  5
3C5
330
1F
100
AcDbEntity
  8
0
  6
PHANTOM
 62
     8
370
    18
100
AcDbCircle
 10
-318.8064113812
 20
152.0670148189
 30
0.0
 40
98.69797870739802
  0
LINE
  5
3C6
330
1F
100
AcDbEntity
  8
0
  6
PHANTOM
 62
     8
370
    18
100
AcDbLine
 10
-183.5064113812
 20
5.7670148189
 30
0.0
 11
-183.5064113812
 21
17.8670148189
 31
0.0
  0
LINE
  5
3C7
330
1F
100
AcDbEntity
  8
0
  6
PHANTOM
 62
     8
370
    18
100
AcDbLine
 10
-183.5064113812
 20
20.8670148189
 30
0.0
 11
-183.5064113812
 21
150.2170148189
 31
0.0
  0
LINE
  5
3C8
330
1F
100
AcDbEntity
  8
0
  6
PHANTOM
 62
     8
370
    18
100
AcDbLine
 10
-183.5064113812
 20
153.2170148189
 30
0.0
 11
-183.5064113812
 21
282.5670148189
 31
0.0
  0
LINE
  5
3C9
330
1F
100
AcDbEntity
  8
0
  6
PHANTOM
 62
     8
370
    18
100
AcDbLine
 10
-183.5064113812
 20
285.5670148189
 30
0.0
 11
-183.5064113812
 21
293.7670148189
 31
0.0
  0
LINE
  5
3CA
330
1F
100
AcDbEntity
  8
0
  6
PHANTOM
 62
     8
370
    18
100
AcDbLine
 10
-454.1064113812
 20
5.7670148189
 30
0.0
 11
-428.0064113812
 21
5.7670148189
 31
0.0
  0
LINE
  5
3CB
330
1F
100
AcDbEntity
  8
0
  6
PHANTOM
 62
     8
370
    18
100
AcDbLine
 10
-425.0064113812
 20
5.7670148189
 30
0.0
 11
-320.3064113812
 21
5.7670148189
 31
0.0
  0
LINE
  5
3CC
330
1F
100
AcDbEntity
  8
0
  6
PHANTOM
 62
     8
370
    18
100
AcDbLine
 10
-317.3064113812
 20
5.7670148189
 30
0.0
 11
-212.6064113812
 21
5.7670148189
 31
0.0
  0
LINE
  5
3CD
330
1F
100
AcDbEntity
  8
0
  6
PHANTOM
 62
     8
370
    18
100
AcDbLine
 10
-209.6064113812
 20
5.7670148189
 30
0.0
 11
-183.5064113812
 21
5.7670148189
 31
0.0
  0
LINE
  5
3CE
330
1F
100
AcDbEntity
  8
0
  6
PHANTOM
 62
     8
370
    18
100
AcDbLine
 10
-454.1064113812
 20
293.7670148189
 30
0.0
 11
-454.1064113812
 21
285.5670148189
 31
0.0
  0
LINE
  5
3CF
330
1F
100
AcDbEntity
  8
0
  6
PHANTOM
 62
     8
370
    18
100
AcDbLine
 10
-454.1064113812
 20
282.5670148189
 30
0.0
 11
-454.1064113812
 21
153.2170148189
 31
0.0
  0
LINE
  5
3D0
330
1F
100
AcDbEntity
  8
0
  6
PHANTOM
 62
     8
370
    18
100
AcDbLine
 10
-454.1064113812
 20
150.2170148189
 30
0.0
 11
-454.1064113812
 21
20.8670148189
 31
0.0
  0
LINE
  5
3D1
330
1F
100
AcDbEntity
  8
0
  6
PHANTOM
 62
     8
370
    18
100
AcDbLine
 10
-454.1064113812
 20
17.8670148189
 30
0.0
 11
-454.1064113812
 21
5.7670148189
 31
0.0
  0
ARC
  5
3D2
330
1F
100
AcDbEntity
  8
0
100
AcDbCircle
 10
-425.7064113812
 20
-149.4421412738
 30
0.0
 40
0.5
100
AcDbArc
 50
94.9871394293
 51
270.0
  0
ARC
  5
3D3
330
1F
100
AcDbEntity
  8
0
100
AcDbCircle
 10
-211.9064113812
 20
-149.4421412738
 30
0.0
 40
0.5000000000000011
100
AcDbArc
 50
270.0
 51
85.0128605707
  0
ARC
  5
3D4
330
1F
100
AcDbEntity
  8
0
100
AcDbCircle
 10
-425.7064113812
 20
-153.6421412738
 30
0.0
 40
0.5
100
AcDbArc
 50
94.9871394293
 51
270.0
  0
ARC
  5
3D5
330
1F
100
AcDbEntity
  8
0
100
AcDbCircle
 10
-211.9064113812
 20
-153.6421412738
 30
0.0
 40
0.5000000000000011
100
AcDbArc
 50
270.0
 51
85.0128605707
  0
LINE
  5
3D6
330
1F
100
AcDbEntity
  8
0
100
AcDbLine
 10
-211.8629453135
 20
-148.9440341559
 30
0.0
 11
-219.678144415
 21
-148.2620604178
 31
0.0
  0
LINE
  5
3D7
330
1F
100
AcDbEntity
  8
0
100
AcDbLine
 10
-417.9346783473
 20
-148.2620604178
 30
0.0
 11
-425.7498774489
 21
-148.9440341559
 31
0.0
  0
LINE
  5
3D8
330
1F
100
AcDbEntity
  8
0
100
AcDbLine
 10
-211.8629453135
 20
-153.1440341559
 30
0.0
 11
-219.678144415
 21
-152.4620604178
 31
0.0
  0
LINE
  5
3D9
330
1F
100
AcDbEntity
  8
0
100
AcDbLine
 10
-417.9346783473
 20
-152.4620604178
 30
0.0
 11
-425.7498774489
 21
-153.1440341559
 31
0.0
  0
ARC
  5
3DA
330
1F
100
AcDbEntity
  8
0
100
AcDbCircle
 10
-417.9564113812
 20
-148.0130068589
 30
0.0
 40
0.2499999999999877
100
AcDbArc
 50
274.9871394293
 51
0.0
  0
ARC
  5
3DB
330
1F
100
AcDbEntity
  8
0
100
AcDbCircle
 10
-219.6564113812
 20
-148.0130068589
 30
0.0
 40
0.2500000000000284
100
AcDbArc
 50
180.0
 51
265.0128605707
  0
ARC
  5
3DC
330
1F
100
AcDbEntity
  8
0
100
AcDbCircle
 10
-417.9564113812
 20
-152.2130068589
 30
0.0
 40
0.2499999999999877
100
AcDbArc
 50
274.9871394293
 51
0.0
  0
ARC
  5
3DD
330
1F
100
AcDbEntity
  8
0
100
AcDbCircle
 10
-219.6564113812
 20
-152.2130068589
 30
0.0
 40
0.2500000000000284
100
AcDbArc
 50
180.0
 51
265.0128605707
  0
LINE
  5
3DE
330
1F
100
AcDbEntity
  8
0
100
AcDbLine
 10
-417.7064113812
 20
-147.142141576
 30
0.0
 11
-417.7064113812
 21
-148.0130068589
 31
0.0
  0
LINE
  5
3DF
330
1F
100
AcDbEntity
  8
0
100
AcDbLine
 10
-219.9064113812
 20
-148.0130068589
 30
0.0
 11
-219.9064113812
 21
-147.142141576
 31
0.0
  0
LINE
  5
3E0
330
1F
100
AcDbEntity
  8
0
100
AcDbLine
 10
-417.7064113812
 20
-149.9421412738
 30
0.0
 11
-417.7064113812
 21
-152.2130068589
 31
0.0
  0
LINE
  5
3E1
330
1F
100
AcDbEntity
  8
0
100
AcDbLine
 10
-219.9064113812
 20
-152.2130068589
 30
0.0
 11
-219.9064113812
 21
-149.9421412738
 31
0.0
  0
ARC
  5
3E2
330
1F
100
AcDbEntity
  8
0
100
AcDbCircle
 10
-211.9064113812
 20
-432.6421418782
 30
0.0
 40
0.5000000000000568
100
AcDbArc
 50
274.9871394293
 51
90.0
  0
ARC
  5
3E3
330
1F
100
AcDbEntity
  8
0
100
AcDbCircle
 10
-425.7064113812
 20
-432.6421418782
 30
0.0
 40
0.5
100
AcDbArc
 50
90.0
 51
265.0128605707
  0
ARC
  5
3E4
330
1F
100
AcDbEntity
  8
0
100
AcDbCircle
 10
-211.9064113812
 20
-436.8421418782
 30
0.0
 40
0.5
100
AcDbArc
 50
274.9871394293
 51
90.0
  0
ARC
  5
3E5
330
1F
100
AcDbEntity
  8
0
100
AcDbCircle
 10
-425.7064113812
 20
-436.8421418782
 30
0.0
 40
0.4999999999999704
100
AcDbArc
 50
90.0
 51
265.0128605707
  0
LINE
  5
3E6
330
1F
100
AcDbEntity
  8
0
100
AcDbLine
 10
-425.7498774489
 20
-433.1402489962
 30
0.0
 11
-417.9346783473
 21
-433.8222227342
 31
0.0
  0
LINE
  5
3E7
330
1F
100
AcDbEntity
  8
0
100
AcDbLine
 10
-219.678144415
 20
-433.8222227342
 30
0.0
 11
-211.8629453135
 21
-433.1402489962
 31
0.0
  0
LINE
  5
3E8
330
1F
100
AcDbEntity
  8
0
100
AcDbLine
 10
-425.7498774489
 20
-437.3402489962
 30
0.0
 11
-417.9346783473
 21
-438.0222227342
 31
0.0
  0
LINE
  5
3E9
330
1F
100
AcDbEntity
  8
0
100
AcDbLine
 10
-219.678144415
 20
-438.0222227342
 30
0.0
 11
-211.8629453135
 21
-437.3402489962
 31
0.0
  0
ARC
  5
3EA
330
1F
100
AcDbEntity
  8
0
100
AcDbCircle
 10
-219.6564113812
 20
-438.2712762932
 30
0.0
 40
0.25
100
AcDbArc
 50
94.9871394293
 51
180.0
  0
ARC
  5
3EB
330
1F
100
AcDbEntity
  8
0
100
AcDbCircle
 10
-417.9564113812
 20
-438.2712762932
 30
0.0
 40
0.25
100
AcDbArc
 50
0.0
 51
85.0128605707
  0
ARC
  5
3EC
330
1F
100
AcDbEntity
  8
0
100
AcDbCircle
 10
-219.6564113812
 20
-434.0712762932
 30
0.0
 40
0.25
100
AcDbArc
 50
94.9871394293
 51
180.0
  0
ARC
  5
3ED
330
1F
100
AcDbEntity
  8
0
100
AcDbCircle
 10
-417.9564113812
 20
-434.0712762932
 30
0.0
 40
0.25
100
AcDbArc
 50
0.0
 51
85.0128605707
  0
LINE
  5
3EE
330
1F
100
AcDbEntity
  8
0
100
AcDbLine
 10
-219.9064113812
 20
-439.142141576
 30
0.0
 11
-219.9064113812
 21
-438.2712762932
 31
0.0
  0
LINE
  5
3EF
330
1F
100
AcDbEntity
  8
0
100
AcDbLine
 10
-417.7064113812
 20
-438.2712762932
 30
0.0
 11
-417.7064113812
 21
-439.142141576
 31
0.0
  0
LINE
  5
3F0
330
1F
100
AcDbEntity
  8
0
100
AcDbLine
 10
-219.9064113812
 20
-436.3421418782
 30
0.0
 11
-219.9064113812
 21
-434.0712762932
 31
0.0
  0
LINE
  5
3F1
330
1F
100
AcDbEntity
  8
0
100
AcDbLine
 10
-417.7064113812
 20
-434.0712762932
 30
0.0
 11
-417.7064113812
 21
-436.3421418782
 31
0.0
  0
LINE
  5
3F2
330
1F
100
AcDbEntity
  8
0
100
AcDbLine
 10
-218.8064113812
 20
-443.842141576
 30
0.0
 11
-218.8064113812
 21
-439.142141576
 31
0.0
  0
LINE
  5
3F3
330
1F
100
AcDbEntity
  8
0
100
AcDbLine
 10
-418.8064113812
 20
-439.142141576
 30
0.0
 11
-418.8064113812
 21
-443.842141576
 31
0.0
  0
ARC
  5
3F4
330
1F
100
AcDbEntity
  8
0
100
AcDbCircle
 10
-220.1064113812
 20
-443.8421431474
 30
0.0
 40
1.300000000004684
100
AcDbArc
 50
270.0
 51
0.0000692571
  0
ARC
  5
3F5
330
1F
100
AcDbEntity
  8
0
100
AcDbCircle
 10
-417.5064113812
 20
-443.8421431474
 30
0.0
 40
1.300000000004673
100
AcDbArc
 50
179.9999307429
 51
270.0
  0
LINE
  5
3F6
330
1F
100
AcDbEntity
  8
0
100
AcDbLine
 10
-417.5064113812
 20
-445.1421431474
 30
0.0
 11
-220.1064113812
 21
-445.1421431474
 31
0.0
  0
LINE
  5
3F7
330
1F
100
AcDbEntity
  8
0
100
AcDbLine
 10
-218.8564627816
 20
-420.8211102364
 30
0.0
 11
-218.8564627816
 21
-412.342141576
 31
0.0
  0
LINE
  5
3F8
330
1F
100
AcDbEntity
  8
0
100
AcDbLine
 10
-418.7563599807
 20
-412.342141576
 30
0.0
 11
-418.7563599807
 21
-420.8211102364
 31
0.0
  0
LINE
  5
3F9
330
1F
100
AcDbEntity
  8
0
100
AcDbLine
 10
-418.7563599807
 20
-420.8211102364
 30
0.0
 11
-417.012794875
 21
-422.5646753422
 31
0.0
  0
LINE
  5
3FA
330
1F
100
AcDbEntity
  8
0
100
AcDbLine
 10
-220.6000278874
 20
-422.5646753422
 30
0.0
 11
-218.8564627816
 21
-420.8211102364
 31
0.0
  0
LINE
  5
3FB
330
1F
100
AcDbEntity
  8
0
100
AcDbLine
 10
-417.012794875
 20
-422.5646753422
 30
0.0
 11
-415.0056565675
 21
-429.5870091415
 31
0.0
  0
LINE
  5
3FC
330
1F
100
AcDbEntity
  8
0
100
AcDbLine
 10
-222.6071661948
 20
-429.5870091415
 30
0.0
 11
-220.6000278874
 21
-422.5646753422
 31
0.0
  0
LINE
  5
3FD
330
1F
100
AcDbEntity
  8
0
100
AcDbLine
 10
-222.6071661948
 20
-432.1421418782
 30
0.0
 11
-222.6071661948
 21
-429.5870091415
 31
0.0
  0
LINE
  5
3FE
330
1F
100
AcDbEntity
  8
0
100
AcDbLine
 10
-415.0056565675
 20
-429.5870091415
 30
0.0
 11
-415.0056565675
 21
-432.1421418782
 31
0.0
  0
ARC
  5
3FF
330
1F
100
AcDbEntity
  8
0
100
AcDbCircle
 10
-417.5064113812
 20
-142.4421400046
 30
0.0
 40
1.300000000004656
100
AcDbArc
 50
90.0
 51
180.0000692571
  0
ARC
  5
400
330
1F
100
AcDbEntity
  8
0
100
AcDbCircle
 10
-220.1064113812
 20
-142.4421400046
 30
0.0
 40
1.300000000004656
100
AcDbArc
 50
359.9999307429
 51
90.0
  0
LINE
  5
401
330
1F
100
AcDbEntity
  8
0
100
AcDbLine
 10
-220.1064113812
 20
-141.1421400046
 30
0.0
 11
-417.5064113812
 21
-141.1421400046
 31
0.0
  0
LINE
  5
402
330
1F
100
AcDbEntity
  8
0
100
AcDbLine
 10
-418.8064113812
 20
-142.442141576
 30
0.0
 11
-418.8064113812
 21
-147.142141576
 31
0.0
  0
LINE
  5
403
330
1F
100
AcDbEntity
  8
0
100
AcDbLine
 10
-218.8064113812
 20
-147.142141576
 30
0.0
 11
-218.8064113812
 21
-142.442141576
 31
0.0
  0
LINE
  5
404
330
1F
100
AcDbEntity
  8
0
100
AcDbLine
 10
-418.7563599807
 20
-165.4631729157
 30
0.0
 11
-418.7563599807
 21
-173.942141576
 31
0.0
  0
LINE
  5
405
330
1F
100
AcDbEntity
  8
0
100
AcDbLine
 10
-218.8564627816
 20
-173.942141576
 30
0.0
 11
-218.8564627816
 21
-165.4631729157
 31
0.0
  0
LINE
  5
406
330
1F
100
AcDbEntity
  8
0
100
AcDbLine
 10
-218.8564627816
 20
-165.4631729157
 30
0.0
 11
-220.6000278874
 21
-163.7196078099
 31
0.0
  0
LINE
  5
407
330
1F
100
AcDbEntity
  8
0
100
AcDbLine
 10
-417.012794875
 20
-163.7196078099
 30
0.0
 11
-418.7563599807
 21
-165.4631729157
 31
0.0
  0
LINE
  5
408
330
1F
100
AcDbEntity
  8
0
100
AcDbLine
 10
-220.6000278874
 20
-163.7196078099
 30
0.0
 11
-222.6071661948
 21
-156.6972740106
 31
0.0
  0
LINE
  5
409
330
1F
100
AcDbEntity
  8
0
100
AcDbLine
 10
-415.0056565675
 20
-156.6972740106
 30
0.0
 11
-417.012794875
 21
-163.7196078099
 31
0.0
  0
LINE
  5
40A
330
1F
100
AcDbEntity
  8
0
100
AcDbLine
 10
-415.0056565675
 20
-154.1421412738
 30
0.0
 11
-415.0056565675
 21
-156.6972740106
 31
0.0
  0
LINE
  5
40B
330
1F
100
AcDbEntity
  8
0
100
AcDbLine
 10
-222.6071661948
 20
-156.6972740106
 30
0.0
 11
-222.6071661948
 21
-154.1421412738
 31
0.0
  0
LINE
  5
40C
330
1F
100
AcDbEntity
  8
0
100
AcDbLine
 10
-419.3496827493
 20
-265.2071415721
 30
0.0
 11
-434.9381400175
 21
-265.2071415721
 31
0.0
  0
LINE
  5
40D
330
1F
100
AcDbEntity
  8
0
100
AcDbLine
 10
-419.3496827493
 20
-292.2071415721
 30
0.0
 11
-411.5554541153
 21
-278.7071415721
 31
0.0
  0
LINE
  5
40E
330
1F
100
AcDbEntity
  8
0
100
AcDbLine
 10
-434.9381400175
 20
-292.2071415721
 30
0.0
 11
-419.3496827493
 21
-292.2071415721
 31
0.0
  0
LINE
  5
40F
330
1F
100
AcDbEntity
  8
0
100
AcDbLine
 10
-442.7323686515
 20
-278.7071415721
 30
0.0
 11
-434.9381400175
 21
-292.2071415721
 31
0.0
  0
LINE
  5
410
330
1F
100
AcDbEntity
  8
0
100
AcDbLine
 10
-434.9381400175
 20
-265.2071415721
 30
0.0
 11
-442.7323686515
 21
-278.7071415721
 31
0.0
  0
LINE
  5
411
330
1F
100
AcDbEntity
  8
0
100
AcDbLine
 10
-411.5554541153
 20
-278.7071415721
 30
0.0
 11
-419.3496827493
 21
-265.2071415721
 31
0.0
  0
CIRCLE
  5
412
330
1F
100
AcDbEntity
  8
0
100
AcDbCircle
 10
-427.1439113834
 20
-278.7071415721
 30
0.0
 40
12.00000000000002
  0
CIRCLE
  5
413
330
1F
100
AcDbEntity
  8
0
100
AcDbCircle
 10
-427.1439113834
 20
-278.7071415721
 30
0.0
 40
10.90000000000001
  0
LINE
  5
414
330
1F
100
AcDbEntity
  8
0
100
AcDbLine
 10
-218.2931400152
 20
-321.077141576
 30
0.0
 11
-202.7046827471
 21
-321.077141576
 31
0.0
  0
LINE
  5
415
330
1F
100
AcDbEntity
  8
0
100
AcDbLine
 10
-226.0873686493
 20
-307.577141576
 30
0.0
 11
-218.2931400152
 21
-321.077141576
 31
0.0
  0
LINE
  5
416
330
1F
100
AcDbEntity
  8
0
100
AcDbLine
 10
-202.7046827471
 20
-294.077141576
 30
0.0
 11
-218.2931400152
 21
-294.077141576
 31
0.0
  0
LINE
  5
417
330
1F
100
AcDbEntity
  8
0
100
AcDbLine
 10
-194.910454113
 20
-307.577141576
 30
0.0
 11
-202.7046827471
 21
-294.077141576
 31
0.0
  0
LINE
  5
418
330
1F
100
AcDbEntity
  8
0
100
AcDbLine
 10
-202.7046827471
 20
-321.077141576
 30
0.0
 11
-194.910454113
 21
-307.577141576
 31
0.0
  0
LINE
  5
419
330
1F
100
AcDbEntity
  8
0
100
AcDbLine
 10
-218.2931400152
 20
-294.077141576
 30
0.0
 11
-226.0873686493
 21
-307.577141576
 31
0.0
  0
CIRCLE
  5
41A
330
1F
100
AcDbEntity
  8
0
100
AcDbCircle
 10
-210.4989113812
 20
-307.577141576
 30
0.0
 40
12.00000000000001
  0
CIRCLE
  5
41B
330
1F
100
AcDbEntity
  8
0
100
AcDbCircle
 10
-210.4989113812
 20
-307.577141576
 30
0.0
 40
10.9
  0
LINE
  5
41C
330
1F
100
AcDbEntity
  8
0
100
AcDbLine
 10
-175.9009232657
 20
-225.4904182574
 30
0.0
 11
-175.8774227163
 21
-225.9898656763
 31
0.0
  0
ARC
  5
41D
330
1F
100
AcDbEntity
  8
0
100
AcDbCircle
 10
-172.6165442077
 20
-224.3347716553
 30
0.0
 40
0.9999999999999926
100
AcDbArc
 50
182.6939570941
 51
272.6939570941
  0
LINE
  5
41E
330
1F
100
AcDbEntity
  8
0
100
AcDbLine
 10
-171.7354000461
 20
-225.2944174758
 30
0.0
 11
-172.5695431088
 21
-225.333666493
 31
0.0
  0
LINE
  5
41F
330
1F
100
AcDbEntity
  8
0
100
AcDbLine
 10
-173.6154390454
 20
-224.3817727542
 30
0.0
 11
-173.6546880625
 21
-223.5476296915
 31
0.0
  0
LINE
  5
420
330
1F
100
AcDbEntity
  8
0
100
AcDbLine
 10
-173.6546880625
 20
-223.5476296915
 30
0.0
 11
-174.1541354814
 21
-223.5711302409
 31
0.0
  0
LINE
  5
421
330
1F
100
AcDbEntity
  8
0
100
AcDbLine
 10
-171.7118994966
 20
-225.7938648947
 30
0.0
 11
-171.7354000461
 21
-225.2944174758
 31
0.0
  0
LINE
  5
422
330
1F
100
AcDbEntity
  8
0
100
AcDbLine
 10
-174.1541354814
 20
-223.5711302409
 30
0.0
 11
-174.1148864642
 21
-224.4052733037
 31
0.0
  0
ARC
  5
423
330
1F
100
AcDbEntity
  8
0
100
AcDbCircle
 10
-175.1137813019
 20
-224.4522744026
 30
0.0
 40
1.00000000000002
100
AcDbArc
 50
272.6939570941
 51
2.6939570941
  0
LINE
  5
424
330
1F
100
AcDbEntity
  8
0
100
AcDbLine
 10
-175.066780203
 20
-225.4511692403
 30
0.0
 11
-175.9009232657
 21
-225.4904182574
 31
0.0
  0
LINE
  5
425
330
1F
100
AcDbEntity
  8
0
100
AcDbLine
 10
-173.4586872809
 20
-227.7131529111
 30
0.0
 11
-173.4979362981
 21
-226.8790098484
 31
0.0
  0
ARC
  5
426
330
1F
100
AcDbEntity
  8
0
100
AcDbCircle
 10
-172.4990414604
 20
-226.8320087495
 30
0.0
 40
1.000000000000021
100
AcDbArc
 50
92.6939570941
 51
182.6939570941
  0
LINE
  5
427
330
1F
100
AcDbEntity
  8
0
100
AcDbLine
 10
-172.5460425594
 20
-225.8331139118
 30
0.0
 11
-171.7118994966
 21
-225.7938648947
 31
0.0
  0
CIRCLE
  5
428
330
1F
100
AcDbEntity
  8
0
100
AcDbCircle
 10
-173.8064113812
 20
-225.642141576
 30
0.0
 40
4.099999999999967
  0
LINE
  5
429
330
1F
100
AcDbEntity
  8
0
100
AcDbLine
 10
-173.9581346998
 20
-227.7366534606
 30
0.0
 11
-173.4586872809
 21
-227.7131529111
 31
0.0
  0
LINE
  5
42A
330
1F
100
AcDbEntity
  8
0
100
AcDbLine
 10
-175.8774227163
 20
-225.9898656763
 30
0.0
 11
-175.0432796535
 21
-225.9506166591
 31
0.0
  0
ARC
  5
42B
330
1F
100
AcDbEntity
  8
0
100
AcDbCircle
 10
-174.9962785546
 20
-226.9495114968
 30
0.0
 40
1.000000000000021
100
AcDbArc
 50
2.6939570941
 51
92.6939570941
  0
LINE
  5
42C
330
1F
100
AcDbEntity
  8
0
100
AcDbLine
 10
-173.9973837169
 20
-226.9025103978
 30
0.0
 11
-173.9581346998
 21
-227.7366534606
 31
0.0
  0
CIRCLE
  5
42D
330
1F
100
AcDbEntity
  8
0
100
AcDbCircle
 10
-398.8064113812
 20
-405.642141576
 30
0.0
 40
4.100000000000003
  0
LINE
  5
42E
330
1F
100
AcDbEntity
  8
0
100
AcDbLine
 10
-398.458687281
 20
-407.7131529111
 30
0.0
 11
-398.4979362981
 21
-406.8790098484
 31
0.0
  0
ARC
  5
42F
330
1F
100
AcDbEntity
  8
0
100
AcDbCircle
 10
-397.4990414604
 20
-406.8320087495
 30
0.0
 40
1.000000000000052
100
AcDbArc
 50
92.6939570941
 51
182.6939570941
  0
LINE
  5
430
330
1F
100
AcDbEntity
  8
0
100
AcDbLine
 10
-397.5460425594
 20
-405.8331139118
 30
0.0
 11
-396.7118994966
 21
-405.7938648946
 31
0.0
  0
LINE
  5
431
330
1F
100
AcDbEntity
  8
0
100
AcDbLine
 10
-398.6546880626
 20
-403.5476296915
 30
0.0
 11
-399.1541354814
 21
-403.5711302409
 31
0.0
  0
LINE
  5
432
330
1F
100
AcDbEntity
  8
0
100
AcDbLine
 10
-396.7118994966
 20
-405.7938648946
 30
0.0
 11
-396.7354000461
 21
-405.2944174758
 31
0.0
  0
LINE
  5
433
330
1F
100
AcDbEntity
  8
0
100
AcDbLine
 10
-396.7354000461
 20
-405.2944174758
 30
0.0
 11
-397.5695431088
 21
-405.333666493
 31
0.0
  0
LINE
  5
434
330
1F
100
AcDbEntity
  8
0
100
AcDbLine
 10
-398.6154390454
 20
-404.3817727542
 30
0.0
 11
-398.6546880626
 21
-403.5476296915
 31
0.0
  0
ARC
  5
435
330
1F
100
AcDbEntity
  8
0
100
AcDbCircle
 10
-397.6165442078
 20
-404.3347716553
 30
0.0
 40
0.9999999999999899
100
AcDbArc
 50
182.6939570941
 51
272.6939570941
  0
LINE
  5
436
330
1F
100
AcDbEntity
  8
0
100
AcDbLine
 10
-398.9973837169
 20
-406.9025103978
 30
0.0
 11
-398.9581346998
 21
-407.7366534606
 31
0.0
  0
ARC
  5
437
330
1F
100
AcDbEntity
  8
0
100
AcDbCircle
 10
-399.9962785546
 20
-406.9495114968
 30
0.0
 40
1.000000000000052
100
AcDbArc
 50
2.6939570941
 51
92.6939570941
  0
LINE
  5
438
330
1F
100
AcDbEntity
  8
0
100
AcDbLine
 10
-400.8774227163
 20
-405.9898656763
 30
0.0
 11
-400.0432796535
 21
-405.9506166591
 31
0.0
  0
LINE
  5
439
330
1F
100
AcDbEntity
  8
0
100
AcDbLine
 10
-398.9581346998
 20
-407.7366534606
 30
0.0
 11
-398.458687281
 21
-407.7131529111
 31
0.0
  0
LINE
  5
43A
330
1F
100
AcDbEntity
  8
0
100
AcDbLine
 10
-399.1541354814
 20
-403.5711302409
 30
0.0
 11
-399.1148864642
 21
-404.4052733037
 31
0.0
  0
ARC
  5
43B
330
1F
100
AcDbEntity
  8
0
100
AcDbCircle
 10
-400.1137813019
 20
-404.4522744026
 30
0.0
 40
0.9999999999999926
100
AcDbArc
 50
272.6939570941
 51
2.6939570941
  0
LINE
  5
43C
330
1F
100
AcDbEntity
  8
0
100
AcDbLine
 10
-400.066780203
 20
-405.4511692403
 30
0.0
 11
-400.9009232657
 21
-405.4904182574
 31
0.0
  0
LINE
  5
43D
330
1F
100
AcDbEntity
  8
0
100
AcDbLine
 10
-400.9009232657
 20
-405.4904182574
 30
0.0
 11
-400.8774227163
 21
-405.9898656763
 31
0.0
  0
CIRCLE
  5
43E
330
1F
100
AcDbEntity
  8
0
100
AcDbCircle
 10
-463.8064113812
 20
-360.642141576
 30
0.0
 40
4.100000000000001
  0
LINE
  5
43F
330
1F
100
AcDbEntity
  8
0
100
AcDbLine
 10
-465.9009232657
 20
-360.4904182574
 30
0.0
 11
-465.8774227163
 21
-360.9898656763
 31
0.0
  0
LINE
  5
440
330
1F
100
AcDbEntity
  8
0
100
AcDbLine
 10
-461.7354000461
 20
-360.2944174758
 30
0.0
 11
-462.5695431088
 21
-360.333666493
 31
0.0
  0
ARC
  5
441
330
1F
100
AcDbEntity
  8
0
100
AcDbCircle
 10
-462.6165442078
 20
-359.3347716553
 30
0.0
 40
0.9999999999999926
100
AcDbArc
 50
182.6939570941
 51
272.6939570941
  0
LINE
  5
442
330
1F
100
AcDbEntity
  8
0
100
AcDbLine
 10
-463.6154390454
 20
-359.3817727542
 30
0.0
 11
-463.6546880626
 21
-358.5476296915
 31
0.0
  0
LINE
  5
443
330
1F
100
AcDbEntity
  8
0
100
AcDbLine
 10
-463.6546880626
 20
-358.5476296915
 30
0.0
 11
-464.1541354814
 21
-358.5711302409
 31
0.0
  0
LINE
  5
444
330
1F
100
AcDbEntity
  8
0
100
AcDbLine
 10
-463.458687281
 20
-362.7131529111
 30
0.0
 11
-463.4979362981
 21
-361.8790098484
 31
0.0
  0
LINE
  5
445
330
1F
100
AcDbEntity
  8
0
100
AcDbLine
 10
-462.5460425594
 20
-360.8331139118
 30
0.0
 11
-461.7118994966
 21
-360.7938648946
 31
0.0
  0
ARC
  5
446
330
1F
100
AcDbEntity
  8
0
100
AcDbCircle
 10
-462.4990414604
 20
-361.8320087495
 30
0.0
 40
1.000000000000049
100
AcDbArc
 50
92.6939570941
 51
182.6939570941
  0
LINE
  5
447
330
1F
100
AcDbEntity
  8
0
100
AcDbLine
 10
-465.8774227163
 20
-360.9898656763
 30
0.0
 11
-465.0432796535
 21
-360.9506166591
 31
0.0
  0
ARC
  5
448
330
1F
100
AcDbEntity
  8
0
100
AcDbCircle
 10
-464.9962785546
 20
-361.9495114968
 30
0.0
 40
1.000000000000049
100
AcDbArc
 50
2.6939570941
 51
92.6939570941
  0
LINE
  5
449
330
1F
100
AcDbEntity
  8
0
100
AcDbLine
 10
-463.9973837169
 20
-361.9025103978
 30
0.0
 11
-463.9581346998
 21
-362.7366534606
 31
0.0
  0
LINE
  5
44A
330
1F
100
AcDbEntity
  8
0
100
AcDbLine
 10
-464.1541354814
 20
-358.5711302409
 30
0.0
 11
-464.1148864643
 21
-359.4052733037
 31
0.0
  0
ARC
  5
44B
330
1F
100
AcDbEntity
  8
0
100
AcDbCircle
 10
-465.1137813019
 20
-359.4522744026
 30
0.0
 40
0.9999999999999926
100
AcDbArc
 50
272.6939570941
 51
2.6939570941
  0
LINE
  5
44C
330
1F
100
AcDbEntity
  8
0
100
AcDbLine
 10
-465.066780203
 20
-360.4511692403
 30
0.0
 11
-465.9009232657
 21
-360.4904182574
 31
0.0
  0
LINE
  5
44D
330
1F
100
AcDbEntity
  8
0
100
AcDbLine
 10
-461.7118994966
 20
-360.7938648946
 30
0.0
 11
-461.7354000461
 21
-360.2944174758
 31
0.0
  0
LINE
  5
44E
330
1F
100
AcDbEntity
  8
0
100
AcDbLine
 10
-463.9581346998
 20
-362.7366534606
 30
0.0
 11
-463.458687281
 21
-362.7131529111
 31
0.0
  0
CIRCLE
  5
44F
330
1F
100
AcDbEntity
  8
0
100
AcDbCircle
 10
-238.8064113812
 20
-180.642141576
 30
0.0
 40
4.100000000000024
  0
LINE
  5
450
330
1F
100
AcDbEntity
  8
0
100
AcDbLine
 10
-240.9009232657
 20
-180.4904182574
 30
0.0
 11
-240.8774227163
 21
-180.9898656763
 31
0.0
  0
ARC
  5
451
330
1F
100
AcDbEntity
  8
0
100
AcDbCircle
 10
-237.6165442077
 20
-179.3347716553
 30
0.0
 40
1.000000000000021
100
AcDbArc
 50
182.6939570941
 51
272.6939570941
  0
LINE
  5
452
330
1F
100
AcDbEntity
  8
0
100
AcDbLine
 10
-238.6154390454
 20
-179.3817727542
 30
0.0
 11
-238.6546880625
 21
-178.5476296915
 31
0.0
  0
LINE
  5
453
330
1F
100
AcDbEntity
  8
0
100
AcDbLine
 10
-236.7354000461
 20
-180.2944174758
 30
0.0
 11
-237.5695431088
 21
-180.333666493
 31
0.0
  0
LINE
  5
454
330
1F
100
AcDbEntity
  8
0
100
AcDbLine
 10
-236.7118994966
 20
-180.7938648947
 30
0.0
 11
-236.7354000461
 21
-180.2944174758
 31
0.0
  0
ARC
  5
455
330
1F
100
AcDbEntity
  8
0
100
AcDbCircle
 10
-237.4990414604
 20
-181.8320087495
 30
0.0
 40
0.9999999999999926
100
AcDbArc
 50
92.6939570941
 51
182.6939570941
  0
LINE
  5
456
330
1F
100
AcDbEntity
  8
0
100
AcDbLine
 10
-237.5460425594
 20
-180.8331139118
 30
0.0
 11
-236.7118994966
 21
-180.7938648947
 31
0.0
  0
LINE
  5
457
330
1F
100
AcDbEntity
  8
0
100
AcDbLine
 10
-238.4586872809
 20
-182.7131529111
 30
0.0
 11
-238.4979362981
 21
-181.8790098484
 31
0.0
  0
LINE
  5
458
330
1F
100
AcDbEntity
  8
0
100
AcDbLine
 10
-240.8774227163
 20
-180.9898656763
 30
0.0
 11
-240.0432796535
 21
-180.9506166591
 31
0.0
  0
ARC
  5
459
330
1F
100
AcDbEntity
  8
0
100
AcDbCircle
 10
-239.9962785546
 20
-181.9495114968
 30
0.0
 40
0.9999999999999926
100
AcDbArc
 50
2.6939570941
 51
92.6939570941
  0
LINE
  5
45A
330
1F
100
AcDbEntity
  8
0
100
AcDbLine
 10
-238.9973837169
 20
-181.9025103979
 30
0.0
 11
-238.9581346998
 21
-182.7366534606
 31
0.0
  0
LINE
  5
45B
330
1F
100
AcDbEntity
  8
0
100
AcDbLine
 10
-238.6546880625
 20
-178.5476296915
 30
0.0
 11
-239.1541354814
 21
-178.5711302409
 31
0.0
  0
LINE
  5
45C
330
1F
100
AcDbEntity
  8
0
100
AcDbLine
 10
-238.9581346998
 20
-182.7366534606
 30
0.0
 11
-238.4586872809
 21
-182.7131529111
 31
0.0
  0
LINE
  5
45D
330
1F
100
AcDbEntity
  8
0
100
AcDbLine
 10
-240.066780203
 20
-180.4511692403
 30
0.0
 11
-240.9009232657
 21
-180.4904182574
 31
0.0
  0
LINE
  5
45E
330
1F
100
AcDbEntity
  8
0
100
AcDbLine
 10
-239.1541354814
 20
-178.5711302409
 30
0.0
 11
-239.1148864642
 21
-179.4052733037
 31
0.0
  0
ARC
  5
45F
330
1F
100
AcDbEntity
  8
0
100
AcDbCircle
 10
-240.1137813019
 20
-179.4522744026
 30
0.0
 40
1.000000000000021
100
AcDbArc
 50
272.6939570941
 51
2.6939570941
  0
CIRCLE
  5
460
330
1F
100
AcDbEntity
  8
0
100
AcDbCircle
 10
-398.8064113812
 20
-180.642141576
 30
0.0
 40
4.100000000000029
  0
LINE
  5
461
330
1F
100
AcDbEntity
  8
0
100
AcDbLine
 10
-398.458687281
 20
-178.5711302409
 30
0.0
 11
-398.9581346998
 21
-178.5476296915
 31
0.0
  0
LINE
  5
462
330
1F
100
AcDbEntity
  8
0
100
AcDbLine
 10
-398.9581346998
 20
-178.5476296915
 30
0.0
 11
-398.9973837169
 21
-179.3817727542
 31
0.0
  0
ARC
  5
463
330
1F
100
AcDbEntity
  8
0
100
AcDbCircle
 10
-399.9962785546
 20
-179.3347716553
 30
0.0
 40
1.000000000000021
100
AcDbArc
 50
267.3060429059
 51
357.3060429059
  0
LINE
  5
464
330
1F
100
AcDbEntity
  8
0
100
AcDbLine
 10
-400.0432796535
 20
-180.333666493
 30
0.0
 11
-400.8774227163
 21
-180.2944174758
 31
0.0
  0
LINE
  5
465
330
1F
100
AcDbEntity
  8
0
100
AcDbLine
 10
-396.7118994966
 20
-180.4904182574
 30
0.0
 11
-397.5460425594
 21
-180.4511692403
 31
0.0
  0
ARC
  5
466
330
1F
100
AcDbEntity
  8
0
100
AcDbCircle
 10
-397.4990414604
 20
-179.4522744026
 30
0.0
 40
1.000000000000051
100
AcDbArc
 50
177.3060429059
 51
267.3060429059
  0
LINE
  5
467
330
1F
100
AcDbEntity
  8
0
100
AcDbLine
 10
-398.4979362981
 20
-179.4052733037
 30
0.0
 11
-398.458687281
 21
-178.5711302409
 31
0.0
  0
LINE
  5
468
330
1F
100
AcDbEntity
  8
0
100
AcDbLine
 10
-399.1541354814
 20
-182.7131529111
 30
0.0
 11
-398.6546880626
 21
-182.7366534606
 31
0.0
  0
LINE
  5
469
330
1F
100
AcDbEntity
  8
0
100
AcDbLine
 10
-400.8774227163
 20
-180.2944174758
 30
0.0
 11
-400.9009232657
 21
-180.7938648947
 31
0.0
  0
LINE
  5
46A
330
1F
100
AcDbEntity
  8
0
100
AcDbLine
 10
-396.7354000461
 20
-180.9898656763
 30
0.0
 11
-396.7118994966
 21
-180.4904182574
 31
0.0
  0
ARC
  5
46B
330
1F
100
AcDbEntity
  8
0
100
AcDbCircle
 10
-400.1137813019
 20
-181.8320087495
 30
0.0
 40
1.000000000000049
100
AcDbArc
 50
357.3060429059
 51
87.3060429059
  0
LINE
  5
46C
330
1F
100
AcDbEntity
  8
0
100
AcDbLine
 10
-399.1148864642
 20
-181.8790098484
 30
0.0
 11
-399.1541354814
 21
-182.7131529111
 31
0.0
  0
LINE
  5
46D
330
1F
100
AcDbEntity
  8
0
100
AcDbLine
 10
-400.9009232657
 20
-180.7938648947
 30
0.0
 11
-400.066780203
 21
-180.8331139118
 31
0.0
  0
ARC
  5
46E
330
1F
100
AcDbEntity
  8
0
100
AcDbCircle
 10
-397.6165442078
 20
-181.9495114968
 30
0.0
 40
1.000000000000049
100
AcDbArc
 50
87.3060429059
 51
177.3060429059
  0
LINE
  5
46F
330
1F
100
AcDbEntity
  8
0
100
AcDbLine
 10
-397.5695431088
 20
-180.9506166591
 30
0.0
 11
-396.7354000461
 21
-180.9898656763
 31
0.0
  0
LINE
  5
470
330
1F
100
AcDbEntity
  8
0
100
AcDbLine
 10
-398.6546880626
 20
-182.7366534606
 30
0.0
 11
-398.6154390454
 21
-181.9025103978
 31
0.0
  0
LINE
  5
471
330
1F
100
AcDbEntity
  8
0
100
AcDbLine
 10
-461.7118994966
 20
-225.4904182574
 30
0.0
 11
-462.5460425594
 21
-225.4511692403
 31
0.0
  0
ARC
  5
472
330
1F
100
AcDbEntity
  8
0
100
AcDbCircle
 10
-462.4990414604
 20
-224.4522744026
 30
0.0
 40
0.9999999999999939
100
AcDbArc
 50
177.3060429059
 51
267.3060429059
  0
LINE
  5
473
330
1F
100
AcDbEntity
  8
0
100
AcDbLine
 10
-463.4979362981
 20
-224.4052733037
 30
0.0
 11
-463.458687281
 21
-223.5711302409
 31
0.0
  0
LINE
  5
474
330
1F
100
AcDbEntity
  8
0
100
AcDbLine
 10
-465.9009232657
 20
-225.7938648946
 30
0.0
 11
-465.066780203
 21
-225.8331139118
 31
0.0
  0
ARC
  5
475
330
1F
100
AcDbEntity
  8
0
100
AcDbCircle
 10
-465.1137813019
 20
-226.8320087495
 30
0.0
 40
0.9999999999999926
100
AcDbArc
 50
357.3060429059
 51
87.3060429059
  0
LINE
  5
476
330
1F
100
AcDbEntity
  8
0
100
AcDbLine
 10
-464.1148864643
 20
-226.8790098484
 30
0.0
 11
-464.1541354814
 21
-227.7131529111
 31
0.0
  0
LINE
  5
477
330
1F
100
AcDbEntity
  8
0
100
AcDbLine
 10
-465.8774227163
 20
-225.2944174758
 30
0.0
 11
-465.9009232657
 21
-225.7938648946
 31
0.0
  0
LINE
  5
478
330
1F
100
AcDbEntity
  8
0
100
AcDbLine
 10
-461.7354000461
 20
-225.9898656763
 30
0.0
 11
-461.7118994966
 21
-225.4904182574
 31
0.0
  0
LINE
  5
479
330
1F
100
AcDbEntity
  8
0
100
AcDbLine
 10
-463.458687281
 20
-223.5711302409
 30
0.0
 11
-463.9581346998
 21
-223.5476296915
 31
0.0
  0
CIRCLE
  5
47A
330
1F
100
AcDbEntity
  8
0
100
AcDbCircle
 10
-463.8064113812
 20
-225.642141576
 30
0.0
 40
4.100000000000001
  0
LINE
  5
47B
330
1F
100
AcDbEntity
  8
0
100
AcDbLine
 10
-463.9581346998
 20
-223.5476296915
 30
0.0
 11
-463.9973837169
 21
-224.3817727542
 31
0.0
  0
ARC
  5
47C
330
1F
100
AcDbEntity
  8
0
100
AcDbCircle
 10
-464.9962785546
 20
-224.3347716553
 30
0.0
 40
1.000000000000021
100
AcDbArc
 50
267.3060429059
 51
357.3060429059
  0
LINE
  5
47D
330
1F
100
AcDbEntity
  8
0
100
AcDbLine
 10
-465.0432796535
 20
-225.333666493
 30
0.0
 11
-465.8774227163
 21
-225.2944174758
 31
0.0
  0
LINE
  5
47E
330
1F
100
AcDbEntity
  8
0
100
AcDbLine
 10
-463.6546880626
 20
-227.7366534606
 30
0.0
 11
-463.6154390454
 21
-226.9025103978
 31
0.0
  0
ARC
  5
47F
330
1F
100
AcDbEntity
  8
0
100
AcDbCircle
 10
-462.6165442078
 20
-226.9495114968
 30
0.0
 40
1.000000000000049
100
AcDbArc
 50
87.3060429059
 51
177.3060429059
  0
LINE
  5
480
330
1F
100
AcDbEntity
  8
0
100
AcDbLine
 10
-462.5695431088
 20
-225.9506166591
 30
0.0
 11
-461.7354000461
 21
-225.9898656763
 31
0.0
  0
LINE
  5
481
330
1F
100
AcDbEntity
  8
0
100
AcDbLine
 10
-464.1541354814
 20
-227.7131529111
 30
0.0
 11
-463.6546880626
 21
-227.7366534606
 31
0.0
  0
CIRCLE
  5
482
330
1F
100
AcDbEntity
  8
0
100
AcDbCircle
 10
-173.8064113812
 20
-360.642141576
 30
0.0
 40
4.099999999999995
  0
LINE
  5
483
330
1F
100
AcDbEntity
  8
0
100
AcDbLine
 10
-173.6546880625
 20
-362.7366534606
 30
0.0
 11
-173.6154390454
 21
-361.9025103978
 31
0.0
  0
ARC
  5
484
330
1F
100
AcDbEntity
  8
0
100
AcDbCircle
 10
-172.6165442077
 20
-361.9495114968
 30
0.0
 40
1.000000000000049
100
AcDbArc
 50
87.3060429059
 51
177.3060429059
  0
LINE
  5
485
330
1F
100
AcDbEntity
  8
0
100
AcDbLine
 10
-172.5695431088
 20
-360.9506166591
 30
0.0
 11
-171.7354000461
 21
-360.9898656763
 31
0.0
  0
LINE
  5
486
330
1F
100
AcDbEntity
  8
0
100
AcDbLine
 10
-175.8774227163
 20
-360.2944174758
 30
0.0
 11
-175.9009232657
 21
-360.7938648946
 31
0.0
  0
LINE
  5
487
330
1F
100
AcDbEntity
  8
0
100
AcDbLine
 10
-173.4586872809
 20
-358.5711302409
 30
0.0
 11
-173.9581346998
 21
-358.5476296915
 31
0.0
  0
ARC
  5
488
330
1F
100
AcDbEntity
  8
0
100
AcDbCircle
 10
-174.9962785546
 20
-359.3347716553
 30
0.0
 40
1.000000000000018
100
AcDbArc
 50
267.3060429059
 51
357.3060429059
  0
LINE
  5
489
330
1F
100
AcDbEntity
  8
0
100
AcDbLine
 10
-173.9581346998
 20
-358.5476296915
 30
0.0
 11
-173.9973837169
 21
-359.3817727542
 31
0.0
  0
LINE
  5
48A
330
1F
100
AcDbEntity
  8
0
100
AcDbLine
 10
-175.0432796535
 20
-360.333666493
 30
0.0
 11
-175.8774227163
 21
-360.2944174758
 31
0.0
  0
LINE
  5
48B
330
1F
100
AcDbEntity
  8
0
100
AcDbLine
 10
-173.4979362981
 20
-359.4052733037
 30
0.0
 11
-173.4586872809
 21
-358.5711302409
 31
0.0
  0
ARC
  5
48C
330
1F
100
AcDbEntity
  8
0
100
AcDbCircle
 10
-172.4990414604
 20
-359.4522744026
 30
0.0
 40
0.9999999999999926
100
AcDbArc
 50
177.3060429059
 51
267.3060429059
  0
LINE
  5
48D
330
1F
100
AcDbEntity
  8
0
100
AcDbLine
 10
-171.7118994966
 20
-360.4904182574
 30
0.0
 11
-172.5460425593
 21
-360.4511692403
 31
0.0
  0
LINE
  5
48E
330
1F
100
AcDbEntity
  8
0
100
AcDbLine
 10
-171.7354000461
 20
-360.9898656763
 30
0.0
 11
-171.7118994966
 21
-360.4904182574
 31
0.0
  0
LINE
  5
48F
330
1F
100
AcDbEntity
  8
0
100
AcDbLine
 10
-174.1148864642
 20
-361.8790098484
 30
0.0
 11
-174.1541354814
 21
-362.7131529111
 31
0.0
  0
LINE
  5
490
330
1F
100
AcDbEntity
  8
0
100
AcDbLine
 10
-175.9009232657
 20
-360.7938648946
 30
0.0
 11
-175.066780203
 21
-360.8331139118
 31
0.0
  0
ARC
  5
491
330
1F
100
AcDbEntity
  8
0
100
AcDbCircle
 10
-175.1137813019
 20
-361.8320087494
 30
0.0
 40
0.9999999999999926
100
AcDbArc
 50
357.3060429059
 51
87.3060429059
  0
LINE
  5
492
330
1F
100
AcDbEntity
  8
0
100
AcDbLine
 10
-174.1541354814
 20
-362.7131529111
 30
0.0
 11
-173.6546880625
 21
-362.7366534606
 31
0.0
  0
CIRCLE
  5
493
330
1F
100
AcDbEntity
  8
0
100
AcDbCircle
 10
-238.8064113812
 20
-405.642141576
 30
0.0
 40
4.099999999999993
  0
LINE
  5
494
330
1F
100
AcDbEntity
  8
0
100
AcDbLine
 10
-240.9009232657
 20
-405.7938648946
 30
0.0
 11
-240.066780203
 21
-405.8331139118
 31
0.0
  0
ARC
  5
495
330
1F
100
AcDbEntity
  8
0
100
AcDbCircle
 10
-240.1137813019
 20
-406.8320087494
 30
0.0
 40
1.000000000000021
100
AcDbArc
 50
357.3060429059
 51
87.3060429059
  0
LINE
  5
496
330
1F
100
AcDbEntity
  8
0
100
AcDbLine
 10
-239.1148864642
 20
-406.8790098484
 30
0.0
 11
-239.1541354814
 21
-407.7131529111
 31
0.0
  0
LINE
  5
497
330
1F
100
AcDbEntity
  8
0
100
AcDbLine
 10
-240.8774227163
 20
-405.2944174758
 30
0.0
 11
-240.9009232657
 21
-405.7938648946
 31
0.0
  0
LINE
  5
498
330
1F
100
AcDbEntity
  8
0
100
AcDbLine
 10
-238.6546880625
 20
-407.7366534606
 30
0.0
 11
-238.6154390454
 21
-406.9025103978
 31
0.0
  0
ARC
  5
499
330
1F
100
AcDbEntity
  8
0
100
AcDbCircle
 10
-237.6165442077
 20
-406.9495114968
 30
0.0
 40
1.000000000000018
100
AcDbArc
 50
87.3060429059
 51
177.3060429059
  0
LINE
  5
49A
330
1F
100
AcDbEntity
  8
0
100
AcDbLine
 10
-237.5695431088
 20
-405.9506166591
 30
0.0
 11
-236.7354000461
 21
-405.9898656763
 31
0.0
  0
LINE
  5
49B
330
1F
100
AcDbEntity
  8
0
100
AcDbLine
 10
-238.9581346998
 20
-403.5476296915
 30
0.0
 11
-238.9973837169
 21
-404.3817727542
 31
0.0
  0
ARC
  5
49C
330
1F
100
AcDbEntity
  8
0
100
AcDbCircle
 10
-239.9962785546
 20
-404.3347716553
 30
0.0
 40
0.9999999999999926
100
AcDbArc
 50
267.3060429059
 51
357.3060429059
  0
LINE
  5
49D
330
1F
100
AcDbEntity
  8
0
100
AcDbLine
 10
-240.0432796535
 20
-405.333666493
 30
0.0
 11
-240.8774227163
 21
-405.2944174758
 31
0.0
  0
LINE
  5
49E
330
1F
100
AcDbEntity
  8
0
100
AcDbLine
 10
-236.7354000461
 20
-405.9898656763
 30
0.0
 11
-236.7118994966
 21
-405.4904182574
 31
0.0
  0
LINE
  5
49F
330
1F
100
AcDbEntity
  8
0
100
AcDbLine
 10
-238.4586872809
 20
-403.5711302409
 30
0.0
 11
-238.9581346998
 21
-403.5476296915
 31
0.0
  0
LINE
  5
4A0
330
1F
100
AcDbEntity
  8
0
100
AcDbLine
 10
-239.1541354814
 20
-407.7131529111
 30
0.0
 11
-238.6546880625
 21
-407.7366534606
 31
0.0
  0
ARC
  5
4A1
330
1F
100
AcDbEntity
  8
0
100
AcDbCircle
 10
-237.4990414604
 20
-404.4522744026
 30
0.0
 40
1.000000000000049
100
AcDbArc
 50
177.3060429059
 51
267.3060429059
  0
LINE
  5
4A2
330
1F
100
AcDbEntity
  8
0
100
AcDbLine
 10
-236.7118994966
 20
-405.4904182574
 30
0.0
 11
-237.5460425594
 21
-405.4511692403
 31
0.0
  0
LINE
  5
4A3
330
1F
100
AcDbEntity
  8
0
100
AcDbLine
 10
-238.4979362981
 20
-404.4052733037
 30
0.0
 11
-238.4586872809
 21
-403.5711302409
 31
0.0
  0
CIRCLE
  5
4A4
330
1F
100
AcDbEntity
  8
0
100
AcDbCircle
 10
-427.1439113834
 20
-278.7071415722
 30
0.0
 40
34.00000000000006
  0
CIRCLE
  5
4A5
330
1F
100
AcDbEntity
  8
0
100
AcDbCircle
 10
-210.4989113812
 20
-307.577141576
 30
0.0
 40
34.0
  0
LINE
  5
4A6
330
1F
100
AcDbEntity
  8
0
100
AcDbLine
 10
-468.8064113812
 20
-410.642141576
 30
0.0
 11
-470.5064113812
 21
-411.4653648808
 31
0.0
  0
LINE
  5
4A7
330
1F
100
AcDbEntity
  8
0
100
AcDbLine
 10
-470.5064113812
 20
-174.8189182713
 30
0.0
 11
-470.5064113812
 21
-411.4653648808
 31
0.0
  0
LINE
  5
4A8
330
1F
100
AcDbEntity
  8
0
100
AcDbLine
 10
-470.5064113812
 20
-174.8189182713
 30
0.0
 11
-468.8064113812
 21
-175.642141576
 31
0.0
  0
LINE
  5
4A9
330
1F
100
AcDbEntity
  8
0
100
AcDbLine
 10
-469.8064113812
 20
-174.8189182713
 30
0.0
 11
-468.8064113812
 21
-175.642141576
 31
0.0
  0
LINE
  5
4AA
330
1F
100
AcDbEntity
  8
0
100
AcDbLine
 10
-469.8064113812
 20
-174.8189182713
 30
0.0
 11
-470.5064113812
 21
-174.8189182713
 31
0.0
  0
LINE
  5
4AB
330
1F
100
AcDbEntity
  8
0
100
AcDbLine
 10
-468.8064113812
 20
-175.642141576
 30
0.0
 11
-469.6296346859
 21
-173.942141576
 31
0.0
  0
LINE
  5
4AC
330
1F
100
AcDbEntity
  8
0
100
AcDbLine
 10
-167.9831880765
 20
-173.942141576
 30
0.0
 11
-469.6296346859
 21
-173.942141576
 31
0.0
  0
LINE
  5
4AD
330
1F
100
AcDbEntity
  8
0
100
AcDbLine
 10
-167.9831880765
 20
-173.942141576
 30
0.0
 11
-168.8064113812
 21
-175.642141576
 31
0.0
  0
LINE
  5
4AE
330
1F
100
AcDbEntity
  8
0
100
AcDbLine
 10
-469.6296346859
 20
-174.642141576
 30
0.0
 11
-469.6296346859
 21
-173.942141576
 31
0.0
  0
LINE
  5
4AF
330
1F
100
AcDbEntity
  8
0
100
AcDbLine
 10
-468.8064113812
 20
-175.642141576
 30
0.0
 11
-469.6296346859
 21
-174.642141576
 31
0.0
  0
LINE
  5
4B0
330
1F
100
AcDbEntity
  8
0
100
AcDbLine
 10
-167.9831880765
 20
-174.642141576
 30
0.0
 11
-168.8064113812
 21
-175.642141576
 31
0.0
  0
LINE
  5
4B1
330
1F
100
AcDbEntity
  8
0
100
AcDbLine
 10
-167.9831880765
 20
-174.642141576
 30
0.0
 11
-167.9831880765
 21
-173.942141576
 31
0.0
  0
LINE
  5
4B2
330
1F
100
AcDbEntity
  8
0
100
AcDbLine
 10
-167.8064113812
 20
-174.8189182714
 30
0.0
 11
-167.1064113812
 21
-174.8189182714
 31
0.0
  0
LINE
  5
4B3
330
1F
100
AcDbEntity
  8
0
100
AcDbLine
 10
-168.8064113812
 20
-175.642141576
 30
0.0
 11
-167.1064113812
 21
-174.8189182714
 31
0.0
  0
LINE
  5
4B4
330
1F
100
AcDbEntity
  8
0
100
AcDbLine
 10
-168.8064113812
 20
-175.642141576
 30
0.0
 11
-167.8064113812
 21
-174.8189182714
 31
0.0
  0
LINE
  5
4B5
330
1F
100
AcDbEntity
  8
0
100
AcDbLine
 10
-167.1064113812
 20
-411.4653648807
 30
0.0
 11
-167.1064113812
 21
-174.8189182714
 31
0.0
  0
LINE
  5
4B6
330
1F
100
AcDbEntity
  8
0
100
AcDbLine
 10
-167.1064113812
 20
-411.4653648807
 30
0.0
 11
-168.8064113811
 21
-410.642141576
 31
0.0
  0
LINE
  5
4B7
330
1F
100
AcDbEntity
  8
0
100
AcDbLine
 10
-168.8064113812
 20
-410.642141576
 30
0.0
 11
-167.9831880764
 21
-412.342141576
 31
0.0
  0
LINE
  5
4B8
330
1F
100
AcDbEntity
  8
0
100
AcDbLine
 10
-469.6296346858
 20
-412.342141576
 30
0.0
 11
-167.9831880764
 21
-412.342141576
 31
0.0
  0
LINE
  5
4B9
330
1F
100
AcDbEntity
  8
0
100
AcDbLine
 10
-469.6296346858
 20
-412.342141576
 30
0.0
 11
-468.8064113811
 21
-410.642141576
 31
0.0
  0
LINE
  5
4BA
330
1F
100
AcDbEntity
  8
0
100
AcDbLine
 10
-469.6296346858
 20
-411.642141576
 30
0.0
 11
-468.8064113811
 21
-410.642141576
 31
0.0
  0
LINE
  5
4BB
330
1F
100
AcDbEntity
  8
0
100
AcDbLine
 10
-469.6296346858
 20
-411.642141576
 30
0.0
 11
-469.6296346858
 21
-412.342141576
 31
0.0
  0
LINE
  5
4BC
330
1F
100
AcDbEntity
  8
0
100
AcDbLine
 10
-469.8064113812
 20
-411.4653648809
 30
0.0
 11
-470.5064113812
 21
-411.4653648808
 31
0.0
  0
LINE
  5
4BD
330
1F
100
AcDbEntity
  8
0
100
AcDbLine
 10
-468.8064113812
 20
-410.642141576
 30
0.0
 11
-469.8064113812
 21
-411.4653648808
 31
0.0
  0
LINE
  5
4BE
330
1F
100
AcDbEntity
  8
0
100
AcDbLine
 10
-167.9831880764
 20
-411.642141576
 30
0.0
 11
-167.9831880764
 21
-412.342141576
 31
0.0
  0
LINE
  5
4BF
330
1F
100
AcDbEntity
  8
0
100
AcDbLine
 10
-168.8064113812
 20
-410.642141576
 30
0.0
 11
-167.9831880764
 21
-411.642141576
 31
0.0
  0
LINE
  5
4C0
330
1F
100
AcDbEntity
  8
0
100
AcDbLine
 10
-167.8064113812
 20
-411.4653648807
 30
0.0
 11
-168.8064113812
 21
-410.642141576
 31
0.0
  0
LINE
  5
4C1
330
1F
100
AcDbEntity
  8
0
100
AcDbLine
 10
-167.8064113812
 20
-411.4653648807
 30
0.0
 11
-167.1064113812
 21
-411.4653648807
 31
0.0
  0
LINE
  5
4C2
330
1F
100
AcDbEntity
  8
0
100
AcDbLine
 10
-425.7064113812
 20
-149.9421412738
 30
0.0
 11
-211.9064113812
 21
-149.9421412738
 31
0.0
  0
LINE
  5
4C3
330
1F
100
AcDbEntity
  8
0
100
AcDbLine
 10
-425.7064113812
 20
-154.1421412738
 30
0.0
 11
-211.9064113812
 21
-154.1421412738
 31
0.0
  0
LINE
  5
4C4
330
1F
100
AcDbEntity
  8
0
100
AcDbLine
 10
-211.9064113812
 20
-432.1421418782
 30
0.0
 11
-425.7064113812
 21
-432.1421418782
 31
0.0
  0
LINE
  5
4C5
330
1F
100
AcDbEntity
  8
0
100
AcDbLine
 10
-211.9064113812
 20
-436.3421418782
 30
0.0
 11
-425.7064113812
 21
-436.3421418782
 31
0.0
  0
LINE
  5
4C6
330
1F
100
AcDbEntity
  8
0
100
AcDbLine
 10
-218.8064113812
 20
-439.142141576
 30
0.0
 11
-418.8064113812
 21
-439.142141576
 31
0.0
  0
LINE
  5
4C7
330
1F
100
AcDbEntity
  8
0
100
AcDbLine
 10
-218.8564627816
 20
-420.8211102364
 30
0.0
 11
-418.7563599807
 21
-420.8211102364
 31
0.0
  0
LINE
  5
4C8
330
1F
100
AcDbEntity
  8
0
100
AcDbLine
 10
-220.6000278874
 20
-422.5646753422
 30
0.0
 11
-417.012794875
 21
-422.5646753422
 31
0.0
  0
LINE
  5
4C9
330
1F
100
AcDbEntity
  8
0
100
AcDbLine
 10
-222.6071661948
 20
-429.5870091415
 30
0.0
 11
-415.0056565675
 21
-429.5870091415
 31
0.0
  0
LINE
  5
4CA
330
1F
100
AcDbEntity
  8
0
100
AcDbLine
 10
-418.8064113812
 20
-147.142141576
 30
0.0
 11
-218.8064113812
 21
-147.142141576
 31
0.0
  0
LINE
  5
4CB
330
1F
100
AcDbEntity
  8
0
100
AcDbLine
 10
-418.7563599807
 20
-165.4631729157
 30
0.0
 11
-218.8564627816
 21
-165.4631729157
 31
0.0
  0
LINE
  5
4CC
330
1F
100
AcDbEntity
  8
0
100
AcDbLine
 10
-417.012794875
 20
-163.7196078099
 30
0.0
 11
-220.6000278874
 21
-163.7196078099
 31
0.0
  0
LINE
  5
4CD
330
1F
100
AcDbEntity
  8
0
100
AcDbLine
 10
-415.0056565675
 20
-156.6972740106
 30
0.0
 11
-222.6071661948
 21
-156.6972740106
 31
0.0
  0
CIRCLE
  5
4CE
330
1F
100
AcDbEntity
  8
0
  6
PHANTOM
 62
     8
370
    18
100
AcDbCircle
 10
-427.1439113834
 20
-278.7071415721
 30
0.0
 40
9.500000000000014
  0
LINE
  5
4CF
330
1F
100
AcDbEntity
  8
0
  6
PHANTOM
 62
     8
370
    18
100
AcDbLine
 10
-428.1003250212
 20
-269.2554077125
 30
0.0
 11
-428.2412701888
 21
-267.8625206174
 31
0.0
  0
CIRCLE
  5
4D0
330
1F
100
AcDbEntity
  8
0
  6
PHANTOM
 62
     8
370
    18
100
AcDbCircle
 10
-210.4989113812
 20
-307.577141576
 30
0.0
 40
9.499999999999957
  0
LINE
  5
4D1
330
1F
100
AcDbEntity
  8
0
  6
PHANTOM
 62
     8
370
    18
100
AcDbLine
 10
-209.5424977434
 20
-317.0288754357
 30
0.0
 11
-209.4015525757
 21
-318.4217625308
 31
0.0
  0
ARC
  5
4D2
330
1F
100
AcDbEntity
  8
0
  6
PHANTOM
 62
     8
370
    18
100
AcDbCircle
 10
-173.8064113812
 20
-225.642141576
 30
0.0
 40
2.100000000000005
100
AcDbArc
 50
175.856815926
 51
189.5310982622
  0
ARC
  5
4D3
330
1F
100
AcDbEntity
  8
0
  6
PHANTOM
 62
     8
370
    18
100
AcDbCircle
 10
-173.8064113812
 20
-225.642141576
 30
0.0
 40
2.099999999999996
100
AcDbArc
 50
9.5310982622
 51
85.856815926
  0
ARC
  5
4D4
330
1F
100
AcDbEntity
  8
0
  6
PHANTOM
 62
     8
370
    18
100
AcDbCircle
 10
-173.8064113812
 20
-225.642141576
 30
0.0
 40
2.099999999999996
100
AcDbArc
 50
85.856815926
 51
99.5310982622
  0
ARC
  5
4D5
330
1F
100
AcDbEntity
  8
0
  6
PHANTOM
 62
     8
370
    18
100
AcDbCircle
 10
-173.8064113812
 20
-225.642141576
 30
0.0
 40
2.100000000000005
100
AcDbArc
 50
355.856815926
 51
9.5310982622
  0
ARC
  5
4D6
330
1F
100
AcDbEntity
  8
0
  6
PHANTOM
 62
     8
370
    18
100
AcDbCircle
 10
-173.8064113812
 20
-225.642141576
 30
0.0
 40
2.100000000000005
100
AcDbArc
 50
99.5310982622
 51
175.856815926
  0
ARC
  5
4D7
330
1F
100
AcDbEntity
  8
0
  6
PHANTOM
 62
     8
370
    18
100
AcDbCircle
 10
-173.8064113812
 20
-225.642141576
 30
0.0
 40
2.100000000000005
100
AcDbArc
 50
279.5310982622
 51
355.856815926
  0
ARC
  5
4D8
330
1F
100
AcDbEntity
  8
0
  6
PHANTOM
 62
     8
370
    18
100
AcDbCircle
 10
-173.8064113812
 20
-225.642141576
 30
0.0
 40
2.099999999999996
100
AcDbArc
 50
189.5310982622
 51
265.856815926
  0
ARC
  5
4D9
330
1F
100
AcDbEntity
  8
0
  6
PHANTOM
 62
     8
370
    18
100
AcDbCircle
 10
-173.8064113812
 20
-225.642141576
 30
0.0
 40
2.099999999999996
100
AcDbArc
 50
265.856815926
 51
279.5310982622
  0
ARC
  5
4DA
330
1F
100
AcDbEntity
  8
0
  6
PHANTOM
 62
     8
370
    18
100
AcDbCircle
 10
-398.8064113812
 20
-405.642141576
 30
0.0
 40
2.100000000000005
100
AcDbArc
 50
9.5310982622
 51
85.856815926
  0
ARC
  5
4DB
330
1F
100
AcDbEntity
  8
0
  6
PHANTOM
 62
     8
370
    18
100
AcDbCircle
 10
-398.8064113812
 20
-405.642141576
 30
0.0
 40
2.10000000000001
100
AcDbArc
 50
85.856815926
 51
99.5310982622
  0
ARC
  5
4DC
330
1F
100
AcDbEntity
  8
0
  6
PHANTOM
 62
     8
370
    18
100
AcDbCircle
 10
-398.8064113812
 20
-405.642141576
 30
0.0
 40
2.10000000000001
100
AcDbArc
 50
99.5310982622
 51
175.856815926
  0
ARC
  5
4DD
330
1F
100
AcDbEntity
  8
0
  6
PHANTOM
 62
     8
370
    18
100
AcDbCircle
 10
-398.8064113812
 20
-405.642141576
 30
0.0
 40
2.10000000000001
100
AcDbArc
 50
175.856815926
 51
189.5310982622
  0
ARC
  5
4DE
330
1F
100
AcDbEntity
  8
0
  6
PHANTOM
 62
     8
370
    18
100
AcDbCircle
 10
-398.8064113812
 20
-405.642141576
 30
0.0
 40
2.10000000000001
100
AcDbArc
 50
189.5310982622
 51
265.856815926
  0
ARC
  5
4DF
330
1F
100
AcDbEntity
  8
0
  6
PHANTOM
 62
     8
370
    18
100
AcDbCircle
 10
-398.8064113812
 20
-405.642141576
 30
0.0
 40
2.100000000000001
100
AcDbArc
 50
265.856815926
 51
279.5310982622
  0
ARC
  5
4E0
330
1F
100
AcDbEntity
  8
0
  6
PHANTOM
 62
     8
370
    18
100
AcDbCircle
 10
-398.8064113812
 20
-405.642141576
 30
0.0
 40
2.099999999999997
100
AcDbArc
 50
279.5310982622
 51
355.856815926
  0
ARC
  5
4E1
330
1F
100
AcDbEntity
  8
0
  6
PHANTOM
 62
     8
370
    18
100
AcDbCircle
 10
-398.8064113812
 20
-405.642141576
 30
0.0
 40
2.100000000000001
100
AcDbArc
 50
355.856815926
 51
9.5310982622
  0
ARC
  5
4E2
330
1F
100
AcDbEntity
  8
0
  6
PHANTOM
 62
     8
370
    18
100
AcDbCircle
 10
-463.8064113812
 20
-360.642141576
 30
0.0
 40
2.100000000000066
100
AcDbArc
 50
9.5310982622
 51
85.856815926
  0
ARC
  5
4E3
330
1F
100
AcDbEntity
  8
0
  6
PHANTOM
 62
     8
370
    18
100
AcDbCircle
 10
-463.8064113812
 20
-360.642141576
 30
0.0
 40
2.100000000000056
100
AcDbArc
 50
85.856815926
 51
99.5310982622
  0
ARC
  5
4E4
330
1F
100
AcDbEntity
  8
0
  6
PHANTOM
 62
     8
370
    18
100
AcDbCircle
 10
-463.8064113812
 20
-360.642141576
 30
0.0
 40
2.100000000000056
100
AcDbArc
 50
99.5310982622
 51
175.856815926
  0
ARC
  5
4E5
330
1F
100
AcDbEntity
  8
0
  6
PHANTOM
 62
     8
370
    18
100
AcDbCircle
 10
-463.8064113812
 20
-360.642141576
 30
0.0
 40
2.099999999999948
100
AcDbArc
 50
175.856815926
 51
189.5310982622
  0
ARC
  5
4E6
330
1F
100
AcDbEntity
  8
0
  6
PHANTOM
 62
     8
370
    18
100
AcDbCircle
 10
-463.8064113812
 20
-360.642141576
 30
0.0
 40
2.099999999999945
100
AcDbArc
 50
189.5310982622
 51
265.856815926
  0
ARC
  5
4E7
330
1F
100
AcDbEntity
  8
0
  6
PHANTOM
 62
     8
370
    18
100
AcDbCircle
 10
-463.8064113812
 20
-360.642141576
 30
0.0
 40
2.099999999999954
100
AcDbArc
 50
265.856815926
 51
279.5310982622
  0
ARC
  5
4E8
330
1F
100
AcDbEntity
  8
0
  6
PHANTOM
 62
     8
370
    18
100
AcDbCircle
 10
-463.8064113812
 20
-360.642141576
 30
0.0
 40
2.099999999999997
100
AcDbArc
 50
279.5310982622
 51
355.856815926
  0
ARC
  5
4E9
330
1F
100
AcDbEntity
  8
0
  6
PHANTOM
 62
     8
370
    18
100
AcDbCircle
 10
-463.8064113812
 20
-360.642141576
 30
0.0
 40
2.100000000000066
100
AcDbArc
 50
355.856815926
 51
9.5310982622
  0
ARC
  5
4EA
330
1F
100
AcDbEntity
  8
0
  6
PHANTOM
 62
     8
370
    18
100
AcDbCircle
 10
-238.8064113812
 20
-180.642141576
 30
0.0
 40
2.100000000000005
100
AcDbArc
 50
189.5310982622
 51
265.856815926
  0
ARC
  5
4EB
330
1F
100
AcDbEntity
  8
0
  6
PHANTOM
 62
     8
370
    18
100
AcDbCircle
 10
-238.8064113812
 20
-180.642141576
 30
0.0
 40
2.100000000000005
100
AcDbArc
 50
265.856815926
 51
279.5310982622
  0
ARC
  5
4EC
330
1F
100
AcDbEntity
  8
0
  6
PHANTOM
 62
     8
370
    18
100
AcDbCircle
 10
-238.8064113812
 20
-180.642141576
 30
0.0
 40
2.100000000000033
100
AcDbArc
 50
279.5310982622
 51
355.856815926
  0
ARC
  5
4ED
330
1F
100
AcDbEntity
  8
0
  6
PHANTOM
 62
     8
370
    18
100
AcDbCircle
 10
-238.8064113812
 20
-180.642141576
 30
0.0
 40
2.100000000000033
100
AcDbArc
 50
355.856815926
 51
9.5310982622
  0
ARC
  5
4EE
330
1F
100
AcDbEntity
  8
0
  6
PHANTOM
 62
     8
370
    18
100
AcDbCircle
 10
-238.8064113812
 20
-180.642141576
 30
0.0
 40
2.100000000000033
100
AcDbArc
 50
9.5310982622
 51
85.856815926
  0
ARC
  5
4EF
330
1F
100
AcDbEntity
  8
0
  6
PHANTOM
 62
     8
370
    18
100
AcDbCircle
 10
-238.8064113812
 20
-180.642141576
 30
0.0
 40
2.100000000000033
100
AcDbArc
 50
85.856815926
 51
99.5310982622
  0
ARC
  5
4F0
330
1F
100
AcDbEntity
  8
0
  6
PHANTOM
 62
     8
370
    18
100
AcDbCircle
 10
-238.8064113812
 20
-180.642141576
 30
0.0
 40
2.099999999999996
100
AcDbArc
 50
99.5310982622
 51
175.856815926
  0
ARC
  5
4F1
330
1F
100
AcDbEntity
  8
0
  6
PHANTOM
 62
     8
370
    18
100
AcDbCircle
 10
-238.8064113812
 20
-180.642141576
 30
0.0
 40
2.099999999999996
100
AcDbArc
 50
175.856815926
 51
189.5310982622
  0
ARC
  5
4F2
330
1F
100
AcDbEntity
  8
0
  6
PHANTOM
 62
     8
370
    18
100
AcDbCircle
 10
-398.8064113812
 20
-180.642141576
 30
0.0
 40
2.10000000000001
100
AcDbArc
 50
184.143184074
 51
260.4689017378
  0
ARC
  5
4F3
330
1F
100
AcDbEntity
  8
0
  6
PHANTOM
 62
     8
370
    18
100
AcDbCircle
 10
-398.8064113812
 20
-180.642141576
 30
0.0
 40
2.10000000000001
100
AcDbArc
 50
260.4689017378
 51
274.143184074
  0
ARC
  5
4F4
330
1F
100
AcDbEntity
  8
0
  6
PHANTOM
 62
     8
370
    18
100
AcDbCircle
 10
-398.8064113812
 20
-180.642141576
 30
0.0
 40
2.100000000000066
100
AcDbArc
 50
274.143184074
 51
350.4689017378
  0
ARC
  5
4F5
330
1F
100
AcDbEntity
  8
0
  6
PHANTOM
 62
     8
370
    18
100
AcDbCircle
 10
-398.8064113812
 20
-180.642141576
 30
0.0
 40
2.100000000000066
100
AcDbArc
 50
350.4689017378
 51
4.143184074
  0
ARC
  5
4F6
330
1F
100
AcDbEntity
  8
0
  6
PHANTOM
 62
     8
370
    18
100
AcDbCircle
 10
-398.8064113812
 20
-180.642141576
 30
0.0
 40
2.100000000000001
100
AcDbArc
 50
4.143184074
 51
80.4689017378
  0
ARC
  5
4F7
330
1F
100
AcDbEntity
  8
0
  6
PHANTOM
 62
     8
370
    18
100
AcDbCircle
 10
-398.8064113812
 20
-180.642141576
 30
0.0
 40
2.100000000000029
100
AcDbArc
 50
80.4689017378
 51
94.143184074
  0
ARC
  5
4F8
330
1F
100
AcDbEntity
  8
0
  6
PHANTOM
 62
     8
370
    18
100
AcDbCircle
 10
-398.8064113812
 20
-180.642141576
 30
0.0
 40
2.100000000000029
100
AcDbArc
 50
94.143184074
 51
170.4689017378
  0
ARC
  5
4F9
330
1F
100
AcDbEntity
  8
0
  6
PHANTOM
 62
     8
370
    18
100
AcDbCircle
 10
-398.8064113812
 20
-180.642141576
 30
0.0
 40
2.099999999999998
100
AcDbArc
 50
170.4689017378
 51
184.143184074
  0
ARC
  5
4FA
330
1F
100
AcDbEntity
  8
0
  6
PHANTOM
 62
     8
370
    18
100
AcDbCircle
 10
-463.8064113812
 20
-225.642141576
 30
0.0
 40
2.099999999999998
100
AcDbArc
 50
4.143184074
 51
80.4689017378
  0
ARC
  5
4FB
330
1F
100
AcDbEntity
  8
0
  6
PHANTOM
 62
     8
370
    18
100
AcDbCircle
 10
-463.8064113812
 20
-225.642141576
 30
0.0
 40
2.10000000000001
100
AcDbArc
 50
184.143184074
 51
260.4689017378
  0
ARC
  5
4FC
330
1F
100
AcDbEntity
  8
0
  6
PHANTOM
 62
     8
370
    18
100
AcDbCircle
 10
-463.8064113812
 20
-225.642141576
 30
0.0
 40
2.100000000000005
100
AcDbArc
 50
170.4689017378
 51
184.143184074
  0
ARC
  5
4FD
330
1F
100
AcDbEntity
  8
0
  6
PHANTOM
 62
     8
370
    18
100
AcDbCircle
 10
-463.8064113812
 20
-225.642141576
 30
0.0
 40
2.099999999999998
100
AcDbArc
 50
350.4689017378
 51
4.143184074
  0
ARC
  5
4FE
330
1F
100
AcDbEntity
  8
0
  6
PHANTOM
 62
     8
370
    18
100
AcDbCircle
 10
-463.8064113812
 20
-225.642141576
 30
0.0
 40
2.099999999999997
100
AcDbArc
 50
80.4689017378
 51
94.143184074
  0
ARC
  5
4FF
330
1F
100
AcDbEntity
  8
0
  6
PHANTOM
 62
     8
370
    18
100
AcDbCircle
 10
-463.8064113812
 20
-225.642141576
 30
0.0
 40
2.100000000000025
100
AcDbArc
 50
260.4689017378
 51
274.143184074
  0
ARC
  5
500
330
1F
100
AcDbEntity
  8
0
  6
PHANTOM
 62
     8
370
    18
100
AcDbCircle
 10
-463.8064113812
 20
-225.642141576
 30
0.0
 40
2.100000000000025
100
AcDbArc
 50
274.143184074
 51
350.4689017378
  0
ARC
  5
501
330
1F
100
AcDbEntity
  8
0
  6
PHANTOM
 62
     8
370
    18
100
AcDbCircle
 10
-463.8064113812
 20
-225.642141576
 30
0.0
 40
2.100000000000005
100
AcDbArc
 50
94.143184074
 51
170.4689017378
  0
ARC
  5
502
330
1F
100
AcDbEntity
  8
0
  6
PHANTOM
 62
     8
370
    18
100
AcDbCircle
 10
-173.8064113812
 20
-360.642141576
 30
0.0
 40
2.100000000000052
100
AcDbArc
 50
4.143184074
 51
80.4689017378
  0
ARC
  5
503
330
1F
100
AcDbEntity
  8
0
  6
PHANTOM
 62
     8
370
    18
100
AcDbCircle
 10
-173.8064113812
 20
-360.642141576
 30
0.0
 40
2.100000000000052
100
AcDbArc
 50
80.4689017378
 51
94.143184074
  0
ARC
  5
504
330
1F
100
AcDbEntity
  8
0
  6
PHANTOM
 62
     8
370
    18
100
AcDbCircle
 10
-173.8064113812
 20
-360.642141576
 30
0.0
 40
2.100000000000005
100
AcDbArc
 50
94.143184074
 51
170.4689017378
  0
ARC
  5
505
330
1F
100
AcDbEntity
  8
0
  6
PHANTOM
 62
     8
370
    18
100
AcDbCircle
 10
-173.8064113812
 20
-360.642141576
 30
0.0
 40
2.099999999999991
100
AcDbArc
 50
170.4689017378
 51
184.143184074
  0
ARC
  5
506
330
1F
100
AcDbEntity
  8
0
  6
PHANTOM
 62
     8
370
    18
100
AcDbCircle
 10
-173.8064113812
 20
-360.642141576
 30
0.0
 40
2.099999999999996
100
AcDbArc
 50
184.143184074
 51
260.4689017378
  0
ARC
  5
507
330
1F
100
AcDbEntity
  8
0
  6
PHANTOM
 62
     8
370
    18
100
AcDbCircle
 10
-173.8064113812
 20
-360.642141576
 30
0.0
 40
2.100000000000005
100
AcDbArc
 50
260.4689017378
 51
274.143184074
  0
ARC
  5
508
330
1F
100
AcDbEntity
  8
0
  6
PHANTOM
 62
     8
370
    18
100
AcDbCircle
 10
-173.8064113812
 20
-360.642141576
 30
0.0
 40
2.100000000000005
100
AcDbArc
 50
274.143184074
 51
350.4689017378
  0
ARC
  5
509
330
1F
100
AcDbEntity
  8
0
  6
PHANTOM
 62
     8
370
    18
100
AcDbCircle
 10
-173.8064113812
 20
-360.642141576
 30
0.0
 40
2.100000000000009
100
AcDbArc
 50
350.4689017378
 51
4.143184074
  0
ARC
  5
50A
330
1F
100
AcDbEntity
  8
0
  6
PHANTOM
 62
     8
370
    18
100
AcDbCircle
 10
-238.8064113812
 20
-405.642141576
 30
0.0
 40
2.100000000000052
100
AcDbArc
 50
4.143184074
 51
80.4689017378
  0
ARC
  5
50B
330
1F
100
AcDbEntity
  8
0
  6
PHANTOM
 62
     8
370
    18
100
AcDbCircle
 10
-238.8064113812
 20
-405.642141576
 30
0.0
 40
2.100000000000052
100
AcDbArc
 50
80.4689017378
 51
94.143184074
  0
ARC
  5
50C
330
1F
100
AcDbEntity
  8
0
  6
PHANTOM
 62
     8
370
    18
100
AcDbCircle
 10
-238.8064113812
 20
-405.642141576
 30
0.0
 40
2.099999999999991
100
AcDbArc
 50
94.143184074
 51
170.4689017378
  0
ARC
  5
50D
330
1F
100
AcDbEntity
  8
0
  6
PHANTOM
 62
     8
370
    18
100
AcDbCircle
 10
-238.8064113812
 20
-405.642141576
 30
0.0
 40
2.099999999999991
100
AcDbArc
 50
170.4689017378
 51
184.143184074
  0
ARC
  5
50E
330
1F
100
AcDbEntity
  8
0
  6
PHANTOM
 62
     8
370
    18
100
AcDbCircle
 10
-238.8064113812
 20
-405.642141576
 30
0.0
 40
2.099999999999996
100
AcDbArc
 50
184.143184074
 51
260.4689017378
  0
ARC
  5
50F
330
1F
100
AcDbEntity
  8
0
  6
PHANTOM
 62
     8
370
    18
100
AcDbCircle
 10
-238.8064113812
 20
-405.642141576
 30
0.0
 40
2.100000000000005
100
AcDbArc
 50
260.4689017378
 51
274.143184074
  0
ARC
  5
510
330
1F
100
AcDbEntity
  8
0
  6
PHANTOM
 62
     8
370
    18
100
AcDbCircle
 10
-238.8064113812
 20
-405.642141576
 30
0.0
 40
2.100000000000005
100
AcDbArc
 50
274.143184074
 51
350.4689017378
  0
ARC
  5
511
330
1F
100
AcDbEntity
  8
0
  6
PHANTOM
 62
     8
370
    18
100
AcDbCircle
 10
-238.8064113812
 20
-405.642141576
 30
0.0
 40
2.100000000000033
100
AcDbArc
 50
350.4689017378
 51
4.143184074
  0
CIRCLE
  5
512
330
1F
100
AcDbEntity
  8
0
  6
PHANTOM
 62
     8
370
    18
100
AcDbCircle
 10
-427.1439113834
 20
-278.7071415722
 30
0.0
 40
20.00000000000006
  0
CIRCLE
  5
513
330
1F
100
AcDbEntity
  8
0
  6
PHANTOM
 62
     8
370
    18
100
AcDbCircle
 10
-210.4989113812
 20
-307.577141576
 30
0.0
 40
20.00000000000001
  0
LINE
  5
514
330
1F
100
AcDbEntity
  8
0
  6
PHANTOM
 62
     8
370
    18
100
AcDbLine
 10
-468.8064113812
 20
-175.642141576
 30
0.0
 11
-468.8064113812
 21
-410.642141576
 31
0.0
  0
LINE
  5
515
330
1F
100
AcDbEntity
  8
0
  6
PHANTOM
 62
     8
370
    18
100
AcDbLine
 10
-168.8064113812
 20
-175.642141576
 30
0.0
 11
-468.8064113812
 21
-175.642141576
 31
0.0
  0
LINE
  5
516
330
1F
100
AcDbEntity
  8
0
  6
PHANTOM
 62
     8
370
    18
100
AcDbLine
 10
-168.8064113812
 20
-410.642141576
 30
0.0
 11
-168.8064113812
 21
-175.642141576
 31
0.0
  0
LINE
  5
517
330
1F
100
AcDbEntity
  8
0
  6
PHANTOM
 62
     8
370
    18
100
AcDbLine
 10
-468.8064113812
 20
-410.642141576
 30
0.0
 11
-168.8064113812
 21
-410.642141576
 31
0.0
  0
LINE
  5
518
330
1F
100
AcDbEntity
  8
0
  6
PHANTOM
 62
     8
370
    18
100
AcDbLine
 10
-425.7498774489
 20
-148.9440341559
 30
0.0
 11
-211.8629453135
 21
-148.9440341559
 31
0.0
  0
LINE
  5
519
330
1F
100
AcDbEntity
  8
0
  6
PHANTOM
 62
     8
370
    18
100
AcDbLine
 10
-425.7498774489
 20
-153.1440341559
 30
0.0
 11
-211.8629453135
 21
-153.1440341559
 31
0.0
  0
LINE
  5
51A
330
1F
100
AcDbEntity
  8
0
  6
PHANTOM
 62
     8
370
    18
100
AcDbLine
 10
-417.9346783473
 20
-148.2620604178
 30
0.0
 11
-219.678144415
 21
-148.2620604178
 31
0.0
  0
LINE
  5
51B
330
1F
100
AcDbEntity
  8
0
  6
PHANTOM
 62
     8
370
    18
100
AcDbLine
 10
-417.9346783473
 20
-152.4620604178
 30
0.0
 11
-219.678144415
 21
-152.4620604178
 31
0.0
  0
LINE
  5
51C
330
1F
100
AcDbEntity
  8
0
  6
PHANTOM
 62
     8
370
    18
100
AcDbLine
 10
-417.7064113812
 20
-148.0130068589
 30
0.0
 11
-219.9064113812
 21
-148.0130068589
 31
0.0
  0
LINE
  5
51D
330
1F
100
AcDbEntity
  8
0
  6
PHANTOM
 62
     8
370
    18
100
AcDbLine
 10
-417.7064113812
 20
-152.2130068589
 30
0.0
 11
-219.9064113812
 21
-152.2130068589
 31
0.0
  0
LINE
  5
51E
330
1F
100
AcDbEntity
  8
0
  6
PHANTOM
 62
     8
370
    18
100
AcDbLine
 10
-211.8629453135
 20
-433.1402489962
 30
0.0
 11
-425.7498774489
 21
-433.1402489962
 31
0.0
  0
LINE
  5
51F
330
1F
100
AcDbEntity
  8
0
  6
PHANTOM
 62
     8
370
    18
100
AcDbLine
 10
-211.8629453135
 20
-437.3402489962
 30
0.0
 11
-425.7498774489
 21
-437.3402489962
 31
0.0
  0
LINE
  5
520
330
1F
100
AcDbEntity
  8
0
  6
PHANTOM
 62
     8
370
    18
100
AcDbLine
 10
-219.678144415
 20
-433.8222227342
 30
0.0
 11
-417.9346783473
 21
-433.8222227342
 31
0.0
  0
LINE
  5
521
330
1F
100
AcDbEntity
  8
0
  6
PHANTOM
 62
     8
370
    18
100
AcDbLine
 10
-219.678144415
 20
-438.0222227342
 30
0.0
 11
-417.9346783473
 21
-438.0222227342
 31
0.0
  0
LINE
  5
522
330
1F
100
AcDbEntity
  8
0
  6
PHANTOM
 62
     8
370
    18
100
AcDbLine
 10
-219.9064113812
 20
-438.2712762932
 30
0.0
 11
-417.7064113812
 21
-438.2712762932
 31
0.0
  0
LINE
  5
523
330
1F
100
AcDbEntity
  8
0
  6
PHANTOM
 62
     8
370
    18
100
AcDbLine
 10
-219.9064113812
 20
-434.0712762932
 30
0.0
 11
-417.7064113812
 21
-434.0712762932
 31
0.0
  0
LINE
  5
524
330
1F
100
AcDbEntity
  8
0
  6
PHANTOM
 62
     8
370
    18
100
AcDbLine
 10
-218.8064113812
 20
-443.842141576
 30
0.0
 11
-418.8064113812
 21
-443.842141576
 31
0.0
  0
LINE
  5
525
330
1F
100
AcDbEntity
  8
0
  6
PHANTOM
 62
     8
370
    18
100
AcDbLine
 10
-418.8064113812
 20
-142.442141576
 30
0.0
 11
-218.8064113812
 21
-142.442141576
 31
0.0
  0
ENDSEC
  0
SECTION
  2
OBJECTS
  0
DICTIONARY
  5
C
330
0
100
AcDbDictionary
281
     1
  3
ACAD_GROUP
350
D
  3
ACAD_LAYOUT
350
1A
  3
ACAD_MLINESTYLE
350
17
  3
ACAD_PLOTSETTINGS
350
19
  3
ACAD_PLOTSTYLENAME
350
E
  3
ACAD_SCALELIST
350
47
  3
DWGPROPS
350
526
  0
DICTIONARY
  5
D
102
{ACAD_REACTORS
330
C
102
}
330
C
100
AcDbDictionary
281
     1
  0
DICTIONARY
  5
1A
102
{ACAD_REACTORS
330
C
102
}
330
C
100
AcDbDictionary
281
     1
  3
Layout1
350
1E
  3
Layout2
350
26
  3
Model
350
22
  0
DICTIONARY
  5
17
102
{ACAD_REACTORS
330
C
102
}
330
C
100
AcDbDictionary
281
     1
  3
Standard
350
18
  0
DICTIONARY
  5
19
102
{ACAD_REACTORS
330
C
102
}
330
C
100
AcDbDictionary
281
     1
  0
ACDBDICTIONARYWDFLT
  5
E
102
{ACAD_REACTORS
330
C
102
}
330
C
100
AcDbDictionary
281
     1
  3
Normal
350
F
100
AcDbDictionaryWithDefault
340
F
  0
DICTIONARY
  5
47
102
{ACAD_REACTORS
330
C
102
}
330
C
100
AcDbDictionary
281
     1
  3
A0
350
48
  3
A1
350
49
  3
A2
350
4A
  3
A3
350
4B
  3
A4
350
4C
  3
A5
350
4D
  3
A6
350
4E
  3
A7
350
4F
  3
A8
350
50
  3
A9
350
51
  3
B0
350
52
  3
B1
350
53
  3
B2
350
54
  3
B3
350
55
  3
B4
350
56
  3
B5
350
57
  3
B6
350
58
  3
B7
350
59
  3
B8
350
5A
  3
B9
350
5B
  3
C0
350
5C
  3
C1
350
5D
  3
C2
350
5E
  3
C3
350
5F
  3
C4
350
60
  3
C5
350
61
  3
C6
350
62
  3
C7
350
63
  3
C8
350
64
  3
C9
350
65
  3
D0
350
66
  3
D1
350
67
  3
D2
350
68
  0
XRECORD
  5
526
102
{ACAD_REACTORS
330
C
102
}
330
C
100
AcDbXrecord
280
     1
  1
DWGPROPS COOKIE
  2

  3

  4

  6

  7

  8
Emilis.Masalas
  9

300
=
301
=
302
=
303
=
304
=
305
=
306
=
307
=
308
=
309
=
 40
0.0
 41
2459500.479073958
 42
2459500.479074467
  1

 90
        0
  0
LAYOUT
  5
1E
102
{ACAD_REACTORS
330
1A
102
}
330
1A
100
AcDbPlotSettings
  1

  2
none_device
  4

  6

 40
0.0
 41
0.0
 42
0.0
 43
0.0
 44
0.0
 45
0.0
 46
0.0
 47
0.0
 48
0.0
 49
0.0
140
0.0
141
0.0
142
1.0
143
1.0
 70
   688
 72
     1
 73
     0
 74
     5
  7

 75
    16
147
1.0
148
0.0
149
0.0
100
AcDbLayout
  1
Layout1
 70
     1
 71
     1
 10
0.0
 20
0.0
 11
420.0
 21
297.0
 12
0.0
 22
0.0
 32
0.0
 14
1.0000000000E+20
 24
1.0000000000E+20
 34
1.0000000000E+20
 15
-1.0000000000E+20
 25
-1.0000000000E+20
 35
-1.0000000000E+20
146
0.0
 13
0.0
 23
0.0
 33
0.0
 16
1.0
 26
0.0
 36
0.0
 17
0.0
 27
1.0
 37
0.0
 76
     0
330
1B
  0
LAYOUT
  5
26
102
{ACAD_REACTORS
330
1A
102
}
330
1A
100
AcDbPlotSettings
  1

  2
none_device
  4

  6

 40
0.0
 41
0.0
 42
0.0
 43
0.0
 44
0.0
 45
0.0
 46
0.0
 47
0.0
 48
0.0
 49
0.0
140
0.0
141
0.0
142
1.0
143
1.0
 70
   688
 72
     1
 73
     0
 74
     5
  7

 75
    16
147
1.0
148
0.0
149
0.0
100
AcDbLayout
  1
Layout2
 70
     1
 71
     2
 10
0.0
 20
0.0
 11
0.0
 21
0.0
 12
0.0
 22
0.0
 32
0.0
 14
0.0
 24
0.0
 34
0.0
 15
0.0
 25
0.0
 35
0.0
146
0.0
 13
0.0
 23
0.0
 33
0.0
 16
1.0
 26
0.0
 36
0.0
 17
0.0
 27
1.0
 37
0.0
 76
     0
330
23
  0
LAYOUT
  5
22
102
{ACAD_REACTORS
330
1A
102
}
330
1A
100
AcDbPlotSettings
  1

  2
none_device
  4
Letter_(8.50_x_11.00_Inches)
  6

 40
6.35
 41
6.35
 42
6.35000508
 43
6.35000508
 44
215.9
 45
279.4
 46
0.0
 47
0.0
 48
0.0
 49
0.0
140
0.0
141
0.0
142
1.0
143
1.0
 70
  1712
 72
     1
 73
     0
 74
     0
  7

 75
     0
147
1.0
148
0.0
149
0.0
100
AcDbLayout
  1
Model
 70
     1
 71
     0
 10
0.0
 20
0.0
 11
420.0
 21
297.0
 12
0.0
 22
0.0
 32
0.0
 14
0.0
 24
0.0
 34
0.0
 15
420.0
 25
297.0
 35
0.0
146
0.0
 13
0.0
 23
0.0
 33
0.0
 16
1.0
 26
0.0
 36
0.0
 17
0.0
 27
1.0
 37
0.0
 76
     0
330
1F
331
29
  0
MLINESTYLE
  5
18
102
{ACAD_REACTORS
330
17
102
}
330
17
100
AcDbMlineStyle
  2
Standard
 70
     0
  3

 62
   256
 51
90.0
 52
90.0
 71
     2
 49
0.5
 62
   256
  6
BYLAYER
 49
-0.5
 62
   256
  6
BYLAYER
  0
ACDBPLACEHOLDER
  5
F
102
{ACAD_REACTORS
330
E
102
}
330
E
  0
SCALE
  5
48
102
{ACAD_REACTORS
330
47
102
}
330
47
100
AcDbScale
 70
     0
300
1:1
140
1.0
141
1.0
290
     1
  0
SCALE
  5
49
102
{ACAD_REACTORS
330
47
102
}
330
47
100
AcDbScale
 70
     0
300
1:2
140
1.0
141
2.0
290
     0
  0
SCALE
  5
4A
102
{ACAD_REACTORS
330
47
102
}
330
47
100
AcDbScale
 70
     0
300
1:4
140
1.0
141
4.0
290
     0
  0
SCALE
  5
4B
102
{ACAD_REACTORS
330
47
102
}
330
47
100
AcDbScale
 70
     0
300
1:5
140
1.0
141
5.0
290
     0
  0
SCALE
  5
4C
102
{ACAD_REACTORS
330
47
102
}
330
47
100
AcDbScale
 70
     0
300
1:8
140
1.0
141
8.0
290
     0
  0
SCALE
  5
4D
102
{ACAD_REACTORS
330
47
102
}
330
47
100
AcDbScale
 70
     0
300
1:10
140
1.0
141
10.0
290
     0
  0
SCALE
  5
4E
102
{ACAD_REACTORS
330
47
102
}
330
47
100
AcDbScale
 70
     0
300
1:16
140
1.0
141
16.0
290
     0
  0
SCALE
  5
4F
102
{ACAD_REACTORS
330
47
102
}
330
47
100
AcDbScale
 70
     0
300
1:20
140
1.0
141
20.0
290
     0
  0
SCALE
  5
50
102
{ACAD_REACTORS
330
47
102
}
330
47
100
AcDbScale
 70
     0
300
1:30
140
1.0
141
30.0
290
     0
  0
SCALE
  5
51
102
{ACAD_REACTORS
330
47
102
}
330
47
100
AcDbScale
 70
     0
300
1:40
140
1.0
141
40.0
290
     0
  0
SCALE
  5
52
102
{ACAD_REACTORS
330
47
102
}
330
47
100
AcDbScale
 70
     0
300
1:50
140
1.0
141
50.0
290
     0
  0
SCALE
  5
53
102
{ACAD_REACTORS
330
47
102
}
330
47
100
AcDbScale
 70
     0
300
1:100
140
1.0
141
100.0
290
     0
  0
SCALE
  5
54
102
{ACAD_REACTORS
330
47
102
}
330
47
100
AcDbScale
 70
     0
300
2:1
140
2.0
141
1.0
290
     0
  0
SCALE
  5
55
102
{ACAD_REACTORS
330
47
102
}
330
47
100
AcDbScale
 70
     0
300
4:1
140
4.0
141
1.0
290
     0
  0
SCALE
  5
56
102
{ACAD_REACTORS
330
47
102
}
330
47
100
AcDbScale
 70
     0
300
8:1
140
8.0
141
1.0
290
     0
  0
SCALE
  5
57
102
{ACAD_REACTORS
330
47
102
}
330
47
100
AcDbScale
 70
     0
300
10:1
140
10.0
141
1.0
290
     0
  0
SCALE
  5
58
102
{ACAD_REACTORS
330
47
102
}
330
47
100
AcDbScale
 70
     0
300
100:1
140
100.0
141
1.0
290
     0
  0
SCALE
  5
59
102
{ACAD_REACTORS
330
47
102
}
330
47
100
AcDbScale
 70
     0
300
1/128" = 1'-0"
140
0.0078125
141
12.0
290
     0
  0
SCALE
  5
5A
102
{ACAD_REACTORS
330
47
102
}
330
47
100
AcDbScale
 70
     0
300
1/64" = 1'-0"
140
0.015625
141
12.0
290
     0
  0
SCALE
  5
5B
102
{ACAD_REACTORS
330
47
102
}
330
47
100
AcDbScale
 70
     0
300
1/32" = 1'-0"
140
0.03125
141
12.0
290
     0
  0
SCALE
  5
5C
102
{ACAD_REACTORS
330
47
102
}
330
47
100
AcDbScale
 70
     0
300
1/16" = 1'-0"
140
0.0625
141
12.0
290
     0
  0
SCALE
  5
5D
102
{ACAD_REACTORS
330
47
102
}
330
47
100
AcDbScale
 70
     0
300
3/32" = 1'-0"
140
0.09375
141
12.0
290
     0
  0
SCALE
  5
5E
102
{ACAD_REACTORS
330
47
102
}
330
47
100
AcDbScale
 70
     0
300
1/8" = 1'-0"
140
0.125
141
12.0
290
     0
  0
SCALE
  5
5F
102
{ACAD_REACTORS
330
47
102
}
330
47
100
AcDbScale
 70
     0
300
3/16" = 1'-0"
140
0.1875
141
12.0
290
     0
  0
SCALE
  5
60
102
{ACAD_REACTORS
330
47
102
}
330
47
100
AcDbScale
 70
     0
300
1/4" = 1'-0"
140
0.25
141
12.0
290
     0
  0
SCALE
  5
61
102
{ACAD_REACTORS
330
47
102
}
330
47
100
AcDbScale
 70
     0
300
3/8" = 1'-0"
140
0.375
141
12.0
290
     0
  0
SCALE
  5
62
102
{ACAD_REACTORS
330
47
102
}
330
47
100
AcDbScale
 70
     0
300
1/2" = 1'-0"
140
0.5
141
12.0
290
     0
  0
SCALE
  5
63
102
{ACAD_REACTORS
330
47
102
}
330
47
100
AcDbScale
 70
     0
300
3/4" = 1'-0"
140
0.75
141
12.0
290
     0
  0
SCALE
  5
64
102
{ACAD_REACTORS
330
47
102
}
330
47
100
AcDbScale
 70
     0
300
1" = 1'-0"
140
1.0
141
12.0
290
     0
  0
SCALE
  5
65
102
{ACAD_REACTORS
330
47
102
}
330
47
100
AcDbScale
 70
     0
300
1-1/2" = 1'-0"
140
1.5
141
12.0
290
     0
  0
SCALE
  5
66
102
{ACAD_REACTORS
330
47
102
}
330
47
100
AcDbScale
 70
     0
300
3" = 1'-0"
140
3.0
141
12.0
290
     0
  0
SCALE
  5
67
102
{ACAD_REACTORS
330
47
102
}
330
47
100
AcDbScale
 70
     0
300
6" = 1'-0"
140
6.0
141
12.0
290
     0
  0
SCALE
  5
68
102
{ACAD_REACTORS
330
47
102
}
330
47
100
AcDbScale
 70
     0
300
1'-0" = 1'-0"
140
12.0
141
12.0
290
     0
  0
ENDSEC
  0
EOF
