  0
SECTION
  2
HEADER
  9
$ACADVER
  1
AC1015
  9
$ACADMAINTVER
 70
     6
  9
$DWGCODEPAGE
  3
ANSI_1257
  9
$INSBASE
 10
0.0
 20
0.0
 30
0.0
  9
$EXTMIN
 10
-542.4803701626
 20
-9.762707423600006
 30
0.0
  9
$EXTMAX
 10
1062.915720948584
 20
802.6989818921223
 30
0.0
  9
$LIMMIN
 10
0.0
 20
0.0
  9
$LIMMAX
 10
420.0
 20
297.0
  9
$ORTHOMODE
 70
     0
  9
$REGENMODE
 70
     1
  9
$FILLMODE
 70
     1
  9
$QTEXTMODE
 70
     0
  9
$MIRRTEXT
 70
     1
  9
$LTSCALE
 40
1.0
  9
$ATTMODE
 70
     1
  9
$TEXTSIZE
 40
3.5277777778
  9
$TRACEWID
 40
1.0
  9
$TEXTSTYLE
  7
Standard
  9
$CLAYER
  8
0
  9
$CELTYPE
  6
ByLayer
  9
$CECOLOR
 62
   256
  9
$CELTSCALE
 40
1.0
  9
$DISPSILH
 70
     0
  9
$DIMSCALE
 40
1.0
  9
$DIMASZ
 40
4.0
  9
$DIMEXO
 40
1.0
  9
$DIMDLI
 40
3.75
  9
$DIMRND
 40
0.0
  9
$DIMDLE
 40
0.0
  9
$DIMEXE
 40
1.0
  9
$DIMTP
 40
0.0
  9
$DIMTM
 40
0.0
  9
$DIMTXT
 40
3.5277777778
  9
$DIMCEN
 40
2.5
  9
$DIMTSZ
 40
0.0
  9
$DIMTOL
 70
     0
  9
$DIMLIM
 70
     0
  9
$DIMTIH
 70
     1
  9
$DIMTOH
 70
     1
  9
$DIMSE1
 70
     0
  9
$DIMSE2
 70
     0
  9
$DIMTAD
 70
     1
  9
$DIMZIN
 70
     0
  9
$DIMBLK
  1

  9
$DIMASO
 70
     1
  9
$DIMSHO
 70
     1
  9
$DIMPOST
  1

  9
$DIMAPOST
  1

  9
$DIMALT
 70
     0
  9
$DIMALTD
 70
     3
  9
$DIMALTF
 40
0.0393700787
  9
$DIMLFAC
 40
1.0
  9
$DIMTOFL
 70
     1
  9
$DIMTVP
 40
0.0
  9
$DIMTIX
 70
     0
  9
$DIMSOXD
 70
     0
  9
$DIMSAH
 70
     0
  9
$DIMBLK1
  1

  9
$DIMBLK2
  1

  9
$DIMSTYLE
  2
ISO-25
  9
$DIMCLRD
 70
     0
  9
$DIMCLRE
 70
     0
  9
$DIMCLRT
 70
     0
  9
$DIMTFAC
 40
1.0
  9
$DIMGAP
 40
1.524
  9
$DIMJUST
 70
     0
  9
$DIMSD1
 70
     0
  9
$DIMSD2
 70
     0
  9
$DIMTOLJ
 70
     0
  9
$DIMTZIN
 70
     0
  9
$DIMALTZ
 70
     0
  9
$DIMALTTZ
 70
     0
  9
$DIMUPT
 70
     0
  9
$DIMDEC
 70
     2
  9
$DIMTDEC
 70
     2
  9
$DIMALTU
 70
     2
  9
$DIMALTTD
 70
     3
  9
$DIMTXSTY
  7
Standard
  9
$DIMAUNIT
 70
     0
  9
$DIMADEC
 70
     2
  9
$DIMALTRND
 40
0.0
  9
$DIMAZIN
 70
     0
  9
$DIMDSEP
 70
    44
  9
$DIMATFIT
 70
     3
  9
$DIMFRAC
 70
     0
  9
$DIMLDRBLK
  1

  9
$DIMLUNIT
 70
     2
  9
$DIMLWD
 70
    -2
  9
$DIMLWE
 70
    -2
  9
$DIMTMOVE
 70
     0
  9
$LUNITS
 70
     2
  9
$LUPREC
 70
     2
  9
$SKETCHINC
 40
1.0
  9
$FILLETRAD
 40
10.0
  9
$AUNITS
 70
     0
  9
$AUPREC
 70
     2
  9
$MENU
  1
.
  9
$ELEVATION
 40
0.0
  9
$PELEVATION
 40
0.0
  9
$THICKNESS
 40
0.0
  9
$LIMCHECK
 70
     0
  9
$CHAMFERA
 40
0.0
  9
$CHAMFERB
 40
0.0
  9
$CHAMFERC
 40
0.0
  9
$CHAMFERD
 40
0.0
  9
$SKPOLY
 70
     0
  9
$TDCREATE
 40
2457870.399760069
  9
$TDUCREATE
 40
2457870.316426736
  9
$TDUPDATE
 40
2459180.570277072
  9
$TDUUPDATE
 40
2459180.486943739
  9
$TDINDWG
 40
0.0
  9
$TDUSRTIMER
 40
0.0
  9
$USRTIMER
 70
     1
  9
$ANGBASE
 50
0.0
  9
$ANGDIR
 70
     0
  9
$PDMODE
 70
     0
  9
$PDSIZE
 40
-1.0
  9
$PLINEWID
 40
0.0
  9
$SPLFRAME
 70
     0
  9
$SPLINETYPE
 70
     6
  9
$SPLINESEGS
 70
     8
  9
$HANDSEED
  5
8C2
  9
$SURFTAB1
 70
     6
  9
$SURFTAB2
 70
     6
  9
$SURFTYPE
 70
     6
  9
$SURFU
 70
     6
  9
$SURFV
 70
     6
  9
$UCSBASE
  2

  9
$UCSNAME
  2

  9
$UCSORG
 10
0.0
 20
0.0
 30
0.0
  9
$UCSXDIR
 10
1.0
 20
0.0
 30
0.0
  9
$UCSYDIR
 10
0.0
 20
1.0
 30
0.0
  9
$UCSORTHOREF
  2

  9
$UCSORTHOVIEW
 70
     0
  9
$UCSORGTOP
 10
0.0
 20
0.0
 30
0.0
  9
$UCSORGBOTTOM
 10
0.0
 20
0.0
 30
0.0
  9
$UCSORGLEFT
 10
0.0
 20
0.0
 30
0.0
  9
$UCSORGRIGHT
 10
0.0
 20
0.0
 30
0.0
  9
$UCSORGFRONT
 10
0.0
 20
0.0
 30
0.0
  9
$UCSORGBACK
 10
0.0
 20
0.0
 30
0.0
  9
$PUCSBASE
  2

  9
$PUCSNAME
  2

  9
$PUCSORG
 10
0.0
 20
0.0
 30
0.0
  9
$PUCSXDIR
 10
1.0
 20
0.0
 30
0.0
  9
$PUCSYDIR
 10
0.0
 20
1.0
 30
0.0
  9
$PUCSORTHOREF
  2

  9
$PUCSORTHOVIEW
 70
     0
  9
$PUCSORGTOP
 10
0.0
 20
0.0
 30
0.0
  9
$PUCSORGBOTTOM
 10
0.0
 20
0.0
 30
0.0
  9
$PUCSORGLEFT
 10
0.0
 20
0.0
 30
0.0
  9
$PUCSORGRIGHT
 10
0.0
 20
0.0
 30
0.0
  9
$PUCSORGFRONT
 10
0.0
 20
0.0
 30
0.0
  9
$PUCSORGBACK
 10
0.0
 20
0.0
 30
0.0
  9
$USERI1
 70
     0
  9
$USERI2
 70
     0
  9
$USERI3
 70
     0
  9
$USERI4
 70
     0
  9
$USERI5
 70
     0
  9
$USERR1
 40
0.0
  9
$USERR2
 40
0.0
  9
$USERR3
 40
0.0
  9
$USERR4
 40
0.0
  9
$USERR5
 40
0.0
  9
$WORLDVIEW
 70
     1
  9
$SHADEDGE
 70
     3
  9
$SHADEDIF
 70
    70
  9
$TILEMODE
 70
     1
  9
$MAXACTVP
 70
    64
  9
$PINSBASE
 10
0.0
 20
0.0
 30
0.0
  9
$PLIMCHECK
 70
     0
  9
$PEXTMIN
 10
1.000000000000000E+20
 20
1.000000000000000E+20
 30
1.000000000000000E+20
  9
$PEXTMAX
 10
-1.000000000000000E+20
 20
-1.000000000000000E+20
 30
-1.000000000000000E+20
  9
$PLIMMIN
 10
0.0
 20
0.0
  9
$PLIMMAX
 10
0.0
 20
0.0
  9
$UNITMODE
 70
     0
  9
$VISRETAIN
 70
     1
  9
$PLINEGEN
 70
     0
  9
$PSLTSCALE
 70
     1
  9
$TREEDEPTH
 70
  3020
  9
$CMLSTYLE
  2
Standard
  9
$CMLJUST
 70
     0
  9
$CMLSCALE
 40
20.0
  9
$PROXYGRAPHICS
 70
     1
  9
$MEASUREMENT
 70
     1
  9
$CELWEIGHT
370
    -1
  9
$ENDCAPS
280
     0
  9
$JOINSTYLE
280
     0
  9
$LWDISPLAY
290
     1
  9
$INSUNITS
 70
     4
  9
$HYPERLINKBASE
  1

  9
$STYLESHEET
  1

  9
$XEDIT
290
     1
  9
$CEPSNTYPE
380
     0
  9
$PSTYLEMODE
290
     1
  9
$FINGERPRINTGUID
  2
{CDA89E4E-E555-4449-B588-D6F61411094D}
  9
$VERSIONGUID
  2
{FAEB1C32-E019-11D5-929B-00C0DF256EC4}
  9
$EXTNAMES
290
     1
  9
$PSVPSCALE
 40
0.0
  9
$OLESTARTUP
290
     0
  0
ENDSEC
  0
SECTION
  2
CLASSES
  0
CLASS
  1
ACDBDICTIONARYWDFLT
  2
AcDbDictionaryWithDefault
  3
ObjectDBX Classes
 90
        0
280
     0
281
     0
  0
CLASS
  1
VISUALSTYLE
  2
AcDbVisualStyle
  3
ObjectDBX Classes
 90
     4095
280
     0
281
     0
  0
CLASS
  1
MATERIAL
  2
AcDbMaterial
  3
ObjectDBX Classes
 90
     1153
280
     0
281
     0
  0
CLASS
  1
SCALE
  2
AcDbScale
  3
ObjectDBX Classes
 90
     1153
280
     0
281
     0
  0
CLASS
  1
TABLESTYLE
  2
AcDbTableStyle
  3
ObjectDBX Classes
 90
     4095
280
     0
281
     0
  0
CLASS
  1
MLEADERSTYLE
  2
AcDbMLeaderStyle
  3
ACDB_MLEADERSTYLE_CLASS
 90
     4095
280
     0
281
     0
  0
CLASS
  1
SUN
  2
AcDbSun
  3
SCENEOE
 90
     1153
280
     0
281
     0
  0
CLASS
  1
ACDBPLACEHOLDER
  2
AcDbPlaceHolder
  3
ObjectDBX Classes
 90
        0
280
     0
281
     0
  0
CLASS
  1
LAYOUT
  2
AcDbLayout
  3
ObjectDBX Classes
 90
        0
280
     0
281
     0
  0
CLASS
  1
RASTERVARIABLES
  2
AcDbRasterVariables
  3
ISM
 90
        0
280
     0
281
     0
  0
CLASS
  1
DICTIONARYVAR
  2
AcDbDictionaryVar
  3
ObjectDBX Classes
 90
        0
280
     0
281
     0
  0
ENDSEC
  0
SECTION
  2
TABLES
  0
TABLE
  2
VPORT
  5
8
330
0
100
AcDbSymbolTable
 70
     1
  0
VPORT
  5
29
330
8
100
AcDbSymbolTableRecord
100
AcDbViewportTableRecord
  2
*Active
 70
     0
 10
0.0
 20
0.0
 11
1.0
 21
1.0
 12
198.6203505901835
 22
671.7746546852511
 13
0.0
 23
0.0
 14
10.0
 24
10.0
 15
10.0
 25
10.0
 16
0.0
 26
0.0
 36
1.0
 17
0.0
 27
0.0
 37
0.0
 40
1550.605920162986
 41
1.912558139534884
 42
50.0
 43
0.0
 44
0.0
 50
0.0
 51
0.0
 71
    16
 72
  2000
 73
     1
 74
     3
 75
     0
 76
     0
 77
     0
 78
     0
281
     0
 65
     1
110
0.0
120
0.0
130
0.0
111
1.0
121
0.0
131
0.0
112
0.0
122
1.0
132
0.0
 79
     0
146
0.0
  0
ENDTAB
  0
TABLE
  2
LTYPE
  5
5
330
0
100
AcDbSymbolTable
 70
     6
  0
LTYPE
  5
14
330
5
100
AcDbSymbolTableRecord
100
AcDbLinetypeTableRecord
  2
ByBlock
 70
     0
  3

 72
    65
 73
     0
 40
0.0
  0
LTYPE
  5
15
330
5
100
AcDbSymbolTableRecord
100
AcDbLinetypeTableRecord
  2
ByLayer
 70
     0
  3

 72
    65
 73
     0
 40
0.0
  0
LTYPE
  5
16
330
5
100
AcDbSymbolTableRecord
100
AcDbLinetypeTableRecord
  2
Continuous
 70
     0
  3
Solid line
 72
    65
 73
     0
 40
0.0
  0
LTYPE
  5
6E
330
5
100
AcDbSymbolTableRecord
100
AcDbLinetypeTableRecord
  2
HIDDEN
 70
     0
  3
Hidden __ __ __ __ __ __ __ __ __ __ __ __ __ __
 72
    65
 73
     2
 40
1.905
 49
1.27
 74
     0
 49
-0.635
 74
     0
  0
LTYPE
  5
6F
330
5
100
AcDbSymbolTableRecord
100
AcDbLinetypeTableRecord
  2
PHANTOM
 70
     0
  3
Phantom ______  __  __  ______  __  __  ______
 72
    65
 73
     6
 40
12.7
 49
6.35
 74
     0
 49
-1.27
 74
     0
 49
1.27
 74
     0
 49
-1.27
 74
     0
 49
1.27
 74
     0
 49
-1.27
 74
     0
  0
LTYPE
  5
70
330
5
100
AcDbSymbolTableRecord
100
AcDbLinetypeTableRecord
  2
CENTER
 70
     0
  3
Center ____ _ ____ _ ____ _ ____ _ ____ _ ____
 72
    65
 73
     4
 40
10.16
 49
6.35
 74
     0
 49
-1.27
 74
     0
 49
1.27
 74
     0
 49
-1.27
 74
     0
  0
LTYPE
  5
71
330
5
100
AcDbSymbolTableRecord
100
AcDbLinetypeTableRecord
  2
CENTERX2
 70
     0
  3
Center (2x) ________  __  ________  __  _____
 72
    65
 73
     4
 40
20.32
 49
12.7
 74
     0
 49
-2.54
 74
     0
 49
2.54
 74
     0
 49
-2.54
 74
     0
  0
LTYPE
  5
72
330
5
100
AcDbSymbolTableRecord
100
AcDbLinetypeTableRecord
  2
DOT2
 70
     0
  3
Dot (.5x) ........................................
 72
    65
 73
     2
 40
0.635
 49
0.0
 74
     0
 49
-0.635
 74
     0
  0
ENDTAB
  0
TABLE
  2
LAYER
  5
2
330
0
100
AcDbSymbolTable
 70
     2
  0
LAYER
  5
10
330
2
100
AcDbSymbolTableRecord
100
AcDbLayerTableRecord
  2
0
 70
     0
 62
     7
  6
Continuous
370
    -3
390
F
  0
LAYER
  5
73
330
2
100
AcDbSymbolTableRecord
100
AcDbLayerTableRecord
  2
LENKIMO
 70
     0
 62
     1
  6
CENTERX2
370
    -3
390
F
  0
ENDTAB
  0
TABLE
  2
STYLE
  5
3
330
0
100
AcDbSymbolTable
 70
     1
  0
STYLE
  5
11
330
3
100
AcDbSymbolTableRecord
100
AcDbTextStyleTableRecord
  2
Standard
 70
     0
 40
0.0
 41
1.0
 50
0.0
 71
     0
 42
3.5277777778
  3
txt
  4

  0
ENDTAB
  0
TABLE
  2
VIEW
  5
6
330
0
100
AcDbSymbolTable
 70
     0
  0
ENDTAB
  0
TABLE
  2
UCS
  5
7
330
0
100
AcDbSymbolTable
 70
     0
  0
ENDTAB
  0
TABLE
  2
APPID
  5
9
330
0
100
AcDbSymbolTable
 70
     1
  0
APPID
  5
12
330
9
100
AcDbSymbolTableRecord
100
AcDbRegAppTableRecord
  2
ACAD
 70
     0
  0
ENDTAB
  0
TABLE
  2
DIMSTYLE
  5
A
330
0
100
AcDbSymbolTable
 70
     5
100
AcDbDimStyleTable
  0
DIMSTYLE
105
27
330
A
100
AcDbSymbolTableRecord
100
AcDbDimStyleTableRecord
  2
ISO-25
 70
     0
 41
2.5
 42
0.625
 43
3.75
 44
1.25
 73
     0
 74
     0
 77
     1
 78
     8
140
2.5
141
2.5
143
0.0393700787
147
0.625
171
     3
172
     1
178
     0
271
     2
272
     2
274
     3
278
    44
283
     0
284
     8
340
11
  0
DIMSTYLE
105
86D
330
A
100
AcDbSymbolTableRecord
100
AcDbDimStyleTableRecord
  2
SLDDIMSTYLE1
 70
     0
 41
4.0
 44
0.0
 45
0.000000001
 73
     0
 77
     1
 78
    12
140
2.6458333333
144
10.0
147
0.6614583333000001
173
     1
178
     0
340
11
  0
DIMSTYLE
105
86E
330
A
100
AcDbSymbolTableRecord
100
AcDbDimStyleTableRecord
  2
SLDDIMSTYLE2
 70
     0
 41
4.0
 44
0.0
 45
0.000000001
 73
     0
 77
     1
 78
    12
140
2.6458333333
144
10.0
147
0.6614583333000001
173
     1
178
     0
340
11
  0
DIMSTYLE
105
86F
330
A
100
AcDbSymbolTableRecord
100
AcDbDimStyleTableRecord
  2
SLDDIMSTYLE3
 70
     0
 41
4.0
 44
0.0
 45
0.000000001
146
4.0
147
0.0
173
     1
178
     0
340
11
  0
DIMSTYLE
105
870
330
A
100
AcDbSymbolTableRecord
100
AcDbDimStyleTableRecord
  2
SLDDIMSTYLE4
 70
     0
 41
4.0
 44
0.0
 73
     0
 77
     1
 78
    12
140
2.6458333333
144
7.5
147
0.6614583333000001
173
     1
178
     0
340
11
  0
ENDTAB
  0
TABLE
  2
BLOCK_RECORD
  5
1
330
0
100
AcDbSymbolTable
 70
    12
  0
BLOCK_RECORD
  5
1F
102
{ACAD_XDICTIONARY
360
8BF
102
}
330
1
100
AcDbSymbolTableRecord
100
AcDbBlockTableRecord
  2
*Model_Space
340
22
  0
BLOCK_RECORD
  5
1B
330
1
100
AcDbSymbolTableRecord
100
AcDbBlockTableRecord
  2
*Paper_Space
340
1E
  0
BLOCK_RECORD
  5
23
330
1
100
AcDbSymbolTableRecord
100
AcDbBlockTableRecord
  2
*Paper_Space0
340
26
  0
BLOCK_RECORD
  5
74
330
1
100
AcDbSymbolTableRecord
100
AcDbBlockTableRecord
  2
Block1_1
340
0
  0
BLOCK_RECORD
  5
12B
330
1
100
AcDbSymbolTableRecord
100
AcDbBlockTableRecord
  2
Projekciju vaizdavimas_1
340
0
  0
BLOCK_RECORD
  5
136
330
1
100
AcDbSymbolTableRecord
100
AcDbBlockTableRecord
  2
Block1
340
0
  0
BLOCK_RECORD
  5
1ED
330
1
100
AcDbSymbolTableRecord
100
AcDbBlockTableRecord
  2
Projekciju vaizdavimas
340
0
  0
BLOCK_RECORD
  5
1F8
330
1
100
AcDbSymbolTableRecord
100
AcDbBlockTableRecord
  2
Block3
340
0
  0
BLOCK_RECORD
  5
2AF
330
1
100
AcDbSymbolTableRecord
100
AcDbBlockTableRecord
  2
Block4
340
0
  0
BLOCK_RECORD
  5
87B
330
1
100
AcDbSymbolTableRecord
100
AcDbBlockTableRecord
  2
*U8
340
0
102
{BLKREFS
331
87A
331
8A6
102
}
  0
BLOCK_RECORD
  5
886
330
1
100
AcDbSymbolTableRecord
100
AcDbBlockTableRecord
  2
*U9
340
0
102
{BLKREFS
331
885
331
8AD
102
}
  0
BLOCK_RECORD
  5
893
330
1
100
AcDbSymbolTableRecord
100
AcDbBlockTableRecord
  2
*U10
340
0
102
{BLKREFS
331
892
331
8B6
102
}
  0
BLOCK_RECORD
  5
898
330
1
100
AcDbSymbolTableRecord
100
AcDbBlockTableRecord
  2
*U11
340
0
102
{BLKREFS
331
897
331
8B7
102
}
  0
BLOCK_RECORD
  5
89D
330
1
100
AcDbSymbolTableRecord
100
AcDbBlockTableRecord
  2
*U12
340
0
102
{BLKREFS
331
89C
331
8B8
102
}
  0
ENDTAB
  0
ENDSEC
  0
SECTION
  2
BLOCKS
  0
BLOCK
  5
20
330
1F
100
AcDbEntity
  8
0
100
AcDbBlockBegin
  2
*Model_Space
 70
     0
 10
0.0
 20
0.0
 30
0.0
  3
*Model_Space
  1

  0
ENDBLK
  5
21
330
1F
100
AcDbEntity
  8
0
100
AcDbBlockEnd
  0
BLOCK
  5
1C
330
1B
100
AcDbEntity
 67
     1
  8
0
100
AcDbBlockBegin
  2
*Paper_Space
 70
     0
 10
0.0
 20
0.0
 30
0.0
  3
*Paper_Space
  1

  0
ENDBLK
  5
1D
330
1B
100
AcDbEntity
 67
     1
  8
0
100
AcDbBlockEnd
  0
BLOCK
  5
24
330
23
100
AcDbEntity
  8
0
100
AcDbBlockBegin
  2
*Paper_Space0
 70
     0
 10
0.0
 20
0.0
 30
0.0
  3
*Paper_Space0
  1

  0
ENDBLK
  5
25
330
23
100
AcDbEntity
  8
0
100
AcDbBlockEnd
  0
BLOCK
  5
75
330
74
100
AcDbEntity
  8
0
100
AcDbBlockBegin
  2
Block1_1
 70
     0
 10
0.0
 20
0.0
 30
0.0
  3
Block1_1
  1

  0
ARC
  5
77
330
74
100
AcDbEntity
  8
0
  6
Continuous
 62
   179
100
AcDbCircle
 10
7867.6649029635
 20
2430.1355419087
 30
0.0
 40
931.6078627493895
100
AcDbArc
 50
232.1189098069
 51
101.3462704492
  0
ARC
  5
78
330
74
100
AcDbEntity
  8
0
  6
Continuous
 62
   179
100
AcDbCircle
 10
7943.5514462269
 20
2435.9613946537
 30
0.0
 40
1140.079096555486
100
AcDbArc
 50
297.434182935
 51
62.17203318890002
  0
ARC
  5
79
330
74
100
AcDbEntity
  8
0
  6
Continuous
 62
   179
100
AcDbCircle
 10
20001.4103066854
 20
6936.2583481763
 30
0.0
 40
1270.831290716854
100
AcDbArc
 50
3.4391112699
 51
76.4197578922
  0
ARC
  5
7A
330
74
100
AcDbEntity
  8
0
  6
Continuous
 62
   179
100
AcDbCircle
 10
19239.4822949422
 20
3782.0667000728
 30
0.0
 40
4515.74411667143
100
AcDbArc
 50
76.4197578923
 51
91.6754644339
  0
ARC
  5
7B
330
74
100
AcDbEntity
  8
0
  6
Continuous
 62
   179
100
AcDbCircle
 10
18683.9539720184
 20
2160.1911622497
 30
0.0
 40
2139.476369555804
100
AcDbArc
 50
270.3210228954001
 51
307.7127911617
  0
ARC
  5
7C
330
74
100
AcDbEntity
  8
0
  6
Continuous
 62
   179
100
AcDbCircle
 10
18746.0422061702
 20
1962.8216117468
 30
0.0
 40
1946.678009873842
100
AcDbArc
 50
309.8210667380999
 51
331.7017265911999
  0
ARC
  5
7D
330
74
100
AcDbEntity
  8
0
  6
Continuous
 62
   179
100
AcDbCircle
 10
17863.1917469523
 20
2438.1532894658
 30
0.0
 40
2949.35698999881
100
AcDbArc
 50
331.7017265911999
 51
356.0927915539
  0
ARC
  5
7E
330
74
100
AcDbEntity
  8
0
  6
Continuous
 62
   179
100
AcDbCircle
 10
16755.7856245826
 20
6709.226497343
 30
0.0
 40
4524.342739831098
100
AcDbArc
 50
353.5830630921
 51
3.8434115591
  0
ARC
  5
7F
330
74
100
AcDbEntity
  8
0
  6
Continuous
 62
   179
100
AcDbCircle
 10
19039.3213693035
 20
6348.9928357667
 30
0.0
 40
506.1072723730909
100
AcDbArc
 50
52.45518083769999
 51
82.2716960779
  0
ARC
  5
80
330
74
100
AcDbEntity
  8
0
  6
Continuous
 62
   179
100
AcDbCircle
 10
19108.0528552878
 20
6495.6270812425
 30
0.0
 40
349.7025539282703
100
AcDbArc
 50
10.4012874263
 51
46.7340603611
  0
ARC
  5
81
330
74
100
AcDbEntity
  8
0
  6
Continuous
 62
   179
100
AcDbCircle
 10
17417.0070420698
 20
6262.2496105517
 30
0.0
 40
2056.490362340239
100
AcDbArc
 50
355.475249592
 51
8.290034904
  0
ARC
  5
82
330
74
100
AcDbEntity
  8
0
  6
Continuous
 62
   179
100
AcDbCircle
 10
16921.0810184775
 20
2478.8840573259
 30
0.0
 40
2122.330793892779
100
AcDbArc
 50
339.2065439429
 51
352.3366543813
  0
ARC
  5
83
330
74
100
AcDbEntity
  8
0
  6
Continuous
 62
   179
100
AcDbCircle
 10
18500.143747488
 20
1898.8589115903
 30
0.0
 40
440.5904503964751
100
AcDbArc
 50
293.838270217
 51
336.8232513296001
  0
ARC
  5
84
330
74
100
AcDbEntity
  8
0
  6
Continuous
 62
   179
100
AcDbCircle
 10
18201.1477532386
 20
2813.3138324813
 30
0.0
 40
1401.173285533761
100
AcDbArc
 50
267.1686990927
 51
289.9057704419
  0
ARC
  5
85
330
74
100
AcDbEntity
  8
0
  6
Continuous
 62
   179
100
AcDbCircle
 10
18751.2701169541
 20
4514.9970927066
 30
0.0
 40
2362.499275286643
100
AcDbArc
 50
81.3304997955
 51
90.0
  0
ARC
  5
86
330
74
100
AcDbEntity
  8
0
  6
Continuous
 62
   179
100
AcDbCircle
 10
6720.6044375296
 20
9296.0579653158
 30
0.0
 40
7520.148763137153
100
AcDbArc
 50
220.017667739
 51
227.0143029097
  0
ARC
  5
87
330
74
100
AcDbEntity
  8
0
  6
Continuous
 62
   179
100
AcDbCircle
 10
2021.3892535935
 20
2163.6755564521
 30
0.0
 40
795.0570373035339
100
AcDbArc
 50
316.8708555891
 51
354.9781479006
  0
ARC
  5
88
330
74
100
AcDbEntity
  8
0
  6
Continuous
 62
   179
100
AcDbCircle
 10
2182.9124170468
 20
2011.9889486322
 30
0.0
 40
573.4753329004777
100
AcDbArc
 50
268.8486412909
 51
316.8986890901
  0
ARC
  5
89
330
74
100
AcDbEntity
  8
0
  6
Continuous
 62
   179
100
AcDbCircle
 10
10525.696072633
 20
12531.6259047731
 30
0.0
 40
10618.65239809051
100
AcDbArc
 50
220.6325257886
 51
226.7030345034
  0
ARC
  5
8A
330
74
100
AcDbEntity
  8
0
  6
Continuous
 62
   179
100
AcDbCircle
 10
2962.700769446
 20
6223.5867799529
 30
0.0
 40
723.1072200381735
100
AcDbArc
 50
137.8203941731
 51
175.3475443105
  0
ARC
  5
8B
330
74
100
AcDbEntity
  8
0
  6
Continuous
 62
   179
100
AcDbCircle
 10
2808.3239355685
 20
6360.2864243508
 30
0.0
 40
516.9247077280753
100
AcDbArc
 50
89.4379852016
 51
137.5591461504
  0
ARC
  5
8C
330
74
100
AcDbEntity
  8
0
  6
Continuous
 62
   179
100
AcDbCircle
 10
24439.2811878643
 20
2435.9613946539
 30
0.0
 40
1140.079096554877
100
AcDbArc
 50
297.4341829348999
 51
62.17203318890002
  0
ARC
  5
8D
330
74
100
AcDbEntity
  8
0
  6
Continuous
 62
   179
100
AcDbCircle
 10
24363.3946446009
 20
2430.1355419089
 30
0.0
 40
931.6078627500976
100
AcDbArc
 50
232.118909807
 51
101.3462704493
  0
LINE
  5
8E
330
74
100
AcDbEntity
  8
0
  6
Continuous
 62
   179
100
AcDbLine
 10
10088.0321784074
 20
0.0000125144
 30
0.0
 11
9858.2217949557
 21
8289.6552921115
 31
0.0
  0
LINE
  5
8F
330
74
100
AcDbEntity
  8
0
  6
Continuous
 62
   179
100
AcDbLine
 10
9858.2217949557
 20
8289.6552921115
 30
0.0
 11
7491.0265293557
 21
8289.6552921115
 31
0.0
  0
LINE
  5
90
330
74
100
AcDbEntity
  8
0
  6
Continuous
 62
   179
100
AcDbLine
 10
7491.0265293557
 20
8289.6552921115
 30
0.0
 11
5122.8131677553
 21
0.0000125144
 31
0.0
  0
LINE
  5
91
330
74
100
AcDbEntity
  8
0
  6
Continuous
 62
   179
100
AcDbLine
 10
5122.8131677553
 20
0.0000125144
 30
0.0
 11
6903.4160581553
 21
0.0000125144
 31
0.0
  0
LINE
  5
92
330
74
100
AcDbEntity
  8
0
  6
Continuous
 62
   179
100
AcDbLine
 10
6903.4160581553
 20
0.0000125144
 30
0.0
 11
7295.6346285553
 21
1694.8297721115
 31
0.0
  0
LINE
  5
93
330
74
100
AcDbEntity
  8
0
  6
Continuous
 62
   179
100
AcDbLine
 10
7684.3822381561
 20
3343.5361521108
 30
0.0
 11
8520.8837909553
 21
7008.8707569115
 31
0.0
  0
LINE
  5
94
330
74
100
AcDbEntity
  8
0
  6
Continuous
 62
   179
100
AcDbLine
 10
8520.8837909553
 20
7008.8707569115
 30
0.0
 11
8475.7613005553
 21
3444.1940153115
 31
0.0
  0
LINE
  5
95
330
74
100
AcDbEntity
  8
0
  6
Continuous
 62
   179
100
AcDbLine
 10
8468.8193789565
 20
1424.0948297112
 30
0.0
 11
8468.8193789565
 21
0.0000125144
 31
0.0
  0
LINE
  5
96
330
74
100
AcDbEntity
  8
0
  6
Continuous
 62
   179
100
AcDbLine
 10
8468.8193789565
 20
0.0000125144
 30
0.0
 11
10088.0321784074
 21
0.0000125144
 31
0.0
  0
LINE
  5
97
330
74
100
AcDbEntity
  8
0
  6
Continuous
 62
   179
100
AcDbLine
 10
19107.4500497519
 20
8295.8802112275
 30
0.0
 11
16935.7898769541
 21
8295.8802112275
 31
0.0
  0
LINE
  5
98
330
74
100
AcDbEntity
  8
0
  6
Continuous
 62
   179
100
AcDbLine
 10
16935.7898769541
 20
8295.8802112275
 30
0.0
 11
15991.7401521541
 21
0.0000288275
 31
0.0
  0
LINE
  5
99
330
74
100
AcDbEntity
  8
0
  6
Continuous
 62
   179
100
AcDbLine
 10
15991.7401521541
 20
0.0000288275
 30
0.0
 11
17855.6331985541
 21
0.0000288275
 31
0.0
  0
LINE
  5
9A
330
74
100
AcDbEntity
  8
0
  6
Continuous
 62
   179
100
AcDbLine
 10
17855.6331985541
 20
0.0000288275
 30
0.0
 11
18695.9411953541
 21
20.7483744275
 31
0.0
  0
LINE
  5
9B
330
74
100
AcDbEntity
  8
0
  6
Continuous
 62
   179
100
AcDbLine
 10
20805.6935873772
 20
2237.1817154785
 30
0.0
 11
21251.7830177772
 21
6203.5737826763
 31
0.0
  0
LINE
  5
9C
330
74
100
AcDbEntity
  8
0
  6
Continuous
 62
   179
100
AcDbLine
 10
19024.4566673541
 20
2195.8666048275
 30
0.0
 11
19467.0880401544
 21
6100.0136352237
 31
0.0
  0
LINE
  5
9D
330
74
100
AcDbEntity
  8
0
  6
Continuous
 62
   179
100
AcDbLine
 10
17907.5040625541
 20
1417.8036448275
 30
0.0
 11
18131.936218492
 21
1413.8509571068
 31
0.0
  0
LINE
  5
9E
330
74
100
AcDbEntity
  8
0
  6
Continuous
 62
   179
100
AcDbLine
 10
18529.9544305541
 20
6877.4963679933
 30
0.0
 11
17907.5040625541
 21
1417.8036448275
 31
0.0
  0
LINE
  5
9F
330
74
100
AcDbEntity
  8
0
  6
Continuous
 62
   179
100
AcDbLine
 10
18751.2701169541
 20
6877.4963679933
 30
0.0
 11
18529.9544305541
 21
6877.4963679933
 31
0.0
  0
LINE
  5
A0
330
74
100
AcDbEntity
  8
0
  6
Continuous
 62
   179
100
AcDbLine
 10
11134.6446741053
 20
0.0
 30
0.0
 11
14807.1018453053
 21
0.0
 31
0.0
  0
LINE
  5
A1
330
74
100
AcDbEntity
  8
0
  6
Continuous
 62
   179
100
AcDbLine
 10
14807.1018453053
 20
0.0
 30
0.0
 11
14990.3788981053
 21
1625.287072
 31
0.0
  0
LINE
  5
A2
330
74
100
AcDbEntity
  8
0
  6
Continuous
 62
   179
100
AcDbLine
 10
14990.3788981053
 20
1625.287072
 30
0.0
 11
13071.1569301053
 21
1625.287072
 31
0.0
  0
LINE
  5
A3
330
74
100
AcDbEntity
  8
0
  6
Continuous
 62
   179
100
AcDbLine
 10
13071.1569301053
 20
1625.287072
 30
0.0
 11
13828.4715445053
 21
8295.8801824
 31
0.0
  0
LINE
  5
A4
330
74
100
AcDbEntity
  8
0
  6
Continuous
 62
   179
100
AcDbLine
 10
13828.4715445053
 20
8295.8801824
 30
0.0
 11
12075.2363413053
 21
8295.8801824
 31
0.0
  0
LINE
  5
A5
330
74
100
AcDbEntity
  8
0
  6
Continuous
 62
   179
100
AcDbLine
 10
12075.2363413053
 20
8295.8801824
 30
0.0
 11
11134.6446741053
 21
0.0
 31
0.0
  0
LINE
  5
A6
330
74
100
AcDbEntity
  8
0
  6
Continuous
 62
   179
100
AcDbLine
 10
4907.4740560005
 20
6857.0185622947
 30
0.0
 11
4882.7391856278
 21
7041.1497513646
 31
0.0
  0
LINE
  5
A7
330
74
100
AcDbEntity
  8
0
  6
Continuous
 62
   179
100
AcDbLine
 10
4882.7391856278
 20
7041.1497513646
 30
0.0
 11
4840.84097804
 21
7222.1279289072
 31
0.0
  0
LINE
  5
A8
330
74
100
AcDbEntity
  8
0
  6
Continuous
 62
   179
100
AcDbLine
 10
4840.84097804
 20
7222.1279289072
 30
0.0
 11
4779.230404759
 21
7397.3516386623
 31
0.0
  0
LINE
  5
A9
330
74
100
AcDbEntity
  8
0
  6
Continuous
 62
   179
100
AcDbLine
 10
4779.230404759
 20
7397.3516386623
 30
0.0
 11
4695.8753846469
 21
7563.306056288
 31
0.0
  0
LINE
  5
AA
330
74
100
AcDbEntity
  8
0
  6
Continuous
 62
   179
100
AcDbLine
 10
4695.8753846469
 20
7563.306056288
 30
0.0
 11
4590.0094760133
 21
7715.8622667097
 31
0.0
  0
LINE
  5
AB
330
74
100
AcDbEntity
  8
0
  6
Continuous
 62
   179
100
AcDbLine
 10
4590.0094760133
 20
7715.8622667097
 30
0.0
 11
4462.7758841487
 21
7851.1049960358
 31
0.0
  0
LINE
  5
AC
330
74
100
AcDbEntity
  8
0
  6
Continuous
 62
   179
100
AcDbLine
 10
4462.7758841487
 20
7851.1049960358
 30
0.0
 11
4317.19779369
 21
7966.3918164371
 31
0.0
  0
LINE
  5
AD
330
74
100
AcDbEntity
  8
0
  6
Continuous
 62
   179
100
AcDbLine
 10
4317.19779369
 20
7966.3918164371
 30
0.0
 11
4157.3549470669
 21
8060.9636993174
 31
0.0
  0
LINE
  5
AE
330
74
100
AcDbEntity
  8
0
  6
Continuous
 62
   179
100
AcDbLine
 10
4157.3549470669
 20
8060.9636993174
 30
0.0
 11
3942.3832434805
 21
8152.0001345594
 31
0.0
  0
LINE
  5
AF
330
74
100
AcDbEntity
  8
0
  6
Continuous
 62
   179
100
AcDbLine
 10
3942.3832434805
 20
8152.0001345594
 30
0.0
 11
3717.7379879586
 21
8215.7306159908
 31
0.0
  0
LINE
  5
B0
330
74
100
AcDbEntity
  8
0
  6
Continuous
 62
   179
100
AcDbLine
 10
3717.7379879586
 20
8215.7306159908
 30
0.0
 11
3487.8010416052
 21
8256.6415379559
 31
0.0
  0
LINE
  5
B1
330
74
100
AcDbEntity
  8
0
  6
Continuous
 62
   179
100
AcDbLine
 10
3487.8010416052
 20
8256.6415379559
 30
0.0
 11
3255.2826646592
 21
8278.7971759128
 31
0.0
  0
LINE
  5
B2
330
74
100
AcDbEntity
  8
0
  6
Continuous
 62
   179
100
AcDbLine
 10
3255.2826646592
 20
8278.7971759128
 30
0.0
 11
3021.7939564
 21
8285.5640922951
 31
0.0
  0
LINE
  5
B3
330
74
100
AcDbEntity
  8
0
  6
Continuous
 62
   179
100
AcDbLine
 10
3021.7939564
 20
8285.5640922951
 30
0.0
 11
2764.7286656624
 21
8276.8167344558
 31
0.0
  0
LINE
  5
B4
330
74
100
AcDbEntity
  8
0
  6
Continuous
 62
   179
100
AcDbLine
 10
2764.7286656624
 20
8276.8167344558
 30
0.0
 11
2509.0566231212
 21
8248.8448730413
 31
0.0
  0
LINE
  5
B5
330
74
100
AcDbEntity
  8
0
  6
Continuous
 62
   179
100
AcDbLine
 10
2509.0566231212
 20
8248.8448730413
 30
0.0
 11
2256.7624741697
 21
8198.9693632548
 31
0.0
  0
LINE
  5
B6
330
74
100
AcDbEntity
  8
0
  6
Continuous
 62
   179
100
AcDbLine
 10
2256.7624741697
 20
8198.9693632548
 30
0.0
 11
2010.5862549102
 21
8124.6401609584
 31
0.0
  0
LINE
  5
B7
330
74
100
AcDbEntity
  8
0
  6
Continuous
 62
   179
100
AcDbLine
 10
2010.5862549102
 20
8124.6401609584
 30
0.0
 11
1823.7042907144
 21
8047.7718170144
 31
0.0
  0
LINE
  5
B8
330
74
100
AcDbEntity
  8
0
  6
Continuous
 62
   179
100
AcDbLine
 10
1823.7042907144
 20
8047.7718170144
 30
0.0
 11
1644.6605427625
 21
7954.1022052786
 31
0.0
  0
LINE
  5
B9
330
74
100
AcDbEntity
  8
0
  6
Continuous
 62
   179
100
AcDbLine
 10
1644.6605427625
 20
7954.1022052786
 30
0.0
 11
1475.390327491
 21
7843.7545704421
 31
0.0
  0
LINE
  5
BA
330
74
100
AcDbEntity
  8
0
  6
Continuous
 62
   179
100
AcDbLine
 10
1475.390327491
 20
7843.7545704421
 30
0.0
 11
1317.6231711996
 21
7717.507163895
 31
0.0
  0
LINE
  5
BB
330
74
100
AcDbEntity
  8
0
  6
Continuous
 62
   179
100
AcDbLine
 10
1317.6231711996
 20
7717.507163895
 30
0.0
 11
1139.538084005
 21
7540.9583629978
 31
0.0
  0
LINE
  5
BC
330
74
100
AcDbEntity
  8
0
  6
Continuous
 62
   179
100
AcDbLine
 10
1139.538084005
 20
7540.9583629978
 30
0.0
 11
983.4661868123
 21
7344.6865403276
 31
0.0
  0
LINE
  5
BD
330
74
100
AcDbEntity
  8
0
  6
Continuous
 62
   179
100
AcDbLine
 10
983.4661868123
 20
7344.6865403276
 30
0.0
 11
851.5325681984
 21
7131.4315088069
 31
0.0
  0
LINE
  5
BE
330
74
100
AcDbEntity
  8
0
  6
Continuous
 62
   179
100
AcDbLine
 10
851.5325681984
 20
7131.4315088069
 30
0.0
 11
744.4774564036
 21
6904.647070365
 31
0.0
  0
LINE
  5
BF
330
74
100
AcDbEntity
  8
0
  6
Continuous
 62
   179
100
AcDbLine
 10
744.4774564036
 20
6904.647070365
 30
0.0
 11
658.3392621499
 21
6656.4327422403
 31
0.0
  0
LINE
  5
C0
330
74
100
AcDbEntity
  8
0
  6
Continuous
 62
   179
100
AcDbLine
 10
658.3392621499
 20
6656.4327422403
 30
0.0
 11
596.9943576213
 21
6400.9335325463
 31
0.0
  0
LINE
  5
C1
330
74
100
AcDbEntity
  8
0
  6
Continuous
 62
   179
100
AcDbLine
 10
596.9943576213
 20
6400.9335325463
 30
0.0
 11
557.9730775995
 21
6141.0651554946
 31
0.0
  0
LINE
  5
C2
330
74
100
AcDbEntity
  8
0
  6
Continuous
 62
   179
100
AcDbLine
 10
557.9730775995
 20
6141.0651554946
 30
0.0
 11
538.0293793386
 21
5893.0807139359
 31
0.0
  0
LINE
  5
C3
330
74
100
AcDbEntity
  8
0
  6
Continuous
 62
   179
100
AcDbLine
 10
538.0293793386
 20
5893.0807139359
 30
0.0
 11
537.9155556826
 21
5644.3161034396
 31
0.0
  0
LINE
  5
C4
330
74
100
AcDbEntity
  8
0
  6
Continuous
 62
   179
100
AcDbLine
 10
537.9155556826
 20
5644.3161034396
 30
0.0
 11
561.0465619986
 21
5396.6565041751
 31
0.0
  0
LINE
  5
C5
330
74
100
AcDbEntity
  8
0
  6
Continuous
 62
   179
100
AcDbLine
 10
561.0465619986
 20
5396.6565041751
 30
0.0
 11
610.8365836731
 21
5152.9862283491
 31
0.0
  0
LINE
  5
C6
330
74
100
AcDbEntity
  8
0
  6
Continuous
 62
   179
100
AcDbLine
 10
610.8365836731
 20
5152.9862283491
 30
0.0
 11
670.4957765389
 21
4966.8752015955
 31
0.0
  0
LINE
  5
C7
330
74
100
AcDbEntity
  8
0
  6
Continuous
 62
   179
100
AcDbLine
 10
670.4957765389
 20
4966.8752015955
 30
0.0
 11
749.0385092576
 21
4787.922755338
 31
0.0
  0
LINE
  5
C8
330
74
100
AcDbEntity
  8
0
  6
Continuous
 62
   179
100
AcDbLine
 10
749.0385092576
 20
4787.922755338
 30
0.0
 11
846.3298658912
 21
4618.4358151253
 31
0.0
  0
LINE
  5
C9
330
74
100
AcDbEntity
  8
0
  6
Continuous
 62
   179
100
AcDbLine
 10
846.3298658912
 20
4618.4358151253
 30
0.0
 11
961.3271095996
 21
4460.4233554942
 31
0.0
  0
LINE
  5
CA
330
74
100
AcDbEntity
  8
0
  6
Continuous
 62
   179
100
AcDbLine
 10
1593.2484263997
 20
3794.8892026942
 30
0.0
 11
2342.8146692
 21
3099.1034974946
 31
0.0
  0
LINE
  5
CB
330
74
100
AcDbEntity
  8
0
  6
Continuous
 62
   179
100
AcDbLine
 10
2342.8146692
 20
3099.1034974946
 30
0.0
 11
2457.4150864402
 21
2985.4804965343
 31
0.0
  0
LINE
  5
CC
330
74
100
AcDbEntity
  8
0
  6
Continuous
 62
   179
100
AcDbLine
 10
2457.4150864402
 20
2985.4804965343
 30
0.0
 11
2562.4777930784
 21
2863.0062246075
 31
0.0
  0
LINE
  5
CD
330
74
100
AcDbEntity
  8
0
  6
Continuous
 62
   179
100
AcDbLine
 10
2562.4777930784
 20
2863.0062246075
 30
0.0
 11
2654.9628244148
 21
2730.8077708033
 31
0.0
  0
LINE
  5
CE
330
74
100
AcDbEntity
  8
0
  6
Continuous
 62
   179
100
AcDbLine
 10
2654.9628244148
 20
2730.8077708033
 30
0.0
 11
2730.9070108725
 21
2588.5028322591
 31
0.0
  0
LINE
  5
CF
330
74
100
AcDbEntity
  8
0
  6
Continuous
 62
   179
100
AcDbLine
 10
2730.9070108725
 20
2588.5028322591
 30
0.0
 11
2787.6392767372
 21
2429.3959416825
 31
0.0
  0
LINE
  5
D0
330
74
100
AcDbEntity
  8
0
  6
Continuous
 62
   179
100
AcDbLine
 10
2787.6392767372
 20
2429.3959416825
 30
0.0
 11
2816.0412804487
 21
2262.9265767885
 31
0.0
  0
LINE
  5
D1
330
74
100
AcDbEntity
  8
0
  6
Continuous
 62
   179
100
AcDbLine
 10
2816.0412804487
 20
2262.9265767885
 30
0.0
 11
2813.3943732
 21
2094.0797010946
 31
0.0
  0
LINE
  5
D2
330
74
100
AcDbEntity
  8
0
  6
Continuous
 62
   179
100
AcDbLine
 10
2171.3892056002
 20
1438.629399097
 30
0.0
 11
2081.3271648151
 21
1444.5220285234
 31
0.0
  0
LINE
  5
D3
330
74
100
AcDbEntity
  8
0
  6
Continuous
 62
   179
100
AcDbLine
 10
2081.3271648151
 20
1444.5220285234
 30
0.0
 11
1993.3677378413
 21
1464.5260106363
 31
0.0
  0
LINE
  5
D4
330
74
100
AcDbEntity
  8
0
  6
Continuous
 62
   179
100
AcDbLine
 10
1993.3677378413
 20
1464.5260106363
 30
0.0
 11
1911.3435803354
 21
1501.9115152047
 31
0.0
  0
LINE
  5
D5
330
74
100
AcDbEntity
  8
0
  6
Continuous
 62
   179
100
AcDbLine
 10
1911.3435803354
 20
1501.9115152047
 30
0.0
 11
1840.5450992733
 21
1557.6494251181
 31
0.0
  0
LINE
  5
D6
330
74
100
AcDbEntity
  8
0
  6
Continuous
 62
   179
100
AcDbLine
 10
1840.5450992733
 20
1557.6494251181
 30
0.0
 11
1785.0445168711
 21
1628.6751044787
 31
0.0
  0
LINE
  5
D7
330
74
100
AcDbEntity
  8
0
  6
Continuous
 62
   179
100
AcDbLine
 10
1785.0445168711
 20
1628.6751044787
 30
0.0
 11
1745.2817682865
 21
1709.6405469696
 31
0.0
  0
LINE
  5
D8
330
74
100
AcDbEntity
  8
0
  6
Continuous
 62
   179
100
AcDbLine
 10
1745.2817682865
 20
1709.6405469696
 30
0.0
 11
1710.0353127013
 21
1840.2386565146
 31
0.0
  0
LINE
  5
D9
330
74
100
AcDbEntity
  8
0
  6
Continuous
 62
   179
100
AcDbLine
 10
1710.0353127013
 20
1840.2386565146
 30
0.0
 11
1696.0216688059
 21
1974.8977537186
 31
0.0
  0
LINE
  5
DA
330
74
100
AcDbEntity
  8
0
  6
Continuous
 62
   179
100
AcDbLine
 10
1696.0216688059
 20
1974.8977537186
 30
0.0
 11
1696.5924840549
 21
2110.3283975811
 31
0.0
  0
LINE
  5
DB
330
74
100
AcDbEntity
  8
0
  6
Continuous
 62
   179
100
AcDbLine
 10
1696.5924840549
 20
2110.3283975811
 30
0.0
 11
1707.5320688
 21
2245.3374630946
 31
0.0
  0
LINE
  5
DC
330
74
100
AcDbEntity
  8
0
  6
Continuous
 62
   179
100
AcDbLine
 10
1707.5320688
 20
2245.3374630946
 30
0.0
 11
1781.480308
 21
2897.4264814946
 31
0.0
  0
LINE
  5
DD
330
74
100
AcDbEntity
  8
0
  6
Continuous
 62
   179
100
AcDbLine
 10
1781.480308
 20
2897.4264814946
 30
0.0
 11
94.1159408
 21
2897.4264814946
 31
0.0
  0
LINE
  5
DE
330
74
100
AcDbEntity
  8
0
  6
Continuous
 62
   179
100
AcDbLine
 10
94.1159408
 20
2897.4264814946
 30
0.0
 11
26.8902688
 21
2295.7567170946
 31
0.0
  0
LINE
  5
DF
330
74
100
AcDbEntity
  8
0
  6
Continuous
 62
   179
100
AcDbLine
 10
26.8902688
 20
2295.7567170946
 30
0.0
 11
5.8201226117
 21
2068.3689705604
 31
0.0
  0
LINE
  5
E0
330
74
100
AcDbEntity
  8
0
  6
Continuous
 62
   179
100
AcDbLine
 10
5.8201226117
 20
2068.3689705604
 30
0.0
 11
0.0
 21
1889.0414014946
 31
0.0
  0
LINE
  5
E1
330
74
100
AcDbEntity
  8
0
  6
Continuous
 62
   179
100
AcDbLine
 10
0.0
 20
1889.0414014946
 30
0.0
 11
0.0
 21
1788.2028934946
 31
0.0
  0
LINE
  5
E2
330
74
100
AcDbEntity
  8
0
  6
Continuous
 62
   179
100
AcDbLine
 10
0.0
 20
1788.2028934946
 30
0.0
 11
8.4741181851
 21
1597.5992610857
 31
0.0
  0
LINE
  5
E3
330
74
100
AcDbEntity
  8
0
  6
Continuous
 62
   179
100
AcDbLine
 10
8.4741181851
 20
1597.5992610857
 30
0.0
 11
29.9475321698
 21
1408.0255515191
 31
0.0
  0
LINE
  5
E4
330
74
100
AcDbEntity
  8
0
  6
Continuous
 62
   179
100
AcDbLine
 10
29.9475321698
 20
1408.0255515191
 30
0.0
 11
66.5196177454
 21
1220.7936775914
 31
0.0
  0
LINE
  5
E5
330
74
100
AcDbEntity
  8
0
  6
Continuous
 62
   179
100
AcDbLine
 10
66.5196177454
 20
1220.7936775914
 30
0.0
 11
120.5660601196
 21
1037.8592313249
 31
0.0
  0
LINE
  5
E6
330
74
100
AcDbEntity
  8
0
  6
Continuous
 62
   179
100
AcDbLine
 10
120.5660601196
 20
1037.8592313249
 30
0.0
 11
194.3311383855
 21
861.9730900702
 31
0.0
  0
LINE
  5
E7
330
74
100
AcDbEntity
  8
0
  6
Continuous
 62
   179
100
AcDbLine
 10
194.3311383855
 20
861.9730900702
 30
0.0
 11
287.5295606573
 21
699.5021482411
 31
0.0
  0
LINE
  5
E8
330
74
100
AcDbEntity
  8
0
  6
Continuous
 62
   179
100
AcDbLine
 10
287.5295606573
 20
699.5021482411
 30
0.0
 11
401.5974373649
 21
550.9580491856
 31
0.0
  0
LINE
  5
E9
330
74
100
AcDbEntity
  8
0
  6
Continuous
 62
   179
100
AcDbLine
 10
401.5974373649
 20
550.9580491856
 30
0.0
 11
535.1901037299
 21
419.6995230367
 31
0.0
  0
LINE
  5
EA
330
74
100
AcDbEntity
  8
0
  6
Continuous
 62
   179
100
AcDbLine
 10
535.1901037299
 20
419.6995230367
 30
0.0
 11
685.4525519751
 21
307.8901613371
 31
0.0
  0
LINE
  5
EB
330
74
100
AcDbEntity
  8
0
  6
Continuous
 62
   179
100
AcDbLine
 10
685.4525519751
 20
307.8901613371
 30
0.0
 11
880.9909831936
 21
200.7980430706
 31
0.0
  0
LINE
  5
EC
330
74
100
AcDbEntity
  8
0
  6
Continuous
 62
   179
100
AcDbLine
 10
880.9909831936
 20
200.7980430706
 30
0.0
 11
1088.9648544967
 21
120.3523112471
 31
0.0
  0
LINE
  5
ED
330
74
100
AcDbEntity
  8
0
  6
Continuous
 62
   179
100
AcDbLine
 10
1088.9648544967
 20
120.3523112471
 30
0.0
 11
1304.5983771836
 21
63.4027511638
 31
0.0
  0
LINE
  5
EE
330
74
100
AcDbEntity
  8
0
  6
Continuous
 62
   179
100
AcDbLine
 10
1304.5983771836
 20
63.4027511638
 30
0.0
 11
1524.5667113278
 21
26.4353113751
 31
0.0
  0
LINE
  5
EF
330
74
100
AcDbEntity
  8
0
  6
Continuous
 62
   179
100
AcDbLine
 10
1524.5667113278
 20
26.4353113751
 30
0.0
 11
1746.7181907984
 21
6.2021311101
 31
0.0
  0
LINE
  5
F0
330
74
100
AcDbEntity
  8
0
  6
Continuous
 62
   179
100
AcDbLine
 10
1746.7181907984
 20
6.2021311101
 30
0.0
 11
1969.7121896
 21
0.0000182946
 31
0.0
  0
LINE
  5
F1
330
74
100
AcDbEntity
  8
0
  6
Continuous
 62
   179
100
AcDbLine
 10
1969.7121896
 20
0.0000182946
 30
0.0
 11
2235.4163107967
 21
9.0474941519
 31
0.0
  0
LINE
  5
F2
330
74
100
AcDbEntity
  8
0
  6
Continuous
 62
   179
100
AcDbLine
 10
2235.4163107967
 20
9.0474941519
 30
0.0
 11
2499.6874650753
 21
37.9033605802
 31
0.0
  0
LINE
  5
F3
330
74
100
AcDbEntity
  8
0
  6
Continuous
 62
   179
100
AcDbLine
 10
2499.6874650753
 20
37.9033605802
 30
0.0
 11
2760.5117042792
 21
89.204615755
 31
0.0
  0
LINE
  5
F4
330
74
100
AcDbEntity
  8
0
  6
Continuous
 62
   179
100
AcDbLine
 10
2760.5117042792
 20
89.204615755
 30
0.0
 11
3015.1415277313
 21
165.4438899665
 31
0.0
  0
LINE
  5
F5
330
74
100
AcDbEntity
  8
0
  6
Continuous
 62
   179
100
AcDbLine
 10
3015.1415277313
 20
165.4438899665
 30
0.0
 11
3208.6236023082
 21
244.1201341123
 31
0.0
  0
LINE
  5
F6
330
74
100
AcDbEntity
  8
0
  6
Continuous
 62
   179
100
AcDbLine
 10
3208.6236023082
 20
244.1201341123
 30
0.0
 11
3394.246790929
 21
339.8610540042
 31
0.0
  0
LINE
  5
F7
330
74
100
AcDbEntity
  8
0
  6
Continuous
 62
   179
100
AcDbLine
 10
3394.246790929
 20
339.8610540042
 30
0.0
 11
3570.08287903
 21
452.5651803685
 31
0.0
  0
LINE
  5
F8
330
74
100
AcDbEntity
  8
0
  6
Continuous
 62
   179
100
AcDbLine
 10
3570.08287903
 20
452.5651803685
 30
0.0
 11
3734.3860796
 21
581.5020810946
 31
0.0
  0
LINE
  5
F9
330
74
100
AcDbEntity
  8
0
  6
Continuous
 62
   179
100
AcDbLine
 10
3734.3860796
 20
581.5020810946
 30
0.0
 11
3918.9619613187
 21
762.6068684982
 31
0.0
  0
LINE
  5
FA
330
74
100
AcDbEntity
  8
0
  6
Continuous
 62
   179
100
AcDbLine
 10
3918.9619613187
 20
762.6068684982
 30
0.0
 11
4080.6115034165
 21
964.4332031658
 31
0.0
  0
LINE
  5
FB
330
74
100
AcDbEntity
  8
0
  6
Continuous
 62
   179
100
AcDbLine
 10
4080.6115034165
 20
964.4332031658
 30
0.0
 11
4217.129324297
 21
1184.0491590435
 31
0.0
  0
LINE
  5
FC
330
74
100
AcDbEntity
  8
0
  6
Continuous
 62
   179
100
AcDbLine
 10
4217.129324297
 20
1184.0491590435
 30
0.0
 11
4327.807798901
 21
1417.7744861233
 31
0.0
  0
LINE
  5
FD
330
74
100
AcDbEntity
  8
0
  6
Continuous
 62
   179
100
AcDbLine
 10
4327.807798901
 20
1417.7744861233
 30
0.0
 11
4416.8403522579
 21
1673.6616360853
 31
0.0
  0
LINE
  5
FE
330
74
100
AcDbEntity
  8
0
  6
Continuous
 62
   179
100
AcDbLine
 10
4416.8403522579
 20
1673.6616360853
 30
0.0
 11
4480.332478423
 21
1937.0776350384
 31
0.0
  0
LINE
  5
FF
330
74
100
AcDbEntity
  8
0
  6
Continuous
 62
   179
100
AcDbLine
 10
4480.332478423
 20
1937.0776350384
 30
0.0
 11
4520.926442
 21
2205.0020598946
 31
0.0
  0
LINE
  5
100
330
74
100
AcDbEntity
  8
0
  6
Continuous
 62
   179
100
AcDbLine
 10
4520.926442
 20
2205.0020598946
 30
0.0
 11
4539.8604791128
 21
2434.751251137
 31
0.0
  0
LINE
  5
101
330
74
100
AcDbEntity
  8
0
  6
Continuous
 62
   179
100
AcDbLine
 10
4539.8604791128
 20
2434.751251137
 30
0.0
 11
4542.0136171636
 21
2665.2555763504
 31
0.0
  0
LINE
  5
102
330
74
100
AcDbEntity
  8
0
  6
Continuous
 62
   179
100
AcDbLine
 10
4542.0136171636
 20
2665.2555763504
 30
0.0
 11
4524.9874932226
 21
2895.1234497405
 31
0.0
  0
LINE
  5
103
330
74
100
AcDbEntity
  8
0
  6
Continuous
 62
   179
100
AcDbLine
 10
4524.9874932226
 20
2895.1234497405
 30
0.0
 11
4496.6310776622
 21
3074.0098021703
 31
0.0
  0
LINE
  5
104
330
74
100
AcDbEntity
  8
0
  6
Continuous
 62
   179
100
AcDbLine
 10
4496.6310776622
 20
3074.0098021703
 30
0.0
 11
4454.0379981851
 21
3250.0430485054
 31
0.0
  0
LINE
  5
105
330
74
100
AcDbEntity
  8
0
  6
Continuous
 62
   179
100
AcDbLine
 10
4454.0379981851
 20
3250.0430485054
 30
0.0
 11
4396.5589488
 21
3421.7867230946
 31
0.0
  0
LINE
  5
106
330
74
100
AcDbEntity
  8
0
  6
Continuous
 62
   179
100
AcDbLine
 10
4396.5589488
 20
3421.7867230946
 30
0.0
 11
4335.0775798529
 21
3551.3591107413
 31
0.0
  0
LINE
  5
107
330
74
100
AcDbEntity
  8
0
  6
Continuous
 62
   179
100
AcDbLine
 10
4335.0775798529
 20
3551.3591107413
 30
0.0
 11
4262.2002057756
 21
3674.9188547719
 31
0.0
  0
LINE
  5
108
330
74
100
AcDbEntity
  8
0
  6
Continuous
 62
   179
100
AcDbLine
 10
4262.2002057756
 20
3674.9188547719
 30
0.0
 11
4181.3183894369
 21
3793.4113089372
 31
0.0
  0
LINE
  5
109
330
74
100
AcDbEntity
  8
0
  6
Continuous
 62
   179
100
AcDbLine
 10
4181.3183894369
 20
3793.4113089372
 30
0.0
 11
4078.5227471571
 21
3927.6643628842
 31
0.0
  0
LINE
  5
10A
330
74
100
AcDbEntity
  8
0
  6
Continuous
 62
   179
100
AcDbLine
 10
4078.5227471571
 20
3927.6643628842
 30
0.0
 11
3969.6759316
 21
4057.0693234946
 31
0.0
  0
LINE
  5
10B
330
74
100
AcDbEntity
  8
0
  6
Continuous
 62
   179
100
AcDbLine
 10
3969.6759316
 20
4057.0693234946
 30
0.0
 11
3243.638674
 21
4803.2742826946
 31
0.0
  0
LINE
  5
10C
330
74
100
AcDbEntity
  8
0
  6
Continuous
 62
   179
100
AcDbLine
 10
2467.1821623981
 20
5616.7049138995
 30
0.0
 11
2391.5759134121
 21
5727.7039441288
 31
0.0
  0
LINE
  5
10D
330
74
100
AcDbEntity
  8
0
  6
Continuous
 62
   179
100
AcDbLine
 10
2391.5759134121
 20
5727.7039441288
 30
0.0
 11
2326.9023872324
 21
5845.3828817498
 31
0.0
  0
LINE
  5
10E
330
74
100
AcDbEntity
  8
0
  6
Continuous
 62
   179
100
AcDbLine
 10
2326.9023872324
 20
5845.3828817498
 30
0.0
 11
2276.7855321171
 21
5969.9206549293
 31
0.0
  0
LINE
  5
10F
330
74
100
AcDbEntity
  8
0
  6
Continuous
 62
   179
100
AcDbLine
 10
2276.7855321171
 20
5969.9206549293
 30
0.0
 11
2250.5432565423
 21
6072.0904771882
 31
0.0
  0
LINE
  5
110
330
74
100
AcDbEntity
  8
0
  6
Continuous
 62
   179
100
AcDbLine
 10
2250.5432565423
 20
6072.0904771882
 30
0.0
 11
2238.3532498759
 21
6176.8496579539
 31
0.0
  0
LINE
  5
111
330
74
100
AcDbEntity
  8
0
  6
Continuous
 62
   179
100
AcDbLine
 10
2238.3532498759
 20
6176.8496579539
 30
0.0
 11
2241.9761612
 21
6282.2390666946
 31
0.0
  0
LINE
  5
112
330
74
100
AcDbEntity
  8
0
  6
Continuous
 62
   179
100
AcDbLine
 10
2813.394373201
 20
6877.1862638961
 30
0.0
 11
2899.1450330725
 21
6871.9159884789
 31
0.0
  0
LINE
  5
113
330
74
100
AcDbEntity
  8
0
  6
Continuous
 62
   179
100
AcDbLine
 10
2899.1450330725
 20
6871.9159884789
 30
0.0
 11
2983.1458702521
 21
6854.0846279821
 31
0.0
  0
LINE
  5
114
330
74
100
AcDbEntity
  8
0
  6
Continuous
 62
   179
100
AcDbLine
 10
2983.1458702521
 20
6854.0846279821
 30
0.0
 11
3062.202014936
 21
6820.6931120196
 31
0.0
  0
LINE
  5
115
330
74
100
AcDbEntity
  8
0
  6
Continuous
 62
   179
100
AcDbLine
 10
3062.202014936
 20
6820.6931120196
 30
0.0
 11
3131.6623634801
 21
6770.3629356214
 31
0.0
  0
LINE
  5
116
330
74
100
AcDbEntity
  8
0
  6
Continuous
 62
   179
100
AcDbLine
 10
3131.6623634801
 20
6770.3629356214
 30
0.0
 11
3187.37124796
 21
6705.1184696235
 31
0.0
  0
LINE
  5
117
330
74
100
AcDbEntity
  8
0
  6
Continuous
 62
   179
100
AcDbLine
 10
3187.37124796
 20
6705.1184696235
 30
0.0
 11
3228.1274776793
 21
6629.5646068072
 31
0.0
  0
LINE
  5
118
330
74
100
AcDbEntity
  8
0
  6
Continuous
 62
   179
100
AcDbLine
 10
3228.1274776793
 20
6629.5646068072
 30
0.0
 11
3265.0334180049
 21
6506.2441361359
 31
0.0
  0
LINE
  5
119
330
74
100
AcDbEntity
  8
0
  6
Continuous
 62
   179
100
AcDbLine
 10
3265.0334180049
 20
6506.2441361359
 30
0.0
 11
3280.3602104272
 21
6378.3104742822
 31
0.0
  0
LINE
  5
11A
330
74
100
AcDbEntity
  8
0
  6
Continuous
 62
   179
100
AcDbLine
 10
3280.3602104272
 20
6378.3104742822
 30
0.0
 11
3280.7520241623
 21
6249.4122034737
 31
0.0
  0
LINE
  5
11B
330
74
100
AcDbEntity
  8
0
  6
Continuous
 62
   179
100
AcDbLine
 10
3280.7520241623
 20
6249.4122034737
 30
0.0
 11
3270.5289428
 21
6120.8974538946
 31
0.0
  0
LINE
  5
11C
330
74
100
AcDbEntity
  8
0
  6
Continuous
 62
   179
100
AcDbLine
 10
3270.5289428
 20
6120.8974538946
 30
0.0
 11
3206.6645544
 21
5566.2856598946
 31
0.0
  0
LINE
  5
11D
330
74
100
AcDbEntity
  8
0
  6
Continuous
 62
   179
100
AcDbLine
 10
3206.6645544
 20
5566.2856598946
 30
0.0
 11
4820.0806824005
 21
5566.2856598945
 31
0.0
  0
LINE
  5
11E
330
74
100
AcDbEntity
  8
0
  6
Continuous
 62
   179
100
AcDbLine
 10
4820.0806824005
 20
5566.2856598945
 30
0.0
 11
4894.0289216005
 21
6231.8198126945
 31
0.0
  0
LINE
  5
11F
330
74
100
AcDbEntity
  8
0
  6
Continuous
 62
   179
100
AcDbLine
 10
4894.0289216005
 20
6231.8198126945
 30
0.0
 11
4907.4740560005
 21
6366.2711566946
 31
0.0
  0
LINE
  5
120
330
74
100
AcDbEntity
  8
0
  6
Continuous
 62
   179
100
AcDbLine
 10
4907.4740560005
 20
6366.2711566946
 30
0.0
 11
4917.4861623745
 21
6641.1377165616
 31
0.0
  0
LINE
  5
121
330
74
100
AcDbEntity
  8
0
  6
Continuous
 62
   179
100
AcDbLine
 10
4917.4861623745
 20
6641.1377165616
 30
0.0
 11
4907.4740560005
 21
6857.0185622947
 31
0.0
  0
LINE
  5
122
330
74
100
AcDbEntity
  8
0
  6
Continuous
 62
   179
100
AcDbLine
 10
24964.5491205926
 20
0.0000125144
 30
0.0
 11
26583.7619200447
 21
0.0000125144
 31
0.0
  0
LINE
  5
123
330
74
100
AcDbEntity
  8
0
  6
Continuous
 62
   179
100
AcDbLine
 10
24964.5491205926
 20
1424.0948297115
 30
0.0
 11
24964.5491205926
 21
0.0000125144
 31
0.0
  0
LINE
  5
124
330
74
100
AcDbEntity
  8
0
  6
Continuous
 62
   179
100
AcDbLine
 10
25016.6135325926
 20
7008.8707569115
 30
0.0
 11
24971.491042193
 21
3444.1940153109
 31
0.0
  0
LINE
  5
125
330
74
100
AcDbEntity
  8
0
  6
Continuous
 62
   179
100
AcDbLine
 10
24180.1119797926
 20
3343.5361521115
 30
0.0
 11
25016.6135325926
 21
7008.8707569115
 31
0.0
  0
LINE
  5
126
330
74
100
AcDbEntity
  8
0
  6
Continuous
 62
   179
100
AcDbLine
 10
23399.1457997926
 20
0.0000125144
 30
0.0
 11
23791.3643701938
 21
1694.8297721102
 31
0.0
  0
LINE
  5
127
330
74
100
AcDbEntity
  8
0
  6
Continuous
 62
   179
100
AcDbLine
 10
21618.5429093926
 20
0.0000125144
 30
0.0
 11
23399.1457997926
 21
0.0000125144
 31
0.0
  0
LINE
  5
128
330
74
100
AcDbEntity
  8
0
  6
Continuous
 62
   179
100
AcDbLine
 10
23986.756270993
 20
8289.6552921115
 30
0.0
 11
21618.5429093926
 21
0.0000125144
 31
0.0
  0
LINE
  5
129
330
74
100
AcDbEntity
  8
0
  6
Continuous
 62
   179
100
AcDbLine
 10
26353.951536593
 20
8289.6552921115
 30
0.0
 11
23986.756270993
 21
8289.6552921115
 31
0.0
  0
LINE
  5
12A
330
74
100
AcDbEntity
  8
0
  6
Continuous
 62
   179
100
AcDbLine
 10
26583.7619200447
 20
0.0000125144
 30
0.0
 11
26353.951536593
 21
8289.6552921115
 31
0.0
  0
ENDBLK
  5
76
330
74
100
AcDbEntity
  8
0
100
AcDbBlockEnd
  0
BLOCK
  5
12C
330
12B
100
AcDbEntity
  8
0
100
AcDbBlockBegin
  2
Projekciju vaizdavimas_1
 70
     0
 10
0.0
 20
0.0
 30
0.0
  3
Projekciju vaizdavimas_1
  1

  0
CIRCLE
  5
12E
330
12B
100
AcDbEntity
  8
0
  6
Continuous
 62
     7
370
    30
100
AcDbCircle
 10
0.0
 20
0.0
 30
0.0
 40
3.5
  0
CIRCLE
  5
12F
330
12B
100
AcDbEntity
  8
0
  6
Continuous
 62
     7
370
    30
100
AcDbCircle
 10
0.0
 20
0.0
 30
0.0
 40
1.5
  0
LINE
  5
130
330
12B
100
AcDbEntity
  8
0
  6
CENTERX2
 62
     7
370
     0
100
AcDbLine
 10
4.5
 20
0.0
 30
0.0
 11
-14.5
 21
0.0
 31
0.0
  0
LINE
  5
131
330
12B
100
AcDbEntity
  8
0
  6
Continuous
 62
     7
370
    30
100
AcDbLine
 10
-13.5
 20
1.5
 30
0.0
 11
-13.5
 21
-1.5
 31
0.0
  0
LINE
  5
132
330
12B
100
AcDbEntity
  8
0
  6
Continuous
 62
     7
370
    30
100
AcDbLine
 10
-13.5
 20
-1.5
 30
0.0
 11
-6.5
 21
-3.5
 31
0.0
  0
LINE
  5
133
330
12B
100
AcDbEntity
  8
0
  6
Continuous
 62
     7
370
    30
100
AcDbLine
 10
-6.5
 20
-3.5
 30
0.0
 11
-6.5
 21
3.5
 31
0.0
  0
LINE
  5
134
330
12B
100
AcDbEntity
  8
0
  6
Continuous
 62
     7
370
    30
100
AcDbLine
 10
-6.5
 20
3.5
 30
0.0
 11
-13.5
 21
1.5
 31
0.0
  0
LINE
  5
135
330
12B
100
AcDbEntity
  8
0
  6
CENTERX2
 62
     7
370
     0
100
AcDbLine
 10
0.0
 20
4.5
 30
0.0
 11
0.0
 21
-4.5
 31
0.0
  0
ENDBLK
  5
12D
330
12B
100
AcDbEntity
  8
0
100
AcDbBlockEnd
  0
BLOCK
  5
137
330
136
100
AcDbEntity
  8
0
100
AcDbBlockBegin
  2
Block1
 70
     0
 10
0.0
 20
0.0
 30
0.0
  3
Block1
  1

  0
ARC
  5
139
330
136
100
AcDbEntity
  8
0
  6
Continuous
 62
   179
100
AcDbCircle
 10
7867.6649029635
 20
2430.1355419087
 30
0.0
 40
931.6078627493895
100
AcDbArc
 50
232.1189098069
 51
101.3462704492
  0
ARC
  5
13A
330
136
100
AcDbEntity
  8
0
  6
Continuous
 62
   179
100
AcDbCircle
 10
7943.5514462269
 20
2435.9613946537
 30
0.0
 40
1140.079096555486
100
AcDbArc
 50
297.434182935
 51
62.17203318890002
  0
ARC
  5
13B
330
136
100
AcDbEntity
  8
0
  6
Continuous
 62
   179
100
AcDbCircle
 10
20001.4103066854
 20
6936.2583481763
 30
0.0
 40
1270.831290716854
100
AcDbArc
 50
3.4391112699
 51
76.4197578922
  0
ARC
  5
13C
330
136
100
AcDbEntity
  8
0
  6
Continuous
 62
   179
100
AcDbCircle
 10
19239.4822949422
 20
3782.0667000728
 30
0.0
 40
4515.74411667143
100
AcDbArc
 50
76.4197578923
 51
91.6754644339
  0
ARC
  5
13D
330
136
100
AcDbEntity
  8
0
  6
Continuous
 62
   179
100
AcDbCircle
 10
18683.9539720184
 20
2160.1911622497
 30
0.0
 40
2139.476369555804
100
AcDbArc
 50
270.3210228954001
 51
307.7127911617
  0
ARC
  5
13E
330
136
100
AcDbEntity
  8
0
  6
Continuous
 62
   179
100
AcDbCircle
 10
18746.0422061702
 20
1962.8216117468
 30
0.0
 40
1946.678009873842
100
AcDbArc
 50
309.8210667380999
 51
331.7017265911999
  0
ARC
  5
13F
330
136
100
AcDbEntity
  8
0
  6
Continuous
 62
   179
100
AcDbCircle
 10
17863.1917469523
 20
2438.1532894658
 30
0.0
 40
2949.35698999881
100
AcDbArc
 50
331.7017265911999
 51
356.0927915539
  0
ARC
  5
140
330
136
100
AcDbEntity
  8
0
  6
Continuous
 62
   179
100
AcDbCircle
 10
16755.7856245826
 20
6709.226497343
 30
0.0
 40
4524.342739831098
100
AcDbArc
 50
353.5830630921
 51
3.8434115591
  0
ARC
  5
141
330
136
100
AcDbEntity
  8
0
  6
Continuous
 62
   179
100
AcDbCircle
 10
19039.3213693035
 20
6348.9928357667
 30
0.0
 40
506.1072723730909
100
AcDbArc
 50
52.45518083769999
 51
82.2716960779
  0
ARC
  5
142
330
136
100
AcDbEntity
  8
0
  6
Continuous
 62
   179
100
AcDbCircle
 10
19108.0528552878
 20
6495.6270812425
 30
0.0
 40
349.7025539282703
100
AcDbArc
 50
10.4012874263
 51
46.7340603611
  0
ARC
  5
143
330
136
100
AcDbEntity
  8
0
  6
Continuous
 62
   179
100
AcDbCircle
 10
17417.0070420698
 20
6262.2496105517
 30
0.0
 40
2056.490362340239
100
AcDbArc
 50
355.475249592
 51
8.290034904
  0
ARC
  5
144
330
136
100
AcDbEntity
  8
0
  6
Continuous
 62
   179
100
AcDbCircle
 10
16921.0810184775
 20
2478.8840573259
 30
0.0
 40
2122.330793892779
100
AcDbArc
 50
339.2065439429
 51
352.3366543813
  0
ARC
  5
145
330
136
100
AcDbEntity
  8
0
  6
Continuous
 62
   179
100
AcDbCircle
 10
18500.143747488
 20
1898.8589115903
 30
0.0
 40
440.5904503964751
100
AcDbArc
 50
293.838270217
 51
336.8232513296001
  0
ARC
  5
146
330
136
100
AcDbEntity
  8
0
  6
Continuous
 62
   179
100
AcDbCircle
 10
18201.1477532386
 20
2813.3138324813
 30
0.0
 40
1401.173285533761
100
AcDbArc
 50
267.1686990927
 51
289.9057704419
  0
ARC
  5
147
330
136
100
AcDbEntity
  8
0
  6
Continuous
 62
   179
100
AcDbCircle
 10
18751.2701169541
 20
4514.9970927066
 30
0.0
 40
2362.499275286643
100
AcDbArc
 50
81.3304997955
 51
90.0
  0
ARC
  5
148
330
136
100
AcDbEntity
  8
0
  6
Continuous
 62
   179
100
AcDbCircle
 10
6720.6044375296
 20
9296.0579653158
 30
0.0
 40
7520.148763137153
100
AcDbArc
 50
220.017667739
 51
227.0143029097
  0
ARC
  5
149
330
136
100
AcDbEntity
  8
0
  6
Continuous
 62
   179
100
AcDbCircle
 10
2021.3892535935
 20
2163.6755564521
 30
0.0
 40
795.0570373035339
100
AcDbArc
 50
316.8708555891
 51
354.9781479006
  0
ARC
  5
14A
330
136
100
AcDbEntity
  8
0
  6
Continuous
 62
   179
100
AcDbCircle
 10
2182.9124170468
 20
2011.9889486322
 30
0.0
 40
573.4753329004777
100
AcDbArc
 50
268.8486412909
 51
316.8986890901
  0
ARC
  5
14B
330
136
100
AcDbEntity
  8
0
  6
Continuous
 62
   179
100
AcDbCircle
 10
10525.696072633
 20
12531.6259047731
 30
0.0
 40
10618.65239809051
100
AcDbArc
 50
220.6325257886
 51
226.7030345034
  0
ARC
  5
14C
330
136
100
AcDbEntity
  8
0
  6
Continuous
 62
   179
100
AcDbCircle
 10
2962.700769446
 20
6223.5867799529
 30
0.0
 40
723.1072200381735
100
AcDbArc
 50
137.8203941731
 51
175.3475443105
  0
ARC
  5
14D
330
136
100
AcDbEntity
  8
0
  6
Continuous
 62
   179
100
AcDbCircle
 10
2808.3239355685
 20
6360.2864243508
 30
0.0
 40
516.9247077280753
100
AcDbArc
 50
89.4379852016
 51
137.5591461504
  0
ARC
  5
14E
330
136
100
AcDbEntity
  8
0
  6
Continuous
 62
   179
100
AcDbCircle
 10
24439.2811878643
 20
2435.9613946539
 30
0.0
 40
1140.079096554877
100
AcDbArc
 50
297.4341829348999
 51
62.17203318890002
  0
ARC
  5
14F
330
136
100
AcDbEntity
  8
0
  6
Continuous
 62
   179
100
AcDbCircle
 10
24363.3946446009
 20
2430.1355419089
 30
0.0
 40
931.6078627500976
100
AcDbArc
 50
232.118909807
 51
101.3462704493
  0
LINE
  5
150
330
136
100
AcDbEntity
  8
0
  6
Continuous
 62
   179
100
AcDbLine
 10
10088.0321784074
 20
0.0000125144
 30
0.0
 11
9858.2217949557
 21
8289.6552921115
 31
0.0
  0
LINE
  5
151
330
136
100
AcDbEntity
  8
0
  6
Continuous
 62
   179
100
AcDbLine
 10
9858.2217949557
 20
8289.6552921115
 30
0.0
 11
7491.0265293557
 21
8289.6552921115
 31
0.0
  0
LINE
  5
152
330
136
100
AcDbEntity
  8
0
  6
Continuous
 62
   179
100
AcDbLine
 10
7491.0265293557
 20
8289.6552921115
 30
0.0
 11
5122.8131677553
 21
0.0000125144
 31
0.0
  0
LINE
  5
153
330
136
100
AcDbEntity
  8
0
  6
Continuous
 62
   179
100
AcDbLine
 10
5122.8131677553
 20
0.0000125144
 30
0.0
 11
6903.4160581553
 21
0.0000125144
 31
0.0
  0
LINE
  5
154
330
136
100
AcDbEntity
  8
0
  6
Continuous
 62
   179
100
AcDbLine
 10
6903.4160581553
 20
0.0000125144
 30
0.0
 11
7295.6346285553
 21
1694.8297721115
 31
0.0
  0
LINE
  5
155
330
136
100
AcDbEntity
  8
0
  6
Continuous
 62
   179
100
AcDbLine
 10
7684.3822381561
 20
3343.5361521108
 30
0.0
 11
8520.8837909553
 21
7008.8707569115
 31
0.0
  0
LINE
  5
156
330
136
100
AcDbEntity
  8
0
  6
Continuous
 62
   179
100
AcDbLine
 10
8520.8837909553
 20
7008.8707569115
 30
0.0
 11
8475.7613005553
 21
3444.1940153115
 31
0.0
  0
LINE
  5
157
330
136
100
AcDbEntity
  8
0
  6
Continuous
 62
   179
100
AcDbLine
 10
8468.8193789565
 20
1424.0948297112
 30
0.0
 11
8468.8193789565
 21
0.0000125144
 31
0.0
  0
LINE
  5
158
330
136
100
AcDbEntity
  8
0
  6
Continuous
 62
   179
100
AcDbLine
 10
8468.8193789565
 20
0.0000125144
 30
0.0
 11
10088.0321784074
 21
0.0000125144
 31
0.0
  0
LINE
  5
159
330
136
100
AcDbEntity
  8
0
  6
Continuous
 62
   179
100
AcDbLine
 10
19107.4500497519
 20
8295.8802112275
 30
0.0
 11
16935.7898769541
 21
8295.8802112275
 31
0.0
  0
LINE
  5
15A
330
136
100
AcDbEntity
  8
0
  6
Continuous
 62
   179
100
AcDbLine
 10
16935.7898769541
 20
8295.8802112275
 30
0.0
 11
15991.7401521541
 21
0.0000288275
 31
0.0
  0
LINE
  5
15B
330
136
100
AcDbEntity
  8
0
  6
Continuous
 62
   179
100
AcDbLine
 10
15991.7401521541
 20
0.0000288275
 30
0.0
 11
17855.6331985541
 21
0.0000288275
 31
0.0
  0
LINE
  5
15C
330
136
100
AcDbEntity
  8
0
  6
Continuous
 62
   179
100
AcDbLine
 10
17855.6331985541
 20
0.0000288275
 30
0.0
 11
18695.9411953541
 21
20.7483744275
 31
0.0
  0
LINE
  5
15D
330
136
100
AcDbEntity
  8
0
  6
Continuous
 62
   179
100
AcDbLine
 10
20805.6935873772
 20
2237.1817154785
 30
0.0
 11
21251.7830177772
 21
6203.5737826763
 31
0.0
  0
LINE
  5
15E
330
136
100
AcDbEntity
  8
0
  6
Continuous
 62
   179
100
AcDbLine
 10
19024.4566673541
 20
2195.8666048275
 30
0.0
 11
19467.0880401544
 21
6100.0136352237
 31
0.0
  0
LINE
  5
15F
330
136
100
AcDbEntity
  8
0
  6
Continuous
 62
   179
100
AcDbLine
 10
17907.5040625541
 20
1417.8036448275
 30
0.0
 11
18131.936218492
 21
1413.8509571068
 31
0.0
  0
LINE
  5
160
330
136
100
AcDbEntity
  8
0
  6
Continuous
 62
   179
100
AcDbLine
 10
18529.9544305541
 20
6877.4963679933
 30
0.0
 11
17907.5040625541
 21
1417.8036448275
 31
0.0
  0
LINE
  5
161
330
136
100
AcDbEntity
  8
0
  6
Continuous
 62
   179
100
AcDbLine
 10
18751.2701169541
 20
6877.4963679933
 30
0.0
 11
18529.9544305541
 21
6877.4963679933
 31
0.0
  0
LINE
  5
162
330
136
100
AcDbEntity
  8
0
  6
Continuous
 62
   179
100
AcDbLine
 10
11134.6446741053
 20
0.0
 30
0.0
 11
14807.1018453053
 21
0.0
 31
0.0
  0
LINE
  5
163
330
136
100
AcDbEntity
  8
0
  6
Continuous
 62
   179
100
AcDbLine
 10
14807.1018453053
 20
0.0
 30
0.0
 11
14990.3788981053
 21
1625.287072
 31
0.0
  0
LINE
  5
164
330
136
100
AcDbEntity
  8
0
  6
Continuous
 62
   179
100
AcDbLine
 10
14990.3788981053
 20
1625.287072
 30
0.0
 11
13071.1569301053
 21
1625.287072
 31
0.0
  0
LINE
  5
165
330
136
100
AcDbEntity
  8
0
  6
Continuous
 62
   179
100
AcDbLine
 10
13071.1569301053
 20
1625.287072
 30
0.0
 11
13828.4715445053
 21
8295.8801824
 31
0.0
  0
LINE
  5
166
330
136
100
AcDbEntity
  8
0
  6
Continuous
 62
   179
100
AcDbLine
 10
13828.4715445053
 20
8295.8801824
 30
0.0
 11
12075.2363413053
 21
8295.8801824
 31
0.0
  0
LINE
  5
167
330
136
100
AcDbEntity
  8
0
  6
Continuous
 62
   179
100
AcDbLine
 10
12075.2363413053
 20
8295.8801824
 30
0.0
 11
11134.6446741053
 21
0.0
 31
0.0
  0
LINE
  5
168
330
136
100
AcDbEntity
  8
0
  6
Continuous
 62
   179
100
AcDbLine
 10
4907.4740560005
 20
6857.0185622947
 30
0.0
 11
4882.7391856278
 21
7041.1497513646
 31
0.0
  0
LINE
  5
169
330
136
100
AcDbEntity
  8
0
  6
Continuous
 62
   179
100
AcDbLine
 10
4882.7391856278
 20
7041.1497513646
 30
0.0
 11
4840.84097804
 21
7222.1279289072
 31
0.0
  0
LINE
  5
16A
330
136
100
AcDbEntity
  8
0
  6
Continuous
 62
   179
100
AcDbLine
 10
4840.84097804
 20
7222.1279289072
 30
0.0
 11
4779.230404759
 21
7397.3516386623
 31
0.0
  0
LINE
  5
16B
330
136
100
AcDbEntity
  8
0
  6
Continuous
 62
   179
100
AcDbLine
 10
4779.230404759
 20
7397.3516386623
 30
0.0
 11
4695.8753846469
 21
7563.306056288
 31
0.0
  0
LINE
  5
16C
330
136
100
AcDbEntity
  8
0
  6
Continuous
 62
   179
100
AcDbLine
 10
4695.8753846469
 20
7563.306056288
 30
0.0
 11
4590.0094760133
 21
7715.8622667097
 31
0.0
  0
LINE
  5
16D
330
136
100
AcDbEntity
  8
0
  6
Continuous
 62
   179
100
AcDbLine
 10
4590.0094760133
 20
7715.8622667097
 30
0.0
 11
4462.7758841487
 21
7851.1049960358
 31
0.0
  0
LINE
  5
16E
330
136
100
AcDbEntity
  8
0
  6
Continuous
 62
   179
100
AcDbLine
 10
4462.7758841487
 20
7851.1049960358
 30
0.0
 11
4317.19779369
 21
7966.3918164371
 31
0.0
  0
LINE
  5
16F
330
136
100
AcDbEntity
  8
0
  6
Continuous
 62
   179
100
AcDbLine
 10
4317.19779369
 20
7966.3918164371
 30
0.0
 11
4157.3549470669
 21
8060.9636993174
 31
0.0
  0
LINE
  5
170
330
136
100
AcDbEntity
  8
0
  6
Continuous
 62
   179
100
AcDbLine
 10
4157.3549470669
 20
8060.9636993174
 30
0.0
 11
3942.3832434805
 21
8152.0001345594
 31
0.0
  0
LINE
  5
171
330
136
100
AcDbEntity
  8
0
  6
Continuous
 62
   179
100
AcDbLine
 10
3942.3832434805
 20
8152.0001345594
 30
0.0
 11
3717.7379879586
 21
8215.7306159908
 31
0.0
  0
LINE
  5
172
330
136
100
AcDbEntity
  8
0
  6
Continuous
 62
   179
100
AcDbLine
 10
3717.7379879586
 20
8215.7306159908
 30
0.0
 11
3487.8010416052
 21
8256.6415379559
 31
0.0
  0
LINE
  5
173
330
136
100
AcDbEntity
  8
0
  6
Continuous
 62
   179
100
AcDbLine
 10
3487.8010416052
 20
8256.6415379559
 30
0.0
 11
3255.2826646592
 21
8278.7971759128
 31
0.0
  0
LINE
  5
174
330
136
100
AcDbEntity
  8
0
  6
Continuous
 62
   179
100
AcDbLine
 10
3255.2826646592
 20
8278.7971759128
 30
0.0
 11
3021.7939564
 21
8285.5640922951
 31
0.0
  0
LINE
  5
175
330
136
100
AcDbEntity
  8
0
  6
Continuous
 62
   179
100
AcDbLine
 10
3021.7939564
 20
8285.5640922951
 30
0.0
 11
2764.7286656624
 21
8276.8167344558
 31
0.0
  0
LINE
  5
176
330
136
100
AcDbEntity
  8
0
  6
Continuous
 62
   179
100
AcDbLine
 10
2764.7286656624
 20
8276.8167344558
 30
0.0
 11
2509.0566231212
 21
8248.8448730413
 31
0.0
  0
LINE
  5
177
330
136
100
AcDbEntity
  8
0
  6
Continuous
 62
   179
100
AcDbLine
 10
2509.0566231212
 20
8248.8448730413
 30
0.0
 11
2256.7624741697
 21
8198.9693632548
 31
0.0
  0
LINE
  5
178
330
136
100
AcDbEntity
  8
0
  6
Continuous
 62
   179
100
AcDbLine
 10
2256.7624741697
 20
8198.9693632548
 30
0.0
 11
2010.5862549102
 21
8124.6401609584
 31
0.0
  0
LINE
  5
179
330
136
100
AcDbEntity
  8
0
  6
Continuous
 62
   179
100
AcDbLine
 10
2010.5862549102
 20
8124.6401609584
 30
0.0
 11
1823.7042907144
 21
8047.7718170144
 31
0.0
  0
LINE
  5
17A
330
136
100
AcDbEntity
  8
0
  6
Continuous
 62
   179
100
AcDbLine
 10
1823.7042907144
 20
8047.7718170144
 30
0.0
 11
1644.6605427625
 21
7954.1022052786
 31
0.0
  0
LINE
  5
17B
330
136
100
AcDbEntity
  8
0
  6
Continuous
 62
   179
100
AcDbLine
 10
1644.6605427625
 20
7954.1022052786
 30
0.0
 11
1475.390327491
 21
7843.7545704421
 31
0.0
  0
LINE
  5
17C
330
136
100
AcDbEntity
  8
0
  6
Continuous
 62
   179
100
AcDbLine
 10
1475.390327491
 20
7843.7545704421
 30
0.0
 11
1317.6231711996
 21
7717.507163895
 31
0.0
  0
LINE
  5
17D
330
136
100
AcDbEntity
  8
0
  6
Continuous
 62
   179
100
AcDbLine
 10
1317.6231711996
 20
7717.507163895
 30
0.0
 11
1139.538084005
 21
7540.9583629978
 31
0.0
  0
LINE
  5
17E
330
136
100
AcDbEntity
  8
0
  6
Continuous
 62
   179
100
AcDbLine
 10
1139.538084005
 20
7540.9583629978
 30
0.0
 11
983.4661868123
 21
7344.6865403276
 31
0.0
  0
LINE
  5
17F
330
136
100
AcDbEntity
  8
0
  6
Continuous
 62
   179
100
AcDbLine
 10
983.4661868123
 20
7344.6865403276
 30
0.0
 11
851.5325681984
 21
7131.4315088069
 31
0.0
  0
LINE
  5
180
330
136
100
AcDbEntity
  8
0
  6
Continuous
 62
   179
100
AcDbLine
 10
851.5325681984
 20
7131.4315088069
 30
0.0
 11
744.4774564036
 21
6904.647070365
 31
0.0
  0
LINE
  5
181
330
136
100
AcDbEntity
  8
0
  6
Continuous
 62
   179
100
AcDbLine
 10
744.4774564036
 20
6904.647070365
 30
0.0
 11
658.3392621499
 21
6656.4327422403
 31
0.0
  0
LINE
  5
182
330
136
100
AcDbEntity
  8
0
  6
Continuous
 62
   179
100
AcDbLine
 10
658.3392621499
 20
6656.4327422403
 30
0.0
 11
596.9943576213
 21
6400.9335325463
 31
0.0
  0
LINE
  5
183
330
136
100
AcDbEntity
  8
0
  6
Continuous
 62
   179
100
AcDbLine
 10
596.9943576213
 20
6400.9335325463
 30
0.0
 11
557.9730775995
 21
6141.0651554946
 31
0.0
  0
LINE
  5
184
330
136
100
AcDbEntity
  8
0
  6
Continuous
 62
   179
100
AcDbLine
 10
557.9730775995
 20
6141.0651554946
 30
0.0
 11
538.0293793386
 21
5893.0807139359
 31
0.0
  0
LINE
  5
185
330
136
100
AcDbEntity
  8
0
  6
Continuous
 62
   179
100
AcDbLine
 10
538.0293793386
 20
5893.0807139359
 30
0.0
 11
537.9155556826
 21
5644.3161034396
 31
0.0
  0
LINE
  5
186
330
136
100
AcDbEntity
  8
0
  6
Continuous
 62
   179
100
AcDbLine
 10
537.9155556826
 20
5644.3161034396
 30
0.0
 11
561.0465619986
 21
5396.6565041751
 31
0.0
  0
LINE
  5
187
330
136
100
AcDbEntity
  8
0
  6
Continuous
 62
   179
100
AcDbLine
 10
561.0465619986
 20
5396.6565041751
 30
0.0
 11
610.8365836731
 21
5152.9862283491
 31
0.0
  0
LINE
  5
188
330
136
100
AcDbEntity
  8
0
  6
Continuous
 62
   179
100
AcDbLine
 10
610.8365836731
 20
5152.9862283491
 30
0.0
 11
670.4957765389
 21
4966.8752015955
 31
0.0
  0
LINE
  5
189
330
136
100
AcDbEntity
  8
0
  6
Continuous
 62
   179
100
AcDbLine
 10
670.4957765389
 20
4966.8752015955
 30
0.0
 11
749.0385092576
 21
4787.922755338
 31
0.0
  0
LINE
  5
18A
330
136
100
AcDbEntity
  8
0
  6
Continuous
 62
   179
100
AcDbLine
 10
749.0385092576
 20
4787.922755338
 30
0.0
 11
846.3298658912
 21
4618.4358151253
 31
0.0
  0
LINE
  5
18B
330
136
100
AcDbEntity
  8
0
  6
Continuous
 62
   179
100
AcDbLine
 10
846.3298658912
 20
4618.4358151253
 30
0.0
 11
961.3271095996
 21
4460.4233554942
 31
0.0
  0
LINE
  5
18C
330
136
100
AcDbEntity
  8
0
  6
Continuous
 62
   179
100
AcDbLine
 10
1593.2484263997
 20
3794.8892026942
 30
0.0
 11
2342.8146692
 21
3099.1034974946
 31
0.0
  0
LINE
  5
18D
330
136
100
AcDbEntity
  8
0
  6
Continuous
 62
   179
100
AcDbLine
 10
2342.8146692
 20
3099.1034974946
 30
0.0
 11
2457.4150864402
 21
2985.4804965343
 31
0.0
  0
LINE
  5
18E
330
136
100
AcDbEntity
  8
0
  6
Continuous
 62
   179
100
AcDbLine
 10
2457.4150864402
 20
2985.4804965343
 30
0.0
 11
2562.4777930784
 21
2863.0062246075
 31
0.0
  0
LINE
  5
18F
330
136
100
AcDbEntity
  8
0
  6
Continuous
 62
   179
100
AcDbLine
 10
2562.4777930784
 20
2863.0062246075
 30
0.0
 11
2654.9628244148
 21
2730.8077708033
 31
0.0
  0
LINE
  5
190
330
136
100
AcDbEntity
  8
0
  6
Continuous
 62
   179
100
AcDbLine
 10
2654.9628244148
 20
2730.8077708033
 30
0.0
 11
2730.9070108725
 21
2588.5028322591
 31
0.0
  0
LINE
  5
191
330
136
100
AcDbEntity
  8
0
  6
Continuous
 62
   179
100
AcDbLine
 10
2730.9070108725
 20
2588.5028322591
 30
0.0
 11
2787.6392767372
 21
2429.3959416825
 31
0.0
  0
LINE
  5
192
330
136
100
AcDbEntity
  8
0
  6
Continuous
 62
   179
100
AcDbLine
 10
2787.6392767372
 20
2429.3959416825
 30
0.0
 11
2816.0412804487
 21
2262.9265767885
 31
0.0
  0
LINE
  5
193
330
136
100
AcDbEntity
  8
0
  6
Continuous
 62
   179
100
AcDbLine
 10
2816.0412804487
 20
2262.9265767885
 30
0.0
 11
2813.3943732
 21
2094.0797010946
 31
0.0
  0
LINE
  5
194
330
136
100
AcDbEntity
  8
0
  6
Continuous
 62
   179
100
AcDbLine
 10
2171.3892056002
 20
1438.629399097
 30
0.0
 11
2081.3271648151
 21
1444.5220285234
 31
0.0
  0
LINE
  5
195
330
136
100
AcDbEntity
  8
0
  6
Continuous
 62
   179
100
AcDbLine
 10
2081.3271648151
 20
1444.5220285234
 30
0.0
 11
1993.3677378413
 21
1464.5260106363
 31
0.0
  0
LINE
  5
196
330
136
100
AcDbEntity
  8
0
  6
Continuous
 62
   179
100
AcDbLine
 10
1993.3677378413
 20
1464.5260106363
 30
0.0
 11
1911.3435803354
 21
1501.9115152047
 31
0.0
  0
LINE
  5
197
330
136
100
AcDbEntity
  8
0
  6
Continuous
 62
   179
100
AcDbLine
 10
1911.3435803354
 20
1501.9115152047
 30
0.0
 11
1840.5450992733
 21
1557.6494251181
 31
0.0
  0
LINE
  5
198
330
136
100
AcDbEntity
  8
0
  6
Continuous
 62
   179
100
AcDbLine
 10
1840.5450992733
 20
1557.6494251181
 30
0.0
 11
1785.0445168711
 21
1628.6751044787
 31
0.0
  0
LINE
  5
199
330
136
100
AcDbEntity
  8
0
  6
Continuous
 62
   179
100
AcDbLine
 10
1785.0445168711
 20
1628.6751044787
 30
0.0
 11
1745.2817682865
 21
1709.6405469696
 31
0.0
  0
LINE
  5
19A
330
136
100
AcDbEntity
  8
0
  6
Continuous
 62
   179
100
AcDbLine
 10
1745.2817682865
 20
1709.6405469696
 30
0.0
 11
1710.0353127013
 21
1840.2386565146
 31
0.0
  0
LINE
  5
19B
330
136
100
AcDbEntity
  8
0
  6
Continuous
 62
   179
100
AcDbLine
 10
1710.0353127013
 20
1840.2386565146
 30
0.0
 11
1696.0216688059
 21
1974.8977537186
 31
0.0
  0
LINE
  5
19C
330
136
100
AcDbEntity
  8
0
  6
Continuous
 62
   179
100
AcDbLine
 10
1696.0216688059
 20
1974.8977537186
 30
0.0
 11
1696.5924840549
 21
2110.3283975811
 31
0.0
  0
LINE
  5
19D
330
136
100
AcDbEntity
  8
0
  6
Continuous
 62
   179
100
AcDbLine
 10
1696.5924840549
 20
2110.3283975811
 30
0.0
 11
1707.5320688
 21
2245.3374630946
 31
0.0
  0
LINE
  5
19E
330
136
100
AcDbEntity
  8
0
  6
Continuous
 62
   179
100
AcDbLine
 10
1707.5320688
 20
2245.3374630946
 30
0.0
 11
1781.480308
 21
2897.4264814946
 31
0.0
  0
LINE
  5
19F
330
136
100
AcDbEntity
  8
0
  6
Continuous
 62
   179
100
AcDbLine
 10
1781.480308
 20
2897.4264814946
 30
0.0
 11
94.1159408
 21
2897.4264814946
 31
0.0
  0
LINE
  5
1A0
330
136
100
AcDbEntity
  8
0
  6
Continuous
 62
   179
100
AcDbLine
 10
94.1159408
 20
2897.4264814946
 30
0.0
 11
26.8902688
 21
2295.7567170946
 31
0.0
  0
LINE
  5
1A1
330
136
100
AcDbEntity
  8
0
  6
Continuous
 62
   179
100
AcDbLine
 10
26.8902688
 20
2295.7567170946
 30
0.0
 11
5.8201226117
 21
2068.3689705604
 31
0.0
  0
LINE
  5
1A2
330
136
100
AcDbEntity
  8
0
  6
Continuous
 62
   179
100
AcDbLine
 10
5.8201226117
 20
2068.3689705604
 30
0.0
 11
0.0
 21
1889.0414014946
 31
0.0
  0
LINE
  5
1A3
330
136
100
AcDbEntity
  8
0
  6
Continuous
 62
   179
100
AcDbLine
 10
0.0
 20
1889.0414014946
 30
0.0
 11
0.0
 21
1788.2028934946
 31
0.0
  0
LINE
  5
1A4
330
136
100
AcDbEntity
  8
0
  6
Continuous
 62
   179
100
AcDbLine
 10
0.0
 20
1788.2028934946
 30
0.0
 11
8.4741181851
 21
1597.5992610857
 31
0.0
  0
LINE
  5
1A5
330
136
100
AcDbEntity
  8
0
  6
Continuous
 62
   179
100
AcDbLine
 10
8.4741181851
 20
1597.5992610857
 30
0.0
 11
29.9475321698
 21
1408.0255515191
 31
0.0
  0
LINE
  5
1A6
330
136
100
AcDbEntity
  8
0
  6
Continuous
 62
   179
100
AcDbLine
 10
29.9475321698
 20
1408.0255515191
 30
0.0
 11
66.5196177454
 21
1220.7936775914
 31
0.0
  0
LINE
  5
1A7
330
136
100
AcDbEntity
  8
0
  6
Continuous
 62
   179
100
AcDbLine
 10
66.5196177454
 20
1220.7936775914
 30
0.0
 11
120.5660601196
 21
1037.8592313249
 31
0.0
  0
LINE
  5
1A8
330
136
100
AcDbEntity
  8
0
  6
Continuous
 62
   179
100
AcDbLine
 10
120.5660601196
 20
1037.8592313249
 30
0.0
 11
194.3311383855
 21
861.9730900702
 31
0.0
  0
LINE
  5
1A9
330
136
100
AcDbEntity
  8
0
  6
Continuous
 62
   179
100
AcDbLine
 10
194.3311383855
 20
861.9730900702
 30
0.0
 11
287.5295606573
 21
699.5021482411
 31
0.0
  0
LINE
  5
1AA
330
136
100
AcDbEntity
  8
0
  6
Continuous
 62
   179
100
AcDbLine
 10
287.5295606573
 20
699.5021482411
 30
0.0
 11
401.5974373649
 21
550.9580491856
 31
0.0
  0
LINE
  5
1AB
330
136
100
AcDbEntity
  8
0
  6
Continuous
 62
   179
100
AcDbLine
 10
401.5974373649
 20
550.9580491856
 30
0.0
 11
535.1901037299
 21
419.6995230367
 31
0.0
  0
LINE
  5
1AC
330
136
100
AcDbEntity
  8
0
  6
Continuous
 62
   179
100
AcDbLine
 10
535.1901037299
 20
419.6995230367
 30
0.0
 11
685.4525519751
 21
307.8901613371
 31
0.0
  0
LINE
  5
1AD
330
136
100
AcDbEntity
  8
0
  6
Continuous
 62
   179
100
AcDbLine
 10
685.4525519751
 20
307.8901613371
 30
0.0
 11
880.9909831936
 21
200.7980430706
 31
0.0
  0
LINE
  5
1AE
330
136
100
AcDbEntity
  8
0
  6
Continuous
 62
   179
100
AcDbLine
 10
880.9909831936
 20
200.7980430706
 30
0.0
 11
1088.9648544967
 21
120.3523112471
 31
0.0
  0
LINE
  5
1AF
330
136
100
AcDbEntity
  8
0
  6
Continuous
 62
   179
100
AcDbLine
 10
1088.9648544967
 20
120.3523112471
 30
0.0
 11
1304.5983771836
 21
63.4027511638
 31
0.0
  0
LINE
  5
1B0
330
136
100
AcDbEntity
  8
0
  6
Continuous
 62
   179
100
AcDbLine
 10
1304.5983771836
 20
63.4027511638
 30
0.0
 11
1524.5667113278
 21
26.4353113751
 31
0.0
  0
LINE
  5
1B1
330
136
100
AcDbEntity
  8
0
  6
Continuous
 62
   179
100
AcDbLine
 10
1524.5667113278
 20
26.4353113751
 30
0.0
 11
1746.7181907984
 21
6.2021311101
 31
0.0
  0
LINE
  5
1B2
330
136
100
AcDbEntity
  8
0
  6
Continuous
 62
   179
100
AcDbLine
 10
1746.7181907984
 20
6.2021311101
 30
0.0
 11
1969.7121896
 21
0.0000182946
 31
0.0
  0
LINE
  5
1B3
330
136
100
AcDbEntity
  8
0
  6
Continuous
 62
   179
100
AcDbLine
 10
1969.7121896
 20
0.0000182946
 30
0.0
 11
2235.4163107967
 21
9.0474941519
 31
0.0
  0
LINE
  5
1B4
330
136
100
AcDbEntity
  8
0
  6
Continuous
 62
   179
100
AcDbLine
 10
2235.4163107967
 20
9.0474941519
 30
0.0
 11
2499.6874650753
 21
37.9033605802
 31
0.0
  0
LINE
  5
1B5
330
136
100
AcDbEntity
  8
0
  6
Continuous
 62
   179
100
AcDbLine
 10
2499.6874650753
 20
37.9033605802
 30
0.0
 11
2760.5117042792
 21
89.204615755
 31
0.0
  0
LINE
  5
1B6
330
136
100
AcDbEntity
  8
0
  6
Continuous
 62
   179
100
AcDbLine
 10
2760.5117042792
 20
89.204615755
 30
0.0
 11
3015.1415277313
 21
165.4438899665
 31
0.0
  0
LINE
  5
1B7
330
136
100
AcDbEntity
  8
0
  6
Continuous
 62
   179
100
AcDbLine
 10
3015.1415277313
 20
165.4438899665
 30
0.0
 11
3208.6236023082
 21
244.1201341123
 31
0.0
  0
LINE
  5
1B8
330
136
100
AcDbEntity
  8
0
  6
Continuous
 62
   179
100
AcDbLine
 10
3208.6236023082
 20
244.1201341123
 30
0.0
 11
3394.246790929
 21
339.8610540042
 31
0.0
  0
LINE
  5
1B9
330
136
100
AcDbEntity
  8
0
  6
Continuous
 62
   179
100
AcDbLine
 10
3394.246790929
 20
339.8610540042
 30
0.0
 11
3570.08287903
 21
452.5651803685
 31
0.0
  0
LINE
  5
1BA
330
136
100
AcDbEntity
  8
0
  6
Continuous
 62
   179
100
AcDbLine
 10
3570.08287903
 20
452.5651803685
 30
0.0
 11
3734.3860796
 21
581.5020810946
 31
0.0
  0
LINE
  5
1BB
330
136
100
AcDbEntity
  8
0
  6
Continuous
 62
   179
100
AcDbLine
 10
3734.3860796
 20
581.5020810946
 30
0.0
 11
3918.9619613187
 21
762.6068684982
 31
0.0
  0
LINE
  5
1BC
330
136
100
AcDbEntity
  8
0
  6
Continuous
 62
   179
100
AcDbLine
 10
3918.9619613187
 20
762.6068684982
 30
0.0
 11
4080.6115034165
 21
964.4332031658
 31
0.0
  0
LINE
  5
1BD
330
136
100
AcDbEntity
  8
0
  6
Continuous
 62
   179
100
AcDbLine
 10
4080.6115034165
 20
964.4332031658
 30
0.0
 11
4217.129324297
 21
1184.0491590435
 31
0.0
  0
LINE
  5
1BE
330
136
100
AcDbEntity
  8
0
  6
Continuous
 62
   179
100
AcDbLine
 10
4217.129324297
 20
1184.0491590435
 30
0.0
 11
4327.807798901
 21
1417.7744861233
 31
0.0
  0
LINE
  5
1BF
330
136
100
AcDbEntity
  8
0
  6
Continuous
 62
   179
100
AcDbLine
 10
4327.807798901
 20
1417.7744861233
 30
0.0
 11
4416.8403522579
 21
1673.6616360853
 31
0.0
  0
LINE
  5
1C0
330
136
100
AcDbEntity
  8
0
  6
Continuous
 62
   179
100
AcDbLine
 10
4416.8403522579
 20
1673.6616360853
 30
0.0
 11
4480.332478423
 21
1937.0776350384
 31
0.0
  0
LINE
  5
1C1
330
136
100
AcDbEntity
  8
0
  6
Continuous
 62
   179
100
AcDbLine
 10
4480.332478423
 20
1937.0776350384
 30
0.0
 11
4520.926442
 21
2205.0020598946
 31
0.0
  0
LINE
  5
1C2
330
136
100
AcDbEntity
  8
0
  6
Continuous
 62
   179
100
AcDbLine
 10
4520.926442
 20
2205.0020598946
 30
0.0
 11
4539.8604791128
 21
2434.751251137
 31
0.0
  0
LINE
  5
1C3
330
136
100
AcDbEntity
  8
0
  6
Continuous
 62
   179
100
AcDbLine
 10
4539.8604791128
 20
2434.751251137
 30
0.0
 11
4542.0136171636
 21
2665.2555763504
 31
0.0
  0
LINE
  5
1C4
330
136
100
AcDbEntity
  8
0
  6
Continuous
 62
   179
100
AcDbLine
 10
4542.0136171636
 20
2665.2555763504
 30
0.0
 11
4524.9874932226
 21
2895.1234497405
 31
0.0
  0
LINE
  5
1C5
330
136
100
AcDbEntity
  8
0
  6
Continuous
 62
   179
100
AcDbLine
 10
4524.9874932226
 20
2895.1234497405
 30
0.0
 11
4496.6310776622
 21
3074.0098021703
 31
0.0
  0
LINE
  5
1C6
330
136
100
AcDbEntity
  8
0
  6
Continuous
 62
   179
100
AcDbLine
 10
4496.6310776622
 20
3074.0098021703
 30
0.0
 11
4454.0379981851
 21
3250.0430485054
 31
0.0
  0
LINE
  5
1C7
330
136
100
AcDbEntity
  8
0
  6
Continuous
 62
   179
100
AcDbLine
 10
4454.0379981851
 20
3250.0430485054
 30
0.0
 11
4396.5589488
 21
3421.7867230946
 31
0.0
  0
LINE
  5
1C8
330
136
100
AcDbEntity
  8
0
  6
Continuous
 62
   179
100
AcDbLine
 10
4396.5589488
 20
3421.7867230946
 30
0.0
 11
4335.0775798529
 21
3551.3591107413
 31
0.0
  0
LINE
  5
1C9
330
136
100
AcDbEntity
  8
0
  6
Continuous
 62
   179
100
AcDbLine
 10
4335.0775798529
 20
3551.3591107413
 30
0.0
 11
4262.2002057756
 21
3674.9188547719
 31
0.0
  0
LINE
  5
1CA
330
136
100
AcDbEntity
  8
0
  6
Continuous
 62
   179
100
AcDbLine
 10
4262.2002057756
 20
3674.9188547719
 30
0.0
 11
4181.3183894369
 21
3793.4113089372
 31
0.0
  0
LINE
  5
1CB
330
136
100
AcDbEntity
  8
0
  6
Continuous
 62
   179
100
AcDbLine
 10
4181.3183894369
 20
3793.4113089372
 30
0.0
 11
4078.5227471571
 21
3927.6643628842
 31
0.0
  0
LINE
  5
1CC
330
136
100
AcDbEntity
  8
0
  6
Continuous
 62
   179
100
AcDbLine
 10
4078.5227471571
 20
3927.6643628842
 30
0.0
 11
3969.6759316
 21
4057.0693234946
 31
0.0
  0
LINE
  5
1CD
330
136
100
AcDbEntity
  8
0
  6
Continuous
 62
   179
100
AcDbLine
 10
3969.6759316
 20
4057.0693234946
 30
0.0
 11
3243.638674
 21
4803.2742826946
 31
0.0
  0
LINE
  5
1CE
330
136
100
AcDbEntity
  8
0
  6
Continuous
 62
   179
100
AcDbLine
 10
2467.1821623981
 20
5616.7049138995
 30
0.0
 11
2391.5759134121
 21
5727.7039441288
 31
0.0
  0
LINE
  5
1CF
330
136
100
AcDbEntity
  8
0
  6
Continuous
 62
   179
100
AcDbLine
 10
2391.5759134121
 20
5727.7039441288
 30
0.0
 11
2326.9023872324
 21
5845.3828817498
 31
0.0
  0
LINE
  5
1D0
330
136
100
AcDbEntity
  8
0
  6
Continuous
 62
   179
100
AcDbLine
 10
2326.9023872324
 20
5845.3828817498
 30
0.0
 11
2276.7855321171
 21
5969.9206549293
 31
0.0
  0
LINE
  5
1D1
330
136
100
AcDbEntity
  8
0
  6
Continuous
 62
   179
100
AcDbLine
 10
2276.7855321171
 20
5969.9206549293
 30
0.0
 11
2250.5432565423
 21
6072.0904771882
 31
0.0
  0
LINE
  5
1D2
330
136
100
AcDbEntity
  8
0
  6
Continuous
 62
   179
100
AcDbLine
 10
2250.5432565423
 20
6072.0904771882
 30
0.0
 11
2238.3532498759
 21
6176.8496579539
 31
0.0
  0
LINE
  5
1D3
330
136
100
AcDbEntity
  8
0
  6
Continuous
 62
   179
100
AcDbLine
 10
2238.3532498759
 20
6176.8496579539
 30
0.0
 11
2241.9761612
 21
6282.2390666946
 31
0.0
  0
LINE
  5
1D4
330
136
100
AcDbEntity
  8
0
  6
Continuous
 62
   179
100
AcDbLine
 10
2813.394373201
 20
6877.1862638961
 30
0.0
 11
2899.1450330725
 21
6871.9159884789
 31
0.0
  0
LINE
  5
1D5
330
136
100
AcDbEntity
  8
0
  6
Continuous
 62
   179
100
AcDbLine
 10
2899.1450330725
 20
6871.9159884789
 30
0.0
 11
2983.1458702521
 21
6854.0846279821
 31
0.0
  0
LINE
  5
1D6
330
136
100
AcDbEntity
  8
0
  6
Continuous
 62
   179
100
AcDbLine
 10
2983.1458702521
 20
6854.0846279821
 30
0.0
 11
3062.202014936
 21
6820.6931120196
 31
0.0
  0
LINE
  5
1D7
330
136
100
AcDbEntity
  8
0
  6
Continuous
 62
   179
100
AcDbLine
 10
3062.202014936
 20
6820.6931120196
 30
0.0
 11
3131.6623634801
 21
6770.3629356214
 31
0.0
  0
LINE
  5
1D8
330
136
100
AcDbEntity
  8
0
  6
Continuous
 62
   179
100
AcDbLine
 10
3131.6623634801
 20
6770.3629356214
 30
0.0
 11
3187.37124796
 21
6705.1184696235
 31
0.0
  0
LINE
  5
1D9
330
136
100
AcDbEntity
  8
0
  6
Continuous
 62
   179
100
AcDbLine
 10
3187.37124796
 20
6705.1184696235
 30
0.0
 11
3228.1274776793
 21
6629.5646068072
 31
0.0
  0
LINE
  5
1DA
330
136
100
AcDbEntity
  8
0
  6
Continuous
 62
   179
100
AcDbLine
 10
3228.1274776793
 20
6629.5646068072
 30
0.0
 11
3265.0334180049
 21
6506.2441361359
 31
0.0
  0
LINE
  5
1DB
330
136
100
AcDbEntity
  8
0
  6
Continuous
 62
   179
100
AcDbLine
 10
3265.0334180049
 20
6506.2441361359
 30
0.0
 11
3280.3602104272
 21
6378.3104742822
 31
0.0
  0
LINE
  5
1DC
330
136
100
AcDbEntity
  8
0
  6
Continuous
 62
   179
100
AcDbLine
 10
3280.3602104272
 20
6378.3104742822
 30
0.0
 11
3280.7520241623
 21
6249.4122034737
 31
0.0
  0
LINE
  5
1DD
330
136
100
AcDbEntity
  8
0
  6
Continuous
 62
   179
100
AcDbLine
 10
3280.7520241623
 20
6249.4122034737
 30
0.0
 11
3270.5289428
 21
6120.8974538946
 31
0.0
  0
LINE
  5
1DE
330
136
100
AcDbEntity
  8
0
  6
Continuous
 62
   179
100
AcDbLine
 10
3270.5289428
 20
6120.8974538946
 30
0.0
 11
3206.6645544
 21
5566.2856598946
 31
0.0
  0
LINE
  5
1DF
330
136
100
AcDbEntity
  8
0
  6
Continuous
 62
   179
100
AcDbLine
 10
3206.6645544
 20
5566.2856598946
 30
0.0
 11
4820.0806824005
 21
5566.2856598945
 31
0.0
  0
LINE
  5
1E0
330
136
100
AcDbEntity
  8
0
  6
Continuous
 62
   179
100
AcDbLine
 10
4820.0806824005
 20
5566.2856598945
 30
0.0
 11
4894.0289216005
 21
6231.8198126945
 31
0.0
  0
LINE
  5
1E1
330
136
100
AcDbEntity
  8
0
  6
Continuous
 62
   179
100
AcDbLine
 10
4894.0289216005
 20
6231.8198126945
 30
0.0
 11
4907.4740560005
 21
6366.2711566946
 31
0.0
  0
LINE
  5
1E2
330
136
100
AcDbEntity
  8
0
  6
Continuous
 62
   179
100
AcDbLine
 10
4907.4740560005
 20
6366.2711566946
 30
0.0
 11
4917.4861623745
 21
6641.1377165616
 31
0.0
  0
LINE
  5
1E3
330
136
100
AcDbEntity
  8
0
  6
Continuous
 62
   179
100
AcDbLine
 10
4917.4861623745
 20
6641.1377165616
 30
0.0
 11
4907.4740560005
 21
6857.0185622947
 31
0.0
  0
LINE
  5
1E4
330
136
100
AcDbEntity
  8
0
  6
Continuous
 62
   179
100
AcDbLine
 10
24964.5491205926
 20
0.0000125144
 30
0.0
 11
26583.7619200447
 21
0.0000125144
 31
0.0
  0
LINE
  5
1E5
330
136
100
AcDbEntity
  8
0
  6
Continuous
 62
   179
100
AcDbLine
 10
24964.5491205926
 20
1424.0948297115
 30
0.0
 11
24964.5491205926
 21
0.0000125144
 31
0.0
  0
LINE
  5
1E6
330
136
100
AcDbEntity
  8
0
  6
Continuous
 62
   179
100
AcDbLine
 10
25016.6135325926
 20
7008.8707569115
 30
0.0
 11
24971.491042193
 21
3444.1940153109
 31
0.0
  0
LINE
  5
1E7
330
136
100
AcDbEntity
  8
0
  6
Continuous
 62
   179
100
AcDbLine
 10
24180.1119797926
 20
3343.5361521115
 30
0.0
 11
25016.6135325926
 21
7008.8707569115
 31
0.0
  0
LINE
  5
1E8
330
136
100
AcDbEntity
  8
0
  6
Continuous
 62
   179
100
AcDbLine
 10
23399.1457997926
 20
0.0000125144
 30
0.0
 11
23791.3643701938
 21
1694.8297721102
 31
0.0
  0
LINE
  5
1E9
330
136
100
AcDbEntity
  8
0
  6
Continuous
 62
   179
100
AcDbLine
 10
21618.5429093926
 20
0.0000125144
 30
0.0
 11
23399.1457997926
 21
0.0000125144
 31
0.0
  0
LINE
  5
1EA
330
136
100
AcDbEntity
  8
0
  6
Continuous
 62
   179
100
AcDbLine
 10
23986.756270993
 20
8289.6552921115
 30
0.0
 11
21618.5429093926
 21
0.0000125144
 31
0.0
  0
LINE
  5
1EB
330
136
100
AcDbEntity
  8
0
  6
Continuous
 62
   179
100
AcDbLine
 10
26353.951536593
 20
8289.6552921115
 30
0.0
 11
23986.756270993
 21
8289.6552921115
 31
0.0
  0
LINE
  5
1EC
330
136
100
AcDbEntity
  8
0
  6
Continuous
 62
   179
100
AcDbLine
 10
26583.7619200447
 20
0.0000125144
 30
0.0
 11
26353.951536593
 21
8289.6552921115
 31
0.0
  0
ENDBLK
  5
138
330
136
100
AcDbEntity
  8
0
100
AcDbBlockEnd
  0
BLOCK
  5
1EE
330
1ED
100
AcDbEntity
  8
0
100
AcDbBlockBegin
  2
Projekciju vaizdavimas
 70
     0
 10
0.0
 20
0.0
 30
0.0
  3
Projekciju vaizdavimas
  1

  0
CIRCLE
  5
1F0
330
1ED
100
AcDbEntity
  8
0
  6
Continuous
 62
     7
370
    30
100
AcDbCircle
 10
0.0
 20
0.0
 30
0.0
 40
3.5
  0
CIRCLE
  5
1F1
330
1ED
100
AcDbEntity
  8
0
  6
Continuous
 62
     7
370
    30
100
AcDbCircle
 10
0.0
 20
0.0
 30
0.0
 40
1.5
  0
LINE
  5
1F2
330
1ED
100
AcDbEntity
  8
0
  6
CENTERX2
 62
     7
370
     0
100
AcDbLine
 10
4.5
 20
0.0
 30
0.0
 11
-14.5
 21
0.0
 31
0.0
  0
LINE
  5
1F3
330
1ED
100
AcDbEntity
  8
0
  6
Continuous
 62
     7
370
    30
100
AcDbLine
 10
-13.5
 20
1.5
 30
0.0
 11
-13.5
 21
-1.5
 31
0.0
  0
LINE
  5
1F4
330
1ED
100
AcDbEntity
  8
0
  6
Continuous
 62
     7
370
    30
100
AcDbLine
 10
-13.5
 20
-1.5
 30
0.0
 11
-6.5
 21
-3.5
 31
0.0
  0
LINE
  5
1F5
330
1ED
100
AcDbEntity
  8
0
  6
Continuous
 62
     7
370
    30
100
AcDbLine
 10
-6.5
 20
-3.5
 30
0.0
 11
-6.5
 21
3.5
 31
0.0
  0
LINE
  5
1F6
330
1ED
100
AcDbEntity
  8
0
  6
Continuous
 62
     7
370
    30
100
AcDbLine
 10
-6.5
 20
3.5
 30
0.0
 11
-13.5
 21
1.5
 31
0.0
  0
LINE
  5
1F7
330
1ED
100
AcDbEntity
  8
0
  6
CENTERX2
 62
     7
370
     0
100
AcDbLine
 10
0.0
 20
4.5
 30
0.0
 11
0.0
 21
-4.5
 31
0.0
  0
ENDBLK
  5
1EF
330
1ED
100
AcDbEntity
  8
0
100
AcDbBlockEnd
  0
BLOCK
  5
1F9
330
1F8
100
AcDbEntity
  8
0
100
AcDbBlockBegin
  2
Block3
 70
     0
 10
0.0
 20
0.0
 30
0.0
  3
Block3
  1

  0
ARC
  5
1FB
330
1F8
100
AcDbEntity
  8
0
  6
Continuous
 62
   179
100
AcDbCircle
 10
7867.6649029635
 20
2430.1355419087
 30
0.0
 40
931.6078627493895
100
AcDbArc
 50
232.1189098069
 51
101.3462704492
  0
ARC
  5
1FC
330
1F8
100
AcDbEntity
  8
0
  6
Continuous
 62
   179
100
AcDbCircle
 10
7943.5514462269
 20
2435.9613946537
 30
0.0
 40
1140.079096555486
100
AcDbArc
 50
297.434182935
 51
62.17203318890002
  0
ARC
  5
1FD
330
1F8
100
AcDbEntity
  8
0
  6
Continuous
 62
   179
100
AcDbCircle
 10
20001.4103066854
 20
6936.2583481763
 30
0.0
 40
1270.831290716854
100
AcDbArc
 50
3.4391112699
 51
76.4197578922
  0
ARC
  5
1FE
330
1F8
100
AcDbEntity
  8
0
  6
Continuous
 62
   179
100
AcDbCircle
 10
19239.4822949422
 20
3782.0667000728
 30
0.0
 40
4515.74411667143
100
AcDbArc
 50
76.4197578923
 51
91.6754644339
  0
ARC
  5
1FF
330
1F8
100
AcDbEntity
  8
0
  6
Continuous
 62
   179
100
AcDbCircle
 10
18683.9539720184
 20
2160.1911622497
 30
0.0
 40
2139.476369555804
100
AcDbArc
 50
270.3210228954001
 51
307.7127911617
  0
ARC
  5
200
330
1F8
100
AcDbEntity
  8
0
  6
Continuous
 62
   179
100
AcDbCircle
 10
18746.0422061702
 20
1962.8216117468
 30
0.0
 40
1946.678009873842
100
AcDbArc
 50
309.8210667380999
 51
331.7017265911999
  0
ARC
  5
201
330
1F8
100
AcDbEntity
  8
0
  6
Continuous
 62
   179
100
AcDbCircle
 10
17863.1917469523
 20
2438.1532894658
 30
0.0
 40
2949.35698999881
100
AcDbArc
 50
331.7017265911999
 51
356.0927915539
  0
ARC
  5
202
330
1F8
100
AcDbEntity
  8
0
  6
Continuous
 62
   179
100
AcDbCircle
 10
16755.7856245826
 20
6709.226497343
 30
0.0
 40
4524.342739831098
100
AcDbArc
 50
353.5830630921
 51
3.8434115591
  0
ARC
  5
203
330
1F8
100
AcDbEntity
  8
0
  6
Continuous
 62
   179
100
AcDbCircle
 10
19039.3213693035
 20
6348.9928357667
 30
0.0
 40
506.1072723730909
100
AcDbArc
 50
52.45518083769999
 51
82.2716960779
  0
ARC
  5
204
330
1F8
100
AcDbEntity
  8
0
  6
Continuous
 62
   179
100
AcDbCircle
 10
19108.0528552878
 20
6495.6270812425
 30
0.0
 40
349.7025539282703
100
AcDbArc
 50
10.4012874263
 51
46.7340603611
  0
ARC
  5
205
330
1F8
100
AcDbEntity
  8
0
  6
Continuous
 62
   179
100
AcDbCircle
 10
17417.0070420698
 20
6262.2496105517
 30
0.0
 40
2056.490362340239
100
AcDbArc
 50
355.475249592
 51
8.290034904
  0
ARC
  5
206
330
1F8
100
AcDbEntity
  8
0
  6
Continuous
 62
   179
100
AcDbCircle
 10
16921.0810184775
 20
2478.8840573259
 30
0.0
 40
2122.330793892779
100
AcDbArc
 50
339.2065439429
 51
352.3366543813
  0
ARC
  5
207
330
1F8
100
AcDbEntity
  8
0
  6
Continuous
 62
   179
100
AcDbCircle
 10
18500.143747488
 20
1898.8589115903
 30
0.0
 40
440.5904503964751
100
AcDbArc
 50
293.838270217
 51
336.8232513296001
  0
ARC
  5
208
330
1F8
100
AcDbEntity
  8
0
  6
Continuous
 62
   179
100
AcDbCircle
 10
18201.1477532386
 20
2813.3138324813
 30
0.0
 40
1401.173285533761
100
AcDbArc
 50
267.1686990927
 51
289.9057704419
  0
ARC
  5
209
330
1F8
100
AcDbEntity
  8
0
  6
Continuous
 62
   179
100
AcDbCircle
 10
18751.2701169541
 20
4514.9970927066
 30
0.0
 40
2362.499275286643
100
AcDbArc
 50
81.3304997955
 51
90.0
  0
ARC
  5
20A
330
1F8
100
AcDbEntity
  8
0
  6
Continuous
 62
   179
100
AcDbCircle
 10
6720.6044375296
 20
9296.0579653158
 30
0.0
 40
7520.148763137153
100
AcDbArc
 50
220.017667739
 51
227.0143029097
  0
ARC
  5
20B
330
1F8
100
AcDbEntity
  8
0
  6
Continuous
 62
   179
100
AcDbCircle
 10
2021.3892535935
 20
2163.6755564521
 30
0.0
 40
795.0570373035339
100
AcDbArc
 50
316.8708555891
 51
354.9781479006
  0
ARC
  5
20C
330
1F8
100
AcDbEntity
  8
0
  6
Continuous
 62
   179
100
AcDbCircle
 10
2182.9124170468
 20
2011.9889486322
 30
0.0
 40
573.4753329004777
100
AcDbArc
 50
268.8486412909
 51
316.8986890901
  0
ARC
  5
20D
330
1F8
100
AcDbEntity
  8
0
  6
Continuous
 62
   179
100
AcDbCircle
 10
10525.696072633
 20
12531.6259047731
 30
0.0
 40
10618.65239809051
100
AcDbArc
 50
220.6325257886
 51
226.7030345034
  0
ARC
  5
20E
330
1F8
100
AcDbEntity
  8
0
  6
Continuous
 62
   179
100
AcDbCircle
 10
2962.700769446
 20
6223.5867799529
 30
0.0
 40
723.1072200381735
100
AcDbArc
 50
137.8203941731
 51
175.3475443105
  0
ARC
  5
20F
330
1F8
100
AcDbEntity
  8
0
  6
Continuous
 62
   179
100
AcDbCircle
 10
2808.3239355685
 20
6360.2864243508
 30
0.0
 40
516.9247077280753
100
AcDbArc
 50
89.4379852016
 51
137.5591461504
  0
ARC
  5
210
330
1F8
100
AcDbEntity
  8
0
  6
Continuous
 62
   179
100
AcDbCircle
 10
24439.2811878643
 20
2435.9613946539
 30
0.0
 40
1140.079096554877
100
AcDbArc
 50
297.4341829348999
 51
62.17203318890002
  0
ARC
  5
211
330
1F8
100
AcDbEntity
  8
0
  6
Continuous
 62
   179
100
AcDbCircle
 10
24363.3946446009
 20
2430.1355419089
 30
0.0
 40
931.6078627500976
100
AcDbArc
 50
232.118909807
 51
101.3462704493
  0
LINE
  5
212
330
1F8
100
AcDbEntity
  8
0
  6
Continuous
 62
   179
100
AcDbLine
 10
10088.0321784074
 20
0.0000125144
 30
0.0
 11
9858.2217949557
 21
8289.6552921115
 31
0.0
  0
LINE
  5
213
330
1F8
100
AcDbEntity
  8
0
  6
Continuous
 62
   179
100
AcDbLine
 10
9858.2217949557
 20
8289.6552921115
 30
0.0
 11
7491.0265293557
 21
8289.6552921115
 31
0.0
  0
LINE
  5
214
330
1F8
100
AcDbEntity
  8
0
  6
Continuous
 62
   179
100
AcDbLine
 10
7491.0265293557
 20
8289.6552921115
 30
0.0
 11
5122.8131677553
 21
0.0000125144
 31
0.0
  0
LINE
  5
215
330
1F8
100
AcDbEntity
  8
0
  6
Continuous
 62
   179
100
AcDbLine
 10
5122.8131677553
 20
0.0000125144
 30
0.0
 11
6903.4160581553
 21
0.0000125144
 31
0.0
  0
LINE
  5
216
330
1F8
100
AcDbEntity
  8
0
  6
Continuous
 62
   179
100
AcDbLine
 10
6903.4160581553
 20
0.0000125144
 30
0.0
 11
7295.6346285553
 21
1694.8297721115
 31
0.0
  0
LINE
  5
217
330
1F8
100
AcDbEntity
  8
0
  6
Continuous
 62
   179
100
AcDbLine
 10
7684.3822381561
 20
3343.5361521108
 30
0.0
 11
8520.8837909553
 21
7008.8707569115
 31
0.0
  0
LINE
  5
218
330
1F8
100
AcDbEntity
  8
0
  6
Continuous
 62
   179
100
AcDbLine
 10
8520.8837909553
 20
7008.8707569115
 30
0.0
 11
8475.7613005553
 21
3444.1940153115
 31
0.0
  0
LINE
  5
219
330
1F8
100
AcDbEntity
  8
0
  6
Continuous
 62
   179
100
AcDbLine
 10
8468.8193789565
 20
1424.0948297112
 30
0.0
 11
8468.8193789565
 21
0.0000125144
 31
0.0
  0
LINE
  5
21A
330
1F8
100
AcDbEntity
  8
0
  6
Continuous
 62
   179
100
AcDbLine
 10
8468.8193789565
 20
0.0000125144
 30
0.0
 11
10088.0321784074
 21
0.0000125144
 31
0.0
  0
LINE
  5
21B
330
1F8
100
AcDbEntity
  8
0
  6
Continuous
 62
   179
100
AcDbLine
 10
19107.4500497519
 20
8295.8802112275
 30
0.0
 11
16935.7898769541
 21
8295.8802112275
 31
0.0
  0
LINE
  5
21C
330
1F8
100
AcDbEntity
  8
0
  6
Continuous
 62
   179
100
AcDbLine
 10
16935.7898769541
 20
8295.8802112275
 30
0.0
 11
15991.7401521541
 21
0.0000288275
 31
0.0
  0
LINE
  5
21D
330
1F8
100
AcDbEntity
  8
0
  6
Continuous
 62
   179
100
AcDbLine
 10
15991.7401521541
 20
0.0000288275
 30
0.0
 11
17855.6331985541
 21
0.0000288275
 31
0.0
  0
LINE
  5
21E
330
1F8
100
AcDbEntity
  8
0
  6
Continuous
 62
   179
100
AcDbLine
 10
17855.6331985541
 20
0.0000288275
 30
0.0
 11
18695.9411953541
 21
20.7483744275
 31
0.0
  0
LINE
  5
21F
330
1F8
100
AcDbEntity
  8
0
  6
Continuous
 62
   179
100
AcDbLine
 10
20805.6935873772
 20
2237.1817154785
 30
0.0
 11
21251.7830177772
 21
6203.5737826763
 31
0.0
  0
LINE
  5
220
330
1F8
100
AcDbEntity
  8
0
  6
Continuous
 62
   179
100
AcDbLine
 10
19024.4566673541
 20
2195.8666048275
 30
0.0
 11
19467.0880401544
 21
6100.0136352237
 31
0.0
  0
LINE
  5
221
330
1F8
100
AcDbEntity
  8
0
  6
Continuous
 62
   179
100
AcDbLine
 10
17907.5040625541
 20
1417.8036448275
 30
0.0
 11
18131.936218492
 21
1413.8509571068
 31
0.0
  0
LINE
  5
222
330
1F8
100
AcDbEntity
  8
0
  6
Continuous
 62
   179
100
AcDbLine
 10
18529.9544305541
 20
6877.4963679933
 30
0.0
 11
17907.5040625541
 21
1417.8036448275
 31
0.0
  0
LINE
  5
223
330
1F8
100
AcDbEntity
  8
0
  6
Continuous
 62
   179
100
AcDbLine
 10
18751.2701169541
 20
6877.4963679933
 30
0.0
 11
18529.9544305541
 21
6877.4963679933
 31
0.0
  0
LINE
  5
224
330
1F8
100
AcDbEntity
  8
0
  6
Continuous
 62
   179
100
AcDbLine
 10
11134.6446741053
 20
0.0
 30
0.0
 11
14807.1018453053
 21
0.0
 31
0.0
  0
LINE
  5
225
330
1F8
100
AcDbEntity
  8
0
  6
Continuous
 62
   179
100
AcDbLine
 10
14807.1018453053
 20
0.0
 30
0.0
 11
14990.3788981053
 21
1625.287072
 31
0.0
  0
LINE
  5
226
330
1F8
100
AcDbEntity
  8
0
  6
Continuous
 62
   179
100
AcDbLine
 10
14990.3788981053
 20
1625.287072
 30
0.0
 11
13071.1569301053
 21
1625.287072
 31
0.0
  0
LINE
  5
227
330
1F8
100
AcDbEntity
  8
0
  6
Continuous
 62
   179
100
AcDbLine
 10
13071.1569301053
 20
1625.287072
 30
0.0
 11
13828.4715445053
 21
8295.8801824
 31
0.0
  0
LINE
  5
228
330
1F8
100
AcDbEntity
  8
0
  6
Continuous
 62
   179
100
AcDbLine
 10
13828.4715445053
 20
8295.8801824
 30
0.0
 11
12075.2363413053
 21
8295.8801824
 31
0.0
  0
LINE
  5
229
330
1F8
100
AcDbEntity
  8
0
  6
Continuous
 62
   179
100
AcDbLine
 10
12075.2363413053
 20
8295.8801824
 30
0.0
 11
11134.6446741053
 21
0.0
 31
0.0
  0
LINE
  5
22A
330
1F8
100
AcDbEntity
  8
0
  6
Continuous
 62
   179
100
AcDbLine
 10
4907.4740560005
 20
6857.0185622947
 30
0.0
 11
4882.7391856278
 21
7041.1497513646
 31
0.0
  0
LINE
  5
22B
330
1F8
100
AcDbEntity
  8
0
  6
Continuous
 62
   179
100
AcDbLine
 10
4882.7391856278
 20
7041.1497513646
 30
0.0
 11
4840.84097804
 21
7222.1279289072
 31
0.0
  0
LINE
  5
22C
330
1F8
100
AcDbEntity
  8
0
  6
Continuous
 62
   179
100
AcDbLine
 10
4840.84097804
 20
7222.1279289072
 30
0.0
 11
4779.230404759
 21
7397.3516386623
 31
0.0
  0
LINE
  5
22D
330
1F8
100
AcDbEntity
  8
0
  6
Continuous
 62
   179
100
AcDbLine
 10
4779.230404759
 20
7397.3516386623
 30
0.0
 11
4695.8753846469
 21
7563.306056288
 31
0.0
  0
LINE
  5
22E
330
1F8
100
AcDbEntity
  8
0
  6
Continuous
 62
   179
100
AcDbLine
 10
4695.8753846469
 20
7563.306056288
 30
0.0
 11
4590.0094760133
 21
7715.8622667097
 31
0.0
  0
LINE
  5
22F
330
1F8
100
AcDbEntity
  8
0
  6
Continuous
 62
   179
100
AcDbLine
 10
4590.0094760133
 20
7715.8622667097
 30
0.0
 11
4462.7758841487
 21
7851.1049960358
 31
0.0
  0
LINE
  5
230
330
1F8
100
AcDbEntity
  8
0
  6
Continuous
 62
   179
100
AcDbLine
 10
4462.7758841487
 20
7851.1049960358
 30
0.0
 11
4317.19779369
 21
7966.3918164371
 31
0.0
  0
LINE
  5
231
330
1F8
100
AcDbEntity
  8
0
  6
Continuous
 62
   179
100
AcDbLine
 10
4317.19779369
 20
7966.3918164371
 30
0.0
 11
4157.3549470669
 21
8060.9636993174
 31
0.0
  0
LINE
  5
232
330
1F8
100
AcDbEntity
  8
0
  6
Continuous
 62
   179
100
AcDbLine
 10
4157.3549470669
 20
8060.9636993174
 30
0.0
 11
3942.3832434805
 21
8152.0001345594
 31
0.0
  0
LINE
  5
233
330
1F8
100
AcDbEntity
  8
0
  6
Continuous
 62
   179
100
AcDbLine
 10
3942.3832434805
 20
8152.0001345594
 30
0.0
 11
3717.7379879586
 21
8215.7306159908
 31
0.0
  0
LINE
  5
234
330
1F8
100
AcDbEntity
  8
0
  6
Continuous
 62
   179
100
AcDbLine
 10
3717.7379879586
 20
8215.7306159908
 30
0.0
 11
3487.8010416052
 21
8256.6415379559
 31
0.0
  0
LINE
  5
235
330
1F8
100
AcDbEntity
  8
0
  6
Continuous
 62
   179
100
AcDbLine
 10
3487.8010416052
 20
8256.6415379559
 30
0.0
 11
3255.2826646592
 21
8278.7971759128
 31
0.0
  0
LINE
  5
236
330
1F8
100
AcDbEntity
  8
0
  6
Continuous
 62
   179
100
AcDbLine
 10
3255.2826646592
 20
8278.7971759128
 30
0.0
 11
3021.7939564
 21
8285.5640922951
 31
0.0
  0
LINE
  5
237
330
1F8
100
AcDbEntity
  8
0
  6
Continuous
 62
   179
100
AcDbLine
 10
3021.7939564
 20
8285.5640922951
 30
0.0
 11
2764.7286656624
 21
8276.8167344558
 31
0.0
  0
LINE
  5
238
330
1F8
100
AcDbEntity
  8
0
  6
Continuous
 62
   179
100
AcDbLine
 10
2764.7286656624
 20
8276.8167344558
 30
0.0
 11
2509.0566231212
 21
8248.8448730413
 31
0.0
  0
LINE
  5
239
330
1F8
100
AcDbEntity
  8
0
  6
Continuous
 62
   179
100
AcDbLine
 10
2509.0566231212
 20
8248.8448730413
 30
0.0
 11
2256.7624741697
 21
8198.9693632548
 31
0.0
  0
LINE
  5
23A
330
1F8
100
AcDbEntity
  8
0
  6
Continuous
 62
   179
100
AcDbLine
 10
2256.7624741697
 20
8198.9693632548
 30
0.0
 11
2010.5862549102
 21
8124.6401609584
 31
0.0
  0
LINE
  5
23B
330
1F8
100
AcDbEntity
  8
0
  6
Continuous
 62
   179
100
AcDbLine
 10
2010.5862549102
 20
8124.6401609584
 30
0.0
 11
1823.7042907144
 21
8047.7718170144
 31
0.0
  0
LINE
  5
23C
330
1F8
100
AcDbEntity
  8
0
  6
Continuous
 62
   179
100
AcDbLine
 10
1823.7042907144
 20
8047.7718170144
 30
0.0
 11
1644.6605427625
 21
7954.1022052786
 31
0.0
  0
LINE
  5
23D
330
1F8
100
AcDbEntity
  8
0
  6
Continuous
 62
   179
100
AcDbLine
 10
1644.6605427625
 20
7954.1022052786
 30
0.0
 11
1475.390327491
 21
7843.7545704421
 31
0.0
  0
LINE
  5
23E
330
1F8
100
AcDbEntity
  8
0
  6
Continuous
 62
   179
100
AcDbLine
 10
1475.390327491
 20
7843.7545704421
 30
0.0
 11
1317.6231711996
 21
7717.507163895
 31
0.0
  0
LINE
  5
23F
330
1F8
100
AcDbEntity
  8
0
  6
Continuous
 62
   179
100
AcDbLine
 10
1317.6231711996
 20
7717.507163895
 30
0.0
 11
1139.538084005
 21
7540.9583629978
 31
0.0
  0
LINE
  5
240
330
1F8
100
AcDbEntity
  8
0
  6
Continuous
 62
   179
100
AcDbLine
 10
1139.538084005
 20
7540.9583629978
 30
0.0
 11
983.4661868123
 21
7344.6865403276
 31
0.0
  0
LINE
  5
241
330
1F8
100
AcDbEntity
  8
0
  6
Continuous
 62
   179
100
AcDbLine
 10
983.4661868123
 20
7344.6865403276
 30
0.0
 11
851.5325681984
 21
7131.4315088069
 31
0.0
  0
LINE
  5
242
330
1F8
100
AcDbEntity
  8
0
  6
Continuous
 62
   179
100
AcDbLine
 10
851.5325681984
 20
7131.4315088069
 30
0.0
 11
744.4774564036
 21
6904.647070365
 31
0.0
  0
LINE
  5
243
330
1F8
100
AcDbEntity
  8
0
  6
Continuous
 62
   179
100
AcDbLine
 10
744.4774564036
 20
6904.647070365
 30
0.0
 11
658.3392621499
 21
6656.4327422403
 31
0.0
  0
LINE
  5
244
330
1F8
100
AcDbEntity
  8
0
  6
Continuous
 62
   179
100
AcDbLine
 10
658.3392621499
 20
6656.4327422403
 30
0.0
 11
596.9943576213
 21
6400.9335325463
 31
0.0
  0
LINE
  5
245
330
1F8
100
AcDbEntity
  8
0
  6
Continuous
 62
   179
100
AcDbLine
 10
596.9943576213
 20
6400.9335325463
 30
0.0
 11
557.9730775995
 21
6141.0651554946
 31
0.0
  0
LINE
  5
246
330
1F8
100
AcDbEntity
  8
0
  6
Continuous
 62
   179
100
AcDbLine
 10
557.9730775995
 20
6141.0651554946
 30
0.0
 11
538.0293793386
 21
5893.0807139359
 31
0.0
  0
LINE
  5
247
330
1F8
100
AcDbEntity
  8
0
  6
Continuous
 62
   179
100
AcDbLine
 10
538.0293793386
 20
5893.0807139359
 30
0.0
 11
537.9155556826
 21
5644.3161034396
 31
0.0
  0
LINE
  5
248
330
1F8
100
AcDbEntity
  8
0
  6
Continuous
 62
   179
100
AcDbLine
 10
537.9155556826
 20
5644.3161034396
 30
0.0
 11
561.0465619986
 21
5396.6565041751
 31
0.0
  0
LINE
  5
249
330
1F8
100
AcDbEntity
  8
0
  6
Continuous
 62
   179
100
AcDbLine
 10
561.0465619986
 20
5396.6565041751
 30
0.0
 11
610.8365836731
 21
5152.9862283491
 31
0.0
  0
LINE
  5
24A
330
1F8
100
AcDbEntity
  8
0
  6
Continuous
 62
   179
100
AcDbLine
 10
610.8365836731
 20
5152.9862283491
 30
0.0
 11
670.4957765389
 21
4966.8752015955
 31
0.0
  0
LINE
  5
24B
330
1F8
100
AcDbEntity
  8
0
  6
Continuous
 62
   179
100
AcDbLine
 10
670.4957765389
 20
4966.8752015955
 30
0.0
 11
749.0385092576
 21
4787.922755338
 31
0.0
  0
LINE
  5
24C
330
1F8
100
AcDbEntity
  8
0
  6
Continuous
 62
   179
100
AcDbLine
 10
749.0385092576
 20
4787.922755338
 30
0.0
 11
846.3298658912
 21
4618.4358151253
 31
0.0
  0
LINE
  5
24D
330
1F8
100
AcDbEntity
  8
0
  6
Continuous
 62
   179
100
AcDbLine
 10
846.3298658912
 20
4618.4358151253
 30
0.0
 11
961.3271095996
 21
4460.4233554942
 31
0.0
  0
LINE
  5
24E
330
1F8
100
AcDbEntity
  8
0
  6
Continuous
 62
   179
100
AcDbLine
 10
1593.2484263997
 20
3794.8892026942
 30
0.0
 11
2342.8146692
 21
3099.1034974946
 31
0.0
  0
LINE
  5
24F
330
1F8
100
AcDbEntity
  8
0
  6
Continuous
 62
   179
100
AcDbLine
 10
2342.8146692
 20
3099.1034974946
 30
0.0
 11
2457.4150864402
 21
2985.4804965343
 31
0.0
  0
LINE
  5
250
330
1F8
100
AcDbEntity
  8
0
  6
Continuous
 62
   179
100
AcDbLine
 10
2457.4150864402
 20
2985.4804965343
 30
0.0
 11
2562.4777930784
 21
2863.0062246075
 31
0.0
  0
LINE
  5
251
330
1F8
100
AcDbEntity
  8
0
  6
Continuous
 62
   179
100
AcDbLine
 10
2562.4777930784
 20
2863.0062246075
 30
0.0
 11
2654.9628244148
 21
2730.8077708033
 31
0.0
  0
LINE
  5
252
330
1F8
100
AcDbEntity
  8
0
  6
Continuous
 62
   179
100
AcDbLine
 10
2654.9628244148
 20
2730.8077708033
 30
0.0
 11
2730.9070108725
 21
2588.5028322591
 31
0.0
  0
LINE
  5
253
330
1F8
100
AcDbEntity
  8
0
  6
Continuous
 62
   179
100
AcDbLine
 10
2730.9070108725
 20
2588.5028322591
 30
0.0
 11
2787.6392767372
 21
2429.3959416825
 31
0.0
  0
LINE
  5
254
330
1F8
100
AcDbEntity
  8
0
  6
Continuous
 62
   179
100
AcDbLine
 10
2787.6392767372
 20
2429.3959416825
 30
0.0
 11
2816.0412804487
 21
2262.9265767885
 31
0.0
  0
LINE
  5
255
330
1F8
100
AcDbEntity
  8
0
  6
Continuous
 62
   179
100
AcDbLine
 10
2816.0412804487
 20
2262.9265767885
 30
0.0
 11
2813.3943732
 21
2094.0797010946
 31
0.0
  0
LINE
  5
256
330
1F8
100
AcDbEntity
  8
0
  6
Continuous
 62
   179
100
AcDbLine
 10
2171.3892056002
 20
1438.629399097
 30
0.0
 11
2081.3271648151
 21
1444.5220285234
 31
0.0
  0
LINE
  5
257
330
1F8
100
AcDbEntity
  8
0
  6
Continuous
 62
   179
100
AcDbLine
 10
2081.3271648151
 20
1444.5220285234
 30
0.0
 11
1993.3677378413
 21
1464.5260106363
 31
0.0
  0
LINE
  5
258
330
1F8
100
AcDbEntity
  8
0
  6
Continuous
 62
   179
100
AcDbLine
 10
1993.3677378413
 20
1464.5260106363
 30
0.0
 11
1911.3435803354
 21
1501.9115152047
 31
0.0
  0
LINE
  5
259
330
1F8
100
AcDbEntity
  8
0
  6
Continuous
 62
   179
100
AcDbLine
 10
1911.3435803354
 20
1501.9115152047
 30
0.0
 11
1840.5450992733
 21
1557.6494251181
 31
0.0
  0
LINE
  5
25A
330
1F8
100
AcDbEntity
  8
0
  6
Continuous
 62
   179
100
AcDbLine
 10
1840.5450992733
 20
1557.6494251181
 30
0.0
 11
1785.0445168711
 21
1628.6751044787
 31
0.0
  0
LINE
  5
25B
330
1F8
100
AcDbEntity
  8
0
  6
Continuous
 62
   179
100
AcDbLine
 10
1785.0445168711
 20
1628.6751044787
 30
0.0
 11
1745.2817682865
 21
1709.6405469696
 31
0.0
  0
LINE
  5
25C
330
1F8
100
AcDbEntity
  8
0
  6
Continuous
 62
   179
100
AcDbLine
 10
1745.2817682865
 20
1709.6405469696
 30
0.0
 11
1710.0353127013
 21
1840.2386565146
 31
0.0
  0
LINE
  5
25D
330
1F8
100
AcDbEntity
  8
0
  6
Continuous
 62
   179
100
AcDbLine
 10
1710.0353127013
 20
1840.2386565146
 30
0.0
 11
1696.0216688059
 21
1974.8977537186
 31
0.0
  0
LINE
  5
25E
330
1F8
100
AcDbEntity
  8
0
  6
Continuous
 62
   179
100
AcDbLine
 10
1696.0216688059
 20
1974.8977537186
 30
0.0
 11
1696.5924840549
 21
2110.3283975811
 31
0.0
  0
LINE
  5
25F
330
1F8
100
AcDbEntity
  8
0
  6
Continuous
 62
   179
100
AcDbLine
 10
1696.5924840549
 20
2110.3283975811
 30
0.0
 11
1707.5320688
 21
2245.3374630946
 31
0.0
  0
LINE
  5
260
330
1F8
100
AcDbEntity
  8
0
  6
Continuous
 62
   179
100
AcDbLine
 10
1707.5320688
 20
2245.3374630946
 30
0.0
 11
1781.480308
 21
2897.4264814946
 31
0.0
  0
LINE
  5
261
330
1F8
100
AcDbEntity
  8
0
  6
Continuous
 62
   179
100
AcDbLine
 10
1781.480308
 20
2897.4264814946
 30
0.0
 11
94.1159408
 21
2897.4264814946
 31
0.0
  0
LINE
  5
262
330
1F8
100
AcDbEntity
  8
0
  6
Continuous
 62
   179
100
AcDbLine
 10
94.1159408
 20
2897.4264814946
 30
0.0
 11
26.8902688
 21
2295.7567170946
 31
0.0
  0
LINE
  5
263
330
1F8
100
AcDbEntity
  8
0
  6
Continuous
 62
   179
100
AcDbLine
 10
26.8902688
 20
2295.7567170946
 30
0.0
 11
5.8201226117
 21
2068.3689705604
 31
0.0
  0
LINE
  5
264
330
1F8
100
AcDbEntity
  8
0
  6
Continuous
 62
   179
100
AcDbLine
 10
5.8201226117
 20
2068.3689705604
 30
0.0
 11
0.0
 21
1889.0414014946
 31
0.0
  0
LINE
  5
265
330
1F8
100
AcDbEntity
  8
0
  6
Continuous
 62
   179
100
AcDbLine
 10
0.0
 20
1889.0414014946
 30
0.0
 11
0.0
 21
1788.2028934946
 31
0.0
  0
LINE
  5
266
330
1F8
100
AcDbEntity
  8
0
  6
Continuous
 62
   179
100
AcDbLine
 10
0.0
 20
1788.2028934946
 30
0.0
 11
8.4741181851
 21
1597.5992610857
 31
0.0
  0
LINE
  5
267
330
1F8
100
AcDbEntity
  8
0
  6
Continuous
 62
   179
100
AcDbLine
 10
8.4741181851
 20
1597.5992610857
 30
0.0
 11
29.9475321698
 21
1408.0255515191
 31
0.0
  0
LINE
  5
268
330
1F8
100
AcDbEntity
  8
0
  6
Continuous
 62
   179
100
AcDbLine
 10
29.9475321698
 20
1408.0255515191
 30
0.0
 11
66.5196177454
 21
1220.7936775914
 31
0.0
  0
LINE
  5
269
330
1F8
100
AcDbEntity
  8
0
  6
Continuous
 62
   179
100
AcDbLine
 10
66.5196177454
 20
1220.7936775914
 30
0.0
 11
120.5660601196
 21
1037.8592313249
 31
0.0
  0
LINE
  5
26A
330
1F8
100
AcDbEntity
  8
0
  6
Continuous
 62
   179
100
AcDbLine
 10
120.5660601196
 20
1037.8592313249
 30
0.0
 11
194.3311383855
 21
861.9730900702
 31
0.0
  0
LINE
  5
26B
330
1F8
100
AcDbEntity
  8
0
  6
Continuous
 62
   179
100
AcDbLine
 10
194.3311383855
 20
861.9730900702
 30
0.0
 11
287.5295606573
 21
699.5021482411
 31
0.0
  0
LINE
  5
26C
330
1F8
100
AcDbEntity
  8
0
  6
Continuous
 62
   179
100
AcDbLine
 10
287.5295606573
 20
699.5021482411
 30
0.0
 11
401.5974373649
 21
550.9580491856
 31
0.0
  0
LINE
  5
26D
330
1F8
100
AcDbEntity
  8
0
  6
Continuous
 62
   179
100
AcDbLine
 10
401.5974373649
 20
550.9580491856
 30
0.0
 11
535.1901037299
 21
419.6995230367
 31
0.0
  0
LINE
  5
26E
330
1F8
100
AcDbEntity
  8
0
  6
Continuous
 62
   179
100
AcDbLine
 10
535.1901037299
 20
419.6995230367
 30
0.0
 11
685.4525519751
 21
307.8901613371
 31
0.0
  0
LINE
  5
26F
330
1F8
100
AcDbEntity
  8
0
  6
Continuous
 62
   179
100
AcDbLine
 10
685.4525519751
 20
307.8901613371
 30
0.0
 11
880.9909831936
 21
200.7980430706
 31
0.0
  0
LINE
  5
270
330
1F8
100
AcDbEntity
  8
0
  6
Continuous
 62
   179
100
AcDbLine
 10
880.9909831936
 20
200.7980430706
 30
0.0
 11
1088.9648544967
 21
120.3523112471
 31
0.0
  0
LINE
  5
271
330
1F8
100
AcDbEntity
  8
0
  6
Continuous
 62
   179
100
AcDbLine
 10
1088.9648544967
 20
120.3523112471
 30
0.0
 11
1304.5983771836
 21
63.4027511638
 31
0.0
  0
LINE
  5
272
330
1F8
100
AcDbEntity
  8
0
  6
Continuous
 62
   179
100
AcDbLine
 10
1304.5983771836
 20
63.4027511638
 30
0.0
 11
1524.5667113278
 21
26.4353113751
 31
0.0
  0
LINE
  5
273
330
1F8
100
AcDbEntity
  8
0
  6
Continuous
 62
   179
100
AcDbLine
 10
1524.5667113278
 20
26.4353113751
 30
0.0
 11
1746.7181907984
 21
6.2021311101
 31
0.0
  0
LINE
  5
274
330
1F8
100
AcDbEntity
  8
0
  6
Continuous
 62
   179
100
AcDbLine
 10
1746.7181907984
 20
6.2021311101
 30
0.0
 11
1969.7121896
 21
0.0000182946
 31
0.0
  0
LINE
  5
275
330
1F8
100
AcDbEntity
  8
0
  6
Continuous
 62
   179
100
AcDbLine
 10
1969.7121896
 20
0.0000182946
 30
0.0
 11
2235.4163107967
 21
9.0474941519
 31
0.0
  0
LINE
  5
276
330
1F8
100
AcDbEntity
  8
0
  6
Continuous
 62
   179
100
AcDbLine
 10
2235.4163107967
 20
9.0474941519
 30
0.0
 11
2499.6874650753
 21
37.9033605802
 31
0.0
  0
LINE
  5
277
330
1F8
100
AcDbEntity
  8
0
  6
Continuous
 62
   179
100
AcDbLine
 10
2499.6874650753
 20
37.9033605802
 30
0.0
 11
2760.5117042792
 21
89.204615755
 31
0.0
  0
LINE
  5
278
330
1F8
100
AcDbEntity
  8
0
  6
Continuous
 62
   179
100
AcDbLine
 10
2760.5117042792
 20
89.204615755
 30
0.0
 11
3015.1415277313
 21
165.4438899665
 31
0.0
  0
LINE
  5
279
330
1F8
100
AcDbEntity
  8
0
  6
Continuous
 62
   179
100
AcDbLine
 10
3015.1415277313
 20
165.4438899665
 30
0.0
 11
3208.6236023082
 21
244.1201341123
 31
0.0
  0
LINE
  5
27A
330
1F8
100
AcDbEntity
  8
0
  6
Continuous
 62
   179
100
AcDbLine
 10
3208.6236023082
 20
244.1201341123
 30
0.0
 11
3394.246790929
 21
339.8610540042
 31
0.0
  0
LINE
  5
27B
330
1F8
100
AcDbEntity
  8
0
  6
Continuous
 62
   179
100
AcDbLine
 10
3394.246790929
 20
339.8610540042
 30
0.0
 11
3570.08287903
 21
452.5651803685
 31
0.0
  0
LINE
  5
27C
330
1F8
100
AcDbEntity
  8
0
  6
Continuous
 62
   179
100
AcDbLine
 10
3570.08287903
 20
452.5651803685
 30
0.0
 11
3734.3860796
 21
581.5020810946
 31
0.0
  0
LINE
  5
27D
330
1F8
100
AcDbEntity
  8
0
  6
Continuous
 62
   179
100
AcDbLine
 10
3734.3860796
 20
581.5020810946
 30
0.0
 11
3918.9619613187
 21
762.6068684982
 31
0.0
  0
LINE
  5
27E
330
1F8
100
AcDbEntity
  8
0
  6
Continuous
 62
   179
100
AcDbLine
 10
3918.9619613187
 20
762.6068684982
 30
0.0
 11
4080.6115034165
 21
964.4332031658
 31
0.0
  0
LINE
  5
27F
330
1F8
100
AcDbEntity
  8
0
  6
Continuous
 62
   179
100
AcDbLine
 10
4080.6115034165
 20
964.4332031658
 30
0.0
 11
4217.129324297
 21
1184.0491590435
 31
0.0
  0
LINE
  5
280
330
1F8
100
AcDbEntity
  8
0
  6
Continuous
 62
   179
100
AcDbLine
 10
4217.129324297
 20
1184.0491590435
 30
0.0
 11
4327.807798901
 21
1417.7744861233
 31
0.0
  0
LINE
  5
281
330
1F8
100
AcDbEntity
  8
0
  6
Continuous
 62
   179
100
AcDbLine
 10
4327.807798901
 20
1417.7744861233
 30
0.0
 11
4416.8403522579
 21
1673.6616360853
 31
0.0
  0
LINE
  5
282
330
1F8
100
AcDbEntity
  8
0
  6
Continuous
 62
   179
100
AcDbLine
 10
4416.8403522579
 20
1673.6616360853
 30
0.0
 11
4480.332478423
 21
1937.0776350384
 31
0.0
  0
LINE
  5
283
330
1F8
100
AcDbEntity
  8
0
  6
Continuous
 62
   179
100
AcDbLine
 10
4480.332478423
 20
1937.0776350384
 30
0.0
 11
4520.926442
 21
2205.0020598946
 31
0.0
  0
LINE
  5
284
330
1F8
100
AcDbEntity
  8
0
  6
Continuous
 62
   179
100
AcDbLine
 10
4520.926442
 20
2205.0020598946
 30
0.0
 11
4539.8604791128
 21
2434.751251137
 31
0.0
  0
LINE
  5
285
330
1F8
100
AcDbEntity
  8
0
  6
Continuous
 62
   179
100
AcDbLine
 10
4539.8604791128
 20
2434.751251137
 30
0.0
 11
4542.0136171636
 21
2665.2555763504
 31
0.0
  0
LINE
  5
286
330
1F8
100
AcDbEntity
  8
0
  6
Continuous
 62
   179
100
AcDbLine
 10
4542.0136171636
 20
2665.2555763504
 30
0.0
 11
4524.9874932226
 21
2895.1234497405
 31
0.0
  0
LINE
  5
287
330
1F8
100
AcDbEntity
  8
0
  6
Continuous
 62
   179
100
AcDbLine
 10
4524.9874932226
 20
2895.1234497405
 30
0.0
 11
4496.6310776622
 21
3074.0098021703
 31
0.0
  0
LINE
  5
288
330
1F8
100
AcDbEntity
  8
0
  6
Continuous
 62
   179
100
AcDbLine
 10
4496.6310776622
 20
3074.0098021703
 30
0.0
 11
4454.0379981851
 21
3250.0430485054
 31
0.0
  0
LINE
  5
289
330
1F8
100
AcDbEntity
  8
0
  6
Continuous
 62
   179
100
AcDbLine
 10
4454.0379981851
 20
3250.0430485054
 30
0.0
 11
4396.5589488
 21
3421.7867230946
 31
0.0
  0
LINE
  5
28A
330
1F8
100
AcDbEntity
  8
0
  6
Continuous
 62
   179
100
AcDbLine
 10
4396.5589488
 20
3421.7867230946
 30
0.0
 11
4335.0775798529
 21
3551.3591107413
 31
0.0
  0
LINE
  5
28B
330
1F8
100
AcDbEntity
  8
0
  6
Continuous
 62
   179
100
AcDbLine
 10
4335.0775798529
 20
3551.3591107413
 30
0.0
 11
4262.2002057756
 21
3674.9188547719
 31
0.0
  0
LINE
  5
28C
330
1F8
100
AcDbEntity
  8
0
  6
Continuous
 62
   179
100
AcDbLine
 10
4262.2002057756
 20
3674.9188547719
 30
0.0
 11
4181.3183894369
 21
3793.4113089372
 31
0.0
  0
LINE
  5
28D
330
1F8
100
AcDbEntity
  8
0
  6
Continuous
 62
   179
100
AcDbLine
 10
4181.3183894369
 20
3793.4113089372
 30
0.0
 11
4078.5227471571
 21
3927.6643628842
 31
0.0
  0
LINE
  5
28E
330
1F8
100
AcDbEntity
  8
0
  6
Continuous
 62
   179
100
AcDbLine
 10
4078.5227471571
 20
3927.6643628842
 30
0.0
 11
3969.6759316
 21
4057.0693234946
 31
0.0
  0
LINE
  5
28F
330
1F8
100
AcDbEntity
  8
0
  6
Continuous
 62
   179
100
AcDbLine
 10
3969.6759316
 20
4057.0693234946
 30
0.0
 11
3243.638674
 21
4803.2742826946
 31
0.0
  0
LINE
  5
290
330
1F8
100
AcDbEntity
  8
0
  6
Continuous
 62
   179
100
AcDbLine
 10
2467.1821623981
 20
5616.7049138995
 30
0.0
 11
2391.5759134121
 21
5727.7039441288
 31
0.0
  0
LINE
  5
291
330
1F8
100
AcDbEntity
  8
0
  6
Continuous
 62
   179
100
AcDbLine
 10
2391.5759134121
 20
5727.7039441288
 30
0.0
 11
2326.9023872324
 21
5845.3828817498
 31
0.0
  0
LINE
  5
292
330
1F8
100
AcDbEntity
  8
0
  6
Continuous
 62
   179
100
AcDbLine
 10
2326.9023872324
 20
5845.3828817498
 30
0.0
 11
2276.7855321171
 21
5969.9206549293
 31
0.0
  0
LINE
  5
293
330
1F8
100
AcDbEntity
  8
0
  6
Continuous
 62
   179
100
AcDbLine
 10
2276.7855321171
 20
5969.9206549293
 30
0.0
 11
2250.5432565423
 21
6072.0904771882
 31
0.0
  0
LINE
  5
294
330
1F8
100
AcDbEntity
  8
0
  6
Continuous
 62
   179
100
AcDbLine
 10
2250.5432565423
 20
6072.0904771882
 30
0.0
 11
2238.3532498759
 21
6176.8496579539
 31
0.0
  0
LINE
  5
295
330
1F8
100
AcDbEntity
  8
0
  6
Continuous
 62
   179
100
AcDbLine
 10
2238.3532498759
 20
6176.8496579539
 30
0.0
 11
2241.9761612
 21
6282.2390666946
 31
0.0
  0
LINE
  5
296
330
1F8
100
AcDbEntity
  8
0
  6
Continuous
 62
   179
100
AcDbLine
 10
2813.394373201
 20
6877.1862638961
 30
0.0
 11
2899.1450330725
 21
6871.9159884789
 31
0.0
  0
LINE
  5
297
330
1F8
100
AcDbEntity
  8
0
  6
Continuous
 62
   179
100
AcDbLine
 10
2899.1450330725
 20
6871.9159884789
 30
0.0
 11
2983.1458702521
 21
6854.0846279821
 31
0.0
  0
LINE
  5
298
330
1F8
100
AcDbEntity
  8
0
  6
Continuous
 62
   179
100
AcDbLine
 10
2983.1458702521
 20
6854.0846279821
 30
0.0
 11
3062.202014936
 21
6820.6931120196
 31
0.0
  0
LINE
  5
299
330
1F8
100
AcDbEntity
  8
0
  6
Continuous
 62
   179
100
AcDbLine
 10
3062.202014936
 20
6820.6931120196
 30
0.0
 11
3131.6623634801
 21
6770.3629356214
 31
0.0
  0
LINE
  5
29A
330
1F8
100
AcDbEntity
  8
0
  6
Continuous
 62
   179
100
AcDbLine
 10
3131.6623634801
 20
6770.3629356214
 30
0.0
 11
3187.37124796
 21
6705.1184696235
 31
0.0
  0
LINE
  5
29B
330
1F8
100
AcDbEntity
  8
0
  6
Continuous
 62
   179
100
AcDbLine
 10
3187.37124796
 20
6705.1184696235
 30
0.0
 11
3228.1274776793
 21
6629.5646068072
 31
0.0
  0
LINE
  5
29C
330
1F8
100
AcDbEntity
  8
0
  6
Continuous
 62
   179
100
AcDbLine
 10
3228.1274776793
 20
6629.5646068072
 30
0.0
 11
3265.0334180049
 21
6506.2441361359
 31
0.0
  0
LINE
  5
29D
330
1F8
100
AcDbEntity
  8
0
  6
Continuous
 62
   179
100
AcDbLine
 10
3265.0334180049
 20
6506.2441361359
 30
0.0
 11
3280.3602104272
 21
6378.3104742822
 31
0.0
  0
LINE
  5
29E
330
1F8
100
AcDbEntity
  8
0
  6
Continuous
 62
   179
100
AcDbLine
 10
3280.3602104272
 20
6378.3104742822
 30
0.0
 11
3280.7520241623
 21
6249.4122034737
 31
0.0
  0
LINE
  5
29F
330
1F8
100
AcDbEntity
  8
0
  6
Continuous
 62
   179
100
AcDbLine
 10
3280.7520241623
 20
6249.4122034737
 30
0.0
 11
3270.5289428
 21
6120.8974538946
 31
0.0
  0
LINE
  5
2A0
330
1F8
100
AcDbEntity
  8
0
  6
Continuous
 62
   179
100
AcDbLine
 10
3270.5289428
 20
6120.8974538946
 30
0.0
 11
3206.6645544
 21
5566.2856598946
 31
0.0
  0
LINE
  5
2A1
330
1F8
100
AcDbEntity
  8
0
  6
Continuous
 62
   179
100
AcDbLine
 10
3206.6645544
 20
5566.2856598946
 30
0.0
 11
4820.0806824005
 21
5566.2856598945
 31
0.0
  0
LINE
  5
2A2
330
1F8
100
AcDbEntity
  8
0
  6
Continuous
 62
   179
100
AcDbLine
 10
4820.0806824005
 20
5566.2856598945
 30
0.0
 11
4894.0289216005
 21
6231.8198126945
 31
0.0
  0
LINE
  5
2A3
330
1F8
100
AcDbEntity
  8
0
  6
Continuous
 62
   179
100
AcDbLine
 10
4894.0289216005
 20
6231.8198126945
 30
0.0
 11
4907.4740560005
 21
6366.2711566946
 31
0.0
  0
LINE
  5
2A4
330
1F8
100
AcDbEntity
  8
0
  6
Continuous
 62
   179
100
AcDbLine
 10
4907.4740560005
 20
6366.2711566946
 30
0.0
 11
4917.4861623745
 21
6641.1377165616
 31
0.0
  0
LINE
  5
2A5
330
1F8
100
AcDbEntity
  8
0
  6
Continuous
 62
   179
100
AcDbLine
 10
4917.4861623745
 20
6641.1377165616
 30
0.0
 11
4907.4740560005
 21
6857.0185622947
 31
0.0
  0
LINE
  5
2A6
330
1F8
100
AcDbEntity
  8
0
  6
Continuous
 62
   179
100
AcDbLine
 10
24964.5491205926
 20
0.0000125144
 30
0.0
 11
26583.7619200447
 21
0.0000125144
 31
0.0
  0
LINE
  5
2A7
330
1F8
100
AcDbEntity
  8
0
  6
Continuous
 62
   179
100
AcDbLine
 10
24964.5491205926
 20
1424.0948297115
 30
0.0
 11
24964.5491205926
 21
0.0000125144
 31
0.0
  0
LINE
  5
2A8
330
1F8
100
AcDbEntity
  8
0
  6
Continuous
 62
   179
100
AcDbLine
 10
25016.6135325926
 20
7008.8707569115
 30
0.0
 11
24971.491042193
 21
3444.1940153109
 31
0.0
  0
LINE
  5
2A9
330
1F8
100
AcDbEntity
  8
0
  6
Continuous
 62
   179
100
AcDbLine
 10
24180.1119797926
 20
3343.5361521115
 30
0.0
 11
25016.6135325926
 21
7008.8707569115
 31
0.0
  0
LINE
  5
2AA
330
1F8
100
AcDbEntity
  8
0
  6
Continuous
 62
   179
100
AcDbLine
 10
23399.1457997926
 20
0.0000125144
 30
0.0
 11
23791.3643701938
 21
1694.8297721102
 31
0.0
  0
LINE
  5
2AB
330
1F8
100
AcDbEntity
  8
0
  6
Continuous
 62
   179
100
AcDbLine
 10
21618.5429093926
 20
0.0000125144
 30
0.0
 11
23399.1457997926
 21
0.0000125144
 31
0.0
  0
LINE
  5
2AC
330
1F8
100
AcDbEntity
  8
0
  6
Continuous
 62
   179
100
AcDbLine
 10
23986.756270993
 20
8289.6552921115
 30
0.0
 11
21618.5429093926
 21
0.0000125144
 31
0.0
  0
LINE
  5
2AD
330
1F8
100
AcDbEntity
  8
0
  6
Continuous
 62
   179
100
AcDbLine
 10
26353.951536593
 20
8289.6552921115
 30
0.0
 11
23986.756270993
 21
8289.6552921115
 31
0.0
  0
LINE
  5
2AE
330
1F8
100
AcDbEntity
  8
0
  6
Continuous
 62
   179
100
AcDbLine
 10
26583.7619200447
 20
0.0000125144
 30
0.0
 11
26353.951536593
 21
8289.6552921115
 31
0.0
  0
ENDBLK
  5
1FA
330
1F8
100
AcDbEntity
  8
0
100
AcDbBlockEnd
  0
BLOCK
  5
2B0
330
2AF
100
AcDbEntity
  8
0
100
AcDbBlockBegin
  2
Block4
 70
     0
 10
0.0
 20
0.0
 30
0.0
  3
Block4
  1

  0
CIRCLE
  5
2B2
330
2AF
100
AcDbEntity
  8
0
  6
Continuous
 62
     7
370
    30
100
AcDbCircle
 10
0.0
 20
0.0
 30
0.0
 40
3.5
  0
CIRCLE
  5
2B3
330
2AF
100
AcDbEntity
  8
0
  6
Continuous
 62
     7
370
    30
100
AcDbCircle
 10
0.0
 20
0.0
 30
0.0
 40
1.5
  0
LINE
  5
2B4
330
2AF
100
AcDbEntity
  8
0
  6
CENTERX2
 62
     7
370
     0
100
AcDbLine
 10
4.5
 20
0.0
 30
0.0
 11
-14.5
 21
0.0
 31
0.0
  0
LINE
  5
2B5
330
2AF
100
AcDbEntity
  8
0
  6
Continuous
 62
     7
370
    30
100
AcDbLine
 10
-13.5
 20
1.5
 30
0.0
 11
-13.5
 21
-1.5
 31
0.0
  0
LINE
  5
2B6
330
2AF
100
AcDbEntity
  8
0
  6
Continuous
 62
     7
370
    30
100
AcDbLine
 10
-13.5
 20
-1.5
 30
0.0
 11
-6.5
 21
-3.5
 31
0.0
  0
LINE
  5
2B7
330
2AF
100
AcDbEntity
  8
0
  6
Continuous
 62
     7
370
    30
100
AcDbLine
 10
-6.5
 20
-3.5
 30
0.0
 11
-6.5
 21
3.5
 31
0.0
  0
LINE
  5
2B8
330
2AF
100
AcDbEntity
  8
0
  6
Continuous
 62
     7
370
    30
100
AcDbLine
 10
-6.5
 20
3.5
 30
0.0
 11
-13.5
 21
1.5
 31
0.0
  0
LINE
  5
2B9
330
2AF
100
AcDbEntity
  8
0
  6
CENTERX2
 62
     7
370
     0
100
AcDbLine
 10
0.0
 20
4.5
 30
0.0
 11
0.0
 21
-4.5
 31
0.0
  0
ENDBLK
  5
2B1
330
2AF
100
AcDbEntity
  8
0
100
AcDbBlockEnd
  0
BLOCK
  5
87C
330
87B
100
AcDbEntity
  8
0
100
AcDbBlockBegin
  2
*U8
 70
     1
 10
0.0
 20
0.0
 30
0.0
  3
*U8
  1

  0
TEXT
  5
87D
330
87B
100
AcDbEntity
  8
LENKIMO
  6
CENTERX2
100
AcDbText
 10
799.0717146298566
 20
1100.336970457902
 30
0.0
 40
100.0
  1
A
100
AcDbText
  0
ENDBLK
  5
87E
330
87B
100
AcDbEntity
  8
0
100
AcDbBlockEnd
  0
BLOCK
  5
887
330
886
100
AcDbEntity
  8
0
100
AcDbBlockBegin
  2
*U9
 70
     1
 10
0.0
 20
0.0
 30
0.0
  3
*U9
  1

  0
TEXT
  5
888
330
886
100
AcDbEntity
  8
LENKIMO
  6
CENTERX2
100
AcDbText
 10
801.2712978691851
 20
1410.897389739665
 30
0.0
 40
100.0
  1
B
100
AcDbText
  0
ENDBLK
  5
889
330
886
100
AcDbEntity
  8
0
100
AcDbBlockEnd
  0
BLOCK
  5
894
330
893
100
AcDbEntity
  8
0
100
AcDbBlockBegin
  2
*U10
 70
     1
 10
0.0
 20
0.0
 30
0.0
  3
*U10
  1

  0
TEXT
  5
895
330
893
100
AcDbEntity
  8
LENKIMO
  6
CENTERX2
100
AcDbText
 10
799.0717146298566
 20
1100.336970457902
 30
0.0
 40
100.0
  1
A
100
AcDbText
  0
ENDBLK
  5
896
330
893
100
AcDbEntity
  8
0
100
AcDbBlockEnd
  0
BLOCK
  5
899
330
898
100
AcDbEntity
  8
0
100
AcDbBlockBegin
  2
*U11
 70
     1
 10
0.0
 20
0.0
 30
0.0
  3
*U11
  1

  0
TEXT
  5
89A
330
898
100
AcDbEntity
  8
LENKIMO
  6
CENTERX2
100
AcDbText
 10
799.0717146298566
 20
1100.336970457902
 30
0.0
 40
100.0
  1
A
100
AcDbText
  0
ENDBLK
  5
89B
330
898
100
AcDbEntity
  8
0
100
AcDbBlockEnd
  0
BLOCK
  5
89E
330
89D
100
AcDbEntity
  8
0
100
AcDbBlockBegin
  2
*U12
 70
     1
 10
0.0
 20
0.0
 30
0.0
  3
*U12
  1

  0
TEXT
  5
89F
330
89D
100
AcDbEntity
  8
LENKIMO
  6
CENTERX2
100
AcDbText
 10
801.2712978691851
 20
1410.897389739665
 30
0.0
 40
100.0
  1
B
100
AcDbText
  0
ENDBLK
  5
8A0
330
89D
100
AcDbEntity
  8
0
100
AcDbBlockEnd
  0
ENDSEC
  0
SECTION
  2
ENTITIES
  0
LINE
  5
2BA
330
1F
100
AcDbEntity
  8
0
100
AcDbLine
 10
46.9015551594
 20
38.2872925764
 30
0.0
 11
63.9015551594
 21
38.2872925764
 31
0.0
  0
LINE
  5
2BB
330
1F
100
AcDbEntity
  8
0
100
AcDbLine
 10
63.9015551594
 20
59.5872925764
 30
0.0
 11
46.9015551594
 21
59.5872925764
 31
0.0
  0
LINE
  5
2BC
330
1F
100
AcDbEntity
  8
0
100
AcDbLine
 10
78.9015551594
 20
39.9372925764
 30
0.0
 11
108.7015551594
 21
39.9372925764
 31
0.0
  0
LINE
  5
2BD
330
1F
100
AcDbEntity
  8
0
100
AcDbLine
 10
108.7015551594
 20
57.9372925764
 30
0.0
 11
78.9015551594
 21
57.9372925764
 31
0.0
  0
LINE
  5
2BE
330
1F
100
AcDbEntity
  8
0
100
AcDbLine
 10
46.9015551594
 20
251.2872925764
 30
0.0
 11
63.9015551594
 21
251.2872925764
 31
0.0
  0
LINE
  5
2BF
330
1F
100
AcDbEntity
  8
0
100
AcDbLine
 10
63.9015551594
 20
272.5872925764
 30
0.0
 11
46.9015551594
 21
272.5872925764
 31
0.0
  0
LINE
  5
2C0
330
1F
100
AcDbEntity
  8
0
100
AcDbLine
 10
78.9015551594
 20
252.9372925764
 30
0.0
 11
108.7015551594
 21
252.9372925764
 31
0.0
  0
LINE
  5
2C1
330
1F
100
AcDbEntity
  8
0
100
AcDbLine
 10
108.7015551594
 20
270.9372925764
 30
0.0
 11
78.9015551594
 21
270.9372925764
 31
0.0
  0
LINE
  5
2C2
330
1F
100
AcDbEntity
  8
0
100
AcDbLine
 10
118.9515551594
 20
28.8372925764
 30
0.0
 11
120.0015551594
 21
28.8372925764
 31
0.0
  0
LINE
  5
2C3
330
1F
100
AcDbEntity
  8
0
100
AcDbLine
 10
120.0015551594
 20
37.0372925764
 30
0.0
 11
118.9515551594
 21
37.0372925764
 31
0.0
  0
ARC
  5
2C4
330
1F
100
AcDbEntity
  8
0
100
AcDbCircle
 10
118.9515551594
 20
30.8372925764
 30
0.0
 40
2.000000000000004
100
AcDbArc
 50
180.0
 51
270.0
  0
ARC
  5
2C5
330
1F
100
AcDbEntity
  8
0
100
AcDbCircle
 10
118.9515551594
 20
35.0372925764
 30
0.0
 40
2.000000000000007
100
AcDbArc
 50
90.0
 51
180.0
  0
LINE
  5
2C6
330
1F
100
AcDbEntity
  8
0
100
AcDbLine
 10
120.0015551594
 20
30.8372925764
 30
0.0
 11
120.7015551594
 21
30.8372925764
 31
0.0
  0
LINE
  5
2C7
330
1F
100
AcDbEntity
  8
0
100
AcDbLine
 10
120.7015551594
 20
35.0372925764
 30
0.0
 11
120.0015551594
 21
35.0372925764
 31
0.0
  0
LINE
  5
2C8
330
1F
100
AcDbEntity
  8
0
100
AcDbLine
 10
118.9515551594
 20
275.8372925764
 30
0.0
 11
120.0015551594
 21
275.8372925764
 31
0.0
  0
LINE
  5
2C9
330
1F
100
AcDbEntity
  8
0
100
AcDbLine
 10
120.0015551594
 20
284.0372925764
 30
0.0
 11
118.9515551594
 21
284.0372925764
 31
0.0
  0
ARC
  5
2CA
330
1F
100
AcDbEntity
  8
0
100
AcDbCircle
 10
118.9515551594
 20
277.8372925764
 30
0.0
 40
2.0
100
AcDbArc
 50
180.0
 51
270.0
  0
ARC
  5
2CB
330
1F
100
AcDbEntity
  8
0
100
AcDbCircle
 10
118.9515551594
 20
282.0372925764
 30
0.0
 40
2.0
100
AcDbArc
 50
90.0
 51
180.0
  0
LINE
  5
2CC
330
1F
100
AcDbEntity
  8
0
100
AcDbLine
 10
120.0015551594
 20
277.8372925764
 30
0.0
 11
120.7015551594
 21
277.8372925764
 31
0.0
  0
LINE
  5
2CD
330
1F
100
AcDbEntity
  8
0
100
AcDbLine
 10
120.7015551594
 20
282.0372925764
 30
0.0
 11
120.0015551594
 21
282.0372925764
 31
0.0
  0
ARC
  5
2CE
330
1F
100
AcDbEntity
  8
0
100
AcDbCircle
 10
139.1398527451
 20
296.4843613043
 30
0.0
 40
5.000000000000072
100
AcDbArc
 50
97.8679237606
 51
123.8409923185
  0
ARC
  5
2CF
330
1F
100
AcDbEntity
  8
0
100
AcDbCircle
 10
367.0709527283
 20
296.4843613043
 30
0.0
 40
5.000000000000083
100
AcDbArc
 50
56.15900768149999
 51
82.13207623940002
  0
ARC
  5
2D0
330
1F
100
AcDbEntity
  8
0
100
AcDbCircle
 10
139.1398527451
 20
16.3902238485
 30
0.0
 40
4.999999999999998
100
AcDbArc
 50
236.1590076815
 51
262.1320762394
  0
ARC
  5
2D2
330
1F
100
AcDbEntity
  8
0
100
AcDbCircle
 10
378.4486238873
 20
156.2217425848
 30
0.0
 40
4.999999999999995
100
AcDbArc
 50
326.1590076815
 51
352.1320762394
  0
ARC
  5
2D3
330
1F
100
AcDbEntity
  8
0
100
AcDbCircle
 10
378.4486238873
 20
156.652842568
 30
0.0
 40
5.000000000000026
100
AcDbArc
 50
7.867923760599999
 51
33.8409923185
  0
LINE
  5
2D4
330
1F
100
AcDbEntity
  8
0
100
AcDbLine
 10
379.1015551594
 20
158.4372925764
 30
0.0
 11
378.1015551594
 21
157.4372925764
 31
0.0
  0
LINE
  5
2D5
330
1F
100
AcDbEntity
  8
0
100
AcDbLine
 10
378.1015551594
 20
155.4372925764
 30
0.0
 11
379.1015551594
 21
154.4372925764
 31
0.0
  0
LINE
  5
2D6
330
1F
100
AcDbEntity
  8
0
100
AcDbLine
 10
379.1015551594
 20
154.9372925764
 30
0.0
 11
381.2015551594
 21
154.9372925764
 31
0.0
  0
LINE
  5
2D7
330
1F
100
AcDbEntity
  8
0
100
AcDbLine
 10
381.2015551594
 20
157.9372925764
 30
0.0
 11
379.1015551594
 21
157.9372925764
 31
0.0
  0
ARC
  5
2D8
330
1F
100
AcDbEntity
  8
0
100
AcDbCircle
 10
378.4486238873
 20
42.0217425848
 30
0.0
 40
4.999999999999998
100
AcDbArc
 50
326.1590076815
 51
352.1320762394
  0
ARC
  5
2D9
330
1F
100
AcDbEntity
  8
0
100
AcDbCircle
 10
378.4486238873
 20
42.452842568
 30
0.0
 40
4.999999999999995
100
AcDbArc
 50
7.867923760599999
 51
33.8409923185
  0
LINE
  5
2DA
330
1F
100
AcDbEntity
  8
0
100
AcDbLine
 10
379.1015551594
 20
44.2372925764
 30
0.0
 11
378.1015551594
 21
43.2372925764
 31
0.0
  0
LINE
  5
2DB
330
1F
100
AcDbEntity
  8
0
100
AcDbLine
 10
378.1015551594
 20
41.2372925764
 30
0.0
 11
379.1015551594
 21
40.2372925764
 31
0.0
  0
LINE
  5
2DC
330
1F
100
AcDbEntity
  8
0
100
AcDbLine
 10
379.1015551594
 20
40.7372925764
 30
0.0
 11
381.2015551594
 21
40.7372925764
 31
0.0
  0
LINE
  5
2DD
330
1F
100
AcDbEntity
  8
0
100
AcDbLine
 10
381.2015551594
 20
43.7372925764
 30
0.0
 11
379.1015551594
 21
43.7372925764
 31
0.0
  0
ARC
  5
2DE
330
1F
100
AcDbEntity
  8
0
100
AcDbCircle
 10
252.4360051678
 20
16.3902238485
 30
0.0
 40
5.000000000000011
100
AcDbArc
 50
236.1590076815
 51
262.1320762394
  0
ARC
  5
2DF
330
1F
100
AcDbEntity
  8
0
100
AcDbCircle
 10
252.867105151
 20
16.3902238485
 30
0.0
 40
5.000000000000011
100
AcDbArc
 50
277.8679237606
 51
303.8409923185
  0
LINE
  5
2E0
330
1F
100
AcDbEntity
  8
0
100
AcDbLine
 10
254.6515551594
 20
15.7372925764
 30
0.0
 11
253.6515551594
 21
16.7372925764
 31
0.0
  0
LINE
  5
2E1
330
1F
100
AcDbEntity
  8
0
100
AcDbLine
 10
251.6515551594
 20
16.7372925764
 30
0.0
 11
250.6515551594
 21
15.7372925764
 31
0.0
  0
LINE
  5
2E2
330
1F
100
AcDbEntity
  8
0
100
AcDbLine
 10
251.1515551594
 20
15.7372925764
 30
0.0
 11
251.1515551594
 21
13.6372925764
 31
0.0
  0
LINE
  5
2E3
330
1F
100
AcDbEntity
  8
0
100
AcDbLine
 10
254.1515551594
 20
13.6372925764
 30
0.0
 11
254.1515551594
 21
15.7372925764
 31
0.0
  0
ARC
  5
2E4
330
1F
100
AcDbEntity
  8
0
100
AcDbCircle
 10
365.6860051678
 20
16.3902238485
 30
0.0
 40
5.000000000000007
100
AcDbArc
 50
236.1590076815
 51
262.1320762394
  0
ARC
  5
2E5
330
1F
100
AcDbEntity
  8
0
100
AcDbCircle
 10
366.117105151
 20
16.3902238485
 30
0.0
 40
5.000000000000007
100
AcDbArc
 50
277.8679237606
 51
303.8409923185
  0
LINE
  5
2E6
330
1F
100
AcDbEntity
  8
0
100
AcDbLine
 10
367.9015551594
 20
15.7372925764
 30
0.0
 11
366.9015551594
 21
16.7372925764
 31
0.0
  0
LINE
  5
2E7
330
1F
100
AcDbEntity
  8
0
100
AcDbLine
 10
364.9015551594
 20
16.7372925764
 30
0.0
 11
363.9015551594
 21
15.7372925764
 31
0.0
  0
LINE
  5
2E8
330
1F
100
AcDbEntity
  8
0
100
AcDbLine
 10
364.4015551594
 20
15.7372925764
 30
0.0
 11
364.4015551594
 21
13.6372925764
 31
0.0
  0
LINE
  5
2E9
330
1F
100
AcDbEntity
  8
0
100
AcDbLine
 10
367.4015551594
 20
13.6372925764
 30
0.0
 11
367.4015551594
 21
15.7372925764
 31
0.0
  0
ARC
  5
2EA
330
1F
100
AcDbEntity
  8
0
100
AcDbCircle
 10
378.4486238873
 20
270.4217425848
 30
0.0
 40
5.00000000000002
100
AcDbArc
 50
326.1590076815
 51
352.1320762394
  0
ARC
  5
2EB
330
1F
100
AcDbEntity
  8
0
100
AcDbCircle
 10
378.4486238873
 20
270.852842568
 30
0.0
 40
5.000000000000012
100
AcDbArc
 50
7.867923760599999
 51
33.8409923185
  0
LINE
  5
2EC
330
1F
100
AcDbEntity
  8
0
100
AcDbLine
 10
379.1015551594
 20
272.6372925764
 30
0.0
 11
378.1015551594
 21
271.6372925764
 31
0.0
  0
LINE
  5
2ED
330
1F
100
AcDbEntity
  8
0
100
AcDbLine
 10
378.1015551594
 20
269.6372925764
 30
0.0
 11
379.1015551594
 21
268.6372925764
 31
0.0
  0
LINE
  5
2EE
330
1F
100
AcDbEntity
  8
0
100
AcDbLine
 10
379.1015551594
 20
269.1372925764
 30
0.0
 11
381.2015551594
 21
269.1372925764
 31
0.0
  0
LINE
  5
2EF
330
1F
100
AcDbEntity
  8
0
100
AcDbLine
 10
381.2015551594
 20
272.1372925764
 30
0.0
 11
379.1015551594
 21
272.1372925764
 31
0.0
  0
ARC
  5
2F0
330
1F
100
AcDbEntity
  8
0
100
AcDbCircle
 10
252.867105151
 20
296.4843613043
 30
0.0
 40
5.000000000000075
100
AcDbArc
 50
56.15900768149999
 51
82.13207623940002
  0
ARC
  5
2F1
330
1F
100
AcDbEntity
  8
0
100
AcDbCircle
 10
252.4360051678
 20
296.4843613043
 30
0.0
 40
5.000000000000072
100
AcDbArc
 50
97.8679237606
 51
123.8409923185
  0
LINE
  5
2F2
330
1F
100
AcDbEntity
  8
0
100
AcDbLine
 10
250.6515551594
 20
297.1372925764
 30
0.0
 11
251.6515551594
 21
296.1372925764
 31
0.0
  0
LINE
  5
2F3
330
1F
100
AcDbEntity
  8
0
100
AcDbLine
 10
253.6515551594
 20
296.1372925764
 30
0.0
 11
254.6515551594
 21
297.1372925764
 31
0.0
  0
LINE
  5
2F4
330
1F
100
AcDbEntity
  8
0
100
AcDbLine
 10
254.1515551594
 20
297.1372925764
 30
0.0
 11
254.1515551594
 21
299.2372925764
 31
0.0
  0
LINE
  5
2F5
330
1F
100
AcDbEntity
  8
0
100
AcDbLine
 10
251.1515551594
 20
299.2372925764
 30
0.0
 11
251.1515551594
 21
297.1372925764
 31
0.0
  0
ARC
  5
2F6
330
1F
100
AcDbEntity
  8
0
100
AcDbCircle
 10
139.617105151
 20
296.4843613043
 30
0.0
 40
5.000000000000075
100
AcDbArc
 50
56.15900768149999
 51
82.13207623940002
  0
ARC
  5
2F7
330
1F
100
AcDbEntity
  8
0
100
AcDbCircle
 10
139.1860051678
 20
296.4843613043
 30
0.0
 40
5.000000000000075
100
AcDbArc
 50
97.8679237606
 51
123.8409923185
  0
LINE
  5
2F8
330
1F
100
AcDbEntity
  8
0
100
AcDbLine
 10
137.4015551594
 20
297.1372925764
 30
0.0
 11
138.4015551594
 21
296.1372925764
 31
0.0
  0
LINE
  5
2F9
330
1F
100
AcDbEntity
  8
0
100
AcDbLine
 10
140.4015551594
 20
296.1372925764
 30
0.0
 11
141.4015551594
 21
297.1372925764
 31
0.0
  0
LINE
  5
2FA
330
1F
100
AcDbEntity
  8
0
100
AcDbLine
 10
140.9015551594
 20
297.1372925764
 30
0.0
 11
140.9015551594
 21
299.2372925764
 31
0.0
  0
LINE
  5
2FB
330
1F
100
AcDbEntity
  8
0
100
AcDbLine
 10
137.9015551594
 20
299.2372925764
 30
0.0
 11
137.9015551594
 21
297.1372925764
 31
0.0
  0
ARC
  5
2FC
330
1F
100
AcDbEntity
  8
0
100
AcDbCircle
 10
139.1860051678
 20
16.3902238485
 30
0.0
 40
5.0
100
AcDbArc
 50
236.1590076815
 51
262.1320762394
  0
ARC
  5
2FD
330
1F
100
AcDbEntity
  8
0
100
AcDbCircle
 10
139.617105151
 20
16.3902238485
 30
0.0
 40
5.000000000000011
100
AcDbArc
 50
277.8679237606
 51
303.8409923185
  0
LINE
  5
2FE
330
1F
100
AcDbEntity
  8
0
100
AcDbLine
 10
141.4015551594
 20
15.7372925764
 30
0.0
 11
140.4015551594
 21
16.7372925764
 31
0.0
  0
LINE
  5
2FF
330
1F
100
AcDbEntity
  8
0
100
AcDbLine
 10
138.4015551594
 20
16.7372925764
 30
0.0
 11
137.4015551594
 21
15.7372925764
 31
0.0
  0
LINE
  5
300
330
1F
100
AcDbEntity
  8
0
100
AcDbLine
 10
137.9015551594
 20
15.7372925764
 30
0.0
 11
137.9015551594
 21
13.6372925764
 31
0.0
  0
LINE
  5
301
330
1F
100
AcDbEntity
  8
0
100
AcDbLine
 10
140.9015551594
 20
13.6372925764
 30
0.0
 11
140.9015551594
 21
15.7372925764
 31
0.0
  0
ARC
  5
302
330
1F
100
AcDbEntity
  8
0
100
AcDbCircle
 10
366.117105151
 20
296.4843613043
 30
0.0
 40
5.000000000000012
100
AcDbArc
 50
56.15900768149999
 51
82.13207623940002
  0
ARC
  5
303
330
1F
100
AcDbEntity
  8
0
100
AcDbCircle
 10
365.6860051678
 20
296.4843613043
 30
0.0
 40
5.000000000000012
100
AcDbArc
 50
97.8679237606
 51
123.8409923185
  0
LINE
  5
304
330
1F
100
AcDbEntity
  8
0
100
AcDbLine
 10
363.9015551594
 20
297.1372925764
 30
0.0
 11
364.9015551594
 21
296.1372925764
 31
0.0
  0
LINE
  5
305
330
1F
100
AcDbEntity
  8
0
100
AcDbLine
 10
366.9015551594
 20
296.1372925764
 30
0.0
 11
367.9015551594
 21
297.1372925764
 31
0.0
  0
LINE
  5
306
330
1F
100
AcDbEntity
  8
0
100
AcDbLine
 10
367.4015551594
 20
297.1372925764
 30
0.0
 11
367.4015551594
 21
299.2372925764
 31
0.0
  0
LINE
  5
307
330
1F
100
AcDbEntity
  8
0
100
AcDbLine
 10
364.4015551594
 20
299.2372925764
 30
0.0
 11
364.4015551594
 21
297.1372925764
 31
0.0
  0
LINE
  5
308
330
1F
100
AcDbEntity
  8
0
100
AcDbLine
 10
119.9015551594
 20
2.9372925764
 30
0.0
 11
118.3015551594
 21
2.9372925764
 31
0.0
  0
LINE
  5
309
330
1F
100
AcDbEntity
  8
0
100
AcDbLine
 10
118.3015551594
 20
-5.0627074236
 30
0.0
 11
119.9015551594
 21
-5.0627074236
 31
0.0
  0
ARC
  5
30A
330
1F
100
AcDbEntity
  8
0
100
AcDbCircle
 10
118.3015551594
 20
-3.5627074236
 30
0.0
 40
1.500000000000002
100
AcDbArc
 50
180.0
 51
270.0
  0
ARC
  5
30B
330
1F
100
AcDbEntity
  8
0
100
AcDbCircle
 10
118.3015551594
 20
1.4372925764
 30
0.0
 40
1.500000000000001
100
AcDbArc
 50
90.0
 51
180.0
  0
LINE
  5
30C
330
1F
100
AcDbEntity
  8
0
100
AcDbLine
 10
119.9015551594
 20
160.4372925764
 30
0.0
 11
118.3015551594
 21
160.4372925764
 31
0.0
  0
LINE
  5
30D
330
1F
100
AcDbEntity
  8
0
100
AcDbLine
 10
118.3015551594
 20
152.4372925764
 30
0.0
 11
119.9015551594
 21
152.4372925764
 31
0.0
  0
ARC
  5
30E
330
1F
100
AcDbEntity
  8
0
100
AcDbCircle
 10
118.3015551594
 20
153.9372925764
 30
0.0
 40
1.5
100
AcDbArc
 50
180.0
 51
270.0
  0
ARC
  5
30F
330
1F
100
AcDbEntity
  8
0
100
AcDbCircle
 10
118.3015551594
 20
158.9372925764
 30
0.0
 40
1.5
100
AcDbArc
 50
90.0
 51
180.0
  0
ARC
  5
310
330
1F
100
AcDbEntity
  8
0
100
AcDbCircle
 10
118.3015551594
 20
311.4372925764
 30
0.0
 40
1.5
100
AcDbArc
 50
180.0
 51
270.0
  0
ARC
  5
311
330
1F
100
AcDbEntity
  8
0
100
AcDbCircle
 10
118.3015551594
 20
316.4372925764
 30
0.0
 40
1.500000000000057
100
AcDbArc
 50
90.0
 51
180.0
  0
LINE
  5
312
330
1F
100
AcDbEntity
  8
0
100
AcDbLine
 10
119.9015551594
 20
317.9372925764
 30
0.0
 11
118.3015551594
 21
317.9372925764
 31
0.0
  0
LINE
  5
313
330
1F
100
AcDbEntity
  8
0
100
AcDbLine
 10
118.3015551594
 20
309.9372925764
 30
0.0
 11
119.9015551594
 21
309.9372925764
 31
0.0
  0
LINE
  5
314
330
1F
100
AcDbEntity
  8
0
100
AcDbLine
 10
120.7015551594
 20
317.9372925764
 30
0.0
 11
119.9015551594
 21
317.9372925764
 31
0.0
  0
LINE
  5
315
330
1F
100
AcDbEntity
  8
0
100
AcDbLine
 10
119.9015551594
 20
309.9372925764
 30
0.0
 11
120.7015551594
 21
309.9372925764
 31
0.0
  0
LINE
  5
316
330
1F
100
AcDbEntity
  8
0
100
AcDbLine
 10
120.7015551594
 20
160.4372925764
 30
0.0
 11
119.9015551594
 21
160.4372925764
 31
0.0
  0
LINE
  5
317
330
1F
100
AcDbEntity
  8
0
100
AcDbLine
 10
119.9015551594
 20
152.4372925764
 30
0.0
 11
120.7015551594
 21
152.4372925764
 31
0.0
  0
LINE
  5
318
330
1F
100
AcDbEntity
  8
0
100
AcDbLine
 10
120.7015551594
 20
2.9372925764
 30
0.0
 11
119.9015551594
 21
2.9372925764
 31
0.0
  0
LINE
  5
319
330
1F
100
AcDbEntity
  8
0
100
AcDbLine
 10
119.9015551594
 20
-5.0627074236
 30
0.0
 11
120.7015551594
 21
-5.0627074236
 31
0.0
  0
LINE
  5
31A
330
1F
100
AcDbEntity
  8
0
100
AcDbLine
 10
120.7015551594
 20
295.9372925764
 30
0.0
 11
118.7015551594
 21
295.9372925764
 31
0.0
  0
LINE
  5
31B
330
1F
100
AcDbEntity
  8
0
100
AcDbLine
 10
118.7015551594
 20
227.9372925764
 30
0.0
 11
120.7015551594
 21
227.9372925764
 31
0.0
  0
ARC
  5
31C
330
1F
100
AcDbEntity
  8
0
100
AcDbCircle
 10
110.7015551594
 20
281.9372925764
 30
0.0
 40
8.0
100
AcDbArc
 50
270.0
 51
322.9441132025
  0
ARC
  5
31D
330
1F
100
AcDbEntity
  8
0
100
AcDbCircle
 10
110.7015551594
 20
241.9372925764
 30
0.0
 40
8.000000000000028
100
AcDbArc
 50
0.0
 51
90.0
  0
LINE
  5
31E
330
1F
100
AcDbEntity
  8
0
100
AcDbLine
 10
110.7015551594
 20
273.9372925764
 30
0.0
 11
108.7015551594
 21
273.9372925764
 31
0.0
  0
LINE
  5
31F
330
1F
100
AcDbEntity
  8
0
100
AcDbLine
 10
108.7015551594
 20
249.9372925764
 30
0.0
 11
110.7015551594
 21
249.9372925764
 31
0.0
  0
LINE
  5
320
330
1F
100
AcDbEntity
  8
0
100
AcDbLine
 10
120.7015551594
 20
82.9372925764
 30
0.0
 11
118.7015551594
 21
82.9372925764
 31
0.0
  0
LINE
  5
321
330
1F
100
AcDbEntity
  8
0
100
AcDbLine
 10
118.7015551594
 20
14.9372925764
 30
0.0
 11
120.7015551594
 21
14.9372925764
 31
0.0
  0
ARC
  5
322
330
1F
100
AcDbEntity
  8
0
100
AcDbCircle
 10
110.7015551594
 20
68.9372925764
 30
0.0
 40
8.0
100
AcDbArc
 50
270.0
 51
0.0
  0
ARC
  5
323
330
1F
100
AcDbEntity
  8
0
100
AcDbCircle
 10
110.7015551594
 20
28.9372925764
 30
0.0
 40
8.00000000000001
100
AcDbArc
 50
38.624832873
 51
90.0
  0
LINE
  5
324
330
1F
100
AcDbEntity
  8
0
100
AcDbLine
 10
110.7015551594
 20
60.9372925764
 30
0.0
 11
108.7015551594
 21
60.9372925764
 31
0.0
  0
LINE
  5
325
330
1F
100
AcDbEntity
  8
0
100
AcDbLine
 10
108.7015551594
 20
36.9372925764
 30
0.0
 11
110.7015551594
 21
36.9372925764
 31
0.0
  0
CIRCLE
  5
326
330
1F
100
AcDbEntity
  8
0
100
AcDbCircle
 10
252.6515551594
 20
156.4372925764
 30
0.0
 40
107.4
  0
LINE
  5
328
330
1F
100
AcDbEntity
  8
0
100
AcDbLine
 10
78.9015551594
 20
55.3122925764
 30
0.0
 11
78.9015551594
 21
42.5622925764
 31
0.0
  0
LINE
  5
32A
330
1F
100
AcDbEntity
  8
0
100
AcDbLine
 10
63.9015551594
 20
55.3122925764
 30
0.0
 11
63.9015551594
 21
42.5622925764
 31
0.0
  0
LINE
  5
32B
330
1F
100
AcDbEntity
  8
0
100
AcDbLine
 10
78.9015551594
 20
61.6872925764
 30
0.0
 11
63.9015551594
 21
61.6872925764
 31
0.0
  0
LINE
  5
32C
330
1F
100
AcDbEntity
  8
0
100
AcDbLine
 10
78.9015551594
 20
61.6872925764
 30
0.0
 11
78.9015551594
 21
55.3122925764
 31
0.0
  0
LINE
  5
32D
330
1F
100
AcDbEntity
  8
0
100
AcDbLine
 10
63.9015551594
 20
61.6872925764
 30
0.0
 11
63.9015551594
 21
55.3122925764
 31
0.0
  0
LINE
  5
32E
330
1F
100
AcDbEntity
  8
0
100
AcDbLine
 10
78.9015551594
 20
42.5622925764
 30
0.0
 11
78.9015551594
 21
36.1872925764
 31
0.0
  0
LINE
  5
32F
330
1F
100
AcDbEntity
  8
0
100
AcDbLine
 10
78.9015551594
 20
36.1872925764
 30
0.0
 11
63.9015551594
 21
36.1872925764
 31
0.0
  0
LINE
  5
330
330
1F
100
AcDbEntity
  8
0
100
AcDbLine
 10
63.9015551594
 20
42.5622925764
 30
0.0
 11
63.9015551594
 21
36.1872925764
 31
0.0
  0
LINE
  5
331
330
1F
100
AcDbEntity
  8
0
100
AcDbLine
 10
46.9015551594
 20
38.2872925764
 30
0.0
 11
46.9015551594
 21
59.5872925764
 31
0.0
  0
LINE
  5
332
330
1F
100
AcDbEntity
  8
0
100
AcDbLine
 10
78.9015551594
 20
274.6872925764
 30
0.0
 11
63.9015551594
 21
274.6872925764
 31
0.0
  0
LINE
  5
334
330
1F
100
AcDbEntity
  8
0
100
AcDbLine
 10
63.9015551594
 20
274.6872925764
 30
0.0
 11
63.9015551594
 21
268.3122925764
 31
0.0
  0
LINE
  5
335
330
1F
100
AcDbEntity
  8
0
100
AcDbLine
 10
78.9015551594
 20
274.6872925764
 30
0.0
 11
78.9015551594
 21
268.3122925764
 31
0.0
  0
LINE
  5
337
330
1F
100
AcDbEntity
  8
0
100
AcDbLine
 10
63.9015551594
 20
268.3122925764
 30
0.0
 11
63.9015551594
 21
255.5622925764
 31
0.0
  0
LINE
  5
338
330
1F
100
AcDbEntity
  8
0
100
AcDbLine
 10
78.9015551594
 20
268.3122925764
 30
0.0
 11
78.9015551594
 21
255.5622925764
 31
0.0
  0
LINE
  5
339
330
1F
100
AcDbEntity
  8
0
100
AcDbLine
 10
78.9015551594
 20
249.1872925764
 30
0.0
 11
63.9015551594
 21
249.1872925764
 31
0.0
  0
LINE
  5
33A
330
1F
100
AcDbEntity
  8
0
100
AcDbLine
 10
63.9015551594
 20
255.5622925764
 30
0.0
 11
63.9015551594
 21
249.1872925764
 31
0.0
  0
LINE
  5
33B
330
1F
100
AcDbEntity
  8
0
100
AcDbLine
 10
78.9015551594
 20
255.5622925764
 30
0.0
 11
78.9015551594
 21
249.1872925764
 31
0.0
  0
LINE
  5
33C
330
1F
100
AcDbEntity
  8
0
100
AcDbLine
 10
46.9015551594
 20
251.2872925764
 30
0.0
 11
46.9015551594
 21
272.5872925764
 31
0.0
  0
LINE
  5
350
330
1F
100
AcDbEntity
  8
0
100
AcDbLine
 10
346.9015551594
 20
162.9372925764
 30
0.0
 11
346.9015551594
 21
157.9372925764
 31
0.0
  0
LINE
  5
353
330
1F
100
AcDbEntity
  8
0
100
AcDbLine
 10
346.9015551594
 20
152.9372925764
 30
0.0
 11
346.9015551594
 21
147.9372925764
 31
0.0
  0
LINE
  5
365
330
1F
100
AcDbEntity
  8
0
100
AcDbLine
 10
120.0015551594
 20
28.8372925764
 30
0.0
 11
120.0015551594
 21
37.0372925764
 31
0.0
  0
LINE
  5
366
330
1F
100
AcDbEntity
  8
0
100
AcDbLine
 10
116.9515551594
 20
33.1872925764
 30
0.0
 11
116.9515551594
 21
35.0223585226
 31
0.0
  0
LINE
  5
367
330
1F
100
AcDbEntity
  8
0
100
AcDbLine
 10
116.9515551594
 20
35.0223585226
 30
0.0
 11
116.9515551594
 21
35.0372925764
 31
0.0
  0
LINE
  5
368
330
1F
100
AcDbEntity
  8
0
100
AcDbLine
 10
116.9515551594
 20
30.8372925764
 30
0.0
 11
116.9515551594
 21
30.8522266302
 31
0.0
  0
LINE
  5
369
330
1F
100
AcDbEntity
  8
0
100
AcDbLine
 10
116.9515551594
 20
30.8522266302
 30
0.0
 11
116.9515551594
 21
32.6872925764
 31
0.0
  0
LINE
  5
36A
330
1F
100
AcDbEntity
  8
0
100
AcDbLine
 10
116.9515551594
 20
32.6872925764
 30
0.0
 11
116.9515551594
 21
33.1872925764
 31
0.0
  0
LINE
  5
36B
330
1F
100
AcDbEntity
  8
0
100
AcDbLine
 10
120.0015551594
 20
275.8372925764
 30
0.0
 11
120.0015551594
 21
284.0372925764
 31
0.0
  0
LINE
  5
36C
330
1F
100
AcDbEntity
  8
0
100
AcDbLine
 10
116.9515551594
 20
280.1872925764
 30
0.0
 11
116.9515551594
 21
282.0223585226
 31
0.0
  0
LINE
  5
36D
330
1F
100
AcDbEntity
  8
0
100
AcDbLine
 10
116.9515551594
 20
282.0223585226
 30
0.0
 11
116.9515551594
 21
282.0372925764
 31
0.0
  0
LINE
  5
36E
330
1F
100
AcDbEntity
  8
0
100
AcDbLine
 10
116.9515551594
 20
277.8372925764
 30
0.0
 11
116.9515551594
 21
277.8522266302
 31
0.0
  0
LINE
  5
36F
330
1F
100
AcDbEntity
  8
0
100
AcDbLine
 10
116.9515551594
 20
277.8522266302
 30
0.0
 11
116.9515551594
 21
279.6872925764
 31
0.0
  0
LINE
  5
370
330
1F
100
AcDbEntity
  8
0
100
AcDbLine
 10
116.9515551594
 20
279.6872925764
 30
0.0
 11
116.9515551594
 21
280.1872925764
 31
0.0
  0
LINE
  5
371
330
1F
100
AcDbEntity
  8
0
100
AcDbLine
 10
138.5015551594
 20
301.4372925764
 30
0.0
 11
138.4554027367
 21
301.4372925764
 31
0.0
  0
LINE
  5
372
330
1F
100
AcDbEntity
  8
0
100
AcDbLine
 10
367.7554027367
 20
301.4372925764
 30
0.0
 11
366.8015551594
 21
301.4372925764
 31
0.0
  0
LINE
  5
373
330
1F
100
AcDbEntity
  8
0
100
AcDbLine
 10
138.4554027367
 20
11.4372925764
 30
0.0
 11
138.5015551594
 21
11.4372925764
 31
0.0
  0
LINE
  5
375
330
1F
100
AcDbEntity
  8
0
100
AcDbLine
 10
383.4015551594
 20
155.9450428516
 30
0.0
 11
383.4015551594
 21
157.3372925764
 31
0.0
  0
LINE
  5
376
330
1F
100
AcDbEntity
  8
0
100
AcDbLine
 10
383.4015551594
 20
155.5372925764
 30
0.0
 11
383.4015551594
 21
155.9450428516
 31
0.0
  0
LINE
  5
377
330
1F
100
AcDbEntity
  8
0
100
AcDbLine
 10
378.1015551594
 20
155.8903484378
 30
0.0
 11
378.1015551594
 21
157.4372925764
 31
0.0
  0
LINE
  5
378
330
1F
100
AcDbEntity
  8
0
100
AcDbLine
 10
378.1015551594
 20
155.4372925764
 30
0.0
 11
378.1015551594
 21
155.8903484378
 31
0.0
  0
LINE
  5
379
330
1F
100
AcDbEntity
  8
0
100
AcDbLine
 10
379.1015551594
 20
155.3434042992
 30
0.0
 11
379.1015551594
 21
158.4372925764
 31
0.0
  0
LINE
  5
37A
330
1F
100
AcDbEntity
  8
0
100
AcDbLine
 10
379.1015551594
 20
154.4372925764
 30
0.0
 11
379.1015551594
 21
155.3434042992
 31
0.0
  0
LINE
  5
37B
330
1F
100
AcDbEntity
  8
0
100
AcDbLine
 10
383.4015551594
 20
41.7450428516
 30
0.0
 11
383.4015551594
 21
43.1372925764
 31
0.0
  0
LINE
  5
37C
330
1F
100
AcDbEntity
  8
0
100
AcDbLine
 10
383.4015551594
 20
41.3372925764
 30
0.0
 11
383.4015551594
 21
41.7450428516
 31
0.0
  0
LINE
  5
37D
330
1F
100
AcDbEntity
  8
0
100
AcDbLine
 10
378.1015551594
 20
41.6903484378
 30
0.0
 11
378.1015551594
 21
43.2372925764
 31
0.0
  0
LINE
  5
37E
330
1F
100
AcDbEntity
  8
0
100
AcDbLine
 10
378.1015551594
 20
41.2372925764
 30
0.0
 11
378.1015551594
 21
41.6903484378
 31
0.0
  0
LINE
  5
37F
330
1F
100
AcDbEntity
  8
0
100
AcDbLine
 10
379.1015551594
 20
41.1434042992
 30
0.0
 11
379.1015551594
 21
44.2372925764
 31
0.0
  0
LINE
  5
380
330
1F
100
AcDbEntity
  8
0
100
AcDbLine
 10
379.1015551594
 20
40.2372925764
 30
0.0
 11
379.1015551594
 21
41.1434042992
 31
0.0
  0
LINE
  5
381
330
1F
100
AcDbEntity
  8
0
100
AcDbLine
 10
251.7515551594
 20
11.4372925764
 30
0.0
 11
253.5515551594
 21
11.4372925764
 31
0.0
  0
LINE
  5
382
330
1F
100
AcDbEntity
  8
0
100
AcDbLine
 10
251.6515551594
 20
16.7372925764
 30
0.0
 11
253.6515551594
 21
16.7372925764
 31
0.0
  0
LINE
  5
383
330
1F
100
AcDbEntity
  8
0
100
AcDbLine
 10
250.6515551594
 20
15.7372925764
 30
0.0
 11
254.6515551594
 21
15.7372925764
 31
0.0
  0
LINE
  5
384
330
1F
100
AcDbEntity
  8
0
100
AcDbLine
 10
365.0015551594
 20
11.4372925764
 30
0.0
 11
366.8015551594
 21
11.4372925764
 31
0.0
  0
LINE
  5
385
330
1F
100
AcDbEntity
  8
0
100
AcDbLine
 10
364.9015551594
 20
16.7372925764
 30
0.0
 11
366.9015551594
 21
16.7372925764
 31
0.0
  0
LINE
  5
386
330
1F
100
AcDbEntity
  8
0
100
AcDbLine
 10
363.9015551594
 20
15.7372925764
 30
0.0
 11
367.9015551594
 21
15.7372925764
 31
0.0
  0
LINE
  5
387
330
1F
100
AcDbEntity
  8
0
100
AcDbLine
 10
383.4015551594
 20
270.1450428516
 30
0.0
 11
383.4015551594
 21
271.5372925764
 31
0.0
  0
LINE
  5
388
330
1F
100
AcDbEntity
  8
0
100
AcDbLine
 10
383.4015551594
 20
269.7372925764
 30
0.0
 11
383.4015551594
 21
270.1450428516
 31
0.0
  0
LINE
  5
389
330
1F
100
AcDbEntity
  8
0
100
AcDbLine
 10
378.1015551594
 20
270.0903484378
 30
0.0
 11
378.1015551594
 21
271.6372925764
 31
0.0
  0
LINE
  5
38A
330
1F
100
AcDbEntity
  8
0
100
AcDbLine
 10
378.1015551594
 20
269.6372925764
 30
0.0
 11
378.1015551594
 21
270.0903484378
 31
0.0
  0
LINE
  5
38B
330
1F
100
AcDbEntity
  8
0
100
AcDbLine
 10
379.1015551594
 20
269.5434042992
 30
0.0
 11
379.1015551594
 21
272.6372925764
 31
0.0
  0
LINE
  5
38C
330
1F
100
AcDbEntity
  8
0
100
AcDbLine
 10
379.1015551594
 20
268.6372925764
 30
0.0
 11
379.1015551594
 21
269.5434042992
 31
0.0
  0
LINE
  5
38D
330
1F
100
AcDbEntity
  8
0
100
AcDbLine
 10
253.5515551594
 20
301.4372925764
 30
0.0
 11
251.7515551594
 21
301.4372925764
 31
0.0
  0
LINE
  5
38E
330
1F
100
AcDbEntity
  8
0
100
AcDbLine
 10
253.6515551594
 20
296.1372925764
 30
0.0
 11
251.6515551594
 21
296.1372925764
 31
0.0
  0
LINE
  5
38F
330
1F
100
AcDbEntity
  8
0
100
AcDbLine
 10
254.6515551594
 20
297.1372925764
 30
0.0
 11
250.6515551594
 21
297.1372925764
 31
0.0
  0
LINE
  5
390
330
1F
100
AcDbEntity
  8
0
100
AcDbLine
 10
140.3015551594
 20
301.4372925764
 30
0.0
 11
138.5015551594
 21
301.4372925764
 31
0.0
  0
LINE
  5
391
330
1F
100
AcDbEntity
  8
0
100
AcDbLine
 10
140.4015551594
 20
296.1372925764
 30
0.0
 11
138.4015551594
 21
296.1372925764
 31
0.0
  0
LINE
  5
392
330
1F
100
AcDbEntity
  8
0
100
AcDbLine
 10
141.4015551594
 20
297.1372925764
 30
0.0
 11
137.4015551594
 21
297.1372925764
 31
0.0
  0
LINE
  5
393
330
1F
100
AcDbEntity
  8
0
100
AcDbLine
 10
138.5015551594
 20
11.4372925764
 30
0.0
 11
140.3015551594
 21
11.4372925764
 31
0.0
  0
LINE
  5
394
330
1F
100
AcDbEntity
  8
0
100
AcDbLine
 10
138.4015551594
 20
16.7372925764
 30
0.0
 11
140.4015551594
 21
16.7372925764
 31
0.0
  0
LINE
  5
395
330
1F
100
AcDbEntity
  8
0
100
AcDbLine
 10
137.4015551594
 20
15.7372925764
 30
0.0
 11
141.4015551594
 21
15.7372925764
 31
0.0
  0
LINE
  5
396
330
1F
100
AcDbEntity
  8
0
100
AcDbLine
 10
366.8015551594
 20
301.4372925764
 30
0.0
 11
365.0015551594
 21
301.4372925764
 31
0.0
  0
LINE
  5
397
330
1F
100
AcDbEntity
  8
0
100
AcDbLine
 10
366.9015551594
 20
296.1372925764
 30
0.0
 11
364.9015551594
 21
296.1372925764
 31
0.0
  0
LINE
  5
398
330
1F
100
AcDbEntity
  8
0
100
AcDbLine
 10
367.9015551594
 20
297.1372925764
 30
0.0
 11
363.9015551594
 21
297.1372925764
 31
0.0
  0
LINE
  5
39A
330
1F
100
AcDbEntity
  8
0
100
AcDbLine
 10
116.8015551594
 20
-3.5627074236
 30
0.0
 11
116.8015551594
 21
1.4372925764
 31
0.0
  0
LINE
  5
39C
330
1F
100
AcDbEntity
  8
0
100
AcDbLine
 10
116.8015551594
 20
153.9372925764
 30
0.0
 11
116.8015551594
 21
158.9372925764
 31
0.0
  0
LINE
  5
39D
330
1F
100
AcDbEntity
  8
0
100
AcDbLine
 10
116.8015551594
 20
313.9372925764
 30
0.0
 11
116.8015551594
 21
316.4372925764
 31
0.0
  0
LINE
  5
39E
330
1F
100
AcDbEntity
  8
0
100
AcDbLine
 10
116.8015551594
 20
311.4372925764
 30
0.0
 11
116.8015551594
 21
313.9372925764
 31
0.0
  0
LINE
  5
3A5
330
1F
100
AcDbEntity
  8
0
100
AcDbLine
 10
118.7015551594
 20
295.9372925764
 30
0.0
 11
118.7015551594
 21
284.0216060597
 31
0.0
  0
LINE
  5
3A6
330
1F
100
AcDbEntity
  8
0
100
AcDbLine
 10
118.7015551594
 20
275.8529790931
 30
0.0
 11
118.7015551594
 21
227.9372925764
 31
0.0
  0
LINE
  5
3A7
330
1F
100
AcDbEntity
  8
0
100
AcDbLine
 10
108.7015551594
 20
273.9372925764
 30
0.0
 11
108.7015551594
 21
249.9372925764
 31
0.0
  0
LINE
  5
3A8
330
1F
100
AcDbEntity
  8
0
100
AcDbLine
 10
118.7015551594
 20
82.9372925764
 30
0.0
 11
118.7015551594
 21
37.0216060597
 31
0.0
  0
LINE
  5
3A9
330
1F
100
AcDbEntity
  8
0
100
AcDbLine
 10
118.7015551594
 20
28.9372925764
 30
0.0
 11
118.7015551594
 21
14.9372925764
 31
0.0
  0
LINE
  5
3AA
330
1F
100
AcDbEntity
  8
0
100
AcDbLine
 10
108.7015551594
 20
60.9372925764
 30
0.0
 11
108.7015551594
 21
36.9372925764
 31
0.0
  0
LINE
  5
3AC
330
1F
100
AcDbEntity
  8
0
100
AcDbLine
 10
129.7015551594
 20
-9.7627074236
 30
0.0
 11
129.7015551594
 21
322.6372925765
 31
0.0
  0
LINE
  5
3B1
330
1F
100
AcDbEntity
  8
0
100
AcDbLine
 10
120.7015551594
 20
-8.0627074236
 30
0.0
 11
120.7015551594
 21
320.9372925764
 31
0.0
  0
LINE
  5
3B3
330
1F
100
AcDbEntity
  8
0
100
AcDbLine
 10
129.7015551594
 20
322.6372925765
 30
0.0
 11
122.4015551594
 21
322.6372925764
 31
0.0
  0
ARC
  5
3B7
330
1F
100
AcDbEntity
  8
0
100
AcDbCircle
 10
122.4015551594
 20
-8.0627074236
 30
0.0
 40
1.700000000000006
100
AcDbArc
 50
180.0
 51
270.0
  0
LINE
  5
3BB
330
1F
100
AcDbEntity
  8
0
100
AcDbLine
 10
122.4015551594
 20
-9.7627074236
 30
0.0
 11
129.7015551594
 21
-9.7627074236
 31
0.0
  0
ARC
  5
3BD
330
1F
100
AcDbEntity
  8
0
100
AcDbCircle
 10
122.4015551594
 20
320.9372925764
 30
0.0
 40
1.700000000000017
100
AcDbArc
 50
90.0
 51
179.9999999993
  0
ARC
  5
3BE
330
1F
100
AcDbEntity
  8
0
100
AcDbCircle
 10
380.9015551594
 20
13.9372925764
 30
0.0
 40
1.700000000000006
100
AcDbArc
 50
270.0
 51
0.0
  0
LINE
  5
3C2
330
1F
100
AcDbEntity
  8
0
100
AcDbLine
 10
380.9015551594
 20
300.6372925764
 30
0.0
 11
129.7015551594
 21
300.6372925764
 31
0.0
  0
LINE
  5
3C6
330
1F
100
AcDbEntity
  8
0
100
AcDbLine
 10
382.6015551594
 20
13.9372925764
 30
0.0
 11
382.6015551594
 21
298.9372925764
 31
0.0
  0
LINE
  5
3C8
330
1F
100
AcDbEntity
  8
0
100
AcDbLine
 10
129.7015551594
 20
12.2372925764
 30
0.0
 11
380.9015551594
 21
12.2372925764
 31
0.0
  0
ARC
  5
3CA
330
1F
100
AcDbEntity
  8
0
100
AcDbCircle
 10
380.9015551594
 20
298.9372925764
 30
0.0
 40
1.699999999999989
100
AcDbArc
 50
0.0
 51
90.0
  0
CIRCLE
  5
3CC
330
1F
100
AcDbEntity
  8
0
100
AcDbCircle
 10
191.4015551594
 20
262.52540454
 30
0.0
 40
3.900000000000006
  0
CIRCLE
  5
3CD
330
1F
100
AcDbEntity
  8
0
100
AcDbCircle
 10
191.4015551594
 20
262.52540454
 30
0.0
 40
1.100000000000023
  0
ARC
  5
3CE
330
1F
100
AcDbEntity
  8
0
100
AcDbCircle
 10
130.1515551594
 20
156.4372925764
 30
0.0
 40
3.900000000000007
100
AcDbArc
 50
263.3741904352
 51
96.6258095648
  0
ARC
  5
3CF
330
1F
100
AcDbEntity
  8
0
100
AcDbCircle
 10
130.1515551594
 20
156.4372925764
 30
0.0
 40
1.100000000000005
100
AcDbArc
 50
245.852260083
 51
114.147739917
  0
ARC
  5
3D0
330
1F
100
AcDbEntity
  8
0
100
AcDbCircle
 10
375.1515551594
 20
156.4372925764
 30
0.0
 40
3.899999999999977
100
AcDbArc
 50
24.2951889454
 51
180.0
  0
ARC
  5
3D1
330
1F
100
AcDbEntity
  8
0
100
AcDbCircle
 10
375.1515551594
 20
156.4372925764
 30
0.0
 40
3.900000000000018
100
AcDbArc
 50
180.0
 51
335.7048110547
  0
CIRCLE
  5
3D2
330
1F
100
AcDbEntity
  8
0
100
AcDbCircle
 10
375.1515551594
 20
156.4372925764
 30
0.0
 40
1.100000000000023
  0
CIRCLE
  5
3D3
330
1F
100
AcDbEntity
  8
0
100
AcDbCircle
 10
313.9015551594
 20
262.52540454
 30
0.0
 40
3.900000000000034
  0
CIRCLE
  5
3D4
330
1F
100
AcDbEntity
  8
0
100
AcDbCircle
 10
313.9015551594
 20
262.52540454
 30
0.0
 40
1.100000000000023
  0
CIRCLE
  5
3D5
330
1F
100
AcDbEntity
  8
0
100
AcDbCircle
 10
191.4015551594
 20
50.3491806128
 30
0.0
 40
3.900000000000034
  0
CIRCLE
  5
3D6
330
1F
100
AcDbEntity
  8
0
100
AcDbCircle
 10
191.4015551594
 20
50.3491806128
 30
0.0
 40
1.100000000000023
  0
CIRCLE
  5
3D7
330
1F
100
AcDbEntity
  8
0
100
AcDbCircle
 10
313.9015551594
 20
50.3491806128
 30
0.0
 40
3.900000000000034
  0
CIRCLE
  5
3D8
330
1F
100
AcDbEntity
  8
0
100
AcDbCircle
 10
313.9015551594
 20
50.3491806128
 30
0.0
 40
1.100000000000023
  0
CIRCLE
  5
3DC
330
1F
100
AcDbEntity
  8
0
100
AcDbCircle
 10
252.6515551594
 20
156.4372925764
 30
0.0
 40
94.89999975784772
  0
CIRCLE
  5
3DD
330
1F
100
AcDbEntity
  8
0
100
AcDbCircle
 10
252.6515551594
 20
156.4372925764
 30
0.0
 40
99.65
  0
LINE
  5
3E0
330
1F
100
AcDbEntity
  8
0
100
AcDbLine
 10
129.7015551594
 20
299.2372925764
 30
0.0
 11
381.1308444813
 21
299.2372925764
 31
0.0
  0
LINE
  5
3E5
330
1F
100
AcDbEntity
  8
0
100
AcDbLine
 10
381.2015551594
 20
299.1665818983
 30
0.0
 11
381.2015551594
 21
13.7080032545
 31
0.0
  0
LINE
  5
3E7
330
1F
100
AcDbEntity
  8
0
100
AcDbLine
 10
381.1308444813
 20
13.6372925764
 30
0.0
 11
129.7015551594
 21
13.6372925764
 31
0.0
  0
SPLINE
  5
3E9
330
1F
100
AcDbEntity
  8
0
100
AcDbSpline
210
0.0
220
0.0
230
1.0
 70
     8
 71
     3
 72
    11
 73
     7
 74
     0
 42
0.000000001
 43
0.00000001
 40
0.0
 40
0.0
 40
0.0
 40
0.0
 40
0.249719470577528
 40
0.4995459238714933
 40
0.7493726557942206
 40
1.0
 40
1.0
 40
1.0
 40
1.0
 10
381.2015551593884
 20
299.1665818982723
 30
0.0
 10
381.1865577852327
 20
299.0892289820631
 30
0.0
 10
381.1565566118724
 20
298.9344900107586
 30
0.0
 10
380.9257095985496
 20
298.7023626031333
 30
0.0
 10
380.5952444486559
 20
298.4699574364774
 30
0.0
 10
380.3329248063268
 20
298.3149301991503
 30
0.0
 10
380.2015551593884
 20
298.2372925763909
 30
0.0
  0
SPLINE
  5
3EA
330
1F
100
AcDbEntity
  8
0
100
AcDbSpline
210
0.0
220
0.0
230
1.0
 70
     8
 71
     3
 72
    11
 73
     7
 74
     0
 42
0.000000001
 43
0.00000001
 40
0.0
 40
0.0
 40
0.0
 40
0.0
 40
0.249719470577551
 40
0.4995459238715387
 40
0.7493726557942343
 40
1.0
 40
1.0
 40
1.0
 40
1.0
 10
380.2015551593884
 20
14.63729257639087
 30
0.0
 10
380.3324438614123
 20
14.55993966018162
 30
0.0
 10
380.5942773396976
 20
14.40520068887704
 30
0.0
 10
380.9246621186813
 20
14.17307328125181
 30
0.0
 10
381.1562845555045
 20
13.94066811459604
 30
0.0
 10
381.186448872753
 20
13.78564087726894
 30
0.0
 10
381.2015551593884
 20
13.70800325450952
 30
0.0
  0
SPLINE
  5
3EB
330
1F
100
AcDbEntity
  8
0
100
AcDbSpline
210
0.0
220
0.0
230
1.0
 70
     8
 71
     3
 72
    11
 73
     7
 74
     0
 42
0.000000001
 43
0.00000001
 40
0.0
 40
0.0
 40
0.0
 40
0.0
 40
0.2497194705775693
 40
0.4995459238715597
 40
0.749372655794306
 40
0.9999999999999999
 40
0.9999999999999999
 40
0.9999999999999999
 40
0.9999999999999999
 10
380.2015551593884
 20
298.237292576391
 30
0.0
 10
380.2789080755975
 20
298.3681812784149
 30
0.0
 10
380.433647046902
 20
298.6300147567002
 30
0.0
 10
380.6657744545275
 20
298.960399535684
 30
0.0
 10
380.8981796211831
 20
299.1920219725072
 30
0.0
 10
381.0532068585103
 20
299.2221862897557
 30
0.0
 10
381.1308444812697
 20
299.2372925763909
 30
0.0
  0
SPLINE
  5
3EC
330
1F
100
AcDbEntity
  8
0
100
AcDbSpline
210
0.0
220
0.0
230
1.0
 70
     8
 71
     3
 72
    11
 73
     7
 74
     0
 42
0.000000001
 43
0.00000001
 40
0.0
 40
0.0
 40
0.0
 40
0.0
 40
0.2497194705775529
 40
0.4995459238715266
 40
0.7493726557942465
 40
1.0
 40
1.0
 40
1.0
 40
1.0
 10
381.1308444812697
 20
13.63729257639085
 30
0.0
 10
381.0534915650605
 20
13.65228995054651
 30
0.0
 10
380.8987525937559
 20
13.68229112390673
 30
0.0
 10
380.6666251861306
 20
13.91313813722969
 30
0.0
 10
380.4342200194749
 20
14.24360328712318
 30
0.0
 10
380.2791927821477
 20
14.50592292945235
 30
0.0
 10
380.2015551593884
 20
14.6372925763909
 30
0.0
  0
CIRCLE
  5
3ED
330
1F
100
AcDbEntity
  8
0
100
AcDbCircle
 10
252.6515551594
 20
156.4372925764
 30
0.0
 40
118.4999999999999
  0
LINE
  5
3F6
330
1F
100
AcDbEntity
  8
0
100
AcDbLine
 10
380.2015551594
 20
14.6372925764
 30
0.0
 11
380.2015551594
 21
40.7372925764
 31
0.0
  0
LINE
  5
3F7
330
1F
100
AcDbEntity
  8
0
100
AcDbLine
 10
380.2015551594
 20
43.7372925764
 30
0.0
 11
380.2015551594
 21
154.9372925764
 31
0.0
  0
LINE
  5
3F8
330
1F
100
AcDbEntity
  8
0
100
AcDbLine
 10
380.2015551594
 20
157.9372925764
 30
0.0
 11
380.2015551594
 21
269.1372925764
 31
0.0
  0
LINE
  5
3F9
330
1F
100
AcDbEntity
  8
0
100
AcDbLine
 10
380.2015551594
 20
272.1372925764
 30
0.0
 11
380.2015551594
 21
298.2372925764
 31
0.0
  0
LINE
  5
3FA
330
1F
100
AcDbEntity
  8
0
100
AcDbLine
 10
380.2015551594
 20
298.2372925764
 30
0.0
 11
367.4015551594
 21
298.2372925764
 31
0.0
  0
LINE
  5
3FB
330
1F
100
AcDbEntity
  8
0
100
AcDbLine
 10
364.4015551594
 20
298.2372925764
 30
0.0
 11
254.1515551594
 21
298.2372925764
 31
0.0
  0
LINE
  5
3FC
330
1F
100
AcDbEntity
  8
0
100
AcDbLine
 10
251.1515551594
 20
298.2372925764
 30
0.0
 11
140.9015551594
 21
298.2372925764
 31
0.0
  0
LINE
  5
3FD
330
1F
100
AcDbEntity
  8
0
100
AcDbLine
 10
137.9015551594
 20
298.2372925764
 30
0.0
 11
129.7015551594
 21
298.2372925764
 31
0.0
  0
LINE
  5
3FE
330
1F
100
AcDbEntity
  8
0
100
AcDbLine
 10
129.7015551594
 20
14.6372925764
 30
0.0
 11
137.9015551594
 21
14.6372925764
 31
0.0
  0
LINE
  5
3FF
330
1F
100
AcDbEntity
  8
0
100
AcDbLine
 10
140.9015551594
 20
14.6372925764
 30
0.0
 11
251.1515551594
 21
14.6372925764
 31
0.0
  0
LINE
  5
400
330
1F
100
AcDbEntity
  8
0
100
AcDbLine
 10
254.1515551594
 20
14.6372925764
 30
0.0
 11
364.4015551594
 21
14.6372925764
 31
0.0
  0
LINE
  5
401
330
1F
100
AcDbEntity
  8
0
100
AcDbLine
 10
367.4015551594
 20
14.6372925764
 30
0.0
 11
380.2015551594
 21
14.6372925764
 31
0.0
  0
ARC
  5
402
330
1F
100
AcDbEntity
  8
0
100
AcDbCircle
 10
-430.264820171
 20
296.4843613043
 30
0.0
 40
5.000000000000075
100
AcDbArc
 50
56.15900768149999
 51
82.13207623940002
  0
ARC
  5
403
330
1F
100
AcDbEntity
  8
0
100
AcDbCircle
 10
-430.6959201542
 20
296.4843613043
 30
0.0
 40
5.000000000000068
100
AcDbArc
 50
97.8679237606
 51
123.8409923185
  0
ARC
  5
404
330
1F
100
AcDbEntity
  8
0
100
AcDbCircle
 10
-308.264820171
 20
296.4843613043
 30
0.0
 40
5.000000000000075
100
AcDbArc
 50
56.15900768149999
 51
82.13207623940002
  0
ARC
  5
405
330
1F
100
AcDbEntity
  8
0
100
AcDbCircle
 10
-308.6959201542
 20
296.4843613043
 30
0.0
 40
5.000000000000075
100
AcDbArc
 50
97.8679237606
 51
123.8409923185
  0
ARC
  5
406
330
1F
100
AcDbEntity
  8
0
100
AcDbCircle
 10
-308.6959201542
 20
16.3902238485
 30
0.0
 40
5.000000000000007
100
AcDbArc
 50
236.1590076815
 51
262.1320762394
  0
ARC
  5
407
330
1F
100
AcDbEntity
  8
0
100
AcDbCircle
 10
-308.264820171
 20
16.3902238485
 30
0.0
 40
5.000000000000007
100
AcDbArc
 50
277.8679237606
 51
303.8409923185
  0
ARC
  5
408
330
1F
100
AcDbEntity
  8
0
100
AcDbCircle
 10
-430.6959201542
 20
16.3902238485
 30
0.0
 40
5.000000000000007
100
AcDbArc
 50
236.1590076815
 51
262.1320762394
  0
ARC
  5
409
330
1F
100
AcDbEntity
  8
0
100
AcDbCircle
 10
-430.264820171
 20
16.3902238485
 30
0.0
 40
5.000000000000007
100
AcDbArc
 50
277.8679237606
 51
303.8409923185
  0
ARC
  5
40A
330
1F
100
AcDbEntity
  8
0
100
AcDbCircle
 10
-500.3959201542
 20
16.3902238485
 30
0.0
 40
4.999999999999992
100
AcDbArc
 50
236.1590076815
 51
262.1320762394
  0
ARC
  5
40B
330
1F
100
AcDbEntity
  8
0
100
AcDbCircle
 10
-499.964820171
 20
16.3902238485
 30
0.0
 40
4.999999999999992
100
AcDbArc
 50
277.8679237606
 51
303.8409923185
  0
ARC
  5
40C
330
1F
100
AcDbEntity
  8
0
100
AcDbCircle
 10
-238.9959201542
 20
16.3902238485
 30
0.0
 40
4.999999999999996
100
AcDbArc
 50
236.1590076815
 51
262.1320762394
  0
ARC
  5
40D
330
1F
100
AcDbEntity
  8
0
100
AcDbCircle
 10
-238.564820171
 20
16.3902238485
 30
0.0
 40
4.999999999999996
100
AcDbArc
 50
277.8679237606
 51
303.8409923185
  0
ARC
  5
40E
330
1F
100
AcDbEntity
  8
0
100
AcDbCircle
 10
-238.564820171
 20
296.4843613043
 30
0.0
 40
5.000000000000016
100
AcDbArc
 50
56.15900768149999
 51
82.13207623940002
  0
ARC
  5
40F
330
1F
100
AcDbEntity
  8
0
100
AcDbCircle
 10
-238.9959201542
 20
296.4843613043
 30
0.0
 40
5.000000000000016
100
AcDbArc
 50
97.8679237606
 51
123.8409923185
  0
ARC
  5
410
330
1F
100
AcDbEntity
  8
0
100
AcDbCircle
 10
-499.964820171
 20
296.4843613043
 30
0.0
 40
5.000000000000012
100
AcDbArc
 50
56.15900768149999
 51
82.13207623940002
  0
ARC
  5
411
330
1F
100
AcDbEntity
  8
0
100
AcDbCircle
 10
-500.3959201542
 20
296.4843613043
 30
0.0
 40
5.000000000000012
100
AcDbArc
 50
97.8679237606
 51
123.8409923185
  0
ARC
  5
412
330
1F
100
AcDbEntity
  8
0
100
AcDbCircle
 10
-529.4803701626
 20
49.5372925764
 30
0.0
 40
0.5
100
AcDbArc
 50
184.9871394293
 51
360.0
  0
ARC
  5
413
330
1F
100
AcDbEntity
  8
0
100
AcDbCircle
 10
-529.4803701626
 20
263.3372925764
 30
0.0
 40
0.5
100
AcDbArc
 50
0.0
 51
175.0128605707
  0
ARC
  5
414
330
1F
100
AcDbEntity
  8
0
100
AcDbCircle
 10
-533.6803701626
 20
49.5372925764
 30
0.0
 40
0.4999999999999914
100
AcDbArc
 50
184.9871394293
 51
360.0
  0
ARC
  5
415
330
1F
100
AcDbEntity
  8
0
100
AcDbCircle
 10
-533.6803701626
 20
263.3372925764
 30
0.0
 40
0.4999999999999902
100
AcDbArc
 50
0.0
 51
175.0128605707
  0
LINE
  5
416
330
1F
100
AcDbEntity
  8
0
100
AcDbLine
 10
-529.9784772805
 20
263.3807586441
 30
0.0
 11
-530.6604510186
 21
255.5655595425
 31
0.0
  0
LINE
  5
417
330
1F
100
AcDbEntity
  8
0
100
AcDbLine
 10
-530.6604510186
 20
57.3090256102
 30
0.0
 11
-529.9784772805
 21
49.4938265087
 31
0.0
  0
LINE
  5
418
330
1F
100
AcDbEntity
  8
0
100
AcDbLine
 10
-534.1784772805
 20
263.3807586441
 30
0.0
 11
-534.8604510186
 21
255.5655595425
 31
0.0
  0
LINE
  5
419
330
1F
100
AcDbEntity
  8
0
100
AcDbLine
 10
-534.8604510186
 20
57.3090256102
 30
0.0
 11
-534.1784772805
 21
49.4938265087
 31
0.0
  0
ARC
  5
41A
330
1F
100
AcDbEntity
  8
0
100
AcDbCircle
 10
-530.9095045776
 20
57.2872925764
 30
0.0
 40
0.2499999999998491
100
AcDbArc
 50
4.987139429199999
 51
90.0
  0
ARC
  5
41B
330
1F
100
AcDbEntity
  8
0
100
AcDbCircle
 10
-530.9095045776
 20
255.5872925764
 30
0.0
 40
0.2499999999998497
100
AcDbArc
 50
270.0
 51
355.0128605707999
  0
ARC
  5
41C
330
1F
100
AcDbEntity
  8
0
100
AcDbCircle
 10
-535.1095045776
 20
57.2872925764
 30
0.0
 40
0.2499999999999691
100
AcDbArc
 50
4.987139429299999
 51
90.0
  0
ARC
  5
41D
330
1F
100
AcDbEntity
  8
0
100
AcDbCircle
 10
-535.1095045776
 20
255.5872925764
 30
0.0
 40
0.2499999999999679
100
AcDbArc
 50
270.0
 51
355.0128605707
  0
LINE
  5
41E
330
1F
100
AcDbEntity
  8
0
100
AcDbLine
 10
-533.1803701626
 20
57.5372925764
 30
0.0
 11
-530.9095045776
 21
57.5372925764
 31
0.0
  0
LINE
  5
41F
330
1F
100
AcDbEntity
  8
0
100
AcDbLine
 10
-530.9095045776
 20
255.3372925764
 30
0.0
 11
-533.1803701626
 21
255.3372925764
 31
0.0
  0
LINE
  5
420
330
1F
100
AcDbEntity
  8
0
100
AcDbLine
 10
-535.9803701626
 20
57.5372925764
 30
0.0
 11
-535.1095045776
 21
57.5372925764
 31
0.0
  0
LINE
  5
421
330
1F
100
AcDbEntity
  8
0
100
AcDbLine
 10
-535.1095045776
 20
255.3372925764
 30
0.0
 11
-535.9803701626
 21
255.3372925764
 31
0.0
  0
ARC
  5
422
330
1F
100
AcDbEntity
  8
0
100
AcDbCircle
 10
-205.2803701626
 20
263.3372925764
 30
0.0
 40
0.5000000000000135
100
AcDbArc
 50
4.987139429299999
 51
180.0
  0
ARC
  5
423
330
1F
100
AcDbEntity
  8
0
100
AcDbCircle
 10
-205.2803701626
 20
49.5372925764
 30
0.0
 40
0.5000000000000172
100
AcDbArc
 50
180.0
 51
355.0128605707
  0
ARC
  5
424
330
1F
100
AcDbEntity
  8
0
100
AcDbCircle
 10
-209.4803701626
 20
263.3372925764
 30
0.0
 40
0.5000000000000135
100
AcDbArc
 50
4.987139429299999
 51
180.0
  0
ARC
  5
425
330
1F
100
AcDbEntity
  8
0
100
AcDbCircle
 10
-209.4803701626
 20
49.5372925764
 30
0.0
 40
0.5000000000000172
100
AcDbArc
 50
180.0
 51
355.0128605707
  0
LINE
  5
426
330
1F
100
AcDbEntity
  8
0
100
AcDbLine
 10
-208.9822630446
 20
49.4938265087
 30
0.0
 11
-208.3002893066
 21
57.3090256102
 31
0.0
  0
LINE
  5
427
330
1F
100
AcDbEntity
  8
0
100
AcDbLine
 10
-208.3002893066
 20
255.5655595425
 30
0.0
 11
-208.9822630446
 21
263.3807586441
 31
0.0
  0
LINE
  5
428
330
1F
100
AcDbEntity
  8
0
100
AcDbLine
 10
-204.7822630446
 20
49.4938265087
 30
0.0
 11
-204.1002893066
 21
57.3090256102
 31
0.0
  0
LINE
  5
429
330
1F
100
AcDbEntity
  8
0
100
AcDbLine
 10
-204.1002893066
 20
255.5655595425
 30
0.0
 11
-204.7822630446
 21
263.3807586441
 31
0.0
  0
ARC
  5
42A
330
1F
100
AcDbEntity
  8
0
100
AcDbCircle
 10
-203.8512357476
 20
255.5872925764
 30
0.0
 40
0.2499999999999962
100
AcDbArc
 50
184.9871394293
 51
270.0
  0
ARC
  5
42B
330
1F
100
AcDbEntity
  8
0
100
AcDbCircle
 10
-203.8512357476
 20
57.2872925764
 30
0.0
 40
0.2499999999999974
100
AcDbArc
 50
90.0
 51
175.0128605707
  0
ARC
  5
42C
330
1F
100
AcDbEntity
  8
0
100
AcDbCircle
 10
-208.0512357476
 20
255.5872925764
 30
0.0
 40
0.2499999999999629
100
AcDbArc
 50
184.9871394292
 51
270.0
  0
ARC
  5
42D
330
1F
100
AcDbEntity
  8
0
100
AcDbCircle
 10
-208.0512357476
 20
57.2872925764
 30
0.0
 40
0.2499999999999642
100
AcDbArc
 50
90.0
 51
175.0128605708
  0
LINE
  5
42E
330
1F
100
AcDbEntity
  8
0
100
AcDbLine
 10
-202.9803701626
 20
255.3372925764
 30
0.0
 11
-203.8512357476
 21
255.3372925764
 31
0.0
  0
LINE
  5
42F
330
1F
100
AcDbEntity
  8
0
100
AcDbLine
 10
-203.8512357476
 20
57.5372925764
 30
0.0
 11
-202.9803701626
 21
57.5372925764
 31
0.0
  0
LINE
  5
430
330
1F
100
AcDbEntity
  8
0
100
AcDbLine
 10
-205.7803701626
 20
255.3372925764
 30
0.0
 11
-208.0512357476
 21
255.3372925764
 31
0.0
  0
LINE
  5
431
330
1F
100
AcDbEntity
  8
0
100
AcDbLine
 10
-208.0512357476
 20
57.5372925764
 30
0.0
 11
-205.7803701626
 21
57.5372925764
 31
0.0
  0
LINE
  5
432
330
1F
100
AcDbEntity
  8
0
100
AcDbLine
 10
-507.2938429426
 20
56.7872925764
 30
0.0
 11
-504.4803701626
 21
56.1895041928
 31
0.0
  0
LINE
  5
433
330
1F
100
AcDbEntity
  8
0
100
AcDbLine
 10
-504.4803701626
 20
256.68508096
 30
0.0
 11
-507.2938429426
 21
256.0872925764
 31
0.0
  0
ARC
  5
434
330
1F
100
AcDbEntity
  8
0
100
AcDbCircle
 10
-510.2938429426
 20
57.0682925764
 30
0.0
 40
2.000000000000075
100
AcDbArc
 50
193.6505766732
 51
346.3494233268
  0
ARC
  5
435
330
1F
100
AcDbEntity
  8
0
100
AcDbCircle
 10
-510.2938429426
 20
255.8062925764
 30
0.0
 40
2.00000000000009
100
AcDbArc
 50
13.6505766732
 51
166.3494233268
  0
ARC
  5
436
330
1F
100
AcDbEntity
  8
0
100
AcDbCircle
 10
-508.1073985687
 20
56.5372925764
 30
0.0
 40
0.2499999999999716
100
AcDbArc
 50
90.0
 51
166.3494233268
  0
ARC
  5
437
330
1F
100
AcDbEntity
  8
0
100
AcDbCircle
 10
-508.1073985687
 20
256.3372925764
 30
0.0
 40
0.25
100
AcDbArc
 50
193.6505766732
 51
270.0
  0
ARC
  5
438
330
1F
100
AcDbEntity
  8
0
100
AcDbCircle
 10
-512.4802873164
 20
56.5372925764
 30
0.0
 40
0.2500000000000568
100
AcDbArc
 50
13.6505766732
 51
90.0
  0
ARC
  5
439
330
1F
100
AcDbEntity
  8
0
100
AcDbCircle
 10
-512.4802873164
 20
256.3372925764
 30
0.0
 40
0.2500000000000568
100
AcDbArc
 50
270.0
 51
346.3494233268
  0
LINE
  5
43A
330
1F
100
AcDbEntity
  8
0
100
AcDbLine
 10
-508.1073985687
 20
56.7872925764
 30
0.0
 11
-507.2938429426
 21
56.7872925764
 31
0.0
  0
LINE
  5
43B
330
1F
100
AcDbEntity
  8
0
100
AcDbLine
 10
-507.2938429426
 20
256.0872925764
 30
0.0
 11
-508.1073985687
 21
256.0872925764
 31
0.0
  0
LINE
  5
43C
330
1F
100
AcDbEntity
  8
0
100
AcDbLine
 10
-517.8647903348
 20
56.7872925764
 30
0.0
 11
-512.4802873164
 21
56.7872925764
 31
0.0
  0
LINE
  5
43D
330
1F
100
AcDbEntity
  8
0
100
AcDbLine
 10
-512.4802873164
 20
256.0872925764
 30
0.0
 11
-517.8647903348
 21
256.0872925764
 31
0.0
  0
LINE
  5
43E
330
1F
100
AcDbEntity
  8
0
100
AcDbLine
 10
-517.8647903348
 20
256.0872925764
 30
0.0
 11
-519.6147903348
 21
254.3372925764
 31
0.0
  0
LINE
  5
43F
330
1F
100
AcDbEntity
  8
0
100
AcDbLine
 10
-519.6147903348
 20
58.5372925764
 30
0.0
 11
-517.8647903348
 21
56.7872925764
 31
0.0
  0
LINE
  5
440
330
1F
100
AcDbEntity
  8
0
100
AcDbLine
 10
-540.6803701626
 20
56.7872925764
 30
0.0
 11
-535.9803701626
 21
56.7872925764
 31
0.0
  0
LINE
  5
441
330
1F
100
AcDbEntity
  8
0
100
AcDbLine
 10
-535.9803701626
 20
256.0872925764
 30
0.0
 11
-540.6803701626
 21
256.0872925764
 31
0.0
  0
ARC
  5
442
330
1F
100
AcDbEntity
  8
0
100
AcDbCircle
 10
-540.6803701626
 20
58.5872925764
 30
0.0
 40
1.799999999999997
100
AcDbArc
 50
180.0
 51
270.0
  0
ARC
  5
443
330
1F
100
AcDbEntity
  8
0
100
AcDbCircle
 10
-540.6803701626
 20
254.2872925764
 30
0.0
 40
1.799999999999955
100
AcDbArc
 50
90.0
 51
180.0
  0
LINE
  5
444
330
1F
100
AcDbEntity
  8
0
100
AcDbLine
 10
-519.6147903348
 20
254.3372925764
 30
0.0
 11
-526.6147903348
 21
252.4372925764
 31
0.0
  0
LINE
  5
445
330
1F
100
AcDbEntity
  8
0
100
AcDbLine
 10
-526.6147903348
 20
60.4372925764
 30
0.0
 11
-519.6147903348
 21
58.5372925764
 31
0.0
  0
LINE
  5
446
330
1F
100
AcDbEntity
  8
0
100
AcDbLine
 10
-528.9803701626
 20
60.4372925764
 30
0.0
 11
-526.6147903348
 21
60.4372925764
 31
0.0
  0
LINE
  5
447
330
1F
100
AcDbEntity
  8
0
100
AcDbLine
 10
-526.6147903348
 20
252.4372925764
 30
0.0
 11
-528.9803701626
 21
252.4372925764
 31
0.0
  0
LINE
  5
448
330
1F
100
AcDbEntity
  8
0
100
AcDbLine
 10
-231.6668973826
 20
256.0872925764
 30
0.0
 11
-234.4803701626
 21
256.68508096
 31
0.0
  0
LINE
  5
449
330
1F
100
AcDbEntity
  8
0
100
AcDbLine
 10
-234.4803701626
 20
56.1895041928
 30
0.0
 11
-231.6668973826
 21
56.7872925764
 31
0.0
  0
ARC
  5
44A
330
1F
100
AcDbEntity
  8
0
100
AcDbCircle
 10
-228.6668973826
 20
255.8062925764
 30
0.0
 40
1.999999999999994
100
AcDbArc
 50
13.6505766732
 51
166.3494233268
  0
ARC
  5
44B
330
1F
100
AcDbEntity
  8
0
100
AcDbCircle
 10
-228.6668973826
 20
57.0682925764
 30
0.0
 40
1.999999999999994
100
AcDbArc
 50
193.6505766732
 51
346.3494233268
  0
ARC
  5
44C
330
1F
100
AcDbEntity
  8
0
100
AcDbCircle
 10
-226.4804530087
 20
256.3372925764
 30
0.0
 40
0.250000000000072
100
AcDbArc
 50
193.6505766733
 51
270.0
  0
ARC
  5
44D
330
1F
100
AcDbEntity
  8
0
100
AcDbCircle
 10
-226.4804530087
 20
56.5372925764
 30
0.0
 40
0.2500000000000603
100
AcDbArc
 50
90.0
 51
166.3494233268
  0
ARC
  5
44E
330
1F
100
AcDbEntity
  8
0
100
AcDbCircle
 10
-230.8533417565
 20
256.3372925764
 30
0.0
 40
0.25
100
AcDbArc
 50
270.0
 51
346.3494233268
  0
ARC
  5
44F
330
1F
100
AcDbEntity
  8
0
100
AcDbCircle
 10
-230.8533417565
 20
56.5372925764
 30
0.0
 40
0.2499999999999774
100
AcDbArc
 50
13.6505766732
 51
90.0
  0
LINE
  5
450
330
1F
100
AcDbEntity
  8
0
100
AcDbLine
 10
-198.2803701626
 20
256.0872925764
 30
0.0
 11
-202.9803701626
 21
256.0872925764
 31
0.0
  0
LINE
  5
451
330
1F
100
AcDbEntity
  8
0
100
AcDbLine
 10
-202.9803701626
 20
56.7872925764
 30
0.0
 11
-198.2803701626
 21
56.7872925764
 31
0.0
  0
ARC
  5
452
330
1F
100
AcDbEntity
  8
0
100
AcDbCircle
 10
-198.2803701626
 20
254.2872925764
 30
0.0
 40
1.800000000000011
100
AcDbArc
 50
0.0
 51
90.0
  0
ARC
  5
453
330
1F
100
AcDbEntity
  8
0
100
AcDbCircle
 10
-198.2803701626
 20
58.5872925764
 30
0.0
 40
1.800000000000026
100
AcDbArc
 50
270.0
 51
0.0
  0
LINE
  5
454
330
1F
100
AcDbEntity
  8
0
100
AcDbLine
 10
-221.0959499904
 20
56.7872925764
 30
0.0
 11
-219.3459499904
 21
58.5372925764
 31
0.0
  0
LINE
  5
455
330
1F
100
AcDbEntity
  8
0
100
AcDbLine
 10
-219.3459499904
 20
254.3372925764
 30
0.0
 11
-221.0959499904
 21
256.0872925764
 31
0.0
  0
LINE
  5
456
330
1F
100
AcDbEntity
  8
0
100
AcDbLine
 10
-230.8533417565
 20
256.0872925764
 30
0.0
 11
-231.6668973826
 21
256.0872925764
 31
0.0
  0
LINE
  5
457
330
1F
100
AcDbEntity
  8
0
100
AcDbLine
 10
-231.6668973826
 20
56.7872925764
 30
0.0
 11
-230.8533417565
 21
56.7872925764
 31
0.0
  0
LINE
  5
458
330
1F
100
AcDbEntity
  8
0
100
AcDbLine
 10
-221.0959499904
 20
256.0872925764
 30
0.0
 11
-226.4804530087
 21
256.0872925764
 31
0.0
  0
LINE
  5
459
330
1F
100
AcDbEntity
  8
0
100
AcDbLine
 10
-226.4804530087
 20
56.7872925764
 30
0.0
 11
-221.0959499904
 21
56.7872925764
 31
0.0
  0
LINE
  5
45A
330
1F
100
AcDbEntity
  8
0
100
AcDbLine
 10
-219.3459499904
 20
58.5372925764
 30
0.0
 11
-212.3459499904
 21
60.4372925764
 31
0.0
  0
LINE
  5
45B
330
1F
100
AcDbEntity
  8
0
100
AcDbLine
 10
-212.3459499904
 20
252.4372925764
 30
0.0
 11
-219.3459499904
 21
254.3372925764
 31
0.0
  0
LINE
  5
45C
330
1F
100
AcDbEntity
  8
0
100
AcDbLine
 10
-209.9803701626
 20
252.4372925764
 30
0.0
 11
-212.3459499904
 21
252.4372925764
 31
0.0
  0
LINE
  5
45D
330
1F
100
AcDbEntity
  8
0
100
AcDbLine
 10
-212.3459499904
 20
60.4372925764
 30
0.0
 11
-209.9803701626
 21
60.4372925764
 31
0.0
  0
CIRCLE
  5
45E
330
1F
100
AcDbEntity
  8
0
100
AcDbCircle
 10
-500.1803701626
 20
270.6372925764
 30
0.0
 40
3.000000000000046
  0
CIRCLE
  5
45F
330
1F
100
AcDbEntity
  8
0
100
AcDbCircle
 10
-500.1803701626
 20
270.6372925764
 30
0.0
 40
0.900000000000017
  0
LINE
  5
460
330
1F
100
AcDbEntity
  8
0
100
AcDbLine
 10
-429.5803701626
 20
301.4372925764
 30
0.0
 11
-431.3803701626
 21
301.4372925764
 31
0.0
  0
LINE
  5
461
330
1F
100
AcDbEntity
  8
0
100
AcDbLine
 10
-307.5803701626
 20
301.4372925764
 30
0.0
 11
-309.3803701626
 21
301.4372925764
 31
0.0
  0
LINE
  5
462
330
1F
100
AcDbEntity
  8
0
100
AcDbLine
 10
-309.3803701626
 20
11.4372925764
 30
0.0
 11
-307.5803701626
 21
11.4372925764
 31
0.0
  0
LINE
  5
463
330
1F
100
AcDbEntity
  8
0
100
AcDbLine
 10
-431.3803701626
 20
11.4372925764
 30
0.0
 11
-429.5803701626
 21
11.4372925764
 31
0.0
  0
CIRCLE
  5
464
330
1F
100
AcDbEntity
  8
0
100
AcDbCircle
 10
-500.1803701626
 20
156.4372925764
 30
0.0
 40
3.0
  0
CIRCLE
  5
465
330
1F
100
AcDbEntity
  8
0
100
AcDbCircle
 10
-500.1803701626
 20
156.4372925764
 30
0.0
 40
0.9000000000000015
  0
CIRCLE
  5
466
330
1F
100
AcDbEntity
  8
0
100
AcDbCircle
 10
-238.7803701626
 20
156.4372925764
 30
0.0
 40
3.000000000000015
  0
CIRCLE
  5
467
330
1F
100
AcDbEntity
  8
0
100
AcDbCircle
 10
-238.7803701626
 20
156.4372925764
 30
0.0
 40
0.900000000000017
  0
CIRCLE
  5
468
330
1F
100
AcDbEntity
  8
0
100
AcDbCircle
 10
-238.7803701626
 20
42.2372925764
 30
0.0
 40
3.000000000000011
  0
CIRCLE
  5
469
330
1F
100
AcDbEntity
  8
0
100
AcDbCircle
 10
-238.7803701626
 20
42.2372925764
 30
0.0
 40
0.900000000000017
  0
CIRCLE
  5
46A
330
1F
100
AcDbEntity
  8
0
100
AcDbCircle
 10
-500.1803701626
 20
42.2372925764
 30
0.0
 40
3.000000000000011
  0
CIRCLE
  5
46B
330
1F
100
AcDbEntity
  8
0
100
AcDbCircle
 10
-500.1803701626
 20
42.2372925764
 30
0.0
 40
0.900000000000017
  0
LINE
  5
46C
330
1F
100
AcDbEntity
  8
0
100
AcDbLine
 10
-501.0803701626
 20
11.4372925764
 30
0.0
 11
-499.2803701626
 21
11.4372925764
 31
0.0
  0
LINE
  5
46D
330
1F
100
AcDbEntity
  8
0
100
AcDbLine
 10
-239.6803701626
 20
11.4372925764
 30
0.0
 11
-237.8803701626
 21
11.4372925764
 31
0.0
  0
CIRCLE
  5
46E
330
1F
100
AcDbEntity
  8
0
100
AcDbCircle
 10
-238.7803701626
 20
270.6372925764
 30
0.0
 40
3.000000000000046
  0
CIRCLE
  5
46F
330
1F
100
AcDbEntity
  8
0
100
AcDbCircle
 10
-238.7803701626
 20
270.6372925764
 30
0.0
 40
0.900000000000017
  0
LINE
  5
470
330
1F
100
AcDbEntity
  8
0
100
AcDbLine
 10
-237.8803701626
 20
301.4372925764
 30
0.0
 11
-239.6803701626
 21
301.4372925764
 31
0.0
  0
LINE
  5
471
330
1F
100
AcDbEntity
  8
0
100
AcDbLine
 10
-499.2803701626
 20
301.4372925764
 30
0.0
 11
-501.0803701626
 21
301.4372925764
 31
0.0
  0
CIRCLE
  5
472
330
1F
100
AcDbEntity
  8
0
100
AcDbCircle
 10
-484.4803701626
 20
-1.0627074236
 30
0.0
 40
1.999999999999957
  0
CIRCLE
  5
473
330
1F
100
AcDbEntity
  8
0
100
AcDbCircle
 10
-254.4803701626
 20
313.9372925764
 30
0.0
 40
2.0
  0
CIRCLE
  5
474
330
1F
100
AcDbEntity
  8
0
100
AcDbCircle
 10
-254.4803701626
 20
-1.0627074236
 30
0.0
 40
2.000000000000033
  0
CIRCLE
  5
475
330
1F
100
AcDbEntity
  8
0
100
AcDbCircle
 10
-484.4803701626
 20
313.9372925764
 30
0.0
 40
2.0
  0
LINE
  5
476
330
1F
100
AcDbEntity
  8
0
100
AcDbLine
 10
-233.4803701626
 20
321.7605158811
 30
0.0
 11
-232.7803701626
 21
321.7605158811
 31
0.0
  0
LINE
  5
477
330
1F
100
AcDbEntity
  8
0
100
AcDbLine
 10
-233.4803701626
 20
-8.8859307283
 30
0.0
 11
-232.7803701626
 21
-8.8859307283
 31
0.0
  0
LINE
  5
47A
330
1F
100
AcDbEntity
  8
0
100
AcDbLine
 10
-232.7803701626
 20
321.7605158811
 30
0.0
 11
-232.7803701626
 21
256.2923209513
 31
0.0
  0
LINE
  5
47B
330
1F
100
AcDbEntity
  8
0
100
AcDbLine
 10
-232.7803701626
 20
56.5822642015
 30
0.0
 11
-232.7803701626
 21
-8.8859307283
 31
0.0
  0
LINE
  5
47C
330
1F
100
AcDbEntity
  8
0
100
AcDbLine
 10
-233.6571468579
 20
-9.7627074236
 30
0.0
 11
-505.3035934673
 21
-9.7627074236
 31
0.0
  0
LINE
  5
47D
330
1F
100
AcDbEntity
  8
0
100
AcDbLine
 10
-505.3035934673
 20
-9.0627074236
 30
0.0
 11
-505.3035934673
 21
-9.7627074236
 31
0.0
  0
LINE
  5
47F
330
1F
100
AcDbEntity
  8
0
100
AcDbLine
 10
-233.6571468579
 20
-9.0627074236
 30
0.0
 11
-233.6571468579
 21
-9.7627074236
 31
0.0
  0
LINE
  5
480
330
1F
100
AcDbEntity
  8
0
100
AcDbLine
 10
-505.4803701626
 20
321.7605158812
 30
0.0
 11
-506.1803701626
 21
321.7605158812
 31
0.0
  0
LINE
  5
483
330
1F
100
AcDbEntity
  8
0
100
AcDbLine
 10
-505.4803701626
 20
-8.8859307284
 30
0.0
 11
-506.1803701626
 21
-8.8859307284
 31
0.0
  0
LINE
  5
484
330
1F
100
AcDbEntity
  8
0
100
AcDbLine
 10
-506.1803701626
 20
-8.8859307284
 30
0.0
 11
-506.1803701626
 21
56.5822642015
 31
0.0
  0
LINE
  5
485
330
1F
100
AcDbEntity
  8
0
100
AcDbLine
 10
-506.1803701626
 20
256.2923209513
 30
0.0
 11
-506.1803701626
 21
321.7605158812
 31
0.0
  0
LINE
  5
487
330
1F
100
AcDbEntity
  8
0
100
AcDbLine
 10
-505.3035934673
 20
321.9372925765
 30
0.0
 11
-505.3035934673
 21
322.6372925765
 31
0.0
  0
LINE
  5
488
330
1F
100
AcDbEntity
  8
0
100
AcDbLine
 10
-505.3035934673
 20
322.6372925765
 30
0.0
 11
-233.6571468577
 21
322.6372925765
 31
0.0
  0
LINE
  5
489
330
1F
100
AcDbEntity
  8
0
100
AcDbLine
 10
-233.6571468577
 20
321.9372925765
 30
0.0
 11
-233.6571468577
 21
322.6372925765
 31
0.0
  0
LINE
  5
48A
330
1F
100
AcDbEntity
  8
0
100
AcDbLine
 10
-233.4803701626
 20
321.7605158811
 30
0.0
 11
-234.4803701626
 21
320.9372925764
 31
0.0
  0
LINE
  5
48B
330
1F
100
AcDbEntity
  8
0
100
AcDbLine
 10
-234.4803701626
 20
-8.0627074236
 30
0.0
 11
-233.4803701626
 21
-8.8859307283
 31
0.0
  0
LINE
  5
48C
330
1F
100
AcDbEntity
  8
0
100
AcDbLine
 10
-233.6571468579
 20
-9.0627074236
 30
0.0
 11
-234.4803701626
 21
-8.0627074236
 31
0.0
  0
LINE
  5
48D
330
1F
100
AcDbEntity
  8
0
100
AcDbLine
 10
-504.4803701626
 20
-8.0627074236
 30
0.0
 11
-505.3035934673
 21
-9.0627074236
 31
0.0
  0
LINE
  5
48E
330
1F
100
AcDbEntity
  8
0
100
AcDbLine
 10
-505.4803701626
 20
-8.8859307283
 30
0.0
 11
-504.4803701626
 21
-8.0627074236
 31
0.0
  0
LINE
  5
48F
330
1F
100
AcDbEntity
  8
0
100
AcDbLine
 10
-504.4803701626
 20
320.9372925764
 30
0.0
 11
-505.4803701626
 21
321.7605158812
 31
0.0
  0
LINE
  5
490
330
1F
100
AcDbEntity
  8
0
100
AcDbLine
 10
-505.3035934673
 20
321.9372925764
 30
0.0
 11
-504.4803701626
 21
320.9372925764
 31
0.0
  0
LINE
  5
491
330
1F
100
AcDbEntity
  8
0
100
AcDbLine
 10
-234.4803701626
 20
320.9372925764
 30
0.0
 11
-233.6571468578
 21
321.9372925764
 31
0.0
  0
LINE
  5
492
330
1F
100
AcDbEntity
  8
0
100
AcDbLine
 10
-504.4803701626
 20
12.2372925764
 30
0.0
 11
-234.4803701626
 21
12.2372925764
 31
0.0
  0
LINE
  5
493
330
1F
100
AcDbEntity
  8
0
100
AcDbLine
 10
-504.4803701626
 20
12.2372925764
 30
0.0
 11
-504.4803701626
 21
13.9372925764
 31
0.0
  0
LINE
  5
494
330
1F
100
AcDbEntity
  8
0
100
AcDbLine
 10
-504.4803701626
 20
13.9372925764
 30
0.0
 11
-234.4803701626
 21
13.9372925764
 31
0.0
  0
LINE
  5
495
330
1F
100
AcDbEntity
  8
0
100
AcDbLine
 10
-234.4803701626
 20
12.2372925764
 30
0.0
 11
-234.4803701626
 21
13.9372925764
 31
0.0
  0
LINE
  5
496
330
1F
100
AcDbEntity
  8
0
100
AcDbLine
 10
-504.4803701626
 20
13.9372925764
 30
0.0
 11
-504.4803701626
 21
298.9372925764
 31
0.0
  0
LINE
  5
497
330
1F
100
AcDbEntity
  8
0
100
AcDbLine
 10
-504.4803701626
 20
298.9372925764
 30
0.0
 11
-234.4803701626
 21
298.9372925764
 31
0.0
  0
LINE
  5
498
330
1F
100
AcDbEntity
  8
0
100
AcDbLine
 10
-234.4803701626
 20
13.9372925764
 30
0.0
 11
-234.4803701626
 21
298.9372925764
 31
0.0
  0
LINE
  5
499
330
1F
100
AcDbEntity
  8
0
100
AcDbLine
 10
-504.4803701626
 20
298.9372925764
 30
0.0
 11
-504.4803701626
 21
300.6372925764
 31
0.0
  0
LINE
  5
49A
330
1F
100
AcDbEntity
  8
0
100
AcDbLine
 10
-504.4803701626
 20
300.6372925764
 30
0.0
 11
-234.4803701626
 21
300.6372925764
 31
0.0
  0
LINE
  5
49B
330
1F
100
AcDbEntity
  8
0
100
AcDbLine
 10
-234.4803701626
 20
298.9372925764
 30
0.0
 11
-234.4803701626
 21
300.6372925764
 31
0.0
  0
LINE
  5
49C
330
1F
100
AcDbEntity
  8
0
100
AcDbLine
 10
-504.4803701626
 20
11.2372925764
 30
0.0
 11
-234.4803701626
 21
11.2372925764
 31
0.0
  0
LINE
  5
49D
330
1F
100
AcDbEntity
  8
0
100
AcDbLine
 10
-504.4803701626
 20
12.2372925764
 30
0.0
 11
-504.4803701626
 21
11.2372925764
 31
0.0
  0
LINE
  5
49E
330
1F
100
AcDbEntity
  8
0
100
AcDbLine
 10
-234.4803701626
 20
11.2372925764
 30
0.0
 11
-234.4803701626
 21
12.2372925764
 31
0.0
  0
LINE
  5
49F
330
1F
100
AcDbEntity
  8
0
100
AcDbLine
 10
-504.4803701626
 20
301.6372925764
 30
0.0
 11
-504.4803701626
 21
300.6372925764
 31
0.0
  0
LINE
  5
4A0
330
1F
100
AcDbEntity
  8
0
100
AcDbLine
 10
-234.4803701626
 20
301.6372925764
 30
0.0
 11
-504.4803701626
 21
301.6372925764
 31
0.0
  0
LINE
  5
4A1
330
1F
100
AcDbEntity
  8
0
100
AcDbLine
 10
-234.4803701626
 20
300.6372925764
 30
0.0
 11
-234.4803701626
 21
301.6372925764
 31
0.0
  0
LINE
  5
4A2
330
1F
100
AcDbEntity
  8
0
100
AcDbLine
 10
-234.4803701626
 20
11.2372925764
 30
0.0
 11
-234.4803701626
 21
-3.0627074236
 31
0.0
  0
LINE
  5
4A4
330
1F
100
AcDbEntity
  8
0
100
AcDbLine
 10
-239.4803701626
 20
-8.0627074236
 30
0.0
 11
-499.4803701626
 21
-8.0627074236
 31
0.0
  0
LINE
  5
4A6
330
1F
100
AcDbEntity
  8
0
100
AcDbLine
 10
-504.4803701626
 20
-3.0627074236
 30
0.0
 11
-504.4803701626
 21
11.2372925764
 31
0.0
  0
LINE
  5
4A8
330
1F
100
AcDbEntity
  8
0
100
AcDbLine
 10
-504.4803701626
 20
301.6372925764
 30
0.0
 11
-504.4803701626
 21
315.9372925764
 31
0.0
  0
LINE
  5
4AA
330
1F
100
AcDbEntity
  8
0
100
AcDbLine
 10
-499.4803701626
 20
320.9372925764
 30
0.0
 11
-239.4803701626
 21
320.9372925764
 31
0.0
  0
LINE
  5
4AB
330
1F
100
AcDbEntity
  8
0
100
AcDbLine
 10
-234.4803701626
 20
315.9372925764
 30
0.0
 11
-234.4803701626
 21
301.6372925764
 31
0.0
  0
LINE
  5
4AC
330
1F
100
AcDbEntity
  8
0
100
AcDbLine
 10
-528.9803701626
 20
49.5372925764
 30
0.0
 11
-528.9803701626
 21
263.3372925764
 31
0.0
  0
LINE
  5
4AD
330
1F
100
AcDbEntity
  8
0
100
AcDbLine
 10
-533.1803701626
 20
49.5372925764
 30
0.0
 11
-533.1803701626
 21
263.3372925764
 31
0.0
  0
LINE
  5
4AE
330
1F
100
AcDbEntity
  8
0
100
AcDbLine
 10
-205.7803701626
 20
263.3372925764
 30
0.0
 11
-205.7803701626
 21
49.5372925764
 31
0.0
  0
LINE
  5
4AF
330
1F
100
AcDbEntity
  8
0
100
AcDbLine
 10
-209.9803701626
 20
263.3372925764
 30
0.0
 11
-209.9803701626
 21
49.5372925764
 31
0.0
  0
LINE
  5
4B6
330
1F
100
AcDbEntity
  8
0
100
AcDbLine
 10
-535.9803701626
 20
156.4372925764
 30
0.0
 11
-535.9803701626
 21
256.0872925764
 31
0.0
  0
LINE
  5
4B7
330
1F
100
AcDbEntity
  8
0
100
AcDbLine
 10
-535.9803701626
 20
56.7872925764
 30
0.0
 11
-535.9803701626
 21
156.4372925764
 31
0.0
  0
LINE
  5
4B8
330
1F
100
AcDbEntity
  8
0
100
AcDbLine
 10
-542.4803701626
 20
156.4372925764
 30
0.0
 11
-542.4803701626
 21
254.2872925764
 31
0.0
  0
LINE
  5
4B9
330
1F
100
AcDbEntity
  8
0
100
AcDbLine
 10
-542.4803701626
 20
58.5872925764
 30
0.0
 11
-542.4803701626
 21
156.4372925764
 31
0.0
  0
LINE
  5
4BE
330
1F
100
AcDbEntity
  8
0
100
AcDbLine
 10
-202.9803701626
 20
156.4372925764
 30
0.0
 11
-202.9803701626
 21
56.7872925764
 31
0.0
  0
LINE
  5
4BF
330
1F
100
AcDbEntity
  8
0
100
AcDbLine
 10
-202.9803701626
 20
256.0872925764
 30
0.0
 11
-202.9803701626
 21
156.4372925764
 31
0.0
  0
LINE
  5
4C0
330
1F
100
AcDbEntity
  8
0
100
AcDbLine
 10
-196.4803701626
 20
156.4372925764
 30
0.0
 11
-196.4803701626
 21
58.5872925764
 31
0.0
  0
LINE
  5
4C1
330
1F
100
AcDbEntity
  8
0
100
AcDbLine
 10
-196.4803701626
 20
254.2872925764
 30
0.0
 11
-196.4803701626
 21
156.4372925764
 31
0.0
  0
LINE
  5
4C8
330
1F
100
AcDbEntity
  8
0
100
AcDbLine
 10
-234.4803701626
 20
320.9372925764
 30
0.0
 11
-234.4803701626
 21
315.9372925764
 31
0.0
  0
LINE
  5
4C9
330
1F
100
AcDbEntity
  8
0
100
AcDbLine
 10
-234.4803701626
 20
-3.0627074236
 30
0.0
 11
-234.4803701626
 21
-8.0627074236
 31
0.0
  0
LINE
  5
4CA
330
1F
100
AcDbEntity
  8
0
100
AcDbLine
 10
-234.4803701626
 20
-8.0627074236
 30
0.0
 11
-239.4803701626
 21
-8.0627074236
 31
0.0
  0
LINE
  5
4CB
330
1F
100
AcDbEntity
  8
0
100
AcDbLine
 10
-499.4803701626
 20
-8.0627074236
 30
0.0
 11
-504.4803701626
 21
-8.0627074236
 31
0.0
  0
LINE
  5
4CC
330
1F
100
AcDbEntity
  8
0
100
AcDbLine
 10
-504.4803701626
 20
-8.0627074236
 30
0.0
 11
-504.4803701626
 21
-3.0627074236
 31
0.0
  0
LINE
  5
4CD
330
1F
100
AcDbEntity
  8
0
100
AcDbLine
 10
-504.4803701626
 20
315.9372925764
 30
0.0
 11
-504.4803701626
 21
320.9372925764
 31
0.0
  0
LINE
  5
4CE
330
1F
100
AcDbEntity
  8
0
100
AcDbLine
 10
-504.4803701626
 20
320.9372925764
 30
0.0
 11
-499.4803701626
 21
320.9372925764
 31
0.0
  0
LINE
  5
4CF
330
1F
100
AcDbEntity
  8
0
100
AcDbLine
 10
-239.4803701626
 20
320.9372925764
 30
0.0
 11
-234.4803701626
 21
320.9372925764
 31
0.0
  0
LINE
  5
4F0
330
1F
100
AcDbEntity
  8
0
100
AcDbLine
 10
61.0010828446
 20
579.7274286117
 30
0.0
 11
78.0010828446
 21
579.7274286117
 31
0.0
  0
LINE
  5
4F1
330
1F
100
AcDbEntity
  8
0
100
AcDbLine
 10
78.0010828446
 20
601.0274286117
 30
0.0
 11
61.0010828446
 21
601.0274286117
 31
0.0
  0
LINE
  5
4F2
330
1F
100
AcDbEntity
  8
0
100
AcDbLine
 10
93.0010828446
 20
581.3774286117
 30
0.0
 11
122.8010828446
 21
581.3774286117
 31
0.0
  0
LINE
  5
4F3
330
1F
100
AcDbEntity
  8
0
100
AcDbLine
 10
122.8010828446
 20
599.3774286117
 30
0.0
 11
93.0010828446
 21
599.3774286117
 31
0.0
  0
LINE
  5
4F4
330
1F
100
AcDbEntity
  8
0
100
AcDbLine
 10
61.0010828446
 20
557.7274286117
 30
0.0
 11
78.0010828446
 21
557.7274286117
 31
0.0
  0
LINE
  5
4F5
330
1F
100
AcDbEntity
  8
0
100
AcDbLine
 10
78.0010828446
 20
579.0274286117
 30
0.0
 11
61.0010828446
 21
579.0274286117
 31
0.0
  0
LINE
  5
4F6
330
1F
100
AcDbEntity
  8
0
100
AcDbLine
 10
93.0010828446
 20
559.3774286117
 30
0.0
 11
122.8010828446
 21
559.3774286117
 31
0.0
  0
LINE
  5
4F7
330
1F
100
AcDbEntity
  8
0
100
AcDbLine
 10
122.8010828446
 20
577.3774286117
 30
0.0
 11
93.0010828446
 21
577.3774286117
 31
0.0
  0
ARC
  5
4F8
330
1F
100
AcDbEntity
  8
0
100
AcDbCircle
 10
133.0510828446
 20
705.1274286117
 30
0.0
 40
2.0
100
AcDbArc
 50
180.0
 51
270.0
  0
ARC
  5
4F9
330
1F
100
AcDbEntity
  8
0
100
AcDbCircle
 10
133.0510828446
 20
709.3274286117
 30
0.0
 40
2.0
100
AcDbArc
 50
90.0
 51
180.0
  0
LINE
  5
4FA
330
1F
100
AcDbEntity
  8
0
100
AcDbLine
 10
133.0510828446
 20
703.1274286117
 30
0.0
 11
134.1010828446
 21
703.1274286117
 31
0.0
  0
LINE
  5
4FB
330
1F
100
AcDbEntity
  8
0
100
AcDbLine
 10
134.1010828446
 20
711.3274286117
 30
0.0
 11
133.0510828446
 21
711.3274286117
 31
0.0
  0
LINE
  5
4FC
330
1F
100
AcDbEntity
  8
0
100
AcDbLine
 10
134.1010828446
 20
705.1274286117
 30
0.0
 11
134.8010828446
 21
705.1274286117
 31
0.0
  0
LINE
  5
4FD
330
1F
100
AcDbEntity
  8
0
100
AcDbLine
 10
134.8010828446
 20
709.3274286117
 30
0.0
 11
134.1010828446
 21
709.3274286117
 31
0.0
  0
ARC
  5
4FE
330
1F
100
AcDbEntity
  8
0
100
AcDbCircle
 10
133.0510828446
 20
449.4274286117
 30
0.0
 40
2.0
100
AcDbArc
 50
180.0
 51
270.0
  0
ARC
  5
4FF
330
1F
100
AcDbEntity
  8
0
100
AcDbCircle
 10
133.0510828446
 20
453.6274286117
 30
0.0
 40
2.0
100
AcDbArc
 50
90.0
 51
180.0
  0
LINE
  5
500
330
1F
100
AcDbEntity
  8
0
100
AcDbLine
 10
133.0510828446
 20
447.4274286117
 30
0.0
 11
134.1010828446
 21
447.4274286117
 31
0.0
  0
LINE
  5
501
330
1F
100
AcDbEntity
  8
0
100
AcDbLine
 10
134.1010828446
 20
455.6274286117
 30
0.0
 11
133.0510828446
 21
455.6274286117
 31
0.0
  0
LINE
  5
502
330
1F
100
AcDbEntity
  8
0
100
AcDbLine
 10
134.1010828446
 20
449.4274286117
 30
0.0
 11
134.8010828446
 21
449.4274286117
 31
0.0
  0
LINE
  5
503
330
1F
100
AcDbEntity
  8
0
100
AcDbLine
 10
134.8010828446
 20
453.6274286117
 30
0.0
 11
134.1010828446
 21
453.6274286117
 31
0.0
  0
ARC
  5
504
330
1F
100
AcDbEntity
  8
0
100
AcDbCircle
 10
392.5481515726
 20
448.4618786201
 30
0.0
 40
5.000000000000012
100
AcDbArc
 50
326.1590076815
 51
352.1320762394
  0
ARC
  5
505
330
1F
100
AcDbEntity
  8
0
100
AcDbCircle
 10
392.5481515726
 20
448.8929786033
 30
0.0
 40
5.000000000000012
100
AcDbArc
 50
7.867923760599999
 51
33.8409923185
  0
ARC
  5
506
330
1F
100
AcDbEntity
  8
0
100
AcDbCircle
 10
392.5481515726
 20
709.8618786201
 30
0.0
 40
5.000000000000028
100
AcDbArc
 50
326.1590076815
 51
352.1320762394
  0
ARC
  5
507
330
1F
100
AcDbEntity
  8
0
100
AcDbCircle
 10
392.5481515726
 20
710.2929786033
 30
0.0
 40
5.000000000000012
100
AcDbArc
 50
7.867923760599999
 51
33.8409923185
  0
ARC
  5
508
330
1F
100
AcDbEntity
  8
0
100
AcDbCircle
 10
132.4010828446
 20
691.8774286117
 30
0.0
 40
1.5
100
AcDbArc
 50
180.0
 51
270.0
  0
ARC
  5
509
330
1F
100
AcDbEntity
  8
0
100
AcDbCircle
 10
132.4010828446
 20
696.8774286117
 30
0.0
 40
1.5
100
AcDbArc
 50
90.0
 51
180.0
  0
LINE
  5
50A
330
1F
100
AcDbEntity
  8
0
100
AcDbLine
 10
134.0010828446
 20
698.3774286117
 30
0.0
 11
132.4010828446
 21
698.3774286117
 31
0.0
  0
LINE
  5
50B
330
1F
100
AcDbEntity
  8
0
100
AcDbLine
 10
132.4010828446
 20
690.3774286117
 30
0.0
 11
134.0010828446
 21
690.3774286117
 31
0.0
  0
ARC
  5
50F
330
1F
100
AcDbEntity
  8
0
100
AcDbCircle
 10
132.4010828446
 20
461.8774286117
 30
0.0
 40
1.5
100
AcDbArc
 50
180.0
 51
270.0
  0
ARC
  5
510
330
1F
100
AcDbEntity
  8
0
100
AcDbCircle
 10
132.4010828446
 20
466.8774286117
 30
0.0
 40
1.500000000000057
100
AcDbArc
 50
90.0
 51
180.0
  0
LINE
  5
511
330
1F
100
AcDbEntity
  8
0
100
AcDbLine
 10
134.0010828446
 20
468.3774286117
 30
0.0
 11
132.4010828446
 21
468.3774286117
 31
0.0
  0
LINE
  5
512
330
1F
100
AcDbEntity
  8
0
100
AcDbLine
 10
132.4010828446
 20
460.3774286117
 30
0.0
 11
134.0010828446
 21
460.3774286117
 31
0.0
  0
LINE
  5
51A
330
1F
100
AcDbEntity
  8
0
100
AcDbLine
 10
134.8010828446
 20
698.3774286117
 30
0.0
 11
134.0010828446
 21
698.3774286117
 31
0.0
  0
LINE
  5
51B
330
1F
100
AcDbEntity
  8
0
100
AcDbLine
 10
134.0010828446
 20
690.3774286117
 30
0.0
 11
134.8010828446
 21
690.3774286117
 31
0.0
  0
LINE
  5
51C
330
1F
100
AcDbEntity
  8
0
100
AcDbLine
 10
134.8010828446
 20
468.3774286117
 30
0.0
 11
134.0010828446
 21
468.3774286117
 31
0.0
  0
LINE
  5
51D
330
1F
100
AcDbEntity
  8
0
100
AcDbLine
 10
134.0010828446
 20
460.3774286117
 30
0.0
 11
134.8010828446
 21
460.3774286117
 31
0.0
  0
LINE
  5
51E
330
1F
100
AcDbEntity
  8
0
100
AcDbLine
 10
132.8010828446
 20
534.3774286117
 30
0.0
 11
134.8010828446
 21
534.3774286117
 31
0.0
  0
ARC
  5
51F
330
1F
100
AcDbEntity
  8
0
100
AcDbCircle
 10
124.8010828446
 20
548.3774286117
 30
0.0
 40
8.0
100
AcDbArc
 50
0.0
 51
90.0
  0
LINE
  5
520
330
1F
100
AcDbEntity
  8
0
100
AcDbLine
 10
122.8010828446
 20
556.3774286117
 30
0.0
 11
124.8010828446
 21
556.3774286117
 31
0.0
  0
LINE
  5
521
330
1F
100
AcDbEntity
  8
0
100
AcDbLine
 10
134.8010828446
 20
624.3774286117
 30
0.0
 11
132.8010828446
 21
624.3774286117
 31
0.0
  0
ARC
  5
523
330
1F
100
AcDbEntity
  8
0
100
AcDbCircle
 10
124.8010828446
 20
610.3774286117
 30
0.0
 40
8.0
100
AcDbArc
 50
270.0
 51
0.0
  0
ARC
  5
524
330
1F
100
AcDbEntity
  8
0
100
AcDbCircle
 10
124.8010828446
 20
570.3774286117
 30
0.0
 40
8.0
100
AcDbArc
 50
0.0
 51
90.0
  0
LINE
  5
525
330
1F
100
AcDbEntity
  8
0
100
AcDbLine
 10
124.8010828446
 20
602.3774286117
 30
0.0
 11
122.8010828446
 21
602.3774286117
 31
0.0
  0
LINE
  5
526
330
1F
100
AcDbEntity
  8
0
100
AcDbLine
 10
122.8010828446
 20
578.3774286117
 30
0.0
 11
124.8010828446
 21
578.3774286117
 31
0.0
  0
ARC
  5
527
330
1F
100
AcDbEntity
  8
0
100
AcDbCircle
 10
159.8510828446
 20
739.3774286117
 30
0.0
 40
0.5000000000001157
100
AcDbArc
 50
94.9871394293
 51
270.0
  0
ARC
  5
528
330
1F
100
AcDbEntity
  8
0
100
AcDbCircle
 10
373.6510828446
 20
739.3774286117
 30
0.0
 40
0.5000000000001182
100
AcDbArc
 50
270.0
 51
85.0128605707
  0
ARC
  5
529
330
1F
100
AcDbEntity
  8
0
100
AcDbCircle
 10
159.8510828446
 20
743.5774286117
 30
0.0
 40
0.5000000000001137
100
AcDbArc
 50
94.9871394293
 51
270.0
  0
ARC
  5
52A
330
1F
100
AcDbEntity
  8
0
100
AcDbCircle
 10
373.6510828446
 20
743.5774286117
 30
0.0
 40
0.5000000000001137
100
AcDbArc
 50
270.0
 51
85.01286057059998
  0
LINE
  5
52B
330
1F
100
AcDbEntity
  8
0
100
AcDbLine
 10
373.6945489123
 20
739.8755357296
 30
0.0
 11
365.8793498108
 21
740.5575094677
 31
0.0
  0
LINE
  5
52C
330
1F
100
AcDbEntity
  8
0
100
AcDbLine
 10
167.6228158785
 20
740.5575094677
 30
0.0
 11
159.8076167769
 21
739.8755357296
 31
0.0
  0
LINE
  5
52D
330
1F
100
AcDbEntity
  8
0
100
AcDbLine
 10
373.6945489123
 20
744.0755357296
 30
0.0
 11
365.8793498108
 21
744.7575094677
 31
0.0
  0
LINE
  5
52E
330
1F
100
AcDbEntity
  8
0
100
AcDbLine
 10
167.6228158785
 20
744.7575094677
 30
0.0
 11
159.8076167769
 21
744.0755357296
 31
0.0
  0
ARC
  5
52F
330
1F
100
AcDbEntity
  8
0
100
AcDbCircle
 10
167.6010828446
 20
740.8065630267
 30
0.0
 40
0.2500000000000614
100
AcDbArc
 50
274.9871394292001
 51
0.0
  0
ARC
  5
530
330
1F
100
AcDbEntity
  8
0
100
AcDbCircle
 10
365.9010828446
 20
740.8065630267
 30
0.0
 40
0.2500000000000663
100
AcDbArc
 50
180.0
 51
265.0128605708001
  0
ARC
  5
531
330
1F
100
AcDbEntity
  8
0
100
AcDbCircle
 10
167.6010828446
 20
745.0065630267
 30
0.0
 40
0.2499999999999555
100
AcDbArc
 50
274.9871394292001
 51
0.0
  0
ARC
  5
532
330
1F
100
AcDbEntity
  8
0
100
AcDbCircle
 10
365.9010828446
 20
745.0065630267
 30
0.0
 40
0.249999999999958
100
AcDbArc
 50
180.0
 51
265.0128605708001
  0
LINE
  5
533
330
1F
100
AcDbEntity
  8
0
100
AcDbLine
 10
167.8510828446
 20
743.0774286117
 30
0.0
 11
167.8510828446
 21
740.8065630267
 31
0.0
  0
LINE
  5
534
330
1F
100
AcDbEntity
  8
0
100
AcDbLine
 10
365.6510828446
 20
740.8065630267
 30
0.0
 11
365.6510828446
 21
743.0774286117
 31
0.0
  0
LINE
  5
535
330
1F
100
AcDbEntity
  8
0
100
AcDbLine
 10
167.8510828446
 20
745.8774286117
 30
0.0
 11
167.8510828446
 21
745.0065630267
 31
0.0
  0
LINE
  5
536
330
1F
100
AcDbEntity
  8
0
100
AcDbLine
 10
365.6510828446
 20
745.0065630267
 30
0.0
 11
365.6510828446
 21
745.8774286117
 31
0.0
  0
ARC
  5
537
330
1F
100
AcDbEntity
  8
0
100
AcDbCircle
 10
373.6510828446
 20
419.3774286117
 30
0.0
 40
0.5000000000000665
100
AcDbArc
 50
274.9871394294
 51
90.0
  0
ARC
  5
538
330
1F
100
AcDbEntity
  8
0
100
AcDbCircle
 10
159.8510828446
 20
419.3774286117
 30
0.0
 40
0.5000000000000616
100
AcDbArc
 50
90.0
 51
265.0128605707
  0
ARC
  5
539
330
1F
100
AcDbEntity
  8
0
100
AcDbCircle
 10
373.6510828446
 20
415.1774286117
 30
0.0
 40
0.5000000000000099
100
AcDbArc
 50
274.9871394294
 51
90.0
  0
ARC
  5
53A
330
1F
100
AcDbEntity
  8
0
100
AcDbCircle
 10
159.8510828446
 20
415.1774286117
 30
0.0
 40
0.500000000000005
100
AcDbArc
 50
90.0
 51
265.0128605707
  0
LINE
  5
53B
330
1F
100
AcDbEntity
  8
0
100
AcDbLine
 10
159.8076167769
 20
414.6793214937
 30
0.0
 11
167.6228158785
 21
413.9973477557
 31
0.0
  0
LINE
  5
53C
330
1F
100
AcDbEntity
  8
0
100
AcDbLine
 10
365.8793498108
 20
413.9973477557
 30
0.0
 11
373.6945489123
 21
414.6793214937
 31
0.0
  0
LINE
  5
53D
330
1F
100
AcDbEntity
  8
0
100
AcDbLine
 10
159.8076167769
 20
418.8793214937
 30
0.0
 11
167.6228158785
 21
418.1973477557
 31
0.0
  0
LINE
  5
53E
330
1F
100
AcDbEntity
  8
0
100
AcDbLine
 10
365.8793498108
 20
418.1973477557
 30
0.0
 11
373.6945489123
 21
418.8793214937
 31
0.0
  0
ARC
  5
53F
330
1F
100
AcDbEntity
  8
0
100
AcDbCircle
 10
365.9010828446
 20
417.9482941967
 30
0.0
 40
0.2499999999999531
100
AcDbArc
 50
94.9871394292
 51
180.0
  0
ARC
  5
540
330
1F
100
AcDbEntity
  8
0
100
AcDbCircle
 10
167.6010828446
 20
417.9482941967
 30
0.0
 40
0.2499999999999457
100
AcDbArc
 50
0.0
 51
85.0128605708
  0
ARC
  5
541
330
1F
100
AcDbEntity
  8
0
100
AcDbCircle
 10
365.9010828446
 20
413.7482941967
 30
0.0
 40
0.2499999999999629
100
AcDbArc
 50
94.9871394292
 51
180.0
  0
ARC
  5
542
330
1F
100
AcDbEntity
  8
0
100
AcDbCircle
 10
167.6010828446
 20
413.7482941967
 30
0.0
 40
0.249999999999958
100
AcDbArc
 50
0.0
 51
85.0128605708
  0
LINE
  5
543
330
1F
100
AcDbEntity
  8
0
100
AcDbLine
 10
365.6510828446
 20
412.8774286117
 30
0.0
 11
365.6510828446
 21
413.7482941967
 31
0.0
  0
LINE
  5
544
330
1F
100
AcDbEntity
  8
0
100
AcDbLine
 10
167.8510828446
 20
413.7482941967
 30
0.0
 11
167.8510828446
 21
412.8774286117
 31
0.0
  0
LINE
  5
545
330
1F
100
AcDbEntity
  8
0
100
AcDbLine
 10
365.6510828446
 20
415.6774286117
 30
0.0
 11
365.6510828446
 21
417.9482941967
 31
0.0
  0
LINE
  5
546
330
1F
100
AcDbEntity
  8
0
100
AcDbLine
 10
167.8510828446
 20
417.9482941967
 30
0.0
 11
167.8510828446
 21
415.6774286117
 31
0.0
  0
LINE
  5
547
330
1F
100
AcDbEntity
  8
0
100
AcDbLine
 10
167.1010828446
 20
717.1909013917
 30
0.0
 11
166.503294461
 21
714.3774286117
 31
0.0
  0
LINE
  5
548
330
1F
100
AcDbEntity
  8
0
100
AcDbLine
 10
366.9988712283
 20
714.3774286117
 30
0.0
 11
366.4010828446
 21
717.1909013917
 31
0.0
  0
ARC
  5
549
330
1F
100
AcDbEntity
  8
0
100
AcDbCircle
 10
167.3820828446
 20
720.1909013917
 30
0.0
 40
2.000000000000083
100
AcDbArc
 50
103.6505766732
 51
256.3494233268
  0
ARC
  5
54A
330
1F
100
AcDbEntity
  8
0
100
AcDbCircle
 10
366.1200828446
 20
720.1909013917
 30
0.0
 40
2.00000000000007
100
AcDbArc
 50
283.6505766732
 51
76.34942332680001
  0
ARC
  5
54B
330
1F
100
AcDbEntity
  8
0
100
AcDbCircle
 10
166.8510828446
 20
718.0044570178
 30
0.0
 40
0.250000000000031
100
AcDbArc
 50
0.0
 51
76.34942332680001
  0
ARC
  5
54C
330
1F
100
AcDbEntity
  8
0
100
AcDbCircle
 10
366.6510828446
 20
718.0044570178
 30
0.0
 40
0.250000000000031
100
AcDbArc
 50
103.6505766732
 51
180.0
  0
ARC
  5
54D
330
1F
100
AcDbEntity
  8
0
100
AcDbCircle
 10
166.8510828446
 20
722.3773457655
 30
0.0
 40
0.2500000000000568
100
AcDbArc
 50
283.6505766732
 51
0.0
  0
ARC
  5
54E
330
1F
100
AcDbEntity
  8
0
100
AcDbCircle
 10
366.6510828446
 20
722.3773457655
 30
0.0
 40
0.250000000000031
100
AcDbArc
 50
180.0
 51
256.3494233268
  0
LINE
  5
54F
330
1F
100
AcDbEntity
  8
0
100
AcDbLine
 10
167.1010828446
 20
718.0044570178
 30
0.0
 11
167.1010828446
 21
717.1909013917
 31
0.0
  0
LINE
  5
550
330
1F
100
AcDbEntity
  8
0
100
AcDbLine
 10
366.4010828446
 20
717.1909013917
 30
0.0
 11
366.4010828446
 21
718.0044570178
 31
0.0
  0
LINE
  5
551
330
1F
100
AcDbEntity
  8
0
100
AcDbLine
 10
167.1010828446
 20
727.7618487839
 30
0.0
 11
167.1010828446
 21
722.3773457655
 31
0.0
  0
LINE
  5
552
330
1F
100
AcDbEntity
  8
0
100
AcDbLine
 10
366.4010828446
 20
722.3773457655
 30
0.0
 11
366.4010828446
 21
727.7618487839
 31
0.0
  0
LINE
  5
553
330
1F
100
AcDbEntity
  8
0
100
AcDbLine
 10
366.4010828446
 20
727.7618487839
 30
0.0
 11
364.6510828446
 21
729.5118487839
 31
0.0
  0
LINE
  5
554
330
1F
100
AcDbEntity
  8
0
100
AcDbLine
 10
168.8510828446
 20
729.5118487839
 30
0.0
 11
167.1010828446
 21
727.7618487839
 31
0.0
  0
ARC
  5
555
330
1F
100
AcDbEntity
  8
0
100
AcDbCircle
 10
168.9010828446
 20
750.5774286117
 30
0.0
 40
1.799999999999983
100
AcDbArc
 50
90.0
 51
180.0
  0
ARC
  5
556
330
1F
100
AcDbEntity
  8
0
100
AcDbCircle
 10
364.6010828446
 20
750.5774286117
 30
0.0
 40
1.800000000000011
100
AcDbArc
 50
0.0
 51
90.0
  0
LINE
  5
557
330
1F
100
AcDbEntity
  8
0
100
AcDbLine
 10
167.1010828446
 20
750.5774286117
 30
0.0
 11
167.1010828446
 21
745.8774286117
 31
0.0
  0
LINE
  5
558
330
1F
100
AcDbEntity
  8
0
100
AcDbLine
 10
366.4010828446
 20
745.8774286117
 30
0.0
 11
366.4010828446
 21
750.5774286117
 31
0.0
  0
LINE
  5
559
330
1F
100
AcDbEntity
  8
0
100
AcDbLine
 10
364.6510828446
 20
729.5118487839
 30
0.0
 11
362.7510828446
 21
736.5118487839
 31
0.0
  0
LINE
  5
55A
330
1F
100
AcDbEntity
  8
0
100
AcDbLine
 10
170.7510828446
 20
736.5118487839
 30
0.0
 11
168.8510828446
 21
729.5118487839
 31
0.0
  0
LINE
  5
55B
330
1F
100
AcDbEntity
  8
0
100
AcDbLine
 10
170.7510828446
 20
738.8774286117
 30
0.0
 11
170.7510828446
 21
736.5118487839
 31
0.0
  0
LINE
  5
55C
330
1F
100
AcDbEntity
  8
0
100
AcDbLine
 10
362.7510828446
 20
736.5118487839
 30
0.0
 11
362.7510828446
 21
738.8774286117
 31
0.0
  0
LINE
  5
55D
330
1F
100
AcDbEntity
  8
0
100
AcDbLine
 10
366.4010828446
 20
441.5639558317
 30
0.0
 11
366.9988712283
 21
444.3774286117
 31
0.0
  0
LINE
  5
55E
330
1F
100
AcDbEntity
  8
0
100
AcDbLine
 10
166.503294461
 20
444.3774286117
 30
0.0
 11
167.1010828446
 21
441.5639558317
 31
0.0
  0
ARC
  5
55F
330
1F
100
AcDbEntity
  8
0
100
AcDbCircle
 10
366.1200828446
 20
438.5639558317
 30
0.0
 40
2.000000000000042
100
AcDbArc
 50
283.6505766732
 51
76.34942332680001
  0
ARC
  5
560
330
1F
100
AcDbEntity
  8
0
100
AcDbCircle
 10
167.3820828446
 20
438.5639558317
 30
0.0
 40
2.000000000000055
100
AcDbArc
 50
103.6505766732
 51
256.3494233268
  0
ARC
  5
561
330
1F
100
AcDbEntity
  8
0
100
AcDbCircle
 10
366.6510828446
 20
436.3775114578
 30
0.0
 40
0.2500000000000568
100
AcDbArc
 50
103.6505766732
 51
180.0
  0
ARC
  5
562
330
1F
100
AcDbEntity
  8
0
100
AcDbCircle
 10
166.8510828446
 20
436.3775114578
 30
0.0
 40
0.2500000000000568
100
AcDbArc
 50
0.0
 51
76.34942332680001
  0
ARC
  5
563
330
1F
100
AcDbEntity
  8
0
100
AcDbCircle
 10
366.6510828446
 20
440.7504002056
 30
0.0
 40
0.250000000000031
100
AcDbArc
 50
180.0
 51
256.3494233268
  0
ARC
  5
564
330
1F
100
AcDbEntity
  8
0
100
AcDbCircle
 10
166.8510828446
 20
440.7504002056
 30
0.0
 40
0.250000000000031
100
AcDbArc
 50
283.6505766732
 51
0.0
  0
LINE
  5
565
330
1F
100
AcDbEntity
  8
0
100
AcDbLine
 10
366.4010828446
 20
408.1774286117
 30
0.0
 11
366.4010828446
 21
412.8774286117
 31
0.0
  0
LINE
  5
566
330
1F
100
AcDbEntity
  8
0
100
AcDbLine
 10
167.1010828446
 20
412.8774286117
 30
0.0
 11
167.1010828446
 21
408.1774286117
 31
0.0
  0
ARC
  5
567
330
1F
100
AcDbEntity
  8
0
100
AcDbCircle
 10
364.6010828446
 20
408.1774286117
 30
0.0
 40
1.800000000000011
100
AcDbArc
 50
270.0
 51
0.0
  0
ARC
  5
568
330
1F
100
AcDbEntity
  8
0
100
AcDbCircle
 10
168.9010828446
 20
408.1774286117
 30
0.0
 40
1.800000000000011
100
AcDbArc
 50
180.0
 51
270.0
  0
LINE
  5
569
330
1F
100
AcDbEntity
  8
0
100
AcDbLine
 10
167.1010828446
 20
430.9930084395
 30
0.0
 11
168.8510828446
 21
429.2430084395
 31
0.0
  0
LINE
  5
56A
330
1F
100
AcDbEntity
  8
0
100
AcDbLine
 10
364.6510828446
 20
429.2430084395
 30
0.0
 11
366.4010828446
 21
430.9930084395
 31
0.0
  0
LINE
  5
56B
330
1F
100
AcDbEntity
  8
0
100
AcDbLine
 10
366.4010828446
 20
430.9930084395
 30
0.0
 11
366.4010828446
 21
436.3775114578
 31
0.0
  0
LINE
  5
56C
330
1F
100
AcDbEntity
  8
0
100
AcDbLine
 10
167.1010828446
 20
436.3775114578
 30
0.0
 11
167.1010828446
 21
430.9930084395
 31
0.0
  0
LINE
  5
56D
330
1F
100
AcDbEntity
  8
0
100
AcDbLine
 10
366.4010828446
 20
440.7504002056
 30
0.0
 11
366.4010828446
 21
441.5639558317
 31
0.0
  0
LINE
  5
56E
330
1F
100
AcDbEntity
  8
0
100
AcDbLine
 10
167.1010828446
 20
441.5639558317
 30
0.0
 11
167.1010828446
 21
440.7504002056
 31
0.0
  0
LINE
  5
56F
330
1F
100
AcDbEntity
  8
0
100
AcDbLine
 10
168.8510828446
 20
429.2430084395
 30
0.0
 11
170.7510828446
 21
422.2430084395
 31
0.0
  0
LINE
  5
570
330
1F
100
AcDbEntity
  8
0
100
AcDbLine
 10
362.7510828446
 20
422.2430084395
 30
0.0
 11
364.6510828446
 21
429.2430084395
 31
0.0
  0
LINE
  5
571
330
1F
100
AcDbEntity
  8
0
100
AcDbLine
 10
362.7510828446
 20
419.8774286117
 30
0.0
 11
362.7510828446
 21
422.2430084395
 31
0.0
  0
LINE
  5
572
330
1F
100
AcDbEntity
  8
0
100
AcDbLine
 10
170.7510828446
 20
422.2430084395
 30
0.0
 11
170.7510828446
 21
419.8774286117
 31
0.0
  0
LINE
  5
574
330
1F
100
AcDbEntity
  8
0
100
AcDbLine
 10
93.0010828446
 20
590.3774286117
 30
0.0
 11
93.0010828446
 21
579.3356047134
 31
0.0
  0
LINE
  5
575
330
1F
100
AcDbEntity
  8
0
100
AcDbLine
 10
93.0010828446
 20
579.3356047134
 30
0.0
 11
78.0010828446
 21
579.3356047134
 31
0.0
  0
LINE
  5
576
330
1F
100
AcDbEntity
  8
0
100
AcDbLine
 10
78.0010828446
 20
590.3774286117
 30
0.0
 11
78.0010828446
 21
579.3356047134
 31
0.0
  0
LINE
  5
577
330
1F
100
AcDbEntity
  8
0
100
AcDbLine
 10
93.0010828446
 20
601.4192525099
 30
0.0
 11
78.0010828446
 21
601.4192525099
 31
0.0
  0
LINE
  5
578
330
1F
100
AcDbEntity
  8
0
100
AcDbLine
 10
93.0010828446
 20
601.4192525099
 30
0.0
 11
93.0010828446
 21
590.3774286117
 31
0.0
  0
LINE
  5
579
330
1F
100
AcDbEntity
  8
0
100
AcDbLine
 10
78.0010828446
 20
601.4192525099
 30
0.0
 11
78.0010828446
 21
590.3774286117
 31
0.0
  0
LINE
  5
57A
330
1F
100
AcDbEntity
  8
0
100
AcDbLine
 10
61.0010828446
 20
579.7274286117
 30
0.0
 11
61.0010828446
 21
601.0274286117
 31
0.0
  0
LINE
  5
57C
330
1F
100
AcDbEntity
  8
0
100
AcDbLine
 10
93.0010828446
 20
568.3774286117
 30
0.0
 11
93.0010828446
 21
557.3356047134
 31
0.0
  0
LINE
  5
57D
330
1F
100
AcDbEntity
  8
0
100
AcDbLine
 10
93.0010828446
 20
557.3356047134
 30
0.0
 11
78.0010828446
 21
557.3356047134
 31
0.0
  0
LINE
  5
57E
330
1F
100
AcDbEntity
  8
0
100
AcDbLine
 10
78.0010828446
 20
568.3774286117
 30
0.0
 11
78.0010828446
 21
557.3356047134
 31
0.0
  0
LINE
  5
57F
330
1F
100
AcDbEntity
  8
0
100
AcDbLine
 10
93.0010828446
 20
579.3356047134
 30
0.0
 11
93.0010828446
 21
568.3774286117
 31
0.0
  0
LINE
  5
580
330
1F
100
AcDbEntity
  8
0
100
AcDbLine
 10
78.0010828446
 20
579.3356047134
 30
0.0
 11
78.0010828446
 21
568.3774286117
 31
0.0
  0
LINE
  5
581
330
1F
100
AcDbEntity
  8
0
100
AcDbLine
 10
61.0010828446
 20
557.7274286117
 30
0.0
 11
61.0010828446
 21
579.0274286117
 31
0.0
  0
LINE
  5
582
330
1F
100
AcDbEntity
  8
0
100
AcDbLine
 10
131.0510828446
 20
705.1274286117
 30
0.0
 11
131.0510828446
 21
705.1423626655
 31
0.0
  0
LINE
  5
583
330
1F
100
AcDbEntity
  8
0
100
AcDbLine
 10
131.0510828446
 20
705.1423626655
 30
0.0
 11
131.0510828446
 21
706.9774286117
 31
0.0
  0
LINE
  5
584
330
1F
100
AcDbEntity
  8
0
100
AcDbLine
 10
131.0510828446
 20
706.9774286117
 30
0.0
 11
131.0510828446
 21
707.4774286117
 31
0.0
  0
LINE
  5
585
330
1F
100
AcDbEntity
  8
0
100
AcDbLine
 10
131.0510828446
 20
707.4774286117
 30
0.0
 11
131.0510828446
 21
709.3124945579
 31
0.0
  0
LINE
  5
586
330
1F
100
AcDbEntity
  8
0
100
AcDbLine
 10
131.0510828446
 20
709.3124945579
 30
0.0
 11
131.0510828446
 21
709.3274286117
 31
0.0
  0
LINE
  5
587
330
1F
100
AcDbEntity
  8
0
100
AcDbLine
 10
134.1010828446
 20
707.2274286117
 30
0.0
 11
134.1010828446
 21
711.3274286117
 31
0.0
  0
LINE
  5
588
330
1F
100
AcDbEntity
  8
0
100
AcDbLine
 10
134.1010828446
 20
703.1274286117
 30
0.0
 11
134.1010828446
 21
707.2274286117
 31
0.0
  0
LINE
  5
589
330
1F
100
AcDbEntity
  8
0
100
AcDbLine
 10
131.0510828446
 20
449.4274286117
 30
0.0
 11
131.0510828446
 21
449.4423626655
 31
0.0
  0
LINE
  5
58A
330
1F
100
AcDbEntity
  8
0
100
AcDbLine
 10
131.0510828446
 20
449.4423626655
 30
0.0
 11
131.0510828446
 21
451.2774286117
 31
0.0
  0
LINE
  5
58B
330
1F
100
AcDbEntity
  8
0
100
AcDbLine
 10
131.0510828446
 20
451.2774286117
 30
0.0
 11
131.0510828446
 21
451.7774286117
 31
0.0
  0
LINE
  5
58C
330
1F
100
AcDbEntity
  8
0
100
AcDbLine
 10
131.0510828446
 20
451.7774286117
 30
0.0
 11
131.0510828446
 21
453.6124945579
 31
0.0
  0
LINE
  5
58D
330
1F
100
AcDbEntity
  8
0
100
AcDbLine
 10
131.0510828446
 20
453.6124945579
 30
0.0
 11
131.0510828446
 21
453.6274286117
 31
0.0
  0
LINE
  5
58E
330
1F
100
AcDbEntity
  8
0
100
AcDbLine
 10
134.1010828446
 20
451.5274286117
 30
0.0
 11
134.1010828446
 21
455.6274286117
 31
0.0
  0
LINE
  5
58F
330
1F
100
AcDbEntity
  8
0
100
AcDbLine
 10
134.1010828446
 20
447.4274286117
 30
0.0
 11
134.1010828446
 21
451.5274286117
 31
0.0
  0
CIRCLE
  5
590
330
1F
100
AcDbEntity
  8
0
100
AcDbCircle
 10
153.5010828446
 20
448.6774286117
 30
0.0
 40
3.0
  0
CIRCLE
  5
591
330
1F
100
AcDbEntity
  8
0
100
AcDbCircle
 10
153.5010828446
 20
448.6774286117
 30
0.0
 40
0.9000000000000341
  0
CIRCLE
  5
592
330
1F
100
AcDbEntity
  8
0
100
AcDbCircle
 10
153.4549304219
 20
518.3774286117
 30
0.0
 40
3.0
  0
CIRCLE
  5
593
330
1F
100
AcDbEntity
  8
0
100
AcDbCircle
 10
153.4549304219
 20
518.3774286117
 30
0.0
 40
0.8999999999999773
  0
CIRCLE
  5
594
330
1F
100
AcDbEntity
  8
0
100
AcDbCircle
 10
153.4549304219
 20
640.3774286117
 30
0.0
 40
3.0
  0
CIRCLE
  5
595
330
1F
100
AcDbEntity
  8
0
100
AcDbCircle
 10
153.4549304219
 20
640.3774286117
 30
0.0
 40
0.8999999999999773
  0
CIRCLE
  5
596
330
1F
100
AcDbEntity
  8
0
100
AcDbCircle
 10
380.9549304219
 20
518.3774286117
 30
0.0
 40
3.000000000000114
  0
CIRCLE
  5
597
330
1F
100
AcDbEntity
  8
0
100
AcDbCircle
 10
380.9549304219
 20
518.3774286117
 30
0.0
 40
0.8999999999999773
  0
CIRCLE
  5
598
330
1F
100
AcDbEntity
  8
0
100
AcDbCircle
 10
380.9549304219
 20
640.3774286117
 30
0.0
 40
3.0
  0
CIRCLE
  5
599
330
1F
100
AcDbEntity
  8
0
100
AcDbCircle
 10
380.9549304219
 20
640.3774286117
 30
0.0
 40
0.8999999999999773
  0
LINE
  5
59A
330
1F
100
AcDbEntity
  8
0
100
AcDbLine
 10
397.5010828446
 20
449.4308808056
 30
0.0
 11
397.5010828446
 21
449.5774286117
 31
0.0
  0
LINE
  5
59B
330
1F
100
AcDbEntity
  8
0
100
AcDbLine
 10
397.5010828446
 20
447.7774286117
 30
0.0
 11
397.5010828446
 21
449.4308808056
 31
0.0
  0
LINE
  5
59C
330
1F
100
AcDbEntity
  8
0
100
AcDbLine
 10
397.5010828446
 20
710.8308808056
 30
0.0
 11
397.5010828446
 21
710.9774286117
 31
0.0
  0
LINE
  5
59D
330
1F
100
AcDbEntity
  8
0
100
AcDbLine
 10
397.5010828446
 20
709.1774286117
 30
0.0
 11
397.5010828446
 21
710.8308808056
 31
0.0
  0
CIRCLE
  5
59E
330
1F
100
AcDbEntity
  8
0
100
AcDbCircle
 10
266.7510828446
 20
710.0774286117
 30
0.0
 40
3.0
  0
CIRCLE
  5
59F
330
1F
100
AcDbEntity
  8
0
100
AcDbCircle
 10
266.7510828446
 20
710.0774286117
 30
0.0
 40
0.900000000000091
  0
CIRCLE
  5
5A0
330
1F
100
AcDbEntity
  8
0
100
AcDbCircle
 10
380.0010828446
 20
710.0774286117
 30
0.0
 40
3.0
  0
CIRCLE
  5
5A1
330
1F
100
AcDbEntity
  8
0
100
AcDbCircle
 10
380.0010828446
 20
710.0774286117
 30
0.0
 40
0.900000000000091
  0
CIRCLE
  5
5A2
330
1F
100
AcDbEntity
  8
0
100
AcDbCircle
 10
380.0010828446
 20
448.6774286117
 30
0.0
 40
3.0
  0
CIRCLE
  5
5A3
330
1F
100
AcDbEntity
  8
0
100
AcDbCircle
 10
380.0010828446
 20
448.6774286117
 30
0.0
 40
0.8999999999999773
  0
CIRCLE
  5
5A4
330
1F
100
AcDbEntity
  8
0
100
AcDbCircle
 10
153.5010828446
 20
710.0774286117
 30
0.0
 40
3.0
  0
CIRCLE
  5
5A5
330
1F
100
AcDbEntity
  8
0
100
AcDbCircle
 10
153.5010828446
 20
710.0774286117
 30
0.0
 40
0.900000000000091
  0
CIRCLE
  5
5A6
330
1F
100
AcDbEntity
  8
0
100
AcDbCircle
 10
266.7510828446
 20
448.6774286117
 30
0.0
 40
3.000000000000057
  0
CIRCLE
  5
5A7
330
1F
100
AcDbEntity
  8
0
100
AcDbCircle
 10
266.7510828446
 20
448.6774286117
 30
0.0
 40
0.9000000000000341
  0
LINE
  5
5A8
330
1F
100
AcDbEntity
  8
0
100
AcDbLine
 10
130.9010828446
 20
691.8774286117
 30
0.0
 11
130.9010828446
 21
696.8774286117
 31
0.0
  0
LINE
  5
5AD
330
1F
100
AcDbEntity
  8
0
100
AcDbLine
 10
130.9010828446
 20
461.8774286117
 30
0.0
 11
130.9010828446
 21
466.8774286117
 31
0.0
  0
LINE
  5
5B2
330
1F
100
AcDbEntity
  8
0
100
AcDbLine
 10
132.8010828446
 20
556.3774286117
 30
0.0
 11
132.8010828446
 21
534.3774286117
 31
0.0
  0
LINE
  5
5B3
330
1F
100
AcDbEntity
  8
0
100
AcDbLine
 10
122.8010828446
 20
578.3774286117
 30
0.0
 11
122.8010828446
 21
556.3774286117
 31
0.0
  0
LINE
  5
5B4
330
1F
100
AcDbEntity
  8
0
100
AcDbLine
 10
132.8010828446
 20
557.9413706459
 30
0.0
 11
132.8010828446
 21
556.3774286117
 31
0.0
  0
LINE
  5
5B5
330
1F
100
AcDbEntity
  8
0
100
AcDbLine
 10
132.8010828446
 20
624.3774286117
 30
0.0
 11
132.8010828446
 21
557.9413706459
 31
0.0
  0
LINE
  5
5B6
330
1F
100
AcDbEntity
  8
0
100
AcDbLine
 10
122.8010828446
 20
578.9294081532
 30
0.0
 11
122.8010828446
 21
578.3774286117
 31
0.0
  0
LINE
  5
5B7
330
1F
100
AcDbEntity
  8
0
100
AcDbLine
 10
122.8010828446
 20
602.3774286117
 30
0.0
 11
122.8010828446
 21
578.9294081532
 31
0.0
  0
LINE
  5
5B9
330
1F
100
AcDbEntity
  8
0
100
AcDbLine
 10
143.8010828446
 20
442.6774286117
 30
0.0
 11
143.8010828446
 21
716.0774286117
 31
0.0
  0
LINE
  5
5BE
330
1F
100
AcDbEntity
  8
0
100
AcDbLine
 10
134.8010828446
 20
444.3774286117
 30
0.0
 11
134.8010828446
 21
714.3774286117
 31
0.0
  0
LINE
  5
5C1
330
1F
100
AcDbEntity
  8
0
100
AcDbLine
 10
143.8010828446
 20
716.0774286117
 30
0.0
 11
136.5010828446
 21
716.0774286117
 31
0.0
  0
ARC
  5
5C4
330
1F
100
AcDbEntity
  8
0
100
AcDbCircle
 10
136.5010828446
 20
444.3774286117
 30
0.0
 40
1.699999999999989
100
AcDbArc
 50
180.0
 51
270.0
  0
LINE
  5
5C8
330
1F
100
AcDbEntity
  8
0
100
AcDbLine
 10
136.5010828446
 20
442.6774286117
 30
0.0
 11
143.8010828446
 21
442.6774286117
 31
0.0
  0
ARC
  5
5CA
330
1F
100
AcDbEntity
  8
0
100
AcDbCircle
 10
136.5010828446
 20
714.3774286117
 30
0.0
 40
1.699999999999989
100
AcDbArc
 50
90.0
 51
179.9999999991
  0
LINE
  5
5CB
330
1F
100
AcDbEntity
  8
0
100
AcDbLine
 10
143.8010828446
 20
714.3774286117
 30
0.0
 11
395.0010828446
 21
714.3774286117
 31
0.0
  0
LINE
  5
5CC
330
1F
100
AcDbEntity
  8
0
100
AcDbLine
 10
395.0010828446
 20
714.3774286117
 30
0.0
 11
395.0010828446
 21
444.3774286117
 31
0.0
  0
LINE
  5
5CD
330
1F
100
AcDbEntity
  8
0
100
AcDbLine
 10
143.8010828446
 20
444.3774286117
 30
0.0
 11
395.0010828446
 21
444.3774286117
 31
0.0
  0
LINE
  5
5CE
330
1F
100
AcDbEntity
  8
0
100
AcDbLine
 10
395.0010828446
 20
714.3774286117
 30
0.0
 11
396.7010828446
 21
714.3774286117
 31
0.0
  0
LINE
  5
5CF
330
1F
100
AcDbEntity
  8
0
100
AcDbLine
 10
396.7010828446
 20
714.3774286117
 30
0.0
 11
396.7010828446
 21
444.3774286117
 31
0.0
  0
LINE
  5
5D0
330
1F
100
AcDbEntity
  8
0
100
AcDbLine
 10
395.0010828446
 20
444.3774286117
 30
0.0
 11
396.7010828446
 21
444.3774286117
 31
0.0
  0
LINE
  5
5D1
330
1F
100
AcDbEntity
  8
0
100
AcDbLine
 10
159.8510828446
 20
738.8774286117
 30
0.0
 11
373.6510828446
 21
738.8774286117
 31
0.0
  0
LINE
  5
5D2
330
1F
100
AcDbEntity
  8
0
100
AcDbLine
 10
159.8510828446
 20
743.0774286117
 30
0.0
 11
373.6510828446
 21
743.0774286117
 31
0.0
  0
LINE
  5
5D3
330
1F
100
AcDbEntity
  8
0
100
AcDbLine
 10
179.322153955
 20
419.8774286117
 30
0.0
 11
159.8510828446
 21
419.8774286117
 31
0.0
  0
LINE
  5
5D4
330
1F
100
AcDbEntity
  8
0
100
AcDbLine
 10
373.6510828446
 20
419.8774286117
 30
0.0
 11
179.322153955
 21
419.8774286117
 31
0.0
  0
LINE
  5
5D5
330
1F
100
AcDbEntity
  8
0
100
AcDbLine
 10
179.322153955
 20
415.6774286117
 30
0.0
 11
159.8510828446
 21
415.6774286117
 31
0.0
  0
LINE
  5
5D6
330
1F
100
AcDbEntity
  8
0
100
AcDbLine
 10
373.6510828446
 20
415.6774286117
 30
0.0
 11
179.322153955
 21
415.6774286117
 31
0.0
  0
LINE
  5
5DA
330
1F
100
AcDbEntity
  8
0
100
AcDbLine
 10
168.9010828531
 20
752.3774286117
 30
0.0
 11
364.6010828446
 21
752.3774286117
 31
0.0
  0
LINE
  5
5DB
330
1F
100
AcDbEntity
  8
0
100
AcDbLine
 10
167.1010828446
 20
745.8774286117
 30
0.0
 11
366.4010828446
 21
745.8774286117
 31
0.0
  0
LINE
  5
5DE
330
1F
100
AcDbEntity
  8
0
100
AcDbLine
 10
366.4010828446
 20
412.8774286117
 30
0.0
 11
167.1010828446
 21
412.8774286117
 31
0.0
  0
LINE
  5
5DF
330
1F
100
AcDbEntity
  8
0
100
AcDbLine
 10
364.6010828446
 20
406.3774286117
 30
0.0
 11
168.9010828531
 21
406.3774286117
 31
0.0
  0
ARC
  5
60A
330
1F
100
AcDbEntity
  8
0
100
AcDbCircle
 10
913.9294272078
 20
263.3372925764
 30
0.0
 40
0.5000000000001137
100
AcDbArc
 50
4.987139429299999
 51
180.0
  0
ARC
  5
60B
330
1F
100
AcDbEntity
  8
0
100
AcDbCircle
 10
913.9294272078
 20
49.5372925764
 30
0.0
 40
0.5000000000001137
100
AcDbArc
 50
180.0
 51
355.0128605707
  0
ARC
  5
60C
330
1F
100
AcDbEntity
  8
0
100
AcDbCircle
 10
918.1294272078
 20
263.3372925764
 30
0.0
 40
0.5000000000001132
100
AcDbArc
 50
4.987139429299999
 51
180.0
  0
ARC
  5
60D
330
1F
100
AcDbEntity
  8
0
100
AcDbCircle
 10
918.1294272078
 20
49.5372925764
 30
0.0
 40
0.5000000000001145
100
AcDbArc
 50
180.0
 51
355.0128605707
  0
LINE
  5
60E
330
1F
100
AcDbEntity
  8
0
100
AcDbLine
 10
918.6275343258
 20
49.4938265087
 30
0.0
 11
919.3095080638
 21
57.3090256102
 31
0.0
  0
LINE
  5
60F
330
1F
100
AcDbEntity
  8
0
100
AcDbLine
 10
919.3095080638
 20
255.5655595425
 30
0.0
 11
918.6275343258
 21
263.3807586441
 31
0.0
  0
LINE
  5
610
330
1F
100
AcDbEntity
  8
0
100
AcDbLine
 10
914.4275343258
 20
49.4938265087
 30
0.0
 11
915.1095080638
 21
57.3090256102
 31
0.0
  0
LINE
  5
611
330
1F
100
AcDbEntity
  8
0
100
AcDbLine
 10
915.1095080638
 20
255.5655595425
 30
0.0
 11
914.4275343258
 21
263.3807586441
 31
0.0
  0
ARC
  5
612
330
1F
100
AcDbEntity
  8
0
100
AcDbCircle
 10
919.5585616228
 20
255.5872925764
 30
0.0
 40
0.2499999999999531
100
AcDbArc
 50
184.9871394292
 51
270.0
  0
ARC
  5
613
330
1F
100
AcDbEntity
  8
0
100
AcDbCircle
 10
919.5585616228
 20
57.2872925764
 30
0.0
 40
0.2499999999999574
100
AcDbArc
 50
90.0
 51
175.0128605708
  0
ARC
  5
614
330
1F
100
AcDbEntity
  8
0
100
AcDbCircle
 10
915.3585616228
 20
255.5872925764
 30
0.0
 40
0.2500000000000638
100
AcDbArc
 50
184.9871394292
 51
270.0
  0
ARC
  5
615
330
1F
100
AcDbEntity
  8
0
100
AcDbCircle
 10
915.3585616228
 20
57.2872925764
 30
0.0
 40
0.2500000000000608
100
AcDbArc
 50
90.0
 51
175.0128605708
  0
LINE
  5
616
330
1F
100
AcDbEntity
  8
0
100
AcDbLine
 10
920.4294272078
 20
255.3372925764
 30
0.0
 11
919.5585616228
 21
255.3372925764
 31
0.0
  0
LINE
  5
617
330
1F
100
AcDbEntity
  8
0
100
AcDbLine
 10
919.5585616228
 20
57.5372925764
 30
0.0
 11
920.4294272078
 21
57.5372925764
 31
0.0
  0
LINE
  5
618
330
1F
100
AcDbEntity
  8
0
100
AcDbLine
 10
917.6294272078
 20
255.3372925764
 30
0.0
 11
915.3585616228
 21
255.3372925764
 31
0.0
  0
LINE
  5
619
330
1F
100
AcDbEntity
  8
0
100
AcDbLine
 10
915.3585616228
 20
57.5372925764
 30
0.0
 11
917.6294272078
 21
57.5372925764
 31
0.0
  0
ARC
  5
61A
330
1F
100
AcDbEntity
  8
0
100
AcDbCircle
 10
593.9294272078
 20
49.5372925764
 30
0.0
 40
0.5000000000001137
100
AcDbArc
 50
184.9871394293
 51
360.0
  0
ARC
  5
61B
330
1F
100
AcDbEntity
  8
0
100
AcDbCircle
 10
593.9294272078
 20
263.3372925764
 30
0.0
 40
0.5000000000001137
100
AcDbArc
 50
0.0
 51
175.0128605707
  0
ARC
  5
61C
330
1F
100
AcDbEntity
  8
0
100
AcDbCircle
 10
589.7294272078
 20
49.5372925764
 30
0.0
 40
0.500000000000112
100
AcDbArc
 50
184.9871394293
 51
360.0
  0
ARC
  5
61D
330
1F
100
AcDbEntity
  8
0
100
AcDbCircle
 10
589.7294272078
 20
263.3372925764
 30
0.0
 40
0.5000000000001084
100
AcDbArc
 50
0.0
 51
175.0128605707
  0
LINE
  5
61E
330
1F
100
AcDbEntity
  8
0
100
AcDbLine
 10
589.2313200899
 20
263.3807586441
 30
0.0
 11
588.5493463518
 21
255.5655595425
 31
0.0
  0
LINE
  5
61F
330
1F
100
AcDbEntity
  8
0
100
AcDbLine
 10
588.5493463518
 20
57.3090256102
 30
0.0
 11
589.2313200899
 21
49.4938265087
 31
0.0
  0
LINE
  5
620
330
1F
100
AcDbEntity
  8
0
100
AcDbLine
 10
593.4313200899
 20
263.3807586441
 30
0.0
 11
592.7493463518
 21
255.5655595425
 31
0.0
  0
LINE
  5
621
330
1F
100
AcDbEntity
  8
0
100
AcDbLine
 10
592.7493463518
 20
57.3090256102
 30
0.0
 11
593.4313200899
 21
49.4938265087
 31
0.0
  0
ARC
  5
622
330
1F
100
AcDbEntity
  8
0
100
AcDbCircle
 10
592.5002927928
 20
57.2872925764
 30
0.0
 40
0.24999999999995
100
AcDbArc
 50
4.987139429199999
 51
90.0
  0
ARC
  5
623
330
1F
100
AcDbEntity
  8
0
100
AcDbCircle
 10
592.5002927928
 20
255.5872925764
 30
0.0
 40
0.2499999999999506
100
AcDbArc
 50
270.0
 51
355.0128605707999
  0
ARC
  5
624
330
1F
100
AcDbEntity
  8
0
100
AcDbCircle
 10
588.3002927928
 20
57.2872925764
 30
0.0
 40
0.2499999999999599
100
AcDbArc
 50
4.987139429199999
 51
90.0
  0
ARC
  5
625
330
1F
100
AcDbEntity
  8
0
100
AcDbCircle
 10
588.3002927928
 20
255.5872925764
 30
0.0
 40
0.249999999999958
100
AcDbArc
 50
270.0
 51
355.0128605707999
  0
LINE
  5
626
330
1F
100
AcDbEntity
  8
0
100
AcDbLine
 10
587.4294272078
 20
57.5372925764
 30
0.0
 11
588.3002927928
 21
57.5372925764
 31
0.0
  0
LINE
  5
627
330
1F
100
AcDbEntity
  8
0
100
AcDbLine
 10
588.3002927928
 20
255.3372925764
 30
0.0
 11
587.4294272078
 21
255.3372925764
 31
0.0
  0
LINE
  5
628
330
1F
100
AcDbEntity
  8
0
100
AcDbLine
 10
590.2294272078
 20
57.5372925764
 30
0.0
 11
592.5002927928
 21
57.5372925764
 31
0.0
  0
LINE
  5
629
330
1F
100
AcDbEntity
  8
0
100
AcDbLine
 10
592.5002927928
 20
255.3372925764
 30
0.0
 11
590.2294272078
 21
255.3372925764
 31
0.0
  0
LINE
  5
62A
330
1F
100
AcDbEntity
  8
0
100
AcDbLine
 10
891.7428999878
 20
256.0872925764
 30
0.0
 11
890.6294272079
 21
256.2923209513
 31
0.0
  0
LINE
  5
62B
330
1F
100
AcDbEntity
  8
0
100
AcDbLine
 10
890.6294272079
 20
56.5822642015
 30
0.0
 11
891.7428999878
 21
56.7872925764
 31
0.0
  0
ARC
  5
62C
330
1F
100
AcDbEntity
  8
0
100
AcDbCircle
 10
894.7428999878
 20
255.8062925764
 30
0.0
 40
1.999999999999993
100
AcDbArc
 50
13.6505766732
 51
166.3494233268
  0
ARC
  5
62D
330
1F
100
AcDbEntity
  8
0
100
AcDbCircle
 10
894.7428999878
 20
57.0682925764
 30
0.0
 40
1.999999999999992
100
AcDbArc
 50
193.6505766732
 51
346.3494233268
  0
ARC
  5
62E
330
1F
100
AcDbEntity
  8
0
100
AcDbCircle
 10
892.556455614
 20
256.3372925764
 30
0.0
 40
0.250000000000031
100
AcDbArc
 50
270.0
 51
346.3494233268
  0
ARC
  5
62F
330
1F
100
AcDbEntity
  8
0
100
AcDbCircle
 10
892.556455614
 20
56.5372925764
 30
0.0
 40
0.2500000000000326
100
AcDbArc
 50
13.6505766732
 51
90.0
  0
ARC
  5
630
330
1F
100
AcDbEntity
  8
0
100
AcDbCircle
 10
896.9293443617
 20
256.3372925764
 30
0.0
 40
0.2500000000001414
100
AcDbArc
 50
193.6505766732
 51
270.0
  0
ARC
  5
631
330
1F
100
AcDbEntity
  8
0
100
AcDbCircle
 10
896.9293443617
 20
56.5372925764
 30
0.0
 40
0.2500000000001431
100
AcDbArc
 50
90.0
 51
166.3494233268
  0
LINE
  5
632
330
1F
100
AcDbEntity
  8
0
100
AcDbLine
 10
892.556455614
 20
256.0872925764
 30
0.0
 11
891.7428999878
 21
256.0872925764
 31
0.0
  0
LINE
  5
633
330
1F
100
AcDbEntity
  8
0
100
AcDbLine
 10
891.7428999878
 20
56.7872925764
 30
0.0
 11
892.556455614
 21
56.7872925764
 31
0.0
  0
LINE
  5
634
330
1F
100
AcDbEntity
  8
0
100
AcDbLine
 10
902.31384738
 20
256.0872925764
 30
0.0
 11
896.9293443617
 21
256.0872925764
 31
0.0
  0
LINE
  5
635
330
1F
100
AcDbEntity
  8
0
100
AcDbLine
 10
896.9293443617
 20
56.7872925764
 30
0.0
 11
902.31384738
 21
56.7872925764
 31
0.0
  0
LINE
  5
636
330
1F
100
AcDbEntity
  8
0
100
AcDbLine
 10
902.31384738
 20
56.7872925764
 30
0.0
 11
904.06384738
 21
58.5372925764
 31
0.0
  0
LINE
  5
637
330
1F
100
AcDbEntity
  8
0
100
AcDbLine
 10
904.06384738
 20
254.3372925764
 30
0.0
 11
902.31384738
 21
256.0872925764
 31
0.0
  0
LINE
  5
638
330
1F
100
AcDbEntity
  8
0
100
AcDbLine
 10
925.1294272078
 20
256.0872925764
 30
0.0
 11
920.4294272078
 21
256.0872925764
 31
0.0
  0
LINE
  5
639
330
1F
100
AcDbEntity
  8
0
100
AcDbLine
 10
920.4294272078
 20
56.7872925764
 30
0.0
 11
925.1294272078
 21
56.7872925764
 31
0.0
  0
ARC
  5
63A
330
1F
100
AcDbEntity
  8
0
100
AcDbCircle
 10
925.1294272078
 20
254.2872925764
 30
0.0
 40
1.800000000000068
100
AcDbArc
 50
0.0
 51
90.0
  0
ARC
  5
63B
330
1F
100
AcDbEntity
  8
0
100
AcDbCircle
 10
925.1294272078
 20
58.5872925764
 30
0.0
 40
1.800000000000068
100
AcDbArc
 50
270.0
 51
0.0
  0
LINE
  5
63C
330
1F
100
AcDbEntity
  8
0
100
AcDbLine
 10
904.06384738
 20
58.5372925764
 30
0.0
 11
911.06384738
 21
60.4372925764
 31
0.0
  0
LINE
  5
63D
330
1F
100
AcDbEntity
  8
0
100
AcDbLine
 10
911.06384738
 20
252.4372925764
 30
0.0
 11
904.06384738
 21
254.3372925764
 31
0.0
  0
LINE
  5
63E
330
1F
100
AcDbEntity
  8
0
100
AcDbLine
 10
913.4294272078
 20
252.4372925764
 30
0.0
 11
911.06384738
 21
252.4372925764
 31
0.0
  0
LINE
  5
63F
330
1F
100
AcDbEntity
  8
0
100
AcDbLine
 10
911.06384738
 20
60.4372925764
 30
0.0
 11
913.4294272078
 21
60.4372925764
 31
0.0
  0
LINE
  5
640
330
1F
100
AcDbEntity
  8
0
100
AcDbLine
 10
616.1159544278
 20
56.7872925764
 30
0.0
 11
617.2294272078
 21
56.5822642015
 31
0.0
  0
LINE
  5
641
330
1F
100
AcDbEntity
  8
0
100
AcDbLine
 10
617.2294272078
 20
256.2923209513
 30
0.0
 11
616.1159544278
 21
256.0872925764
 31
0.0
  0
ARC
  5
642
330
1F
100
AcDbEntity
  8
0
100
AcDbCircle
 10
613.1159544278
 20
57.0682925764
 30
0.0
 40
2.000000000000077
100
AcDbArc
 50
193.6505766732
 51
346.3494233268
  0
ARC
  5
643
330
1F
100
AcDbEntity
  8
0
100
AcDbCircle
 10
613.1159544278
 20
255.8062925764
 30
0.0
 40
2.000000000000077
100
AcDbArc
 50
13.6505766732
 51
166.3494233268
  0
ARC
  5
644
330
1F
100
AcDbEntity
  8
0
100
AcDbCircle
 10
610.929510054
 20
56.5372925764
 30
0.0
 40
0.2500000000001431
100
AcDbArc
 50
13.6505766732
 51
90.0
  0
ARC
  5
645
330
1F
100
AcDbEntity
  8
0
100
AcDbCircle
 10
610.929510054
 20
256.3372925764
 30
0.0
 40
0.2500000000001549
100
AcDbArc
 50
270.0
 51
346.3494233268
  0
ARC
  5
646
330
1F
100
AcDbEntity
  8
0
100
AcDbCircle
 10
615.3023988017
 20
56.5372925764
 30
0.0
 40
0.2499999999999716
100
AcDbArc
 50
90.0
 51
166.3494233268
  0
ARC
  5
647
330
1F
100
AcDbEntity
  8
0
100
AcDbCircle
 10
615.3023988017
 20
256.3372925764
 30
0.0
 40
0.25
100
AcDbArc
 50
193.6505766732
 51
270.0
  0
LINE
  5
648
330
1F
100
AcDbEntity
  8
0
100
AcDbLine
 10
582.7294272078
 20
56.7872925764
 30
0.0
 11
587.4294272078
 21
56.7872925764
 31
0.0
  0
LINE
  5
649
330
1F
100
AcDbEntity
  8
0
100
AcDbLine
 10
587.4294272078
 20
256.0872925764
 30
0.0
 11
582.7294272078
 21
256.0872925764
 31
0.0
  0
ARC
  5
64A
330
1F
100
AcDbEntity
  8
0
100
AcDbCircle
 10
582.7294272078
 20
58.5872925764
 30
0.0
 40
1.800000000000026
100
AcDbArc
 50
180.0
 51
270.0
  0
ARC
  5
64B
330
1F
100
AcDbEntity
  8
0
100
AcDbCircle
 10
582.7294272078
 20
254.2872925764
 30
0.0
 40
1.800000000000011
100
AcDbArc
 50
90.0
 51
180.0
  0
LINE
  5
64C
330
1F
100
AcDbEntity
  8
0
100
AcDbLine
 10
605.5450070356
 20
256.0872925764
 30
0.0
 11
603.7950070356
 21
254.3372925764
 31
0.0
  0
LINE
  5
64D
330
1F
100
AcDbEntity
  8
0
100
AcDbLine
 10
603.7950070356
 20
58.5372925764
 30
0.0
 11
605.5450070356
 21
56.7872925764
 31
0.0
  0
LINE
  5
64E
330
1F
100
AcDbEntity
  8
0
100
AcDbLine
 10
605.5450070356
 20
56.7872925764
 30
0.0
 11
610.929510054
 21
56.7872925764
 31
0.0
  0
LINE
  5
64F
330
1F
100
AcDbEntity
  8
0
100
AcDbLine
 10
610.929510054
 20
256.0872925764
 30
0.0
 11
605.5450070356
 21
256.0872925764
 31
0.0
  0
LINE
  5
650
330
1F
100
AcDbEntity
  8
0
100
AcDbLine
 10
615.3023988017
 20
56.7872925764
 30
0.0
 11
616.1159544278
 21
56.7872925764
 31
0.0
  0
LINE
  5
651
330
1F
100
AcDbEntity
  8
0
100
AcDbLine
 10
616.1159544278
 20
256.0872925764
 30
0.0
 11
615.3023988017
 21
256.0872925764
 31
0.0
  0
LINE
  5
652
330
1F
100
AcDbEntity
  8
0
100
AcDbLine
 10
603.7950070356
 20
254.3372925764
 30
0.0
 11
596.7950070356
 21
252.4372925764
 31
0.0
  0
LINE
  5
653
330
1F
100
AcDbEntity
  8
0
100
AcDbLine
 10
596.7950070356
 20
60.4372925764
 30
0.0
 11
603.7950070356
 21
58.5372925764
 31
0.0
  0
LINE
  5
654
330
1F
100
AcDbEntity
  8
0
100
AcDbLine
 10
594.4294272078
 20
60.4372925764
 30
0.0
 11
596.7950070356
 21
60.4372925764
 31
0.0
  0
LINE
  5
655
330
1F
100
AcDbEntity
  8
0
100
AcDbLine
 10
596.7950070356
 20
252.4372925764
 30
0.0
 11
594.4294272078
 21
252.4372925764
 31
0.0
  0
CIRCLE
  5
657
330
1F
100
AcDbEntity
  8
0
100
AcDbCircle
 10
764.9294272078
 20
48.9372925764
 30
0.0
 40
10.04999999999995
  0
LINE
  5
658
330
1F
100
AcDbEntity
  8
0
100
AcDbLine
 10
753.8876033096
 20
42.5622925764
 30
0.0
 11
753.8876033096
 21
55.3122925764
 31
0.0
  0
LINE
  5
659
330
1F
100
AcDbEntity
  8
0
100
AcDbLine
 10
753.8876033096
 20
55.3122925764
 30
0.0
 11
764.9294272078
 21
61.6872925764
 31
0.0
  0
LINE
  5
65A
330
1F
100
AcDbEntity
  8
0
100
AcDbLine
 10
764.9294272078
 20
61.6872925764
 30
0.0
 11
775.9712511061
 21
55.3122925764
 31
0.0
  0
LINE
  5
65B
330
1F
100
AcDbEntity
  8
0
100
AcDbLine
 10
775.9712511061
 20
55.3122925764
 30
0.0
 11
775.9712511061
 21
42.5622925764
 31
0.0
  0
LINE
  5
65C
330
1F
100
AcDbEntity
  8
0
100
AcDbLine
 10
775.9712511061
 20
42.5622925764
 30
0.0
 11
764.9294272078
 21
36.1872925764
 31
0.0
  0
LINE
  5
65D
330
1F
100
AcDbEntity
  8
0
100
AcDbLine
 10
764.9294272078
 20
36.1872925764
 30
0.0
 11
753.8876033096
 21
42.5622925764
 31
0.0
  0
CIRCLE
  5
65E
330
1F
100
AcDbEntity
  8
0
100
AcDbCircle
 10
764.9294272078
 20
48.9372925764
 30
0.0
 40
4.5
  0
CIRCLE
  5
660
330
1F
100
AcDbEntity
  8
0
100
AcDbCircle
 10
742.9294272078
 20
261.9372925764
 30
0.0
 40
10.04999999999995
  0
LINE
  5
661
330
1F
100
AcDbEntity
  8
0
100
AcDbLine
 10
731.8876033096
 20
255.5622925764
 30
0.0
 11
731.8876033096
 21
268.3122925764
 31
0.0
  0
LINE
  5
662
330
1F
100
AcDbEntity
  8
0
100
AcDbLine
 10
742.9294272078
 20
274.6872925764
 30
0.0
 11
753.9712511061
 21
268.3122925764
 31
0.0
  0
LINE
  5
663
330
1F
100
AcDbEntity
  8
0
100
AcDbLine
 10
753.9712511061
 20
268.3122925764
 30
0.0
 11
753.9712511061
 21
255.5622925764
 31
0.0
  0
LINE
  5
664
330
1F
100
AcDbEntity
  8
0
100
AcDbLine
 10
753.9712511061
 20
255.5622925764
 30
0.0
 11
742.9294272078
 21
249.1872925764
 31
0.0
  0
LINE
  5
665
330
1F
100
AcDbEntity
  8
0
100
AcDbLine
 10
742.9294272078
 20
249.1872925764
 30
0.0
 11
731.8876033096
 21
255.5622925764
 31
0.0
  0
LINE
  5
666
330
1F
100
AcDbEntity
  8
0
100
AcDbLine
 10
731.8876033096
 20
268.3122925764
 30
0.0
 11
742.9294272078
 21
274.6872925764
 31
0.0
  0
CIRCLE
  5
667
330
1F
100
AcDbEntity
  8
0
100
AcDbCircle
 10
742.9294272078
 20
261.9372925764
 30
0.0
 40
4.500000000000114
  0
ARC
  5
668
330
1F
100
AcDbEntity
  8
0
100
AcDbCircle
 10
626.0794272078
 20
279.9372925764
 30
0.0
 40
2.100000000000018
100
AcDbArc
 50
96.83714116809999
 51
173.1628588319
  0
LINE
  5
669
330
1F
100
AcDbEntity
  8
0
100
AcDbLine
 10
625.8294272078
 20
282.0223585226
 30
0.0
 11
625.8294272078
 21
281.1872925764
 31
0.0
  0
LINE
  5
66A
330
1F
100
AcDbEntity
  8
0
100
AcDbLine
 10
624.8294272078
 20
280.1872925764
 30
0.0
 11
623.9943612616
 21
280.1872925764
 31
0.0
  0
ARC
  5
66B
330
1F
100
AcDbEntity
  8
0
100
AcDbCircle
 10
624.8294272078
 20
281.1872925764
 30
0.0
 40
1.0
100
AcDbArc
 50
270.0
 51
0.0
  0
CIRCLE
  5
66C
330
1F
100
AcDbEntity
  8
0
100
AcDbCircle
 10
626.0794272078
 20
279.9372925764
 30
0.0
 40
4.099999999999966
  0
ARC
  5
66D
330
1F
100
AcDbEntity
  8
0
100
AcDbCircle
 10
626.0794272078
 20
279.9372925764
 30
0.0
 40
2.100000000000095
100
AcDbArc
 50
6.837141168099999
 51
83.16285883190001
  0
ARC
  5
66E
330
1F
100
AcDbEntity
  8
0
100
AcDbCircle
 10
626.0794272078
 20
279.9372925764
 30
0.0
 40
2.100000000000045
100
AcDbArc
 50
83.16285883190001
 51
96.83714116809999
  0
ARC
  5
66F
330
1F
100
AcDbEntity
  8
0
100
AcDbCircle
 10
626.0794272078
 20
279.9372925764
 30
0.0
 40
2.099999999999982
100
AcDbArc
 50
173.1628588319
 51
186.8371411681
  0
ARC
  5
670
330
1F
100
AcDbEntity
  8
0
100
AcDbCircle
 10
626.0794272078
 20
279.9372925764
 30
0.0
 40
2.099999999999968
100
AcDbArc
 50
186.8371411681
 51
263.1628588319
  0
ARC
  5
671
330
1F
100
AcDbEntity
  8
0
100
AcDbCircle
 10
626.0794272078
 20
279.9372925764
 30
0.0
 40
2.099999999999989
100
AcDbArc
 50
263.1628588319
 51
276.8371411681
  0
ARC
  5
672
330
1F
100
AcDbEntity
  8
0
100
AcDbCircle
 10
626.0794272078
 20
279.9372925764
 30
0.0
 40
2.100000000000081
100
AcDbArc
 50
276.8371411681
 51
353.1628588318999
  0
ARC
  5
673
330
1F
100
AcDbEntity
  8
0
100
AcDbCircle
 10
626.0794272078
 20
279.9372925764
 30
0.0
 40
2.100000000000095
100
AcDbArc
 50
353.1628588318999
 51
6.837141168099999
  0
LINE
  5
674
330
1F
100
AcDbEntity
  8
0
100
AcDbLine
 10
626.3294272078
 20
282.0223585226
 30
0.0
 11
625.8294272078
 21
282.0223585226
 31
0.0
  0
LINE
  5
675
330
1F
100
AcDbEntity
  8
0
100
AcDbLine
 10
625.8294272078
 20
277.8522266302
 30
0.0
 11
626.3294272078
 21
277.8522266302
 31
0.0
  0
LINE
  5
676
330
1F
100
AcDbEntity
  8
0
100
AcDbLine
 10
623.9943612616
 20
280.1872925764
 30
0.0
 11
623.9943612616
 21
279.6872925764
 31
0.0
  0
LINE
  5
677
330
1F
100
AcDbEntity
  8
0
100
AcDbLine
 10
628.164493154
 20
280.1872925764
 30
0.0
 11
627.3294272078
 21
280.1872925764
 31
0.0
  0
ARC
  5
678
330
1F
100
AcDbEntity
  8
0
100
AcDbCircle
 10
627.3294272078
 20
281.1872925764
 30
0.0
 40
1.0
100
AcDbArc
 50
180.0
 51
270.0
  0
LINE
  5
679
330
1F
100
AcDbEntity
  8
0
100
AcDbLine
 10
626.3294272078
 20
281.1872925764
 30
0.0
 11
626.3294272078
 21
282.0223585226
 31
0.0
  0
ARC
  5
67A
330
1F
100
AcDbEntity
  8
0
100
AcDbCircle
 10
624.8294272078
 20
278.6872925764
 30
0.0
 40
1.0
100
AcDbArc
 50
0.0
 51
90.0
  0
LINE
  5
67B
330
1F
100
AcDbEntity
  8
0
100
AcDbLine
 10
625.8294272078
 20
278.6872925764
 30
0.0
 11
625.8294272078
 21
277.8522266302
 31
0.0
  0
LINE
  5
67C
330
1F
100
AcDbEntity
  8
0
100
AcDbLine
 10
623.9943612616
 20
279.6872925764
 30
0.0
 11
624.8294272078
 21
279.6872925764
 31
0.0
  0
LINE
  5
67D
330
1F
100
AcDbEntity
  8
0
100
AcDbLine
 10
628.164493154
 20
279.6872925764
 30
0.0
 11
628.164493154
 21
280.1872925764
 31
0.0
  0
LINE
  5
67E
330
1F
100
AcDbEntity
  8
0
100
AcDbLine
 10
626.3294272078
 20
277.8522266302
 30
0.0
 11
626.3294272078
 21
278.6872925764
 31
0.0
  0
LINE
  5
67F
330
1F
100
AcDbEntity
  8
0
100
AcDbLine
 10
627.3294272078
 20
279.6872925764
 30
0.0
 11
628.164493154
 21
279.6872925764
 31
0.0
  0
ARC
  5
680
330
1F
100
AcDbEntity
  8
0
100
AcDbCircle
 10
627.3294272078
 20
278.6872925764
 30
0.0
 40
1.0
100
AcDbArc
 50
90.0
 51
180.0
  0
CIRCLE
  5
681
330
1F
100
AcDbEntity
  8
0
100
AcDbCircle
 10
881.7794272078
 20
32.9372925764
 30
0.0
 40
4.099999999999994
  0
ARC
  5
682
330
1F
100
AcDbEntity
  8
0
100
AcDbCircle
 10
881.7794272078
 20
32.9372925764
 30
0.0
 40
2.100000000000003
100
AcDbArc
 50
6.837141168099999
 51
83.16285883190001
  0
ARC
  5
683
330
1F
100
AcDbEntity
  8
0
100
AcDbCircle
 10
881.7794272078
 20
32.9372925764
 30
0.0
 40
2.100000000000003
100
AcDbArc
 50
83.16285883190001
 51
96.83714116809999
  0
ARC
  5
684
330
1F
100
AcDbEntity
  8
0
100
AcDbCircle
 10
881.7794272078
 20
32.9372925764
 30
0.0
 40
2.100000000000003
100
AcDbArc
 50
96.83714116809999
 51
173.1628588319
  0
ARC
  5
685
330
1F
100
AcDbEntity
  8
0
100
AcDbCircle
 10
881.7794272078
 20
32.9372925764
 30
0.0
 40
2.099999999999975
100
AcDbArc
 50
173.1628588319
 51
186.8371411681
  0
ARC
  5
686
330
1F
100
AcDbEntity
  8
0
100
AcDbCircle
 10
881.7794272078
 20
32.9372925764
 30
0.0
 40
2.100000000000007
100
AcDbArc
 50
186.8371411681
 51
263.1628588319
  0
ARC
  5
687
330
1F
100
AcDbEntity
  8
0
100
AcDbCircle
 10
881.7794272078
 20
32.9372925764
 30
0.0
 40
2.100000000000007
100
AcDbArc
 50
263.1628588319
 51
276.8371411681
  0
ARC
  5
688
330
1F
100
AcDbEntity
  8
0
100
AcDbCircle
 10
881.7794272078
 20
32.9372925764
 30
0.0
 40
2.100000000000007
100
AcDbArc
 50
276.8371411681
 51
353.1628588318999
  0
ARC
  5
689
330
1F
100
AcDbEntity
  8
0
100
AcDbCircle
 10
881.7794272078
 20
32.9372925764
 30
0.0
 40
2.099999999999975
100
AcDbArc
 50
353.1628588318999
 51
6.837141168099999
  0
LINE
  5
68A
330
1F
100
AcDbEntity
  8
0
100
AcDbLine
 10
881.5294272078
 20
35.0223585226
 30
0.0
 11
881.5294272078
 21
34.1872925764
 31
0.0
  0
ARC
  5
68B
330
1F
100
AcDbEntity
  8
0
100
AcDbCircle
 10
880.5294272078
 20
34.1872925764
 30
0.0
 40
1.0
100
AcDbArc
 50
270.0
 51
0.0
  0
LINE
  5
68C
330
1F
100
AcDbEntity
  8
0
100
AcDbLine
 10
880.5294272078
 20
33.1872925764
 30
0.0
 11
879.6943612616
 21
33.1872925764
 31
0.0
  0
LINE
  5
68D
330
1F
100
AcDbEntity
  8
0
100
AcDbLine
 10
882.0294272078
 20
35.0223585226
 30
0.0
 11
881.5294272078
 21
35.0223585226
 31
0.0
  0
LINE
  5
68E
330
1F
100
AcDbEntity
  8
0
100
AcDbLine
 10
879.6943612616
 20
33.1872925764
 30
0.0
 11
879.6943612616
 21
32.6872925764
 31
0.0
  0
ARC
  5
68F
330
1F
100
AcDbEntity
  8
0
100
AcDbCircle
 10
880.5294272078
 20
31.6872925764
 30
0.0
 40
1.000000000000004
100
AcDbArc
 50
0.0
 51
90.0
  0
LINE
  5
690
330
1F
100
AcDbEntity
  8
0
100
AcDbLine
 10
881.5294272078
 20
31.6872925764
 30
0.0
 11
881.5294272078
 21
30.8522266302
 31
0.0
  0
LINE
  5
691
330
1F
100
AcDbEntity
  8
0
100
AcDbLine
 10
879.6943612616
 20
32.6872925764
 30
0.0
 11
880.5294272078
 21
32.6872925764
 31
0.0
  0
LINE
  5
692
330
1F
100
AcDbEntity
  8
0
100
AcDbLine
 10
883.864493154
 20
33.1872925764
 30
0.0
 11
883.0294272078
 21
33.1872925764
 31
0.0
  0
ARC
  5
693
330
1F
100
AcDbEntity
  8
0
100
AcDbCircle
 10
883.0294272078
 20
34.1872925764
 30
0.0
 40
1.0
100
AcDbArc
 50
180.0
 51
270.0
  0
LINE
  5
694
330
1F
100
AcDbEntity
  8
0
100
AcDbLine
 10
882.0294272078
 20
34.1872925764
 30
0.0
 11
882.0294272078
 21
35.0223585226
 31
0.0
  0
LINE
  5
695
330
1F
100
AcDbEntity
  8
0
100
AcDbLine
 10
883.864493154
 20
32.6872925764
 30
0.0
 11
883.864493154
 21
33.1872925764
 31
0.0
  0
LINE
  5
696
330
1F
100
AcDbEntity
  8
0
100
AcDbLine
 10
881.5294272078
 20
30.8522266302
 30
0.0
 11
882.0294272078
 21
30.8522266302
 31
0.0
  0
LINE
  5
697
330
1F
100
AcDbEntity
  8
0
100
AcDbLine
 10
882.0294272078
 20
30.8522266302
 30
0.0
 11
882.0294272078
 21
31.6872925764
 31
0.0
  0
LINE
  5
698
330
1F
100
AcDbEntity
  8
0
100
AcDbLine
 10
883.0294272078
 20
32.6872925764
 30
0.0
 11
883.864493154
 21
32.6872925764
 31
0.0
  0
ARC
  5
699
330
1F
100
AcDbEntity
  8
0
100
AcDbCircle
 10
883.0294272078
 20
31.6872925764
 30
0.0
 40
1.000000000000004
100
AcDbArc
 50
90.0
 51
180.0
  0
ARC
  5
69A
330
1F
100
AcDbEntity
  8
0
100
AcDbCircle
 10
626.0794272078
 20
32.9372925764
 30
0.0
 40
2.09999999999999
100
AcDbArc
 50
96.83714116809999
 51
173.1628588319
  0
ARC
  5
69B
330
1F
100
AcDbEntity
  8
0
100
AcDbCircle
 10
624.8294272078
 20
34.1872925764
 30
0.0
 40
1.0
100
AcDbArc
 50
270.0
 51
0.0
  0
LINE
  5
69C
330
1F
100
AcDbEntity
  8
0
100
AcDbLine
 10
624.8294272078
 20
33.1872925764
 30
0.0
 11
623.9943612616
 21
33.1872925764
 31
0.0
  0
LINE
  5
69D
330
1F
100
AcDbEntity
  8
0
100
AcDbLine
 10
625.8294272078
 20
35.0223585226
 30
0.0
 11
625.8294272078
 21
34.1872925764
 31
0.0
  0
CIRCLE
  5
69E
330
1F
100
AcDbEntity
  8
0
100
AcDbCircle
 10
626.0794272078
 20
32.9372925764
 30
0.0
 40
4.099999999999994
  0
ARC
  5
69F
330
1F
100
AcDbEntity
  8
0
100
AcDbCircle
 10
626.0794272078
 20
32.9372925764
 30
0.0
 40
2.100000000000088
100
AcDbArc
 50
6.837141168099999
 51
83.16285883190001
  0
ARC
  5
6A0
330
1F
100
AcDbEntity
  8
0
100
AcDbCircle
 10
626.0794272078
 20
32.9372925764
 30
0.0
 40
2.100000000000017
100
AcDbArc
 50
83.16285883190001
 51
96.83714116809999
  0
ARC
  5
6A1
330
1F
100
AcDbEntity
  8
0
100
AcDbCircle
 10
626.0794272078
 20
32.9372925764
 30
0.0
 40
2.099999999999975
100
AcDbArc
 50
173.1628588319
 51
186.8371411681
  0
ARC
  5
6A2
330
1F
100
AcDbEntity
  8
0
100
AcDbCircle
 10
626.0794272078
 20
32.9372925764
 30
0.0
 40
2.099999999999993
100
AcDbArc
 50
186.8371411681
 51
263.1628588319
  0
ARC
  5
6A3
330
1F
100
AcDbEntity
  8
0
100
AcDbCircle
 10
626.0794272078
 20
32.9372925764
 30
0.0
 40
2.100000000000021
100
AcDbArc
 50
263.1628588319
 51
276.8371411681
  0
ARC
  5
6A4
330
1F
100
AcDbEntity
  8
0
100
AcDbCircle
 10
626.0794272078
 20
32.9372925764
 30
0.0
 40
2.100000000000088
100
AcDbArc
 50
276.8371411681
 51
353.1628588318999
  0
ARC
  5
6A5
330
1F
100
AcDbEntity
  8
0
100
AcDbCircle
 10
626.0794272078
 20
32.9372925764
 30
0.0
 40
2.100000000000088
100
AcDbArc
 50
353.1628588318999
 51
6.837141168099999
  0
LINE
  5
6A6
330
1F
100
AcDbEntity
  8
0
100
AcDbLine
 10
626.3294272078
 20
35.0223585226
 30
0.0
 11
625.8294272078
 21
35.0223585226
 31
0.0
  0
LINE
  5
6A7
330
1F
100
AcDbEntity
  8
0
100
AcDbLine
 10
628.164493154
 20
33.1872925764
 30
0.0
 11
627.3294272078
 21
33.1872925764
 31
0.0
  0
ARC
  5
6A8
330
1F
100
AcDbEntity
  8
0
100
AcDbCircle
 10
627.3294272078
 20
34.1872925764
 30
0.0
 40
1.0
100
AcDbArc
 50
180.0
 51
270.0
  0
LINE
  5
6A9
330
1F
100
AcDbEntity
  8
0
100
AcDbLine
 10
626.3294272078
 20
34.1872925764
 30
0.0
 11
626.3294272078
 21
35.0223585226
 31
0.0
  0
LINE
  5
6AA
330
1F
100
AcDbEntity
  8
0
100
AcDbLine
 10
623.9943612616
 20
33.1872925764
 30
0.0
 11
623.9943612616
 21
32.6872925764
 31
0.0
  0
LINE
  5
6AB
330
1F
100
AcDbEntity
  8
0
100
AcDbLine
 10
625.8294272078
 20
30.8522266302
 30
0.0
 11
626.3294272078
 21
30.8522266302
 31
0.0
  0
LINE
  5
6AC
330
1F
100
AcDbEntity
  8
0
100
AcDbLine
 10
625.8294272078
 20
31.6872925764
 30
0.0
 11
625.8294272078
 21
30.8522266302
 31
0.0
  0
ARC
  5
6AD
330
1F
100
AcDbEntity
  8
0
100
AcDbCircle
 10
624.8294272078
 20
31.6872925764
 30
0.0
 40
1.0
100
AcDbArc
 50
0.0
 51
90.0
  0
LINE
  5
6AE
330
1F
100
AcDbEntity
  8
0
100
AcDbLine
 10
623.9943612616
 20
32.6872925764
 30
0.0
 11
624.8294272078
 21
32.6872925764
 31
0.0
  0
LINE
  5
6AF
330
1F
100
AcDbEntity
  8
0
100
AcDbLine
 10
626.3294272078
 20
30.8522266302
 30
0.0
 11
626.3294272078
 21
31.6872925764
 31
0.0
  0
ARC
  5
6B0
330
1F
100
AcDbEntity
  8
0
100
AcDbCircle
 10
627.3294272078
 20
31.6872925764
 30
0.0
 40
1.0
100
AcDbArc
 50
90.0
 51
180.0
  0
LINE
  5
6B1
330
1F
100
AcDbEntity
  8
0
100
AcDbLine
 10
627.3294272078
 20
32.6872925764
 30
0.0
 11
628.164493154
 21
32.6872925764
 31
0.0
  0
LINE
  5
6B2
330
1F
100
AcDbEntity
  8
0
100
AcDbLine
 10
628.164493154
 20
32.6872925764
 30
0.0
 11
628.164493154
 21
33.1872925764
 31
0.0
  0
ARC
  5
6B3
330
1F
100
AcDbEntity
  8
0
100
AcDbCircle
 10
881.7794272078
 20
279.9372925764
 30
0.0
 40
2.100000000000095
100
AcDbArc
 50
96.83714116809999
 51
173.1628588319
  0
LINE
  5
6B4
330
1F
100
AcDbEntity
  8
0
100
AcDbLine
 10
881.5294272078
 20
282.0223585226
 30
0.0
 11
881.5294272078
 21
281.1872925764
 31
0.0
  0
ARC
  5
6B5
330
1F
100
AcDbEntity
  8
0
100
AcDbCircle
 10
880.5294272078
 20
281.1872925764
 30
0.0
 40
1.0
100
AcDbArc
 50
270.0
 51
0.0
  0
LINE
  5
6B6
330
1F
100
AcDbEntity
  8
0
100
AcDbLine
 10
880.5294272078
 20
280.1872925764
 30
0.0
 11
879.6943612616
 21
280.1872925764
 31
0.0
  0
CIRCLE
  5
6B7
330
1F
100
AcDbEntity
  8
0
100
AcDbCircle
 10
881.7794272078
 20
279.9372925764
 30
0.0
 40
4.099999999999966
  0
ARC
  5
6B8
330
1F
100
AcDbEntity
  8
0
100
AcDbCircle
 10
881.7794272078
 20
279.9372925764
 30
0.0
 40
2.100000000000032
100
AcDbArc
 50
6.837141168099999
 51
83.16285883190001
  0
ARC
  5
6B9
330
1F
100
AcDbEntity
  8
0
100
AcDbCircle
 10
881.7794272078
 20
279.9372925764
 30
0.0
 40
2.100000000000045
100
AcDbArc
 50
83.16285883190001
 51
96.83714116809999
  0
ARC
  5
6BA
330
1F
100
AcDbEntity
  8
0
100
AcDbCircle
 10
881.7794272078
 20
279.9372925764
 30
0.0
 40
2.100000000000095
100
AcDbArc
 50
173.1628588319
 51
186.8371411681
  0
ARC
  5
6BB
330
1F
100
AcDbEntity
  8
0
100
AcDbCircle
 10
881.7794272078
 20
279.9372925764
 30
0.0
 40
2.100000000000081
100
AcDbArc
 50
186.8371411681
 51
263.1628588319
  0
ARC
  5
6BC
330
1F
100
AcDbEntity
  8
0
100
AcDbCircle
 10
881.7794272078
 20
279.9372925764
 30
0.0
 40
2.099999999999989
100
AcDbArc
 50
263.1628588319
 51
276.8371411681
  0
ARC
  5
6BD
330
1F
100
AcDbEntity
  8
0
100
AcDbCircle
 10
881.7794272078
 20
279.9372925764
 30
0.0
 40
2.099999999999975
100
AcDbArc
 50
276.8371411681
 51
353.1628588318999
  0
ARC
  5
6BE
330
1F
100
AcDbEntity
  8
0
100
AcDbCircle
 10
881.7794272078
 20
279.9372925764
 30
0.0
 40
2.099999999999982
100
AcDbArc
 50
353.1628588318999
 51
6.837141168099999
  0
LINE
  5
6BF
330
1F
100
AcDbEntity
  8
0
100
AcDbLine
 10
879.6943612616
 20
279.6872925764
 30
0.0
 11
880.5294272078
 21
279.6872925764
 31
0.0
  0
ARC
  5
6C0
330
1F
100
AcDbEntity
  8
0
100
AcDbCircle
 10
880.5294272078
 20
278.6872925764
 30
0.0
 40
1.0
100
AcDbArc
 50
0.0
 51
90.0
  0
LINE
  5
6C1
330
1F
100
AcDbEntity
  8
0
100
AcDbLine
 10
881.5294272078
 20
278.6872925764
 30
0.0
 11
881.5294272078
 21
277.8522266302
 31
0.0
  0
LINE
  5
6C2
330
1F
100
AcDbEntity
  8
0
100
AcDbLine
 10
882.0294272078
 20
282.0223585226
 30
0.0
 11
881.5294272078
 21
282.0223585226
 31
0.0
  0
LINE
  5
6C3
330
1F
100
AcDbEntity
  8
0
100
AcDbLine
 10
879.6943612616
 20
280.1872925764
 30
0.0
 11
879.6943612616
 21
279.6872925764
 31
0.0
  0
LINE
  5
6C4
330
1F
100
AcDbEntity
  8
0
100
AcDbLine
 10
883.864493154
 20
280.1872925764
 30
0.0
 11
883.0294272078
 21
280.1872925764
 31
0.0
  0
ARC
  5
6C5
330
1F
100
AcDbEntity
  8
0
100
AcDbCircle
 10
883.0294272078
 20
281.1872925764
 30
0.0
 40
1.0
100
AcDbArc
 50
180.0
 51
270.0
  0
LINE
  5
6C6
330
1F
100
AcDbEntity
  8
0
100
AcDbLine
 10
882.0294272078
 20
281.1872925764
 30
0.0
 11
882.0294272078
 21
282.0223585226
 31
0.0
  0
LINE
  5
6C7
330
1F
100
AcDbEntity
  8
0
100
AcDbLine
 10
883.864493154
 20
279.6872925764
 30
0.0
 11
883.864493154
 21
280.1872925764
 31
0.0
  0
LINE
  5
6C8
330
1F
100
AcDbEntity
  8
0
100
AcDbLine
 10
881.5294272078
 20
277.8522266302
 30
0.0
 11
882.0294272078
 21
277.8522266302
 31
0.0
  0
LINE
  5
6C9
330
1F
100
AcDbEntity
  8
0
100
AcDbLine
 10
883.0294272078
 20
279.6872925764
 30
0.0
 11
883.864493154
 21
279.6872925764
 31
0.0
  0
ARC
  5
6CA
330
1F
100
AcDbEntity
  8
0
100
AcDbCircle
 10
883.0294272078
 20
278.6872925764
 30
0.0
 40
1.0
100
AcDbArc
 50
90.0
 51
180.0
  0
LINE
  5
6CB
330
1F
100
AcDbEntity
  8
0
100
AcDbLine
 10
882.0294272078
 20
277.8522266302
 30
0.0
 11
882.0294272078
 21
278.6872925764
 31
0.0
  0
LINE
  5
6CC
330
1F
100
AcDbEntity
  8
0
100
AcDbLine
 10
870.0066022313
 20
-2.8204599571
 30
0.0
 11
870.7070534207
 21
-2.106759648
 31
0.0
  0
LINE
  5
6CD
330
1F
100
AcDbEntity
  8
0
100
AcDbLine
 10
870.7070534207
 20
-2.106759648
 30
0.0
 11
869.6365029571
 21
-1.0560828638
 31
0.0
  0
LINE
  5
6CE
330
1F
100
AcDbEntity
  8
0
100
AcDbLine
 10
869.6365029571
 20
-1.0560828638
 30
0.0
 11
870.6871797413
 21
0.0144675998
 31
0.0
  0
LINE
  5
6CF
330
1F
100
AcDbEntity
  8
0
100
AcDbLine
 10
870.6871797413
 20
0.0144675998
 30
0.0
 11
869.9734794322
 21
0.7149187893
 31
0.0
  0
LINE
  5
6D0
330
1F
100
AcDbEntity
  8
0
100
AcDbLine
 10
869.9734794322
 20
0.7149187893
 30
0.0
 11
868.922802648
 21
-0.3556316743
 31
0.0
  0
LINE
  5
6D1
330
1F
100
AcDbEntity
  8
0
100
AcDbLine
 10
868.922802648
 20
-0.3556316743
 30
0.0
 11
867.8522521844
 21
0.6950451098
 31
0.0
  0
LINE
  5
6D2
330
1F
100
AcDbEntity
  8
0
100
AcDbLine
 10
867.8522521844
 20
0.6950451098
 30
0.0
 11
867.1518009949
 21
-0.0186551992
 31
0.0
  0
LINE
  5
6D3
330
1F
100
AcDbEntity
  8
0
100
AcDbLine
 10
867.1518009949
 20
-0.0186551992
 30
0.0
 11
868.2223514586
 21
-1.0693319834
 31
0.0
  0
LINE
  5
6D4
330
1F
100
AcDbEntity
  8
0
100
AcDbLine
 10
868.2223514586
 20
-1.0693319834
 30
0.0
 11
867.1716746744
 21
-2.1398824471
 31
0.0
  0
LINE
  5
6D5
330
1F
100
AcDbEntity
  8
0
100
AcDbLine
 10
867.1716746744
 20
-2.1398824471
 30
0.0
 11
867.8853749835
 21
-2.8403336365
 31
0.0
  0
LINE
  5
6D6
330
1F
100
AcDbEntity
  8
0
100
AcDbLine
 10
867.8853749835
 20
-2.8403336365
 30
0.0
 11
868.9360517677
 21
-1.7697831729
 31
0.0
  0
LINE
  5
6D7
330
1F
100
AcDbEntity
  8
0
100
AcDbLine
 10
868.9360517677
 20
-1.7697831729
 30
0.0
 11
870.0066022313
 21
-2.8204599571
 31
0.0
  0
CIRCLE
  5
6D8
330
1F
100
AcDbEntity
  8
0
100
AcDbCircle
 10
868.9294272078
 20
-1.0627074236
 30
0.0
 40
2.500000000000012
  0
LINE
  5
6D9
330
1F
100
AcDbEntity
  8
0
100
AcDbLine
 10
870.3131501453
 20
0.010963334
 30
0.0
 11
870.6871797413
 21
0.0144675998
 31
0.0
  0
LINE
  5
6DA
330
1F
100
AcDbEntity
  8
0
100
AcDbLine
 10
870.3131501453
 20
0.010963334
 30
0.0
 11
869.9769836981
 21
0.3408891933
 31
0.0
  0
LINE
  5
6DB
330
1F
100
AcDbEntity
  8
0
100
AcDbLine
 10
869.9769836981
 20
0.3408891933
 30
0.0
 11
869.9734794322
 21
0.7149187893
 31
0.0
  0
LINE
  5
6DC
330
1F
100
AcDbEntity
  8
0
100
AcDbLine
 10
869.2624733611
 20
-1.0595871297
 30
0.0
 11
869.6365029571
 21
-1.0560828638
 31
0.0
  0
LINE
  5
6DD
330
1F
100
AcDbEntity
  8
0
100
AcDbLine
 10
869.2624733611
 20
-1.0595871297
 30
0.0
 11
870.3131501453
 21
0.010963334
 31
0.0
  0
LINE
  5
6DE
330
1F
100
AcDbEntity
  8
0
100
AcDbLine
 10
869.9769836981
 20
0.3408891933
 30
0.0
 11
868.9263069139
 21
-0.7296612703
 31
0.0
  0
LINE
  5
6DF
330
1F
100
AcDbEntity
  8
0
100
AcDbLine
 10
868.9263069139
 20
-0.7296612703
 30
0.0
 11
868.922802648
 21
-0.3556316743
 31
0.0
  0
LINE
  5
6E0
330
1F
100
AcDbEntity
  8
0
100
AcDbLine
 10
868.9263069139
 20
-0.7296612703
 30
0.0
 11
867.8557564503
 21
0.3210155138
 31
0.0
  0
LINE
  5
6E1
330
1F
100
AcDbEntity
  8
0
100
AcDbLine
 10
867.8557564503
 20
0.3210155138
 30
0.0
 11
867.8522521844
 21
0.6950451098
 31
0.0
  0
LINE
  5
6E2
330
1F
100
AcDbEntity
  8
0
100
AcDbLine
 10
870.0030979654
 20
-2.446430361
 30
0.0
 11
870.0066022313
 21
-2.8204599571
 31
0.0
  0
LINE
  5
6E3
330
1F
100
AcDbEntity
  8
0
100
AcDbLine
 10
870.0030979654
 20
-2.446430361
 30
0.0
 11
870.3330238247
 21
-2.1102639139
 31
0.0
  0
LINE
  5
6E4
330
1F
100
AcDbEntity
  8
0
100
AcDbLine
 10
870.3330238247
 20
-2.1102639139
 30
0.0
 11
870.7070534207
 21
-2.106759648
 31
0.0
  0
LINE
  5
6E5
330
1F
100
AcDbEntity
  8
0
100
AcDbLine
 10
867.8557564503
 20
0.3210155138
 30
0.0
 11
867.5258305909
 21
-0.0151509333
 31
0.0
  0
LINE
  5
6E6
330
1F
100
AcDbEntity
  8
0
100
AcDbLine
 10
867.5258305909
 20
-0.0151509333
 30
0.0
 11
867.1518009949
 21
-0.0186551992
 31
0.0
  0
LINE
  5
6E7
330
1F
100
AcDbEntity
  8
0
100
AcDbLine
 10
870.3330238247
 20
-2.1102639139
 30
0.0
 11
869.2624733611
 21
-1.0595871297
 31
0.0
  0
LINE
  5
6E8
330
1F
100
AcDbEntity
  8
0
100
AcDbLine
 10
868.5963810546
 20
-1.0658277175
 30
0.0
 11
868.2223514586
 21
-1.0693319834
 31
0.0
  0
LINE
  5
6E9
330
1F
100
AcDbEntity
  8
0
100
AcDbLine
 10
868.5963810546
 20
-1.0658277175
 30
0.0
 11
867.5457042704
 21
-2.1363781812
 31
0.0
  0
LINE
  5
6EA
330
1F
100
AcDbEntity
  8
0
100
AcDbLine
 10
867.5457042704
 20
-2.1363781812
 30
0.0
 11
867.1716746744
 21
-2.1398824471
 31
0.0
  0
LINE
  5
6EB
330
1F
100
AcDbEntity
  8
0
100
AcDbLine
 10
867.8818707176
 20
-2.4663040405
 30
0.0
 11
867.8853749835
 21
-2.8403336365
 31
0.0
  0
LINE
  5
6EC
330
1F
100
AcDbEntity
  8
0
100
AcDbLine
 10
867.8818707176
 20
-2.4663040405
 30
0.0
 11
868.9325475018
 21
-1.3957535769
 31
0.0
  0
LINE
  5
6ED
330
1F
100
AcDbEntity
  8
0
100
AcDbLine
 10
868.9325475018
 20
-1.3957535769
 30
0.0
 11
868.9360517677
 21
-1.7697831729
 31
0.0
  0
LINE
  5
6EE
330
1F
100
AcDbEntity
  8
0
100
AcDbLine
 10
867.5457042704
 20
-2.1363781812
 30
0.0
 11
867.8818707176
 21
-2.4663040405
 31
0.0
  0
LINE
  5
6EF
330
1F
100
AcDbEntity
  8
0
100
AcDbLine
 10
867.5258305909
 20
-0.0151509333
 30
0.0
 11
868.5963810546
 21
-1.0658277175
 31
0.0
  0
CIRCLE
  5
6F0
330
1F
100
AcDbEntity
  8
0
100
AcDbCircle
 10
868.9294272078
 20
-1.0627074236
 30
0.0
 40
4.000000000000096
  0
LINE
  5
6F1
330
1F
100
AcDbEntity
  8
0
100
AcDbLine
 10
868.9325475018
 20
-1.3957535769
 30
0.0
 11
870.0030979654
 21
-2.446430361
 31
0.0
  0
LINE
  5
6F2
330
1F
100
AcDbEntity
  8
0
100
AcDbLine
 10
880.9381007706
 20
157.8811519733
 30
0.0
 11
880.9563688227
 21
158.2547516211
 31
0.0
  0
LINE
  5
6F3
330
1F
100
AcDbEntity
  8
0
100
AcDbLine
 10
880.9381007706
 20
157.8811519733
 30
0.0
 11
880.589171083
 21
157.5647550295
 31
0.0
  0
LINE
  5
6F4
330
1F
100
AcDbEntity
  8
0
100
AcDbLine
 10
880.589171083
 20
157.5647550295
 30
0.0
 11
880.2155714352
 21
157.5830230817
 31
0.0
  0
LINE
  5
6F5
330
1F
100
AcDbEntity
  8
0
100
AcDbLine
 10
880.9563688227
 20
158.2547516211
 30
0.0
 11
880.2155714352
 21
157.5830230817
 31
0.0
  0
LINE
  5
6F6
330
1F
100
AcDbEntity
  8
0
100
AcDbLine
 10
883.7468862525
 20
157.4103509615
 30
0.0
 11
883.0751577131
 21
158.151148349
 31
0.0
  0
LINE
  5
6F7
330
1F
100
AcDbEntity
  8
0
100
AcDbLine
 10
883.0751577131
 20
158.151148349
 30
0.0
 11
881.9639616319
 21
157.1435555399
 31
0.0
  0
LINE
  5
6F8
330
1F
100
AcDbEntity
  8
0
100
AcDbLine
 10
881.9639616319
 20
157.1435555399
 30
0.0
 11
880.9563688227
 21
158.2547516211
 31
0.0
  0
LINE
  5
6F9
330
1F
100
AcDbEntity
  8
0
100
AcDbLine
 10
880.2155714352
 20
157.5830230817
 30
0.0
 11
881.2231642444
 21
156.4718270004
 31
0.0
  0
LINE
  5
6FA
330
1F
100
AcDbEntity
  8
0
100
AcDbLine
 10
881.2231642444
 20
156.4718270004
 30
0.0
 11
880.1119681631
 21
155.4642341913
 31
0.0
  0
LINE
  5
6FB
330
1F
100
AcDbEntity
  8
0
100
AcDbLine
 10
880.1119681631
 20
155.4642341913
 30
0.0
 11
880.7836967025
 21
154.7234368038
 31
0.0
  0
LINE
  5
6FC
330
1F
100
AcDbEntity
  8
0
100
AcDbLine
 10
880.7836967025
 20
154.7234368038
 30
0.0
 11
881.8948927838
 21
155.7310296129
 31
0.0
  0
LINE
  5
6FD
330
1F
100
AcDbEntity
  8
0
100
AcDbLine
 10
881.8948927838
 20
155.7310296129
 30
0.0
 11
882.9024855929
 21
154.6198335317
 31
0.0
  0
LINE
  5
6FE
330
1F
100
AcDbEntity
  8
0
100
AcDbLine
 10
882.9024855929
 20
154.6198335317
 30
0.0
 11
883.6432829804
 21
155.2915620711
 31
0.0
  0
LINE
  5
6FF
330
1F
100
AcDbEntity
  8
0
100
AcDbLine
 10
883.6432829804
 20
155.2915620711
 30
0.0
 11
882.6356901713
 21
156.4027581524
 31
0.0
  0
LINE
  5
700
330
1F
100
AcDbEntity
  8
0
100
AcDbLine
 10
882.6356901713
 20
156.4027581524
 30
0.0
 11
883.7468862525
 21
157.4103509615
 31
0.0
  0
CIRCLE
  5
701
330
1F
100
AcDbEntity
  8
0
100
AcDbCircle
 10
881.9294272078
 20
156.4372925764
 30
0.0
 40
2.50000000000004
  0
LINE
  5
702
330
1F
100
AcDbEntity
  8
0
100
AcDbLine
 10
881.9456935797
 20
156.7699558921
 30
0.0
 11
881.9639616319
 21
157.1435555399
 31
0.0
  0
LINE
  5
703
330
1F
100
AcDbEntity
  8
0
100
AcDbLine
 10
881.9456935797
 20
156.7699558921
 30
0.0
 11
880.9381007706
 21
157.8811519733
 31
0.0
  0
LINE
  5
704
330
1F
100
AcDbEntity
  8
0
100
AcDbLine
 10
880.589171083
 20
157.5647550295
 30
0.0
 11
881.5967638922
 21
156.4535589483
 31
0.0
  0
LINE
  5
705
330
1F
100
AcDbEntity
  8
0
100
AcDbLine
 10
881.5967638922
 20
156.4535589483
 30
0.0
 11
881.2231642444
 21
156.4718270004
 31
0.0
  0
LINE
  5
706
330
1F
100
AcDbEntity
  8
0
100
AcDbLine
 10
881.5967638922
 20
156.4535589483
 30
0.0
 11
880.4855678109
 21
155.4459661391
 31
0.0
  0
LINE
  5
707
330
1F
100
AcDbEntity
  8
0
100
AcDbLine
 10
880.4855678109
 20
155.4459661391
 30
0.0
 11
880.1119681631
 21
155.4642341913
 31
0.0
  0
LINE
  5
708
330
1F
100
AcDbEntity
  8
0
100
AcDbLine
 10
880.4855678109
 20
155.4459661391
 30
0.0
 11
880.8019647547
 21
155.0970364516
 31
0.0
  0
LINE
  5
709
330
1F
100
AcDbEntity
  8
0
100
AcDbLine
 10
880.8019647547
 20
155.0970364516
 30
0.0
 11
880.7836967025
 21
154.7234368038
 31
0.0
  0
LINE
  5
70A
330
1F
100
AcDbEntity
  8
0
100
AcDbLine
 10
883.0568896609
 20
157.7775487012
 30
0.0
 11
883.0751577131
 21
158.151148349
 31
0.0
  0
LINE
  5
70B
330
1F
100
AcDbEntity
  8
0
100
AcDbLine
 10
883.0568896609
 20
157.7775487012
 30
0.0
 11
881.9456935797
 21
156.7699558921
 31
0.0
  0
LINE
  5
70C
330
1F
100
AcDbEntity
  8
0
100
AcDbLine
 10
883.3732866047
 20
157.4286190137
 30
0.0
 11
883.7468862525
 21
157.4103509615
 31
0.0
  0
LINE
  5
70D
330
1F
100
AcDbEntity
  8
0
100
AcDbLine
 10
883.3732866047
 20
157.4286190137
 30
0.0
 11
883.0568896609
 21
157.7775487012
 31
0.0
  0
LINE
  5
70E
330
1F
100
AcDbEntity
  8
0
100
AcDbLine
 10
883.2696833326
 20
155.3098301233
 30
0.0
 11
883.6432829804
 21
155.2915620711
 31
0.0
  0
LINE
  5
70F
330
1F
100
AcDbEntity
  8
0
100
AcDbLine
 10
883.2696833326
 20
155.3098301233
 30
0.0
 11
882.2620905235
 21
156.4210262045
 31
0.0
  0
LINE
  5
710
330
1F
100
AcDbEntity
  8
0
100
AcDbLine
 10
882.2620905235
 20
156.4210262045
 30
0.0
 11
882.6356901713
 21
156.4027581524
 31
0.0
  0
LINE
  5
711
330
1F
100
AcDbEntity
  8
0
100
AcDbLine
 10
880.8019647547
 20
155.0970364516
 30
0.0
 11
881.913160836
 21
156.1046292607
 31
0.0
  0
LINE
  5
712
330
1F
100
AcDbEntity
  8
0
100
AcDbLine
 10
881.913160836
 20
156.1046292607
 30
0.0
 11
881.8948927838
 21
155.7310296129
 31
0.0
  0
LINE
  5
713
330
1F
100
AcDbEntity
  8
0
100
AcDbLine
 10
881.913160836
 20
156.1046292607
 30
0.0
 11
882.9207536451
 21
154.9934331795
 31
0.0
  0
LINE
  5
714
330
1F
100
AcDbEntity
  8
0
100
AcDbLine
 10
882.9207536451
 20
154.9934331795
 30
0.0
 11
882.9024855929
 21
154.6198335317
 31
0.0
  0
LINE
  5
715
330
1F
100
AcDbEntity
  8
0
100
AcDbLine
 10
882.9207536451
 20
154.9934331795
 30
0.0
 11
883.2696833326
 21
155.3098301233
 31
0.0
  0
CIRCLE
  5
716
330
1F
100
AcDbEntity
  8
0
100
AcDbCircle
 10
881.9294272078
 20
156.4372925764
 30
0.0
 40
4.000000000000055
  0
LINE
  5
717
330
1F
100
AcDbEntity
  8
0
100
AcDbLine
 10
882.2620905235
 20
156.4210262045
 30
0.0
 11
883.3732866047
 21
157.4286190137
 31
0.0
  0
LINE
  5
718
330
1F
100
AcDbEntity
  8
0
100
AcDbLine
 10
638.6939176789
 20
313.7017830474
 30
0.0
 11
638.4294272078
 21
313.4372925764
 31
0.0
  0
LINE
  5
719
330
1F
100
AcDbEntity
  8
0
100
AcDbLine
 10
638.6939176789
 20
313.7017830474
 30
0.0
 11
638.6939176789
 21
312.2017830474
 31
0.0
  0
LINE
  5
71A
330
1F
100
AcDbEntity
  8
0
100
AcDbLine
 10
638.6939176789
 20
312.2017830474
 30
0.0
 11
638.4294272078
 21
311.9372925764
 31
0.0
  0
LINE
  5
71B
330
1F
100
AcDbEntity
  8
0
100
AcDbLine
 10
638.4294272078
 20
313.4372925764
 30
0.0
 11
638.4294272078
 21
311.9372925764
 31
0.0
  0
LINE
  5
71C
330
1F
100
AcDbEntity
  8
0
100
AcDbLine
 10
636.9294272078
 20
314.4372925764
 30
0.0
 11
636.9294272078
 21
313.4372925764
 31
0.0
  0
LINE
  5
71D
330
1F
100
AcDbEntity
  8
0
100
AcDbLine
 10
636.9294272078
 20
313.4372925764
 30
0.0
 11
638.4294272078
 21
313.4372925764
 31
0.0
  0
LINE
  5
71E
330
1F
100
AcDbEntity
  8
0
100
AcDbLine
 10
638.4294272078
 20
311.9372925764
 30
0.0
 11
639.4294272078
 21
311.9372925764
 31
0.0
  0
LINE
  5
71F
330
1F
100
AcDbEntity
  8
0
100
AcDbLine
 10
639.4294272078
 20
311.9372925764
 30
0.0
 11
639.4294272078
 21
313.4372925764
 31
0.0
  0
LINE
  5
720
330
1F
100
AcDbEntity
  8
0
100
AcDbLine
 10
639.4294272078
 20
313.4372925764
 30
0.0
 11
640.9294272078
 21
313.4372925764
 31
0.0
  0
LINE
  5
721
330
1F
100
AcDbEntity
  8
0
100
AcDbLine
 10
640.9294272078
 20
313.4372925764
 30
0.0
 11
640.9294272078
 21
314.4372925764
 31
0.0
  0
LINE
  5
722
330
1F
100
AcDbEntity
  8
0
100
AcDbLine
 10
640.9294272078
 20
314.4372925764
 30
0.0
 11
639.4294272078
 21
314.4372925764
 31
0.0
  0
LINE
  5
723
330
1F
100
AcDbEntity
  8
0
100
AcDbLine
 10
639.4294272078
 20
314.4372925764
 30
0.0
 11
639.4294272078
 21
315.9372925764
 31
0.0
  0
LINE
  5
724
330
1F
100
AcDbEntity
  8
0
100
AcDbLine
 10
639.4294272078
 20
315.9372925764
 30
0.0
 11
638.4294272078
 21
315.9372925764
 31
0.0
  0
LINE
  5
725
330
1F
100
AcDbEntity
  8
0
100
AcDbLine
 10
638.4294272078
 20
315.9372925764
 30
0.0
 11
638.4294272078
 21
314.4372925764
 31
0.0
  0
LINE
  5
726
330
1F
100
AcDbEntity
  8
0
100
AcDbLine
 10
638.4294272078
 20
314.4372925764
 30
0.0
 11
636.9294272078
 21
314.4372925764
 31
0.0
  0
CIRCLE
  5
727
330
1F
100
AcDbEntity
  8
0
100
AcDbCircle
 10
638.9294272078
 20
313.9372925764
 30
0.0
 40
2.500000000000114
  0
LINE
  5
728
330
1F
100
AcDbEntity
  8
0
100
AcDbLine
 10
638.6939176789
 20
312.2017830474
 30
0.0
 11
639.1649367368
 21
312.2017830474
 31
0.0
  0
LINE
  5
729
330
1F
100
AcDbEntity
  8
0
100
AcDbLine
 10
639.1649367368
 20
312.2017830474
 30
0.0
 11
639.4294272078
 21
311.9372925764
 31
0.0
  0
LINE
  5
72A
330
1F
100
AcDbEntity
  8
0
100
AcDbLine
 10
637.1939176789
 20
313.7017830474
 30
0.0
 11
636.9294272078
 21
313.4372925764
 31
0.0
  0
LINE
  5
72B
330
1F
100
AcDbEntity
  8
0
100
AcDbLine
 10
637.1939176789
 20
313.7017830474
 30
0.0
 11
638.6939176789
 21
313.7017830474
 31
0.0
  0
LINE
  5
72C
330
1F
100
AcDbEntity
  8
0
100
AcDbLine
 10
637.1939176789
 20
314.1728021053
 30
0.0
 11
636.9294272078
 21
314.4372925764
 31
0.0
  0
LINE
  5
72D
330
1F
100
AcDbEntity
  8
0
100
AcDbLine
 10
637.1939176789
 20
314.1728021053
 30
0.0
 11
637.1939176789
 21
313.7017830474
 31
0.0
  0
LINE
  5
72E
330
1F
100
AcDbEntity
  8
0
100
AcDbLine
 10
640.6649367368
 20
313.7017830474
 30
0.0
 11
640.9294272078
 21
313.4372925764
 31
0.0
  0
LINE
  5
72F
330
1F
100
AcDbEntity
  8
0
100
AcDbLine
 10
640.6649367368
 20
313.7017830474
 30
0.0
 11
640.6649367368
 21
314.1728021053
 31
0.0
  0
LINE
  5
730
330
1F
100
AcDbEntity
  8
0
100
AcDbLine
 10
640.6649367368
 20
314.1728021053
 30
0.0
 11
640.9294272078
 21
314.4372925764
 31
0.0
  0
LINE
  5
731
330
1F
100
AcDbEntity
  8
0
100
AcDbLine
 10
639.1649367368
 20
312.2017830474
 30
0.0
 11
639.1649367368
 21
313.7017830474
 31
0.0
  0
LINE
  5
732
330
1F
100
AcDbEntity
  8
0
100
AcDbLine
 10
639.1649367368
 20
313.7017830474
 30
0.0
 11
639.4294272078
 21
313.4372925764
 31
0.0
  0
LINE
  5
733
330
1F
100
AcDbEntity
  8
0
100
AcDbLine
 10
639.1649367368
 20
313.7017830474
 30
0.0
 11
640.6649367368
 21
313.7017830474
 31
0.0
  0
LINE
  5
734
330
1F
100
AcDbEntity
  8
0
100
AcDbLine
 10
638.6939176789
 20
315.6728021053
 30
0.0
 11
638.4294272078
 21
315.9372925764
 31
0.0
  0
LINE
  5
735
330
1F
100
AcDbEntity
  8
0
100
AcDbLine
 10
638.6939176789
 20
315.6728021053
 30
0.0
 11
638.6939176789
 21
314.1728021053
 31
0.0
  0
LINE
  5
736
330
1F
100
AcDbEntity
  8
0
100
AcDbLine
 10
638.6939176789
 20
314.1728021053
 30
0.0
 11
638.4294272078
 21
314.4372925764
 31
0.0
  0
LINE
  5
737
330
1F
100
AcDbEntity
  8
0
100
AcDbLine
 10
639.1649367368
 20
315.6728021053
 30
0.0
 11
639.4294272078
 21
315.9372925764
 31
0.0
  0
LINE
  5
738
330
1F
100
AcDbEntity
  8
0
100
AcDbLine
 10
639.1649367368
 20
315.6728021053
 30
0.0
 11
638.6939176789
 21
315.6728021053
 31
0.0
  0
LINE
  5
739
330
1F
100
AcDbEntity
  8
0
100
AcDbLine
 10
640.6649367368
 20
314.1728021053
 30
0.0
 11
639.1649367368
 21
314.1728021053
 31
0.0
  0
LINE
  5
73A
330
1F
100
AcDbEntity
  8
0
100
AcDbLine
 10
639.1649367368
 20
314.1728021053
 30
0.0
 11
639.4294272078
 21
314.4372925764
 31
0.0
  0
LINE
  5
73B
330
1F
100
AcDbEntity
  8
0
100
AcDbLine
 10
639.1649367368
 20
314.1728021053
 30
0.0
 11
639.1649367368
 21
315.6728021053
 31
0.0
  0
CIRCLE
  5
73C
330
1F
100
AcDbEntity
  8
0
100
AcDbCircle
 10
638.9294272078
 20
313.9372925764
 30
0.0
 40
4.0
  0
LINE
  5
73D
330
1F
100
AcDbEntity
  8
0
100
AcDbLine
 10
638.6939176789
 20
314.1728021053
 30
0.0
 11
637.1939176789
 21
314.1728021053
 31
0.0
  0
LINE
  5
73E
330
1F
100
AcDbEntity
  8
0
100
AcDbLine
 10
640.8120069731
 20
-1.9028820647
 30
0.0
 11
640.9859033024
 21
-0.9181180997
 31
0.0
  0
LINE
  5
73F
330
1F
100
AcDbEntity
  8
0
100
AcDbLine
 10
640.9859033024
 20
-0.9181180997
 30
0.0
 11
639.508757355
 21
-0.6572736058
 31
0.0
  0
LINE
  5
740
330
1F
100
AcDbEntity
  8
0
100
AcDbLine
 10
639.508757355
 20
-0.6572736058
 30
0.0
 11
639.7696018489
 21
0.8198723416
 31
0.0
  0
LINE
  5
741
330
1F
100
AcDbEntity
  8
0
100
AcDbLine
 10
639.7696018489
 20
0.8198723416
 30
0.0
 11
638.784837884
 21
0.9937686709
 31
0.0
  0
LINE
  5
742
330
1F
100
AcDbEntity
  8
0
100
AcDbLine
 10
638.784837884
 20
0.9937686709
 30
0.0
 11
638.52399339
 21
-0.4833772765
 31
0.0
  0
LINE
  5
743
330
1F
100
AcDbEntity
  8
0
100
AcDbLine
 10
638.52399339
 20
-0.4833772765
 30
0.0
 11
637.0468474426
 21
-0.2225327825
 31
0.0
  0
LINE
  5
744
330
1F
100
AcDbEntity
  8
0
100
AcDbLine
 10
637.0468474426
 20
-0.2225327825
 30
0.0
 11
636.8729511133
 21
-1.2072967475
 31
0.0
  0
LINE
  5
745
330
1F
100
AcDbEntity
  8
0
100
AcDbLine
 10
636.8729511133
 20
-1.2072967475
 30
0.0
 11
638.3500970607
 21
-1.4681412414
 31
0.0
  0
LINE
  5
746
330
1F
100
AcDbEntity
  8
0
100
AcDbLine
 10
638.3500970607
 20
-1.4681412414
 30
0.0
 11
638.0892525668
 21
-2.9452871889
 31
0.0
  0
LINE
  5
747
330
1F
100
AcDbEntity
  8
0
100
AcDbLine
 10
638.0892525668
 20
-2.9452871889
 30
0.0
 11
639.0740165317
 21
-3.1191835182
 31
0.0
  0
LINE
  5
748
330
1F
100
AcDbEntity
  8
0
100
AcDbLine
 10
639.0740165317
 20
-3.1191835182
 30
0.0
 11
639.3348610257
 21
-1.6420375707
 31
0.0
  0
LINE
  5
749
330
1F
100
AcDbEntity
  8
0
100
AcDbLine
 10
639.3348610257
 20
-1.6420375707
 30
0.0
 11
640.8120069731
 21
-1.9028820647
 31
0.0
  0
CIRCLE
  5
74A
330
1F
100
AcDbEntity
  8
0
100
AcDbCircle
 10
638.9294272078
 20
-1.0627074236
 30
0.0
 40
2.499999999999979
  0
LINE
  5
74B
330
1F
100
AcDbEntity
  8
0
100
AcDbLine
 10
639.2023027479
 20
-0.8717403687
 30
0.0
 11
639.508757355
 21
-0.6572736058
 31
0.0
  0
LINE
  5
74C
330
1F
100
AcDbEntity
  8
0
100
AcDbLine
 10
639.2023027479
 20
-0.8717403687
 30
0.0
 11
639.4631472419
 21
0.6054055787
 31
0.0
  0
LINE
  5
74D
330
1F
100
AcDbEntity
  8
0
100
AcDbLine
 10
639.4631472419
 20
0.6054055787
 30
0.0
 11
639.7696018489
 21
0.8198723416
 31
0.0
  0
LINE
  5
74E
330
1F
100
AcDbEntity
  8
0
100
AcDbLine
 10
639.4631472419
 20
0.6054055787
 30
0.0
 11
638.9993046469
 21
0.6873140639
 31
0.0
  0
LINE
  5
74F
330
1F
100
AcDbEntity
  8
0
100
AcDbLine
 10
638.9993046469
 20
0.6873140639
 30
0.0
 11
638.784837884
 21
0.9937686709
 31
0.0
  0
LINE
  5
750
330
1F
100
AcDbEntity
  8
0
100
AcDbLine
 10
638.7384601529
 20
-0.7898318835
 30
0.0
 11
638.52399339
 21
-0.4833772765
 31
0.0
  0
LINE
  5
751
330
1F
100
AcDbEntity
  8
0
100
AcDbLine
 10
638.7384601529
 20
-0.7898318835
 30
0.0
 11
637.2613142055
 21
-0.5289873896
 31
0.0
  0
LINE
  5
752
330
1F
100
AcDbEntity
  8
0
100
AcDbLine
 10
637.2613142055
 20
-0.5289873896
 30
0.0
 11
637.0468474426
 21
-0.2225327825
 31
0.0
  0
LINE
  5
753
330
1F
100
AcDbEntity
  8
0
100
AcDbLine
 10
638.9993046469
 20
0.6873140639
 30
0.0
 11
638.7384601529
 21
-0.7898318835
 31
0.0
  0
LINE
  5
754
330
1F
100
AcDbEntity
  8
0
100
AcDbLine
 10
640.5975402102
 20
-1.5964274577
 30
0.0
 11
640.8120069731
 21
-1.9028820647
 31
0.0
  0
LINE
  5
755
330
1F
100
AcDbEntity
  8
0
100
AcDbLine
 10
640.5975402102
 20
-1.5964274577
 30
0.0
 11
640.6794486954
 21
-1.1325848627
 31
0.0
  0
LINE
  5
756
330
1F
100
AcDbEntity
  8
0
100
AcDbLine
 10
640.6794486954
 20
-1.1325848627
 30
0.0
 11
640.9859033024
 21
-0.9181180997
 31
0.0
  0
LINE
  5
757
330
1F
100
AcDbEntity
  8
0
100
AcDbLine
 10
640.6794486954
 20
-1.1325848627
 30
0.0
 11
639.2023027479
 21
-0.8717403687
 31
0.0
  0
LINE
  5
758
330
1F
100
AcDbEntity
  8
0
100
AcDbLine
 10
637.2613142055
 20
-0.5289873896
 30
0.0
 11
637.1794057203
 21
-0.9928299846
 31
0.0
  0
LINE
  5
759
330
1F
100
AcDbEntity
  8
0
100
AcDbLine
 10
637.1794057203
 20
-0.9928299846
 30
0.0
 11
636.8729511133
 21
-1.2072967475
 31
0.0
  0
LINE
  5
75A
330
1F
100
AcDbEntity
  8
0
100
AcDbLine
 10
638.6565516677
 20
-1.2536744785
 30
0.0
 11
638.3500970607
 21
-1.4681412414
 31
0.0
  0
LINE
  5
75B
330
1F
100
AcDbEntity
  8
0
100
AcDbLine
 10
638.6565516677
 20
-1.2536744785
 30
0.0
 11
638.3957071738
 21
-2.7308204259
 31
0.0
  0
LINE
  5
75C
330
1F
100
AcDbEntity
  8
0
100
AcDbLine
 10
638.3957071738
 20
-2.7308204259
 30
0.0
 11
638.0892525668
 21
-2.9452871889
 31
0.0
  0
LINE
  5
75D
330
1F
100
AcDbEntity
  8
0
100
AcDbLine
 10
638.3957071738
 20
-2.7308204259
 30
0.0
 11
638.8595497688
 21
-2.8127289111
 31
0.0
  0
LINE
  5
75E
330
1F
100
AcDbEntity
  8
0
100
AcDbLine
 10
638.8595497688
 20
-2.8127289111
 30
0.0
 11
639.0740165317
 21
-3.1191835182
 31
0.0
  0
LINE
  5
75F
330
1F
100
AcDbEntity
  8
0
100
AcDbLine
 10
637.1794057203
 20
-0.9928299846
 30
0.0
 11
638.6565516677
 21
-1.2536744785
 31
0.0
  0
LINE
  5
760
330
1F
100
AcDbEntity
  8
0
100
AcDbLine
 10
638.8595497688
 20
-2.8127289111
 30
0.0
 11
639.1203942627
 21
-1.3355829637
 31
0.0
  0
LINE
  5
761
330
1F
100
AcDbEntity
  8
0
100
AcDbLine
 10
639.1203942627
 20
-1.3355829637
 30
0.0
 11
639.3348610257
 21
-1.6420375707
 31
0.0
  0
CIRCLE
  5
762
330
1F
100
AcDbEntity
  8
0
100
AcDbCircle
 10
638.9294272078
 20
-1.0627074236
 30
0.0
 40
3.999999999999893
  0
LINE
  5
763
330
1F
100
AcDbEntity
  8
0
100
AcDbLine
 10
639.1203942627
 20
-1.3355829637
 30
0.0
 11
640.5975402102
 21
-1.5964274577
 31
0.0
  0
LINE
  5
764
330
1F
100
AcDbEntity
  8
0
100
AcDbLine
 10
624.098682499
 20
157.3851184101
 30
0.0
 11
623.868028543
 21
156.4120825667
 31
0.0
  0
LINE
  5
765
330
1F
100
AcDbEntity
  8
0
100
AcDbLine
 10
623.868028543
 20
156.4120825667
 30
0.0
 11
625.3275823081
 21
156.0661016327
 31
0.0
  0
LINE
  5
766
330
1F
100
AcDbEntity
  8
0
100
AcDbLine
 10
625.3275823081
 20
156.0661016327
 30
0.0
 11
624.9816013741
 21
154.6065478675
 31
0.0
  0
LINE
  5
767
330
1F
100
AcDbEntity
  8
0
100
AcDbLine
 10
624.9816013741
 20
154.6065478675
 30
0.0
 11
625.9546372175
 21
154.3758939115
 31
0.0
  0
LINE
  5
768
330
1F
100
AcDbEntity
  8
0
100
AcDbLine
 10
625.9546372175
 20
154.3758939115
 30
0.0
 11
626.3006181515
 21
155.8354476767
 31
0.0
  0
LINE
  5
769
330
1F
100
AcDbEntity
  8
0
100
AcDbLine
 10
626.3006181515
 20
155.8354476767
 30
0.0
 11
627.7601719167
 21
155.4894667427
 31
0.0
  0
LINE
  5
76A
330
1F
100
AcDbEntity
  8
0
100
AcDbLine
 10
627.7601719167
 20
155.4894667427
 30
0.0
 11
627.9908258727
 21
156.4625025861
 31
0.0
  0
LINE
  5
76B
330
1F
100
AcDbEntity
  8
0
100
AcDbLine
 10
627.9908258727
 20
156.4625025861
 30
0.0
 11
626.5312721075
 21
156.8084835201
 31
0.0
  0
LINE
  5
76C
330
1F
100
AcDbEntity
  8
0
100
AcDbLine
 10
626.5312721075
 20
156.8084835201
 30
0.0
 11
626.8772530415
 21
158.2680372852
 31
0.0
  0
LINE
  5
76D
330
1F
100
AcDbEntity
  8
0
100
AcDbLine
 10
626.8772530415
 20
158.2680372852
 30
0.0
 11
625.9042171981
 21
158.4986912412
 31
0.0
  0
LINE
  5
76E
330
1F
100
AcDbEntity
  8
0
100
AcDbLine
 10
625.9042171981
 20
158.4986912412
 30
0.0
 11
625.5582362641
 21
157.0391374761
 31
0.0
  0
LINE
  5
76F
330
1F
100
AcDbEntity
  8
0
100
AcDbLine
 10
625.5582362641
 20
157.0391374761
 30
0.0
 11
624.098682499
 21
157.3851184101
 31
0.0
  0
CIRCLE
  5
770
330
1F
100
AcDbEntity
  8
0
100
AcDbCircle
 10
625.9294272078
 20
156.4372925764
 30
0.0
 40
2.500000000000016
  0
LINE
  5
771
330
1F
100
AcDbEntity
  8
0
100
AcDbLine
 10
625.6459467902
 20
156.2624545678
 30
0.0
 11
625.3275823081
 21
156.0661016327
 31
0.0
  0
LINE
  5
772
330
1F
100
AcDbEntity
  8
0
100
AcDbLine
 10
625.6459467902
 20
156.2624545678
 30
0.0
 11
625.2999658562
 21
154.8029008027
 31
0.0
  0
LINE
  5
773
330
1F
100
AcDbEntity
  8
0
100
AcDbLine
 10
625.2999658562
 20
154.8029008027
 30
0.0
 11
624.9816013741
 21
154.6065478675
 31
0.0
  0
LINE
  5
774
330
1F
100
AcDbEntity
  8
0
100
AcDbLine
 10
625.2999658562
 20
154.8029008027
 30
0.0
 11
625.7582842824
 21
154.6942583936
 31
0.0
  0
LINE
  5
775
330
1F
100
AcDbEntity
  8
0
100
AcDbLine
 10
625.7582842824
 20
154.6942583936
 30
0.0
 11
625.9546372175
 21
154.3758939115
 31
0.0
  0
LINE
  5
776
330
1F
100
AcDbEntity
  8
0
100
AcDbLine
 10
624.2950354341
 20
157.066753928
 30
0.0
 11
624.098682499
 21
157.3851184101
 31
0.0
  0
LINE
  5
777
330
1F
100
AcDbEntity
  8
0
100
AcDbLine
 10
624.2950354341
 20
157.066753928
 30
0.0
 11
624.186393025
 21
156.6084355018
 31
0.0
  0
LINE
  5
778
330
1F
100
AcDbEntity
  8
0
100
AcDbLine
 10
624.186393025
 20
156.6084355018
 30
0.0
 11
623.868028543
 21
156.4120825667
 31
0.0
  0
LINE
  5
779
330
1F
100
AcDbEntity
  8
0
100
AcDbLine
 10
624.186393025
 20
156.6084355018
 30
0.0
 11
625.6459467902
 21
156.2624545678
 31
0.0
  0
LINE
  5
77A
330
1F
100
AcDbEntity
  8
0
100
AcDbLine
 10
625.7582842824
 20
154.6942583936
 30
0.0
 11
626.1042652164
 21
156.1538121587
 31
0.0
  0
LINE
  5
77B
330
1F
100
AcDbEntity
  8
0
100
AcDbLine
 10
626.1042652164
 20
156.1538121587
 30
0.0
 11
626.3006181515
 21
155.8354476767
 31
0.0
  0
LINE
  5
77C
330
1F
100
AcDbEntity
  8
0
100
AcDbLine
 10
627.5638189816
 20
155.8078312247
 30
0.0
 11
627.7601719167
 21
155.4894667427
 31
0.0
  0
LINE
  5
77D
330
1F
100
AcDbEntity
  8
0
100
AcDbLine
 10
627.5638189816
 20
155.8078312247
 30
0.0
 11
627.6724613906
 21
156.266149651
 31
0.0
  0
LINE
  5
77E
330
1F
100
AcDbEntity
  8
0
100
AcDbLine
 10
627.6724613906
 20
156.266149651
 30
0.0
 11
627.9908258727
 21
156.4625025861
 31
0.0
  0
LINE
  5
77F
330
1F
100
AcDbEntity
  8
0
100
AcDbLine
 10
626.1042652164
 20
156.1538121587
 30
0.0
 11
627.5638189816
 21
155.8078312247
 31
0.0
  0
LINE
  5
780
330
1F
100
AcDbEntity
  8
0
100
AcDbLine
 10
626.5588885595
 20
158.0716843501
 30
0.0
 11
626.8772530415
 21
158.2680372852
 31
0.0
  0
LINE
  5
781
330
1F
100
AcDbEntity
  8
0
100
AcDbLine
 10
626.5588885595
 20
158.0716843501
 30
0.0
 11
626.1005701332
 21
158.1803267592
 31
0.0
  0
LINE
  5
782
330
1F
100
AcDbEntity
  8
0
100
AcDbLine
 10
626.1005701332
 20
158.1803267592
 30
0.0
 11
625.9042171981
 21
158.4986912412
 31
0.0
  0
LINE
  5
783
330
1F
100
AcDbEntity
  8
0
100
AcDbLine
 10
626.1005701332
 20
158.1803267592
 30
0.0
 11
625.7545891992
 21
156.720772994
 31
0.0
  0
LINE
  5
784
330
1F
100
AcDbEntity
  8
0
100
AcDbLine
 10
625.7545891992
 20
156.720772994
 30
0.0
 11
625.5582362641
 21
157.0391374761
 31
0.0
  0
LINE
  5
785
330
1F
100
AcDbEntity
  8
0
100
AcDbLine
 10
627.6724613906
 20
156.266149651
 30
0.0
 11
626.2129076255
 21
156.612130585
 31
0.0
  0
LINE
  5
786
330
1F
100
AcDbEntity
  8
0
100
AcDbLine
 10
626.2129076255
 20
156.612130585
 30
0.0
 11
626.5312721075
 21
156.8084835201
 31
0.0
  0
LINE
  5
787
330
1F
100
AcDbEntity
  8
0
100
AcDbLine
 10
626.2129076255
 20
156.612130585
 30
0.0
 11
626.5588885595
 21
158.0716843501
 31
0.0
  0
CIRCLE
  5
788
330
1F
100
AcDbEntity
  8
0
100
AcDbCircle
 10
625.9294272078
 20
156.4372925764
 30
0.0
 40
4.00000000000002
  0
LINE
  5
789
330
1F
100
AcDbEntity
  8
0
100
AcDbLine
 10
625.7545891992
 20
156.720772994
 30
0.0
 11
624.2950354341
 21
157.066753928
 31
0.0
  0
LINE
  5
78A
330
1F
100
AcDbEntity
  8
0
100
AcDbLine
 10
866.9294272078
 20
314.4372925764
 30
0.0
 11
866.9294272078
 21
313.4372925764
 31
0.0
  0
LINE
  5
78B
330
1F
100
AcDbEntity
  8
0
100
AcDbLine
 10
866.9294272078
 20
313.4372925764
 30
0.0
 11
868.4294272078
 21
313.4372925764
 31
0.0
  0
LINE
  5
78C
330
1F
100
AcDbEntity
  8
0
100
AcDbLine
 10
868.4294272078
 20
313.4372925764
 30
0.0
 11
868.4294272078
 21
311.9372925764
 31
0.0
  0
LINE
  5
78D
330
1F
100
AcDbEntity
  8
0
100
AcDbLine
 10
868.4294272078
 20
311.9372925764
 30
0.0
 11
869.4294272078
 21
311.9372925764
 31
0.0
  0
LINE
  5
78E
330
1F
100
AcDbEntity
  8
0
100
AcDbLine
 10
869.4294272078
 20
311.9372925764
 30
0.0
 11
869.4294272078
 21
313.4372925764
 31
0.0
  0
LINE
  5
78F
330
1F
100
AcDbEntity
  8
0
100
AcDbLine
 10
869.4294272078
 20
313.4372925764
 30
0.0
 11
870.9294272078
 21
313.4372925764
 31
0.0
  0
LINE
  5
790
330
1F
100
AcDbEntity
  8
0
100
AcDbLine
 10
870.9294272078
 20
313.4372925764
 30
0.0
 11
870.9294272078
 21
314.4372925764
 31
0.0
  0
LINE
  5
791
330
1F
100
AcDbEntity
  8
0
100
AcDbLine
 10
870.9294272078
 20
314.4372925764
 30
0.0
 11
869.4294272078
 21
314.4372925764
 31
0.0
  0
LINE
  5
792
330
1F
100
AcDbEntity
  8
0
100
AcDbLine
 10
869.4294272078
 20
314.4372925764
 30
0.0
 11
869.4294272078
 21
315.9372925764
 31
0.0
  0
LINE
  5
793
330
1F
100
AcDbEntity
  8
0
100
AcDbLine
 10
869.4294272078
 20
315.9372925764
 30
0.0
 11
868.4294272078
 21
315.9372925764
 31
0.0
  0
LINE
  5
794
330
1F
100
AcDbEntity
  8
0
100
AcDbLine
 10
868.4294272078
 20
315.9372925764
 30
0.0
 11
868.4294272078
 21
314.4372925764
 31
0.0
  0
LINE
  5
795
330
1F
100
AcDbEntity
  8
0
100
AcDbLine
 10
868.4294272078
 20
314.4372925764
 30
0.0
 11
866.9294272078
 21
314.4372925764
 31
0.0
  0
CIRCLE
  5
796
330
1F
100
AcDbEntity
  8
0
100
AcDbCircle
 10
868.9294272078
 20
313.9372925764
 30
0.0
 40
2.5
  0
LINE
  5
797
330
1F
100
AcDbEntity
  8
0
100
AcDbLine
 10
868.6939176789
 20
313.7017830475
 30
0.0
 11
868.4294272078
 21
313.4372925764
 31
0.0
  0
LINE
  5
798
330
1F
100
AcDbEntity
  8
0
100
AcDbLine
 10
868.6939176789
 20
313.7017830475
 30
0.0
 11
868.6939176789
 21
312.2017830475
 31
0.0
  0
LINE
  5
799
330
1F
100
AcDbEntity
  8
0
100
AcDbLine
 10
868.6939176789
 20
312.2017830475
 30
0.0
 11
868.4294272078
 21
311.9372925764
 31
0.0
  0
LINE
  5
79A
330
1F
100
AcDbEntity
  8
0
100
AcDbLine
 10
868.6939176789
 20
312.2017830475
 30
0.0
 11
869.1649367368
 21
312.2017830475
 31
0.0
  0
LINE
  5
79B
330
1F
100
AcDbEntity
  8
0
100
AcDbLine
 10
869.1649367368
 20
312.2017830475
 30
0.0
 11
869.4294272078
 21
311.9372925764
 31
0.0
  0
LINE
  5
79C
330
1F
100
AcDbEntity
  8
0
100
AcDbLine
 10
867.1939176789
 20
314.1728021053
 30
0.0
 11
866.9294272078
 21
314.4372925764
 31
0.0
  0
LINE
  5
79D
330
1F
100
AcDbEntity
  8
0
100
AcDbLine
 10
867.1939176789
 20
314.1728021053
 30
0.0
 11
867.1939176789
 21
313.7017830475
 31
0.0
  0
LINE
  5
79E
330
1F
100
AcDbEntity
  8
0
100
AcDbLine
 10
867.1939176789
 20
313.7017830475
 30
0.0
 11
866.9294272078
 21
313.4372925764
 31
0.0
  0
LINE
  5
79F
330
1F
100
AcDbEntity
  8
0
100
AcDbLine
 10
869.1649367368
 20
312.2017830475
 30
0.0
 11
869.1649367368
 21
313.7017830475
 31
0.0
  0
LINE
  5
7A0
330
1F
100
AcDbEntity
  8
0
100
AcDbLine
 10
869.1649367368
 20
313.7017830475
 30
0.0
 11
869.4294272078
 21
313.4372925764
 31
0.0
  0
LINE
  5
7A1
330
1F
100
AcDbEntity
  8
0
100
AcDbLine
 10
869.1649367368
 20
313.7017830475
 30
0.0
 11
870.6649367368
 21
313.7017830475
 31
0.0
  0
LINE
  5
7A2
330
1F
100
AcDbEntity
  8
0
100
AcDbLine
 10
870.6649367368
 20
313.7017830475
 30
0.0
 11
870.9294272078
 21
313.4372925764
 31
0.0
  0
LINE
  5
7A3
330
1F
100
AcDbEntity
  8
0
100
AcDbLine
 10
867.1939176789
 20
313.7017830475
 30
0.0
 11
868.6939176789
 21
313.7017830475
 31
0.0
  0
LINE
  5
7A4
330
1F
100
AcDbEntity
  8
0
100
AcDbLine
 10
870.6649367368
 20
313.7017830475
 30
0.0
 11
870.6649367368
 21
314.1728021053
 31
0.0
  0
LINE
  5
7A5
330
1F
100
AcDbEntity
  8
0
100
AcDbLine
 10
870.6649367368
 20
314.1728021053
 30
0.0
 11
870.9294272078
 21
314.4372925764
 31
0.0
  0
LINE
  5
7A6
330
1F
100
AcDbEntity
  8
0
100
AcDbLine
 10
870.6649367368
 20
314.1728021053
 30
0.0
 11
869.1649367368
 21
314.1728021053
 31
0.0
  0
LINE
  5
7A7
330
1F
100
AcDbEntity
  8
0
100
AcDbLine
 10
869.1649367368
 20
314.1728021053
 30
0.0
 11
869.4294272078
 21
314.4372925764
 31
0.0
  0
LINE
  5
7A8
330
1F
100
AcDbEntity
  8
0
100
AcDbLine
 10
869.1649367368
 20
314.1728021053
 30
0.0
 11
869.1649367368
 21
315.6728021053
 31
0.0
  0
LINE
  5
7A9
330
1F
100
AcDbEntity
  8
0
100
AcDbLine
 10
869.1649367368
 20
315.6728021053
 30
0.0
 11
869.4294272078
 21
315.9372925764
 31
0.0
  0
LINE
  5
7AA
330
1F
100
AcDbEntity
  8
0
100
AcDbLine
 10
868.6939176789
 20
315.6728021053
 30
0.0
 11
868.4294272078
 21
315.9372925764
 31
0.0
  0
LINE
  5
7AB
330
1F
100
AcDbEntity
  8
0
100
AcDbLine
 10
868.6939176789
 20
315.6728021053
 30
0.0
 11
868.6939176789
 21
314.1728021053
 31
0.0
  0
LINE
  5
7AC
330
1F
100
AcDbEntity
  8
0
100
AcDbLine
 10
868.6939176789
 20
314.1728021053
 30
0.0
 11
868.4294272078
 21
314.4372925764
 31
0.0
  0
LINE
  5
7AD
330
1F
100
AcDbEntity
  8
0
100
AcDbLine
 10
869.1649367368
 20
315.6728021053
 30
0.0
 11
868.6939176789
 21
315.6728021053
 31
0.0
  0
LINE
  5
7AE
330
1F
100
AcDbEntity
  8
0
100
AcDbLine
 10
868.6939176789
 20
314.1728021053
 30
0.0
 11
867.1939176789
 21
314.1728021053
 31
0.0
  0
CIRCLE
  5
7AF
330
1F
100
AcDbEntity
  8
0
100
AcDbCircle
 10
868.9294272078
 20
313.9372925764
 30
0.0
 40
4.0
  0
LINE
  5
7B0
330
1F
100
AcDbEntity
  8
0
100
AcDbLine
 10
866.3149912593
 20
1.9646222035
 30
0.0
 11
866.0746259715
 21
1.7390973342
 31
0.0
  0
ARC
  5
7B1
330
1F
100
AcDbEntity
  8
0
100
AcDbCircle
 10
868.9294272078
 20
-1.0627074236
 30
0.0
 40
4.000000000000064
100
AcDbArc
 50
45.5367857887
 51
130.8142599591
  0
ARC
  5
7B2
330
1F
100
AcDbEntity
  8
0
100
AcDbCircle
 10
742.9294272078
 20
261.9372925764
 30
0.0
 40
12.0
100
AcDbArc
 50
156.9483121776
 51
180.0
  0
ARC
  5
7B3
330
1F
100
AcDbEntity
  8
0
100
AcDbCircle
 10
742.9294272078
 20
261.9372925764
 30
0.0
 40
11.99999999999997
100
AcDbArc
 50
96.9483121776
 51
143.0516878224
  0
ARC
  5
7B4
330
1F
100
AcDbEntity
  8
0
100
AcDbCircle
 10
742.9294272078
 20
261.9372925764
 30
0.0
 40
11.99999999999995
100
AcDbArc
 50
36.9483121776
 51
83.05168782240001
  0
ARC
  5
7B5
330
1F
100
AcDbEntity
  8
0
100
AcDbCircle
 10
742.9294272078
 20
261.9372925764
 30
0.0
 40
12.00000000000003
100
AcDbArc
 50
336.9483121776
 51
23.0516878224
  0
ARC
  5
7B6
330
1F
100
AcDbEntity
  8
0
100
AcDbCircle
 10
742.9294272078
 20
261.9372925764
 30
0.0
 40
12.00000000000003
100
AcDbArc
 50
276.9483121776
 51
323.0516878224
  0
ARC
  5
7B7
330
1F
100
AcDbEntity
  8
0
100
AcDbCircle
 10
742.9294272078
 20
261.9372925764
 30
0.0
 40
12.00000000000008
100
AcDbArc
 50
216.9483121776
 51
263.0516878224
  0
ARC
  5
7B8
330
1F
100
AcDbEntity
  8
0
100
AcDbCircle
 10
742.9294272078
 20
261.9372925764
 30
0.0
 40
12.0
100
AcDbArc
 50
180.0
 51
203.0516878224
  0
CIRCLE
  5
7B9
330
1F
100
AcDbEntity
  8
0
100
AcDbCircle
 10
742.9294272078
 20
261.9372925764
 30
0.0
 40
20.00000000000023
  0
CIRCLE
  5
7BA
330
1F
100
AcDbEntity
  8
0
100
AcDbCircle
 10
742.9294272078
 20
261.9372925764
 30
0.0
 40
34.00000000000023
  0
ARC
  5
7BB
330
1F
100
AcDbEntity
  8
0
100
AcDbCircle
 10
764.9294272078
 20
48.9372925764
 30
0.0
 40
12.00000000000002
100
AcDbArc
 50
156.9483121777
 51
197.4456618853
  0
ARC
  5
7BC
330
1F
100
AcDbEntity
  8
0
100
AcDbCircle
 10
764.9294272078
 20
48.9372925764
 30
0.0
 40
12.0
100
AcDbArc
 50
96.9483121776
 51
143.0516878224
  0
ARC
  5
7BD
330
1F
100
AcDbEntity
  8
0
100
AcDbCircle
 10
764.9294272078
 20
48.9372925764
 30
0.0
 40
12.00000000000009
100
AcDbArc
 50
36.9483121775
 51
83.0516878225
  0
ARC
  5
7BE
330
1F
100
AcDbEntity
  8
0
100
AcDbCircle
 10
764.9294272078
 20
48.9372925764
 30
0.0
 40
12.00000000000008
100
AcDbArc
 50
336.9483121774999
 51
23.0516878225
  0
ARC
  5
7BF
330
1F
100
AcDbEntity
  8
0
100
AcDbCircle
 10
764.9294272078
 20
48.9372925764
 30
0.0
 40
12.00000000000001
100
AcDbArc
 50
276.9483121776
 51
323.0516878224
  0
ARC
  5
7C0
330
1F
100
AcDbEntity
  8
0
100
AcDbCircle
 10
764.9294272078
 20
48.9372925764
 30
0.0
 40
11.99999999999998
100
AcDbArc
 50
216.9483121777
 51
263.0516878223
  0
LINE
  5
7C1
330
1F
100
AcDbEntity
  8
0
100
AcDbLine
 10
753.8876033096
 20
44.2385560441
 30
0.0
 11
753.4814067493
 21
45.3396784251
 31
0.0
  0
CIRCLE
  5
7C2
330
1F
100
AcDbEntity
  8
0
100
AcDbCircle
 10
764.9294272078
 20
48.9372925764
 30
0.0
 40
20.00000000000011
  0
CIRCLE
  5
7C3
330
1F
100
AcDbEntity
  8
0
100
AcDbCircle
 10
764.9294272078
 20
48.9372925764
 30
0.0
 40
34.00000000000021
  0
LINE
  5
7C4
330
1F
100
AcDbEntity
  8
0
100
AcDbLine
 10
617.9294272078
 20
321.7605158811
 30
0.0
 11
618.9294272078
 21
320.9372925764
 31
0.0
  0
LINE
  5
7C5
330
1F
100
AcDbEntity
  8
0
100
AcDbLine
 10
617.2294272078
 20
321.7605158811
 30
0.0
 11
618.9294272078
 21
320.9372925764
 31
0.0
  0
LINE
  5
7C6
330
1F
100
AcDbEntity
  8
0
100
AcDbLine
 10
617.9294272078
 20
321.7605158811
 30
0.0
 11
617.2294272078
 21
321.7605158811
 31
0.0
  0
LINE
  5
7C7
330
1F
100
AcDbEntity
  8
0
100
AcDbLine
 10
618.9294272078
 20
-8.0627074236
 30
0.0
 11
617.2294272078
 21
-8.8859307283
 31
0.0
  0
LINE
  5
7C8
330
1F
100
AcDbEntity
  8
0
100
AcDbLine
 10
617.2294272078
 20
321.7605158811
 30
0.0
 11
617.2294272078
 21
-8.8859307283
 31
0.0
  0
LINE
  5
7C9
330
1F
100
AcDbEntity
  8
0
100
AcDbLine
 10
618.9294272078
 20
320.9372925764
 30
0.0
 11
618.9294272078
 21
-8.0627074236
 31
0.0
  0
LINE
  5
7CA
330
1F
100
AcDbEntity
  8
0
100
AcDbLine
 10
618.106203903
 20
321.9372925765
 30
0.0
 11
618.106203903
 21
322.6372925764
 31
0.0
  0
LINE
  5
7CB
330
1F
100
AcDbEntity
  8
0
100
AcDbLine
 10
618.9294272078
 20
320.9372925764
 30
0.0
 11
618.106203903
 21
322.6372925764
 31
0.0
  0
LINE
  5
7CC
330
1F
100
AcDbEntity
  8
0
100
AcDbLine
 10
618.9294272078
 20
320.9372925764
 30
0.0
 11
618.106203903
 21
321.9372925764
 31
0.0
  0
LINE
  5
7CD
330
1F
100
AcDbEntity
  8
0
100
AcDbLine
 10
889.7526505125
 20
322.6372925764
 30
0.0
 11
618.106203903
 21
322.6372925764
 31
0.0
  0
LINE
  5
7CE
330
1F
100
AcDbEntity
  8
0
100
AcDbLine
 10
889.7526505125
 20
322.6372925764
 30
0.0
 11
888.9294272078
 21
320.9372925764
 31
0.0
  0
LINE
  5
7CF
330
1F
100
AcDbEntity
  8
0
100
AcDbLine
 10
888.9294272078
 20
320.9372925764
 30
0.0
 11
618.9294272078
 21
320.9372925764
 31
0.0
  0
LINE
  5
7D0
330
1F
100
AcDbEntity
  8
0
100
AcDbLine
 10
888.9294272078
 20
-8.0627074236
 30
0.0
 11
888.9294272078
 21
320.9372925764
 31
0.0
  0
LINE
  5
7D1
330
1F
100
AcDbEntity
  8
0
100
AcDbLine
 10
618.9294272078
 20
-8.0627074236
 30
0.0
 11
888.9294272078
 21
-8.0627074236
 31
0.0
  0
LINE
  5
7D2
330
1F
100
AcDbEntity
  8
0
100
AcDbLine
 10
889.9294272079
 20
321.7605158812
 30
0.0
 11
890.6294272078
 21
321.7605158812
 31
0.0
  0
LINE
  5
7D3
330
1F
100
AcDbEntity
  8
0
100
AcDbLine
 10
888.9294272078
 20
320.9372925764
 30
0.0
 11
890.6294272078
 21
321.7605158812
 31
0.0
  0
LINE
  5
7D4
330
1F
100
AcDbEntity
  8
0
100
AcDbLine
 10
888.9294272078
 20
320.9372925764
 30
0.0
 11
889.9294272078
 21
321.7605158812
 31
0.0
  0
LINE
  5
7D5
330
1F
100
AcDbEntity
  8
0
100
AcDbLine
 10
889.7526505125
 20
321.9372925764
 30
0.0
 11
888.9294272078
 21
320.9372925764
 31
0.0
  0
LINE
  5
7D6
330
1F
100
AcDbEntity
  8
0
100
AcDbLine
 10
889.7526505125
 20
321.9372925764
 30
0.0
 11
889.7526505125
 21
322.6372925764
 31
0.0
  0
LINE
  5
7D7
330
1F
100
AcDbEntity
  8
0
100
AcDbLine
 10
890.6294272078
 20
-8.8859307283
 30
0.0
 11
890.6294272078
 21
321.7605158812
 31
0.0
  0
LINE
  5
7D8
330
1F
100
AcDbEntity
  8
0
100
AcDbLine
 10
890.6294272078
 20
-8.8859307283
 30
0.0
 11
888.9294272079
 21
-8.0627074236
 31
0.0
  0
LINE
  5
7D9
330
1F
100
AcDbEntity
  8
0
100
AcDbLine
 10
617.9294272078
 20
-8.8859307283
 30
0.0
 11
617.2294272078
 21
-8.8859307283
 31
0.0
  0
LINE
  5
7DA
330
1F
100
AcDbEntity
  8
0
100
AcDbLine
 10
618.9294272078
 20
-8.0627074236
 30
0.0
 11
617.9294272078
 21
-8.8859307283
 31
0.0
  0
LINE
  5
7DB
330
1F
100
AcDbEntity
  8
0
100
AcDbLine
 10
888.9294272078
 20
-8.0627074236
 30
0.0
 11
889.7526505126
 21
-9.7627074236
 31
0.0
  0
LINE
  5
7DC
330
1F
100
AcDbEntity
  8
0
100
AcDbLine
 10
618.1062039032
 20
-9.7627074236
 30
0.0
 11
889.7526505126
 21
-9.7627074236
 31
0.0
  0
LINE
  5
7DD
330
1F
100
AcDbEntity
  8
0
100
AcDbLine
 10
618.1062039032
 20
-9.7627074236
 30
0.0
 11
618.9294272078
 21
-8.0627074236
 31
0.0
  0
LINE
  5
7DE
330
1F
100
AcDbEntity
  8
0
100
AcDbLine
 10
618.1062039032
 20
-9.0627074236
 30
0.0
 11
618.9294272078
 21
-8.0627074236
 31
0.0
  0
LINE
  5
7DF
330
1F
100
AcDbEntity
  8
0
100
AcDbLine
 10
618.1062039032
 20
-9.0627074236
 30
0.0
 11
618.1062039032
 21
-9.7627074236
 31
0.0
  0
LINE
  5
7E0
330
1F
100
AcDbEntity
  8
0
100
AcDbLine
 10
889.7526505126
 20
-9.0627074236
 30
0.0
 11
889.7526505126
 21
-9.7627074236
 31
0.0
  0
LINE
  5
7E1
330
1F
100
AcDbEntity
  8
0
100
AcDbLine
 10
888.9294272078
 20
-8.0627074236
 30
0.0
 11
889.7526505126
 21
-9.0627074236
 31
0.0
  0
LINE
  5
7E2
330
1F
100
AcDbEntity
  8
0
100
AcDbLine
 10
889.9294272078
 20
-8.8859307283
 30
0.0
 11
888.9294272078
 21
-8.0627074236
 31
0.0
  0
LINE
  5
7E3
330
1F
100
AcDbEntity
  8
0
100
AcDbLine
 10
889.9294272078
 20
-8.8859307283
 30
0.0
 11
890.6294272078
 21
-8.8859307283
 31
0.0
  0
LINE
  5
7E4
330
1F
100
AcDbEntity
  8
0
100
AcDbLine
 10
913.4294272078
 20
217.9498310805
 30
0.0
 11
913.4294272078
 21
49.5372925764
 31
0.0
  0
LINE
  5
7E5
330
1F
100
AcDbEntity
  8
0
100
AcDbLine
 10
913.4294272078
 20
263.3372925764
 30
0.0
 11
913.4294272078
 21
217.9498310805
 31
0.0
  0
LINE
  5
7E6
330
1F
100
AcDbEntity
  8
0
100
AcDbLine
 10
917.6294272078
 20
217.9498310805
 30
0.0
 11
917.6294272078
 21
49.5372925764
 31
0.0
  0
LINE
  5
7E7
330
1F
100
AcDbEntity
  8
0
100
AcDbLine
 10
917.6294272078
 20
263.3372925764
 30
0.0
 11
917.6294272078
 21
217.9498310805
 31
0.0
  0
LINE
  5
7E8
330
1F
100
AcDbEntity
  8
0
100
AcDbLine
 10
594.4294272078
 20
94.9247540723
 30
0.0
 11
594.4294272078
 21
263.3372925764
 31
0.0
  0
LINE
  5
7E9
330
1F
100
AcDbEntity
  8
0
100
AcDbLine
 10
594.4294272078
 20
49.5372925764
 30
0.0
 11
594.4294272078
 21
94.9247540723
 31
0.0
  0
LINE
  5
7EA
330
1F
100
AcDbEntity
  8
0
100
AcDbLine
 10
590.2294272078
 20
94.9247540723
 30
0.0
 11
590.2294272078
 21
263.3372925764
 31
0.0
  0
LINE
  5
7EB
330
1F
100
AcDbEntity
  8
0
100
AcDbLine
 10
590.2294272078
 20
49.5372925764
 30
0.0
 11
590.2294272078
 21
94.9247540723
 31
0.0
  0
LINE
  5
7EF
330
1F
100
AcDbEntity
  8
0
100
AcDbLine
 10
920.4294272078
 20
256.0872925764
 30
0.0
 11
920.4294272078
 21
56.7872925764
 31
0.0
  0
LINE
  5
7F0
330
1F
100
AcDbEntity
  8
0
100
AcDbLine
 10
926.9294272078
 20
254.2872925764
 30
0.0
 11
926.9294272078
 21
58.5872925764
 31
0.0
  0
LINE
  5
7F3
330
1F
100
AcDbEntity
  8
0
100
AcDbLine
 10
587.4294272078
 20
56.7872925764
 30
0.0
 11
587.4294272078
 21
256.0872925764
 31
0.0
  0
LINE
  5
7F4
330
1F
100
AcDbEntity
  8
0
100
AcDbLine
 10
580.9294272078
 20
58.5872925764
 30
0.0
 11
580.9294272078
 21
254.2872925764
 31
0.0
  0
LINE
  5
8A4
330
1F
100
AcDbEntity
  8
0
100
AcDbLine
 10
1023.915720948584
 20
163.8800681376574
 30
0.0
 11
984.9157209485842
 21
163.8800681376574
 31
0.0
  0
LINE
  5
8A5
330
1F
100
AcDbEntity
  8
0
100
AcDbLine
 10
984.9157209485842
 20
163.8800681376574
 30
0.0
 11
984.9157209485842
 21
132.6800681376576
 31
0.0
  0
INSERT
  5
8A6
330
1F
100
AcDbEntity
  8
LENKIMO
  6
CENTERX2
100
AcDbBlockReference
  2
*U8
 10
630.5696767012363
 20
-301.822346787053
 30
0.0
 41
0.39
 42
0.39
 43
0.39
  0
LINE
  5
8A7
330
1F
100
AcDbEntity
  8
0
100
AcDbLine
 10
1023.915720948584
 20
179.4800681376576
 30
0.0
 11
1023.915720948584
 21
163.8800681376574
 31
0.0
  0
LINE
  5
8A8
330
1F
100
AcDbEntity
  8
0
100
AcDbLine
 10
1023.915720948584
 20
132.6800681376576
 30
0.0
 11
1023.915720948584
 21
117.0800681376573
 31
0.0
  0
LINE
  5
8A9
330
1F
100
AcDbEntity
  8
0
100
AcDbLine
 10
1023.915720948584
 20
132.6800681376576
 30
0.0
 11
984.9157209485842
 21
132.6800681376576
 31
0.0
  0
LINE
  5
8AA
330
1F
100
AcDbEntity
  8
0
100
AcDbLine
 10
1062.915720948584
 20
148.2800681376575
 30
0.0
 11
1023.915720948584
 21
117.0800681376573
 31
0.0
  0
LINE
  5
8AB
330
1F
100
AcDbEntity
  8
0
100
AcDbLine
 10
1062.915720948584
 20
148.2800681376575
 30
0.0
 11
1023.915720948584
 21
179.4800681376576
 31
0.0
  0
MTEXT
  5
8AC
330
1F
100
AcDbEntity
  8
0
100
AcDbMText
 10
991.2798773674884
 20
154.5386119928644
 30
0.0
 40
13.65
 41
8.176792514679505
 71
     1
 72
     5
  1
{SUP}
 73
     1
 44
1.0
1001
ACAD
1000
ACAD_MTEXT_DEFINED_HEIGHT_BEGIN
1070
    46
1040
35.595
1000
ACAD_MTEXT_DEFINED_HEIGHT_END
  0
INSERT
  5
8AD
330
1F
100
AcDbEntity
  8
LENKIMO
  6
CENTERX2
100
AcDbBlockReference
  2
*U9
 10
225.0253618398617
 20
-420.2288927851245
 30
0.0
 41
0.39
 42
0.39
 43
0.39
  0
LINE
  5
8AE
330
1F
100
AcDbEntity
  8
0
100
AcDbLine
 10
448.8055484493968
 20
163.2909131939541
 30
0.0
 11
448.8055484493968
 21
132.0909131939544
 31
0.0
  0
LINE
  5
8AF
330
1F
100
AcDbEntity
  8
0
100
AcDbLine
 10
487.8055484493968
 20
178.8909131939542
 30
0.0
 11
487.8055484493968
 21
163.2909131939541
 31
0.0
  0
LINE
  5
8B0
330
1F
100
AcDbEntity
  8
0
100
AcDbLine
 10
526.8055484493959
 20
147.6909131939542
 30
0.0
 11
487.8055484493968
 21
178.8909131939542
 31
0.0
  0
LINE
  5
8B1
330
1F
100
AcDbEntity
  8
0
100
AcDbLine
 10
487.8055484493968
 20
132.0909131939544
 30
0.0
 11
448.8055484493968
 21
132.0909131939544
 31
0.0
  0
LINE
  5
8B2
330
1F
100
AcDbEntity
  8
0
100
AcDbLine
 10
487.8055484493968
 20
163.2909131939541
 30
0.0
 11
448.8055484493968
 21
163.2909131939541
 31
0.0
  0
LINE
  5
8B3
330
1F
100
AcDbEntity
  8
0
100
AcDbLine
 10
487.8055484493968
 20
132.0909131939544
 30
0.0
 11
487.8055484493968
 21
116.490913193954
 31
0.0
  0
LINE
  5
8B4
330
1F
100
AcDbEntity
  8
0
100
AcDbLine
 10
526.8055484493959
 20
147.6909131939542
 30
0.0
 11
487.8055484493968
 21
116.490913193954
 31
0.0
  0
MTEXT
  5
8B5
330
1F
100
AcDbEntity
  8
0
100
AcDbMText
 10
457.5131340169498
 20
155.7824518824081
 30
0.0
 40
13.65
 41
8.176792514679505
 71
     1
 72
     5
  1
{ODA}
 73
     1
 44
1.0
1001
ACAD
1000
ACAD_MTEXT_DEFINED_HEIGHT_BEGIN
1070
    46
1040
35.595
1000
ACAD_MTEXT_DEFINED_HEIGHT_END
  0
INSERT
  5
8B6
330
1F
100
AcDbEntity
  8
LENKIMO
  6
CENTERX2
100
AcDbBlockReference
  2
*U10
 10
-60.04619403287916
 20
-296.0191906816848
 30
0.0
 41
0.39
 42
0.39
 43
0.39
  0
INSERT
  5
8B7
330
1F
100
AcDbEntity
  8
LENKIMO
  6
CENTERX2
100
AcDbBlockReference
  2
*U11
 10
-64.14249954923525
 20
334.5675634135406
 30
0.0
 41
0.39
 42
0.39
 43
0.39
  0
INSERT
  5
8B8
330
1F
100
AcDbEntity
  8
LENKIMO
  6
CENTERX2
100
AcDbBlockReference
  2
*U12
 10
-62.95764279271634
 20
-196.5870564466059
 30
0.0
 41
0.39
 42
0.39
 43
0.39
  0
ENDSEC
  0
SECTION
  2
OBJECTS
  0
DICTIONARY
  5
C
330
0
100
AcDbDictionary
281
     1
  3
ACAD_DETAILVIEWSTYLE
350
843
  3
ACAD_GROUP
350
D
  3
ACAD_IMAGE_VARS
350
83D
  3
ACAD_LAYOUT
350
1A
  3
ACAD_MLINESTYLE
350
17
  3
ACAD_PLOTSETTINGS
350
19
  3
ACAD_PLOTSTYLENAME
350
E
  3
ACAD_SCALELIST
350
47
  3
ACAD_SECTIONVIEWSTYLE
350
844
  3
AcDbVariableDictionary
350
83E
  3
APPDATA
350
83B
  3
DWGPROPS
350
8C1
  0
DICTIONARY
  5
8BF
330
1F
100
AcDbDictionary
280
     1
281
     1
  3
DIM_BOUNDING_BOXES_V1
360
8C0
  0
DICTIONARY
  5
843
102
{ACAD_REACTORS
330
C
102
}
330
C
100
AcDbDictionary
281
     1
  0
DICTIONARY
  5
D
102
{ACAD_REACTORS
330
C
102
}
330
C
100
AcDbDictionary
281
     1
  0
RASTERVARIABLES
  5
83D
102
{ACAD_REACTORS
330
C
102
}
330
C
100
AcDbRasterVariables
 90
        0
 70
     1
 71
     1
 72
     1
  0
DICTIONARY
  5
1A
102
{ACAD_REACTORS
330
C
102
}
330
C
100
AcDbDictionary
281
     1
  3
Layout1
350
1E
  3
Layout2
350
26
  3
Model
350
22
  0
DICTIONARY
  5
17
102
{ACAD_REACTORS
330
C
102
}
330
C
100
AcDbDictionary
281
     1
  3
Standard
350
18
  0
DICTIONARY
  5
19
102
{ACAD_REACTORS
330
C
102
}
330
C
100
AcDbDictionary
281
     1
  0
ACDBDICTIONARYWDFLT
  5
E
102
{ACAD_REACTORS
330
C
102
}
330
C
100
AcDbDictionary
281
     1
  3
Normal
350
F
100
AcDbDictionaryWithDefault
340
F
  0
DICTIONARY
  5
47
102
{ACAD_REACTORS
330
C
102
}
330
C
100
AcDbDictionary
281
     1
  3
A0
350
48
  3
A1
350
49
  3
A2
350
4A
  3
A3
350
4B
  3
A4
350
4C
  3
A5
350
4D
  3
A6
350
4E
  3
A7
350
4F
  3
A8
350
50
  3
A9
350
51
  3
B0
350
52
  3
B1
350
53
  3
B2
350
54
  3
B3
350
55
  3
B4
350
56
  3
B5
350
57
  3
B6
350
58
  3
B7
350
59
  3
B8
350
5A
  3
B9
350
5B
  3
C0
350
5C
  3
C1
350
5D
  3
C2
350
5E
  3
C3
350
5F
  3
C4
350
60
  3
C5
350
61
  3
C6
350
62
  3
C7
350
63
  3
C8
350
64
  3
C9
350
65
  3
D0
350
66
  3
D1
350
67
  3
D2
350
68
  0
DICTIONARY
  5
844
102
{ACAD_REACTORS
330
C
102
}
330
C
100
AcDbDictionary
281
     1
  0
DICTIONARY
  5
83E
102
{ACAD_REACTORS
330
C
102
}
330
C
100
AcDbDictionary
281
     1
  0
DICTIONARY
  5
83B
102
{ACAD_REACTORS
330
C
102
}
330
C
100
AcDbDictionary
281
     1
  0
XRECORD
  5
8C1
102
{ACAD_REACTORS
330
C
102
}
330
C
100
AcDbXrecord
280
     1
  1
DWGPROPS COOKIE
  2

  3

  4

  6

  7

  8
mantvydas.surka
  9

300
=
301
=
302
=
303
=
304
=
305
=
306
=
307
=
308
=
309
=
 40
0.0
 41
2457870.316426736
 42
2459180.486943739
  1

 90
        0
  0
DICTIONARY
  5
8C0
102
{ACAD_REACTORS
330
8BF
102
}
330
8BF
100
AcDbDictionary
281
     1
  0
LAYOUT
  5
1E
102
{ACAD_REACTORS
330
1A
102
}
330
1A
100
AcDbPlotSettings
  1

  2
none_device
  4

  6

 40
0.0
 41
0.0
 42
0.0
 43
0.0
 44
0.0
 45
0.0
 46
0.0
 47
0.0
 48
0.0
 49
0.0
140
0.0
141
0.0
142
1.0
143
1.0
 70
   688
 72
     1
 73
     0
 74
     5
  7

 75
    16
147
1.0
148
0.0
149
0.0
100
AcDbLayout
  1
Layout1
 70
     1
 71
     1
 10
0.0
 20
0.0
 11
420.0
 21
297.0
 12
0.0
 22
0.0
 32
0.0
 14
1.000000000000000E+20
 24
1.000000000000000E+20
 34
1.000000000000000E+20
 15
-1.000000000000000E+20
 25
-1.000000000000000E+20
 35
-1.000000000000000E+20
146
0.0
 13
0.0
 23
0.0
 33
0.0
 16
1.0
 26
0.0
 36
0.0
 17
0.0
 27
1.0
 37
0.0
 76
     0
330
1B
  0
LAYOUT
  5
26
102
{ACAD_REACTORS
330
1A
102
}
330
1A
100
AcDbPlotSettings
  1

  2
none_device
  4

  6

 40
0.0
 41
0.0
 42
0.0
 43
0.0
 44
0.0
 45
0.0
 46
0.0
 47
0.0
 48
0.0
 49
0.0
140
0.0
141
0.0
142
1.0
143
1.0
 70
   688
 72
     1
 73
     0
 74
     5
  7

 75
    16
147
1.0
148
0.0
149
0.0
100
AcDbLayout
  1
Layout2
 70
     1
 71
     2
 10
0.0
 20
0.0
 11
0.0
 21
0.0
 12
0.0
 22
0.0
 32
0.0
 14
0.0
 24
0.0
 34
0.0
 15
0.0
 25
0.0
 35
0.0
146
0.0
 13
0.0
 23
0.0
 33
0.0
 16
1.0
 26
0.0
 36
0.0
 17
0.0
 27
1.0
 37
0.0
 76
     0
330
23
  0
LAYOUT
  5
22
102
{ACAD_REACTORS
330
1A
102
}
330
1A
100
AcDbPlotSettings
  1

  2
none_device
  4
Letter_(8.50_x_11.00_Inches)
  6

 40
6.35
 41
6.35
 42
6.35000508
 43
6.35000508
 44
215.9
 45
279.4
 46
0.0
 47
0.0
 48
0.0
 49
0.0
140
0.0
141
0.0
142
1.0
143
1.0
 70
  1712
 72
     1
 73
     0
 74
     0
  7

 75
     0
147
1.0
148
0.0
149
0.0
100
AcDbLayout
  1
Model
 70
     1
 71
     0
 10
0.0
 20
0.0
 11
420.0
 21
297.0
 12
0.0
 22
0.0
 32
0.0
 14
-542.4803701626
 24
-9.762707423600006
 34
0.0
 15
1062.915720948584
 25
802.6989818921223
 35
0.0
146
0.0
 13
0.0
 23
0.0
 33
0.0
 16
1.0
 26
0.0
 36
0.0
 17
0.0
 27
1.0
 37
0.0
 76
     0
330
1F
331
29
  0
MLINESTYLE
  5
18
102
{ACAD_REACTORS
330
17
102
}
330
17
100
AcDbMlineStyle
  2
Standard
 70
     0
  3

 62
   256
 51
90.0
 52
90.0
 71
     2
 49
0.5
 62
   256
  6
BYLAYER
 49
-0.5
 62
   256
  6
BYLAYER
  0
ACDBPLACEHOLDER
  5
F
102
{ACAD_REACTORS
330
E
102
}
330
E
  0
SCALE
  5
48
102
{ACAD_REACTORS
330
47
102
}
330
47
100
AcDbScale
 70
     0
300
1:1
140
1.0
141
1.0
290
     1
  0
SCALE
  5
49
102
{ACAD_REACTORS
330
47
102
}
330
47
100
AcDbScale
 70
     0
300
1:2
140
1.0
141
2.0
290
     0
  0
SCALE
  5
4A
102
{ACAD_REACTORS
330
47
102
}
330
47
100
AcDbScale
 70
     0
300
1:4
140
1.0
141
4.0
290
     0
  0
SCALE
  5
4B
102
{ACAD_REACTORS
330
47
102
}
330
47
100
AcDbScale
 70
     0
300
1:5
140
1.0
141
5.0
290
     0
  0
SCALE
  5
4C
102
{ACAD_REACTORS
330
47
102
}
330
47
100
AcDbScale
 70
     0
300
1:8
140
1.0
141
8.0
290
     0
  0
SCALE
  5
4D
102
{ACAD_REACTORS
330
47
102
}
330
47
100
AcDbScale
 70
     0
300
1:10
140
1.0
141
10.0
290
     0
  0
SCALE
  5
4E
102
{ACAD_REACTORS
330
47
102
}
330
47
100
AcDbScale
 70
     0
300
1:16
140
1.0
141
16.0
290
     0
  0
SCALE
  5
4F
102
{ACAD_REACTORS
330
47
102
}
330
47
100
AcDbScale
 70
     0
300
1:20
140
1.0
141
20.0
290
     0
  0
SCALE
  5
50
102
{ACAD_REACTORS
330
47
102
}
330
47
100
AcDbScale
 70
     0
300
1:30
140
1.0
141
30.0
290
     0
  0
SCALE
  5
51
102
{ACAD_REACTORS
330
47
102
}
330
47
100
AcDbScale
 70
     0
300
1:40
140
1.0
141
40.0
290
     0
  0
SCALE
  5
52
102
{ACAD_REACTORS
330
47
102
}
330
47
100
AcDbScale
 70
     0
300
1:50
140
1.0
141
50.0
290
     0
  0
SCALE
  5
53
102
{ACAD_REACTORS
330
47
102
}
330
47
100
AcDbScale
 70
     0
300
1:100
140
1.0
141
100.0
290
     0
  0
SCALE
  5
54
102
{ACAD_REACTORS
330
47
102
}
330
47
100
AcDbScale
 70
     0
300
2:1
140
2.0
141
1.0
290
     0
  0
SCALE
  5
55
102
{ACAD_REACTORS
330
47
102
}
330
47
100
AcDbScale
 70
     0
300
4:1
140
4.0
141
1.0
290
     0
  0
SCALE
  5
56
102
{ACAD_REACTORS
330
47
102
}
330
47
100
AcDbScale
 70
     0
300
8:1
140
8.0
141
1.0
290
     0
  0
SCALE
  5
57
102
{ACAD_REACTORS
330
47
102
}
330
47
100
AcDbScale
 70
     0
300
10:1
140
10.0
141
1.0
290
     0
  0
SCALE
  5
58
102
{ACAD_REACTORS
330
47
102
}
330
47
100
AcDbScale
 70
     0
300
100:1
140
100.0
141
1.0
290
     0
  0
SCALE
  5
59
102
{ACAD_REACTORS
330
47
102
}
330
47
100
AcDbScale
 70
     0
300
1/128" = 1'-0"
140
0.0078125
141
12.0
290
     0
  0
SCALE
  5
5A
102
{ACAD_REACTORS
330
47
102
}
330
47
100
AcDbScale
 70
     0
300
1/64" = 1'-0"
140
0.015625
141
12.0
290
     0
  0
SCALE
  5
5B
102
{ACAD_REACTORS
330
47
102
}
330
47
100
AcDbScale
 70
     0
300
1/32" = 1'-0"
140
0.03125
141
12.0
290
     0
  0
SCALE
  5
5C
102
{ACAD_REACTORS
330
47
102
}
330
47
100
AcDbScale
 70
     0
300
1/16" = 1'-0"
140
0.0625
141
12.0
290
     0
  0
SCALE
  5
5D
102
{ACAD_REACTORS
330
47
102
}
330
47
100
AcDbScale
 70
     0
300
3/32" = 1'-0"
140
0.09375
141
12.0
290
     0
  0
SCALE
  5
5E
102
{ACAD_REACTORS
330
47
102
}
330
47
100
AcDbScale
 70
     0
300
1/8" = 1'-0"
140
0.125
141
12.0
290
     0
  0
SCALE
  5
5F
102
{ACAD_REACTORS
330
47
102
}
330
47
100
AcDbScale
 70
     0
300
3/16" = 1'-0"
140
0.1875
141
12.0
290
     0
  0
SCALE
  5
60
102
{ACAD_REACTORS
330
47
102
}
330
47
100
AcDbScale
 70
     0
300
1/4" = 1'-0"
140
0.25
141
12.0
290
     0
  0
SCALE
  5
61
102
{ACAD_REACTORS
330
47
102
}
330
47
100
AcDbScale
 70
     0
300
3/8" = 1'-0"
140
0.375
141
12.0
290
     0
  0
SCALE
  5
62
102
{ACAD_REACTORS
330
47
102
}
330
47
100
AcDbScale
 70
     0
300
1/2" = 1'-0"
140
0.5
141
12.0
290
     0
  0
SCALE
  5
63
102
{ACAD_REACTORS
330
47
102
}
330
47
100
AcDbScale
 70
     0
300
3/4" = 1'-0"
140
0.75
141
12.0
290
     0
  0
SCALE
  5
64
102
{ACAD_REACTORS
330
47
102
}
330
47
100
AcDbScale
 70
     0
300
1" = 1'-0"
140
1.0
141
12.0
290
     0
  0
SCALE
  5
65
102
{ACAD_REACTORS
330
47
102
}
330
47
100
AcDbScale
 70
     0
300
1-1/2" = 1'-0"
140
1.5
141
12.0
290
     0
  0
SCALE
  5
66
102
{ACAD_REACTORS
330
47
102
}
330
47
100
AcDbScale
 70
     0
300
3" = 1'-0"
140
3.0
141
12.0
290
     0
  0
SCALE
  5
67
102
{ACAD_REACTORS
330
47
102
}
330
47
100
AcDbScale
 70
     0
300
6" = 1'-0"
140
6.0
141
12.0
290
     0
  0
SCALE
  5
68
102
{ACAD_REACTORS
330
47
102
}
330
47
100
AcDbScale
 70
     0
300
1'-0" = 1'-0"
140
12.0
141
12.0
290
     0
  0
ENDSEC
  0
EOF
