  0
SECTION
  2
HEADER
  9
$ACADVER
  1
AC1015
  9
$ACADMAINTVER
 70
     6
  9
$DWGCODEPAGE
  3
ANSI_1257
  9
$INSBASE
 10
0.0
 20
0.0
 30
0.0
  9
$EXTMIN
 10
0.0
 20
0.0
 30
0.0
  9
$EXTMAX
 10
420.0
 20
297.0
 30
0.0
  9
$LIMMIN
 10
0.0
 20
0.0
  9
$LIMMAX
 10
420.0
 20
297.0
  9
$ORTHOMODE
 70
     0
  9
$REGENMODE
 70
     1
  9
$FILLMODE
 70
     1
  9
$QTEXTMODE
 70
     0
  9
$MIRRTEXT
 70
     1
  9
$LTSCALE
 40
1.0
  9
$ATTMODE
 70
     1
  9
$TEXTSIZE
 40
5.6444444444
  9
$TRACEWID
 40
1.0
  9
$TEXTSTYLE
  7
Standard
  9
$CLAYER
  8
0
  9
$CELTYPE
  6
ByLayer
  9
$CECOLOR
 62
   256
  9
$CELTSCALE
 40
1.0
  9
$DISPSILH
 70
     0
  9
$DIMSCALE
 40
1.0
  9
$DIMASZ
 40
3.175
  9
$DIMEXO
 40
1.0
  9
$DIMDLI
 40
3.75
  9
$DIMRND
 40
0.0
  9
$DIMDLE
 40
0.0
  9
$DIMEXE
 40
1.0
  9
$DIMTP
 40
0.0
  9
$DIMTM
 40
0.0
  9
$DIMTXT
 40
5.6444444444
  9
$DIMCEN
 40
2.5
  9
$DIMTSZ
 40
0.0
  9
$DIMTOL
 70
     0
  9
$DIMLIM
 70
     0
  9
$DIMTIH
 70
     1
  9
$DIMTOH
 70
     1
  9
$DIMSE1
 70
     0
  9
$DIMSE2
 70
     0
  9
$DIMTAD
 70
     1
  9
$DIMZIN
 70
     0
  9
$DIMBLK
  1

  9
$DIMASO
 70
     1
  9
$DIMSHO
 70
     1
  9
$DIMPOST
  1

  9
$DIMAPOST
  1

  9
$DIMALT
 70
     0
  9
$DIMALTD
 70
     3
  9
$DIMALTF
 40
0.0393700787
  9
$DIMLFAC
 40
1.0
  9
$DIMTOFL
 70
     1
  9
$DIMTVP
 40
0.0
  9
$DIMTIX
 70
     0
  9
$DIMSOXD
 70
     0
  9
$DIMSAH
 70
     0
  9
$DIMBLK1
  1

  9
$DIMBLK2
  1

  9
$DIMSTYLE
  2
ISO-25
  9
$DIMCLRD
 70
     0
  9
$DIMCLRE
 70
     0
  9
$DIMCLRT
 70
     0
  9
$DIMTFAC
 40
1.0
  9
$DIMGAP
 40
1.524
  9
$DIMJUST
 70
     0
  9
$DIMSD1
 70
     0
  9
$DIMSD2
 70
     0
  9
$DIMTOLJ
 70
     0
  9
$DIMTZIN
 70
     0
  9
$DIMALTZ
 70
     0
  9
$DIMALTTZ
 70
     0
  9
$DIMUPT
 70
     0
  9
$DIMDEC
 70
     1
  9
$DIMTDEC
 70
     1
  9
$DIMALTU
 70
     2
  9
$DIMALTTD
 70
     3
  9
$DIMTXSTY
  7
Standard
  9
$DIMAUNIT
 70
     0
  9
$DIMADEC
 70
     1
  9
$DIMALTRND
 40
0.0
  9
$DIMAZIN
 70
     0
  9
$DIMDSEP
 70
    44
  9
$DIMATFIT
 70
     3
  9
$DIMFRAC
 70
     0
  9
$DIMLDRBLK
  1

  9
$DIMLUNIT
 70
     2
  9
$DIMLWD
 70
    -2
  9
$DIMLWE
 70
    -2
  9
$DIMTMOVE
 70
     0
  9
$LUNITS
 70
     2
  9
$LUPREC
 70
     1
  9
$SKETCHINC
 40
1.0
  9
$FILLETRAD
 40
10.0
  9
$AUNITS
 70
     0
  9
$AUPREC
 70
     1
  9
$MENU
  1
.
  9
$ELEVATION
 40
0.0
  9
$PELEVATION
 40
0.0
  9
$THICKNESS
 40
0.0
  9
$LIMCHECK
 70
     0
  9
$CHAMFERA
 40
0.0
  9
$CHAMFERB
 40
0.0
  9
$CHAMFERC
 40
0.0
  9
$CHAMFERD
 40
0.0
  9
$SKPOLY
 70
     0
  9
$TDCREATE
 40
2459500.612982593
  9
$TDUCREATE
 40
2459500.487982593
  9
$TDUPDATE
 40
2459500.612983114
  9
$TDUUPDATE
 40
2459500.487983114
  9
$TDINDWG
 40
0.0000000116
  9
$TDUSRTIMER
 40
0.0000000116
  9
$USRTIMER
 70
     1
  9
$ANGBASE
 50
0.0
  9
$ANGDIR
 70
     0
  9
$PDMODE
 70
     0
  9
$PDSIZE
 40
-1.0
  9
$PLINEWID
 40
0.0
  9
$SPLFRAME
 70
     0
  9
$SPLINETYPE
 70
     6
  9
$SPLINESEGS
 70
     8
  9
$HANDSEED
  5
5A7
  9
$SURFTAB1
 70
     6
  9
$SURFTAB2
 70
     6
  9
$SURFTYPE
 70
     6
  9
$SURFU
 70
     6
  9
$SURFV
 70
     6
  9
$UCSBASE
  2

  9
$UCSNAME
  2

  9
$UCSORG
 10
0.0
 20
0.0
 30
0.0
  9
$UCSXDIR
 10
1.0
 20
0.0
 30
0.0
  9
$UCSYDIR
 10
0.0
 20
1.0
 30
0.0
  9
$UCSORTHOREF
  2

  9
$UCSORTHOVIEW
 70
     0
  9
$UCSORGTOP
 10
0.0
 20
0.0
 30
0.0
  9
$UCSORGBOTTOM
 10
0.0
 20
0.0
 30
0.0
  9
$UCSORGLEFT
 10
0.0
 20
0.0
 30
0.0
  9
$UCSORGRIGHT
 10
0.0
 20
0.0
 30
0.0
  9
$UCSORGFRONT
 10
0.0
 20
0.0
 30
0.0
  9
$UCSORGBACK
 10
0.0
 20
0.0
 30
0.0
  9
$PUCSBASE
  2

  9
$PUCSNAME
  2

  9
$PUCSORG
 10
0.0
 20
0.0
 30
0.0
  9
$PUCSXDIR
 10
1.0
 20
0.0
 30
0.0
  9
$PUCSYDIR
 10
0.0
 20
1.0
 30
0.0
  9
$PUCSORTHOREF
  2

  9
$PUCSORTHOVIEW
 70
     0
  9
$PUCSORGTOP
 10
0.0
 20
0.0
 30
0.0
  9
$PUCSORGBOTTOM
 10
0.0
 20
0.0
 30
0.0
  9
$PUCSORGLEFT
 10
0.0
 20
0.0
 30
0.0
  9
$PUCSORGRIGHT
 10
0.0
 20
0.0
 30
0.0
  9
$PUCSORGFRONT
 10
0.0
 20
0.0
 30
0.0
  9
$PUCSORGBACK
 10
0.0
 20
0.0
 30
0.0
  9
$USERI1
 70
     0
  9
$USERI2
 70
     0
  9
$USERI3
 70
     0
  9
$USERI4
 70
     0
  9
$USERI5
 70
     0
  9
$USERR1
 40
0.0
  9
$USERR2
 40
0.0
  9
$USERR3
 40
0.0
  9
$USERR4
 40
0.0
  9
$USERR5
 40
0.0
  9
$WORLDVIEW
 70
     1
  9
$SHADEDGE
 70
     3
  9
$SHADEDIF
 70
    70
  9
$TILEMODE
 70
     1
  9
$MAXACTVP
 70
    64
  9
$PINSBASE
 10
0.0
 20
0.0
 30
0.0
  9
$PLIMCHECK
 70
     0
  9
$PEXTMIN
 10
1.0000000000E+20
 20
1.0000000000E+20
 30
1.0000000000E+20
  9
$PEXTMAX
 10
-1.0000000000E+20
 20
-1.0000000000E+20
 30
-1.0000000000E+20
  9
$PLIMMIN
 10
0.0
 20
0.0
  9
$PLIMMAX
 10
420.0
 20
297.0
  9
$UNITMODE
 70
     0
  9
$VISRETAIN
 70
     1
  9
$PLINEGEN
 70
     0
  9
$PSLTSCALE
 70
     1
  9
$TREEDEPTH
 70
  3020
  9
$CMLSTYLE
  2
Standard
  9
$CMLJUST
 70
     0
  9
$CMLSCALE
 40
20.0
  9
$PROXYGRAPHICS
 70
     1
  9
$MEASUREMENT
 70
     1
  9
$CELWEIGHT
370
    -1
  9
$ENDCAPS
280
     0
  9
$JOINSTYLE
280
     0
  9
$LWDISPLAY
290
     1
  9
$INSUNITS
 70
     4
  9
$HYPERLINKBASE
  1

  9
$STYLESHEET
  1

  9
$XEDIT
290
     1
  9
$CEPSNTYPE
380
     0
  9
$PSTYLEMODE
290
     1
  9
$FINGERPRINTGUID
  2
{e24fc750-05b8-475f-beff-19728a183555}
  9
$VERSIONGUID
  2
{FAEB1C32-E019-11D5-929B-00C0DF256EC4}
  9
$EXTNAMES
290
     1
  9
$PSVPSCALE
 40
0.0
  9
$OLESTARTUP
290
     0
  0
ENDSEC
  0
SECTION
  2
CLASSES
  0
CLASS
  1
ACDBDICTIONARYWDFLT
  2
AcDbDictionaryWithDefault
  3
ObjectDBX Classes
 90
        0
280
     0
281
     0
  0
CLASS
  1
VISUALSTYLE
  2
AcDbVisualStyle
  3
ObjectDBX Classes
 90
     4095
280
     0
281
     0
  0
CLASS
  1
MATERIAL
  2
AcDbMaterial
  3
ObjectDBX Classes
 90
     1153
280
     0
281
     0
  0
CLASS
  1
SCALE
  2
AcDbScale
  3
ObjectDBX Classes
 90
     1153
280
     0
281
     0
  0
CLASS
  1
TABLESTYLE
  2
AcDbTableStyle
  3
ObjectDBX Classes
 90
     4095
280
     0
281
     0
  0
CLASS
  1
MLEADERSTYLE
  2
AcDbMLeaderStyle
  3
ACDB_MLEADERSTYLE_CLASS
 90
     4095
280
     0
281
     0
  0
CLASS
  1
SUN
  2
AcDbSun
  3
SCENEOE
 90
     1153
280
     0
281
     0
  0
CLASS
  1
ACDBPLACEHOLDER
  2
AcDbPlaceHolder
  3
ObjectDBX Classes
 90
        0
280
     0
281
     0
  0
CLASS
  1
LAYOUT
  2
AcDbLayout
  3
ObjectDBX Classes
 90
        0
280
     0
281
     0
  0
ENDSEC
  0
SECTION
  2
TABLES
  0
TABLE
  2
VPORT
  5
8
330
0
100
AcDbSymbolTable
 70
     1
  0
VPORT
  5
29
330
8
100
AcDbSymbolTableRecord
100
AcDbViewportTableRecord
  2
*Active
 70
     0
 10
0.0
 20
0.0
 11
1.0
 21
1.0
 12
210.0
 22
148.5
 13
0.0
 23
0.0
 14
10.0
 24
10.0
 15
10.0
 25
10.0
 16
0.0
 26
0.0
 36
1.0
 17
0.0
 27
0.0
 37
0.0
 40
297.0
 41
1.4141414141
 42
50.0
 43
0.0
 44
0.0
 50
0.0
 51
0.0
 71
     0
 72
  2000
 73
     1
 74
     3
 75
     0
 76
     0
 77
     0
 78
     0
281
     0
 65
     1
110
0.0
120
0.0
130
0.0
111
1.0
121
0.0
131
0.0
112
0.0
122
1.0
132
0.0
 79
     0
146
0.0
  0
ENDTAB
  0
TABLE
  2
LTYPE
  5
5
330
0
100
AcDbSymbolTable
 70
     6
  0
LTYPE
  5
14
330
5
100
AcDbSymbolTableRecord
100
AcDbLinetypeTableRecord
  2
ByBlock
 70
     0
  3

 72
    65
 73
     0
 40
0.0
  0
LTYPE
  5
15
330
5
100
AcDbSymbolTableRecord
100
AcDbLinetypeTableRecord
  2
ByLayer
 70
     0
  3

 72
    65
 73
     0
 40
0.0
  0
LTYPE
  5
16
330
5
100
AcDbSymbolTableRecord
100
AcDbLinetypeTableRecord
  2
Continuous
 70
     0
  3
Solid line
 72
    65
 73
     0
 40
0.0
  0
LTYPE
  5
6E
330
5
100
AcDbSymbolTableRecord
100
AcDbLinetypeTableRecord
  2
HIDDEN
 70
     0
  3
Hidden __ __ __ __ __ __ __ __ __ __ __ __ __ __
 72
    65
 73
     2
 40
1.905
 49
1.27
 74
     0
 49
-0.635
 74
     0
  0
LTYPE
  5
6F
330
5
100
AcDbSymbolTableRecord
100
AcDbLinetypeTableRecord
  2
PHANTOM
 70
     0
  3
Phantom ______  __  __  ______  __  __  ______
 72
    65
 73
     6
 40
12.7
 49
6.35
 74
     0
 49
-1.27
 74
     0
 49
1.27
 74
     0
 49
-1.27
 74
     0
 49
1.27
 74
     0
 49
-1.27
 74
     0
  0
LTYPE
  5
70
330
5
100
AcDbSymbolTableRecord
100
AcDbLinetypeTableRecord
  2
CENTER
 70
     0
  3
Center ____ _ ____ _ ____ _ ____ _ ____ _ ____
 72
    65
 73
     4
 40
10.16
 49
6.35
 74
     0
 49
-1.27
 74
     0
 49
1.27
 74
     0
 49
-1.27
 74
     0
  0
LTYPE
  5
71
330
5
100
AcDbSymbolTableRecord
100
AcDbLinetypeTableRecord
  2
CENTERX2
 70
     0
  3
Center (2x) ________  __  ________  __  _____
 72
    65
 73
     4
 40
20.32
 49
12.7
 74
     0
 49
-2.54
 74
     0
 49
2.54
 74
     0
 49
-2.54
 74
     0
  0
LTYPE
  5
72
330
5
100
AcDbSymbolTableRecord
100
AcDbLinetypeTableRecord
  2
DOT2
 70
     0
  3
Dot (.5x) ........................................
 72
    65
 73
     2
 40
0.635
 49
0.0
 74
     0
 49
-0.635
 74
     0
  0
ENDTAB
  0
TABLE
  2
LAYER
  5
2
330
0
100
AcDbSymbolTable
 70
     2
  0
LAYER
  5
10
330
2
100
AcDbSymbolTableRecord
100
AcDbLayerTableRecord
  2
0
 70
     0
 62
     7
  6
Continuous
370
    -3
390
F
  0
LAYER
  5
73
330
2
100
AcDbSymbolTableRecord
100
AcDbLayerTableRecord
  2
LENKIMO
 70
     0
 62
     1
  6
CENTERX2
370
    -3
390
F
  0
ENDTAB
  0
TABLE
  2
STYLE
  5
3
330
0
100
AcDbSymbolTable
 70
     2
  0
STYLE
  5
11
330
3
100
AcDbSymbolTableRecord
100
AcDbTextStyleTableRecord
  2
Standard
 70
     0
 40
0.0
 41
1.0
 50
0.0
 71
     0
 42
5.6444444444
  3
txt
  4

  0
STYLE
  5
81
330
3
100
AcDbSymbolTableRecord
100
AcDbTextStyleTableRecord
  2
SLDTEXTSTYLE0
 70
     0
 40
0.0
 41
0.605
 50
0.0
 71
     0
 42
5.6444444444
  3
TXT
  4

  0
ENDTAB
  0
TABLE
  2
VIEW
  5
6
330
0
100
AcDbSymbolTable
 70
     0
  0
ENDTAB
  0
TABLE
  2
UCS
  5
7
330
0
100
AcDbSymbolTable
 70
     0
  0
ENDTAB
  0
TABLE
  2
APPID
  5
9
330
0
100
AcDbSymbolTable
 70
     1
  0
APPID
  5
12
330
9
100
AcDbSymbolTableRecord
100
AcDbRegAppTableRecord
  2
ACAD
 70
     0
  0
ENDTAB
  0
TABLE
  2
DIMSTYLE
  5
A
330
0
100
AcDbSymbolTable
 70
     1
100
AcDbDimStyleTable
  0
DIMSTYLE
105
27
330
A
100
AcDbSymbolTableRecord
100
AcDbDimStyleTableRecord
  2
ISO-25
 70
     0
 41
2.5
 42
0.625
 43
3.75
 44
1.25
 73
     0
 74
     0
 77
     1
 78
     8
140
2.5
141
2.5
143
0.0393700787
147
0.625
171
     3
172
     1
178
     0
271
     2
272
     2
274
     3
278
    44
283
     0
284
     8
340
11
  0
ENDTAB
  0
TABLE
  2
BLOCK_RECORD
  5
1
330
0
100
AcDbSymbolTable
 70
     6
  0
BLOCK_RECORD
  5
1F
330
1
100
AcDbSymbolTableRecord
100
AcDbBlockTableRecord
  2
*Model_Space
340
22
  0
BLOCK_RECORD
  5
1B
330
1
100
AcDbSymbolTableRecord
100
AcDbBlockTableRecord
  2
*Paper_Space
340
1E
  0
BLOCK_RECORD
  5
23
330
1
100
AcDbSymbolTableRecord
100
AcDbBlockTableRecord
  2
*Paper_Space0
340
26
  0
BLOCK_RECORD
  5
74
330
1
100
AcDbSymbolTableRecord
100
AcDbBlockTableRecord
  2
ODA_2
340
0
102
{BLKREFS
331
208
102
}
  0
BLOCK_RECORD
  5
7E
330
1
100
AcDbSymbolTableRecord
100
AcDbBlockTableRecord
  2
SW_NOTE_0
340
0
102
{BLKREFS
331
83
102
}
  0
BLOCK_RECORD
  5
84
330
1
100
AcDbSymbolTableRecord
100
AcDbBlockTableRecord
  2
SUP_2_
340
0
102
{BLKREFS
331
209
102
}
  0
BLOCK_RECORD
  5
8E
330
1
100
AcDbSymbolTableRecord
100
AcDbBlockTableRecord
  2
SW_NOTE_0_1
340
0
102
{BLKREFS
331
92
102
}
  0
BLOCK_RECORD
  5
93
330
1
100
AcDbSymbolTableRecord
100
AcDbBlockTableRecord
  2
Block11_2
340
0
  0
ENDTAB
  0
ENDSEC
  0
SECTION
  2
BLOCKS
  0
BLOCK
  5
20
330
1F
100
AcDbEntity
  8
0
100
AcDbBlockBegin
  2
*Model_Space
 70
     0
 10
0.0
 20
0.0
 30
0.0
  3
*Model_Space
  1

  0
ENDBLK
  5
21
330
1F
100
AcDbEntity
  8
0
100
AcDbBlockEnd
  0
BLOCK
  5
1C
330
1B
100
AcDbEntity
 67
     1
  8
0
100
AcDbBlockBegin
  2
*Paper_Space
 70
     0
 10
0.0
 20
0.0
 30
0.0
  3
*Paper_Space
  1

  0
ENDBLK
  5
1D
330
1B
100
AcDbEntity
 67
     1
  8
0
100
AcDbBlockEnd
  0
BLOCK
  5
24
330
23
100
AcDbEntity
  8
0
100
AcDbBlockBegin
  2
*Paper_Space0
 70
     0
 10
0.0
 20
0.0
 30
0.0
  3
*Paper_Space0
  1

  0
ENDBLK
  5
25
330
23
100
AcDbEntity
  8
0
100
AcDbBlockEnd
  0
BLOCK
  5
75
330
74
100
AcDbEntity
  8
0
100
AcDbBlockBegin
  2
ODA_2
 70
     0
 10
0.0
 20
0.0
 30
0.0
  3
ODA_2
  1

  0
LINE
  5
77
330
74
100
AcDbEntity
  8
0
  6
Continuous
 62
     7
370
    18
100
AcDbLine
 10
-10.958767963
 20
2.5
 30
0.0
 11
-5.0
 21
-2.5
 31
0.0
  0
LINE
  5
78
330
74
100
AcDbEntity
  8
0
  6
Continuous
 62
     7
370
    18
100
AcDbLine
 10
-5.0
 20
-2.5
 30
0.0
 11
-5.0
 21
0.0
 31
0.0
  0
LINE
  5
79
330
74
100
AcDbEntity
  8
0
  6
Continuous
 62
     7
370
    18
100
AcDbLine
 10
-5.0
 20
0.0
 30
0.0
 11
5.0
 21
0.0
 31
0.0
  0
LINE
  5
7A
330
74
100
AcDbEntity
  8
0
  6
Continuous
 62
     7
370
    18
100
AcDbLine
 10
5.0
 20
0.0
 30
0.0
 11
5.0
 21
5.0
 31
0.0
  0
LINE
  5
7B
330
74
100
AcDbEntity
  8
0
  6
Continuous
 62
     7
370
    18
100
AcDbLine
 10
5.0
 20
5.0
 30
0.0
 11
-5.0
 21
5.0
 31
0.0
  0
LINE
  5
7C
330
74
100
AcDbEntity
  8
0
  6
Continuous
 62
     7
370
    18
100
AcDbLine
 10
-5.0
 20
5.0
 30
0.0
 11
-5.0
 21
7.5
 31
0.0
  0
LINE
  5
7D
330
74
100
AcDbEntity
  8
0
  6
Continuous
 62
     7
370
    18
100
AcDbLine
 10
-5.0
 20
7.5
 30
0.0
 11
-10.958767963
 21
2.5
 31
0.0
  0
INSERT
  5
83
330
74
100
AcDbEntity
  8
0
  6
Continuous
 62
     7
370
    18
100
AcDbBlockReference
  2
SW_NOTE_0
 10
-7.5124503659
 20
-0.180906557
 30
0.0
  0
ENDBLK
  5
76
330
74
100
AcDbEntity
  8
0
100
AcDbBlockEnd
  0
BLOCK
  5
7F
330
7E
100
AcDbEntity
  8
0
100
AcDbBlockBegin
  2
SW_NOTE_0
 70
     0
 10
0.0
 20
0.0
 30
0.0
  3
SW_NOTE_0
  1

  0
MTEXT
  5
82
330
7E
100
AcDbEntity
  8
0
  6
Continuous
 62
     0
370
    18
100
AcDbMText
 10
0.0
 20
4.7749217527
 30
0.0
 40
3.7041666667
 41
0.0
 71
     1
 72
     1
  1
ODA
  7
SLDTEXTSTYLE0
 73
     1
 44
1.0
  0
ENDBLK
  5
80
330
7E
100
AcDbEntity
  8
0
100
AcDbBlockEnd
  0
BLOCK
  5
85
330
84
100
AcDbEntity
  8
0
100
AcDbBlockBegin
  2
SUP_2_
 70
     0
 10
0.0
 20
0.0
 30
0.0
  3
SUP_2_
  1

  0
LINE
  5
87
330
84
100
AcDbEntity
  8
0
  6
Continuous
 62
     7
370
    18
100
AcDbLine
 10
-10.958767963
 20
2.5
 30
0.0
 11
-5.0
 21
-2.5
 31
0.0
  0
LINE
  5
88
330
84
100
AcDbEntity
  8
0
  6
Continuous
 62
     7
370
    18
100
AcDbLine
 10
-5.0
 20
-2.5
 30
0.0
 11
-5.0
 21
0.0
 31
0.0
  0
LINE
  5
89
330
84
100
AcDbEntity
  8
0
  6
Continuous
 62
     7
370
    18
100
AcDbLine
 10
-5.0
 20
0.0
 30
0.0
 11
5.0
 21
0.0
 31
0.0
  0
LINE
  5
8A
330
84
100
AcDbEntity
  8
0
  6
Continuous
 62
     7
370
    18
100
AcDbLine
 10
5.0
 20
0.0
 30
0.0
 11
5.0
 21
5.0
 31
0.0
  0
LINE
  5
8B
330
84
100
AcDbEntity
  8
0
  6
Continuous
 62
     7
370
    18
100
AcDbLine
 10
5.0
 20
5.0
 30
0.0
 11
-5.0
 21
5.0
 31
0.0
  0
LINE
  5
8C
330
84
100
AcDbEntity
  8
0
  6
Continuous
 62
     7
370
    18
100
AcDbLine
 10
-5.0
 20
5.0
 30
0.0
 11
-5.0
 21
7.5
 31
0.0
  0
LINE
  5
8D
330
84
100
AcDbEntity
  8
0
  6
Continuous
 62
     7
370
    18
100
AcDbLine
 10
-5.0
 20
7.5
 30
0.0
 11
-10.958767963
 21
2.5
 31
0.0
  0
INSERT
  5
92
330
84
100
AcDbEntity
  8
0
  6
Continuous
 62
     7
370
    18
100
AcDbBlockReference
  2
SW_NOTE_0_1
 10
-7.3511146643
 20
-0.194193237
 30
0.0
  0
ENDBLK
  5
86
330
84
100
AcDbEntity
  8
0
100
AcDbBlockEnd
  0
BLOCK
  5
8F
330
8E
100
AcDbEntity
  8
0
100
AcDbBlockBegin
  2
SW_NOTE_0_1
 70
     0
 10
0.0
 20
0.0
 30
0.0
  3
SW_NOTE_0_1
  1

  0
MTEXT
  5
91
330
8E
100
AcDbEntity
  8
0
  6
Continuous
 62
     0
370
    18
100
AcDbMText
 10
0.0
 20
4.7749217527
 30
0.0
 40
3.7041666667
 41
0.0
 71
     1
 72
     1
  1
SUP
  7
SLDTEXTSTYLE0
 73
     1
 44
1.0
  0
ENDBLK
  5
90
330
8E
100
AcDbEntity
  8
0
100
AcDbBlockEnd
  0
BLOCK
  5
94
330
93
100
AcDbEntity
  8
0
100
AcDbBlockBegin
  2
Block11_2
 70
     0
 10
0.0
 20
0.0
 30
0.0
  3
Block11_2
  1

  0
LINE
  5
96
330
93
100
AcDbEntity
  8
0
  6
Continuous
100
AcDbLine
 10
-15.7956326374
 20
2.3055746011
 30
0.0
 11
-18.0649288667
 21
1.8146036087
 31
0.0
  0
LINE
  5
97
330
93
100
AcDbEntity
  8
0
  6
Continuous
100
AcDbLine
 10
-15.6988785554
 20
-9.1195335787
 30
0.0
 11
-10.2261014967
 21
-7.9354771524
 31
0.0
  0
LINE
  5
98
330
93
100
AcDbEntity
  8
0
  6
Continuous
100
AcDbLine
 10
-10.2261014967
 20
-7.9354771524
 30
0.0
 11
-10.6655808869
 21
-5.9041780766
 31
0.0
  0
LINE
  5
99
330
93
100
AcDbEntity
  8
0
  6
Continuous
100
AcDbLine
 10
-10.6655808869
 20
-5.9041780766
 30
0.0
 11
-13.8699456036
 21
-6.5974547429
 31
0.0
  0
LINE
  5
9A
330
93
100
AcDbEntity
  8
0
  6
Continuous
100
AcDbLine
 10
-8.296070931
 20
1.802048972
 30
0.0
 11
-6.9198111955
 21
2.0998080743
 31
0.0
  0
LINE
  5
9B
330
93
100
AcDbEntity
  8
0
  6
Continuous
100
AcDbLine
 10
-5.4333831358
 20
-4.7719736412
 30
0.0
 11
-6.8095376466
 21
-5.0697099777
 31
0.0
  0
LINE
  5
9C
330
93
100
AcDbEntity
  8
0
  6
Continuous
100
AcDbLine
 10
-11.0044904538
 20
3.3421566929
 30
0.0
 11
-8.6388294738
 21
-7.5920647278
 31
0.0
  0
LINE
  5
9D
330
93
100
AcDbEntity
  8
0
  6
Continuous
100
AcDbLine
 10
-8.6388294738
 20
-7.5920647278
 30
0.0
 11
-8.6384401425
 21
-7.5919804944
 31
0.0
  0
LINE
  5
9E
330
93
100
AcDbEntity
  8
0
  6
Continuous
100
AcDbLine
 10
-8.6384401425
 20
-7.5919804944
 30
0.0
 11
-4.4940245505
 21
-6.6953201952
 31
0.0
  0
LINE
  5
9F
330
93
100
AcDbEntity
  8
0
  6
Continuous
100
AcDbLine
 10
-6.8595855671
 20
4.238922853
 30
0.0
 11
-11.0044904538
 21
3.3421566929
 31
0.0
  0
LINE
  5
A0
330
93
100
AcDbEntity
  8
0
  6
Continuous
100
AcDbLine
 10
-32.9933593229
 20
-3.3005605139
 30
0.0
 11
-32.8591663041
 21
-3.2715273367
 31
0.0
  0
LINE
  5
A1
330
93
100
AcDbEntity
  8
0
  6
Continuous
100
AcDbLine
 10
-31.5697721187
 20
-3.9678201523
 30
0.0
 11
-29.2969561243
 21
-3.4760876451
 31
0.0
  0
LINE
  5
A2
330
93
100
AcDbEntity
  8
0
  6
Continuous
100
AcDbLine
 10
-33.2794920496
 20
-1.2667721217
 30
0.0
 11
-33.3448839193
 21
-1.2809199049
 31
0.0
  0
LINE
  5
A3
330
93
100
AcDbEntity
  8
0
  6
Continuous
100
AcDbLine
 10
-31.3289079349
 20
-10.5856399919
 30
0.0
 11
-31.4650581325
 21
-10.6150966123
 31
0.0
  0
LINE
  5
A4
330
93
100
AcDbEntity
  8
0
  6
Continuous
100
AcDbLine
 10
-32.8822392925
 20
-9.9377601564
 30
0.0
 11
-35.1888692339
 21
-10.4368084414
 31
0.0
  0
LINE
  5
A5
330
93
100
AcDbEntity
  8
0
  6
Continuous
100
AcDbLine
 10
-31.5949683304
 20
-12.7295787952
 30
0.0
 11
-30.2063920476
 21
-12.4291549603
 31
0.0
  0
LINE
  5
A6
330
93
100
AcDbEntity
  8
0
  6
Continuous
100
AcDbLine
 10
6.262509235
 20
-4.3681026205
 30
0.0
 11
8.6370616994
 21
-3.8543590356
 31
0.0
  0
LINE
  5
A7
330
93
100
AcDbEntity
  8
0
  6
Continuous
100
AcDbLine
 10
8.6370616994
 20
-3.8543590356
 30
0.0
 11
3.9059396663
 21
6.5680857621
 31
0.0
  0
LINE
  5
A8
330
93
100
AcDbEntity
  8
0
  6
Continuous
100
AcDbLine
 10
3.9059396663
 20
6.5680857621
 30
0.0
 11
0.0
 21
5.7230206493
 31
0.0
  0
LINE
  5
A9
330
93
100
AcDbEntity
  8
0
  6
Continuous
100
AcDbLine
 10
0.0
 20
5.7230206493
 30
0.0
 11
0.0
 21
-5.7230206493
 31
0.0
  0
LINE
  5
AA
330
93
100
AcDbEntity
  8
0
  6
Continuous
100
AcDbLine
 10
0.0
 20
-5.7230206493
 30
0.0
 11
2.3746576891
 21
-5.2092542987
 31
0.0
  0
LINE
  5
AB
330
93
100
AcDbEntity
  8
0
  6
Continuous
100
AcDbLine
 10
2.3746576891
 20
-5.2092542987
 30
0.0
 11
2.3747844598
 21
-3.0912381741
 31
0.0
  0
LINE
  5
AC
330
93
100
AcDbEntity
  8
0
  6
Continuous
100
AcDbLine
 10
2.3747844598
 20
-3.0912381741
 30
0.0
 11
4.0318309599
 21
-2.7327297722
 31
0.0
  0
LINE
  5
AD
330
93
100
AcDbEntity
  8
0
  6
Continuous
100
AcDbLine
 10
4.0318309599
 20
-2.7327297722
 30
0.0
 11
3.5923515697
 21
-0.7014306964
 31
0.0
  0
LINE
  5
AE
330
93
100
AcDbEntity
  8
0
  6
Continuous
100
AcDbLine
 10
3.5923515697
 20
-0.7014306964
 30
0.0
 11
2.3750284336
 21
-0.9648032524
 31
0.0
  0
LINE
  5
AF
330
93
100
AcDbEntity
  8
0
  6
Continuous
100
AcDbLine
 10
2.3750284336
 20
-0.9648032524
 30
0.0
 11
2.3752084601
 21
4.1936873712
 31
0.0
  0
LINE
  5
B0
330
93
100
AcDbEntity
  8
0
  6
Continuous
100
AcDbLine
 10
2.3752084601
 20
4.1936873712
 30
0.0
 11
6.262509235
 21
-4.3681026205
 31
0.0
  0
LINE
  5
B1
330
93
100
AcDbEntity
  8
0
  6
Continuous
100
AcDbLine
 10
-53.0629352118
 20
-11.4801779454
 30
0.0
 11
-50.7945341276
 21
-8.0228043203
 31
0.0
  0
LINE
  5
B2
330
93
100
AcDbEntity
  8
0
  6
Continuous
100
AcDbLine
 10
-50.7945341276
 20
-8.0228043203
 30
0.0
 11
-54.2891069366
 21
-5.8122833411
 31
0.0
  0
LINE
  5
B3
330
93
100
AcDbEntity
  8
0
  6
Continuous
100
AcDbLine
 10
-54.2891069366
 20
-5.8122833411
 30
0.0
 11
-51.4073820962
 21
-5.1888110564
 31
0.0
  0
LINE
  5
B4
330
93
100
AcDbEntity
  8
0
  6
Continuous
100
AcDbLine
 10
-51.4073820962
 20
-5.1888110564
 30
0.0
 11
-47.9127327975
 21
-7.3992273667
 31
0.0
  0
LINE
  5
B5
330
93
100
AcDbEntity
  8
0
  6
Continuous
100
AcDbLine
 10
-47.9127327975
 20
-7.3992273667
 30
0.0
 11
-50.1813587974
 21
-10.8569360435
 31
0.0
  0
LINE
  5
B6
330
93
100
AcDbEntity
  8
0
  6
Continuous
100
AcDbLine
 10
-50.1813587974
 20
-10.8569360435
 30
0.0
 11
-53.0628942334
 21
-11.4803673498
 31
0.0
  0
LINE
  5
B7
330
93
100
AcDbEntity
  8
0
  6
Continuous
100
AcDbLine
 10
-53.0628942334
 20
-11.4803673498
 30
0.0
 11
-53.0629352118
 21
-11.4801779454
 31
0.0
  0
LINE
  5
B8
330
93
100
AcDbEntity
  8
0
  6
Continuous
100
AcDbLine
 10
-42.7624916815
 20
-3.31845567
 30
0.0
 11
-45.0307950789
 21
-6.7757971452
 31
0.0
  0
LINE
  5
B9
330
93
100
AcDbEntity
  8
0
  6
Continuous
100
AcDbLine
 10
-45.0307950789
 20
-6.7757971452
 30
0.0
 11
-48.5254573289
 21
-4.5652955168
 31
0.0
  0
LINE
  5
BA
330
93
100
AcDbEntity
  8
0
  6
Continuous
100
AcDbLine
 10
-48.5254573289
 20
-4.5652955168
 30
0.0
 11
-48.5257466967
 21
-4.5653581227
 31
0.0
  0
LINE
  5
BB
330
93
100
AcDbEntity
  8
0
  6
Continuous
100
AcDbLine
 10
-48.5257466967
 20
-4.5653581227
 30
0.0
 11
-47.9126146215
 21
-7.399289919
 31
0.0
  0
LINE
  5
BC
330
93
100
AcDbEntity
  8
0
  6
Continuous
100
AcDbLine
 10
-47.9126146215
 20
-7.399289919
 30
0.0
 11
-44.4177372167
 21
-9.6098441329
 31
0.0
  0
LINE
  5
BD
330
93
100
AcDbEntity
  8
0
  6
Continuous
100
AcDbLine
 10
-44.4177372167
 20
-9.6098441329
 30
0.0
 11
-42.1490649772
 21
-6.1523237222
 31
0.0
  0
LINE
  5
BE
330
93
100
AcDbEntity
  8
0
  6
Continuous
100
AcDbLine
 10
-42.1490649772
 20
-6.1523237222
 30
0.0
 11
-42.7621970524
 21
-3.3183919259
 31
0.0
  0
LINE
  5
BF
330
93
100
AcDbEntity
  8
0
  6
Continuous
100
AcDbLine
 10
-42.7621970524
 20
-3.3183919259
 30
0.0
 11
-42.7624916815
 21
-3.31845567
 31
0.0
  0
LINE
  5
C0
330
93
100
AcDbEntity
  8
0
  6
Continuous
100
AcDbLine
 10
-41.535889647
 20
-8.9864554454
 30
0.0
 11
-43.8045413973
 21
-12.4440705583
 31
0.0
  0
LINE
  5
C1
330
93
100
AcDbEntity
  8
0
  6
Continuous
100
AcDbLine
 10
-43.8045413973
 20
-12.4440705583
 30
0.0
 11
-40.3564529382
 21
-14.625159785
 31
0.0
  0
LINE
  5
C2
330
93
100
AcDbEntity
  8
0
  6
Continuous
100
AcDbLine
 10
-40.3564529382
 20
-14.625159785
 30
0.0
 11
-43.2382724808
 21
-15.2486525588
 31
0.0
  0
LINE
  5
C3
330
93
100
AcDbEntity
  8
0
  6
Continuous
100
AcDbLine
 10
-43.2382724808
 20
-15.2486525588
 30
0.0
 11
-46.686243472
 21
-13.0676480676
 31
0.0
  0
LINE
  5
C4
330
93
100
AcDbEntity
  8
0
  6
Continuous
100
AcDbLine
 10
-46.686243472
 20
-13.0676480676
 30
0.0
 11
-44.4177144509
 21
-9.6099493576
 31
0.0
  0
LINE
  5
C5
330
93
100
AcDbEntity
  8
0
  6
Continuous
100
AcDbLine
 10
-44.4177144509
 20
-9.6099493576
 30
0.0
 11
-41.535889647
 21
-8.9864554454
 31
0.0
  0
LINE
  5
C6
330
93
100
AcDbEntity
  8
0
  6
Continuous
100
AcDbLine
 10
-51.8063383656
 20
-17.1023866618
 30
0.0
 11
-49.5681857438
 21
-13.6910572443
 31
0.0
  0
LINE
  5
C7
330
93
100
AcDbEntity
  8
0
  6
Continuous
100
AcDbLine
 10
-49.5681857438
 20
-13.6910572443
 30
0.0
 11
-46.1199973213
 21
-15.8721248435
 31
0.0
  0
LINE
  5
C8
330
93
100
AcDbEntity
  8
0
  6
Continuous
100
AcDbLine
 10
-46.1199973213
 20
-15.8721248435
 30
0.0
 11
-46.0813956519
 21
-15.8637732234
 31
0.0
  0
LINE
  5
C9
330
93
100
AcDbEntity
  8
0
  6
Continuous
100
AcDbLine
 10
-46.0813956519
 20
-15.8637732234
 30
0.0
 11
-46.6863662012
 21
-13.0675644704
 31
0.0
  0
LINE
  5
CA
330
93
100
AcDbEntity
  8
0
  6
Continuous
100
AcDbLine
 10
-46.6863662012
 20
-13.0675644704
 30
0.0
 11
-50.1813587974
 21
-10.8569360435
 31
0.0
  0
LINE
  5
CB
330
93
100
AcDbEntity
  8
0
  6
Continuous
100
AcDbLine
 10
-50.1813587974
 20
-10.8569360435
 30
0.0
 11
-52.4497621582
 21
-14.3142991462
 31
0.0
  0
LINE
  5
CC
330
93
100
AcDbEntity
  8
0
  6
Continuous
100
AcDbLine
 10
-52.4497621582
 20
-14.3142991462
 30
0.0
 11
-51.8447506306
 21
-17.1106973035
 31
0.0
  0
LINE
  5
CD
330
93
100
AcDbEntity
  8
0
  6
Continuous
100
AcDbLine
 10
-51.8447506306
 20
-17.1106973035
 30
0.0
 11
-51.8063383656
 21
-17.1023866618
 31
0.0
  0
LINE
  5
CE
330
93
100
AcDbEntity
  8
0
  6
Continuous
100
AcDbLine
 10
-20.0432683672
 20
-10.0594590717
 30
0.0
 11
-17.6687053803
 21
-9.5457132103
 31
0.0
  0
LINE
  5
CF
330
93
100
AcDbEntity
  8
0
  6
Continuous
100
AcDbLine
 10
-17.6687053803
 20
-9.5457132103
 30
0.0
 11
-22.3998379359
 21
0.8767293109
 31
0.0
  0
LINE
  5
D0
330
93
100
AcDbEntity
  8
0
  6
Continuous
100
AcDbLine
 10
-22.3998379359
 20
0.8767293109
 30
0.0
 11
-26.3058670432
 21
0.0316448472
 31
0.0
  0
LINE
  5
D1
330
93
100
AcDbEntity
  8
0
  6
Continuous
100
AcDbLine
 10
-26.3058670432
 20
0.0316448472
 30
0.0
 11
-26.3056723775
 21
-11.4143543348
 31
0.0
  0
LINE
  5
D2
330
93
100
AcDbEntity
  8
0
  6
Continuous
100
AcDbLine
 10
-26.3056723775
 20
-11.4143543348
 30
0.0
 11
-23.9311146519
 21
-10.9006096116
 31
0.0
  0
LINE
  5
D3
330
93
100
AcDbEntity
  8
0
  6
Continuous
100
AcDbLine
 10
-23.9311146519
 20
-10.9006096116
 30
0.0
 11
-23.9309931424
 21
-8.7825946253
 31
0.0
  0
LINE
  5
D4
330
93
100
AcDbEntity
  8
0
  6
Continuous
100
AcDbLine
 10
-23.9309931424
 20
-8.7825946253
 30
0.0
 11
-22.2738308951
 21
-8.4240611811
 31
0.0
  0
LINE
  5
D5
330
93
100
AcDbEntity
  8
0
  6
Continuous
100
AcDbLine
 10
-22.2738308951
 20
-8.4240611811
 30
0.0
 11
-22.7133102854
 21
-6.3927621053
 31
0.0
  0
LINE
  5
D6
330
93
100
AcDbEntity
  8
0
  6
Continuous
100
AcDbLine
 10
-22.7133102854
 20
-6.3927621053
 30
0.0
 11
-23.9308333483
 21
-6.6561779162
 31
0.0
  0
LINE
  5
D7
330
93
100
AcDbEntity
  8
0
  6
Continuous
100
AcDbLine
 10
-23.9308333483
 20
-6.6561779162
 30
0.0
 11
-23.9305586196
 21
-1.4976668035
 31
0.0
  0
LINE
  5
D8
330
93
100
AcDbEntity
  8
0
  6
Continuous
100
AcDbLine
 10
-23.9305586196
 20
-1.4976668035
 30
0.0
 11
-20.0432683672
 21
-10.0594590717
 31
0.0
  0
SPLINE
  5
D9
330
93
100
AcDbEntity
  8
0
100
AcDbSpline
210
0.0
220
0.0
230
1.0
 70
     8
 71
     3
 72
     8
 73
     4
 74
     0
 42
0.00000001
 43
0.00000001
 40
0.0
 40
0.0
 40
0.0
 40
0.0
 40
1.0
 40
1.0
 40
1.0
 40
1.0
 10
-13.86994560355125
 20
-6.597454742918429
 30
0.0
 10
-13.88373254946556
 20
-6.53373068413859
 30
0.0
 10
-15.11365515797402
 20
-0.8489574873494021
 30
0.0
 10
-15.79563263740206
 20
2.305574601061459
 30
0.0
  0
SPLINE
  5
DA
330
93
100
AcDbEntity
  8
0
100
AcDbSpline
210
0.0
220
0.0
230
1.0
 70
     8
 71
     3
 72
     8
 73
     4
 74
     0
 42
0.00000001
 43
0.00000001
 40
2.0
 40
2.0
 40
2.0
 40
2.0
 40
3.0
 40
3.0
 40
3.0
 40
3.0
 10
-18.06492886668426
 20
1.814603608696524
 30
0.0
 10
-17.24003965005502
 20
-1.995739949107536
 30
0.0
 10
-15.71186186991051
 20
-9.059523950669432
 30
0.0
 10
-15.69887855542093
 20
-9.119533578677906
 30
0.0
  0
SPLINE
  5
DB
330
93
100
AcDbEntity
  8
0
100
AcDbSpline
210
0.0
220
0.0
230
1.0
 70
     8
 71
     3
 72
     8
 73
     4
 74
     0
 42
0.00000001
 43
0.00000001
 40
0.0
 40
0.0
 40
0.0
 40
0.0
 40
1.0
 40
1.0
 40
1.0
 40
1.0
 10
-6.809537646582547
 20
-5.069709977697404
 30
0.0
 10
-7.284290309572815
 20
-2.875375801708635
 30
0.0
 10
-7.897830097865885
 20
-0.0390758678013329
 30
0.0
 10
-8.296070930952649
 20
1.80204897196991
 30
0.0
  0
SPLINE
  5
DC
330
93
100
AcDbEntity
  8
0
100
AcDbSpline
210
0.0
220
0.0
230
1.0
 70
     8
 71
     3
 72
     8
 73
     4
 74
     0
 42
0.00000001
 43
0.00000001
 40
2.0
 40
2.0
 40
2.0
 40
2.0
 40
3.0
 40
3.0
 40
3.0
 40
3.0
 10
-6.919811195494074
 20
2.099808074263809
 30
0.0
 10
-6.228016878711183
 20
2.249480443098069
 30
0.0
 10
-5.547633595833446
 20
1.815851349115847
 30
0.0
 10
-5.399398884916104
 20
1.130701970100344
 30
0.0
  0
SPLINE
  5
DD
330
93
100
AcDbEntity
  8
0
100
AcDbSpline
210
0.0
220
0.0
230
1.0
 70
     8
 71
     3
 72
     8
 73
     4
 74
     0
 42
0.00000001
 43
0.00000001
 40
3.0
 40
3.0
 40
3.0
 40
3.0
 40
4.0
 40
4.0
 40
4.0
 40
4.0
 10
-5.399398884916104
 20
1.130701970100344
 30
0.0
 10
-5.107009087764085
 20
-0.2207405274728672
 30
0.0
 10
-4.711497421058354
 20
-2.048334586467611
 30
0.0
 10
-4.449160707297047
 20
-3.260870000165379
 30
0.0
  0
SPLINE
  5
DE
330
93
100
AcDbEntity
  8
0
100
AcDbSpline
210
0.0
220
0.0
230
1.0
 70
     8
 71
     3
 72
     8
 73
     4
 74
     0
 42
0.00000001
 43
0.00000001
 40
4.0
 40
4.0
 40
4.0
 40
4.0
 40
5.0
 40
5.0
 40
5.0
 40
5.0
 10
-4.449160707297047
 20
-3.260870000165379
 30
0.0
 10
-4.300905507193207
 20
-3.946114081381999
 30
0.0
 10
-4.741570606399121
 20
-4.622385452066122
 30
0.0
 10
-5.433383135791953
 20
-4.771973641166296
 30
0.0
  0
SPLINE
  5
DF
330
93
100
AcDbEntity
  8
0
100
AcDbSpline
210
0.0
220
0.0
230
1.0
 70
     8
 71
     3
 72
     8
 73
     4
 74
     0
 42
0.00000001
 43
0.00000001
 40
3.0
 40
3.0
 40
3.0
 40
3.0
 40
4.0
 40
4.0
 40
4.0
 40
4.0
 10
-4.494024550545999
 20
-6.695320195210662
 30
0.0
 10
-2.825524345390513
 20
-6.334333740063992
 30
0.0
 10
-1.762658323115034
 20
-4.702068307882374
 30
0.0
 10
-2.120071189640999
 20
-3.049576315093403
 30
0.0
  0
SPLINE
  5
E0
330
93
100
AcDbEntity
  8
0
100
AcDbSpline
210
0.0
220
0.0
230
1.0
 70
     8
 71
     3
 72
     8
 73
     4
 74
     0
 42
0.00000001
 43
0.00000001
 40
4.0
 40
4.0
 40
4.0
 40
4.0
 40
5.0
 40
5.0
 40
5.0
 40
5.0
 10
-2.120071189640999
 20
-3.049576315093403
 30
0.0
 10
-2.485983017556096
 20
-1.358310753073632
 30
0.0
 10
-2.867352798370483
 20
0.4044023583376265
 30
0.0
 10
-3.190995488197396
 20
1.900704823656681
 30
0.0
  0
SPLINE
  5
E1
330
93
100
AcDbEntity
  8
0
100
AcDbSpline
210
0.0
220
0.0
230
1.0
 70
     8
 71
     3
 72
     8
 73
     4
 74
     0
 42
0.00000001
 43
0.00000001
 40
5.0
 40
5.0
 40
5.0
 40
5.0
 40
6.0
 40
6.0
 40
6.0
 40
6.0
 10
-3.190995488197396
 20
1.900704823656681
 30
0.0
 10
-3.54857504695031
 20
3.553458157285876
 30
0.0
 10
-5.190901218780231
 20
4.599949148191988
 30
0.0
 10
-6.859585567104196
 20
4.238922852960538
 30
0.0
  0
SPLINE
  5
E2
330
93
100
AcDbEntity
  8
0
100
AcDbSpline
210
0.0
220
0.0
230
1.0
 70
     8
 71
     3
 72
     8
 73
     4
 74
     0
 42
0.00000001
 43
0.00000001
 40
0.0
 40
0.0
 40
0.0
 40
0.0
 40
1.0
 40
1.0
 40
1.0
 40
1.0
 10
-30.23703582864644
 20
-6.251438951366732
 30
0.0
 10
-30.9104300186728
 20
-6.015603382360459
 30
0.0
 10
-31.40848551125485
 20
-5.893156856121871
 30
0.0
 10
-32.67210357750635
 20
-5.496689523479785
 30
0.0
  0
SPLINE
  5
E3
330
93
100
AcDbEntity
  8
0
100
AcDbSpline
210
0.0
220
0.0
230
1.0
 70
     8
 71
     3
 72
     8
 73
     4
 74
     0
 42
0.00000001
 43
0.00000001
 40
1.0
 40
1.0
 40
1.0
 40
1.0
 40
2.0
 40
2.0
 40
2.0
 40
2.0
 10
-32.67210357750635
 20
-5.496689523479785
 30
0.0
 10
-33.03332194555517
 20
-5.383421617718132
 30
0.0
 10
-33.81210282496122
 20
-5.206692347750555
 30
0.0
 10
-33.94849250952588
 20
-4.576291363356936
 30
0.0
  0
SPLINE
  5
E4
330
93
100
AcDbEntity
  8
0
100
AcDbSpline
210
0.0
220
0.0
230
1.0
 70
     8
 71
     3
 72
     8
 73
     4
 74
     0
 42
0.00000001
 43
0.00000001
 40
2.0
 40
2.0
 40
2.0
 40
2.0
 40
3.0
 40
3.0
 40
3.0
 40
3.0
 10
-33.94849250952588
 20
-4.576291363356936
 30
0.0
 10
-34.11622381965225
 20
-3.801027578894063
 30
0.0
 10
-33.67528356585564
 20
-3.448097454184924
 30
0.0
 10
-32.99335932290604
 20
-3.30056051389548
 30
0.0
  0
SPLINE
  5
E5
330
93
100
AcDbEntity
  8
0
100
AcDbSpline
210
0.0
220
0.0
230
1.0
 70
     8
 71
     3
 72
     8
 73
     4
 74
     0
 42
0.00000001
 43
0.00000001
 40
4.0
 40
4.0
 40
4.0
 40
4.0
 40
5.0
 40
5.0
 40
5.0
 40
5.0
 10
-32.85916630414497
 20
-3.271527336675416
 30
0.0
 10
-32.2786944245911
 20
-3.14594000653005
 30
0.0
 10
-31.77109773641243
 20
-3.328116480283148
 30
0.0
 10
-31.56977211870437
 20
-3.967820152272103
 30
0.0
  0
SPLINE
  5
E6
330
93
100
AcDbEntity
  8
0
100
AcDbSpline
210
0.0
220
0.0
230
1.0
 70
     8
 71
     3
 72
     8
 73
     4
 74
     0
 42
0.00000001
 43
0.00000001
 40
6.0
 40
6.0
 40
6.0
 40
6.0
 40
7.0
 40
7.0
 40
7.0
 40
7.0
 10
-29.29695612428625
 20
-3.476087645143529
 30
0.0
 10
-29.68810071971012
 20
-1.866802583842748
 30
0.0
 10
-30.87776107222441
 20
-0.7599478056671497
 30
0.0
 10
-33.27949204955325
 20
-1.266772121690862
 30
0.0
  0
SPLINE
  5
E7
330
93
100
AcDbEntity
  8
0
100
AcDbSpline
210
0.0
220
0.0
230
1.0
 70
     8
 71
     3
 72
     8
 73
     4
 74
     0
 42
0.00000001
 43
0.00000001
 40
8.0
 40
8.0
 40
8.0
 40
8.0
 40
9.0
 40
9.0
 40
9.0
 40
9.0
 10
-33.34488391931659
 20
-1.280919904944554
 30
0.0
 10
-35.81152992452102
 20
-1.828202838410209
 30
0.0
 10
-36.33378487826545
 20
-3.54465012997844
 30
0.0
 10
-36.09207577942843
 20
-4.962606301827474
 30
0.0
  0
SPLINE
  5
E8
330
93
100
AcDbEntity
  8
0
100
AcDbSpline
210
0.0
220
0.0
230
1.0
 70
     8
 71
     3
 72
     8
 73
     4
 74
     0
 42
0.00000001
 43
0.00000001
 40
9.0
 40
9.0
 40
9.0
 40
9.0
 40
10.0
 40
10.0
 40
10.0
 40
10.0
 10
-36.09207577942843
 20
-4.962606301827474
 30
0.0
 10
-35.83736690020325
 20
-6.457652824126185
 30
0.0
 10
-34.96800490008025
 20
-7.196828812263726
 30
0.0
 10
-33.99931718292642
 20
-7.502708028683521
 30
0.0
  0
SPLINE
  5
E9
330
93
100
AcDbEntity
  8
0
100
AcDbSpline
210
0.0
220
0.0
230
1.0
 70
     8
 71
     3
 72
     8
 73
     4
 74
     0
 42
0.00000001
 43
0.00000001
 40
10.0
 40
10.0
 40
10.0
 40
10.0
 40
11.0
 40
11.0
 40
11.0
 40
11.0
 10
-33.99931718292642
 20
-7.502708028683521
 30
0.0
 10
-33.40907414696034
 20
-7.689011641945549
 30
0.0
 10
-32.48616403135102
 20
-7.975318844696811
 30
0.0
 10
-31.47547483016511
 20
-8.271505052332133
 30
0.0
  0
SPLINE
  5
EA
330
93
100
AcDbEntity
  8
0
100
AcDbSpline
210
0.0
220
0.0
230
1.0
 70
     8
 71
     3
 72
     8
 73
     4
 74
     0
 42
0.00000001
 43
0.00000001
 40
11.0
 40
11.0
 40
11.0
 40
11.0
 40
12.0
 40
12.0
 40
12.0
 40
12.0
 10
-31.47547483016511
 20
-8.271505052332133
 30
0.0
 10
-31.11213516930565
 20
-8.377980375833697
 30
0.0
 10
-30.40258052645035
 20
-8.55729511966404
 30
0.0
 10
-30.28870163819746
 20
-9.336631754491275
 30
0.0
  0
SPLINE
  5
EB
330
93
100
AcDbEntity
  8
0
100
AcDbSpline
210
0.0
220
0.0
230
1.0
 70
     8
 71
     3
 72
     8
 73
     4
 74
     0
 42
0.00000001
 43
0.00000001
 40
12.0
 40
12.0
 40
12.0
 40
12.0
 40
13.0
 40
13.0
 40
13.0
 40
13.0
 10
-30.28870163819746
 20
-9.336631754491275
 30
0.0
 10
-30.1883718252622
 20
-10.02498578462436
 30
0.0
 10
-30.64014408852681
 20
-10.43662327702193
 30
0.0
 10
-31.32890793487913
 20
-10.58563999188937
 30
0.0
  0
SPLINE
  5
EC
330
93
100
AcDbEntity
  8
0
100
AcDbSpline
210
0.0
220
0.0
230
1.0
 70
     8
 71
     3
 72
     8
 73
     4
 74
     0
 42
0.00000001
 43
0.00000001
 40
14.0
 40
14.0
 40
14.0
 40
14.0
 40
15.0
 40
15.0
 40
15.0
 40
15.0
 10
-31.46505813246006
 20
-10.61509661229636
 30
0.0
 10
-32.05208024758041
 20
-10.74210111117219
 30
0.0
 10
-32.71260096537058
 20
-10.55064660173623
 30
0.0
 10
-32.8822392924921
 20
-9.937760156430087
 30
0.0
  0
SPLINE
  5
ED
330
93
100
AcDbEntity
  8
0
100
AcDbSpline
210
0.0
220
0.0
230
1.0
 70
     8
 71
     3
 72
     8
 73
     4
 74
     0
 42
0.00000001
 43
0.00000001
 40
16.0
 40
16.0
 40
16.0
 40
16.0
 40
17.0
 40
17.0
 40
17.0
 40
17.0
 10
-35.1888692338865
 20
-10.43680844141459
 30
0.0
 10
-34.81471685749703
 20
-11.8843133271045
 30
0.0
 10
-33.72975075395794
 20
-12.95131992706823
 30
0.0
 10
-31.59496833044066
 20
-12.72957879515504
 30
0.0
  0
SPLINE
  5
EE
330
93
100
AcDbEntity
  8
0
100
AcDbSpline
210
0.0
220
0.0
230
1.0
 70
     8
 71
     3
 72
     8
 73
     4
 74
     0
 42
0.00000001
 43
0.00000001
 40
18.0
 40
18.0
 40
18.0
 40
18.0
 40
19.0
 40
19.0
 40
19.0
 40
19.0
 10
-30.20639204762402
 20
-12.42915496033268
 30
0.0
 10
-28.36320980349184
 20
-11.79454394754582
 30
0.0
 10
-27.78707037380765
 20
-10.41512978795686
 30
0.0
 10
-27.91988511866083
 20
-9.073464993912006
 30
0.0
  0
SPLINE
  5
EF
330
93
100
AcDbEntity
  8
0
100
AcDbSpline
210
0.0
220
0.0
230
1.0
 70
     8
 71
     3
 72
     8
 73
     4
 74
     0
 42
0.00000001
 43
0.00000001
 40
19.0
 40
19.0
 40
19.0
 40
19.0
 40
20.0
 40
20.0
 40
20.0
 40
20.0
 10
-27.91988511866083
 20
-9.073464993912006
 30
0.0
 10
-28.12563217330358
 20
-6.994152508733083
 30
0.0
 10
-29.51271678483619
 20
-6.50510505043454
 30
0.0
 10
-30.23703582864644
 20
-6.251438951366732
 30
0.0
  0
HATCH
  5
F0
330
93
100
AcDbEntity
  8
0
100
AcDbHatch
 10
0.0
 20
0.0
 30
0.0
210
0.0
220
0.0
230
1.0
  2
SOLID
 70
     1
 71
     0
 91
        1
 92
        0
 93
        7
 72
     1
 10
-53.06293521179145
 20
-11.48017794540906
 11
-53.0628942334185
 21
-11.48036734981106
 72
     1
 10
-53.0628942334185
 20
-11.48036734981106
 11
-50.18135879739363
 21
-10.85693604353014
 72
     1
 10
-50.18135879739363
 20
-10.85693604353014
 11
-47.91273279754322
 21
-7.399227366744369
 72
     1
 10
-47.91273279754322
 20
-7.399227366744369
 11
-51.40738209617635
 21
-5.188811056417426
 72
     1
 10
-51.40738209617635
 20
-5.188811056417426
 11
-54.28910693660305
 21
-5.812283341071309
 72
     1
 10
-54.28910693660305
 20
-5.812283341071309
 11
-50.79453412756107
 21
-8.022804320319173
 72
     1
 10
-50.79453412756107
 20
-8.022804320319173
 11
-53.06293521179145
 21
-11.48017794540906
 97
        0
 75
     0
 76
     1
 98
        1
 10
0.0
 20
0.0
  0
HATCH
  5
F1
330
93
100
AcDbEntity
  8
0
100
AcDbHatch
 10
0.0
 20
0.0
 30
0.0
210
0.0
220
0.0
230
1.0
  2
SOLID
 70
     1
 71
     0
 91
        1
 92
        0
 93
        6
 72
     1
 10
-41.53588964704281
 20
-8.986455445432597
 11
-44.41771445090438
 21
-9.609949357561213
 72
     1
 10
-44.41771445090438
 20
-9.609949357561213
 11
-46.68624347197728
 21
-13.06764806762683
 72
     1
 10
-46.68624347197728
 20
-13.06764806762683
 11
-43.23827248082917
 21
-15.24865255879992
 72
     1
 10
-43.23827248082917
 20
-15.24865255879992
 11
-40.35645293820115
 21
-14.62515978495947
 72
     1
 10
-40.35645293820115
 20
-14.62515978495947
 11
-43.80454139731328
 21
-12.44407055830516
 72
     1
 10
-43.80454139731328
 20
-12.44407055830516
 11
-41.53588964704281
 21
-8.986455445432597
 97
        0
 75
     0
 76
     1
 98
        1
 10
0.0
 20
0.0
  0
HATCH
  5
F2
330
93
100
AcDbEntity
  8
0
100
AcDbHatch
 10
0.0
 20
0.0
 30
0.0
210
0.0
220
0.0
230
1.0
  2
SOLID
 70
     1
 71
     0
 91
        1
 92
        0
 93
       20
 72
     4
 94
        3
 73
     1
 74
     0
 95
        8
 96
        4
 40
18.0
 40
18.0
 40
18.0
 40
18.0
 40
19.0
 40
19.0
 40
19.0
 40
19.0
 10
-30.20639204762402
 20
-12.42915496033267
 42
1.0
 10
-28.36320980349188
 20
-11.79454394754584
 42
1.0
 10
-27.78707037380775
 20
-10.41512978795687
 42
1.0
 10
-27.91988511866085
 20
-9.073464993912015
 42
1.0
 72
     4
 94
        3
 73
     1
 74
     0
 95
        8
 96
        4
 40
19.0
 40
19.0
 40
19.0
 40
19.0
 40
20.0
 40
20.0
 40
20.0
 40
20.0
 10
-27.91988511866085
 20
-9.073464993912015
 42
1.0
 10
-28.1256321733036
 20
-6.994152508733093
 42
1.0
 10
-29.51271678483624
 20
-6.505105050434554
 42
1.0
 10
-30.23703582864647
 20
-6.251438951366739
 42
1.0
 72
     4
 94
        3
 73
     1
 74
     0
 95
        8
 96
        4
 40
0.0
 40
0.0
 40
0.0
 40
0.0
 40
1.0
 40
1.0
 40
1.0
 40
1.0
 10
-30.23703582864647
 20
-6.251438951366739
 42
1.0
 10
-30.91043001867278
 20
-6.015603382360466
 42
1.0
 10
-31.40848551125484
 20
-5.893156856121866
 42
1.0
 10
-32.67210357750633
 20
-5.496689523479784
 42
1.0
 72
     4
 94
        3
 73
     1
 74
     0
 95
        8
 96
        4
 40
1.0
 40
1.0
 40
1.0
 40
1.0
 40
2.0
 40
2.0
 40
2.0
 40
2.0
 10
-32.67210357750633
 20
-5.496689523479784
 42
1.0
 10
-33.03332194555515
 20
-5.383421617718138
 42
1.0
 10
-33.81210282496121
 20
-5.206692347750558
 42
1.0
 10
-33.94849250952591
 20
-4.576291363356954
 42
1.0
 72
     4
 94
        3
 73
     1
 74
     0
 95
        8
 96
        4
 40
2.0
 40
2.0
 40
2.0
 40
2.0
 40
3.0
 40
3.0
 40
3.0
 40
3.0
 10
-33.94849250952591
 20
-4.576291363356954
 42
1.0
 10
-34.11622381965228
 20
-3.801027578894066
 42
1.0
 10
-33.67528356585566
 20
-3.448097454184939
 42
1.0
 10
-32.99335932290605
 20
-3.300560513895483
 42
1.0
 72
     1
 10
-32.99335932290605
 20
-3.300560513895483
 11
-32.85916630414502
 21
-3.271527336675422
 72
     4
 94
        3
 73
     1
 74
     0
 95
        8
 96
        4
 40
4.0
 40
4.0
 40
4.0
 40
4.0
 40
5.0
 40
5.0
 40
5.0
 40
5.0
 10
-32.85916630414502
 20
-3.271527336675422
 42
1.0
 10
-32.27869442459117
 20
-3.145940006530068
 42
1.0
 10
-31.77109773641243
 20
-3.328116480283154
 42
1.0
 10
-31.5697721187044
 20
-3.967820152272114
 42
1.0
 72
     1
 10
-31.5697721187044
 20
-3.967820152272114
 11
-29.29695612428624
 21
-3.476087645143523
 72
     4
 94
        3
 73
     1
 74
     0
 95
        8
 96
        4
 40
6.0
 40
6.0
 40
6.0
 40
6.0
 40
7.0
 40
7.0
 40
7.0
 40
7.0
 10
-29.2969561242863
 20
-3.476087645143538
 42
1.0
 10
-29.6881007197101
 20
-1.866802583842747
 42
1.0
 10
-30.87776107222446
 20
-0.7599478056671519
 42
1.0
 10
-33.27949204955327
 20
-1.266772121690873
 42
1.0
 72
     1
 10
-33.27949204955321
 20
-1.266772121690857
 11
-33.3448839193166
 21
-1.280919904944549
 72
     4
 94
        3
 73
     1
 74
     0
 95
        8
 96
        4
 40
8.0
 40
8.0
 40
8.0
 40
8.0
 40
9.0
 40
9.0
 40
9.0
 40
9.0
 10
-33.34488391931666
 20
-1.280919904944565
 42
1.0
 10
-35.8115299245211
 20
-1.828202838410234
 42
1.0
 10
-36.3337848782655
 20
-3.544650129978449
 42
1.0
 10
-36.09207577942846
 20
-4.962606301827486
 42
1.0
 72
     4
 94
        3
 73
     1
 74
     0
 95
        8
 96
        4
 40
9.0
 40
9.0
 40
9.0
 40
9.0
 40
10.0
 40
10.0
 40
10.0
 40
10.0
 10
-36.09207577942846
 20
-4.962606301827486
 42
1.0
 10
-35.83736690020323
 20
-6.457652824126184
 42
1.0
 10
-34.96800490008029
 20
-7.196828812263736
 42
1.0
 10
-33.99931718292643
 20
-7.502708028683525
 42
1.0
 72
     4
 94
        3
 73
     1
 74
     0
 95
        8
 96
        4
 40
10.0
 40
10.0
 40
10.0
 40
10.0
 40
11.0
 40
11.0
 40
11.0
 40
11.0
 10
-33.99931718292643
 20
-7.502708028683525
 42
1.0
 10
-33.40907414696031
 20
-7.689011641945555
 42
1.0
 10
-32.48616403135106
 20
-7.975318844696822
 42
1.0
 10
-31.47547483016516
 20
-8.27150505233215
 42
1.0
 72
     4
 94
        3
 73
     1
 74
     0
 95
        8
 96
        4
 40
11.0
 40
11.0
 40
11.0
 40
11.0
 40
12.0
 40
12.0
 40
12.0
 40
12.0
 10
-31.47547483016516
 20
-8.27150505233215
 42
1.0
 10
-31.11213516930568
 20
-8.377980375833708
 42
1.0
 10
-30.40258052645039
 20
-8.557295119664056
 42
1.0
 10
-30.28870163819752
 20
-9.336631754491272
 42
1.0
 72
     4
 94
        3
 73
     1
 74
     0
 95
        8
 96
        4
 40
12.0
 40
12.0
 40
12.0
 40
12.0
 40
13.0
 40
13.0
 40
13.0
 40
13.0
 10
-30.28870163819752
 20
-9.336631754491272
 42
1.0
 10
-30.18837182526216
 20
-10.02498578462435
 42
1.0
 10
-30.64014408852681
 20
-10.43662327702195
 42
1.0
 10
-31.32890793487914
 20
-10.58563999188937
 42
1.0
 72
     1
 10
-31.32890793487914
 20
-10.58563999188937
 11
-31.46505813246008
 21
-10.61509661229637
 72
     4
 94
        3
 73
     1
 74
     0
 95
        8
 96
        4
 40
14.0
 40
14.0
 40
14.0
 40
14.0
 40
15.0
 40
15.0
 40
15.0
 40
15.0
 10
-31.46505813246008
 20
-10.61509661229637
 42
1.0
 10
-32.05208024758041
 20
-10.7421011111722
 42
1.0
 10
-32.71260096537064
 20
-10.55064660173623
 42
1.0
 10
-32.88223929249212
 20
-9.937760156430087
 42
1.0
 72
     1
 10
-32.88223929249212
 20
-9.937760156430087
 11
-35.18886923388655
 21
-10.43680844141459
 72
     4
 94
        3
 73
     1
 74
     0
 95
        8
 96
        4
 40
16.0
 40
16.0
 40
16.0
 40
16.0
 40
17.0
 40
17.0
 40
17.0
 40
17.0
 10
-35.18886923388649
 20
-10.43680844141459
 42
1.0
 10
-34.81471685749708
 20
-11.88431332710451
 42
1.0
 10
-33.72975075395801
 20
-12.95131992706824
 42
1.0
 10
-31.59496833044075
 20
-12.72957879515506
 42
1.0
 72
     1
 10
-31.59496833044068
 20
-12.72957879515504
 11
-30.20639204762409
 21
-12.42915496033269
 97
        0
 75
     0
 76
     1
 98
        1
 10
0.0
 20
0.0
  0
HATCH
  5
F3
330
93
100
AcDbEntity
  8
0
100
AcDbHatch
 10
0.0
 20
0.0
 30
0.0
210
0.0
220
0.0
230
1.0
  2
SOLID
 70
     1
 71
     0
 91
        1
 92
        0
 93
       11
 72
     1
 10
-23.93083334830058
 20
-6.656177916224847
 11
-23.9305586195879
 21
-1.497666803489873
 72
     1
 10
-23.9305586195879
 20
-1.497666803489873
 11
-20.04326836721582
 21
-10.05945907169815
 72
     1
 10
-20.04326836721582
 20
-10.05945907169815
 11
-17.66870538033285
 21
-9.545713210289948
 72
     1
 10
-17.66870538033285
 20
-9.545713210289948
 11
-22.39983793591613
 21
0.8767293108990284
 72
     1
 10
-22.39983793591613
 20
0.8767293108990277
 11
-26.30586704316552
 21
0.0316448471579831
 72
     1
 10
-26.30586704316552
 20
0.0316448471579831
 11
-26.30567237753049
 21
-11.41435433475813
 72
     1
 10
-26.30567237753049
 20
-11.41435433475813
 11
-23.93111465188077
 21
-10.90060961163804
 72
     1
 10
-23.93111465188077
 20
-10.90060961163804
 11
-23.93099314235586
 21
-8.782594625323274
 72
     1
 10
-23.93099314235586
 20
-8.782594625323274
 11
-22.27383089514867
 21
-8.42406118111162
 72
     1
 10
-22.27383089514867
 20
-8.42406118111162
 11
-22.7133102853523
 21
-6.392762105309743
 72
     1
 10
-22.7133102853523
 20
-6.392762105309743
 11
-23.93083334830058
 21
-6.656177916224847
 97
        0
 75
     0
 76
     1
 98
        1
 10
0.0
 20
0.0
  0
HATCH
  5
F4
330
93
100
AcDbEntity
  8
0
100
AcDbHatch
 10
0.0
 20
0.0
 30
0.0
210
0.0
220
0.0
230
1.0
  2
SOLID
 70
     1
 71
     0
 91
        1
 92
        0
 93
        6
 72
     1
 10
-15.79563263740209
 20
2.305574601061446
 11
-18.06492886668423
 21
1.814603608696526
 72
     4
 94
        3
 73
     1
 74
     0
 95
        8
 96
        4
 40
2.0
 40
2.0
 40
2.0
 40
2.0
 40
3.0
 40
3.0
 40
3.0
 40
3.0
 10
-18.06492886668423
 20
1.814603608696526
 42
1.0
 10
-17.240039650055
 20
-1.995739949107533
 42
1.0
 10
-15.71186186991055
 20
-9.059523950669437
 42
1.0
 10
-15.69887855542098
 20
-9.119533578677919
 42
1.0
 72
     1
 10
-15.69887855542092
 20
-9.119533578677903
 11
-10.22610149671526
 21
-7.93547715235816
 72
     1
 10
-10.22610149671526
 20
-7.93547715235816
 11
-10.66558088691882
 21
-5.904178076556605
 72
     1
 10
-10.66558088691882
 20
-5.904178076556605
 11
-13.86994560355126
 21
-6.597454742918437
 72
     4
 94
        3
 73
     1
 74
     0
 95
        8
 96
        4
 40
0.0
 40
0.0
 40
0.0
 40
0.0
 40
1.0
 40
1.0
 40
1.0
 40
1.0
 10
-13.86994560355126
 20
-6.597454742918437
 42
1.0
 10
-13.88373254946556
 20
-6.533730684138598
 42
1.0
 10
-15.1136551579741
 20
-0.8489574873494129
 42
1.0
 10
-15.79563263740209
 20
2.305574601061446
 42
1.0
 97
        0
 75
     0
 76
     1
 98
        1
 10
0.0
 20
0.0
  0
HATCH
  5
F5
330
93
100
AcDbEntity
  8
0
100
AcDbHatch
 10
0.0
 20
0.0
 30
0.0
210
0.0
220
0.0
230
1.0
  2
SOLID
 70
     1
 71
     0
 91
        1
 92
        0
 93
       11
 72
     1
 10
2.375028433631206
 20
-0.9648032523823513
 11
2.375208460142868
 21
4.193687371166118
 72
     1
 10
2.375208460142868
 20
4.193687371166118
 11
6.262509234981617
 21
-4.368102620465918
 72
     1
 10
6.262509234981617
 20
-4.368102620465917
 11
8.637061699398163
 21
-3.854359035633896
 72
     1
 10
8.637061699398163
 20
-3.854359035633896
 11
3.905939666281055
 21
6.568085762131229
 72
     1
 10
3.905939666281055
 20
6.56808576213123
 11
-0.0000000000001235
 21
5.723020649288631
 72
     1
 10
-0.0000000000001234
 20
5.723020649288631
 11
-0.000000000000185
 21
-5.723020649288538
 72
     1
 10
-0.000000000000185
 20
-5.723020649288538
 11
2.37465768908423
 21
-5.20925429869377
 72
     1
 10
2.37465768908423
 20
-5.20925429869377
 11
2.374784459841949
 21
-3.091238174090979
 72
     1
 10
2.374784459841949
 20
-3.091238174090979
 11
4.031830959914354
 21
-2.732729772218408
 72
     1
 10
4.031830959914354
 20
-2.732729772218408
 11
3.592351569710606
 21
-0.701430696416514
 72
     1
 10
3.592351569710606
 20
-0.7014306964165138
 11
2.375028433631206
 21
-0.9648032523823513
 97
        0
 75
     0
 76
     1
 98
        1
 10
0.0
 20
0.0
  0
HATCH
  5
F6
330
93
100
AcDbEntity
  8
0
100
AcDbHatch
 10
0.0
 20
0.0
 30
0.0
210
0.0
220
0.0
230
1.0
  2
SOLID
 70
     1
 71
     0
 91
        1
 92
        0
 93
        8
 72
     1
 10
-42.14906497721024
 20
-6.152323722221632
 11
-42.76219705242848
 21
-3.318391925879333
 72
     1
 10
-42.76219705242848
 20
-3.318391925879333
 11
-42.76249168149826
 21
-3.318455670015027
 72
     1
 10
-42.76249168149826
 20
-3.318455670015027
 11
-45.03079507887072
 21
-6.775797145163721
 72
     1
 10
-45.03079507887072
 20
-6.775797145163721
 11
-48.52545732888054
 21
-4.565295516814268
 72
     1
 10
-48.52545732888054
 20
-4.565295516814268
 11
-48.52574669671678
 21
-4.565358122661792
 72
     1
 10
-48.52574669671678
 20
-4.565358122661792
 11
-47.91261462149855
 21
-7.39928991900409
 72
     1
 10
-47.91261462149855
 20
-7.39928991900409
 11
-44.41773721666716
 21
-9.60984413289331
 72
     1
 10
-44.41773721666716
 20
-9.60984413289331
 11
-42.14906497721024
 21
-6.152323722221632
 97
        0
 75
     0
 76
     1
 98
        1
 10
0.0
 20
0.0
  0
HATCH
  5
F7
330
93
100
AcDbEntity
  8
0
100
AcDbHatch
 10
0.0
 20
0.0
 30
0.0
210
0.0
220
0.0
230
1.0
  2
SOLID
 70
     1
 71
     0
 91
        1
 92
        0
 93
        8
 72
     1
 10
-46.11999732125613
 20
-15.87212484345383
 11
-46.08139565189786
 21
-15.8637732233933
 72
     1
 10
-46.08139565189786
 20
-15.8637732233933
 11
-46.68636620117444
 21
-13.06756447043367
 72
     1
 10
-46.68636620117444
 20
-13.06756447043367
 11
-50.18135879739361
 21
-10.85693604353009
 72
     1
 10
-50.18135879739361
 20
-10.85693604353009
 11
-52.44976215820033
 21
-14.31429914615315
 72
     1
 10
-52.44976215820033
 20
-14.31429914615315
 11
-51.84475063055083
 21
-17.11069730351469
 72
     1
 10
-51.84475063055083
 20
-17.11069730351469
 11
-51.80633836559459
 21
-17.1023866618271
 72
     1
 10
-51.80633836559459
 20
-17.1023866618271
 11
-49.56818574380249
 21
-13.69105724427409
 72
     1
 10
-49.56818574380249
 20
-13.69105724427409
 11
-46.11999732125613
 21
-15.87212484345383
 97
        0
 75
     0
 76
     1
 98
        1
 10
0.0
 20
0.0
  0
HATCH
  5
F8
330
93
100
AcDbEntity
  8
0
100
AcDbHatch
 10
0.0
 20
0.0
 30
0.0
210
0.0
220
0.0
230
1.0
  2
SOLID
 70
     1
 71
     0
 91
        2
 92
        0
 93
        7
 72
     1
 10
-6.859585567104196
 20
4.238922852960538
 11
-11.00449045380928
 21
3.342156692939393
 72
     1
 10
-11.00449045380928
 20
3.342156692939393
 11
-8.638829473816639
 21
-7.592064727757185
 72
     1
 10
-8.638829473816639
 20
-7.592064727757185
 11
-8.63844014254617
 21
-7.591980494435086
 72
     1
 10
-8.63844014254617
 20
-7.591980494435086
 11
-4.494024550545999
 21
-6.695320195210662
 72
     4
 94
        3
 73
     1
 74
     0
 95
        8
 96
        4
 40
3.0
 40
3.0
 40
3.0
 40
3.0
 40
4.0
 40
4.0
 40
4.0
 40
4.0
 10
-4.494024550545999
 20
-6.695320195210662
 42
1.0
 10
-2.825524345390513
 20
-6.334333740063992
 42
1.0
 10
-1.762658323115034
 20
-4.702068307882374
 42
1.0
 10
-2.120071189640999
 20
-3.049576315093403
 42
1.0
 72
     4
 94
        3
 73
     1
 74
     0
 95
        8
 96
        4
 40
4.0
 40
4.0
 40
4.0
 40
4.0
 40
5.0
 40
5.0
 40
5.0
 40
5.0
 10
-2.120071189640999
 20
-3.049576315093403
 42
1.0
 10
-2.485983017556096
 20
-1.358310753073632
 42
1.0
 10
-2.867352798370483
 20
0.4044023583376265
 42
1.0
 10
-3.190995488197396
 20
1.900704823656681
 42
1.0
 72
     4
 94
        3
 73
     1
 74
     0
 95
        8
 96
        4
 40
5.0
 40
5.0
 40
5.0
 40
5.0
 40
6.0
 40
6.0
 40
6.0
 40
6.0
 10
-3.190995488197396
 20
1.900704823656681
 42
1.0
 10
-3.54857504695031
 20
3.553458157285876
 42
1.0
 10
-5.190901218780231
 20
4.599949148191988
 42
1.0
 10
-6.859585567104196
 20
4.238922852960538
 42
1.0
 97
        0
 92
        0
 93
        6
 72
     4
 94
        3
 73
     1
 74
     0
 95
        8
 96
        4
 40
2.0
 40
2.0
 40
2.0
 40
2.0
 40
3.0
 40
3.0
 40
3.0
 40
3.0
 10
-6.919811195494074
 20
2.099808074263809
 42
1.0
 10
-6.228016878711183
 20
2.249480443098069
 42
1.0
 10
-5.547633595833446
 20
1.815851349115847
 42
1.0
 10
-5.399398884916104
 20
1.130701970100344
 42
1.0
 72
     4
 94
        3
 73
     1
 74
     0
 95
        8
 96
        4
 40
3.0
 40
3.0
 40
3.0
 40
3.0
 40
4.0
 40
4.0
 40
4.0
 40
4.0
 10
-5.399398884916104
 20
1.130701970100344
 42
1.0
 10
-5.107009087764085
 20
-0.2207405274728672
 42
1.0
 10
-4.711497421058354
 20
-2.048334586467611
 42
1.0
 10
-4.449160707297047
 20
-3.260870000165379
 42
1.0
 72
     4
 94
        3
 73
     1
 74
     0
 95
        8
 96
        4
 40
4.0
 40
4.0
 40
4.0
 40
4.0
 40
5.0
 40
5.0
 40
5.0
 40
5.0
 10
-4.449160707297047
 20
-3.260870000165379
 42
1.0
 10
-4.300905507193207
 20
-3.946114081381999
 42
1.0
 10
-4.741570606399121
 20
-4.622385452066122
 42
1.0
 10
-5.433383135791953
 20
-4.771973641166296
 42
1.0
 72
     1
 10
-5.433383135791953
 20
-4.771973641166296
 11
-6.809537646582547
 21
-5.069709977697404
 72
     4
 94
        3
 73
     1
 74
     0
 95
        8
 96
        4
 40
0.0
 40
0.0
 40
0.0
 40
0.0
 40
1.0
 40
1.0
 40
1.0
 40
1.0
 10
-6.809537646582547
 20
-5.069709977697404
 42
1.0
 10
-7.284290309572815
 20
-2.875375801708635
 42
1.0
 10
-7.897830097865885
 20
-0.0390758678013329
 42
1.0
 10
-8.296070930952649
 20
1.80204897196991
 42
1.0
 72
     1
 10
-8.296070930952649
 20
1.80204897196991
 11
-6.919811195494074
 21
2.099808074263809
 97
        0
 75
     0
 76
     1
 98
        1
 10
0.0
 20
0.0
  0
ENDBLK
  5
95
330
93
100
AcDbEntity
  8
0
100
AcDbBlockEnd
  0
ENDSEC
  0
SECTION
  2
ENTITIES
  0
LINE
  5
F9
330
1F
100
AcDbEntity
  8
0
100
AcDbLine
 10
226.2443931398
 20
360.5139841689
 30
0.0
 11
226.9943931398
 21
359.7639841689
 31
0.0
  0
LINE
  5
FA
330
1F
100
AcDbEntity
  8
0
100
AcDbLine
 10
250.9943931398
 20
359.7639841689
 30
0.0
 11
251.7443931398
 21
360.5139841689
 31
0.0
  0
LINE
  5
FB
330
1F
100
AcDbEntity
  8
0
100
AcDbLine
 10
226.2443931398
 20
369.7639841689
 30
0.0
 11
226.2443931398
 21
360.5139841689
 31
0.0
  0
LINE
  5
FC
330
1F
100
AcDbEntity
  8
0
100
AcDbLine
 10
251.7443931398
 20
360.5139841689
 30
0.0
 11
251.7443931398
 21
369.7639841689
 31
0.0
  0
LINE
  5
FD
330
1F
100
AcDbEntity
  8
0
100
AcDbLine
 10
249.6443931398
 20
377.2639841689
 30
0.0
 11
249.6443931398
 21
383.1639841689
 31
0.0
  0
LINE
  5
FE
330
1F
100
AcDbEntity
  8
0
100
AcDbLine
 10
228.3443931398
 20
383.1639841689
 30
0.0
 11
228.3443931398
 21
377.2639841689
 31
0.0
  0
LINE
  5
FF
330
1F
100
AcDbEntity
  8
0
100
AcDbLine
 10
250.9943931398
 20
383.1639841689
 30
0.0
 11
250.9943931398
 21
383.5639841689
 31
0.0
  0
LINE
  5
100
330
1F
100
AcDbEntity
  8
0
100
AcDbLine
 10
226.9943931398
 20
383.5639841689
 30
0.0
 11
226.9943931398
 21
383.1639841689
 31
0.0
  0
LINE
  5
101
330
1F
100
AcDbEntity
  8
0
100
AcDbLine
 10
228.0943931398
 20
391.7639841689
 30
0.0
 11
228.0943931398
 21
383.5639841689
 31
0.0
  0
LINE
  5
102
330
1F
100
AcDbEntity
  8
0
100
AcDbLine
 10
249.8943931398
 20
383.5639841689
 30
0.0
 11
249.8943931398
 21
391.7639841689
 31
0.0
  0
ARC
  5
103
330
1F
100
AcDbEntity
  8
0
100
AcDbCircle
 10
229.4943931398
 20
391.7639841689
 30
0.0
 40
1.400000000000034
100
AcDbArc
 50
90.0
 51
180.0
  0
ARC
  5
104
330
1F
100
AcDbEntity
  8
0
100
AcDbCircle
 10
248.4943931398
 20
391.7639841689
 30
0.0
 40
1.400000000000034
100
AcDbArc
 50
0.0
 51
90.0
  0
LINE
  5
105
330
1F
100
AcDbEntity
  8
0
100
AcDbLine
 10
249.9943931398
 20
358.7639841689
 30
0.0
 11
249.9943931398
 21
359.7639841689
 31
0.0
  0
LINE
  5
106
330
1F
100
AcDbEntity
  8
0
100
AcDbLine
 10
227.9943931398
 20
359.7639841689
 30
0.0
 11
227.9943931398
 21
358.7639841689
 31
0.0
  0
LINE
  5
107
330
1F
100
AcDbEntity
  8
0
100
AcDbLine
 10
251.0943931398
 20
349.7030321476
 30
0.0
 11
251.0943931398
 21
358.7639841689
 31
0.0
  0
LINE
  5
108
330
1F
100
AcDbEntity
  8
0
100
AcDbLine
 10
255.1143931437
 20
369.7639841689
 30
0.0
 11
255.1143931437
 21
360.5139841689
 31
0.0
  0
LINE
  5
109
330
1F
100
AcDbEntity
  8
0
100
AcDbLine
 10
280.6143931437
 20
360.5139841689
 30
0.0
 11
280.6143931437
 21
369.7639841689
 31
0.0
  0
LINE
  5
10A
330
1F
100
AcDbEntity
  8
0
100
AcDbLine
 10
255.1143931437
 20
360.5139841689
 30
0.0
 11
255.8643931437
 21
359.7639841689
 31
0.0
  0
LINE
  5
10B
330
1F
100
AcDbEntity
  8
0
100
AcDbLine
 10
279.8643931437
 20
359.7639841689
 30
0.0
 11
280.6143931437
 21
360.5139841689
 31
0.0
  0
LINE
  5
10C
330
1F
100
AcDbEntity
  8
0
100
AcDbLine
 10
278.5143931437
 20
377.2639841689
 30
0.0
 11
278.5143931437
 21
383.1639841689
 31
0.0
  0
LINE
  5
10D
330
1F
100
AcDbEntity
  8
0
100
AcDbLine
 10
257.2143931437
 20
383.1639841689
 30
0.0
 11
257.2143931437
 21
377.2639841689
 31
0.0
  0
LINE
  5
10E
330
1F
100
AcDbEntity
  8
0
100
AcDbLine
 10
279.8643931437
 20
383.1639841689
 30
0.0
 11
279.8643931437
 21
383.5639841689
 31
0.0
  0
LINE
  5
10F
330
1F
100
AcDbEntity
  8
0
100
AcDbLine
 10
255.8643931437
 20
383.5639841689
 30
0.0
 11
255.8643931437
 21
383.1639841689
 31
0.0
  0
LINE
  5
110
330
1F
100
AcDbEntity
  8
0
100
AcDbLine
 10
256.9643931437
 20
391.7639841689
 30
0.0
 11
256.9643931437
 21
383.5639841689
 31
0.0
  0
LINE
  5
111
330
1F
100
AcDbEntity
  8
0
100
AcDbLine
 10
278.7643931437
 20
383.5639841689
 30
0.0
 11
278.7643931437
 21
391.7639841689
 31
0.0
  0
ARC
  5
112
330
1F
100
AcDbEntity
  8
0
100
AcDbCircle
 10
258.3643931437
 20
391.7639841689
 30
0.0
 40
1.399999999999977
100
AcDbArc
 50
90.0
 51
180.0
  0
ARC
  5
113
330
1F
100
AcDbEntity
  8
0
100
AcDbCircle
 10
277.3643931437
 20
391.7639841689
 30
0.0
 40
1.399999999999977
100
AcDbArc
 50
0.0
 51
90.0
  0
LINE
  5
114
330
1F
100
AcDbEntity
  8
0
100
AcDbLine
 10
278.8643931437
 20
358.7639841689
 30
0.0
 11
278.8643931437
 21
359.7639841689
 31
0.0
  0
LINE
  5
115
330
1F
100
AcDbEntity
  8
0
100
AcDbLine
 10
256.8643931437
 20
359.7639841689
 30
0.0
 11
256.8643931437
 21
358.7639841689
 31
0.0
  0
LINE
  5
116
330
1F
100
AcDbEntity
  8
0
100
AcDbLine
 10
255.7643931437
 20
358.7639841689
 30
0.0
 11
255.7643931437
 21
349.7030321476
 31
0.0
  0
ARC
  5
117
330
1F
100
AcDbEntity
  8
0
100
AcDbCircle
 10
183.8293931398
 20
342.0139841689
 30
0.0
 40
2.0
100
AcDbArc
 50
90.0
 51
180.0
  0
ARC
  5
118
330
1F
100
AcDbEntity
  8
0
100
AcDbCircle
 10
188.0293931398
 20
342.0139841689
 30
0.0
 40
2.0
100
AcDbArc
 50
0.0
 51
90.0
  0
LINE
  5
119
330
1F
100
AcDbEntity
  8
0
100
AcDbLine
 10
181.8293931398
 20
342.0139841689
 30
0.0
 11
181.8293931398
 21
340.9639841689
 31
0.0
  0
LINE
  5
11A
330
1F
100
AcDbEntity
  8
0
100
AcDbLine
 10
190.0293931398
 20
340.9639841689
 30
0.0
 11
190.0293931398
 21
342.0139841689
 31
0.0
  0
LINE
  5
11B
330
1F
100
AcDbEntity
  8
0
100
AcDbLine
 10
185.4043931398
 20
331.9639841689
 30
0.0
 11
185.6293931398
 21
331.4639841689
 31
0.0
  0
LINE
  5
11C
330
1F
100
AcDbEntity
  8
0
100
AcDbLine
 10
186.2293931398
 20
331.4639841689
 30
0.0
 11
186.4543931398
 21
331.9639841689
 31
0.0
  0
LINE
  5
11D
330
1F
100
AcDbEntity
  8
0
100
AcDbLine
 10
316.8293931399
 20
342.0139841689
 30
0.0
 11
316.8293931399
 21
340.9639841689
 31
0.0
  0
LINE
  5
11E
330
1F
100
AcDbEntity
  8
0
100
AcDbLine
 10
325.0293931399
 20
340.9639841689
 30
0.0
 11
325.0293931399
 21
342.0139841689
 31
0.0
  0
ARC
  5
11F
330
1F
100
AcDbEntity
  8
0
100
AcDbCircle
 10
318.8293931399
 20
342.0139841689
 30
0.0
 40
2.0
100
AcDbArc
 50
90.0
 51
180.0
  0
ARC
  5
120
330
1F
100
AcDbEntity
  8
0
100
AcDbCircle
 10
323.0293931399
 20
342.0139841689
 30
0.0
 40
2.0
100
AcDbArc
 50
0.0
 51
90.0
  0
LINE
  5
121
330
1F
100
AcDbEntity
  8
0
100
AcDbLine
 10
320.4043931399
 20
331.9639841689
 30
0.0
 11
320.6293931399
 21
331.4639841689
 31
0.0
  0
LINE
  5
122
330
1F
100
AcDbEntity
  8
0
100
AcDbLine
 10
321.2293931399
 20
331.4639841689
 30
0.0
 11
321.4543931399
 21
331.9639841689
 31
0.0
  0
ARC
  5
123
330
1F
100
AcDbEntity
  8
0
100
AcDbCircle
 10
138.8293931398
 20
342.0139841689
 30
0.0
 40
2.0
100
AcDbArc
 50
90.0
 51
180.0
  0
ARC
  5
124
330
1F
100
AcDbEntity
  8
0
100
AcDbCircle
 10
143.0293931398
 20
342.0139841689
 30
0.0
 40
2.0
100
AcDbArc
 50
0.0
 51
90.0
  0
LINE
  5
125
330
1F
100
AcDbEntity
  8
0
100
AcDbLine
 10
136.8293931398
 20
342.0139841689
 30
0.0
 11
136.8293931398
 21
340.9639841689
 31
0.0
  0
LINE
  5
126
330
1F
100
AcDbEntity
  8
0
100
AcDbLine
 10
145.0293931398
 20
340.9639841689
 30
0.0
 11
145.0293931398
 21
342.0139841689
 31
0.0
  0
ARC
  5
127
330
1F
100
AcDbEntity
  8
0
100
AcDbCircle
 10
363.8293931399
 20
342.0139841689
 30
0.0
 40
2.0
100
AcDbArc
 50
90.0
 51
180.0
  0
ARC
  5
128
330
1F
100
AcDbEntity
  8
0
100
AcDbCircle
 10
368.0293931399
 20
342.0139841689
 30
0.0
 40
2.000000000000057
100
AcDbArc
 50
0.0
 51
90.0
  0
LINE
  5
129
330
1F
100
AcDbEntity
  8
0
100
AcDbLine
 10
361.8293931399
 20
342.0139841689
 30
0.0
 11
361.8293931399
 21
340.9639841689
 31
0.0
  0
LINE
  5
12A
330
1F
100
AcDbEntity
  8
0
100
AcDbLine
 10
370.0293931399
 20
340.9639841689
 30
0.0
 11
370.0293931399
 21
342.0139841689
 31
0.0
  0
ARC
  5
12B
330
1F
100
AcDbEntity
  8
0
100
AcDbCircle
 10
363.4138431483
 20
-7.2830845591
 30
0.0
 40
4.999999999999987
100
AcDbArc
 50
236.1590076815
 51
262.1320762394
  0
ARC
  5
12C
330
1F
100
AcDbEntity
  8
0
100
AcDbCircle
 10
363.8449431314
 20
-7.2830845591
 30
0.0
 40
5.000000000000009
100
AcDbArc
 50
277.8679237606
 51
303.8409923185
  0
ARC
  5
12D
330
1F
100
AcDbEntity
  8
0
100
AcDbCircle
 10
143.0138431483
 20
-7.2830845591
 30
0.0
 40
5.000000000000009
100
AcDbArc
 50
236.1590076815
 51
262.1320762394
  0
ARC
  5
12E
330
1F
100
AcDbEntity
  8
0
100
AcDbCircle
 10
143.4449431314
 20
-7.2830845591
 30
0.0
 40
5.000000000000009
100
AcDbArc
 50
277.8679237606
 51
303.8409923185
  0
LINE
  5
12F
330
1F
100
AcDbEntity
  8
0
100
AcDbLine
 10
301.8643931437
 20
340.9639841689
 30
0.0
 11
301.8643931437
 21
342.9639841689
 31
0.0
  0
ARC
  5
130
330
1F
100
AcDbEntity
  8
0
100
AcDbCircle
 10
287.8643931437
 20
350.9639841689
 30
0.0
 40
8.000000000000032
100
AcDbArc
 50
189.068721546
 51
270.0
  0
ARC
  5
131
330
1F
100
AcDbEntity
  8
0
100
AcDbCircle
 10
247.8643931437
 20
350.9639841689
 30
0.0
 40
8.0
100
AcDbArc
 50
314.0770425568
 51
350.931278454
  0
LINE
  5
132
330
1F
100
AcDbEntity
  8
0
100
AcDbLine
 10
272.9943931398
 20
340.9639841689
 30
0.0
 11
272.9943931398
 21
342.9639841689
 31
0.0
  0
LINE
  5
133
330
1F
100
AcDbEntity
  8
0
100
AcDbLine
 10
204.9943931398
 20
342.9639841689
 30
0.0
 11
204.9943931398
 21
340.9639841689
 31
0.0
  0
ARC
  5
134
330
1F
100
AcDbEntity
  8
0
100
AcDbCircle
 10
258.9943931398
 20
350.9639841689
 30
0.0
 40
8.000000000000039
100
AcDbArc
 50
189.068721546
 51
270.0
  0
ARC
  5
135
330
1F
100
AcDbEntity
  8
0
100
AcDbCircle
 10
218.9943931398
 20
350.9639841689
 30
0.0
 40
8.0
100
AcDbArc
 50
270.0
 51
350.931278454
  0
ARC
  5
136
330
1F
100
AcDbEntity
  8
0
100
AcDbCircle
 10
102.7293928377
 20
31.8639841689
 30
0.0
 40
0.5
100
AcDbArc
 50
184.9871394293
 51
0.0
  0
ARC
  5
137
330
1F
100
AcDbEntity
  8
0
100
AcDbCircle
 10
102.7293928377
 20
295.6639841689
 30
0.0
 40
0.5
100
AcDbArc
 50
0.0
 51
175.0128605707
  0
ARC
  5
138
330
1F
100
AcDbEntity
  8
0
100
AcDbCircle
 10
106.9293928377
 20
31.8639841689
 30
0.0
 40
0.5
100
AcDbArc
 50
184.9871394293
 51
0.0
  0
ARC
  5
139
330
1F
100
AcDbEntity
  8
0
100
AcDbCircle
 10
106.9293928377
 20
295.6639841689
 30
0.0
 40
0.5000000000000037
100
AcDbArc
 50
0.0
 51
175.0128605707
  0
LINE
  5
13A
330
1F
100
AcDbEntity
  8
0
100
AcDbLine
 10
106.4312857197
 20
295.7074502366
 30
0.0
 11
105.7493119816
 21
287.892251135
 31
0.0
  0
LINE
  5
13B
330
1F
100
AcDbEntity
  8
0
100
AcDbLine
 10
105.7493119816
 20
39.6357172027
 30
0.0
 11
106.4312857197
 21
31.8205181012
 31
0.0
  0
LINE
  5
13C
330
1F
100
AcDbEntity
  8
0
100
AcDbLine
 10
102.2312857197
 20
295.7074502366
 30
0.0
 11
101.5493119816
 21
287.892251135
 31
0.0
  0
LINE
  5
13D
330
1F
100
AcDbEntity
  8
0
100
AcDbLine
 10
101.5493119816
 20
39.6357172027
 30
0.0
 11
102.2312857197
 21
31.8205181012
 31
0.0
  0
ARC
  5
13E
330
1F
100
AcDbEntity
  8
0
100
AcDbCircle
 10
101.3002584227
 20
39.6139841689
 30
0.0
 40
0.2500000000000284
100
AcDbArc
 50
4.9871394293
 51
90.0
  0
ARC
  5
13F
330
1F
100
AcDbEntity
  8
0
100
AcDbCircle
 10
101.3002584227
 20
287.9139841689
 30
0.0
 40
0.2500000000000568
100
AcDbArc
 50
270.0
 51
355.0128605707
  0
ARC
  5
140
330
1F
100
AcDbEntity
  8
0
100
AcDbCircle
 10
105.5002584227
 20
39.6139841689
 30
0.0
 40
0.2500000000000284
100
AcDbArc
 50
4.9871394293
 51
90.0
  0
ARC
  5
141
330
1F
100
AcDbEntity
  8
0
100
AcDbCircle
 10
105.5002584227
 20
287.9139841689
 30
0.0
 40
0.2500000000000568
100
AcDbArc
 50
270.0
 51
355.0128605707
  0
LINE
  5
142
330
1F
100
AcDbEntity
  8
0
100
AcDbLine
 10
103.2293928377
 20
39.8639841689
 30
0.0
 11
105.5002584227
 21
39.8639841689
 31
0.0
  0
LINE
  5
143
330
1F
100
AcDbEntity
  8
0
100
AcDbLine
 10
105.5002584227
 20
287.6639841689
 30
0.0
 11
103.2293928377
 21
287.6639841689
 31
0.0
  0
LINE
  5
144
330
1F
100
AcDbEntity
  8
0
100
AcDbLine
 10
100.4293931398
 20
39.8639841689
 30
0.0
 11
101.3002584227
 21
39.8639841689
 31
0.0
  0
LINE
  5
145
330
1F
100
AcDbEntity
  8
0
100
AcDbLine
 10
101.3002584227
 20
287.6639841689
 30
0.0
 11
100.4293931398
 21
287.6639841689
 31
0.0
  0
ARC
  5
146
330
1F
100
AcDbEntity
  8
0
100
AcDbCircle
 10
399.929393442
 20
295.6639841689
 30
0.0
 40
0.500000000000032
100
AcDbArc
 50
4.9871394293
 51
180.0
  0
ARC
  5
147
330
1F
100
AcDbEntity
  8
0
100
AcDbCircle
 10
399.929393442
 20
31.8639841689
 30
0.0
 40
0.5000000000000264
100
AcDbArc
 50
180.0
 51
355.0128605707
  0
ARC
  5
148
330
1F
100
AcDbEntity
  8
0
100
AcDbCircle
 10
404.129393442
 20
295.6639841689
 30
0.0
 40
0.5000000000000568
100
AcDbArc
 50
4.9871394293
 51
180.0
  0
ARC
  5
149
330
1F
100
AcDbEntity
  8
0
100
AcDbCircle
 10
404.129393442
 20
31.8639841689
 30
0.0
 40
0.5000000000000568
100
AcDbArc
 50
180.0
 51
355.0128605707
  0
LINE
  5
14A
330
1F
100
AcDbEntity
  8
0
100
AcDbLine
 10
400.42750056
 20
31.8205181012
 30
0.0
 11
401.109474298
 21
39.6357172027
 31
0.0
  0
LINE
  5
14B
330
1F
100
AcDbEntity
  8
0
100
AcDbLine
 10
401.109474298
 20
287.892251135
 30
0.0
 11
400.42750056
 21
295.7074502366
 31
0.0
  0
LINE
  5
14C
330
1F
100
AcDbEntity
  8
0
100
AcDbLine
 10
404.62750056
 20
31.8205181012
 30
0.0
 11
405.309474298
 21
39.6357172027
 31
0.0
  0
LINE
  5
14D
330
1F
100
AcDbEntity
  8
0
100
AcDbLine
 10
405.309474298
 20
287.892251135
 30
0.0
 11
404.62750056
 21
295.7074502366
 31
0.0
  0
ARC
  5
14E
330
1F
100
AcDbEntity
  8
0
100
AcDbCircle
 10
405.558527857
 20
287.9139841689
 30
0.0
 40
0.2500000000000568
100
AcDbArc
 50
184.9871394293
 51
270.0
  0
ARC
  5
14F
330
1F
100
AcDbEntity
  8
0
100
AcDbCircle
 10
405.558527857
 20
39.6139841689
 30
0.0
 40
0.2500000000000284
100
AcDbArc
 50
90.0
 51
175.0128605707
  0
ARC
  5
150
330
1F
100
AcDbEntity
  8
0
100
AcDbCircle
 10
401.358527857
 20
287.9139841689
 30
0.0
 40
0.2500000000000568
100
AcDbArc
 50
184.9871394293
 51
270.0
  0
ARC
  5
151
330
1F
100
AcDbEntity
  8
0
100
AcDbCircle
 10
401.358527857
 20
39.6139841689
 30
0.0
 40
0.2500000000000498
100
AcDbArc
 50
90.0
 51
175.0128605707
  0
LINE
  5
152
330
1F
100
AcDbEntity
  8
0
100
AcDbLine
 10
403.629393442
 20
287.6639841689
 30
0.0
 11
401.358527857
 21
287.6639841689
 31
0.0
  0
LINE
  5
153
330
1F
100
AcDbEntity
  8
0
100
AcDbLine
 10
401.358527857
 20
39.8639841689
 30
0.0
 11
403.629393442
 21
39.8639841689
 31
0.0
  0
LINE
  5
154
330
1F
100
AcDbEntity
  8
0
100
AcDbLine
 10
406.4293931398
 20
287.6639841689
 30
0.0
 11
405.558527857
 21
287.6639841689
 31
0.0
  0
LINE
  5
155
330
1F
100
AcDbEntity
  8
0
100
AcDbLine
 10
405.558527857
 20
39.8639841689
 30
0.0
 11
406.4293931398
 21
39.8639841689
 31
0.0
  0
LINE
  5
156
330
1F
100
AcDbEntity
  8
0
100
AcDbLine
 10
411.1293931398
 20
288.7639841689
 30
0.0
 11
406.4293931398
 21
288.7639841689
 31
0.0
  0
LINE
  5
157
330
1F
100
AcDbEntity
  8
0
100
AcDbLine
 10
406.4293931398
 20
38.7639841689
 30
0.0
 11
411.1293931398
 21
38.7639841689
 31
0.0
  0
ARC
  5
158
330
1F
100
AcDbEntity
  8
0
100
AcDbCircle
 10
411.1293947112
 20
287.4639841689
 30
0.0
 40
1.300000000004673
100
AcDbArc
 50
0.0
 51
90.0000692571
  0
ARC
  5
159
330
1F
100
AcDbEntity
  8
0
100
AcDbCircle
 10
411.1293947112
 20
40.0639841689
 30
0.0
 40
1.300000000004673
100
AcDbArc
 50
269.9999307429
 51
0.0
  0
LINE
  5
15A
330
1F
100
AcDbEntity
  8
0
100
AcDbLine
 10
412.4293947112
 20
40.0639841689
 30
0.0
 11
412.4293947112
 21
287.4639841689
 31
0.0
  0
LINE
  5
15B
330
1F
100
AcDbEntity
  8
0
100
AcDbLine
 10
388.1083618002
 20
288.7139327684
 30
0.0
 11
367.9293931398
 21
288.7139327684
 31
0.0
  0
LINE
  5
15C
330
1F
100
AcDbEntity
  8
0
100
AcDbLine
 10
367.9293931398
 20
38.8140355693
 30
0.0
 11
388.1083618002
 21
38.8140355693
 31
0.0
  0
LINE
  5
15D
330
1F
100
AcDbEntity
  8
0
100
AcDbLine
 10
388.1083618002
 20
38.8140355693
 30
0.0
 11
389.851926906
 21
40.5576006751
 31
0.0
  0
LINE
  5
15E
330
1F
100
AcDbEntity
  8
0
100
AcDbLine
 10
389.851926906
 20
286.9703676627
 30
0.0
 11
388.1083618002
 21
288.7139327684
 31
0.0
  0
LINE
  5
15F
330
1F
100
AcDbEntity
  8
0
100
AcDbLine
 10
389.851926906
 20
40.5576006751
 30
0.0
 11
396.8742607053
 21
42.5647389825
 31
0.0
  0
LINE
  5
160
330
1F
100
AcDbEntity
  8
0
100
AcDbLine
 10
396.8742607053
 20
284.9632293552
 30
0.0
 11
389.851926906
 21
286.9703676627
 31
0.0
  0
LINE
  5
161
330
1F
100
AcDbEntity
  8
0
100
AcDbLine
 10
399.429393442
 20
284.9632293552
 30
0.0
 11
396.8742607053
 21
284.9632293552
 31
0.0
  0
LINE
  5
162
330
1F
100
AcDbEntity
  8
0
100
AcDbLine
 10
396.8742607053
 20
42.5647389825
 30
0.0
 11
399.429393442
 21
42.5647389825
 31
0.0
  0
ARC
  5
163
330
1F
100
AcDbEntity
  8
0
100
AcDbCircle
 10
95.7293915685
 20
40.0639841689
 30
0.0
 40
1.300000000004658
100
AcDbArc
 50
180.0
 51
270.0000692571
  0
ARC
  5
164
330
1F
100
AcDbEntity
  8
0
100
AcDbCircle
 10
95.7293915685
 20
287.4639841689
 30
0.0
 40
1.300000000004658
100
AcDbArc
 50
89.9999307429
 51
180.0
  0
LINE
  5
165
330
1F
100
AcDbEntity
  8
0
100
AcDbLine
 10
94.4293915684
 20
287.4639841689
 30
0.0
 11
94.4293915684
 21
40.0639841689
 31
0.0
  0
LINE
  5
166
330
1F
100
AcDbEntity
  8
0
100
AcDbLine
 10
95.7293931398
 20
38.7639841689
 30
0.0
 11
100.4293931398
 21
38.7639841689
 31
0.0
  0
LINE
  5
167
330
1F
100
AcDbEntity
  8
0
100
AcDbLine
 10
100.4293931398
 20
288.7639841689
 30
0.0
 11
95.7293931398
 21
288.7639841689
 31
0.0
  0
LINE
  5
168
330
1F
100
AcDbEntity
  8
0
100
AcDbLine
 10
118.7504244795
 20
38.8140355693
 30
0.0
 11
138.9293931398
 21
38.8140355693
 31
0.0
  0
LINE
  5
169
330
1F
100
AcDbEntity
  8
0
100
AcDbLine
 10
138.9293931398
 20
288.7139327684
 30
0.0
 11
118.7504244795
 21
288.7139327684
 31
0.0
  0
LINE
  5
16A
330
1F
100
AcDbEntity
  8
0
100
AcDbLine
 10
118.7504244795
 20
288.7139327684
 30
0.0
 11
117.0068593737
 21
286.9703676627
 31
0.0
  0
LINE
  5
16B
330
1F
100
AcDbEntity
  8
0
100
AcDbLine
 10
117.0068593737
 20
40.5576006751
 30
0.0
 11
118.7504244795
 21
38.8140355693
 31
0.0
  0
LINE
  5
16C
330
1F
100
AcDbEntity
  8
0
100
AcDbLine
 10
117.0068593737
 20
286.9703676627
 30
0.0
 11
109.9845255744
 21
284.9632293552
 31
0.0
  0
LINE
  5
16D
330
1F
100
AcDbEntity
  8
0
100
AcDbLine
 10
109.9845255744
 20
42.5647389825
 30
0.0
 11
117.0068593737
 21
40.5576006751
 31
0.0
  0
LINE
  5
16E
330
1F
100
AcDbEntity
  8
0
100
AcDbLine
 10
107.4293928377
 20
42.5647389825
 30
0.0
 11
109.9845255744
 21
42.5647389825
 31
0.0
  0
LINE
  5
16F
330
1F
100
AcDbEntity
  8
0
100
AcDbLine
 10
109.9845255744
 20
284.9632293552
 30
0.0
 11
107.4293928377
 21
284.9632293552
 31
0.0
  0
LINE
  5
170
330
1F
100
AcDbEntity
  8
0
100
AcDbLine
 10
225.4943931398
 20
377.2639841689
 30
0.0
 11
225.4943931398
 21
369.7639841689
 31
0.0
  0
LINE
  5
171
330
1F
100
AcDbEntity
  8
0
100
AcDbLine
 10
238.9943931398
 20
377.2639841689
 30
0.0
 11
238.9943931398
 21
369.7639841689
 31
0.0
  0
LINE
  5
172
330
1F
100
AcDbEntity
  8
0
100
AcDbLine
 10
225.4943931398
 20
369.7639841689
 30
0.0
 11
238.9943931398
 21
369.7639841689
 31
0.0
  0
LINE
  5
173
330
1F
100
AcDbEntity
  8
0
100
AcDbLine
 10
225.4943931398
 20
377.2639841689
 30
0.0
 11
238.9943931398
 21
377.2639841689
 31
0.0
  0
LINE
  5
174
330
1F
100
AcDbEntity
  8
0
100
AcDbLine
 10
252.4943931398
 20
377.2639841689
 30
0.0
 11
252.4943931398
 21
369.7639841689
 31
0.0
  0
LINE
  5
175
330
1F
100
AcDbEntity
  8
0
100
AcDbLine
 10
238.9943931398
 20
369.7639841689
 30
0.0
 11
252.4943931398
 21
369.7639841689
 31
0.0
  0
LINE
  5
176
330
1F
100
AcDbEntity
  8
0
100
AcDbLine
 10
238.9943931398
 20
377.2639841689
 30
0.0
 11
252.4943931398
 21
377.2639841689
 31
0.0
  0
LINE
  5
177
330
1F
100
AcDbEntity
  8
0
100
AcDbLine
 10
250.9943931398
 20
359.7639841689
 30
0.0
 11
226.9943931398
 21
359.7639841689
 31
0.0
  0
LINE
  5
178
330
1F
100
AcDbEntity
  8
0
100
AcDbLine
 10
226.2443931398
 20
360.5139841689
 30
0.0
 11
251.7443931398
 21
360.5139841689
 31
0.0
  0
LINE
  5
179
330
1F
100
AcDbEntity
  8
0
100
AcDbLine
 10
249.6443931398
 20
392.0139841689
 30
0.0
 11
228.3443931398
 21
392.0139841689
 31
0.0
  0
LINE
  5
17A
330
1F
100
AcDbEntity
  8
0
100
AcDbLine
 10
250.9943931398
 20
383.1639841689
 30
0.0
 11
226.9943931398
 21
383.1639841689
 31
0.0
  0
LINE
  5
17B
330
1F
100
AcDbEntity
  8
0
100
AcDbLine
 10
250.9943931398
 20
383.5639841689
 30
0.0
 11
226.9943931398
 21
383.5639841689
 31
0.0
  0
LINE
  5
17C
330
1F
100
AcDbEntity
  8
0
100
AcDbLine
 10
229.5426592802
 20
393.1639841689
 30
0.0
 11
229.4943931398
 21
393.1639841689
 31
0.0
  0
LINE
  5
17D
330
1F
100
AcDbEntity
  8
0
100
AcDbLine
 10
248.4943931398
 20
393.1639841689
 30
0.0
 11
229.5426592802
 21
393.1639841689
 31
0.0
  0
LINE
  5
17E
330
1F
100
AcDbEntity
  8
0
100
AcDbLine
 10
251.0943931398
 20
358.7639841689
 30
0.0
 11
226.8943931398
 21
358.7639841689
 31
0.0
  0
LINE
  5
17F
330
1F
100
AcDbEntity
  8
0
100
AcDbLine
 10
226.8943931398
 20
349.7030321476
 30
0.0
 11
226.8943931398
 21
358.7639841689
 31
0.0
  0
LINE
  5
180
330
1F
100
AcDbEntity
  8
0
100
AcDbLine
 10
267.8643931437
 20
377.2639841689
 30
0.0
 11
267.8643931437
 21
369.7639841689
 31
0.0
  0
LINE
  5
181
330
1F
100
AcDbEntity
  8
0
100
AcDbLine
 10
281.3643931437
 20
377.2639841689
 30
0.0
 11
281.3643931437
 21
369.7639841689
 31
0.0
  0
LINE
  5
182
330
1F
100
AcDbEntity
  8
0
100
AcDbLine
 10
267.8643931437
 20
377.2639841689
 30
0.0
 11
281.3643931437
 21
377.2639841689
 31
0.0
  0
LINE
  5
183
330
1F
100
AcDbEntity
  8
0
100
AcDbLine
 10
267.8643931437
 20
369.7639841689
 30
0.0
 11
281.3643931437
 21
369.7639841689
 31
0.0
  0
LINE
  5
184
330
1F
100
AcDbEntity
  8
0
100
AcDbLine
 10
254.3643931437
 20
377.2639841689
 30
0.0
 11
254.3643931437
 21
369.7639841689
 31
0.0
  0
LINE
  5
185
330
1F
100
AcDbEntity
  8
0
100
AcDbLine
 10
254.3643931437
 20
377.2639841689
 30
0.0
 11
267.8643931437
 21
377.2639841689
 31
0.0
  0
LINE
  5
186
330
1F
100
AcDbEntity
  8
0
100
AcDbLine
 10
254.3643931437
 20
369.7639841689
 30
0.0
 11
267.8643931437
 21
369.7639841689
 31
0.0
  0
LINE
  5
187
330
1F
100
AcDbEntity
  8
0
100
AcDbLine
 10
255.1143931437
 20
360.5139841689
 30
0.0
 11
280.6143931437
 21
360.5139841689
 31
0.0
  0
LINE
  5
188
330
1F
100
AcDbEntity
  8
0
100
AcDbLine
 10
279.8643931437
 20
359.7639841689
 30
0.0
 11
255.8643931437
 21
359.7639841689
 31
0.0
  0
LINE
  5
189
330
1F
100
AcDbEntity
  8
0
100
AcDbLine
 10
278.5143931437
 20
392.0139841689
 30
0.0
 11
257.2143931437
 21
392.0139841689
 31
0.0
  0
LINE
  5
18A
330
1F
100
AcDbEntity
  8
0
100
AcDbLine
 10
255.9253609
 20
383.1639841689
 30
0.0
 11
255.8643931437
 21
383.1639841689
 31
0.0
  0
LINE
  5
18B
330
1F
100
AcDbEntity
  8
0
100
AcDbLine
 10
279.8643931437
 20
383.1639841689
 30
0.0
 11
255.9253609
 21
383.1639841689
 31
0.0
  0
LINE
  5
18C
330
1F
100
AcDbEntity
  8
0
100
AcDbLine
 10
255.9253609
 20
383.5639841689
 30
0.0
 11
255.8643931437
 21
383.5639841689
 31
0.0
  0
LINE
  5
18D
330
1F
100
AcDbEntity
  8
0
100
AcDbLine
 10
279.8643931437
 20
383.5639841689
 30
0.0
 11
255.9253609
 21
383.5639841689
 31
0.0
  0
LINE
  5
18E
330
1F
100
AcDbEntity
  8
0
100
AcDbLine
 10
277.3643931437
 20
393.1639841689
 30
0.0
 11
258.3643931437
 21
393.1639841689
 31
0.0
  0
LINE
  5
18F
330
1F
100
AcDbEntity
  8
0
100
AcDbLine
 10
279.9643931437
 20
358.7639841689
 30
0.0
 11
255.7643931437
 21
358.7639841689
 31
0.0
  0
LINE
  5
190
330
1F
100
AcDbEntity
  8
0
100
AcDbLine
 10
279.9643931437
 20
349.7030321476
 30
0.0
 11
279.9643931437
 21
358.7639841689
 31
0.0
  0
LINE
  5
191
330
1F
100
AcDbEntity
  8
0
100
AcDbLine
 10
186.0811164584
 20
344.0139841689
 30
0.0
 11
188.0004044749
 21
344.0139841689
 31
0.0
  0
LINE
  5
192
330
1F
100
AcDbEntity
  8
0
100
AcDbLine
 10
188.0004044749
 20
344.0139841689
 30
0.0
 11
188.0293931398
 21
344.0139841689
 31
0.0
  0
LINE
  5
193
330
1F
100
AcDbEntity
  8
0
100
AcDbLine
 10
183.8293931398
 20
344.0139841689
 30
0.0
 11
183.8348812552
 21
344.0139841689
 31
0.0
  0
LINE
  5
194
330
1F
100
AcDbEntity
  8
0
100
AcDbLine
 10
183.8348812552
 20
344.0139841689
 30
0.0
 11
185.5816690396
 21
344.0139841689
 31
0.0
  0
LINE
  5
195
330
1F
100
AcDbEntity
  8
0
100
AcDbLine
 10
185.5816690396
 20
344.0139841689
 30
0.0
 11
186.0811164584
 21
344.0139841689
 31
0.0
  0
LINE
  5
196
330
1F
100
AcDbEntity
  8
0
100
AcDbLine
 10
186.2293931398
 20
331.4639841689
 30
0.0
 11
185.6293931398
 21
331.4639841689
 31
0.0
  0
LINE
  5
197
330
1F
100
AcDbEntity
  8
0
100
AcDbLine
 10
318.8293931399
 20
344.0139841689
 30
0.0
 11
318.8583818048
 21
344.0139841689
 31
0.0
  0
LINE
  5
198
330
1F
100
AcDbEntity
  8
0
100
AcDbLine
 10
318.8583818048
 20
344.0139841689
 30
0.0
 11
320.7776698213
 21
344.0139841689
 31
0.0
  0
LINE
  5
199
330
1F
100
AcDbEntity
  8
0
100
AcDbLine
 10
320.7776698213
 20
344.0139841689
 30
0.0
 11
321.2771172401
 21
344.0139841689
 31
0.0
  0
LINE
  5
19A
330
1F
100
AcDbEntity
  8
0
100
AcDbLine
 10
321.2771172401
 20
344.0139841689
 30
0.0
 11
323.0239050245
 21
344.0139841689
 31
0.0
  0
LINE
  5
19B
330
1F
100
AcDbEntity
  8
0
100
AcDbLine
 10
323.0239050245
 20
344.0139841689
 30
0.0
 11
323.0293931399
 21
344.0139841689
 31
0.0
  0
LINE
  5
19C
330
1F
100
AcDbEntity
  8
0
100
AcDbLine
 10
320.9434934696
 20
331.4639841689
 30
0.0
 11
320.6293931399
 21
331.4639841689
 31
0.0
  0
LINE
  5
19D
330
1F
100
AcDbEntity
  8
0
100
AcDbLine
 10
321.2293931399
 20
331.4639841689
 30
0.0
 11
320.9434934696
 21
331.4639841689
 31
0.0
  0
LINE
  5
19E
330
1F
100
AcDbEntity
  8
0
100
AcDbLine
 10
141.0811164584
 20
344.0139841689
 30
0.0
 11
143.0004044749
 21
344.0139841689
 31
0.0
  0
LINE
  5
19F
330
1F
100
AcDbEntity
  8
0
100
AcDbLine
 10
143.0004044749
 20
344.0139841689
 30
0.0
 11
143.0293931398
 21
344.0139841689
 31
0.0
  0
LINE
  5
1A0
330
1F
100
AcDbEntity
  8
0
100
AcDbLine
 10
138.8293931398
 20
344.0139841689
 30
0.0
 11
138.8348812552
 21
344.0139841689
 31
0.0
  0
LINE
  5
1A1
330
1F
100
AcDbEntity
  8
0
100
AcDbLine
 10
138.8348812552
 20
344.0139841689
 30
0.0
 11
140.5816690396
 21
344.0139841689
 31
0.0
  0
LINE
  5
1A2
330
1F
100
AcDbEntity
  8
0
100
AcDbLine
 10
140.5816690396
 20
344.0139841689
 30
0.0
 11
141.0811164584
 21
344.0139841689
 31
0.0
  0
LINE
  5
1A3
330
1F
100
AcDbEntity
  8
0
100
AcDbLine
 10
363.8293931399
 20
344.0139841689
 30
0.0
 11
363.8583818048
 21
344.0139841689
 31
0.0
  0
LINE
  5
1A4
330
1F
100
AcDbEntity
  8
0
100
AcDbLine
 10
363.8583818048
 20
344.0139841689
 30
0.0
 11
365.7776698213
 21
344.0139841689
 31
0.0
  0
LINE
  5
1A5
330
1F
100
AcDbEntity
  8
0
100
AcDbLine
 10
365.7776698213
 20
344.0139841689
 30
0.0
 11
366.2771172401
 21
344.0139841689
 31
0.0
  0
LINE
  5
1A6
330
1F
100
AcDbEntity
  8
0
100
AcDbLine
 10
366.2771172401
 20
344.0139841689
 30
0.0
 11
368.0239050245
 21
344.0139841689
 31
0.0
  0
LINE
  5
1A7
330
1F
100
AcDbEntity
  8
0
100
AcDbLine
 10
368.0239050245
 20
344.0139841689
 30
0.0
 11
368.0293931399
 21
344.0139841689
 31
0.0
  0
CIRCLE
  5
1A8
330
1F
100
AcDbEntity
  8
0
100
AcDbCircle
 10
143.2293931398
 20
4.5639841689
 30
0.0
 40
2.999999999999991
  0
CIRCLE
  5
1A9
330
1F
100
AcDbEntity
  8
0
100
AcDbCircle
 10
143.2293931398
 20
4.5639841689
 30
0.0
 40
0.9000000000000108
  0
CIRCLE
  5
1AA
330
1F
100
AcDbEntity
  8
0
100
AcDbCircle
 10
201.4293931398
 20
319.0601365916
 30
0.0
 40
3.0
  0
CIRCLE
  5
1AB
330
1F
100
AcDbEntity
  8
0
100
AcDbCircle
 10
201.4293931398
 20
319.0601365916
 30
0.0
 40
0.9000000000000057
  0
CIRCLE
  5
1AC
330
1F
100
AcDbEntity
  8
0
100
AcDbCircle
 10
305.4293931398
 20
2.4601365916
 30
0.0
 40
3.0
  0
CIRCLE
  5
1AD
330
1F
100
AcDbEntity
  8
0
100
AcDbCircle
 10
305.4293931398
 20
2.4601365916
 30
0.0
 40
0.9000000000000341
  0
CIRCLE
  5
1AE
330
1F
100
AcDbEntity
  8
0
100
AcDbCircle
 10
143.2293931398
 20
322.2639841689
 30
0.0
 40
3.0
  0
CIRCLE
  5
1AF
330
1F
100
AcDbEntity
  8
0
100
AcDbCircle
 10
143.2293931398
 20
322.2639841689
 30
0.0
 40
0.9000000000000057
  0
CIRCLE
  5
1B0
330
1F
100
AcDbEntity
  8
0
100
AcDbCircle
 10
363.6293931398
 20
322.2639841689
 30
0.0
 40
3.000000000000072
  0
CIRCLE
  5
1B1
330
1F
100
AcDbEntity
  8
0
100
AcDbCircle
 10
363.6293931398
 20
322.2639841689
 30
0.0
 40
0.9000000000000051
  0
CIRCLE
  5
1B2
330
1F
100
AcDbEntity
  8
0
100
AcDbCircle
 10
363.6293931398
 20
110.4639841689
 30
0.0
 40
3.0
  0
CIRCLE
  5
1B3
330
1F
100
AcDbEntity
  8
0
100
AcDbCircle
 10
363.6293931398
 20
110.4639841689
 30
0.0
 40
0.9000000000000341
  0
CIRCLE
  5
1B4
330
1F
100
AcDbEntity
  8
0
100
AcDbCircle
 10
143.2293931398
 20
216.3639841689
 30
0.0
 40
3.0
  0
CIRCLE
  5
1B5
330
1F
100
AcDbEntity
  8
0
100
AcDbCircle
 10
143.2293931398
 20
216.3639841689
 30
0.0
 40
0.8999999999999773
  0
LINE
  5
1B6
330
1F
100
AcDbEntity
  8
0
100
AcDbLine
 10
362.7293931398
 20
-12.2360158311
 30
0.0
 11
364.5293931398
 21
-12.2360158311
 31
0.0
  0
CIRCLE
  5
1B7
330
1F
100
AcDbEntity
  8
0
100
AcDbCircle
 10
363.6293931398
 20
216.3639841689
 30
0.0
 40
3.0
  0
CIRCLE
  5
1B8
330
1F
100
AcDbEntity
  8
0
100
AcDbCircle
 10
363.6293931398
 20
216.3639841689
 30
0.0
 40
0.9000000000000341
  0
LINE
  5
1B9
330
1F
100
AcDbEntity
  8
0
100
AcDbLine
 10
142.3293931398
 20
-12.2360158311
 30
0.0
 11
144.1293931398
 21
-12.2360158311
 31
0.0
  0
CIRCLE
  5
1BA
330
1F
100
AcDbEntity
  8
0
100
AcDbCircle
 10
201.4293931398
 20
2.4601365916
 30
0.0
 40
3.000000000000028
  0
CIRCLE
  5
1BB
330
1F
100
AcDbEntity
  8
0
100
AcDbCircle
 10
201.4293931398
 20
2.4601365916
 30
0.0
 40
0.9000000000000341
  0
CIRCLE
  5
1BC
330
1F
100
AcDbEntity
  8
0
100
AcDbCircle
 10
305.4293931398
 20
319.0601365916
 30
0.0
 40
3.0
  0
CIRCLE
  5
1BD
330
1F
100
AcDbEntity
  8
0
100
AcDbCircle
 10
305.4293931398
 20
319.0601365916
 30
0.0
 40
0.8999999999999773
  0
CIRCLE
  5
1BE
330
1F
100
AcDbEntity
  8
0
100
AcDbCircle
 10
363.6293931398
 20
4.5639841689
 30
0.0
 40
2.999999999999958
  0
CIRCLE
  5
1BF
330
1F
100
AcDbEntity
  8
0
100
AcDbCircle
 10
363.6293931398
 20
4.5639841689
 30
0.0
 40
0.8999999999999782
  0
CIRCLE
  5
1C0
330
1F
100
AcDbEntity
  8
0
100
AcDbCircle
 10
143.2293931398
 20
110.4639841689
 30
0.0
 40
3.0
  0
CIRCLE
  5
1C1
330
1F
100
AcDbEntity
  8
0
100
AcDbCircle
 10
143.2293931398
 20
110.4639841689
 30
0.0
 40
0.9000000000000057
  0
LINE
  5
1C2
330
1F
100
AcDbEntity
  8
0
100
AcDbLine
 10
301.8643931437
 20
342.9639841689
 30
0.0
 11
272.9943931398
 21
342.9639841689
 31
0.0
  0
LINE
  5
1C3
330
1F
100
AcDbEntity
  8
0
100
AcDbLine
 10
279.8643931437
 20
352.9639841689
 30
0.0
 11
255.8643931437
 21
352.9639841689
 31
0.0
  0
LINE
  5
1C4
330
1F
100
AcDbEntity
  8
0
100
AcDbLine
 10
272.9943931398
 20
342.9639841689
 30
0.0
 11
204.9943931398
 21
342.9639841689
 31
0.0
  0
LINE
  5
1C5
330
1F
100
AcDbEntity
  8
0
100
AcDbLine
 10
250.9943931398
 20
352.9639841689
 30
0.0
 11
226.9943931398
 21
352.9639841689
 31
0.0
  0
LINE
  5
1C6
330
1F
100
AcDbEntity
  8
0
100
AcDbLine
 10
371.7526164446
 20
339.2639841689
 30
0.0
 11
371.7526164447
 21
331.9639841689
 31
0.0
  0
LINE
  5
1C7
330
1F
100
AcDbEntity
  8
0
100
AcDbLine
 10
135.106169835
 20
331.9639841689
 30
0.0
 11
371.7526164447
 21
331.9639841689
 31
0.0
  0
LINE
  5
1C8
330
1F
100
AcDbEntity
  8
0
100
AcDbLine
 10
135.106169835
 20
331.9639841689
 30
0.0
 11
135.106169835
 21
339.2639841689
 31
0.0
  0
ELLIPSE
  5
1C9
330
1F
100
AcDbEntity
  8
0
100
AcDbEllipse
 10
370.9293931398
 20
339.2639841689
 30
0.0
 11
0.0
 21
1.700000000000045
 31
0.0
210
0.0
220
0.0
230
1.0
 40
0.4842490028
 41
4.712388980384697
 42
6.283185307179586
  0
LWPOLYLINE
  5
1CA
330
1F
100
AcDbEntity
  8
0
100
AcDbPolyline
 90
        9
 70
   128
 43
0.0
 10
135.106169835
 20
339.2639841689
 10
135.12198784
 20
339.5956377163
 10
135.1688339778
 20
339.9145460039
 10
135.2449079777
 20
340.208453565
 10
135.3472863586
 20
340.4660656969
 10
135.4720347765
 20
340.6774825098
 10
135.6143592199
 20
340.8345793741
 10
135.7687902402
 20
340.9313191455
 10
135.9293931398
 20
340.9639841689
  0
LINE
  5
1CB
330
1F
100
AcDbEntity
  8
0
100
AcDbLine
 10
135.9293931398
 20
340.9639841689
 30
0.0
 11
370.9293931398
 21
340.9639841689
 31
0.0
  0
LINE
  5
1CC
330
1F
100
AcDbEntity
  8
0
100
AcDbLine
 10
372.6293931399
 20
331.9639841689
 30
0.0
 11
372.6293931399
 21
339.2639841689
 31
0.0
  0
LINE
  5
1CD
330
1F
100
AcDbEntity
  8
0
100
AcDbLine
 10
371.9293931399
 20
331.9639841689
 30
0.0
 11
371.9293931399
 21
339.2639841689
 31
0.0
  0
LINE
  5
1CE
330
1F
100
AcDbEntity
  8
0
100
AcDbLine
 10
371.9293931399
 20
331.9639841689
 30
0.0
 11
372.6293931399
 21
331.9639841689
 31
0.0
  0
ARC
  5
1CF
330
1F
100
AcDbEntity
  8
0
100
AcDbCircle
 10
370.9293931399
 20
339.2639841689
 30
0.0
 40
1.700000000000045
100
AcDbArc
 50
0.0
 51
90.0
  0
ARC
  5
1D0
330
1F
100
AcDbEntity
  8
0
100
AcDbCircle
 10
370.9293931399
 20
339.2639841689
 30
0.0
 40
1.0
100
AcDbArc
 50
0.0
 51
40.4566220707
  0
LINE
  5
1D1
330
1F
100
AcDbEntity
  8
0
100
AcDbLine
 10
134.2293931398
 20
339.2639841689
 30
0.0
 11
134.2293931398
 21
331.9639841689
 31
0.0
  0
LINE
  5
1D2
330
1F
100
AcDbEntity
  8
0
100
AcDbLine
 10
134.9293931398
 20
331.9639841689
 30
0.0
 11
134.2293931398
 21
331.9639841689
 31
0.0
  0
LINE
  5
1D3
330
1F
100
AcDbEntity
  8
0
100
AcDbLine
 10
134.9293931398
 20
339.2639841689
 30
0.0
 11
134.9293931398
 21
331.9639841689
 31
0.0
  0
ARC
  5
1D4
330
1F
100
AcDbEntity
  8
0
100
AcDbCircle
 10
135.9293931398
 20
339.2639841689
 30
0.0
 40
1.700000000000017
100
AcDbArc
 50
90.0
 51
180.0
  0
ARC
  5
1D5
330
1F
100
AcDbEntity
  8
0
100
AcDbCircle
 10
135.9293931398
 20
339.2639841689
 30
0.0
 40
1.0
100
AcDbArc
 50
139.5433993125
 51
180.0
  0
LINE
  5
1D6
330
1F
100
AcDbEntity
  8
0
100
AcDbLine
 10
138.9293931398
 20
-9.7360158311
 30
0.0
 11
138.9293931398
 21
331.9639841689
 31
0.0
  0
LINE
  5
1D7
330
1F
100
AcDbEntity
  8
0
100
AcDbLine
 10
367.9293931398
 20
-9.7360158311
 30
0.0
 11
367.9293931398
 21
331.9639841689
 31
0.0
  0
LINE
  5
1D8
330
1F
100
AcDbEntity
  8
0
100
AcDbLine
 10
138.9293931398
 20
-11.4360158311
 30
0.0
 11
367.9293931398
 21
-11.4360158311
 31
0.0
  0
LINE
  5
1D9
330
1F
100
AcDbEntity
  8
0
100
AcDbLine
 10
138.9293931398
 20
-11.4360158311
 30
0.0
 11
138.9293931398
 21
-9.7360158311
 31
0.0
  0
LINE
  5
1DA
330
1F
100
AcDbEntity
  8
0
100
AcDbLine
 10
367.9293931398
 20
-11.4360158311
 30
0.0
 11
367.9293931398
 21
-9.7360158311
 31
0.0
  0
LINE
  5
1DB
330
1F
100
AcDbEntity
  8
0
100
AcDbLine
 10
103.2293928377
 20
31.8639841689
 30
0.0
 11
103.2293928377
 21
295.6639841689
 31
0.0
  0
LINE
  5
1DC
330
1F
100
AcDbEntity
  8
0
100
AcDbLine
 10
107.4293928377
 20
31.8639841689
 30
0.0
 11
107.4293928377
 21
295.6639841689
 31
0.0
  0
LINE
  5
1DD
330
1F
100
AcDbEntity
  8
0
100
AcDbLine
 10
399.429393442
 20
295.6639841689
 30
0.0
 11
399.429393442
 21
31.8639841689
 31
0.0
  0
LINE
  5
1DE
330
1F
100
AcDbEntity
  8
0
100
AcDbLine
 10
403.629393442
 20
295.6639841689
 30
0.0
 11
403.629393442
 21
31.8639841689
 31
0.0
  0
LINE
  5
1DF
330
1F
100
AcDbEntity
  8
0
100
AcDbLine
 10
406.4293931398
 20
163.7639841689
 30
0.0
 11
406.4293931398
 21
38.7639841689
 31
0.0
  0
LINE
  5
1E0
330
1F
100
AcDbEntity
  8
0
100
AcDbLine
 10
406.4293931398
 20
288.7639841689
 30
0.0
 11
406.4293931398
 21
163.7639841689
 31
0.0
  0
LINE
  5
1E1
330
1F
100
AcDbEntity
  8
0
100
AcDbLine
 10
388.1083618002
 20
163.7639841689
 30
0.0
 11
388.1083618002
 21
38.8140355693
 31
0.0
  0
LINE
  5
1E2
330
1F
100
AcDbEntity
  8
0
100
AcDbLine
 10
388.1083618002
 20
288.7139327684
 30
0.0
 11
388.1083618002
 21
163.7639841689
 31
0.0
  0
LINE
  5
1E3
330
1F
100
AcDbEntity
  8
0
100
AcDbLine
 10
389.851926906
 20
163.7639841689
 30
0.0
 11
389.851926906
 21
40.5576006751
 31
0.0
  0
LINE
  5
1E4
330
1F
100
AcDbEntity
  8
0
100
AcDbLine
 10
389.851926906
 20
286.9703676627
 30
0.0
 11
389.851926906
 21
163.7639841689
 31
0.0
  0
LINE
  5
1E5
330
1F
100
AcDbEntity
  8
0
100
AcDbLine
 10
396.8742607053
 20
163.7639841689
 30
0.0
 11
396.8742607053
 21
42.5647389825
 31
0.0
  0
LINE
  5
1E6
330
1F
100
AcDbEntity
  8
0
100
AcDbLine
 10
396.8742607053
 20
284.9632293552
 30
0.0
 11
396.8742607053
 21
163.7639841689
 31
0.0
  0
LINE
  5
1E7
330
1F
100
AcDbEntity
  8
0
100
AcDbLine
 10
100.4293931398
 20
38.7639841689
 30
0.0
 11
100.4293931398
 21
288.7639841689
 31
0.0
  0
LINE
  5
1E8
330
1F
100
AcDbEntity
  8
0
100
AcDbLine
 10
118.7504244795
 20
38.8140355693
 30
0.0
 11
118.7504244795
 21
288.7139327684
 31
0.0
  0
LINE
  5
1E9
330
1F
100
AcDbEntity
  8
0
100
AcDbLine
 10
117.0068593737
 20
40.5576006751
 30
0.0
 11
117.0068593737
 21
286.9703676627
 31
0.0
  0
LINE
  5
1EA
330
1F
100
AcDbEntity
  8
0
100
AcDbLine
 10
109.9845255744
 20
42.5647389825
 30
0.0
 11
109.9845255744
 21
284.9632293552
 31
0.0
  0
LINE
  5
1EB
330
1F
100
AcDbEntity
  8
0
  6
PHANTOM
 62
     8
370
    18
100
AcDbLine
 10
228.0943931398
 20
391.7639841689
 30
0.0
 11
249.8943931398
 21
391.7639841689
 31
0.0
  0
LINE
  5
1EC
330
1F
100
AcDbEntity
  8
0
  6
PHANTOM
 62
     8
370
    18
100
AcDbLine
 10
228.1497721851
 20
391.7639841689
 30
0.0
 11
228.1497721851
 21
383.5639841689
 31
0.0
  0
ARC
  5
1ED
330
1F
100
AcDbEntity
  8
0
  6
PHANTOM
 62
     8
370
    18
100
AcDbCircle
 10
229.5462248133
 20
391.7675315868
 30
0.0
 40
1.396457133984207
100
AcDbArc
 50
90.1462917956
 51
180.1455485371
  0
LINE
  5
1EE
330
1F
100
AcDbEntity
  8
0
  6
PHANTOM
 62
     8
370
    18
100
AcDbLine
 10
256.9643931437
 20
391.7639841689
 30
0.0
 11
278.7643931437
 21
391.7639841689
 31
0.0
  0
LINE
  5
1EF
330
1F
100
AcDbEntity
  8
0
  6
PHANTOM
 62
     8
370
    18
100
AcDbLine
 10
181.8293931398
 20
342.0139841689
 30
0.0
 11
190.0293931398
 21
342.0139841689
 31
0.0
  0
LINE
  5
1F0
330
1F
100
AcDbEntity
  8
0
  6
PHANTOM
 62
     8
370
    18
100
AcDbLine
 10
316.8293931399
 20
342.0139841689
 30
0.0
 11
325.0293931399
 21
342.0139841689
 31
0.0
  0
LINE
  5
1F1
330
1F
100
AcDbEntity
  8
0
  6
PHANTOM
 62
     8
370
    18
100
AcDbLine
 10
136.8293931398
 20
342.0139841689
 30
0.0
 11
145.0293931398
 21
342.0139841689
 31
0.0
  0
LINE
  5
1F2
330
1F
100
AcDbEntity
  8
0
  6
PHANTOM
 62
     8
370
    18
100
AcDbLine
 10
361.8293931399
 20
342.0139841689
 30
0.0
 11
370.0293931399
 21
342.0139841689
 31
0.0
  0
LINE
  5
1F3
330
1F
100
AcDbEntity
  8
0
  6
PHANTOM
 62
     8
370
    18
100
AcDbLine
 10
279.8643931437
 20
350.9639841689
 30
0.0
 11
255.8643931437
 21
350.9639841689
 31
0.0
  0
LINE
  5
1F4
330
1F
100
AcDbEntity
  8
0
  6
PHANTOM
 62
     8
370
    18
100
AcDbLine
 10
250.9943931398
 20
350.9639841689
 30
0.0
 11
226.9943931398
 21
350.9639841689
 31
0.0
  0
LINE
  5
1F5
330
1F
100
AcDbEntity
  8
0
  6
PHANTOM
 62
     8
370
    18
100
AcDbLine
 10
135.106169835
 20
339.2639841689
 30
0.0
 11
371.7526164446
 21
339.2639841689
 31
0.0
  0
LINE
  5
1F6
330
1F
100
AcDbEntity
  8
0
  6
PHANTOM
 62
     8
370
    18
100
AcDbLine
 10
371.9293931399
 20
339.2639841689
 30
0.0
 11
372.6293931399
 21
339.2639841689
 31
0.0
  0
LINE
  5
1F7
330
1F
100
AcDbEntity
  8
0
  6
PHANTOM
 62
     8
370
    18
100
AcDbLine
 10
134.9293931398
 20
339.2639841689
 30
0.0
 11
134.2293931398
 21
339.2639841689
 31
0.0
  0
LINE
  5
1F8
330
1F
100
AcDbEntity
  8
0
  6
PHANTOM
 62
     8
370
    18
100
AcDbLine
 10
138.9293931398
 20
-9.7360158311
 30
0.0
 11
367.9293931398
 21
-9.7360158311
 31
0.0
  0
LINE
  5
1F9
330
1F
100
AcDbEntity
  8
0
  6
PHANTOM
 62
     8
370
    18
100
AcDbLine
 10
102.2312857197
 20
31.8205181012
 30
0.0
 11
102.2312857197
 21
295.7074502366
 31
0.0
  0
LINE
  5
1FA
330
1F
100
AcDbEntity
  8
0
  6
PHANTOM
 62
     8
370
    18
100
AcDbLine
 10
106.4312857197
 20
31.8205181012
 30
0.0
 11
106.4312857197
 21
295.7074502366
 31
0.0
  0
LINE
  5
1FB
330
1F
100
AcDbEntity
  8
0
  6
PHANTOM
 62
     8
370
    18
100
AcDbLine
 10
105.7493119816
 20
39.6357172027
 30
0.0
 11
105.7493119816
 21
287.892251135
 31
0.0
  0
LINE
  5
1FC
330
1F
100
AcDbEntity
  8
0
  6
PHANTOM
 62
     8
370
    18
100
AcDbLine
 10
101.5493119816
 20
39.6357172027
 30
0.0
 11
101.5493119816
 21
287.892251135
 31
0.0
  0
LINE
  5
1FD
330
1F
100
AcDbEntity
  8
0
  6
PHANTOM
 62
     8
370
    18
100
AcDbLine
 10
101.3002584227
 20
39.8639841689
 30
0.0
 11
101.3002584227
 21
287.6639841689
 31
0.0
  0
LINE
  5
1FE
330
1F
100
AcDbEntity
  8
0
  6
PHANTOM
 62
     8
370
    18
100
AcDbLine
 10
105.5002584227
 20
39.8639841689
 30
0.0
 11
105.5002584227
 21
287.6639841689
 31
0.0
  0
LINE
  5
1FF
330
1F
100
AcDbEntity
  8
0
  6
PHANTOM
 62
     8
370
    18
100
AcDbLine
 10
400.42750056
 20
295.7074502366
 30
0.0
 11
400.42750056
 21
31.8205181012
 31
0.0
  0
LINE
  5
200
330
1F
100
AcDbEntity
  8
0
  6
PHANTOM
 62
     8
370
    18
100
AcDbLine
 10
404.62750056
 20
295.7074502366
 30
0.0
 11
404.62750056
 21
31.8205181012
 31
0.0
  0
LINE
  5
201
330
1F
100
AcDbEntity
  8
0
  6
PHANTOM
 62
     8
370
    18
100
AcDbLine
 10
401.109474298
 20
287.892251135
 30
0.0
 11
401.109474298
 21
39.6357172027
 31
0.0
  0
LINE
  5
202
330
1F
100
AcDbEntity
  8
0
  6
PHANTOM
 62
     8
370
    18
100
AcDbLine
 10
405.309474298
 20
287.892251135
 30
0.0
 11
405.309474298
 21
39.6357172027
 31
0.0
  0
LINE
  5
203
330
1F
100
AcDbEntity
  8
0
  6
PHANTOM
 62
     8
370
    18
100
AcDbLine
 10
405.558527857
 20
287.6639841689
 30
0.0
 11
405.558527857
 21
39.8639841689
 31
0.0
  0
LINE
  5
204
330
1F
100
AcDbEntity
  8
0
  6
PHANTOM
 62
     8
370
    18
100
AcDbLine
 10
401.358527857
 20
287.6639841689
 30
0.0
 11
401.358527857
 21
39.8639841689
 31
0.0
  0
LINE
  5
205
330
1F
100
AcDbEntity
  8
0
  6
PHANTOM
 62
     8
370
    18
100
AcDbLine
 10
411.1293931398
 20
163.7639841689
 30
0.0
 11
411.1293931398
 21
38.7639841689
 31
0.0
  0
LINE
  5
206
330
1F
100
AcDbEntity
  8
0
  6
PHANTOM
 62
     8
370
    18
100
AcDbLine
 10
411.1293931398
 20
288.7639841689
 30
0.0
 11
411.1293931398
 21
163.7639841689
 31
0.0
  0
LINE
  5
207
330
1F
100
AcDbEntity
  8
0
  6
PHANTOM
 62
     8
370
    18
100
AcDbLine
 10
95.7293931398
 20
38.7639841689
 30
0.0
 11
95.7293931398
 21
288.7639841689
 31
0.0
  0
INSERT
  5
208
330
1F
100
AcDbEntity
  8
0
  6
Continuous
 62
     7
100
AcDbBlockReference
  2
ODA_2
 10
486.4114507827
 20
156.2639841689
 30
0.0
 41
3.0
 42
3.0
 43
3.0
  0
INSERT
  5
209
330
1F
100
AcDbEntity
  8
0
  6
Continuous
 62
     7
100
AcDbBlockReference
  2
SUP_2_
 10
52.0185607962
 20
159.9282597939
 30
0.0
 41
3.0
 42
3.0
 43
3.0
  0
LINE
  5
20A
330
1F
100
AcDbEntity
  8
0
100
AcDbLine
 10
-419.8420061705
 20
138.7673647408
 30
0.0
 11
-419.8420061705
 21
188.7606035969
 31
0.0
  0
LINE
  5
20B
330
1F
100
AcDbEntity
  8
0
100
AcDbLine
 10
-400.0120061705
 20
233.8692909062
 30
0.0
 11
-400.0120061705
 21
214.2513494745
 31
0.0
  0
LINE
  5
20C
330
1F
100
AcDbEntity
  8
0
100
AcDbLine
 10
-400.0120061705
 20
206.4513494745
 30
0.0
 11
-400.0120061705
 21
93.6586774315
 31
0.0
  0
LINE
  5
20D
330
1F
100
AcDbEntity
  8
0
100
AcDbLine
 10
-386.5120061705
 20
77.8260907069
 30
0.0
 11
-386.5120061705
 21
206.4513494745
 31
0.0
  0
LINE
  5
20E
330
1F
100
AcDbEntity
  8
0
100
AcDbLine
 10
-386.5120061705
 20
214.2513494745
 30
0.0
 11
-386.5120061705
 21
249.7018776308
 31
0.0
  0
LINE
  5
20F
330
1F
100
AcDbEntity
  8
0
100
AcDbLine
 10
-416.6770061727
 20
200.6730072161
 30
0.0
 11
-416.6770061727
 21
126.8549611216
 31
0.0
  0
LINE
  5
210
330
1F
100
AcDbEntity
  8
0
100
AcDbLine
 10
-403.1770061727
 20
98.3208907036
 30
0.0
 11
-403.1770061727
 21
206.4513494745
 31
0.0
  0
LINE
  5
211
330
1F
100
AcDbEntity
  8
0
100
AcDbLine
 10
-403.1770061727
 20
214.2513494745
 30
0.0
 11
-403.1770061727
 21
229.2070776341
 31
0.0
  0
LINE
  5
212
330
1F
100
AcDbEntity
  8
0
100
AcDbLine
 10
-366.6820061705
 20
265.5155285433
 30
0.0
 11
-366.6820061705
 21
214.2513494745
 31
0.0
  0
LINE
  5
213
330
1F
100
AcDbEntity
  8
0
100
AcDbLine
 10
-366.6820061705
 20
206.4513494745
 30
0.0
 11
-366.6820061705
 21
62.0124397944
 31
0.0
  0
LINE
  5
214
330
1F
100
AcDbEntity
  8
0
100
AcDbLine
 10
-353.1820061705
 20
54.5667576357
 30
0.0
 11
-353.1820061705
 21
206.4513494745
 31
0.0
  0
LINE
  5
215
330
1F
100
AcDbEntity
  8
0
100
AcDbLine
 10
-353.1820061705
 20
214.2513494745
 30
0.0
 11
-353.1820061705
 21
272.961210702
 31
0.0
  0
LINE
  5
216
330
1F
100
AcDbEntity
  8
0
100
AcDbLine
 10
-383.3470061727
 20
252.7122142373
 30
0.0
 11
-383.3470061727
 21
214.2513494745
 31
0.0
  0
LINE
  5
217
330
1F
100
AcDbEntity
  8
0
100
AcDbLine
 10
-383.3470061727
 20
206.4513494745
 30
0.0
 11
-383.3470061727
 21
74.8157541005
 31
0.0
  0
LINE
  5
218
330
1F
100
AcDbEntity
  8
0
100
AcDbLine
 10
-369.8470061727
 20
64.102556664
 30
0.0
 11
-369.8470061727
 21
206.4513494745
 31
0.0
  0
LINE
  5
219
330
1F
100
AcDbEntity
  8
0
100
AcDbLine
 10
-369.8470061727
 20
214.2513494745
 30
0.0
 11
-369.8470061727
 21
263.4254116737
 31
0.0
  0
LINE
  5
21A
330
1F
100
AcDbEntity
  8
0
100
AcDbLine
 10
-333.3520061705
 20
280.2552788326
 30
0.0
 11
-333.3520061705
 21
214.2513494745
 31
0.0
  0
LINE
  5
21B
330
1F
100
AcDbEntity
  8
0
100
AcDbLine
 10
-333.3520061705
 20
206.4513494745
 30
0.0
 11
-333.3520061705
 21
47.2726895051
 31
0.0
  0
LINE
  5
21C
330
1F
100
AcDbEntity
  8
0
100
AcDbLine
 10
-319.8520061705
 20
44.4284520236
 30
0.0
 11
-319.8520061705
 21
206.4513494745
 31
0.0
  0
LINE
  5
21D
330
1F
100
AcDbEntity
  8
0
100
AcDbLine
 10
-319.8520061705
 20
214.2513494745
 30
0.0
 11
-319.8520061705
 21
283.0995163141
 31
0.0
  0
LINE
  5
21E
330
1F
100
AcDbEntity
  8
0
100
AcDbLine
 10
-350.0170061727
 20
274.3963550298
 30
0.0
 11
-350.0170061727
 21
214.2513494745
 31
0.0
  0
LINE
  5
21F
330
1F
100
AcDbEntity
  8
0
100
AcDbLine
 10
-350.0170061727
 20
206.4513494745
 30
0.0
 11
-350.0170061727
 21
53.131613308
 31
0.0
  0
LINE
  5
220
330
1F
100
AcDbEntity
  8
0
100
AcDbLine
 10
-336.5170061727
 20
48.1775490551
 30
0.0
 11
-336.5170061727
 21
206.4513494745
 31
0.0
  0
LINE
  5
221
330
1F
100
AcDbEntity
  8
0
100
AcDbLine
 10
-336.5170061727
 20
214.2513494745
 30
0.0
 11
-336.5170061727
 21
279.3504192826
 31
0.0
  0
LINE
  5
222
330
1F
100
AcDbEntity
  8
0
100
AcDbLine
 10
-300.0220061705
 20
284.4507228036
 30
0.0
 11
-300.0220061705
 21
214.2513494745
 31
0.0
  0
LINE
  5
223
330
1F
100
AcDbEntity
  8
0
100
AcDbLine
 10
-300.0220061705
 20
206.4513494745
 30
0.0
 11
-300.0220061705
 21
43.0772455341
 31
0.0
  0
LINE
  5
224
330
1F
100
AcDbEntity
  8
0
100
AcDbLine
 10
-286.5220061705
 20
44.0304200265
 30
0.0
 11
-286.5220061705
 21
206.4513494745
 31
0.0
  0
LINE
  5
225
330
1F
100
AcDbEntity
  8
0
100
AcDbLine
 10
-286.5220061705
 20
214.2513494745
 30
0.0
 11
-286.5220061705
 21
283.4975483112
 31
0.0
  0
LINE
  5
226
330
1F
100
AcDbEntity
  8
0
100
AcDbLine
 10
-316.6870061727
 20
283.536591773
 30
0.0
 11
-316.6870061727
 21
214.2513494745
 31
0.0
  0
LINE
  5
227
330
1F
100
AcDbEntity
  8
0
100
AcDbLine
 10
-316.6870061727
 20
206.4513494745
 30
0.0
 11
-316.6870061727
 21
43.9913765647
 31
0.0
  0
LINE
  5
228
330
1F
100
AcDbEntity
  8
0
100
AcDbLine
 10
-303.1870061727
 20
43.07318074
 30
0.0
 11
-303.1870061727
 21
206.4513494745
 31
0.0
  0
LINE
  5
229
330
1F
100
AcDbEntity
  8
0
100
AcDbLine
 10
-303.1870061727
 20
214.2513494745
 30
0.0
 11
-303.1870061727
 21
284.4547875977
 31
0.0
  0
LINE
  5
22A
330
1F
100
AcDbEntity
  8
0
100
AcDbLine
 10
-266.6920061705
 20
279.2567468518
 30
0.0
 11
-266.6920061705
 21
214.2513494745
 31
0.0
  0
LINE
  5
22B
330
1F
100
AcDbEntity
  8
0
100
AcDbLine
 10
-266.6920061705
 20
206.4513494745
 30
0.0
 11
-266.6920061705
 21
48.2712214859
 31
0.0
  0
LINE
  5
22C
330
1F
100
AcDbEntity
  8
0
100
AcDbLine
 10
-253.1920061705
 20
53.2673519483
 30
0.0
 11
-253.1920061705
 21
206.4513494745
 31
0.0
  0
LINE
  5
22D
330
1F
100
AcDbEntity
  8
0
100
AcDbLine
 10
-253.1920061705
 20
214.2513494745
 30
0.0
 11
-253.1920061705
 21
274.2606163894
 31
0.0
  0
LINE
  5
22E
330
1F
100
AcDbEntity
  8
0
100
AcDbLine
 10
-283.3570061727
 20
283.0521050456
 30
0.0
 11
-283.3570061727
 21
214.2513494745
 31
0.0
  0
LINE
  5
22F
330
1F
100
AcDbEntity
  8
0
100
AcDbLine
 10
-283.3570061727
 20
206.4513494745
 30
0.0
 11
-283.3570061727
 21
44.4758632921
 31
0.0
  0
LINE
  5
230
330
1F
100
AcDbEntity
  8
0
100
AcDbLine
 10
-269.8570061727
 20
47.3572048031
 30
0.0
 11
-269.8570061727
 21
206.4513494745
 31
0.0
  0
LINE
  5
231
330
1F
100
AcDbEntity
  8
0
100
AcDbLine
 10
-269.8570061727
 20
214.2513494745
 30
0.0
 11
-269.8570061727
 21
280.1707635346
 31
0.0
  0
LINE
  5
232
330
1F
100
AcDbEntity
  8
0
100
AcDbLine
 10
-233.3620061705
 20
263.212914691
 30
0.0
 11
-233.3620061705
 21
214.2513494745
 31
0.0
  0
LINE
  5
233
330
1F
100
AcDbEntity
  8
0
100
AcDbLine
 10
-233.3620061705
 20
206.4513494745
 30
0.0
 11
-233.3620061705
 21
64.3150536467
 31
0.0
  0
LINE
  5
234
330
1F
100
AcDbEntity
  8
0
100
AcDbLine
 10
-219.8620061705
 20
75.1010985744
 30
0.0
 11
-219.8620061705
 21
206.4513494745
 31
0.0
  0
LINE
  5
235
330
1F
100
AcDbEntity
  8
0
100
AcDbLine
 10
-219.8620061705
 20
214.2513494745
 30
0.0
 11
-219.8620061705
 21
252.4268697633
 31
0.0
  0
LINE
  5
236
330
1F
100
AcDbEntity
  8
0
100
AcDbLine
 10
-250.0270061727
 20
272.8146890373
 30
0.0
 11
-250.0270061727
 21
214.2513494745
 31
0.0
  0
LINE
  5
237
330
1F
100
AcDbEntity
  8
0
100
AcDbLine
 10
-250.0270061727
 20
206.4513494745
 30
0.0
 11
-250.0270061727
 21
54.7132793004
 31
0.0
  0
LINE
  5
238
330
1F
100
AcDbEntity
  8
0
100
AcDbLine
 10
-236.5270061727
 20
62.2109008464
 30
0.0
 11
-236.5270061727
 21
206.4513494745
 31
0.0
  0
LINE
  5
239
330
1F
100
AcDbEntity
  8
0
100
AcDbLine
 10
-236.5270061727
 20
214.2513494745
 30
0.0
 11
-236.5270061727
 21
265.3170674913
 31
0.0
  0
LINE
  5
23A
330
1F
100
AcDbEntity
  8
0
100
AcDbLine
 10
-200.0320061705
 20
228.724152979
 30
0.0
 11
-200.0320061705
 21
214.2513494745
 31
0.0
  0
LINE
  5
23B
330
1F
100
AcDbEntity
  8
0
100
AcDbLine
 10
-200.0320061705
 20
206.4513494745
 30
0.0
 11
-200.0320061705
 21
98.8038153587
 31
0.0
  0
LINE
  5
23C
330
1F
100
AcDbEntity
  8
0
100
AcDbLine
 10
-186.5320061705
 20
127.8344554803
 30
0.0
 11
-186.5320061705
 21
199.6935128575
 31
0.0
  0
LINE
  5
23D
330
1F
100
AcDbEntity
  8
0
100
AcDbLine
 10
-216.6970061727
 20
249.3950467706
 30
0.0
 11
-216.6970061727
 21
214.2513494745
 31
0.0
  0
LINE
  5
23E
330
1F
100
AcDbEntity
  8
0
100
AcDbLine
 10
-216.6970061727
 20
206.4513494745
 30
0.0
 11
-216.6970061727
 21
78.1329215671
 31
0.0
  0
LINE
  5
23F
330
1F
100
AcDbEntity
  8
0
100
AcDbLine
 10
-203.1970061727
 20
94.0951864019
 30
0.0
 11
-203.1970061727
 21
206.4513494745
 31
0.0
  0
LINE
  5
240
330
1F
100
AcDbEntity
  8
0
100
AcDbLine
 10
-203.1970061727
 20
214.2513494745
 30
0.0
 11
-203.1970061727
 21
233.4327819359
 31
0.0
  0
LINE
  5
241
330
1F
100
AcDbEntity
  8
0
100
AcDbLine
 10
-183.3670061727
 20
187.2485265809
 30
0.0
 11
-183.3670061727
 21
140.2794417569
 31
0.0
  0
LINE
  5
242
330
1F
100
AcDbEntity
  8
0
100
AcDbLine
 10
-200.5320061727
 20
214.0513494745
 30
0.0
 11
-200.5320061727
 21
210.3513494745
 31
0.0
  0
LINE
  5
243
330
1F
100
AcDbEntity
  8
0
100
AcDbLine
 10
-233.8620061727
 20
214.0513494745
 30
0.0
 11
-233.8620061727
 21
210.3513494745
 31
0.0
  0
LINE
  5
244
330
1F
100
AcDbEntity
  8
0
100
AcDbLine
 10
-219.3620061727
 20
210.3513494745
 30
0.0
 11
-219.3620061727
 21
214.0513494745
 31
0.0
  0
LINE
  5
245
330
1F
100
AcDbEntity
  8
0
100
AcDbLine
 10
-267.1920061727
 20
214.0513494745
 30
0.0
 11
-267.1920061727
 21
210.3513494745
 31
0.0
  0
LINE
  5
246
330
1F
100
AcDbEntity
  8
0
100
AcDbLine
 10
-252.6920061727
 20
210.3513494745
 30
0.0
 11
-252.6920061727
 21
214.0513494745
 31
0.0
  0
LINE
  5
247
330
1F
100
AcDbEntity
  8
0
100
AcDbLine
 10
-300.5220061727
 20
214.0513494745
 30
0.0
 11
-300.5220061727
 21
210.3513494745
 31
0.0
  0
LINE
  5
248
330
1F
100
AcDbEntity
  8
0
100
AcDbLine
 10
-286.0220061727
 20
210.3513494745
 30
0.0
 11
-286.0220061727
 21
214.0513494745
 31
0.0
  0
LINE
  5
249
330
1F
100
AcDbEntity
  8
0
100
AcDbLine
 10
-333.8520061727
 20
214.0513494745
 30
0.0
 11
-333.8520061727
 21
210.3513494745
 31
0.0
  0
LINE
  5
24A
330
1F
100
AcDbEntity
  8
0
100
AcDbLine
 10
-319.3520061727
 20
210.3513494745
 30
0.0
 11
-319.3520061727
 21
214.0513494745
 31
0.0
  0
LINE
  5
24B
330
1F
100
AcDbEntity
  8
0
100
AcDbLine
 10
-367.1820061727
 20
214.0513494745
 30
0.0
 11
-367.1820061727
 21
210.3513494745
 31
0.0
  0
LINE
  5
24C
330
1F
100
AcDbEntity
  8
0
100
AcDbLine
 10
-352.6820061727
 20
210.3513494745
 30
0.0
 11
-352.6820061727
 21
214.0513494745
 31
0.0
  0
LINE
  5
24D
330
1F
100
AcDbEntity
  8
0
100
AcDbLine
 10
-400.5120061727
 20
214.0513494745
 30
0.0
 11
-400.5120061727
 21
210.3513494745
 31
0.0
  0
LINE
  5
24E
330
1F
100
AcDbEntity
  8
0
100
AcDbLine
 10
-386.0120061727
 20
210.3513494745
 30
0.0
 11
-386.0120061727
 21
214.0513494745
 31
0.0
  0
LINE
  5
24F
330
1F
100
AcDbEntity
  8
0
100
AcDbLine
 10
-217.1970061727
 20
214.0513494745
 30
0.0
 11
-217.1970061727
 21
210.3513494745
 31
0.0
  0
LINE
  5
250
330
1F
100
AcDbEntity
  8
0
100
AcDbLine
 10
-202.6970061727
 20
210.3513494745
 30
0.0
 11
-202.6970061727
 21
214.0513494745
 31
0.0
  0
LINE
  5
251
330
1F
100
AcDbEntity
  8
0
100
AcDbLine
 10
-250.5270061727
 20
214.0513494745
 30
0.0
 11
-250.5270061727
 21
210.3513494745
 31
0.0
  0
LINE
  5
252
330
1F
100
AcDbEntity
  8
0
100
AcDbLine
 10
-236.0270061727
 20
210.3513494745
 30
0.0
 11
-236.0270061727
 21
214.0513494745
 31
0.0
  0
LINE
  5
253
330
1F
100
AcDbEntity
  8
0
100
AcDbLine
 10
-283.8570061727
 20
214.0513494745
 30
0.0
 11
-283.8570061727
 21
210.3513494745
 31
0.0
  0
LINE
  5
254
330
1F
100
AcDbEntity
  8
0
100
AcDbLine
 10
-269.3570061727
 20
210.3513494745
 30
0.0
 11
-269.3570061727
 21
214.0513494745
 31
0.0
  0
LINE
  5
255
330
1F
100
AcDbEntity
  8
0
100
AcDbLine
 10
-317.1870061727
 20
214.0513494745
 30
0.0
 11
-317.1870061727
 21
210.3513494745
 31
0.0
  0
LINE
  5
256
330
1F
100
AcDbEntity
  8
0
100
AcDbLine
 10
-302.6870061727
 20
210.3513494745
 30
0.0
 11
-302.6870061727
 21
214.0513494745
 31
0.0
  0
LINE
  5
257
330
1F
100
AcDbEntity
  8
0
100
AcDbLine
 10
-350.5170061727
 20
214.0513494745
 30
0.0
 11
-350.5170061727
 21
210.3513494745
 31
0.0
  0
LINE
  5
258
330
1F
100
AcDbEntity
  8
0
100
AcDbLine
 10
-336.0170061727
 20
210.3513494745
 30
0.0
 11
-336.0170061727
 21
214.0513494745
 31
0.0
  0
LINE
  5
259
330
1F
100
AcDbEntity
  8
0
100
AcDbLine
 10
-383.8470061727
 20
214.0513494745
 30
0.0
 11
-383.8470061727
 21
210.3513494745
 31
0.0
  0
LINE
  5
25A
330
1F
100
AcDbEntity
  8
0
100
AcDbLine
 10
-369.3470061727
 20
210.3513494745
 30
0.0
 11
-369.3470061727
 21
214.0513494745
 31
0.0
  0
LINE
  5
25B
330
1F
100
AcDbEntity
  8
0
100
AcDbLine
 10
-402.6770061727
 20
210.3513494745
 30
0.0
 11
-402.6770061727
 21
214.0513494745
 31
0.0
  0
LINE
  5
25C
330
1F
100
AcDbEntity
  8
0
100
AcDbLine
 10
-400.5120061727
 20
210.1513494745
 30
0.0
 11
-400.5120061727
 21
206.4513494745
 31
0.0
  0
LINE
  5
25D
330
1F
100
AcDbEntity
  8
0
100
AcDbLine
 10
-386.0120061727
 20
206.4513494745
 30
0.0
 11
-386.0120061727
 21
210.1513494745
 31
0.0
  0
LINE
  5
25E
330
1F
100
AcDbEntity
  8
0
100
AcDbLine
 10
-367.1820061727
 20
210.1513494745
 30
0.0
 11
-367.1820061727
 21
206.4513494745
 31
0.0
  0
LINE
  5
25F
330
1F
100
AcDbEntity
  8
0
100
AcDbLine
 10
-352.6820061727
 20
206.4513494745
 30
0.0
 11
-352.6820061727
 21
210.1513494745
 31
0.0
  0
LINE
  5
260
330
1F
100
AcDbEntity
  8
0
100
AcDbLine
 10
-333.8520061727
 20
210.1513494745
 30
0.0
 11
-333.8520061727
 21
206.4513494745
 31
0.0
  0
LINE
  5
261
330
1F
100
AcDbEntity
  8
0
100
AcDbLine
 10
-319.3520061727
 20
206.4513494745
 30
0.0
 11
-319.3520061727
 21
210.1513494745
 31
0.0
  0
LINE
  5
262
330
1F
100
AcDbEntity
  8
0
100
AcDbLine
 10
-300.5220061727
 20
210.1513494745
 30
0.0
 11
-300.5220061727
 21
206.4513494745
 31
0.0
  0
LINE
  5
263
330
1F
100
AcDbEntity
  8
0
100
AcDbLine
 10
-286.0220061727
 20
206.4513494745
 30
0.0
 11
-286.0220061727
 21
210.1513494745
 31
0.0
  0
LINE
  5
264
330
1F
100
AcDbEntity
  8
0
100
AcDbLine
 10
-267.1920061727
 20
210.1513494745
 30
0.0
 11
-267.1920061727
 21
206.4513494745
 31
0.0
  0
LINE
  5
265
330
1F
100
AcDbEntity
  8
0
100
AcDbLine
 10
-252.6920061727
 20
206.4513494745
 30
0.0
 11
-252.6920061727
 21
210.1513494745
 31
0.0
  0
LINE
  5
266
330
1F
100
AcDbEntity
  8
0
100
AcDbLine
 10
-233.8620061727
 20
210.1513494745
 30
0.0
 11
-233.8620061727
 21
206.4513494745
 31
0.0
  0
LINE
  5
267
330
1F
100
AcDbEntity
  8
0
100
AcDbLine
 10
-219.3620061727
 20
206.4513494745
 30
0.0
 11
-219.3620061727
 21
210.1513494745
 31
0.0
  0
LINE
  5
268
330
1F
100
AcDbEntity
  8
0
100
AcDbLine
 10
-200.5320061727
 20
210.1513494745
 30
0.0
 11
-200.5320061727
 21
206.4513494745
 31
0.0
  0
LINE
  5
269
330
1F
100
AcDbEntity
  8
0
100
AcDbLine
 10
-402.6770061727
 20
206.4513494745
 30
0.0
 11
-402.6770061727
 21
210.1513494745
 31
0.0
  0
LINE
  5
26A
330
1F
100
AcDbEntity
  8
0
100
AcDbLine
 10
-383.8470061727
 20
210.1513494745
 30
0.0
 11
-383.8470061727
 21
206.4513494745
 31
0.0
  0
LINE
  5
26B
330
1F
100
AcDbEntity
  8
0
100
AcDbLine
 10
-369.3470061727
 20
206.4513494745
 30
0.0
 11
-369.3470061727
 21
210.1513494745
 31
0.0
  0
LINE
  5
26C
330
1F
100
AcDbEntity
  8
0
100
AcDbLine
 10
-350.5170061727
 20
210.1513494745
 30
0.0
 11
-350.5170061727
 21
206.4513494745
 31
0.0
  0
LINE
  5
26D
330
1F
100
AcDbEntity
  8
0
100
AcDbLine
 10
-336.0170061727
 20
206.4513494745
 30
0.0
 11
-336.0170061727
 21
210.1513494745
 31
0.0
  0
LINE
  5
26E
330
1F
100
AcDbEntity
  8
0
100
AcDbLine
 10
-317.1870061727
 20
210.1513494745
 30
0.0
 11
-317.1870061727
 21
206.4513494745
 31
0.0
  0
LINE
  5
26F
330
1F
100
AcDbEntity
  8
0
100
AcDbLine
 10
-302.6870061727
 20
206.4513494745
 30
0.0
 11
-302.6870061727
 21
210.1513494745
 31
0.0
  0
LINE
  5
270
330
1F
100
AcDbEntity
  8
0
100
AcDbLine
 10
-283.8570061727
 20
210.1513494745
 30
0.0
 11
-283.8570061727
 21
206.4513494745
 31
0.0
  0
LINE
  5
271
330
1F
100
AcDbEntity
  8
0
100
AcDbLine
 10
-269.3570061727
 20
206.4513494745
 30
0.0
 11
-269.3570061727
 21
210.1513494745
 31
0.0
  0
LINE
  5
272
330
1F
100
AcDbEntity
  8
0
100
AcDbLine
 10
-250.5270061727
 20
210.1513494745
 30
0.0
 11
-250.5270061727
 21
206.4513494745
 31
0.0
  0
LINE
  5
273
330
1F
100
AcDbEntity
  8
0
100
AcDbLine
 10
-236.0270061727
 20
206.4513494745
 30
0.0
 11
-236.0270061727
 21
210.1513494745
 31
0.0
  0
LINE
  5
274
330
1F
100
AcDbEntity
  8
0
100
AcDbLine
 10
-217.1970061727
 20
210.1513494745
 30
0.0
 11
-217.1970061727
 21
206.4513494745
 31
0.0
  0
LINE
  5
275
330
1F
100
AcDbEntity
  8
0
100
AcDbLine
 10
-202.6970061727
 20
206.4513494745
 30
0.0
 11
-202.6970061727
 21
210.1513494745
 31
0.0
  0
LINE
  5
276
330
1F
100
AcDbEntity
  8
0
100
AcDbLine
 10
-456.0070061727
 20
369.7639841689
 30
0.0
 11
-456.0070061727
 21
360.5139841689
 31
0.0
  0
LINE
  5
277
330
1F
100
AcDbEntity
  8
0
100
AcDbLine
 10
-430.5070061727
 20
360.5139841689
 30
0.0
 11
-430.5070061727
 21
369.7639841689
 31
0.0
  0
LINE
  5
278
330
1F
100
AcDbEntity
  8
0
100
AcDbLine
 10
-456.0070061727
 20
360.5139841689
 30
0.0
 11
-455.2570061727
 21
359.7639841689
 31
0.0
  0
LINE
  5
279
330
1F
100
AcDbEntity
  8
0
100
AcDbLine
 10
-431.2570061727
 20
359.7639841689
 30
0.0
 11
-430.5070061727
 21
360.5139841689
 31
0.0
  0
LINE
  5
27A
330
1F
100
AcDbEntity
  8
0
100
AcDbLine
 10
-432.6070061727
 20
377.2639841689
 30
0.0
 11
-432.6070061727
 21
383.1639841689
 31
0.0
  0
LINE
  5
27B
330
1F
100
AcDbEntity
  8
0
100
AcDbLine
 10
-453.9070061727
 20
383.1639841689
 30
0.0
 11
-453.9070061727
 21
377.2639841689
 31
0.0
  0
LINE
  5
27C
330
1F
100
AcDbEntity
  8
0
100
AcDbLine
 10
-431.2570061727
 20
383.1639841689
 30
0.0
 11
-431.2570061727
 21
383.5639841689
 31
0.0
  0
LINE
  5
27D
330
1F
100
AcDbEntity
  8
0
100
AcDbLine
 10
-455.2570061727
 20
383.5639841689
 30
0.0
 11
-455.2570061727
 21
383.1639841689
 31
0.0
  0
LINE
  5
27E
330
1F
100
AcDbEntity
  8
0
100
AcDbLine
 10
-454.1570061727
 20
391.7639841689
 30
0.0
 11
-454.1570061727
 21
383.5639841689
 31
0.0
  0
LINE
  5
27F
330
1F
100
AcDbEntity
  8
0
100
AcDbLine
 10
-432.3570061727
 20
383.5639841689
 30
0.0
 11
-432.3570061727
 21
391.7639841689
 31
0.0
  0
ARC
  5
280
330
1F
100
AcDbEntity
  8
0
100
AcDbCircle
 10
-452.7570061727
 20
391.7639841689
 30
0.0
 40
1.400000000000034
100
AcDbArc
 50
90.0
 51
180.0
  0
ARC
  5
281
330
1F
100
AcDbEntity
  8
0
100
AcDbCircle
 10
-433.7570061727
 20
391.7639841689
 30
0.0
 40
1.399999999999977
100
AcDbArc
 50
0.0
 51
90.0
  0
LINE
  5
282
330
1F
100
AcDbEntity
  8
0
100
AcDbLine
 10
-432.2570061727
 20
358.7639841689
 30
0.0
 11
-432.2570061727
 21
359.7639841689
 31
0.0
  0
LINE
  5
283
330
1F
100
AcDbEntity
  8
0
100
AcDbLine
 10
-454.2570061727
 20
359.7639841689
 30
0.0
 11
-454.2570061727
 21
358.7639841689
 31
0.0
  0
LINE
  5
284
330
1F
100
AcDbEntity
  8
0
100
AcDbLine
 10
-431.1570061727
 20
349.7030321476
 30
0.0
 11
-431.1570061727
 21
358.7639841689
 31
0.0
  0
LINE
  5
285
330
1F
100
AcDbEntity
  8
0
100
AcDbLine
 10
-455.3570061727
 20
358.7639841689
 30
0.0
 11
-455.3570061727
 21
349.7030321476
 31
0.0
  0
LINE
  5
286
330
1F
100
AcDbEntity
  8
0
100
AcDbLine
 10
-172.7020061705
 20
360.5139841689
 30
0.0
 11
-171.9520061705
 21
359.7639841689
 31
0.0
  0
LINE
  5
287
330
1F
100
AcDbEntity
  8
0
100
AcDbLine
 10
-147.9520061705
 20
359.7639841689
 30
0.0
 11
-147.2020061705
 21
360.5139841689
 31
0.0
  0
LINE
  5
288
330
1F
100
AcDbEntity
  8
0
100
AcDbLine
 10
-172.7020061705
 20
369.7639841689
 30
0.0
 11
-172.7020061705
 21
360.5139841689
 31
0.0
  0
LINE
  5
289
330
1F
100
AcDbEntity
  8
0
100
AcDbLine
 10
-147.2020061705
 20
360.5139841689
 30
0.0
 11
-147.2020061705
 21
369.7639841689
 31
0.0
  0
LINE
  5
28A
330
1F
100
AcDbEntity
  8
0
100
AcDbLine
 10
-149.3020061705
 20
377.2639841689
 30
0.0
 11
-149.3020061705
 21
383.1639841689
 31
0.0
  0
LINE
  5
28B
330
1F
100
AcDbEntity
  8
0
100
AcDbLine
 10
-170.6020061705
 20
383.1639841689
 30
0.0
 11
-170.6020061705
 21
377.2639841689
 31
0.0
  0
LINE
  5
28C
330
1F
100
AcDbEntity
  8
0
100
AcDbLine
 10
-147.9520061705
 20
383.1639841689
 30
0.0
 11
-147.9520061705
 21
383.5639841689
 31
0.0
  0
LINE
  5
28D
330
1F
100
AcDbEntity
  8
0
100
AcDbLine
 10
-171.9520061705
 20
383.5639841689
 30
0.0
 11
-171.9520061705
 21
383.1639841689
 31
0.0
  0
ARC
  5
28E
330
1F
100
AcDbEntity
  8
0
100
AcDbCircle
 10
-169.4520061705
 20
391.7639841689
 30
0.0
 40
1.400000000000006
100
AcDbArc
 50
90.0
 51
180.0
  0
ARC
  5
28F
330
1F
100
AcDbEntity
  8
0
100
AcDbCircle
 10
-150.4520061705
 20
391.7639841689
 30
0.0
 40
1.400000000000006
100
AcDbArc
 50
0.0
 51
90.0
  0
LINE
  5
290
330
1F
100
AcDbEntity
  8
0
100
AcDbLine
 10
-170.8520061705
 20
391.7639841689
 30
0.0
 11
-170.8520061705
 21
383.5639841689
 31
0.0
  0
LINE
  5
291
330
1F
100
AcDbEntity
  8
0
100
AcDbLine
 10
-149.0520061705
 20
383.5639841689
 30
0.0
 11
-149.0520061705
 21
391.7639841689
 31
0.0
  0
LINE
  5
292
330
1F
100
AcDbEntity
  8
0
100
AcDbLine
 10
-148.9520061705
 20
358.7639841689
 30
0.0
 11
-148.9520061705
 21
359.7639841689
 31
0.0
  0
LINE
  5
293
330
1F
100
AcDbEntity
  8
0
100
AcDbLine
 10
-170.9520061705
 20
359.7639841689
 30
0.0
 11
-170.9520061705
 21
358.7639841689
 31
0.0
  0
LINE
  5
294
330
1F
100
AcDbEntity
  8
0
100
AcDbLine
 10
-147.8520061705
 20
349.7030321476
 30
0.0
 11
-147.8520061705
 21
358.7639841689
 31
0.0
  0
LINE
  5
295
330
1F
100
AcDbEntity
  8
0
100
AcDbLine
 10
-172.0520061705
 20
358.7639841689
 30
0.0
 11
-172.0520061705
 21
349.7030321476
 31
0.0
  0
LINE
  5
296
330
1F
100
AcDbEntity
  8
0
100
AcDbLine
 10
-172.3595061727
 20
342.0139841689
 30
0.0
 11
-172.3595061727
 21
340.9639841689
 31
0.0
  0
LINE
  5
297
330
1F
100
AcDbEntity
  8
0
100
AcDbLine
 10
-164.1595061727
 20
340.9639841689
 30
0.0
 11
-164.1595061727
 21
342.0139841689
 31
0.0
  0
ARC
  5
298
330
1F
100
AcDbEntity
  8
0
100
AcDbCircle
 10
-170.3595061727
 20
342.0139841689
 30
0.0
 40
2.0
100
AcDbArc
 50
90.0
 51
180.0
  0
ARC
  5
299
330
1F
100
AcDbEntity
  8
0
100
AcDbCircle
 10
-166.1595061727
 20
342.0139841689
 30
0.0
 40
2.0
100
AcDbArc
 50
0.0
 51
90.0
  0
LINE
  5
29A
330
1F
100
AcDbEntity
  8
0
100
AcDbLine
 10
-168.7845061727
 20
331.9639841689
 30
0.0
 11
-168.5595061727
 21
331.4639841689
 31
0.0
  0
LINE
  5
29B
330
1F
100
AcDbEntity
  8
0
100
AcDbLine
 10
-167.9595061727
 20
331.4639841689
 30
0.0
 11
-167.7345061727
 21
331.9639841689
 31
0.0
  0
LINE
  5
29C
330
1F
100
AcDbEntity
  8
0
100
AcDbLine
 10
-484.3595061728
 20
342.0139841689
 30
0.0
 11
-484.3595061728
 21
340.9639841689
 31
0.0
  0
LINE
  5
29D
330
1F
100
AcDbEntity
  8
0
100
AcDbLine
 10
-476.1595061728
 20
340.9639841689
 30
0.0
 11
-476.1595061728
 21
342.0139841689
 31
0.0
  0
ARC
  5
29E
330
1F
100
AcDbEntity
  8
0
100
AcDbCircle
 10
-482.3595061728
 20
342.0139841689
 30
0.0
 40
2.0
100
AcDbArc
 50
90.0
 51
180.0
  0
ARC
  5
29F
330
1F
100
AcDbEntity
  8
0
100
AcDbCircle
 10
-478.1595061728
 20
342.0139841689
 30
0.0
 40
2.0
100
AcDbArc
 50
0.0
 51
90.0
  0
LINE
  5
2A0
330
1F
100
AcDbEntity
  8
0
100
AcDbLine
 10
-480.7845061728
 20
331.9639841689
 30
0.0
 11
-480.5595061728
 21
331.4639841689
 31
0.0
  0
LINE
  5
2A1
330
1F
100
AcDbEntity
  8
0
100
AcDbLine
 10
-479.9595061728
 20
331.4639841689
 30
0.0
 11
-479.7345061728
 21
331.9639841689
 31
0.0
  0
LINE
  5
2A2
330
1F
100
AcDbEntity
  8
0
100
AcDbLine
 10
-127.3595061727
 20
342.0139841689
 30
0.0
 11
-127.3595061727
 21
340.9639841689
 31
0.0
  0
LINE
  5
2A3
330
1F
100
AcDbEntity
  8
0
100
AcDbLine
 10
-119.1595061727
 20
340.9639841689
 30
0.0
 11
-119.1595061727
 21
342.0139841689
 31
0.0
  0
ARC
  5
2A4
330
1F
100
AcDbEntity
  8
0
100
AcDbCircle
 10
-125.3595061727
 20
342.0139841689
 30
0.0
 40
2.000000000000057
100
AcDbArc
 50
90.0
 51
180.0
  0
ARC
  5
2A5
330
1F
100
AcDbEntity
  8
0
100
AcDbCircle
 10
-121.1595061727
 20
342.0139841689
 30
0.0
 40
2.000000000000057
100
AcDbArc
 50
0.0
 51
90.0
  0
LINE
  5
2A6
330
1F
100
AcDbEntity
  8
0
100
AcDbLine
 10
-123.7845061727
 20
331.9639841689
 30
0.0
 11
-123.5595061727
 21
331.4639841689
 31
0.0
  0
LINE
  5
2A7
330
1F
100
AcDbEntity
  8
0
100
AcDbLine
 10
-122.9595061727
 20
331.4639841689
 30
0.0
 11
-122.7345061727
 21
331.9639841689
 31
0.0
  0
LINE
  5
2A8
330
1F
100
AcDbEntity
  8
0
100
AcDbLine
 10
-305.8595061727
 20
342.0139841689
 30
0.0
 11
-305.8595061727
 21
340.9639841689
 31
0.0
  0
LINE
  5
2A9
330
1F
100
AcDbEntity
  8
0
100
AcDbLine
 10
-297.6595061727
 20
340.9639841689
 30
0.0
 11
-297.6595061727
 21
342.0139841689
 31
0.0
  0
ARC
  5
2AA
330
1F
100
AcDbEntity
  8
0
100
AcDbCircle
 10
-303.8595061727
 20
342.0139841689
 30
0.0
 40
2.0
100
AcDbArc
 50
90.0
 51
180.0
  0
ARC
  5
2AB
330
1F
100
AcDbEntity
  8
0
100
AcDbCircle
 10
-299.6595061727
 20
342.0139841689
 30
0.0
 40
2.0
100
AcDbArc
 50
0.0
 51
90.0
  0
LINE
  5
2AC
330
1F
100
AcDbEntity
  8
0
100
AcDbLine
 10
-302.2845061727
 20
331.9639841689
 30
0.0
 11
-302.0595061727
 21
331.4639841689
 31
0.0
  0
LINE
  5
2AD
330
1F
100
AcDbEntity
  8
0
100
AcDbLine
 10
-301.4595061727
 20
331.4639841689
 30
0.0
 11
-301.2345061727
 21
331.9639841689
 31
0.0
  0
LINE
  5
2AE
330
1F
100
AcDbEntity
  8
0
100
AcDbLine
 10
-439.3595061728
 20
342.0139841689
 30
0.0
 11
-439.3595061728
 21
340.9639841689
 31
0.0
  0
LINE
  5
2AF
330
1F
100
AcDbEntity
  8
0
100
AcDbLine
 10
-431.1595061728
 20
340.9639841689
 30
0.0
 11
-431.1595061728
 21
342.0139841689
 31
0.0
  0
ARC
  5
2B0
330
1F
100
AcDbEntity
  8
0
100
AcDbCircle
 10
-437.3595061728
 20
342.0139841689
 30
0.0
 40
2.0
100
AcDbArc
 50
90.0
 51
180.0
  0
ARC
  5
2B1
330
1F
100
AcDbEntity
  8
0
100
AcDbCircle
 10
-433.1595061728
 20
342.0139841689
 30
0.0
 40
2.0
100
AcDbArc
 50
0.0
 51
90.0
  0
LINE
  5
2B2
330
1F
100
AcDbEntity
  8
0
100
AcDbLine
 10
-435.7845061728
 20
331.9639841689
 30
0.0
 11
-435.5595061728
 21
331.4639841689
 31
0.0
  0
LINE
  5
2B3
330
1F
100
AcDbEntity
  8
0
100
AcDbLine
 10
-434.9595061728
 20
331.4639841689
 30
0.0
 11
-434.7345061728
 21
331.9639841689
 31
0.0
  0
ARC
  5
2B4
330
1F
100
AcDbEntity
  8
0
100
AcDbCircle
 10
-160.7750561643
 20
-7.2830845591
 30
0.0
 40
5.000000000000009
100
AcDbArc
 50
236.1590076815
 51
262.1320762394
  0
ARC
  5
2B5
330
1F
100
AcDbEntity
  8
0
100
AcDbCircle
 10
-160.3439561811
 20
-7.2830845591
 30
0.0
 40
4.999999999999998
100
AcDbArc
 50
277.8679237606
 51
303.8409923185
  0
LINE
  5
2B6
330
1F
100
AcDbEntity
  8
0
100
AcDbLine
 10
-158.5595061727
 20
-7.9360158311
 30
0.0
 11
-159.5595061727
 21
-6.9360158311
 31
0.0
  0
LINE
  5
2B7
330
1F
100
AcDbEntity
  8
0
100
AcDbLine
 10
-161.5595061727
 20
-6.9360158311
 30
0.0
 11
-162.5595061727
 21
-7.9360158311
 31
0.0
  0
LINE
  5
2B8
330
1F
100
AcDbEntity
  8
0
100
AcDbLine
 10
-162.0595061727
 20
-7.9360158311
 30
0.0
 11
-162.0595061727
 21
-10.0360158311
 31
0.0
  0
LINE
  5
2B9
330
1F
100
AcDbEntity
  8
0
100
AcDbLine
 10
-159.0595061727
 20
-10.0360158311
 30
0.0
 11
-159.0595061727
 21
-7.9360158311
 31
0.0
  0
ARC
  5
2BA
330
1F
100
AcDbEntity
  8
0
100
AcDbCircle
 10
-251.9750561643
 20
-7.2830845591
 30
0.0
 40
5.000000000000009
100
AcDbArc
 50
236.1590076815
 51
262.1320762394
  0
ARC
  5
2BB
330
1F
100
AcDbEntity
  8
0
100
AcDbCircle
 10
-251.5439561811
 20
-7.2830845591
 30
0.0
 40
5.000000000000002
100
AcDbArc
 50
277.8679237606
 51
303.8409923185
  0
LINE
  5
2BC
330
1F
100
AcDbEntity
  8
0
100
AcDbLine
 10
-249.7595061727
 20
-7.9360158311
 30
0.0
 11
-250.7595061727
 21
-6.9360158311
 31
0.0
  0
LINE
  5
2BD
330
1F
100
AcDbEntity
  8
0
100
AcDbLine
 10
-252.7595061727
 20
-6.9360158311
 30
0.0
 11
-253.7595061727
 21
-7.9360158311
 31
0.0
  0
LINE
  5
2BE
330
1F
100
AcDbEntity
  8
0
100
AcDbLine
 10
-253.2595061727
 20
-7.9360158311
 30
0.0
 11
-253.2595061727
 21
-10.0360158311
 31
0.0
  0
LINE
  5
2BF
330
1F
100
AcDbEntity
  8
0
100
AcDbLine
 10
-250.2595061727
 20
-10.0360158311
 30
0.0
 11
-250.2595061727
 21
-7.9360158311
 31
0.0
  0
LINE
  5
2C0
330
1F
100
AcDbEntity
  8
0
100
AcDbLine
 10
-473.7361264899
 20
3.5120603802
 30
0.0
 11
-473.7595061727
 21
3.3601365916
 31
0.0
  0
ARC
  5
2C1
330
1F
100
AcDbEntity
  8
0
100
AcDbCircle
 10
-468.8065749006
 20
2.2445866
 30
0.0
 40
5.00000000000002
100
AcDbArc
 50
187.8679237606
 51
213.8409923185
  0
ARC
  5
2C2
330
1F
100
AcDbEntity
  8
0
100
AcDbCircle
 10
-134.7124374448
 20
318.8445866
 30
0.0
 40
5.00000000000002
100
AcDbArc
 50
326.1590076815
 51
352.1320762394
  0
ARC
  5
2C3
330
1F
100
AcDbEntity
  8
0
100
AcDbCircle
 10
-134.7124374448
 20
319.2756865832
 30
0.0
 40
5.00000000000002
100
AcDbArc
 50
7.8679237606
 51
16.0976209542
  0
ARC
  5
2C4
330
1F
100
AcDbEntity
  8
0
100
AcDbCircle
 10
-468.8065749006
 20
322.4795341605
 30
0.0
 40
5.00000000000002
100
AcDbArc
 50
146.1590076815
 51
172.1320762394
  0
ARC
  5
2C5
330
1F
100
AcDbEntity
  8
0
100
AcDbCircle
 10
-468.8065749006
 20
322.0484341773
 30
0.0
 40
5.000000000000012
100
AcDbArc
 50
187.8679237606
 51
213.8409923185
  0
LINE
  5
2C6
330
1F
100
AcDbEntity
  8
0
100
AcDbLine
 10
-469.4595061727
 20
320.2639841689
 30
0.0
 11
-468.4595061727
 21
321.2639841689
 31
0.0
  0
LINE
  5
2C7
330
1F
100
AcDbEntity
  8
0
100
AcDbLine
 10
-468.4595061727
 20
323.2639841689
 30
0.0
 11
-469.4595061727
 21
324.2639841689
 31
0.0
  0
LINE
  5
2C8
330
1F
100
AcDbEntity
  8
0
100
AcDbLine
 10
-469.4595061727
 20
323.7639841689
 30
0.0
 11
-471.5595061727
 21
323.7639841689
 31
0.0
  0
LINE
  5
2C9
330
1F
100
AcDbEntity
  8
0
100
AcDbLine
 10
-471.5595061727
 20
320.7639841689
 30
0.0
 11
-469.4595061727
 21
320.7639841689
 31
0.0
  0
ARC
  5
2CA
330
1F
100
AcDbEntity
  8
0
100
AcDbCircle
 10
-468.8065749006
 20
110.6795341605
 30
0.0
 40
5.00000000000002
100
AcDbArc
 50
146.1590076815
 51
172.1320762394
  0
ARC
  5
2CB
330
1F
100
AcDbEntity
  8
0
100
AcDbCircle
 10
-468.8065749006
 20
110.2484341773
 30
0.0
 40
5.00000000000002
100
AcDbArc
 50
187.8679237606
 51
213.8409923185
  0
LINE
  5
2CC
330
1F
100
AcDbEntity
  8
0
100
AcDbLine
 10
-469.4595061727
 20
108.4639841689
 30
0.0
 11
-468.4595061727
 21
109.4639841689
 31
0.0
  0
LINE
  5
2CD
330
1F
100
AcDbEntity
  8
0
100
AcDbLine
 10
-468.4595061727
 20
111.4639841689
 30
0.0
 11
-469.4595061727
 21
112.4639841689
 31
0.0
  0
LINE
  5
2CE
330
1F
100
AcDbEntity
  8
0
100
AcDbLine
 10
-469.4595061727
 20
111.9639841689
 30
0.0
 11
-471.5595061727
 21
111.9639841689
 31
0.0
  0
LINE
  5
2CF
330
1F
100
AcDbEntity
  8
0
100
AcDbLine
 10
-471.5595061727
 20
108.9639841689
 30
0.0
 11
-469.4595061727
 21
108.9639841689
 31
0.0
  0
ARC
  5
2D0
330
1F
100
AcDbEntity
  8
0
100
AcDbCircle
 10
-443.1750561643
 20
-7.2830845591
 30
0.0
 40
5.000000000000009
100
AcDbArc
 50
236.1590076815
 51
262.1320762394
  0
ARC
  5
2D1
330
1F
100
AcDbEntity
  8
0
100
AcDbCircle
 10
-442.7439561811
 20
-7.2830845591
 30
0.0
 40
4.999999999999977
100
AcDbArc
 50
277.8679237606
 51
303.8409923185
  0
LINE
  5
2D2
330
1F
100
AcDbEntity
  8
0
100
AcDbLine
 10
-440.9595061727
 20
-7.9360158311
 30
0.0
 11
-441.9595061727
 21
-6.9360158311
 31
0.0
  0
LINE
  5
2D3
330
1F
100
AcDbEntity
  8
0
100
AcDbLine
 10
-443.9595061727
 20
-6.9360158311
 30
0.0
 11
-444.9595061727
 21
-7.9360158311
 31
0.0
  0
LINE
  5
2D4
330
1F
100
AcDbEntity
  8
0
100
AcDbLine
 10
-444.4595061727
 20
-7.9360158311
 30
0.0
 11
-444.4595061727
 21
-10.0360158311
 31
0.0
  0
LINE
  5
2D5
330
1F
100
AcDbEntity
  8
0
100
AcDbLine
 10
-441.4595061727
 20
-10.0360158311
 30
0.0
 11
-441.4595061727
 21
-7.9360158311
 31
0.0
  0
ARC
  5
2D6
330
1F
100
AcDbEntity
  8
0
100
AcDbCircle
 10
-468.8065749006
 20
216.5795341605
 30
0.0
 40
5.000000000000016
100
AcDbArc
 50
146.1590076815
 51
172.1320762394
  0
ARC
  5
2D7
330
1F
100
AcDbEntity
  8
0
100
AcDbCircle
 10
-468.8065749006
 20
216.1484341773
 30
0.0
 40
5.000000000000016
100
AcDbArc
 50
187.8679237606
 51
213.8409923185
  0
LINE
  5
2D8
330
1F
100
AcDbEntity
  8
0
100
AcDbLine
 10
-469.4595061727
 20
214.3639841689
 30
0.0
 11
-468.4595061727
 21
215.3639841689
 31
0.0
  0
LINE
  5
2D9
330
1F
100
AcDbEntity
  8
0
100
AcDbLine
 10
-468.4595061727
 20
217.3639841689
 30
0.0
 11
-469.4595061727
 21
218.3639841689
 31
0.0
  0
LINE
  5
2DA
330
1F
100
AcDbEntity
  8
0
100
AcDbLine
 10
-469.4595061727
 20
217.8639841689
 30
0.0
 11
-471.5595061727
 21
217.8639841689
 31
0.0
  0
LINE
  5
2DB
330
1F
100
AcDbEntity
  8
0
100
AcDbLine
 10
-471.5595061727
 20
214.8639841689
 30
0.0
 11
-469.4595061727
 21
214.8639841689
 31
0.0
  0
LINE
  5
2DC
330
1F
100
AcDbEntity
  8
0
100
AcDbLine
 10
-469.4595061727
 20
214.3639841689
 30
0.0
 11
-468.4595061727
 21
215.3639841689
 31
0.0
  0
LINE
  5
2DD
330
1F
100
AcDbEntity
  8
0
100
AcDbLine
 10
-468.4595061727
 20
217.3639841689
 30
0.0
 11
-469.4595061727
 21
218.3639841689
 31
0.0
  0
LINE
  5
2DE
330
1F
100
AcDbEntity
  8
0
100
AcDbLine
 10
-469.4595061727
 20
217.8639841689
 30
0.0
 11
-471.5595061727
 21
217.8639841689
 31
0.0
  0
LINE
  5
2DF
330
1F
100
AcDbEntity
  8
0
100
AcDbLine
 10
-471.5595061727
 20
214.8639841689
 30
0.0
 11
-469.4595061727
 21
214.8639841689
 31
0.0
  0
ARC
  5
2E0
330
1F
100
AcDbEntity
  8
0
100
AcDbCircle
 10
-468.8065749006
 20
319.2756865832
 30
0.0
 40
5.000000000000012
100
AcDbArc
 50
163.902379046
 51
172.1320762394
  0
ARC
  5
2E1
330
1F
100
AcDbEntity
  8
0
100
AcDbCircle
 10
-468.8065749006
 20
318.8445866
 30
0.0
 40
5.00000000000002
100
AcDbArc
 50
187.8679237606
 51
213.8409923185
  0
ARC
  5
2E2
330
1F
100
AcDbEntity
  8
0
100
AcDbCircle
 10
-134.7124374448
 20
216.1484341773
 30
0.0
 40
5.00000000000002
100
AcDbArc
 50
326.1590076815
 51
352.1320762394
  0
ARC
  5
2E3
330
1F
100
AcDbEntity
  8
0
100
AcDbCircle
 10
-134.7124374448
 20
216.5795341605
 30
0.0
 40
5.00000000000002
100
AcDbArc
 50
7.8679237606
 51
33.8409923185
  0
LINE
  5
2E4
330
1F
100
AcDbEntity
  8
0
100
AcDbLine
 10
-134.0595061727
 20
218.3639841689
 30
0.0
 11
-135.0595061727
 21
217.3639841689
 31
0.0
  0
LINE
  5
2E5
330
1F
100
AcDbEntity
  8
0
100
AcDbLine
 10
-135.0595061727
 20
215.3639841689
 30
0.0
 11
-134.0595061727
 21
214.3639841689
 31
0.0
  0
LINE
  5
2E6
330
1F
100
AcDbEntity
  8
0
100
AcDbLine
 10
-134.0595061727
 20
214.8639841689
 30
0.0
 11
-131.9595061727
 21
214.8639841689
 31
0.0
  0
LINE
  5
2E7
330
1F
100
AcDbEntity
  8
0
100
AcDbLine
 10
-131.9595061727
 20
217.8639841689
 30
0.0
 11
-134.0595061727
 21
217.8639841689
 31
0.0
  0
ARC
  5
2E8
330
1F
100
AcDbEntity
  8
0
100
AcDbCircle
 10
-134.7124374448
 20
322.0484341773
 30
0.0
 40
5.00000000000002
100
AcDbArc
 50
326.1590076815
 51
352.1320762394
  0
ARC
  5
2E9
330
1F
100
AcDbEntity
  8
0
100
AcDbCircle
 10
-134.7124374448
 20
322.4795341605
 30
0.0
 40
5.000000000000012
100
AcDbArc
 50
7.8679237606
 51
33.8409923185
  0
LINE
  5
2EA
330
1F
100
AcDbEntity
  8
0
100
AcDbLine
 10
-134.0595061727
 20
324.2639841689
 30
0.0
 11
-135.0595061727
 21
323.2639841689
 31
0.0
  0
LINE
  5
2EB
330
1F
100
AcDbEntity
  8
0
100
AcDbLine
 10
-135.0595061727
 20
321.2639841689
 30
0.0
 11
-134.0595061727
 21
320.2639841689
 31
0.0
  0
LINE
  5
2EC
330
1F
100
AcDbEntity
  8
0
100
AcDbLine
 10
-134.0595061727
 20
320.7639841689
 30
0.0
 11
-131.9595061727
 21
320.7639841689
 31
0.0
  0
LINE
  5
2ED
330
1F
100
AcDbEntity
  8
0
100
AcDbLine
 10
-131.9595061727
 20
323.7639841689
 30
0.0
 11
-134.0595061727
 21
323.7639841689
 31
0.0
  0
ARC
  5
2EE
330
1F
100
AcDbEntity
  8
0
100
AcDbCircle
 10
-468.8065749006
 20
4.7795341605
 30
0.0
 40
5.00000000000002
100
AcDbArc
 50
146.1590076815
 51
172.1320762394
  0
ARC
  5
2EF
330
1F
100
AcDbEntity
  8
0
100
AcDbCircle
 10
-468.8065749006
 20
4.3484341773
 30
0.0
 40
5.000000000000024
100
AcDbArc
 50
187.8679237606
 51
213.8409923185
  0
LINE
  5
2F0
330
1F
100
AcDbEntity
  8
0
100
AcDbLine
 10
-469.4595061727
 20
2.5639841689
 30
0.0
 11
-468.4595061727
 21
3.5639841689
 31
0.0
  0
LINE
  5
2F1
330
1F
100
AcDbEntity
  8
0
100
AcDbLine
 10
-468.4595061727
 20
5.5639841689
 30
0.0
 11
-469.4595061727
 21
6.5639841689
 31
0.0
  0
LINE
  5
2F2
330
1F
100
AcDbEntity
  8
0
100
AcDbLine
 10
-469.4595061727
 20
6.0639841689
 30
0.0
 11
-471.5595061727
 21
6.0639841689
 31
0.0
  0
LINE
  5
2F3
330
1F
100
AcDbEntity
  8
0
100
AcDbLine
 10
-471.5595061727
 20
3.0639841689
 30
0.0
 11
-469.4595061727
 21
3.0639841689
 31
0.0
  0
ARC
  5
2F4
330
1F
100
AcDbEntity
  8
0
100
AcDbCircle
 10
-134.7124374448
 20
4.3484341773
 30
0.0
 40
5.00000000000002
100
AcDbArc
 50
326.1590076815
 51
352.1320762394
  0
ARC
  5
2F5
330
1F
100
AcDbEntity
  8
0
100
AcDbCircle
 10
-134.7124374448
 20
4.7795341605
 30
0.0
 40
5.00000000000002
100
AcDbArc
 50
7.8679237606
 51
33.8409923185
  0
LINE
  5
2F6
330
1F
100
AcDbEntity
  8
0
100
AcDbLine
 10
-134.0595061727
 20
6.5639841689
 30
0.0
 11
-135.0595061727
 21
5.5639841689
 31
0.0
  0
LINE
  5
2F7
330
1F
100
AcDbEntity
  8
0
100
AcDbLine
 10
-135.0595061727
 20
3.5639841689
 30
0.0
 11
-134.0595061727
 21
2.5639841689
 31
0.0
  0
LINE
  5
2F8
330
1F
100
AcDbEntity
  8
0
100
AcDbLine
 10
-134.0595061727
 20
3.0639841689
 30
0.0
 11
-131.9595061727
 21
3.0639841689
 31
0.0
  0
LINE
  5
2F9
330
1F
100
AcDbEntity
  8
0
100
AcDbLine
 10
-131.9595061727
 20
6.0639841689
 30
0.0
 11
-134.0595061727
 21
6.0639841689
 31
0.0
  0
ARC
  5
2FA
330
1F
100
AcDbEntity
  8
0
100
AcDbCircle
 10
-134.7124374448
 20
2.2445866
 30
0.0
 40
5.00000000000002
100
AcDbArc
 50
326.1590076815
 51
352.1320762394
  0
LINE
  5
2FB
330
1F
100
AcDbEntity
  8
0
100
AcDbLine
 10
-129.7595061727
 20
3.3601365916
 30
0.0
 11
-129.7828858555
 21
3.5120603802
 31
0.0
  0
LINE
  5
2FC
330
1F
100
AcDbEntity
  8
0
100
AcDbLine
 10
-134.0595061727
 20
324.2639841689
 30
0.0
 11
-135.0595061727
 21
323.2639841689
 31
0.0
  0
LINE
  5
2FD
330
1F
100
AcDbEntity
  8
0
100
AcDbLine
 10
-135.0595061727
 20
321.2639841689
 30
0.0
 11
-134.0595061727
 21
320.2639841689
 31
0.0
  0
LINE
  5
2FE
330
1F
100
AcDbEntity
  8
0
100
AcDbLine
 10
-134.0595061727
 20
320.7639841689
 30
0.0
 11
-131.9595061727
 21
320.7639841689
 31
0.0
  0
LINE
  5
2FF
330
1F
100
AcDbEntity
  8
0
100
AcDbLine
 10
-131.9595061727
 20
323.7639841689
 30
0.0
 11
-134.0595061727
 21
323.7639841689
 31
0.0
  0
ARC
  5
300
330
1F
100
AcDbEntity
  8
0
100
AcDbCircle
 10
-351.9750561643
 20
-7.2830845591
 30
0.0
 40
5.00000000000003
100
AcDbArc
 50
236.1590076815
 51
262.1320762394
  0
ARC
  5
301
330
1F
100
AcDbEntity
  8
0
100
AcDbCircle
 10
-351.5439561811
 20
-7.2830845591
 30
0.0
 40
5.00000000000003
100
AcDbArc
 50
277.8679237606
 51
303.8409923185
  0
LINE
  5
302
330
1F
100
AcDbEntity
  8
0
100
AcDbLine
 10
-349.7595061727
 20
-7.9360158311
 30
0.0
 11
-350.7595061727
 21
-6.9360158311
 31
0.0
  0
LINE
  5
303
330
1F
100
AcDbEntity
  8
0
100
AcDbLine
 10
-352.7595061727
 20
-6.9360158311
 30
0.0
 11
-353.7595061727
 21
-7.9360158311
 31
0.0
  0
LINE
  5
304
330
1F
100
AcDbEntity
  8
0
100
AcDbLine
 10
-353.2595061727
 20
-7.9360158311
 30
0.0
 11
-353.2595061727
 21
-10.0360158311
 31
0.0
  0
LINE
  5
305
330
1F
100
AcDbEntity
  8
0
100
AcDbLine
 10
-350.2595061727
 20
-10.0360158311
 30
0.0
 11
-350.2595061727
 21
-7.9360158311
 31
0.0
  0
ARC
  5
306
330
1F
100
AcDbEntity
  8
0
100
AcDbCircle
 10
-134.7124374448
 20
110.2484341773
 30
0.0
 40
5.000000000000021
100
AcDbArc
 50
326.1590076815
 51
352.1320762394
  0
ARC
  5
307
330
1F
100
AcDbEntity
  8
0
100
AcDbCircle
 10
-134.7124374448
 20
110.6795341605
 30
0.0
 40
5.000000000000018
100
AcDbArc
 50
7.8679237606
 51
33.8409923185
  0
LINE
  5
308
330
1F
100
AcDbEntity
  8
0
100
AcDbLine
 10
-134.0595061727
 20
112.4639841689
 30
0.0
 11
-135.0595061727
 21
111.4639841689
 31
0.0
  0
LINE
  5
309
330
1F
100
AcDbEntity
  8
0
100
AcDbLine
 10
-135.0595061727
 20
109.4639841689
 30
0.0
 11
-134.0595061727
 21
108.4639841689
 31
0.0
  0
LINE
  5
30A
330
1F
100
AcDbEntity
  8
0
100
AcDbLine
 10
-134.0595061727
 20
108.9639841689
 30
0.0
 11
-131.9595061727
 21
108.9639841689
 31
0.0
  0
LINE
  5
30B
330
1F
100
AcDbEntity
  8
0
100
AcDbLine
 10
-131.9595061727
 20
111.9639841689
 30
0.0
 11
-134.0595061727
 21
111.9639841689
 31
0.0
  0
LINE
  5
30C
330
1F
100
AcDbEntity
  8
0
100
AcDbLine
 10
-193.9520061705
 20
342.9639841689
 30
0.0
 11
-193.9520061705
 21
340.9639841689
 31
0.0
  0
ARC
  5
30D
330
1F
100
AcDbEntity
  8
0
100
AcDbCircle
 10
-139.9520061705
 20
350.9639841689
 30
0.0
 40
8.0
100
AcDbArc
 50
189.0687215461
 51
270.0
  0
ARC
  5
30E
330
1F
100
AcDbEntity
  8
0
100
AcDbCircle
 10
-179.9520061705
 20
350.9639841689
 30
0.0
 40
8.0
100
AcDbArc
 50
270.0
 51
350.931278454
  0
LINE
  5
30F
330
1F
100
AcDbEntity
  8
0
100
AcDbLine
 10
-409.2570061727
 20
340.9639841689
 30
0.0
 11
-409.2570061727
 21
342.9639841689
 31
0.0
  0
ARC
  5
310
330
1F
100
AcDbEntity
  8
0
100
AcDbCircle
 10
-423.2570061727
 20
350.9639841689
 30
0.0
 40
8.0
100
AcDbArc
 50
189.068721546
 51
270.0
  0
ARC
  5
311
330
1F
100
AcDbEntity
  8
0
100
AcDbCircle
 10
-463.2570061727
 20
350.9639841689
 30
0.0
 40
8.000000000000007
100
AcDbArc
 50
270.0
 51
350.931278454
  0
CIRCLE
  5
312
330
1F
100
AcDbEntity
  8
0
100
AcDbCircle
 10
-301.7595061727
 20
163.7639841689
 30
0.0
 40
132.4000000000001
  0
LINE
  5
313
330
1F
100
AcDbEntity
  8
0
100
AcDbLine
 10
-411.4841099732
 20
214.0513494745
 30
0.0
 11
-192.0349023723
 21
214.0513494745
 31
0.0
  0
LINE
  5
314
330
1F
100
AcDbEntity
  8
0
100
AcDbLine
 10
-411.3922281723
 20
214.2513494745
 30
0.0
 11
-192.1267841731
 21
214.2513494745
 31
0.0
  0
LINE
  5
315
330
1F
100
AcDbEntity
  8
0
100
AcDbLine
 10
-413.1889463066
 20
210.1513494745
 30
0.0
 11
-190.3300660389
 21
210.1513494745
 31
0.0
  0
LINE
  5
316
330
1F
100
AcDbEntity
  8
0
100
AcDbLine
 10
-413.1054768337
 20
210.3513494745
 30
0.0
 11
-190.4135355118
 21
210.3513494745
 31
0.0
  0
LINE
  5
317
330
1F
100
AcDbEntity
  8
0
100
AcDbLine
 10
-400.5120061727
 20
206.4513494745
 30
0.0
 11
-386.0120061727
 21
206.4513494745
 31
0.0
  0
LINE
  5
318
330
1F
100
AcDbEntity
  8
0
100
AcDbLine
 10
-367.1820061727
 20
206.4513494745
 30
0.0
 11
-352.6820061727
 21
206.4513494745
 31
0.0
  0
LINE
  5
319
330
1F
100
AcDbEntity
  8
0
100
AcDbLine
 10
-333.8520061727
 20
206.4513494745
 30
0.0
 11
-319.3520061727
 21
206.4513494745
 31
0.0
  0
LINE
  5
31A
330
1F
100
AcDbEntity
  8
0
100
AcDbLine
 10
-300.5220061727
 20
206.4513494745
 30
0.0
 11
-286.0220061727
 21
206.4513494745
 31
0.0
  0
LINE
  5
31B
330
1F
100
AcDbEntity
  8
0
100
AcDbLine
 10
-267.1920061727
 20
206.4513494745
 30
0.0
 11
-252.6920061727
 21
206.4513494745
 31
0.0
  0
LINE
  5
31C
330
1F
100
AcDbEntity
  8
0
100
AcDbLine
 10
-233.8620061727
 20
206.4513494745
 30
0.0
 11
-219.3620061727
 21
206.4513494745
 31
0.0
  0
LINE
  5
31D
330
1F
100
AcDbEntity
  8
0
100
AcDbLine
 10
-200.5320061727
 20
206.4513494745
 30
0.0
 11
-188.8608939943
 21
206.4513494745
 31
0.0
  0
LINE
  5
31E
330
1F
100
AcDbEntity
  8
0
100
AcDbLine
 10
-414.6581183511
 20
206.4513494745
 30
0.0
 11
-402.6770061727
 21
206.4513494745
 31
0.0
  0
LINE
  5
31F
330
1F
100
AcDbEntity
  8
0
100
AcDbLine
 10
-383.8470061727
 20
206.4513494745
 30
0.0
 11
-369.3470061727
 21
206.4513494745
 31
0.0
  0
LINE
  5
320
330
1F
100
AcDbEntity
  8
0
100
AcDbLine
 10
-350.5170061727
 20
206.4513494745
 30
0.0
 11
-336.0170061727
 21
206.4513494745
 31
0.0
  0
LINE
  5
321
330
1F
100
AcDbEntity
  8
0
100
AcDbLine
 10
-317.1870061727
 20
206.4513494745
 30
0.0
 11
-302.6870061727
 21
206.4513494745
 31
0.0
  0
LINE
  5
322
330
1F
100
AcDbEntity
  8
0
100
AcDbLine
 10
-283.8570061727
 20
206.4513494745
 30
0.0
 11
-269.3570061727
 21
206.4513494745
 31
0.0
  0
LINE
  5
323
330
1F
100
AcDbEntity
  8
0
100
AcDbLine
 10
-250.5270061727
 20
206.4513494745
 30
0.0
 11
-236.0270061727
 21
206.4513494745
 31
0.0
  0
LINE
  5
324
330
1F
100
AcDbEntity
  8
0
100
AcDbLine
 10
-217.1970061727
 20
206.4513494745
 30
0.0
 11
-202.6970061727
 21
206.4513494745
 31
0.0
  0
LINE
  5
325
330
1F
100
AcDbEntity
  8
0
100
AcDbLine
 10
-435.4627775387
 20
377.2639841689
 30
0.0
 11
-435.4627775387
 21
369.7639841689
 31
0.0
  0
LINE
  5
326
330
1F
100
AcDbEntity
  8
0
100
AcDbLine
 10
-435.4627775387
 20
377.2639841689
 30
0.0
 11
-427.6685489046
 21
377.2639841689
 31
0.0
  0
LINE
  5
327
330
1F
100
AcDbEntity
  8
0
100
AcDbLine
 10
-427.6685489046
 20
377.2639841689
 30
0.0
 11
-427.6685489046
 21
369.7639841689
 31
0.0
  0
LINE
  5
328
330
1F
100
AcDbEntity
  8
0
100
AcDbLine
 10
-435.4627775387
 20
369.7639841689
 30
0.0
 11
-427.6685489046
 21
369.7639841689
 31
0.0
  0
LINE
  5
329
330
1F
100
AcDbEntity
  8
0
100
AcDbLine
 10
-451.0512348068
 20
377.2639841689
 30
0.0
 11
-451.0512348068
 21
369.7639841689
 31
0.0
  0
LINE
  5
32A
330
1F
100
AcDbEntity
  8
0
100
AcDbLine
 10
-451.0512348068
 20
369.7639841689
 30
0.0
 11
-435.4627775387
 21
369.7639841689
 31
0.0
  0
LINE
  5
32B
330
1F
100
AcDbEntity
  8
0
100
AcDbLine
 10
-451.0512348068
 20
377.2639841689
 30
0.0
 11
-435.4627775387
 21
377.2639841689
 31
0.0
  0
LINE
  5
32C
330
1F
100
AcDbEntity
  8
0
100
AcDbLine
 10
-458.8454634408
 20
377.2639841689
 30
0.0
 11
-458.8454634408
 21
369.7639841689
 31
0.0
  0
LINE
  5
32D
330
1F
100
AcDbEntity
  8
0
100
AcDbLine
 10
-458.8454634408
 20
369.7639841689
 30
0.0
 11
-451.0512348068
 21
369.7639841689
 31
0.0
  0
LINE
  5
32E
330
1F
100
AcDbEntity
  8
0
100
AcDbLine
 10
-458.8454634408
 20
377.2639841689
 30
0.0
 11
-451.0512348068
 21
377.2639841689
 31
0.0
  0
LINE
  5
32F
330
1F
100
AcDbEntity
  8
0
100
AcDbLine
 10
-443.2570061727
 20
360.5139841689
 30
0.0
 11
-430.5070061727
 21
360.5139841689
 31
0.0
  0
LINE
  5
330
330
1F
100
AcDbEntity
  8
0
100
AcDbLine
 10
-456.0070061727
 20
360.5139841689
 30
0.0
 11
-443.2570061727
 21
360.5139841689
 31
0.0
  0
LINE
  5
331
330
1F
100
AcDbEntity
  8
0
100
AcDbLine
 10
-443.2570061727
 20
359.7639841689
 30
0.0
 11
-455.2570061727
 21
359.7639841689
 31
0.0
  0
LINE
  5
332
330
1F
100
AcDbEntity
  8
0
100
AcDbLine
 10
-431.2570061727
 20
359.7639841689
 30
0.0
 11
-443.2570061727
 21
359.7639841689
 31
0.0
  0
LINE
  5
333
330
1F
100
AcDbEntity
  8
0
100
AcDbLine
 10
-432.6070061727
 20
392.0139841689
 30
0.0
 11
-453.9070061727
 21
392.0139841689
 31
0.0
  0
LINE
  5
334
330
1F
100
AcDbEntity
  8
0
100
AcDbLine
 10
-442.0489047355
 20
383.1639841689
 30
0.0
 11
-455.2570061727
 21
383.1639841689
 31
0.0
  0
LINE
  5
335
330
1F
100
AcDbEntity
  8
0
100
AcDbLine
 10
-431.2570061727
 20
383.1639841689
 30
0.0
 11
-442.0489047355
 21
383.1639841689
 31
0.0
  0
LINE
  5
336
330
1F
100
AcDbEntity
  8
0
100
AcDbLine
 10
-442.0489047355
 20
383.5639841689
 30
0.0
 11
-455.2570061727
 21
383.5639841689
 31
0.0
  0
LINE
  5
337
330
1F
100
AcDbEntity
  8
0
100
AcDbLine
 10
-431.2570061727
 20
383.5639841689
 30
0.0
 11
-442.0489047355
 21
383.5639841689
 31
0.0
  0
LINE
  5
338
330
1F
100
AcDbEntity
  8
0
100
AcDbLine
 10
-433.7570061727
 20
393.1639841689
 30
0.0
 11
-452.7570061727
 21
393.1639841689
 31
0.0
  0
LINE
  5
339
330
1F
100
AcDbEntity
  8
0
100
AcDbLine
 10
-431.1570061727
 20
358.7639841689
 30
0.0
 11
-455.3570061727
 21
358.7639841689
 31
0.0
  0
LINE
  5
33A
330
1F
100
AcDbEntity
  8
0
100
AcDbLine
 10
-152.1577775364
 20
377.2639841689
 30
0.0
 11
-152.1577775364
 21
369.7639841689
 31
0.0
  0
LINE
  5
33B
330
1F
100
AcDbEntity
  8
0
100
AcDbLine
 10
-152.1577775364
 20
377.2639841689
 30
0.0
 11
-144.3635489024
 21
377.2639841689
 31
0.0
  0
LINE
  5
33C
330
1F
100
AcDbEntity
  8
0
100
AcDbLine
 10
-144.3635489024
 20
377.2639841689
 30
0.0
 11
-144.3635489024
 21
369.7639841689
 31
0.0
  0
LINE
  5
33D
330
1F
100
AcDbEntity
  8
0
100
AcDbLine
 10
-152.1577775364
 20
369.7639841689
 30
0.0
 11
-144.3635489024
 21
369.7639841689
 31
0.0
  0
LINE
  5
33E
330
1F
100
AcDbEntity
  8
0
100
AcDbLine
 10
-167.7462348046
 20
377.2639841689
 30
0.0
 11
-167.7462348046
 21
369.7639841689
 31
0.0
  0
LINE
  5
33F
330
1F
100
AcDbEntity
  8
0
100
AcDbLine
 10
-167.7462348046
 20
369.7639841689
 30
0.0
 11
-152.1577775364
 21
369.7639841689
 31
0.0
  0
LINE
  5
340
330
1F
100
AcDbEntity
  8
0
100
AcDbLine
 10
-167.7462348046
 20
377.2639841689
 30
0.0
 11
-152.1577775364
 21
377.2639841689
 31
0.0
  0
LINE
  5
341
330
1F
100
AcDbEntity
  8
0
100
AcDbLine
 10
-175.5404634386
 20
377.2639841689
 30
0.0
 11
-175.5404634386
 21
369.7639841689
 31
0.0
  0
LINE
  5
342
330
1F
100
AcDbEntity
  8
0
100
AcDbLine
 10
-175.5404634386
 20
369.7639841689
 30
0.0
 11
-167.7462348046
 21
369.7639841689
 31
0.0
  0
LINE
  5
343
330
1F
100
AcDbEntity
  8
0
100
AcDbLine
 10
-175.5404634386
 20
377.2639841689
 30
0.0
 11
-167.7462348046
 21
377.2639841689
 31
0.0
  0
LINE
  5
344
330
1F
100
AcDbEntity
  8
0
100
AcDbLine
 10
-147.9520061705
 20
359.7639841689
 30
0.0
 11
-171.9520061705
 21
359.7639841689
 31
0.0
  0
LINE
  5
345
330
1F
100
AcDbEntity
  8
0
100
AcDbLine
 10
-172.7020061705
 20
360.5139841689
 30
0.0
 11
-147.2020061705
 21
360.5139841689
 31
0.0
  0
LINE
  5
346
330
1F
100
AcDbEntity
  8
0
100
AcDbLine
 10
-147.9520061705
 20
383.1639841689
 30
0.0
 11
-171.9520061705
 21
383.1639841689
 31
0.0
  0
LINE
  5
347
330
1F
100
AcDbEntity
  8
0
100
AcDbLine
 10
-147.9520061705
 20
383.5639841689
 30
0.0
 11
-171.9520061705
 21
383.5639841689
 31
0.0
  0
LINE
  5
348
330
1F
100
AcDbEntity
  8
0
100
AcDbLine
 10
-158.9955925327
 20
393.1639841689
 30
0.0
 11
-169.4520061705
 21
393.1639841689
 31
0.0
  0
LINE
  5
349
330
1F
100
AcDbEntity
  8
0
100
AcDbLine
 10
-150.4520061705
 20
393.1639841689
 30
0.0
 11
-158.9955925327
 21
393.1639841689
 31
0.0
  0
LINE
  5
34A
330
1F
100
AcDbEntity
  8
0
100
AcDbLine
 10
-159.9520061705
 20
358.7639841689
 30
0.0
 11
-172.0520061705
 21
358.7639841689
 31
0.0
  0
LINE
  5
34B
330
1F
100
AcDbEntity
  8
0
100
AcDbLine
 10
-147.8520061705
 20
358.7639841689
 30
0.0
 11
-159.9520061705
 21
358.7639841689
 31
0.0
  0
LINE
  5
34C
330
1F
100
AcDbEntity
  8
0
100
AcDbLine
 10
-170.3595061727
 20
344.0139841689
 30
0.0
 11
-170.3540180573
 21
344.0139841689
 31
0.0
  0
LINE
  5
34D
330
1F
100
AcDbEntity
  8
0
100
AcDbLine
 10
-170.3540180573
 20
344.0139841689
 30
0.0
 11
-168.6072302729
 21
344.0139841689
 31
0.0
  0
LINE
  5
34E
330
1F
100
AcDbEntity
  8
0
100
AcDbLine
 10
-168.6072302729
 20
344.0139841689
 30
0.0
 11
-168.1077828541
 21
344.0139841689
 31
0.0
  0
LINE
  5
34F
330
1F
100
AcDbEntity
  8
0
100
AcDbLine
 10
-168.1077828541
 20
344.0139841689
 30
0.0
 11
-166.1884948376
 21
344.0139841689
 31
0.0
  0
LINE
  5
350
330
1F
100
AcDbEntity
  8
0
100
AcDbLine
 10
-166.1884948376
 20
344.0139841689
 30
0.0
 11
-166.1595061727
 21
344.0139841689
 31
0.0
  0
LINE
  5
351
330
1F
100
AcDbEntity
  8
0
100
AcDbLine
 10
-167.9595061727
 20
331.4639841689
 30
0.0
 11
-168.5595061727
 21
331.4639841689
 31
0.0
  0
LINE
  5
352
330
1F
100
AcDbEntity
  8
0
100
AcDbLine
 10
-482.3595061728
 20
344.0139841689
 30
0.0
 11
-482.3305175079
 21
344.0139841689
 31
0.0
  0
LINE
  5
353
330
1F
100
AcDbEntity
  8
0
100
AcDbLine
 10
-482.3305175079
 20
344.0139841689
 30
0.0
 11
-480.4112294914
 21
344.0139841689
 31
0.0
  0
LINE
  5
354
330
1F
100
AcDbEntity
  8
0
100
AcDbLine
 10
-480.4112294914
 20
344.0139841689
 30
0.0
 11
-479.9117820725
 21
344.0139841689
 31
0.0
  0
LINE
  5
355
330
1F
100
AcDbEntity
  8
0
100
AcDbLine
 10
-479.9117820725
 20
344.0139841689
 30
0.0
 11
-478.1649942882
 21
344.0139841689
 31
0.0
  0
LINE
  5
356
330
1F
100
AcDbEntity
  8
0
100
AcDbLine
 10
-478.1649942882
 20
344.0139841689
 30
0.0
 11
-478.1595061728
 21
344.0139841689
 31
0.0
  0
LINE
  5
357
330
1F
100
AcDbEntity
  8
0
100
AcDbLine
 10
-480.5591746241
 20
331.4639841689
 30
0.0
 11
-480.5595061728
 21
331.4639841689
 31
0.0
  0
LINE
  5
358
330
1F
100
AcDbEntity
  8
0
100
AcDbLine
 10
-479.9595061728
 20
331.4639841689
 30
0.0
 11
-480.5591746241
 21
331.4639841689
 31
0.0
  0
LINE
  5
359
330
1F
100
AcDbEntity
  8
0
100
AcDbLine
 10
-125.3595061727
 20
344.0139841689
 30
0.0
 11
-125.3540180573
 21
344.0139841689
 31
0.0
  0
LINE
  5
35A
330
1F
100
AcDbEntity
  8
0
100
AcDbLine
 10
-125.3540180573
 20
344.0139841689
 30
0.0
 11
-123.6072302729
 21
344.0139841689
 31
0.0
  0
LINE
  5
35B
330
1F
100
AcDbEntity
  8
0
100
AcDbLine
 10
-123.6072302729
 20
344.0139841689
 30
0.0
 11
-123.1077828541
 21
344.0139841689
 31
0.0
  0
LINE
  5
35C
330
1F
100
AcDbEntity
  8
0
100
AcDbLine
 10
-123.1077828541
 20
344.0139841689
 30
0.0
 11
-121.1884948376
 21
344.0139841689
 31
0.0
  0
LINE
  5
35D
330
1F
100
AcDbEntity
  8
0
100
AcDbLine
 10
-121.1884948376
 20
344.0139841689
 30
0.0
 11
-121.1595061727
 21
344.0139841689
 31
0.0
  0
LINE
  5
35E
330
1F
100
AcDbEntity
  8
0
100
AcDbLine
 10
-122.9595061727
 20
331.4639841689
 30
0.0
 11
-123.5595061727
 21
331.4639841689
 31
0.0
  0
LINE
  5
35F
330
1F
100
AcDbEntity
  8
0
100
AcDbLine
 10
-303.8595061727
 20
344.0139841689
 30
0.0
 11
-303.8305175079
 21
344.0139841689
 31
0.0
  0
LINE
  5
360
330
1F
100
AcDbEntity
  8
0
100
AcDbLine
 10
-303.8305175079
 20
344.0139841689
 30
0.0
 11
-301.9112294914
 21
344.0139841689
 31
0.0
  0
LINE
  5
361
330
1F
100
AcDbEntity
  8
0
100
AcDbLine
 10
-301.9112294914
 20
344.0139841689
 30
0.0
 11
-301.4117820725
 21
344.0139841689
 31
0.0
  0
LINE
  5
362
330
1F
100
AcDbEntity
  8
0
100
AcDbLine
 10
-301.4117820725
 20
344.0139841689
 30
0.0
 11
-299.6649942882
 21
344.0139841689
 31
0.0
  0
LINE
  5
363
330
1F
100
AcDbEntity
  8
0
100
AcDbLine
 10
-299.6649942882
 20
344.0139841689
 30
0.0
 11
-299.6595061727
 21
344.0139841689
 31
0.0
  0
LINE
  5
364
330
1F
100
AcDbEntity
  8
0
100
AcDbLine
 10
-302.059174624
 20
331.4639841689
 30
0.0
 11
-302.0595061727
 21
331.4639841689
 31
0.0
  0
LINE
  5
365
330
1F
100
AcDbEntity
  8
0
100
AcDbLine
 10
-301.4595061727
 20
331.4639841689
 30
0.0
 11
-302.059174624
 21
331.4639841689
 31
0.0
  0
LINE
  5
366
330
1F
100
AcDbEntity
  8
0
100
AcDbLine
 10
-437.3595061728
 20
344.0139841689
 30
0.0
 11
-437.3305175079
 21
344.0139841689
 31
0.0
  0
LINE
  5
367
330
1F
100
AcDbEntity
  8
0
100
AcDbLine
 10
-437.3305175079
 20
344.0139841689
 30
0.0
 11
-435.4112294914
 21
344.0139841689
 31
0.0
  0
LINE
  5
368
330
1F
100
AcDbEntity
  8
0
100
AcDbLine
 10
-435.4112294914
 20
344.0139841689
 30
0.0
 11
-434.9117820725
 21
344.0139841689
 31
0.0
  0
LINE
  5
369
330
1F
100
AcDbEntity
  8
0
100
AcDbLine
 10
-434.9117820725
 20
344.0139841689
 30
0.0
 11
-433.1649942882
 21
344.0139841689
 31
0.0
  0
LINE
  5
36A
330
1F
100
AcDbEntity
  8
0
100
AcDbLine
 10
-433.1649942882
 20
344.0139841689
 30
0.0
 11
-433.1595061728
 21
344.0139841689
 31
0.0
  0
LINE
  5
36B
330
1F
100
AcDbEntity
  8
0
100
AcDbLine
 10
-435.5591746241
 20
331.4639841689
 30
0.0
 11
-435.5595061728
 21
331.4639841689
 31
0.0
  0
LINE
  5
36C
330
1F
100
AcDbEntity
  8
0
100
AcDbLine
 10
-434.9595061728
 20
331.4639841689
 30
0.0
 11
-435.5591746241
 21
331.4639841689
 31
0.0
  0
LINE
  5
36D
330
1F
100
AcDbEntity
  8
0
100
AcDbLine
 10
-161.4595061727
 20
-12.2360158311
 30
0.0
 11
-159.6595061727
 21
-12.2360158311
 31
0.0
  0
LINE
  5
36E
330
1F
100
AcDbEntity
  8
0
100
AcDbLine
 10
-161.5595061727
 20
-6.9360158311
 30
0.0
 11
-159.5595061727
 21
-6.9360158311
 31
0.0
  0
LINE
  5
36F
330
1F
100
AcDbEntity
  8
0
100
AcDbLine
 10
-162.5595061727
 20
-7.9360158311
 30
0.0
 11
-158.5595061727
 21
-7.9360158311
 31
0.0
  0
LINE
  5
370
330
1F
100
AcDbEntity
  8
0
100
AcDbLine
 10
-252.6595061727
 20
-12.2360158311
 30
0.0
 11
-250.8595061727
 21
-12.2360158311
 31
0.0
  0
LINE
  5
371
330
1F
100
AcDbEntity
  8
0
100
AcDbLine
 10
-252.7595061727
 20
-6.9360158311
 30
0.0
 11
-250.7595061727
 21
-6.9360158311
 31
0.0
  0
LINE
  5
372
330
1F
100
AcDbEntity
  8
0
100
AcDbLine
 10
-253.7595061727
 20
-7.9360158311
 30
0.0
 11
-249.7595061727
 21
-7.9360158311
 31
0.0
  0
LINE
  5
373
330
1F
100
AcDbEntity
  8
0
100
AcDbLine
 10
-473.7595061727
 20
2.4601365916
 30
0.0
 11
-473.7595061727
 21
1.5601365916
 31
0.0
  0
LINE
  5
374
330
1F
100
AcDbEntity
  8
0
100
AcDbLine
 10
-473.7595061727
 20
3.3601365916
 30
0.0
 11
-473.7595061727
 21
2.4601365916
 31
0.0
  0
LINE
  5
375
330
1F
100
AcDbEntity
  8
0
100
AcDbLine
 10
-129.7595061727
 20
319.0601365916
 30
0.0
 11
-129.7595061727
 21
319.9601365916
 31
0.0
  0
LINE
  5
376
330
1F
100
AcDbEntity
  8
0
100
AcDbLine
 10
-129.7595061727
 20
318.1601365916
 30
0.0
 11
-129.7595061727
 21
319.0601365916
 31
0.0
  0
LINE
  5
377
330
1F
100
AcDbEntity
  8
0
100
AcDbLine
 10
-473.7595061727
 20
322.2411074506
 30
0.0
 11
-473.7595061727
 21
321.3639841689
 31
0.0
  0
LINE
  5
378
330
1F
100
AcDbEntity
  8
0
100
AcDbLine
 10
-473.7595061727
 20
323.1639841689
 30
0.0
 11
-473.7595061727
 21
322.2411074506
 31
0.0
  0
LINE
  5
379
330
1F
100
AcDbEntity
  8
0
100
AcDbLine
 10
-468.4595061727
 20
322.238565593
 30
0.0
 11
-468.4595061727
 21
321.2639841689
 31
0.0
  0
LINE
  5
37A
330
1F
100
AcDbEntity
  8
0
100
AcDbLine
 10
-468.4595061727
 20
323.2639841689
 30
0.0
 11
-468.4595061727
 21
322.238565593
 31
0.0
  0
LINE
  5
37B
330
1F
100
AcDbEntity
  8
0
100
AcDbLine
 10
-469.4595061727
 20
322.2131470171
 30
0.0
 11
-469.4595061727
 21
320.2639841689
 31
0.0
  0
LINE
  5
37C
330
1F
100
AcDbEntity
  8
0
100
AcDbLine
 10
-469.4595061727
 20
324.2639841689
 30
0.0
 11
-469.4595061727
 21
322.2131470171
 31
0.0
  0
LINE
  5
37D
330
1F
100
AcDbEntity
  8
0
100
AcDbLine
 10
-473.7595061727
 20
110.4639841689
 30
0.0
 11
-473.7595061727
 21
109.5639841689
 31
0.0
  0
LINE
  5
37E
330
1F
100
AcDbEntity
  8
0
100
AcDbLine
 10
-473.7595061727
 20
111.3639841689
 30
0.0
 11
-473.7595061727
 21
110.4639841689
 31
0.0
  0
LINE
  5
37F
330
1F
100
AcDbEntity
  8
0
100
AcDbLine
 10
-468.4595061727
 20
110.4639841689
 30
0.0
 11
-468.4595061727
 21
109.4639841689
 31
0.0
  0
LINE
  5
380
330
1F
100
AcDbEntity
  8
0
100
AcDbLine
 10
-468.4595061727
 20
111.4639841689
 30
0.0
 11
-468.4595061727
 21
110.4639841689
 31
0.0
  0
LINE
  5
381
330
1F
100
AcDbEntity
  8
0
100
AcDbLine
 10
-469.4595061727
 20
110.4639841689
 30
0.0
 11
-469.4595061727
 21
108.4639841689
 31
0.0
  0
LINE
  5
382
330
1F
100
AcDbEntity
  8
0
100
AcDbLine
 10
-469.4595061727
 20
112.4639841689
 30
0.0
 11
-469.4595061727
 21
110.4639841689
 31
0.0
  0
LINE
  5
383
330
1F
100
AcDbEntity
  8
0
100
AcDbLine
 10
-443.8595061727
 20
-12.2360158311
 30
0.0
 11
-442.0595061727
 21
-12.2360158311
 31
0.0
  0
LINE
  5
384
330
1F
100
AcDbEntity
  8
0
100
AcDbLine
 10
-443.9595061727
 20
-6.9360158311
 30
0.0
 11
-441.9595061727
 21
-6.9360158311
 31
0.0
  0
LINE
  5
385
330
1F
100
AcDbEntity
  8
0
100
AcDbLine
 10
-444.9595061727
 20
-7.9360158311
 30
0.0
 11
-440.9595061727
 21
-7.9360158311
 31
0.0
  0
LINE
  5
386
330
1F
100
AcDbEntity
  8
0
100
AcDbLine
 10
-473.7595061727
 20
216.3639841689
 30
0.0
 11
-473.7595061727
 21
215.4639841689
 31
0.0
  0
LINE
  5
387
330
1F
100
AcDbEntity
  8
0
100
AcDbLine
 10
-473.7595061727
 20
215.4639841689
 30
0.0
 11
-473.7595061727
 21
217.2639841689
 31
0.0
  0
LINE
  5
388
330
1F
100
AcDbEntity
  8
0
100
AcDbLine
 10
-468.4595061727
 20
216.3639841689
 30
0.0
 11
-468.4595061727
 21
215.3639841689
 31
0.0
  0
LINE
  5
389
330
1F
100
AcDbEntity
  8
0
100
AcDbLine
 10
-468.4595061727
 20
215.3639841689
 30
0.0
 11
-468.4595061727
 21
217.3639841689
 31
0.0
  0
LINE
  5
38A
330
1F
100
AcDbEntity
  8
0
100
AcDbLine
 10
-469.4595061727
 20
216.3639841689
 30
0.0
 11
-469.4595061727
 21
214.3639841689
 31
0.0
  0
LINE
  5
38B
330
1F
100
AcDbEntity
  8
0
100
AcDbLine
 10
-469.4595061727
 20
214.3639841689
 30
0.0
 11
-469.4595061727
 21
218.3639841689
 31
0.0
  0
LINE
  5
38C
330
1F
100
AcDbEntity
  8
0
100
AcDbLine
 10
-473.7595061727
 20
319.0601365916
 30
0.0
 11
-473.7595061727
 21
318.1601365916
 31
0.0
  0
LINE
  5
38D
330
1F
100
AcDbEntity
  8
0
100
AcDbLine
 10
-473.7595061727
 20
319.9601365916
 30
0.0
 11
-473.7595061727
 21
319.0601365916
 31
0.0
  0
LINE
  5
38E
330
1F
100
AcDbEntity
  8
0
100
AcDbLine
 10
-129.7595061727
 20
216.3639841689
 30
0.0
 11
-129.7595061727
 21
217.2639841689
 31
0.0
  0
LINE
  5
38F
330
1F
100
AcDbEntity
  8
0
100
AcDbLine
 10
-129.7595061727
 20
215.4639841689
 30
0.0
 11
-129.7595061727
 21
216.3639841689
 31
0.0
  0
LINE
  5
390
330
1F
100
AcDbEntity
  8
0
100
AcDbLine
 10
-135.0595061727
 20
216.3639841689
 30
0.0
 11
-135.0595061727
 21
217.3639841689
 31
0.0
  0
LINE
  5
391
330
1F
100
AcDbEntity
  8
0
100
AcDbLine
 10
-135.0595061727
 20
215.3639841689
 30
0.0
 11
-135.0595061727
 21
216.3639841689
 31
0.0
  0
LINE
  5
392
330
1F
100
AcDbEntity
  8
0
100
AcDbLine
 10
-134.0595061727
 20
216.3639841689
 30
0.0
 11
-134.0595061727
 21
218.3639841689
 31
0.0
  0
LINE
  5
393
330
1F
100
AcDbEntity
  8
0
100
AcDbLine
 10
-134.0595061727
 20
214.3639841689
 30
0.0
 11
-134.0595061727
 21
216.3639841689
 31
0.0
  0
LINE
  5
394
330
1F
100
AcDbEntity
  8
0
100
AcDbLine
 10
-129.7595061727
 20
322.2639841689
 30
0.0
 11
-129.7595061727
 21
323.1639841689
 31
0.0
  0
LINE
  5
395
330
1F
100
AcDbEntity
  8
0
100
AcDbLine
 10
-129.7595061727
 20
321.3639841689
 30
0.0
 11
-129.7595061727
 21
322.2639841689
 31
0.0
  0
LINE
  5
396
330
1F
100
AcDbEntity
  8
0
100
AcDbLine
 10
-135.0595061727
 20
322.2639841689
 30
0.0
 11
-135.0595061727
 21
323.2639841689
 31
0.0
  0
LINE
  5
397
330
1F
100
AcDbEntity
  8
0
100
AcDbLine
 10
-135.0595061727
 20
321.2639841689
 30
0.0
 11
-135.0595061727
 21
322.2639841689
 31
0.0
  0
LINE
  5
398
330
1F
100
AcDbEntity
  8
0
100
AcDbLine
 10
-134.0595061727
 20
322.2639841689
 30
0.0
 11
-134.0595061727
 21
324.2639841689
 31
0.0
  0
LINE
  5
399
330
1F
100
AcDbEntity
  8
0
100
AcDbLine
 10
-134.0595061727
 20
320.2639841689
 30
0.0
 11
-134.0595061727
 21
322.2639841689
 31
0.0
  0
LINE
  5
39A
330
1F
100
AcDbEntity
  8
0
100
AcDbLine
 10
-473.7595061727
 20
5.4639841689
 30
0.0
 11
-473.7595061727
 21
3.6639841689
 31
0.0
  0
LINE
  5
39B
330
1F
100
AcDbEntity
  8
0
100
AcDbLine
 10
-468.4595061727
 20
5.5639841689
 30
0.0
 11
-468.4595061727
 21
3.5639841689
 31
0.0
  0
LINE
  5
39C
330
1F
100
AcDbEntity
  8
0
100
AcDbLine
 10
-469.4595061727
 20
6.5639841689
 30
0.0
 11
-469.4595061727
 21
2.5639841689
 31
0.0
  0
LINE
  5
39D
330
1F
100
AcDbEntity
  8
0
100
AcDbLine
 10
-129.7595061727
 20
4.5639841689
 30
0.0
 11
-129.7595061727
 21
5.4639841689
 31
0.0
  0
LINE
  5
39E
330
1F
100
AcDbEntity
  8
0
100
AcDbLine
 10
-129.7595061727
 20
3.6639841689
 30
0.0
 11
-129.7595061727
 21
4.5639841689
 31
0.0
  0
LINE
  5
39F
330
1F
100
AcDbEntity
  8
0
100
AcDbLine
 10
-135.0595061727
 20
4.5639841689
 30
0.0
 11
-135.0595061727
 21
5.5639841689
 31
0.0
  0
LINE
  5
3A0
330
1F
100
AcDbEntity
  8
0
100
AcDbLine
 10
-135.0595061727
 20
3.5639841689
 30
0.0
 11
-135.0595061727
 21
4.5639841689
 31
0.0
  0
LINE
  5
3A1
330
1F
100
AcDbEntity
  8
0
100
AcDbLine
 10
-134.0595061727
 20
4.5639841689
 30
0.0
 11
-134.0595061727
 21
6.5639841689
 31
0.0
  0
LINE
  5
3A2
330
1F
100
AcDbEntity
  8
0
100
AcDbLine
 10
-134.0595061727
 20
2.5639841689
 30
0.0
 11
-134.0595061727
 21
4.5639841689
 31
0.0
  0
LINE
  5
3A3
330
1F
100
AcDbEntity
  8
0
100
AcDbLine
 10
-129.7595061727
 20
2.4601365916
 30
0.0
 11
-129.7595061727
 21
3.3601365916
 31
0.0
  0
LINE
  5
3A4
330
1F
100
AcDbEntity
  8
0
100
AcDbLine
 10
-129.7595061727
 20
1.5601365916
 30
0.0
 11
-129.7595061727
 21
2.4601365916
 31
0.0
  0
LINE
  5
3A5
330
1F
100
AcDbEntity
  8
0
100
AcDbLine
 10
-352.6595061727
 20
-12.2360158311
 30
0.0
 11
-350.8595061727
 21
-12.2360158311
 31
0.0
  0
LINE
  5
3A6
330
1F
100
AcDbEntity
  8
0
100
AcDbLine
 10
-352.7595061727
 20
-6.9360158311
 30
0.0
 11
-350.7595061727
 21
-6.9360158311
 31
0.0
  0
LINE
  5
3A7
330
1F
100
AcDbEntity
  8
0
100
AcDbLine
 10
-353.7595061727
 20
-7.9360158311
 30
0.0
 11
-349.7595061727
 21
-7.9360158311
 31
0.0
  0
LINE
  5
3A8
330
1F
100
AcDbEntity
  8
0
100
AcDbLine
 10
-129.7595061727
 20
110.4639841689
 30
0.0
 11
-129.7595061727
 21
111.3639841689
 31
0.0
  0
LINE
  5
3A9
330
1F
100
AcDbEntity
  8
0
100
AcDbLine
 10
-129.7595061727
 20
109.5639841689
 30
0.0
 11
-129.7595061727
 21
110.4639841689
 31
0.0
  0
LINE
  5
3AA
330
1F
100
AcDbEntity
  8
0
100
AcDbLine
 10
-135.0595061727
 20
110.4639841689
 30
0.0
 11
-135.0595061727
 21
111.4639841689
 31
0.0
  0
LINE
  5
3AB
330
1F
100
AcDbEntity
  8
0
100
AcDbLine
 10
-135.0595061727
 20
109.4639841689
 30
0.0
 11
-135.0595061727
 21
110.4639841689
 31
0.0
  0
LINE
  5
3AC
330
1F
100
AcDbEntity
  8
0
100
AcDbLine
 10
-134.0595061727
 20
110.4639841689
 30
0.0
 11
-134.0595061727
 21
112.4639841689
 31
0.0
  0
LINE
  5
3AD
330
1F
100
AcDbEntity
  8
0
100
AcDbLine
 10
-134.0595061727
 20
108.4639841689
 30
0.0
 11
-134.0595061727
 21
110.4639841689
 31
0.0
  0
LINE
  5
3AE
330
1F
100
AcDbEntity
  8
0
100
AcDbLine
 10
-146.4074432234
 20
342.9639841689
 30
0.0
 11
-164.399534582
 21
342.9639841689
 31
0.0
  0
LINE
  5
3AF
330
1F
100
AcDbEntity
  8
0
100
AcDbLine
 10
-172.1194777634
 20
342.9639841689
 30
0.0
 11
-193.9520061705
 21
342.9639841689
 31
0.0
  0
LINE
  5
3B0
330
1F
100
AcDbEntity
  8
0
100
AcDbLine
 10
-127.1194777634
 20
342.9639841689
 30
0.0
 11
-146.4074432234
 21
342.9639841689
 31
0.0
  0
LINE
  5
3B1
330
1F
100
AcDbEntity
  8
0
100
AcDbLine
 10
-155.1715721892
 20
352.9639841689
 30
0.0
 11
-171.9520061705
 21
352.9639841689
 31
0.0
  0
LINE
  5
3B2
330
1F
100
AcDbEntity
  8
0
100
AcDbLine
 10
-147.9520061705
 20
352.9639841689
 30
0.0
 11
-155.1715721892
 21
352.9639841689
 31
0.0
  0
LINE
  5
3B3
330
1F
100
AcDbEntity
  8
0
100
AcDbLine
 10
-443.2570061727
 20
342.9639841689
 30
0.0
 11
-476.3995345821
 21
342.9639841689
 31
0.0
  0
LINE
  5
3B4
330
1F
100
AcDbEntity
  8
0
100
AcDbLine
 10
-409.2570061727
 20
342.9639841689
 30
0.0
 11
-431.3995345821
 21
342.9639841689
 31
0.0
  0
LINE
  5
3B5
330
1F
100
AcDbEntity
  8
0
100
AcDbLine
 10
-439.1194777634
 20
342.9639841689
 30
0.0
 11
-443.2570061727
 21
342.9639841689
 31
0.0
  0
LINE
  5
3B6
330
1F
100
AcDbEntity
  8
0
100
AcDbLine
 10
-443.2570061727
 20
352.9639841689
 30
0.0
 11
-455.2570061727
 21
352.9639841689
 31
0.0
  0
LINE
  5
3B7
330
1F
100
AcDbEntity
  8
0
100
AcDbLine
 10
-431.2570061727
 20
352.9639841689
 30
0.0
 11
-443.2570061727
 21
352.9639841689
 31
0.0
  0
ELLIPSE
  5
3B8
330
1F
100
AcDbEntity
  8
0
100
AcDbEllipse
 10
-118.2595061728
 20
339.2639841689
 30
0.0
 11
0.0
 21
1.700000000000045
 31
0.0
210
0.0
220
0.0
230
1.0
 40
0.4842490028
 41
4.712388980384697
 42
6.283185307179586
  0
ELLIPSE
  5
3B9
330
1F
100
AcDbEntity
  8
0
100
AcDbEllipse
 10
-485.2595061727
 20
339.2639841689
 30
0.0
 11
0.0
 21
1.700000000000045
 31
0.0
210
0.0
220
0.0
230
1.0
 40
0.4842490028
 41
0.0
 42
1.570796326794897
  0
LINE
  5
3BA
330
1F
100
AcDbEntity
  8
0
100
AcDbLine
 10
-485.2595061727
 20
340.9639841689
 30
0.0
 11
-118.2595061727
 21
340.9639841689
 31
0.0
  0
LINE
  5
3BB
330
1F
100
AcDbEntity
  8
0
100
AcDbLine
 10
-117.4362828681
 20
339.2639841689
 30
0.0
 11
-117.436282868
 21
331.9639841689
 31
0.0
  0
LINE
  5
3BC
330
1F
100
AcDbEntity
  8
0
100
AcDbLine
 10
-486.0827294776
 20
331.9639841689
 30
0.0
 11
-486.0827294775
 21
339.2639841689
 31
0.0
  0
LINE
  5
3BD
330
1F
100
AcDbEntity
  8
0
100
AcDbLine
 10
-486.0827294776
 20
331.9639841689
 30
0.0
 11
-117.436282868
 21
331.9639841689
 31
0.0
  0
LINE
  5
3BE
330
1F
100
AcDbEntity
  8
0
100
AcDbLine
 10
-486.2595061728
 20
339.2639841689
 30
0.0
 11
-486.2595061728
 21
331.9639841689
 31
0.0
  0
LINE
  5
3BF
330
1F
100
AcDbEntity
  8
0
100
AcDbLine
 10
-486.9595061727
 20
339.2639841689
 30
0.0
 11
-486.9595061728
 21
331.9639841689
 31
0.0
  0
LINE
  5
3C0
330
1F
100
AcDbEntity
  8
0
100
AcDbLine
 10
-486.2595061728
 20
331.9639841689
 30
0.0
 11
-486.9595061728
 21
331.9639841689
 31
0.0
  0
ARC
  5
3C1
330
1F
100
AcDbEntity
  8
0
100
AcDbCircle
 10
-485.2595061727
 20
339.2639841689
 30
0.0
 40
1.700000000000045
100
AcDbArc
 50
90.0
 51
180.0
  0
ARC
  5
3C2
330
1F
100
AcDbEntity
  8
0
100
AcDbCircle
 10
-485.2595061727
 20
339.2639841689
 30
0.0
 40
1.0
100
AcDbArc
 50
139.5433910318
 51
180.0
  0
ARC
  5
3C3
330
1F
100
AcDbEntity
  8
0
100
AcDbCircle
 10
-118.2595061727
 20
339.2639841689
 30
0.0
 40
1.000000000000003
100
AcDbArc
 50
0.0
 51
40.456670956
  0
ARC
  5
3C4
330
1F
100
AcDbEntity
  8
0
100
AcDbCircle
 10
-118.2595061727
 20
339.2639841689
 30
0.0
 40
1.700000000000045
100
AcDbArc
 50
0.0
 51
90.0
  0
LINE
  5
3C5
330
1F
100
AcDbEntity
  8
0
100
AcDbLine
 10
-117.2595061727
 20
331.9639841689
 30
0.0
 11
-117.2595061727
 21
339.2639841689
 31
0.0
  0
LINE
  5
3C6
330
1F
100
AcDbEntity
  8
0
100
AcDbLine
 10
-116.5595061727
 20
331.9639841689
 30
0.0
 11
-116.5595061727
 21
339.2639841689
 31
0.0
  0
LINE
  5
3C7
330
1F
100
AcDbEntity
  8
0
100
AcDbLine
 10
-117.2595061727
 20
331.9639841689
 30
0.0
 11
-116.5595061727
 21
331.9639841689
 31
0.0
  0
LINE
  5
3C8
330
1F
100
AcDbEntity
  8
0
100
AcDbLine
 10
-130.5595061727
 20
331.9639841689
 30
0.0
 11
-130.5595061727
 21
-9.7360158311
 31
0.0
  0
LINE
  5
3C9
330
1F
100
AcDbEntity
  8
0
100
AcDbLine
 10
-131.2595061727
 20
331.9639841689
 30
0.0
 11
-131.2595061727
 21
-9.7360158311
 31
0.0
  0
ARC
  5
3CA
330
1F
100
AcDbEntity
  8
0
100
AcDbCircle
 10
-132.2595061727
 20
-9.7360158311
 30
0.0
 40
1.000000000000002
100
AcDbArc
 50
270.0
 51
0.0
  0
ARC
  5
3CB
330
1F
100
AcDbEntity
  8
0
100
AcDbCircle
 10
-132.2595061727
 20
-9.7360158311
 30
0.0
 40
1.700000000000035
100
AcDbArc
 50
270.0
 51
0.0
  0
LINE
  5
3CC
330
1F
100
AcDbEntity
  8
0
100
AcDbLine
 10
-132.2595061727
 20
-11.4360158311
 30
0.0
 11
-471.2595061727
 21
-11.4360158311
 31
0.0
  0
LINE
  5
3CD
330
1F
100
AcDbEntity
  8
0
100
AcDbLine
 10
-132.2595061727
 20
-10.7360158311
 30
0.0
 11
-471.2595061727
 21
-10.7360158311
 31
0.0
  0
LINE
  5
3CE
330
1F
100
AcDbEntity
  8
0
100
AcDbLine
 10
-472.9595061727
 20
-9.7360158311
 30
0.0
 11
-472.9595061727
 21
331.9639841689
 31
0.0
  0
LINE
  5
3CF
330
1F
100
AcDbEntity
  8
0
100
AcDbLine
 10
-472.2595061727
 20
-9.7360158311
 30
0.0
 11
-472.2595061727
 21
331.9639841689
 31
0.0
  0
ARC
  5
3D0
330
1F
100
AcDbEntity
  8
0
100
AcDbCircle
 10
-471.2595061727
 20
-9.7360158311
 30
0.0
 40
1.000000000000002
100
AcDbArc
 50
180.0
 51
270.0
  0
ARC
  5
3D1
330
1F
100
AcDbEntity
  8
0
100
AcDbCircle
 10
-471.2595061727
 20
-9.7360158311
 30
0.0
 40
1.700000000000008
100
AcDbArc
 50
180.0
 51
270.0
  0
CIRCLE
  5
3D2
330
1F
100
AcDbEntity
  8
0
100
AcDbCircle
 10
-301.7595061727
 20
163.7639841689
 30
0.0
 40
125.0
  0
CIRCLE
  5
3D3
330
1F
100
AcDbEntity
  8
0
100
AcDbCircle
 10
-301.7595061727
 20
163.7639841689
 30
0.0
 40
120.7000000000029
  0
CIRCLE
  5
3D4
330
1F
100
AcDbEntity
  8
0
100
AcDbCircle
 10
-301.7595061727
 20
163.7639841689
 30
0.0
 40
120.6992451863355
  0
CIRCLE
  5
3D5
330
1F
100
AcDbEntity
  8
0
100
AcDbCircle
 10
-301.7595061727
 20
25.2639841689
 30
0.0
 40
3.900000000000013
  0
CIRCLE
  5
3D6
330
1F
100
AcDbEntity
  8
0
100
AcDbCircle
 10
-301.7595061727
 20
25.2639841689
 30
0.0
 40
1.099999999999991
  0
CIRCLE
  5
3D7
330
1F
100
AcDbEntity
  8
0
100
AcDbCircle
 10
-204.5323237596
 20
66.5368017557
 30
0.0
 40
3.899999999999987
  0
CIRCLE
  5
3D8
330
1F
100
AcDbEntity
  8
0
100
AcDbCircle
 10
-204.5323237596
 20
66.5368017557
 30
0.0
 40
1.099999999999993
  0
CIRCLE
  5
3D9
330
1F
100
AcDbEntity
  8
0
100
AcDbCircle
 10
-164.2595061727
 20
163.7639841689
 30
0.0
 40
3.900000000000006
  0
CIRCLE
  5
3DA
330
1F
100
AcDbEntity
  8
0
100
AcDbCircle
 10
-164.2595061727
 20
163.7639841689
 30
0.0
 40
1.099999999999994
  0
CIRCLE
  5
3DB
330
1F
100
AcDbEntity
  8
0
100
AcDbCircle
 10
-398.9866885859
 20
260.991166582
 30
0.0
 40
3.900000000000047
  0
CIRCLE
  5
3DC
330
1F
100
AcDbEntity
  8
0
100
AcDbCircle
 10
-398.9866885859
 20
260.991166582
 30
0.0
 40
1.100000000000073
  0
CIRCLE
  5
3DD
330
1F
100
AcDbEntity
  8
0
100
AcDbCircle
 10
-398.9866885859
 20
66.5368017557
 30
0.0
 40
3.900000000000027
  0
CIRCLE
  5
3DE
330
1F
100
AcDbEntity
  8
0
100
AcDbCircle
 10
-398.9866885859
 20
66.5368017557
 30
0.0
 40
1.100000000000033
  0
CIRCLE
  5
3DF
330
1F
100
AcDbEntity
  8
0
100
AcDbCircle
 10
-301.7595061727
 20
301.2639841689
 30
0.0
 40
3.900000000000034
  0
CIRCLE
  5
3E0
330
1F
100
AcDbEntity
  8
0
100
AcDbCircle
 10
-301.7595061727
 20
301.2639841689
 30
0.0
 40
1.100000000000023
  0
CIRCLE
  5
3E1
330
1F
100
AcDbEntity
  8
0
100
AcDbCircle
 10
-204.5323237596
 20
260.991166582
 30
0.0
 40
3.900000000000007
  0
CIRCLE
  5
3E2
330
1F
100
AcDbEntity
  8
0
100
AcDbCircle
 10
-204.5323237596
 20
260.991166582
 30
0.0
 40
1.100000000000013
  0
CIRCLE
  5
3E3
330
1F
100
AcDbEntity
  8
0
100
AcDbCircle
 10
-439.2595061727
 20
163.7639841689
 30
0.0
 40
3.900000000000034
  0
CIRCLE
  5
3E4
330
1F
100
AcDbEntity
  8
0
100
AcDbCircle
 10
-439.2595061727
 20
163.7639841689
 30
0.0
 40
1.099999999999966
  0
LINE
  5
3E5
330
1F
100
AcDbEntity
  8
0
100
AcDbLine
 10
-131.2595061727
 20
-9.965305153
 30
0.0
 11
-131.9595061727
 21
-9.965305153
 31
0.0
  0
LINE
  5
3E6
330
1F
100
AcDbEntity
  8
0
100
AcDbLine
 10
-131.9595061727
 20
331.9639841689
 30
0.0
 11
-131.9595061727
 21
-9.965305153
 31
0.0
  0
LINE
  5
3E7
330
1F
100
AcDbEntity
  8
0
100
AcDbLine
 10
-131.2595061727
 20
331.9639841689
 30
0.0
 11
-131.2595061727
 21
-9.965305153
 31
0.0
  0
LINE
  5
3E8
330
1F
100
AcDbEntity
  8
0
100
AcDbLine
 10
-471.4887954946
 20
-10.7360158311
 30
0.0
 11
-471.4887954946
 21
-10.0360158311
 31
0.0
  0
LINE
  5
3E9
330
1F
100
AcDbEntity
  8
0
100
AcDbLine
 10
-132.0302168508
 20
-10.7360158311
 30
0.0
 11
-471.4887954946
 21
-10.7360158311
 31
0.0
  0
LINE
  5
3EA
330
1F
100
AcDbEntity
  8
0
100
AcDbLine
 10
-132.0302168508
 20
-10.0360158311
 30
0.0
 11
-471.4887954946
 21
-10.0360158311
 31
0.0
  0
LINE
  5
3EB
330
1F
100
AcDbEntity
  8
0
100
AcDbLine
 10
-132.0302168508
 20
-10.7360158311
 30
0.0
 11
-132.0302168508
 21
-10.0360158311
 31
0.0
  0
LINE
  5
3EC
330
1F
100
AcDbEntity
  8
0
100
AcDbLine
 10
-472.2595061727
 20
-9.965305153
 30
0.0
 11
-471.5595061727
 21
-9.965305153
 31
0.0
  0
LINE
  5
3ED
330
1F
100
AcDbEntity
  8
0
100
AcDbLine
 10
-472.2595061727
 20
-9.965305153
 30
0.0
 11
-472.2595061727
 21
331.9639841689
 31
0.0
  0
LINE
  5
3EE
330
1F
100
AcDbEntity
  8
0
100
AcDbLine
 10
-471.5595061727
 20
-9.965305153
 30
0.0
 11
-471.5595061727
 21
331.9639841689
 31
0.0
  0
SPLINE
  5
3EF
330
1F
100
AcDbEntity
  8
0
100
AcDbSpline
210
0.0
220
0.0
230
1.0
 70
     8
 71
     3
 72
    11
 73
     7
 74
     0
 42
0.00000001
 43
0.00000001
 40
0.0
 40
0.0
 40
0.0
 40
0.0
 40
0.2497194705775282
 40
0.499545923871485
 40
0.7493726557941793
 40
1.0
 40
1.0
 40
1.0
 40
1.0
 10
-470.5595061727294
 20
-9.036015831134808
 30
0.0
 10
-470.6368590889386
 20
-9.166904533158714
 30
0.0
 10
-470.7915980602431
 20
-9.42873801144406
 30
0.0
 10
-471.0237254678684
 20
-9.759122790427844
 30
0.0
 10
-471.2561306345241
 20
-9.990745227250992
 30
0.0
 10
-471.4111578718513
 20
-10.02090954449958
 30
0.0
 10
-471.4887954946108
 20
-10.03601583113481
 30
0.0
  0
SPLINE
  5
3F0
330
1F
100
AcDbEntity
  8
0
100
AcDbSpline
210
0.0
220
0.0
230
1.0
 70
     8
 71
     3
 72
    11
 73
     7
 74
     0
 42
0.00000001
 43
0.00000001
 40
0.0
 40
0.0
 40
0.0
 40
0.0
 40
0.2497194705775187
 40
0.4995459238715041
 40
0.7493726557941837
 40
1.0
 40
1.0
 40
1.0
 40
1.0
 10
-132.030216850848
 20
-10.03601583113481
 30
0.0
 10
-132.1075697670572
 20
-10.0210184569792
 30
0.0
 10
-132.2623087383618
 20
-9.99101728361898
 30
0.0
 10
-132.494436145987
 20
-9.760170270296076
 30
0.0
 10
-132.7268413126428
 20
-9.429705120402504
 30
0.0
 10
-132.8818685499699
 20
-9.167385478073387
 30
0.0
 10
-132.9595061727294
 20
-9.036015831134808
 30
0.0
  0
SPLINE
  5
3F1
330
1F
100
AcDbEntity
  8
0
100
AcDbSpline
210
0.0
220
0.0
230
1.0
 70
     8
 71
     3
 72
    11
 73
     7
 74
     0
 42
0.00000001
 43
0.00000001
 40
0.0
 40
0.0
 40
0.0
 40
0.0
 40
0.2497194705775771
 40
0.4995459238715482
 40
0.74937265579424
 40
0.9999999999999999
 40
0.9999999999999999
 40
0.9999999999999999
 40
0.9999999999999999
 10
-132.9595061727294
 20
-9.036015831134808
 30
0.0
 10
-132.8286174707054
 20
-9.11336874734403
 30
0.0
 10
-132.5667839924201
 20
-9.268107718648555
 30
0.0
 10
-132.2363992134363
 20
-9.500235126273848
 30
0.0
 10
-132.0047767766131
 20
-9.732640292929528
 30
0.0
 10
-131.9746124593646
 20
-9.887667530256744
 30
0.0
 10
-131.9595061727294
 20
-9.965305153016107
 30
0.0
  0
SPLINE
  5
3F2
330
1F
100
AcDbEntity
  8
0
100
AcDbSpline
210
0.0
220
0.0
230
1.0
 70
     8
 71
     3
 72
    11
 73
     7
 74
     0
 42
0.00000001
 43
0.00000001
 40
0.0
 40
0.0
 40
0.0
 40
0.0
 40
0.2497194705775671
 40
0.4995459238715594
 40
0.7493726557942633
 40
0.9999999999999999
 40
0.9999999999999999
 40
0.9999999999999999
 40
0.9999999999999999
 10
-471.5595061727295
 20
-9.965305153016107
 30
0.0
 10
-471.5445087985738
 20
-9.887952236806886
 30
0.0
 10
-471.5145076252136
 20
-9.73321326550236
 30
0.0
 10
-471.2836606118906
 20
-9.501085857877067
 30
0.0
 10
-470.953195461997
 20
-9.268680691221304
 30
0.0
 10
-470.690875819668
 20
-9.1136534538942
 30
0.0
 10
-470.5595061727294
 20
-9.036015831134808
 30
0.0
  0
LINE
  5
3F3
330
1F
100
AcDbEntity
  8
0
  6
PHANTOM
 62
     8
370
    18
100
AcDbLine
 10
-454.1570061727
 20
391.7639841689
 30
0.0
 11
-432.3570061727
 21
391.7639841689
 31
0.0
  0
LINE
  5
3F4
330
1F
100
AcDbEntity
  8
0
  6
PHANTOM
 62
     8
370
    18
100
AcDbLine
 10
-158.854647365
 20
391.7639841689
 30
0.0
 11
-149.0520061705
 21
391.7639841689
 31
0.0
  0
LINE
  5
3F5
330
1F
100
AcDbEntity
  8
0
  6
PHANTOM
 62
     8
370
    18
100
AcDbLine
 10
-170.8520061705
 20
391.7639841689
 30
0.0
 11
-158.854647365
 21
391.7639841689
 31
0.0
  0
ARC
  5
3F6
330
1F
100
AcDbEntity
  8
0
  6
PHANTOM
 62
     8
370
    18
100
AcDbCircle
 10
-162.4368855046
 20
392.110436751
 30
0.0
 40
3.598952553176725
100
AcDbArc
 50
354.4758766626
 51
17.0219015372
  0
LINE
  5
3F7
330
1F
100
AcDbEntity
  8
0
  6
PHANTOM
 62
     8
370
    18
100
AcDbLine
 10
-158.854647365
 20
391.7639841689
 30
0.0
 11
-158.854647365
 21
383.5639841689
 31
0.0
  0
LINE
  5
3F8
330
1F
100
AcDbEntity
  8
0
  6
PHANTOM
 62
     8
370
    18
100
AcDbLine
 10
-159.9520061705
 20
349.7030321476
 30
0.0
 11
-159.9520061705
 21
358.7639841689
 31
0.0
  0
LINE
  5
3F9
330
1F
100
AcDbEntity
  8
0
  6
PHANTOM
 62
     8
370
    18
100
AcDbLine
 10
-168.4522106783
 20
342.0139841689
 30
0.0
 11
-164.1595061727
 21
342.0139841689
 31
0.0
  0
LINE
  5
3FA
330
1F
100
AcDbEntity
  8
0
  6
PHANTOM
 62
     8
370
    18
100
AcDbLine
 10
-172.3595061727
 20
342.0139841689
 30
0.0
 11
-168.4522106783
 21
342.0139841689
 31
0.0
  0
LINE
  5
3FB
330
1F
100
AcDbEntity
  8
0
  6
PHANTOM
 62
     8
370
    18
100
AcDbLine
 10
-480.0668016672
 20
342.0139841689
 30
0.0
 11
-476.1595061728
 21
342.0139841689
 31
0.0
  0
LINE
  5
3FC
330
1F
100
AcDbEntity
  8
0
  6
PHANTOM
 62
     8
370
    18
100
AcDbLine
 10
-484.3595061728
 20
342.0139841689
 30
0.0
 11
-480.0668016672
 21
342.0139841689
 31
0.0
  0
LINE
  5
3FD
330
1F
100
AcDbEntity
  8
0
  6
PHANTOM
 62
     8
370
    18
100
AcDbLine
 10
-123.4522106783
 20
342.0139841689
 30
0.0
 11
-119.1595061727
 21
342.0139841689
 31
0.0
  0
LINE
  5
3FE
330
1F
100
AcDbEntity
  8
0
  6
PHANTOM
 62
     8
370
    18
100
AcDbLine
 10
-127.3595061727
 20
342.0139841689
 30
0.0
 11
-123.4522106783
 21
342.0139841689
 31
0.0
  0
LINE
  5
3FF
330
1F
100
AcDbEntity
  8
0
  6
PHANTOM
 62
     8
370
    18
100
AcDbLine
 10
-301.5668016671
 20
342.0139841689
 30
0.0
 11
-297.6595061727
 21
342.0139841689
 31
0.0
  0
LINE
  5
400
330
1F
100
AcDbEntity
  8
0
  6
PHANTOM
 62
     8
370
    18
100
AcDbLine
 10
-305.8595061727
 20
342.0139841689
 30
0.0
 11
-301.5668016671
 21
342.0139841689
 31
0.0
  0
LINE
  5
401
330
1F
100
AcDbEntity
  8
0
  6
PHANTOM
 62
     8
370
    18
100
AcDbLine
 10
-435.0668016672
 20
342.0139841689
 30
0.0
 11
-431.1595061728
 21
342.0139841689
 31
0.0
  0
LINE
  5
402
330
1F
100
AcDbEntity
  8
0
  6
PHANTOM
 62
     8
370
    18
100
AcDbLine
 10
-439.3595061728
 20
342.0139841689
 30
0.0
 11
-435.0668016672
 21
342.0139841689
 31
0.0
  0
LINE
  5
403
330
1F
100
AcDbEntity
  8
0
  6
PHANTOM
 62
     8
370
    18
100
AcDbLine
 10
-155.1715721892
 20
350.9639841689
 30
0.0
 11
-171.9520061705
 21
350.9639841689
 31
0.0
  0
LINE
  5
404
330
1F
100
AcDbEntity
  8
0
  6
PHANTOM
 62
     8
370
    18
100
AcDbLine
 10
-147.9520061705
 20
350.9639841689
 30
0.0
 11
-155.1715721892
 21
350.9639841689
 31
0.0
  0
LINE
  5
405
330
1F
100
AcDbEntity
  8
0
  6
PHANTOM
 62
     8
370
    18
100
AcDbLine
 10
-443.2570061727
 20
350.9639841689
 30
0.0
 11
-455.2570061727
 21
350.9639841689
 31
0.0
  0
LINE
  5
406
330
1F
100
AcDbEntity
  8
0
  6
PHANTOM
 62
     8
370
    18
100
AcDbLine
 10
-431.2570061727
 20
350.9639841689
 30
0.0
 11
-443.2570061727
 21
350.9639841689
 31
0.0
  0
LINE
  5
407
330
1F
100
AcDbEntity
  8
0
  6
PHANTOM
 62
     8
370
    18
100
AcDbLine
 10
-486.0827294775
 20
339.2639841689
 30
0.0
 11
-117.4362828681
 21
339.2639841689
 31
0.0
  0
LINE
  5
408
330
1F
100
AcDbEntity
  8
0
  6
PHANTOM
 62
     8
370
    18
100
AcDbLine
 10
-486.2595061728
 20
339.2639841689
 30
0.0
 11
-486.9595061727
 21
339.2639841689
 31
0.0
  0
LINE
  5
409
330
1F
100
AcDbEntity
  8
0
  6
PHANTOM
 62
     8
370
    18
100
AcDbLine
 10
-117.2595061727
 20
339.2639841689
 30
0.0
 11
-116.5595061727
 21
339.2639841689
 31
0.0
  0
LINE
  5
40A
330
1F
100
AcDbEntity
  8
0
  6
PHANTOM
 62
     8
370
    18
100
AcDbLine
 10
-131.2595061727
 20
-9.7360158311
 30
0.0
 11
-130.5595061727
 21
-9.7360158311
 31
0.0
  0
LINE
  5
40B
330
1F
100
AcDbEntity
  8
0
  6
PHANTOM
 62
     8
370
    18
100
AcDbLine
 10
-132.2595061727
 20
-11.4360158311
 30
0.0
 11
-132.2595061727
 21
-10.7360158311
 31
0.0
  0
LINE
  5
40C
330
1F
100
AcDbEntity
  8
0
  6
PHANTOM
 62
     8
370
    18
100
AcDbLine
 10
-471.2595061727
 20
-10.7360158311
 30
0.0
 11
-471.2595061727
 21
-11.4360158311
 31
0.0
  0
LINE
  5
40D
330
1F
100
AcDbEntity
  8
0
  6
PHANTOM
 62
     8
370
    18
100
AcDbLine
 10
-472.9595061727
 20
-9.7360158311
 30
0.0
 11
-472.2595061727
 21
-9.7360158311
 31
0.0
  0
CIRCLE
  5
40E
330
1F
100
AcDbEntity
  8
0
  6
PHANTOM
 62
     8
370
    18
100
AcDbCircle
 10
-301.7595061727
 20
163.7639841689
 30
0.0
 40
131.9434660676937
  0
CIRCLE
  5
40F
330
1F
100
AcDbEntity
  8
0
  6
PHANTOM
 62
     8
370
    18
100
AcDbCircle
 10
-301.7595061727
 20
163.7639841689
 30
0.0
 40
123.697978707398
  0
CIRCLE
  5
410
330
1F
100
AcDbEntity
  8
0
  6
PHANTOM
 62
     8
370
    18
100
AcDbCircle
 10
-301.7595061727
 20
163.7639841689
 30
0.0
 40
121.9984005204029
  0
LINE
  5
411
330
1F
100
AcDbEntity
  8
0
  6
PHANTOM
 62
     8
370
    18
100
AcDbLine
 10
-470.5595061727
 20
-9.0360158311
 30
0.0
 11
-444.4595061727
 21
-9.0360158311
 31
0.0
  0
LINE
  5
412
330
1F
100
AcDbEntity
  8
0
  6
PHANTOM
 62
     8
370
    18
100
AcDbLine
 10
-441.4595061727
 20
-9.0360158311
 30
0.0
 11
-353.2595061727
 21
-9.0360158311
 31
0.0
  0
LINE
  5
413
330
1F
100
AcDbEntity
  8
0
  6
PHANTOM
 62
     8
370
    18
100
AcDbLine
 10
-350.2595061727
 20
-9.0360158311
 30
0.0
 11
-253.2595061727
 21
-9.0360158311
 31
0.0
  0
LINE
  5
414
330
1F
100
AcDbEntity
  8
0
  6
PHANTOM
 62
     8
370
    18
100
AcDbLine
 10
-250.2595061727
 20
-9.0360158311
 30
0.0
 11
-162.0595061727
 21
-9.0360158311
 31
0.0
  0
LINE
  5
415
330
1F
100
AcDbEntity
  8
0
  6
PHANTOM
 62
     8
370
    18
100
AcDbLine
 10
-159.0595061727
 20
-9.0360158311
 30
0.0
 11
-132.9595061727
 21
-9.0360158311
 31
0.0
  0
LINE
  5
416
330
1F
100
AcDbEntity
  8
0
  6
PHANTOM
 62
     8
370
    18
100
AcDbLine
 10
-132.9595061727
 20
-9.0360158311
 30
0.0
 11
-132.9595061727
 21
3.0639841689
 31
0.0
  0
LINE
  5
417
330
1F
100
AcDbEntity
  8
0
  6
PHANTOM
 62
     8
370
    18
100
AcDbLine
 10
-132.9595061727
 20
6.0639841689
 30
0.0
 11
-132.9595061727
 21
108.9639841689
 31
0.0
  0
LINE
  5
418
330
1F
100
AcDbEntity
  8
0
  6
PHANTOM
 62
     8
370
    18
100
AcDbLine
 10
-132.9595061727
 20
111.9639841689
 30
0.0
 11
-132.9595061727
 21
214.8639841689
 31
0.0
  0
LINE
  5
419
330
1F
100
AcDbEntity
  8
0
  6
PHANTOM
 62
     8
370
    18
100
AcDbLine
 10
-132.9595061727
 20
217.8639841689
 30
0.0
 11
-132.9595061727
 21
320.7639841689
 31
0.0
  0
LINE
  5
41A
330
1F
100
AcDbEntity
  8
0
  6
PHANTOM
 62
     8
370
    18
100
AcDbLine
 10
-132.9595061727
 20
323.7639841689
 30
0.0
 11
-132.9595061727
 21
331.9639841689
 31
0.0
  0
LINE
  5
41B
330
1F
100
AcDbEntity
  8
0
  6
PHANTOM
 62
     8
370
    18
100
AcDbLine
 10
-470.5595061727
 20
331.9639841689
 30
0.0
 11
-470.5595061727
 21
323.7639841689
 31
0.0
  0
LINE
  5
41C
330
1F
100
AcDbEntity
  8
0
  6
PHANTOM
 62
     8
370
    18
100
AcDbLine
 10
-470.5595061727
 20
320.7639841689
 30
0.0
 11
-470.5595061727
 21
217.8639841689
 31
0.0
  0
LINE
  5
41D
330
1F
100
AcDbEntity
  8
0
  6
PHANTOM
 62
     8
370
    18
100
AcDbLine
 10
-470.5595061727
 20
214.8639841689
 30
0.0
 11
-470.5595061727
 21
111.9639841689
 31
0.0
  0
LINE
  5
41E
330
1F
100
AcDbEntity
  8
0
  6
PHANTOM
 62
     8
370
    18
100
AcDbLine
 10
-470.5595061727
 20
108.9639841689
 30
0.0
 11
-470.5595061727
 21
6.0639841689
 31
0.0
  0
LINE
  5
41F
330
1F
100
AcDbEntity
  8
0
  6
PHANTOM
 62
     8
370
    18
100
AcDbLine
 10
-470.5595061727
 20
3.0639841689
 30
0.0
 11
-470.5595061727
 21
-9.0360158311
 31
0.0
  0
ARC
  5
420
330
1F
100
AcDbEntity
  8
0
100
AcDbCircle
 10
-433.6595061727
 20
-179.0391996304
 30
0.0
 40
0.5
100
AcDbArc
 50
94.9871394293
 51
270.0
  0
ARC
  5
421
330
1F
100
AcDbEntity
  8
0
100
AcDbCircle
 10
-169.8595061727
 20
-179.0391996304
 30
0.0
 40
0.5
100
AcDbArc
 50
270.0
 51
85.0128605707
  0
ARC
  5
422
330
1F
100
AcDbEntity
  8
0
100
AcDbCircle
 10
-433.6595061727
 20
-174.8391996304
 30
0.0
 40
0.5
100
AcDbArc
 50
94.9871394293
 51
270.0
  0
ARC
  5
423
330
1F
100
AcDbEntity
  8
0
100
AcDbCircle
 10
-169.8595061727
 20
-174.8391996304
 30
0.0
 40
0.5
100
AcDbArc
 50
270.0
 51
85.0128605707
  0
LINE
  5
424
330
1F
100
AcDbEntity
  8
0
100
AcDbLine
 10
-169.816040105
 20
-178.5410925125
 30
0.0
 11
-177.6312392066
 21
-177.8591187744
 31
0.0
  0
LINE
  5
425
330
1F
100
AcDbEntity
  8
0
100
AcDbLine
 10
-425.8877731389
 20
-177.8591187744
 30
0.0
 11
-433.7029722404
 21
-178.5410925125
 31
0.0
  0
LINE
  5
426
330
1F
100
AcDbEntity
  8
0
100
AcDbLine
 10
-169.816040105
 20
-174.3410925125
 30
0.0
 11
-177.6312392066
 21
-173.6591187744
 31
0.0
  0
LINE
  5
427
330
1F
100
AcDbEntity
  8
0
100
AcDbLine
 10
-425.8877731389
 20
-173.6591187744
 30
0.0
 11
-433.7029722404
 21
-174.3410925125
 31
0.0
  0
ARC
  5
428
330
1F
100
AcDbEntity
  8
0
100
AcDbCircle
 10
-425.9095061727
 20
-177.6100652154
 30
0.0
 40
0.25
100
AcDbArc
 50
274.9871394293
 51
0.0
  0
ARC
  5
429
330
1F
100
AcDbEntity
  8
0
100
AcDbCircle
 10
-177.6095061727
 20
-177.6100652154
 30
0.0
 40
0.2499999999999877
100
AcDbArc
 50
180.0
 51
265.0128605707
  0
ARC
  5
42A
330
1F
100
AcDbEntity
  8
0
100
AcDbCircle
 10
-425.9095061727
 20
-173.4100652154
 30
0.0
 40
0.2500000000000209
100
AcDbArc
 50
274.9871394293
 51
0.0
  0
ARC
  5
42B
330
1F
100
AcDbEntity
  8
0
100
AcDbCircle
 10
-177.6095061727
 20
-173.4100652154
 30
0.0
 40
0.250000000000016
100
AcDbArc
 50
180.0
 51
265.0128605707
  0
LINE
  5
42C
330
1F
100
AcDbEntity
  8
0
100
AcDbLine
 10
-425.6595061727
 20
-172.5391999326
 30
0.0
 11
-425.6595061727
 21
-173.4100652154
 31
0.0
  0
LINE
  5
42D
330
1F
100
AcDbEntity
  8
0
100
AcDbLine
 10
-177.8595061727
 20
-173.4100652154
 30
0.0
 11
-177.8595061727
 21
-172.5391999326
 31
0.0
  0
LINE
  5
42E
330
1F
100
AcDbEntity
  8
0
100
AcDbLine
 10
-425.6595061727
 20
-175.3391996304
 30
0.0
 11
-425.6595061727
 21
-177.6100652154
 31
0.0
  0
LINE
  5
42F
330
1F
100
AcDbEntity
  8
0
100
AcDbLine
 10
-177.8595061727
 20
-177.6100652154
 30
0.0
 11
-177.8595061727
 21
-175.3391996304
 31
0.0
  0
ARC
  5
430
330
1F
100
AcDbEntity
  8
0
100
AcDbCircle
 10
-169.8595061727
 20
-472.0392002348
 30
0.0
 40
0.5000000000000568
100
AcDbArc
 50
274.9871394293
 51
90.0
  0
ARC
  5
431
330
1F
100
AcDbEntity
  8
0
100
AcDbCircle
 10
-433.6595061727
 20
-472.0392002348
 30
0.0
 40
0.5
100
AcDbArc
 50
90.0
 51
265.0128605707
  0
ARC
  5
432
330
1F
100
AcDbEntity
  8
0
100
AcDbCircle
 10
-169.8595061727
 20
-476.2392002348
 30
0.0
 40
0.5000000000000221
100
AcDbArc
 50
274.9871394293
 51
90.0
  0
ARC
  5
433
330
1F
100
AcDbEntity
  8
0
100
AcDbCircle
 10
-433.6595061727
 20
-476.2392002348
 30
0.0
 40
0.5
100
AcDbArc
 50
90.0
 51
265.0128605707
  0
LINE
  5
434
330
1F
100
AcDbEntity
  8
0
100
AcDbLine
 10
-433.7029722404
 20
-472.5373073528
 30
0.0
 11
-425.8877731389
 21
-473.2192810908
 31
0.0
  0
LINE
  5
435
330
1F
100
AcDbEntity
  8
0
100
AcDbLine
 10
-177.6312392066
 20
-473.2192810908
 30
0.0
 11
-169.816040105
 21
-472.5373073528
 31
0.0
  0
LINE
  5
436
330
1F
100
AcDbEntity
  8
0
100
AcDbLine
 10
-433.7029722404
 20
-476.7373073528
 30
0.0
 11
-425.8877731389
 21
-477.4192810908
 31
0.0
  0
LINE
  5
437
330
1F
100
AcDbEntity
  8
0
100
AcDbLine
 10
-177.6312392066
 20
-477.4192810908
 30
0.0
 11
-169.816040105
 21
-476.7373073528
 31
0.0
  0
ARC
  5
438
330
1F
100
AcDbEntity
  8
0
100
AcDbCircle
 10
-177.6095061727
 20
-473.4683346498
 30
0.0
 40
0.2500000000000284
100
AcDbArc
 50
94.9871394293
 51
180.0
  0
ARC
  5
439
330
1F
100
AcDbEntity
  8
0
100
AcDbCircle
 10
-425.9095061727
 20
-473.4683346498
 30
0.0
 40
0.25
100
AcDbArc
 50
0.0
 51
85.0128605707
  0
ARC
  5
43A
330
1F
100
AcDbEntity
  8
0
100
AcDbCircle
 10
-177.6095061727
 20
-477.6683346498
 30
0.0
 40
0.2500000000000284
100
AcDbArc
 50
94.9871394293
 51
180.0
  0
ARC
  5
43B
330
1F
100
AcDbEntity
  8
0
100
AcDbCircle
 10
-425.9095061727
 20
-477.6683346498
 30
0.0
 40
0.25
100
AcDbArc
 50
0.0
 51
85.0128605707
  0
LINE
  5
43C
330
1F
100
AcDbEntity
  8
0
100
AcDbLine
 10
-177.8595061727
 20
-478.5391999326
 30
0.0
 11
-177.8595061727
 21
-477.6683346498
 31
0.0
  0
LINE
  5
43D
330
1F
100
AcDbEntity
  8
0
100
AcDbLine
 10
-425.6595061727
 20
-477.6683346498
 30
0.0
 11
-425.6595061727
 21
-478.5391999326
 31
0.0
  0
LINE
  5
43E
330
1F
100
AcDbEntity
  8
0
100
AcDbLine
 10
-177.8595061727
 20
-475.7392002348
 30
0.0
 11
-177.8595061727
 21
-473.4683346498
 31
0.0
  0
LINE
  5
43F
330
1F
100
AcDbEntity
  8
0
100
AcDbLine
 10
-425.6595061727
 20
-473.4683346498
 30
0.0
 11
-425.6595061727
 21
-475.7392002348
 31
0.0
  0
LINE
  5
440
330
1F
100
AcDbEntity
  8
0
100
AcDbLine
 10
-176.7595061727
 20
-483.2391999326
 30
0.0
 11
-176.7595061727
 21
-478.5391999326
 31
0.0
  0
LINE
  5
441
330
1F
100
AcDbEntity
  8
0
100
AcDbLine
 10
-426.7595061727
 20
-478.5391999326
 30
0.0
 11
-426.7595061727
 21
-483.2391999326
 31
0.0
  0
ARC
  5
442
330
1F
100
AcDbEntity
  8
0
100
AcDbCircle
 10
-178.0595061727
 20
-483.239201504
 30
0.0
 40
1.300000000004627
100
AcDbArc
 50
270.0
 51
0.0000692571
  0
ARC
  5
443
330
1F
100
AcDbEntity
  8
0
100
AcDbCircle
 10
-425.4595061727
 20
-483.239201504
 30
0.0
 40
1.300000000004656
100
AcDbArc
 50
179.9999307429
 51
270.0
  0
LINE
  5
444
330
1F
100
AcDbEntity
  8
0
100
AcDbLine
 10
-425.4595061727
 20
-484.539201504
 30
0.0
 11
-178.0595061727
 21
-484.539201504
 31
0.0
  0
LINE
  5
445
330
1F
100
AcDbEntity
  8
0
100
AcDbLine
 10
-176.8095575732
 20
-460.218168593
 30
0.0
 11
-176.8095575732
 21
-444.7391999326
 31
0.0
  0
LINE
  5
446
330
1F
100
AcDbEntity
  8
0
100
AcDbLine
 10
-426.7094547723
 20
-444.7391999326
 30
0.0
 11
-426.7094547723
 21
-460.218168593
 31
0.0
  0
LINE
  5
447
330
1F
100
AcDbEntity
  8
0
100
AcDbLine
 10
-426.7094547723
 20
-460.218168593
 30
0.0
 11
-424.9658896665
 21
-461.9617336988
 31
0.0
  0
LINE
  5
448
330
1F
100
AcDbEntity
  8
0
100
AcDbLine
 10
-178.5531226789
 20
-461.9617336988
 30
0.0
 11
-176.8095575732
 21
-460.218168593
 31
0.0
  0
LINE
  5
449
330
1F
100
AcDbEntity
  8
0
100
AcDbLine
 10
-424.9658896665
 20
-461.9617336988
 30
0.0
 11
-422.9587513591
 21
-468.9840674981
 31
0.0
  0
LINE
  5
44A
330
1F
100
AcDbEntity
  8
0
100
AcDbLine
 10
-180.5602609864
 20
-468.9840674981
 30
0.0
 11
-178.5531226789
 21
-461.9617336988
 31
0.0
  0
LINE
  5
44B
330
1F
100
AcDbEntity
  8
0
100
AcDbLine
 10
-180.5602609864
 20
-471.5392002348
 30
0.0
 11
-180.5602609864
 21
-468.9840674981
 31
0.0
  0
LINE
  5
44C
330
1F
100
AcDbEntity
  8
0
100
AcDbLine
 10
-422.9587513591
 20
-468.9840674981
 30
0.0
 11
-422.9587513591
 21
-471.5392002348
 31
0.0
  0
LINE
  5
44D
330
1F
100
AcDbEntity
  8
0
100
AcDbLine
 10
-426.7595061727
 20
-167.8391999326
 30
0.0
 11
-426.7595061727
 21
-172.5391999326
 31
0.0
  0
LINE
  5
44E
330
1F
100
AcDbEntity
  8
0
100
AcDbLine
 10
-176.7595061727
 20
-172.5391999326
 30
0.0
 11
-176.7595061727
 21
-167.8391999326
 31
0.0
  0
ARC
  5
44F
330
1F
100
AcDbEntity
  8
0
100
AcDbCircle
 10
-425.4595061727
 20
-167.8391983612
 30
0.0
 40
1.300000000004673
100
AcDbArc
 50
90.0
 51
180.0000692571
  0
ARC
  5
450
330
1F
100
AcDbEntity
  8
0
100
AcDbCircle
 10
-178.0595061727
 20
-167.8391983612
 30
0.0
 40
1.300000000004673
100
AcDbArc
 50
359.9999307429
 51
90.0
  0
LINE
  5
451
330
1F
100
AcDbEntity
  8
0
100
AcDbLine
 10
-178.0595061727
 20
-166.5391983612
 30
0.0
 11
-425.4595061727
 21
-166.5391983612
 31
0.0
  0
LINE
  5
452
330
1F
100
AcDbEntity
  8
0
100
AcDbLine
 10
-426.7094547723
 20
-190.8602312722
 30
0.0
 11
-426.7094547723
 21
-206.3391999326
 31
0.0
  0
LINE
  5
453
330
1F
100
AcDbEntity
  8
0
100
AcDbLine
 10
-176.8095575732
 20
-206.3391999326
 30
0.0
 11
-176.8095575732
 21
-190.8602312722
 31
0.0
  0
LINE
  5
454
330
1F
100
AcDbEntity
  8
0
100
AcDbLine
 10
-176.8095575732
 20
-190.8602312722
 30
0.0
 11
-178.5531226789
 21
-189.1166661665
 31
0.0
  0
LINE
  5
455
330
1F
100
AcDbEntity
  8
0
100
AcDbLine
 10
-424.9658896665
 20
-189.1166661665
 30
0.0
 11
-426.7094547723
 21
-190.8602312722
 31
0.0
  0
LINE
  5
456
330
1F
100
AcDbEntity
  8
0
100
AcDbLine
 10
-178.5531226789
 20
-189.1166661665
 30
0.0
 11
-180.5602609864
 21
-182.0943323671
 31
0.0
  0
LINE
  5
457
330
1F
100
AcDbEntity
  8
0
100
AcDbLine
 10
-422.9587513591
 20
-182.0943323671
 30
0.0
 11
-424.9658896665
 21
-189.1166661665
 31
0.0
  0
LINE
  5
458
330
1F
100
AcDbEntity
  8
0
100
AcDbLine
 10
-422.9587513591
 20
-179.5391996304
 30
0.0
 11
-422.9587513591
 21
-182.0943323671
 31
0.0
  0
LINE
  5
459
330
1F
100
AcDbEntity
  8
0
100
AcDbLine
 10
-180.5602609864
 20
-182.0943323671
 30
0.0
 11
-180.5602609864
 21
-179.5391996304
 31
0.0
  0
LINE
  5
45A
330
1F
100
AcDbEntity
  8
0
100
AcDbLine
 10
-435.4627775387
 20
-297.6041999326
 30
0.0
 11
-451.0512348068
 21
-297.6041999326
 31
0.0
  0
LINE
  5
45B
330
1F
100
AcDbEntity
  8
0
100
AcDbLine
 10
-435.4627775387
 20
-324.6041999326
 30
0.0
 11
-427.6685489046
 21
-311.1041999326
 31
0.0
  0
LINE
  5
45C
330
1F
100
AcDbEntity
  8
0
100
AcDbLine
 10
-451.0512348068
 20
-324.6041999326
 30
0.0
 11
-435.4627775387
 21
-324.6041999326
 31
0.0
  0
LINE
  5
45D
330
1F
100
AcDbEntity
  8
0
100
AcDbLine
 10
-458.8454634408
 20
-311.1041999326
 30
0.0
 11
-451.0512348068
 21
-324.6041999326
 31
0.0
  0
LINE
  5
45E
330
1F
100
AcDbEntity
  8
0
100
AcDbLine
 10
-451.0512348068
 20
-297.6041999326
 30
0.0
 11
-458.8454634408
 21
-311.1041999326
 31
0.0
  0
LINE
  5
45F
330
1F
100
AcDbEntity
  8
0
100
AcDbLine
 10
-427.6685489046
 20
-311.1041999326
 30
0.0
 11
-435.4627775387
 21
-297.6041999326
 31
0.0
  0
CIRCLE
  5
460
330
1F
100
AcDbEntity
  8
0
100
AcDbCircle
 10
-443.2570061727
 20
-311.1041999326
 30
0.0
 40
12.00000000000002
  0
CIRCLE
  5
461
330
1F
100
AcDbEntity
  8
0
100
AcDbCircle
 10
-443.2570061727
 20
-311.1041999326
 30
0.0
 40
10.90000000000001
  0
LINE
  5
462
330
1F
100
AcDbEntity
  8
0
100
AcDbLine
 10
-167.7462348046
 20
-353.4741999365
 30
0.0
 11
-152.1577775364
 21
-353.4741999365
 31
0.0
  0
LINE
  5
463
330
1F
100
AcDbEntity
  8
0
100
AcDbLine
 10
-175.5404634386
 20
-339.9741999365
 30
0.0
 11
-167.7462348046
 21
-353.4741999365
 31
0.0
  0
LINE
  5
464
330
1F
100
AcDbEntity
  8
0
100
AcDbLine
 10
-152.1577775364
 20
-353.4741999365
 30
0.0
 11
-144.3635489024
 21
-339.9741999365
 31
0.0
  0
LINE
  5
465
330
1F
100
AcDbEntity
  8
0
100
AcDbLine
 10
-144.3635489024
 20
-339.9741999365
 30
0.0
 11
-152.1577775364
 21
-326.4741999365
 31
0.0
  0
LINE
  5
466
330
1F
100
AcDbEntity
  8
0
100
AcDbLine
 10
-152.1577775364
 20
-326.4741999365
 30
0.0
 11
-167.7462348046
 21
-326.4741999365
 31
0.0
  0
LINE
  5
467
330
1F
100
AcDbEntity
  8
0
100
AcDbLine
 10
-167.7462348046
 20
-326.4741999365
 30
0.0
 11
-175.5404634386
 21
-339.9741999365
 31
0.0
  0
CIRCLE
  5
468
330
1F
100
AcDbEntity
  8
0
100
AcDbCircle
 10
-159.9520061705
 20
-339.9741999365
 30
0.0
 40
12.00000000000002
  0
CIRCLE
  5
469
330
1F
100
AcDbEntity
  8
0
100
AcDbCircle
 10
-159.9520061705
 20
-339.9741999365
 30
0.0
 40
10.89999999999995
  0
CIRCLE
  5
46A
330
1F
100
AcDbEntity
  8
0
100
AcDbCircle
 10
-168.2595061727
 20
-213.0391999326
 30
0.0
 40
4.100000000000007
  0
LINE
  5
46B
330
1F
100
AcDbEntity
  8
0
100
AcDbLine
 10
-170.3540180573
 20
-212.8874766139
 30
0.0
 11
-170.3305175078
 21
-213.3869240328
 31
0.0
  0
LINE
  5
46C
330
1F
100
AcDbEntity
  8
0
100
AcDbLine
 10
-168.4112294913
 20
-215.1337118171
 30
0.0
 11
-167.9117820725
 21
-215.1102112677
 31
0.0
  0
LINE
  5
46D
330
1F
100
AcDbEntity
  8
0
100
AcDbLine
 10
-166.1649942881
 20
-213.1909232512
 30
0.0
 11
-166.1884948376
 21
-212.6914758323
 31
0.0
  0
LINE
  5
46E
330
1F
100
AcDbEntity
  8
0
100
AcDbLine
 10
-167.9117820725
 20
-215.1102112677
 30
0.0
 11
-167.9510310896
 21
-214.2760682049
 31
0.0
  0
ARC
  5
46F
330
1F
100
AcDbEntity
  8
0
100
AcDbCircle
 10
-166.952136252
 20
-214.229067106
 30
0.0
 40
1.000000000000024
100
AcDbArc
 50
92.6939570941
 51
182.6939570941
  0
LINE
  5
470
330
1F
100
AcDbEntity
  8
0
100
AcDbLine
 10
-166.9991373509
 20
-213.2301722683
 30
0.0
 11
-166.1649942881
 21
-213.1909232512
 31
0.0
  0
LINE
  5
471
330
1F
100
AcDbEntity
  8
0
100
AcDbLine
 10
-170.3305175078
 20
-213.3869240328
 30
0.0
 11
-169.496374445
 21
-213.3476750156
 31
0.0
  0
LINE
  5
472
330
1F
100
AcDbEntity
  8
0
100
AcDbLine
 10
-168.4504785085
 20
-214.2995687544
 30
0.0
 11
-168.4112294913
 21
-215.1337118171
 31
0.0
  0
ARC
  5
473
330
1F
100
AcDbEntity
  8
0
100
AcDbCircle
 10
-169.4493733461
 20
-214.3465698533
 30
0.0
 40
0.9999999999999952
100
AcDbArc
 50
2.6939570941
 51
92.6939570941
  0
ARC
  5
474
330
1F
100
AcDbEntity
  8
0
100
AcDbCircle
 10
-169.5668760934
 20
-211.8493327591
 30
0.0
 40
1.000000000000022
100
AcDbArc
 50
272.6939570941
 51
2.6939570941
  0
LINE
  5
475
330
1F
100
AcDbEntity
  8
0
100
AcDbLine
 10
-168.6072302729
 20
-210.9681885975
 30
0.0
 11
-168.5679812558
 21
-211.8023316602
 31
0.0
  0
LINE
  5
476
330
1F
100
AcDbEntity
  8
0
100
AcDbLine
 10
-169.5198749945
 20
-212.8482275968
 30
0.0
 11
-170.3540180573
 21
-212.8874766139
 31
0.0
  0
LINE
  5
477
330
1F
100
AcDbEntity
  8
0
100
AcDbLine
 10
-168.1077828541
 20
-210.944688048
 30
0.0
 11
-168.6072302729
 21
-210.9681885975
 31
0.0
  0
ARC
  5
478
330
1F
100
AcDbEntity
  8
0
100
AcDbCircle
 10
-167.0696389993
 20
-211.7318300118
 30
0.0
 40
0.9999999999999952
100
AcDbArc
 50
182.6939570941
 51
272.6939570941
  0
LINE
  5
479
330
1F
100
AcDbEntity
  8
0
100
AcDbLine
 10
-168.0685338369
 20
-211.7788311107
 30
0.0
 11
-168.1077828541
 21
-210.944688048
 31
0.0
  0
LINE
  5
47A
330
1F
100
AcDbEntity
  8
0
100
AcDbLine
 10
-166.1884948376
 20
-212.6914758323
 30
0.0
 11
-167.0226379004
 21
-212.7307248495
 31
0.0
  0
CIRCLE
  5
47B
330
1F
100
AcDbEntity
  8
0
100
AcDbCircle
 10
-168.2595061727
 20
-438.0391999327
 30
0.0
 40
4.099999999999995
  0
LINE
  5
47C
330
1F
100
AcDbEntity
  8
0
100
AcDbLine
 10
-170.3540180573
 20
-438.1909232513
 30
0.0
 11
-169.5198749945
 21
-438.2301722684
 31
0.0
  0
ARC
  5
47D
330
1F
100
AcDbEntity
  8
0
100
AcDbCircle
 10
-169.5668760934
 20
-439.2290671061
 30
0.0
 40
0.9999999999999926
100
AcDbArc
 50
357.3060429059
 51
87.3060429059
  0
LINE
  5
47E
330
1F
100
AcDbEntity
  8
0
100
AcDbLine
 10
-168.5679812558
 20
-439.276068205
 30
0.0
 11
-168.6072302729
 21
-440.1102112678
 31
0.0
  0
LINE
  5
47F
330
1F
100
AcDbEntity
  8
0
100
AcDbLine
 10
-168.6072302729
 20
-440.1102112678
 30
0.0
 11
-168.1077828541
 21
-440.1337118172
 31
0.0
  0
LINE
  5
480
330
1F
100
AcDbEntity
  8
0
100
AcDbLine
 10
-166.1649942881
 20
-437.8874766141
 30
0.0
 11
-166.9991373509
 21
-437.8482275969
 31
0.0
  0
ARC
  5
481
330
1F
100
AcDbEntity
  8
0
100
AcDbCircle
 10
-166.952136252
 20
-436.8493327592
 30
0.0
 40
1.000000000000049
100
AcDbArc
 50
177.3060429059
 51
267.3060429059
  0
LINE
  5
482
330
1F
100
AcDbEntity
  8
0
100
AcDbLine
 10
-167.9510310896
 20
-436.8023316603
 30
0.0
 11
-167.9117820725
 21
-435.9681885976
 31
0.0
  0
LINE
  5
483
330
1F
100
AcDbEntity
  8
0
100
AcDbLine
 10
-167.9117820725
 20
-435.9681885976
 30
0.0
 11
-168.4112294913
 21
-435.9446880481
 31
0.0
  0
LINE
  5
484
330
1F
100
AcDbEntity
  8
0
100
AcDbLine
 10
-166.1884948376
 20
-438.3869240329
 30
0.0
 11
-166.1649942881
 21
-437.8874766141
 31
0.0
  0
LINE
  5
485
330
1F
100
AcDbEntity
  8
0
100
AcDbLine
 10
-169.496374445
 20
-437.7307248496
 30
0.0
 11
-170.3305175078
 21
-437.6914758324
 31
0.0
  0
LINE
  5
486
330
1F
100
AcDbEntity
  8
0
100
AcDbLine
 10
-168.4112294913
 20
-435.9446880481
 30
0.0
 11
-168.4504785084
 21
-436.7788311109
 31
0.0
  0
ARC
  5
487
330
1F
100
AcDbEntity
  8
0
100
AcDbCircle
 10
-169.4493733461
 20
-436.7318300119
 30
0.0
 40
1.000000000000048
100
AcDbArc
 50
267.3060429059
 51
357.3060429059
  0
LINE
  5
488
330
1F
100
AcDbEntity
  8
0
100
AcDbLine
 10
-167.0226379003
 20
-438.3476750157
 30
0.0
 11
-166.1884948376
 21
-438.3869240329
 31
0.0
  0
LINE
  5
489
330
1F
100
AcDbEntity
  8
0
100
AcDbLine
 10
-168.1077828541
 20
-440.1337118172
 30
0.0
 11
-168.0685338369
 21
-439.2995687545
 31
0.0
  0
ARC
  5
48A
330
1F
100
AcDbEntity
  8
0
100
AcDbCircle
 10
-167.0696389993
 20
-439.3465698534
 30
0.0
 40
0.9999999999999926
100
AcDbArc
 50
87.3060429059
 51
177.3060429059
  0
LINE
  5
48B
330
1F
100
AcDbEntity
  8
0
100
AcDbLine
 10
-170.3305175078
 20
-437.6914758324
 30
0.0
 11
-170.3540180573
 21
-438.1909232513
 31
0.0
  0
LINE
  5
48C
330
1F
100
AcDbEntity
  8
0
100
AcDbLine
 10
-482.3540180573
 20
-258.1909232512
 30
0.0
 11
-481.5198749946
 21
-258.2301722683
 31
0.0
  0
ARC
  5
48D
330
1F
100
AcDbEntity
  8
0
100
AcDbCircle
 10
-481.5668760935
 20
-259.229067106
 30
0.0
 40
0.9999999999999899
100
AcDbArc
 50
357.3060429059
 51
87.3060429059
  0
LINE
  5
48E
330
1F
100
AcDbEntity
  8
0
100
AcDbLine
 10
-480.5679812558
 20
-259.2760682049
 30
0.0
 11
-480.607230273
 21
-260.1102112677
 31
0.0
  0
LINE
  5
48F
330
1F
100
AcDbEntity
  8
0
100
AcDbLine
 10
-482.3305175079
 20
-257.6914758323
 30
0.0
 11
-482.3540180573
 21
-258.1909232512
 31
0.0
  0
CIRCLE
  5
490
330
1F
100
AcDbEntity
  8
0
100
AcDbCircle
 10
-480.2595061728
 20
-258.0391999326
 30
0.0
 40
4.100000000000018
  0
LINE
  5
491
330
1F
100
AcDbEntity
  8
0
100
AcDbLine
 10
-481.4963744451
 20
-257.7307248495
 30
0.0
 11
-482.3305175079
 21
-257.6914758323
 31
0.0
  0
ARC
  5
492
330
1F
100
AcDbEntity
  8
0
100
AcDbCircle
 10
-481.4493733462
 20
-256.7318300118
 30
0.0
 40
0.9999999999999899
100
AcDbArc
 50
267.3060429059
 51
357.3060429059
  0
LINE
  5
493
330
1F
100
AcDbEntity
  8
0
100
AcDbLine
 10
-480.4112294914
 20
-255.944688048
 30
0.0
 11
-480.4504785085
 21
-256.7788311108
 31
0.0
  0
LINE
  5
494
330
1F
100
AcDbEntity
  8
0
100
AcDbLine
 10
-478.1649942882
 20
-257.887476614
 30
0.0
 11
-478.999137351
 21
-257.8482275968
 31
0.0
  0
ARC
  5
495
330
1F
100
AcDbEntity
  8
0
100
AcDbCircle
 10
-478.952136252
 20
-256.8493327592
 30
0.0
 40
1.000000000000047
100
AcDbArc
 50
177.3060429059
 51
267.3060429059
  0
LINE
  5
496
330
1F
100
AcDbEntity
  8
0
100
AcDbLine
 10
-479.9510310897
 20
-256.8023316602
 30
0.0
 11
-479.9117820726
 21
-255.9681885975
 31
0.0
  0
LINE
  5
497
330
1F
100
AcDbEntity
  8
0
100
AcDbLine
 10
-478.1884948377
 20
-258.3869240328
 30
0.0
 11
-478.1649942882
 21
-257.887476614
 31
0.0
  0
LINE
  5
498
330
1F
100
AcDbEntity
  8
0
100
AcDbLine
 10
-479.9117820726
 20
-255.9681885975
 30
0.0
 11
-480.4112294914
 21
-255.944688048
 31
0.0
  0
LINE
  5
499
330
1F
100
AcDbEntity
  8
0
100
AcDbLine
 10
-480.607230273
 20
-260.1102112677
 30
0.0
 11
-480.1077828542
 21
-260.1337118171
 31
0.0
  0
LINE
  5
49A
330
1F
100
AcDbEntity
  8
0
100
AcDbLine
 10
-480.1077828542
 20
-260.1337118171
 30
0.0
 11
-480.068533837
 21
-259.2995687544
 31
0.0
  0
ARC
  5
49B
330
1F
100
AcDbEntity
  8
0
100
AcDbCircle
 10
-479.0696389994
 20
-259.3465698533
 30
0.0
 40
0.9999999999999899
100
AcDbArc
 50
87.3060429059
 51
177.3060429059
  0
LINE
  5
49C
330
1F
100
AcDbEntity
  8
0
100
AcDbLine
 10
-479.0226379004
 20
-258.3476750156
 30
0.0
 11
-478.1884948377
 21
-258.3869240328
 31
0.0
  0
LINE
  5
49D
330
1F
100
AcDbEntity
  8
0
100
AcDbLine
 10
-123.6072302729
 20
-255.9681885974
 30
0.0
 11
-123.5679812558
 21
-256.8023316602
 31
0.0
  0
ARC
  5
49E
330
1F
100
AcDbEntity
  8
0
100
AcDbCircle
 10
-124.5668760934
 20
-256.8493327591
 30
0.0
 40
0.9999999999999946
100
AcDbArc
 50
272.6939570941
 51
2.6939570941
  0
LINE
  5
49F
330
1F
100
AcDbEntity
  8
0
100
AcDbLine
 10
-124.5198749945
 20
-257.8482275968
 30
0.0
 11
-125.3540180573
 21
-257.8874766139
 31
0.0
  0
CIRCLE
  5
4A0
330
1F
100
AcDbEntity
  8
0
100
AcDbCircle
 10
-123.2595061727
 20
-258.0391999326
 30
0.0
 40
4.100000000000035
  0
LINE
  5
4A1
330
1F
100
AcDbEntity
  8
0
100
AcDbLine
 10
-123.1077828541
 20
-255.944688048
 30
0.0
 11
-123.6072302729
 21
-255.9681885974
 31
0.0
  0
LINE
  5
4A2
330
1F
100
AcDbEntity
  8
0
100
AcDbLine
 10
-121.1649942881
 20
-258.1909232512
 30
0.0
 11
-121.1884948376
 21
-257.6914758323
 31
0.0
  0
LINE
  5
4A3
330
1F
100
AcDbEntity
  8
0
100
AcDbLine
 10
-125.3540180573
 20
-257.8874766139
 30
0.0
 11
-125.3305175078
 21
-258.3869240328
 31
0.0
  0
LINE
  5
4A4
330
1F
100
AcDbEntity
  8
0
100
AcDbLine
 10
-121.1884948376
 20
-257.6914758323
 30
0.0
 11
-122.0226379004
 21
-257.7307248495
 31
0.0
  0
LINE
  5
4A5
330
1F
100
AcDbEntity
  8
0
100
AcDbLine
 10
-123.0685338369
 20
-256.7788311107
 30
0.0
 11
-123.1077828541
 21
-255.944688048
 31
0.0
  0
ARC
  5
4A6
330
1F
100
AcDbEntity
  8
0
100
AcDbCircle
 10
-122.0696389993
 20
-256.7318300118
 30
0.0
 40
1.000000000000035
100
AcDbArc
 50
182.6939570941
 51
272.6939570941
  0
LINE
  5
4A7
330
1F
100
AcDbEntity
  8
0
100
AcDbLine
 10
-122.9117820725
 20
-260.1102112677
 30
0.0
 11
-122.9510310896
 21
-259.2760682049
 31
0.0
  0
ARC
  5
4A8
330
1F
100
AcDbEntity
  8
0
100
AcDbCircle
 10
-121.952136252
 20
-259.229067106
 30
0.0
 40
0.9999999999999932
100
AcDbArc
 50
92.6939570941
 51
182.6939570941
  0
LINE
  5
4A9
330
1F
100
AcDbEntity
  8
0
100
AcDbLine
 10
-121.9991373509
 20
-258.2301722683
 30
0.0
 11
-121.1649942881
 21
-258.1909232512
 31
0.0
  0
LINE
  5
4AA
330
1F
100
AcDbEntity
  8
0
100
AcDbLine
 10
-125.3305175078
 20
-258.3869240328
 30
0.0
 11
-124.496374445
 21
-258.3476750156
 31
0.0
  0
ARC
  5
4AB
330
1F
100
AcDbEntity
  8
0
100
AcDbCircle
 10
-124.4493733461
 20
-259.3465698533
 30
0.0
 40
1.000000000000012
100
AcDbArc
 50
2.6939570941
 51
92.6939570941
  0
LINE
  5
4AC
330
1F
100
AcDbEntity
  8
0
100
AcDbLine
 10
-123.4504785084
 20
-259.2995687544
 30
0.0
 11
-123.4112294913
 21
-260.1337118171
 31
0.0
  0
LINE
  5
4AD
330
1F
100
AcDbEntity
  8
0
100
AcDbLine
 10
-123.4112294913
 20
-260.1337118171
 30
0.0
 11
-122.9117820725
 21
-260.1102112677
 31
0.0
  0
CIRCLE
  5
4AE
330
1F
100
AcDbEntity
  8
0
100
AcDbCircle
 10
-480.2595061728
 20
-393.0391999327
 30
0.0
 40
4.100000000000001
  0
LINE
  5
4AF
330
1F
100
AcDbEntity
  8
0
100
AcDbLine
 10
-478.1884948377
 20
-392.6914758324
 30
0.0
 11
-479.0226379004
 21
-392.7307248496
 31
0.0
  0
ARC
  5
4B0
330
1F
100
AcDbEntity
  8
0
100
AcDbCircle
 10
-479.0696389994
 20
-391.7318300119
 30
0.0
 40
0.9999999999999952
100
AcDbArc
 50
182.6939570941
 51
272.6939570941
  0
LINE
  5
4B1
330
1F
100
AcDbEntity
  8
0
100
AcDbLine
 10
-480.068533837
 20
-391.7788311109
 30
0.0
 11
-480.1077828542
 21
-390.9446880481
 31
0.0
  0
LINE
  5
4B2
330
1F
100
AcDbEntity
  8
0
100
AcDbLine
 10
-479.9117820725
 20
-395.1102112678
 30
0.0
 11
-479.9510310897
 21
-394.276068205
 31
0.0
  0
ARC
  5
4B3
330
1F
100
AcDbEntity
  8
0
100
AcDbCircle
 10
-478.952136252
 20
-394.2290671061
 30
0.0
 40
0.9999999999999926
100
AcDbArc
 50
92.6939570941
 51
182.6939570941
  0
LINE
  5
4B4
330
1F
100
AcDbEntity
  8
0
100
AcDbLine
 10
-478.999137351
 20
-393.2301722684
 30
0.0
 11
-478.1649942882
 21
-393.1909232513
 31
0.0
  0
LINE
  5
4B5
330
1F
100
AcDbEntity
  8
0
100
AcDbLine
 10
-478.1649942882
 20
-393.1909232513
 30
0.0
 11
-478.1884948377
 21
-392.6914758324
 31
0.0
  0
LINE
  5
4B6
330
1F
100
AcDbEntity
  8
0
100
AcDbLine
 10
-480.1077828542
 20
-390.9446880481
 30
0.0
 11
-480.607230273
 21
-390.9681885976
 31
0.0
  0
LINE
  5
4B7
330
1F
100
AcDbEntity
  8
0
100
AcDbLine
 10
-482.3540180573
 20
-392.8874766141
 30
0.0
 11
-482.3305175079
 21
-393.3869240329
 31
0.0
  0
LINE
  5
4B8
330
1F
100
AcDbEntity
  8
0
100
AcDbLine
 10
-482.3305175079
 20
-393.3869240329
 30
0.0
 11
-481.4963744451
 21
-393.3476750157
 31
0.0
  0
ARC
  5
4B9
330
1F
100
AcDbEntity
  8
0
100
AcDbCircle
 10
-481.4493733462
 20
-394.3465698534
 30
0.0
 40
1.000000000000049
100
AcDbArc
 50
2.6939570941
 51
92.6939570941
  0
LINE
  5
4BA
330
1F
100
AcDbEntity
  8
0
100
AcDbLine
 10
-480.4504785085
 20
-394.2995687545
 30
0.0
 11
-480.4112294914
 21
-395.1337118172
 31
0.0
  0
ARC
  5
4BB
330
1F
100
AcDbEntity
  8
0
100
AcDbCircle
 10
-481.5668760935
 20
-391.8493327593
 30
0.0
 40
1.000000000000049
100
AcDbArc
 50
272.6939570941
 51
2.6939570941
  0
LINE
  5
4BC
330
1F
100
AcDbEntity
  8
0
100
AcDbLine
 10
-480.607230273
 20
-390.9681885976
 30
0.0
 11
-480.5679812558
 21
-391.8023316603
 31
0.0
  0
LINE
  5
4BD
330
1F
100
AcDbEntity
  8
0
100
AcDbLine
 10
-481.5198749946
 20
-392.8482275969
 30
0.0
 11
-482.3540180573
 21
-392.8874766141
 31
0.0
  0
LINE
  5
4BE
330
1F
100
AcDbEntity
  8
0
100
AcDbLine
 10
-480.4112294914
 20
-395.1337118172
 30
0.0
 11
-479.9117820725
 21
-395.1102112678
 31
0.0
  0
CIRCLE
  5
4BF
330
1F
100
AcDbEntity
  8
0
100
AcDbCircle
 10
-435.2595061728
 20
-213.0391999326
 30
0.0
 40
4.100000000000021
  0
LINE
  5
4C0
330
1F
100
AcDbEntity
  8
0
100
AcDbLine
 10
-437.3305175079
 20
-212.6914758323
 30
0.0
 11
-437.3540180573
 21
-213.1909232512
 31
0.0
  0
ARC
  5
4C1
330
1F
100
AcDbEntity
  8
0
100
AcDbCircle
 10
-434.0696389994
 20
-214.3465698533
 30
0.0
 40
1.000000000000048
100
AcDbArc
 50
87.3060429059
 51
177.3060429059
  0
LINE
  5
4C2
330
1F
100
AcDbEntity
  8
0
100
AcDbLine
 10
-434.0226379004
 20
-213.3476750156
 30
0.0
 11
-433.1884948377
 21
-213.3869240328
 31
0.0
  0
LINE
  5
4C3
330
1F
100
AcDbEntity
  8
0
100
AcDbLine
 10
-435.1077828542
 20
-215.1337118171
 30
0.0
 11
-435.068533837
 21
-214.2995687544
 31
0.0
  0
LINE
  5
4C4
330
1F
100
AcDbEntity
  8
0
100
AcDbLine
 10
-433.1649942882
 20
-212.887476614
 30
0.0
 11
-433.999137351
 21
-212.8482275968
 31
0.0
  0
LINE
  5
4C5
330
1F
100
AcDbEntity
  8
0
100
AcDbLine
 10
-434.9510310897
 20
-211.8023316602
 30
0.0
 11
-434.9117820726
 21
-210.9681885975
 31
0.0
  0
ARC
  5
4C6
330
1F
100
AcDbEntity
  8
0
100
AcDbCircle
 10
-433.952136252
 20
-211.8493327591
 30
0.0
 40
1.000000000000018
100
AcDbArc
 50
177.3060429059
 51
267.3060429059
  0
ARC
  5
4C7
330
1F
100
AcDbEntity
  8
0
100
AcDbCircle
 10
-436.5668760935
 20
-214.229067106
 30
0.0
 40
0.9999999999999912
100
AcDbArc
 50
357.3060429059
 51
87.3060429059
  0
LINE
  5
4C8
330
1F
100
AcDbEntity
  8
0
100
AcDbLine
 10
-437.3540180573
 20
-213.1909232512
 30
0.0
 11
-436.5198749946
 21
-213.2301722683
 31
0.0
  0
LINE
  5
4C9
330
1F
100
AcDbEntity
  8
0
100
AcDbLine
 10
-435.5679812558
 20
-214.2760682049
 30
0.0
 11
-435.607230273
 21
-215.1102112677
 31
0.0
  0
LINE
  5
4CA
330
1F
100
AcDbEntity
  8
0
100
AcDbLine
 10
-435.607230273
 20
-215.1102112677
 30
0.0
 11
-435.1077828542
 21
-215.1337118171
 31
0.0
  0
ARC
  5
4CB
330
1F
100
AcDbEntity
  8
0
100
AcDbCircle
 10
-436.4493733462
 20
-211.7318300118
 30
0.0
 40
0.9999999999999899
100
AcDbArc
 50
267.3060429059
 51
357.3060429059
  0
LINE
  5
4CC
330
1F
100
AcDbEntity
  8
0
100
AcDbLine
 10
-435.4112294914
 20
-210.944688048
 30
0.0
 11
-435.4504785085
 21
-211.7788311108
 31
0.0
  0
LINE
  5
4CD
330
1F
100
AcDbEntity
  8
0
100
AcDbLine
 10
-436.4963744451
 20
-212.7307248495
 30
0.0
 11
-437.3305175079
 21
-212.6914758323
 31
0.0
  0
LINE
  5
4CE
330
1F
100
AcDbEntity
  8
0
100
AcDbLine
 10
-434.9117820726
 20
-210.9681885975
 30
0.0
 11
-435.4112294914
 21
-210.944688048
 31
0.0
  0
LINE
  5
4CF
330
1F
100
AcDbEntity
  8
0
100
AcDbLine
 10
-433.1884948377
 20
-213.3869240328
 30
0.0
 11
-433.1649942882
 21
-212.887476614
 31
0.0
  0
CIRCLE
  5
4D0
330
1F
100
AcDbEntity
  8
0
100
AcDbCircle
 10
-123.2595061727
 20
-393.0391999327
 30
0.0
 40
4.100000000000053
  0
LINE
  5
4D1
330
1F
100
AcDbEntity
  8
0
100
AcDbLine
 10
-123.1077828541
 20
-395.1337118172
 30
0.0
 11
-123.0685338369
 21
-394.2995687545
 31
0.0
  0
ARC
  5
4D2
330
1F
100
AcDbEntity
  8
0
100
AcDbCircle
 10
-122.0696389993
 20
-394.3465698534
 30
0.0
 40
0.9999999999999906
100
AcDbArc
 50
87.3060429059
 51
177.3060429059
  0
LINE
  5
4D3
330
1F
100
AcDbEntity
  8
0
100
AcDbLine
 10
-122.0226379003
 20
-393.3476750157
 30
0.0
 11
-121.1884948376
 21
-393.3869240329
 31
0.0
  0
LINE
  5
4D4
330
1F
100
AcDbEntity
  8
0
100
AcDbLine
 10
-123.4112294913
 20
-390.9446880481
 30
0.0
 11
-123.4504785084
 21
-391.7788311109
 31
0.0
  0
ARC
  5
4D5
330
1F
100
AcDbEntity
  8
0
100
AcDbCircle
 10
-124.4493733461
 20
-391.7318300119
 30
0.0
 40
1.000000000000049
100
AcDbArc
 50
267.3060429059
 51
357.3060429059
  0
LINE
  5
4D6
330
1F
100
AcDbEntity
  8
0
100
AcDbLine
 10
-124.496374445
 20
-392.7307248496
 30
0.0
 11
-125.3305175078
 21
-392.6914758324
 31
0.0
  0
LINE
  5
4D7
330
1F
100
AcDbEntity
  8
0
100
AcDbLine
 10
-122.9117820725
 20
-390.9681885976
 30
0.0
 11
-123.4112294913
 21
-390.9446880481
 31
0.0
  0
LINE
  5
4D8
330
1F
100
AcDbEntity
  8
0
100
AcDbLine
 10
-122.9510310896
 20
-391.8023316603
 30
0.0
 11
-122.9117820725
 21
-390.9681885976
 31
0.0
  0
ARC
  5
4D9
330
1F
100
AcDbEntity
  8
0
100
AcDbCircle
 10
-121.952136252
 20
-391.8493327592
 30
0.0
 40
1.000000000000047
100
AcDbArc
 50
177.3060429059
 51
267.3060429059
  0
LINE
  5
4DA
330
1F
100
AcDbEntity
  8
0
100
AcDbLine
 10
-121.1649942881
 20
-392.8874766141
 30
0.0
 11
-121.9991373509
 21
-392.8482275969
 31
0.0
  0
LINE
  5
4DB
330
1F
100
AcDbEntity
  8
0
100
AcDbLine
 10
-123.5679812558
 20
-394.276068205
 30
0.0
 11
-123.6072302729
 21
-395.1102112678
 31
0.0
  0
ARC
  5
4DC
330
1F
100
AcDbEntity
  8
0
100
AcDbCircle
 10
-124.5668760934
 20
-394.2290671061
 30
0.0
 40
0.9999999999999919
100
AcDbArc
 50
357.3060429059
 51
87.3060429059
  0
LINE
  5
4DD
330
1F
100
AcDbEntity
  8
0
100
AcDbLine
 10
-125.3540180573
 20
-393.1909232513
 30
0.0
 11
-124.5198749945
 21
-393.2301722684
 31
0.0
  0
LINE
  5
4DE
330
1F
100
AcDbEntity
  8
0
100
AcDbLine
 10
-125.3305175078
 20
-392.6914758324
 30
0.0
 11
-125.3540180573
 21
-393.1909232513
 31
0.0
  0
LINE
  5
4DF
330
1F
100
AcDbEntity
  8
0
100
AcDbLine
 10
-121.1884948376
 20
-393.3869240329
 30
0.0
 11
-121.1649942881
 21
-392.8874766141
 31
0.0
  0
LINE
  5
4E0
330
1F
100
AcDbEntity
  8
0
100
AcDbLine
 10
-123.6072302729
 20
-395.1102112678
 30
0.0
 11
-123.1077828541
 21
-395.1337118172
 31
0.0
  0
CIRCLE
  5
4E1
330
1F
100
AcDbEntity
  8
0
100
AcDbCircle
 10
-301.7595061727
 20
-438.0391999327
 30
0.0
 40
4.100000000000001
  0
LINE
  5
4E2
330
1F
100
AcDbEntity
  8
0
100
AcDbLine
 10
-299.6884948376
 20
-437.6914758324
 30
0.0
 11
-300.5226379004
 21
-437.7307248496
 31
0.0
  0
ARC
  5
4E3
330
1F
100
AcDbEntity
  8
0
100
AcDbCircle
 10
-300.5696389993
 20
-436.7318300119
 30
0.0
 40
0.9999999999999952
100
AcDbArc
 50
182.6939570941
 51
272.6939570941
  0
LINE
  5
4E4
330
1F
100
AcDbEntity
  8
0
100
AcDbLine
 10
-301.568533837
 20
-436.7788311109
 30
0.0
 11
-301.6077828541
 21
-435.9446880481
 31
0.0
  0
LINE
  5
4E5
330
1F
100
AcDbEntity
  8
0
100
AcDbLine
 10
-301.4117820725
 20
-440.1102112678
 30
0.0
 11
-301.4510310897
 21
-439.276068205
 31
0.0
  0
ARC
  5
4E6
330
1F
100
AcDbEntity
  8
0
100
AcDbCircle
 10
-300.452136252
 20
-439.2290671061
 30
0.0
 40
1.000000000000052
100
AcDbArc
 50
92.6939570941
 51
182.6939570941
  0
LINE
  5
4E7
330
1F
100
AcDbEntity
  8
0
100
AcDbLine
 10
-300.4991373509
 20
-438.2301722684
 30
0.0
 11
-299.6649942882
 21
-438.1909232513
 31
0.0
  0
ARC
  5
4E8
330
1F
100
AcDbEntity
  8
0
100
AcDbCircle
 10
-302.9493733462
 20
-439.3465698534
 30
0.0
 40
1.000000000000049
100
AcDbArc
 50
2.6939570941
 51
92.6939570941
  0
LINE
  5
4E9
330
1F
100
AcDbEntity
  8
0
100
AcDbLine
 10
-301.9504785085
 20
-439.2995687545
 30
0.0
 11
-301.9112294914
 21
-440.1337118172
 31
0.0
  0
LINE
  5
4EA
330
1F
100
AcDbEntity
  8
0
100
AcDbLine
 10
-303.8305175079
 20
-438.3869240329
 30
0.0
 11
-302.9963744451
 21
-438.3476750157
 31
0.0
  0
LINE
  5
4EB
330
1F
100
AcDbEntity
  8
0
100
AcDbLine
 10
-301.6077828541
 20
-435.9446880481
 30
0.0
 11
-302.107230273
 21
-435.9681885976
 31
0.0
  0
LINE
  5
4EC
330
1F
100
AcDbEntity
  8
0
100
AcDbLine
 10
-301.9112294914
 20
-440.1337118172
 30
0.0
 11
-301.4117820725
 21
-440.1102112678
 31
0.0
  0
LINE
  5
4ED
330
1F
100
AcDbEntity
  8
0
100
AcDbLine
 10
-302.107230273
 20
-435.9681885976
 30
0.0
 11
-302.0679812558
 21
-436.8023316603
 31
0.0
  0
ARC
  5
4EE
330
1F
100
AcDbEntity
  8
0
100
AcDbCircle
 10
-303.0668760935
 20
-436.8493327592
 30
0.0
 40
0.9999999999999926
100
AcDbArc
 50
272.6939570941
 51
2.6939570941
  0
LINE
  5
4EF
330
1F
100
AcDbEntity
  8
0
100
AcDbLine
 10
-303.0198749946
 20
-437.8482275969
 30
0.0
 11
-303.8540180573
 21
-437.8874766141
 31
0.0
  0
LINE
  5
4F0
330
1F
100
AcDbEntity
  8
0
100
AcDbLine
 10
-303.8540180573
 20
-437.8874766141
 30
0.0
 11
-303.8305175079
 21
-438.3869240329
 31
0.0
  0
LINE
  5
4F1
330
1F
100
AcDbEntity
  8
0
100
AcDbLine
 10
-299.6649942882
 20
-438.1909232513
 30
0.0
 11
-299.6884948376
 21
-437.6914758324
 31
0.0
  0
CIRCLE
  5
4F2
330
1F
100
AcDbEntity
  8
0
100
AcDbCircle
 10
-301.7595061728
 20
-213.0391999326
 30
0.0
 40
4.100000000000018
  0
LINE
  5
4F3
330
1F
100
AcDbEntity
  8
0
100
AcDbLine
 10
-301.4117820725
 20
-210.9681885975
 30
0.0
 11
-301.9112294914
 21
-210.944688048
 31
0.0
  0
LINE
  5
4F4
330
1F
100
AcDbEntity
  8
0
100
AcDbLine
 10
-302.107230273
 20
-215.1102112677
 30
0.0
 11
-301.6077828541
 21
-215.1337118171
 31
0.0
  0
LINE
  5
4F5
330
1F
100
AcDbEntity
  8
0
100
AcDbLine
 10
-300.5226379004
 20
-213.3476750156
 30
0.0
 11
-299.6884948377
 21
-213.3869240328
 31
0.0
  0
LINE
  5
4F6
330
1F
100
AcDbEntity
  8
0
100
AcDbLine
 10
-301.6077828541
 20
-215.1337118171
 30
0.0
 11
-301.568533837
 21
-214.2995687544
 31
0.0
  0
ARC
  5
4F7
330
1F
100
AcDbEntity
  8
0
100
AcDbCircle
 10
-300.5696389993
 20
-214.3465698533
 30
0.0
 40
1.000000000000048
100
AcDbArc
 50
87.3060429059
 51
177.3060429059
  0
LINE
  5
4F8
330
1F
100
AcDbEntity
  8
0
100
AcDbLine
 10
-299.6649942882
 20
-212.887476614
 30
0.0
 11
-300.4991373509
 21
-212.8482275968
 31
0.0
  0
LINE
  5
4F9
330
1F
100
AcDbEntity
  8
0
100
AcDbLine
 10
-301.4510310897
 20
-211.8023316602
 30
0.0
 11
-301.4117820725
 21
-210.9681885975
 31
0.0
  0
ARC
  5
4FA
330
1F
100
AcDbEntity
  8
0
100
AcDbCircle
 10
-300.452136252
 20
-211.8493327591
 30
0.0
 40
1.000000000000018
100
AcDbArc
 50
177.3060429059
 51
267.3060429059
  0
LINE
  5
4FB
330
1F
100
AcDbEntity
  8
0
100
AcDbLine
 10
-299.6884948377
 20
-213.3869240328
 30
0.0
 11
-299.6649942882
 21
-212.887476614
 31
0.0
  0
LINE
  5
4FC
330
1F
100
AcDbEntity
  8
0
100
AcDbLine
 10
-303.8540180573
 20
-213.1909232512
 30
0.0
 11
-303.0198749946
 21
-213.2301722683
 31
0.0
  0
ARC
  5
4FD
330
1F
100
AcDbEntity
  8
0
100
AcDbCircle
 10
-303.0668760935
 20
-214.229067106
 30
0.0
 40
0.9999999999999912
100
AcDbArc
 50
357.3060429059
 51
87.3060429059
  0
LINE
  5
4FE
330
1F
100
AcDbEntity
  8
0
100
AcDbLine
 10
-302.0679812558
 20
-214.2760682049
 30
0.0
 11
-302.107230273
 21
-215.1102112677
 31
0.0
  0
LINE
  5
4FF
330
1F
100
AcDbEntity
  8
0
100
AcDbLine
 10
-302.9963744451
 20
-212.7307248495
 30
0.0
 11
-303.8305175079
 21
-212.6914758323
 31
0.0
  0
ARC
  5
500
330
1F
100
AcDbEntity
  8
0
100
AcDbCircle
 10
-302.9493733462
 20
-211.7318300118
 30
0.0
 40
1.000000000000018
100
AcDbArc
 50
267.3060429059
 51
357.3060429059
  0
LINE
  5
501
330
1F
100
AcDbEntity
  8
0
100
AcDbLine
 10
-301.9112294914
 20
-210.944688048
 30
0.0
 11
-301.9504785085
 21
-211.7788311108
 31
0.0
  0
LINE
  5
502
330
1F
100
AcDbEntity
  8
0
100
AcDbLine
 10
-303.8305175079
 20
-212.6914758323
 30
0.0
 11
-303.8540180573
 21
-213.1909232512
 31
0.0
  0
CIRCLE
  5
503
330
1F
100
AcDbEntity
  8
0
100
AcDbCircle
 10
-435.2595061728
 20
-438.0391999327
 30
0.0
 40
4.099999999999998
  0
LINE
  5
504
330
1F
100
AcDbEntity
  8
0
100
AcDbLine
 10
-435.4112294914
 20
-440.1337118172
 30
0.0
 11
-434.9117820725
 21
-440.1102112678
 31
0.0
  0
LINE
  5
505
330
1F
100
AcDbEntity
  8
0
100
AcDbLine
 10
-437.3540180573
 20
-437.8874766141
 30
0.0
 11
-437.3305175079
 21
-438.3869240329
 31
0.0
  0
LINE
  5
506
330
1F
100
AcDbEntity
  8
0
100
AcDbLine
 10
-434.9117820725
 20
-440.1102112678
 30
0.0
 11
-434.9510310897
 21
-439.276068205
 31
0.0
  0
ARC
  5
507
330
1F
100
AcDbEntity
  8
0
100
AcDbCircle
 10
-433.952136252
 20
-439.2290671061
 30
0.0
 40
1.000000000000052
100
AcDbArc
 50
92.6939570941
 51
182.6939570941
  0
LINE
  5
508
330
1F
100
AcDbEntity
  8
0
100
AcDbLine
 10
-433.999137351
 20
-438.2301722684
 30
0.0
 11
-433.1649942882
 21
-438.1909232513
 31
0.0
  0
ARC
  5
509
330
1F
100
AcDbEntity
  8
0
100
AcDbCircle
 10
-436.4493733462
 20
-439.3465698534
 30
0.0
 40
0.9999999999999926
100
AcDbArc
 50
2.6939570941
 51
92.6939570941
  0
LINE
  5
50A
330
1F
100
AcDbEntity
  8
0
100
AcDbLine
 10
-435.4504785085
 20
-439.2995687545
 30
0.0
 11
-435.4112294914
 21
-440.1337118172
 31
0.0
  0
LINE
  5
50B
330
1F
100
AcDbEntity
  8
0
100
AcDbLine
 10
-437.3305175079
 20
-438.3869240329
 30
0.0
 11
-436.4963744451
 21
-438.3476750157
 31
0.0
  0
LINE
  5
50C
330
1F
100
AcDbEntity
  8
0
100
AcDbLine
 10
-435.607230273
 20
-435.9681885976
 30
0.0
 11
-435.5679812558
 21
-436.8023316603
 31
0.0
  0
LINE
  5
50D
330
1F
100
AcDbEntity
  8
0
100
AcDbLine
 10
-436.5198749946
 20
-437.8482275969
 30
0.0
 11
-437.3540180573
 21
-437.8874766141
 31
0.0
  0
ARC
  5
50E
330
1F
100
AcDbEntity
  8
0
100
AcDbCircle
 10
-436.5668760935
 20
-436.8493327593
 30
0.0
 40
0.9999999999999358
100
AcDbArc
 50
272.6939570941
 51
2.6939570941
  0
LINE
  5
50F
330
1F
100
AcDbEntity
  8
0
100
AcDbLine
 10
-433.1649942882
 20
-438.1909232513
 30
0.0
 11
-433.1884948377
 21
-437.6914758324
 31
0.0
  0
ARC
  5
510
330
1F
100
AcDbEntity
  8
0
100
AcDbCircle
 10
-434.0696389994
 20
-436.7318300119
 30
0.0
 40
1.000000000000052
100
AcDbArc
 50
182.6939570941
 51
272.6939570941
  0
LINE
  5
511
330
1F
100
AcDbEntity
  8
0
100
AcDbLine
 10
-435.068533837
 20
-436.7788311109
 30
0.0
 11
-435.1077828542
 21
-435.9446880481
 31
0.0
  0
LINE
  5
512
330
1F
100
AcDbEntity
  8
0
100
AcDbLine
 10
-433.1884948377
 20
-437.6914758324
 30
0.0
 11
-434.0226379004
 21
-437.7307248496
 31
0.0
  0
LINE
  5
513
330
1F
100
AcDbEntity
  8
0
100
AcDbLine
 10
-435.1077828542
 20
-435.9446880481
 30
0.0
 11
-435.607230273
 21
-435.9681885976
 31
0.0
  0
CIRCLE
  5
514
330
1F
100
AcDbEntity
  8
0
100
AcDbCircle
 10
-159.9520061705
 20
-339.9741999365
 30
0.0
 40
34.00000000000001
  0
CIRCLE
  5
515
330
1F
100
AcDbEntity
  8
0
100
AcDbCircle
 10
-443.2570061727
 20
-311.1041999326
 30
0.0
 40
33.99999999999994
  0
LINE
  5
516
330
1F
100
AcDbEntity
  8
0
100
AcDbLine
 10
-486.0827294775
 20
-207.0391999326
 30
0.0
 11
-486.0827294775
 21
-206.3391999326
 31
0.0
  0
LINE
  5
517
330
1F
100
AcDbEntity
  8
0
100
AcDbLine
 10
-485.2595061728
 20
-208.0391999326
 30
0.0
 11
-486.0827294775
 21
-206.3391999326
 31
0.0
  0
LINE
  5
518
330
1F
100
AcDbEntity
  8
0
100
AcDbLine
 10
-485.2595061728
 20
-208.0391999326
 30
0.0
 11
-486.0827294775
 21
-207.0391999326
 31
0.0
  0
LINE
  5
519
330
1F
100
AcDbEntity
  8
0
100
AcDbLine
 10
-486.2595061727
 20
-207.2159766278
 30
0.0
 11
-485.2595061727
 21
-208.0391999326
 31
0.0
  0
LINE
  5
51A
330
1F
100
AcDbEntity
  8
0
100
AcDbLine
 10
-486.9595061727
 20
-207.2159766278
 30
0.0
 11
-485.2595061728
 21
-208.0391999326
 31
0.0
  0
LINE
  5
51B
330
1F
100
AcDbEntity
  8
0
100
AcDbLine
 10
-486.2595061727
 20
-207.2159766278
 30
0.0
 11
-486.9595061727
 21
-207.2159766278
 31
0.0
  0
LINE
  5
51C
330
1F
100
AcDbEntity
  8
0
100
AcDbLine
 10
-485.2595061727
 20
-443.0391999326
 30
0.0
 11
-486.9595061727
 21
-443.8624232374
 31
0.0
  0
LINE
  5
51D
330
1F
100
AcDbEntity
  8
0
100
AcDbLine
 10
-486.9595061727
 20
-207.2159766278
 30
0.0
 11
-486.9595061727
 21
-443.8624232374
 31
0.0
  0
LINE
  5
51E
330
1F
100
AcDbEntity
  8
0
100
AcDbLine
 10
-117.436282868
 20
-206.3391999326
 30
0.0
 11
-486.0827294775
 21
-206.3391999326
 31
0.0
  0
LINE
  5
51F
330
1F
100
AcDbEntity
  8
0
100
AcDbLine
 10
-117.436282868
 20
-206.3391999326
 30
0.0
 11
-118.2595061728
 21
-208.0391999326
 31
0.0
  0
LINE
  5
520
330
1F
100
AcDbEntity
  8
0
100
AcDbLine
 10
-118.2595061727
 20
-208.0391999326
 30
0.0
 11
-116.5595061727
 21
-207.215976628
 31
0.0
  0
LINE
  5
521
330
1F
100
AcDbEntity
  8
0
100
AcDbLine
 10
-116.5595061727
 20
-443.8624232374
 30
0.0
 11
-116.5595061727
 21
-207.215976628
 31
0.0
  0
LINE
  5
522
330
1F
100
AcDbEntity
  8
0
100
AcDbLine
 10
-116.5595061727
 20
-443.8624232374
 30
0.0
 11
-118.2595061728
 21
-443.0391999327
 31
0.0
  0
LINE
  5
523
330
1F
100
AcDbEntity
  8
0
100
AcDbLine
 10
-117.436282868
 20
-207.0391999326
 30
0.0
 11
-118.2595061728
 21
-208.0391999326
 31
0.0
  0
LINE
  5
524
330
1F
100
AcDbEntity
  8
0
100
AcDbLine
 10
-117.436282868
 20
-207.0391999326
 30
0.0
 11
-117.436282868
 21
-206.3391999326
 31
0.0
  0
LINE
  5
525
330
1F
100
AcDbEntity
  8
0
100
AcDbLine
 10
-117.2595061727
 20
-207.2159766279
 30
0.0
 11
-116.5595061727
 21
-207.215976628
 31
0.0
  0
LINE
  5
526
330
1F
100
AcDbEntity
  8
0
100
AcDbLine
 10
-118.2595061727
 20
-208.0391999326
 30
0.0
 11
-117.2595061727
 21
-207.215976628
 31
0.0
  0
LINE
  5
527
330
1F
100
AcDbEntity
  8
0
100
AcDbLine
 10
-118.2595061728
 20
-443.0391999326
 30
0.0
 11
-117.4362828681
 21
-444.7391999326
 31
0.0
  0
LINE
  5
528
330
1F
100
AcDbEntity
  8
0
100
AcDbLine
 10
-486.0827294775
 20
-444.7391999326
 30
0.0
 11
-117.4362828681
 21
-444.7391999326
 31
0.0
  0
LINE
  5
529
330
1F
100
AcDbEntity
  8
0
100
AcDbLine
 10
-486.0827294775
 20
-444.7391999326
 30
0.0
 11
-485.2595061727
 21
-443.0391999326
 31
0.0
  0
LINE
  5
52A
330
1F
100
AcDbEntity
  8
0
100
AcDbLine
 10
-486.0827294775
 20
-444.0391999326
 30
0.0
 11
-485.2595061727
 21
-443.0391999326
 31
0.0
  0
LINE
  5
52B
330
1F
100
AcDbEntity
  8
0
100
AcDbLine
 10
-486.0827294775
 20
-444.0391999326
 30
0.0
 11
-486.0827294775
 21
-444.7391999326
 31
0.0
  0
LINE
  5
52C
330
1F
100
AcDbEntity
  8
0
100
AcDbLine
 10
-486.2595061728
 20
-443.8624232375
 30
0.0
 11
-486.9595061727
 21
-443.8624232374
 31
0.0
  0
LINE
  5
52D
330
1F
100
AcDbEntity
  8
0
100
AcDbLine
 10
-485.2595061727
 20
-443.0391999326
 30
0.0
 11
-486.2595061727
 21
-443.8624232374
 31
0.0
  0
LINE
  5
52E
330
1F
100
AcDbEntity
  8
0
100
AcDbLine
 10
-117.436282868
 20
-444.0391999326
 30
0.0
 11
-117.4362828681
 21
-444.7391999326
 31
0.0
  0
LINE
  5
52F
330
1F
100
AcDbEntity
  8
0
100
AcDbLine
 10
-118.2595061727
 20
-443.0391999327
 30
0.0
 11
-117.4362828681
 21
-444.0391999326
 31
0.0
  0
LINE
  5
530
330
1F
100
AcDbEntity
  8
0
100
AcDbLine
 10
-117.2595061727
 20
-443.8624232374
 30
0.0
 11
-118.2595061727
 21
-443.0391999327
 31
0.0
  0
LINE
  5
531
330
1F
100
AcDbEntity
  8
0
100
AcDbLine
 10
-117.2595061727
 20
-443.8624232374
 30
0.0
 11
-116.5595061727
 21
-443.8624232374
 31
0.0
  0
LINE
  5
532
330
1F
100
AcDbEntity
  8
0
100
AcDbLine
 10
-433.6595061727
 20
-179.5391996304
 30
0.0
 11
-169.8595061727
 21
-179.5391996304
 31
0.0
  0
LINE
  5
533
330
1F
100
AcDbEntity
  8
0
100
AcDbLine
 10
-433.6595061727
 20
-175.3391996304
 30
0.0
 11
-169.8595061727
 21
-175.3391996304
 31
0.0
  0
LINE
  5
534
330
1F
100
AcDbEntity
  8
0
100
AcDbLine
 10
-169.8595061727
 20
-471.5392002348
 30
0.0
 11
-433.6595061727
 21
-471.5392002348
 31
0.0
  0
LINE
  5
535
330
1F
100
AcDbEntity
  8
0
100
AcDbLine
 10
-169.8595061727
 20
-475.7392002348
 30
0.0
 11
-433.6595061727
 21
-475.7392002348
 31
0.0
  0
LINE
  5
536
330
1F
100
AcDbEntity
  8
0
100
AcDbLine
 10
-176.7595061727
 20
-478.5391999326
 30
0.0
 11
-426.7595061727
 21
-478.5391999326
 31
0.0
  0
LINE
  5
537
330
1F
100
AcDbEntity
  8
0
100
AcDbLine
 10
-176.8095575732
 20
-460.218168593
 30
0.0
 11
-426.7094547723
 21
-460.218168593
 31
0.0
  0
LINE
  5
538
330
1F
100
AcDbEntity
  8
0
100
AcDbLine
 10
-178.5531226789
 20
-461.9617336988
 30
0.0
 11
-424.9658896665
 21
-461.9617336988
 31
0.0
  0
LINE
  5
539
330
1F
100
AcDbEntity
  8
0
100
AcDbLine
 10
-180.5602609864
 20
-468.9840674981
 30
0.0
 11
-422.9587513591
 21
-468.9840674981
 31
0.0
  0
LINE
  5
53A
330
1F
100
AcDbEntity
  8
0
100
AcDbLine
 10
-426.7595061727
 20
-172.5391999326
 30
0.0
 11
-176.7595061727
 21
-172.5391999326
 31
0.0
  0
LINE
  5
53B
330
1F
100
AcDbEntity
  8
0
100
AcDbLine
 10
-426.7094547723
 20
-190.8602312722
 30
0.0
 11
-176.8095575732
 21
-190.8602312722
 31
0.0
  0
LINE
  5
53C
330
1F
100
AcDbEntity
  8
0
100
AcDbLine
 10
-424.9658896665
 20
-189.1166661665
 30
0.0
 11
-178.5531226789
 21
-189.1166661665
 31
0.0
  0
LINE
  5
53D
330
1F
100
AcDbEntity
  8
0
100
AcDbLine
 10
-422.9587513591
 20
-182.0943323671
 30
0.0
 11
-180.5602609864
 21
-182.0943323671
 31
0.0
  0
CIRCLE
  5
53E
330
1F
100
AcDbEntity
  8
0
  6
PHANTOM
 62
     8
370
    18
100
AcDbCircle
 10
-443.2570061727
 20
-311.1041999326
 30
0.0
 40
9.500000000000014
  0
LINE
  5
53F
330
1F
100
AcDbEntity
  8
0
  6
PHANTOM
 62
     8
370
    18
100
AcDbLine
 10
-444.2134198105
 20
-301.652466073
 30
0.0
 11
-444.3543649782
 21
-300.2595789779
 31
0.0
  0
CIRCLE
  5
540
330
1F
100
AcDbEntity
  8
0
  6
PHANTOM
 62
     8
370
    18
100
AcDbCircle
 10
-159.9520061705
 20
-339.9741999365
 30
0.0
 40
9.499999999999961
  0
LINE
  5
541
330
1F
100
AcDbEntity
  8
0
  6
PHANTOM
 62
     8
370
    18
100
AcDbLine
 10
-158.9955925327
 20
-349.4259337961
 30
0.0
 11
-158.854647365
 21
-350.8188208912
 31
0.0
  0
ARC
  5
542
330
1F
100
AcDbEntity
  8
0
  6
PHANTOM
 62
     8
370
    18
100
AcDbCircle
 10
-168.2595061727
 20
-213.0391999326
 30
0.0
 40
2.099999999999997
100
AcDbArc
 50
189.5310982622
 51
265.856815926
  0
ARC
  5
543
330
1F
100
AcDbEntity
  8
0
  6
PHANTOM
 62
     8
370
    18
100
AcDbCircle
 10
-168.2595061727
 20
-213.0391999326
 30
0.0
 40
2.10000000000002
100
AcDbArc
 50
265.856815926
 51
279.5310982622
  0
ARC
  5
544
330
1F
100
AcDbEntity
  8
0
  6
PHANTOM
 62
     8
370
    18
100
AcDbCircle
 10
-168.2595061727
 20
-213.0391999326
 30
0.0
 40
2.10000000000002
100
AcDbArc
 50
279.5310982622
 51
355.856815926
  0
ARC
  5
545
330
1F
100
AcDbEntity
  8
0
  6
PHANTOM
 62
     8
370
    18
100
AcDbCircle
 10
-168.2595061727
 20
-213.0391999326
 30
0.0
 40
2.099999999999997
100
AcDbArc
 50
355.856815926
 51
9.5310982622
  0
ARC
  5
546
330
1F
100
AcDbEntity
  8
0
  6
PHANTOM
 62
     8
370
    18
100
AcDbCircle
 10
-168.2595061727
 20
-213.0391999326
 30
0.0
 40
2.099999999999987
100
AcDbArc
 50
9.5310982622
 51
85.856815926
  0
ARC
  5
547
330
1F
100
AcDbEntity
  8
0
  6
PHANTOM
 62
     8
370
    18
100
AcDbCircle
 10
-168.2595061727
 20
-213.0391999326
 30
0.0
 40
2.099999999999991
100
AcDbArc
 50
85.856815926
 51
99.5310982622
  0
ARC
  5
548
330
1F
100
AcDbEntity
  8
0
  6
PHANTOM
 62
     8
370
    18
100
AcDbCircle
 10
-168.2595061727
 20
-213.0391999326
 30
0.0
 40
2.100000000000023
100
AcDbArc
 50
99.5310982622
 51
175.856815926
  0
ARC
  5
549
330
1F
100
AcDbEntity
  8
0
  6
PHANTOM
 62
     8
370
    18
100
AcDbCircle
 10
-168.2595061727
 20
-213.0391999326
 30
0.0
 40
2.100000000000023
100
AcDbArc
 50
175.856815926
 51
189.5310982622
  0
ARC
  5
54A
330
1F
100
AcDbEntity
  8
0
  6
PHANTOM
 62
     8
370
    18
100
AcDbCircle
 10
-168.2595061727
 20
-438.0391999327
 30
0.0
 40
2.100000000000001
100
AcDbArc
 50
4.143184074
 51
80.4689017378
  0
ARC
  5
54B
330
1F
100
AcDbEntity
  8
0
  6
PHANTOM
 62
     8
370
    18
100
AcDbCircle
 10
-168.2595061727
 20
-438.0391999327
 30
0.0
 40
2.099999999999996
100
AcDbArc
 50
80.4689017378
 51
94.143184074
  0
ARC
  5
54C
330
1F
100
AcDbEntity
  8
0
  6
PHANTOM
 62
     8
370
    18
100
AcDbCircle
 10
-168.2595061727
 20
-438.0391999327
 30
0.0
 40
2.099999999999991
100
AcDbArc
 50
94.143184074
 51
170.4689017378
  0
ARC
  5
54D
330
1F
100
AcDbEntity
  8
0
  6
PHANTOM
 62
     8
370
    18
100
AcDbCircle
 10
-168.2595061727
 20
-438.0391999327
 30
0.0
 40
2.099999999999991
100
AcDbArc
 50
170.4689017378
 51
184.143184074
  0
ARC
  5
54E
330
1F
100
AcDbEntity
  8
0
  6
PHANTOM
 62
     8
370
    18
100
AcDbCircle
 10
-168.2595061727
 20
-438.0391999327
 30
0.0
 40
2.100000000000052
100
AcDbArc
 50
184.143184074
 51
260.4689017378
  0
ARC
  5
54F
330
1F
100
AcDbEntity
  8
0
  6
PHANTOM
 62
     8
370
    18
100
AcDbCircle
 10
-168.2595061727
 20
-438.0391999327
 30
0.0
 40
2.100000000000052
100
AcDbArc
 50
260.4689017378
 51
274.143184074
  0
ARC
  5
550
330
1F
100
AcDbEntity
  8
0
  6
PHANTOM
 62
     8
370
    18
100
AcDbCircle
 10
-168.2595061727
 20
-438.0391999327
 30
0.0
 40
2.100000000000005
100
AcDbArc
 50
274.143184074
 51
350.4689017378
  0
ARC
  5
551
330
1F
100
AcDbEntity
  8
0
  6
PHANTOM
 62
     8
370
    18
100
AcDbCircle
 10
-168.2595061727
 20
-438.0391999327
 30
0.0
 40
2.100000000000001
100
AcDbArc
 50
350.4689017378
 51
4.143184074
  0
ARC
  5
552
330
1F
100
AcDbEntity
  8
0
  6
PHANTOM
 62
     8
370
    18
100
AcDbCircle
 10
-480.2595061728
 20
-258.0391999326
 30
0.0
 40
2.100000000000009
100
AcDbArc
 50
184.143184074
 51
260.4689017378
  0
ARC
  5
553
330
1F
100
AcDbEntity
  8
0
  6
PHANTOM
 62
     8
370
    18
100
AcDbCircle
 10
-480.2595061728
 20
-258.0391999326
 30
0.0
 40
2.100000000000009
100
AcDbArc
 50
170.4689017378
 51
184.143184074
  0
ARC
  5
554
330
1F
100
AcDbEntity
  8
0
  6
PHANTOM
 62
     8
370
    18
100
AcDbCircle
 10
-480.2595061728
 20
-258.0391999326
 30
0.0
 40
2.100000000000005
100
AcDbArc
 50
260.4689017378
 51
274.143184074
  0
ARC
  5
555
330
1F
100
AcDbEntity
  8
0
  6
PHANTOM
 62
     8
370
    18
100
AcDbCircle
 10
-480.2595061728
 20
-258.0391999326
 30
0.0
 40
2.100000000000005
100
AcDbArc
 50
274.143184074
 51
350.4689017378
  0
ARC
  5
556
330
1F
100
AcDbEntity
  8
0
  6
PHANTOM
 62
     8
370
    18
100
AcDbCircle
 10
-480.2595061728
 20
-258.0391999326
 30
0.0
 40
2.099999999999991
100
AcDbArc
 50
350.4689017378
 51
4.143184074
  0
ARC
  5
557
330
1F
100
AcDbEntity
  8
0
  6
PHANTOM
 62
     8
370
    18
100
AcDbCircle
 10
-480.2595061728
 20
-258.0391999326
 30
0.0
 40
2.10000000000001
100
AcDbArc
 50
4.143184074
 51
80.4689017378
  0
ARC
  5
558
330
1F
100
AcDbEntity
  8
0
  6
PHANTOM
 62
     8
370
    18
100
AcDbCircle
 10
-480.2595061728
 20
-258.0391999326
 30
0.0
 40
2.10000000000001
100
AcDbArc
 50
80.4689017378
 51
94.143184074
  0
ARC
  5
559
330
1F
100
AcDbEntity
  8
0
  6
PHANTOM
 62
     8
370
    18
100
AcDbCircle
 10
-480.2595061728
 20
-258.0391999326
 30
0.0
 40
2.099999999999982
100
AcDbArc
 50
94.143184074
 51
170.4689017378
  0
ARC
  5
55A
330
1F
100
AcDbEntity
  8
0
  6
PHANTOM
 62
     8
370
    18
100
AcDbCircle
 10
-123.2595061727
 20
-258.0391999326
 30
0.0
 40
2.100000000000073
100
AcDbArc
 50
99.5310982622
 51
175.856815926
  0
ARC
  5
55B
330
1F
100
AcDbEntity
  8
0
  6
PHANTOM
 62
     8
370
    18
100
AcDbCircle
 10
-123.2595061727
 20
-258.0391999326
 30
0.0
 40
2.099999999999982
100
AcDbArc
 50
189.5310982622
 51
265.856815926
  0
ARC
  5
55C
330
1F
100
AcDbEntity
  8
0
  6
PHANTOM
 62
     8
370
    18
100
AcDbCircle
 10
-123.2595061727
 20
-258.0391999326
 30
0.0
 40
2.099999999999963
100
AcDbArc
 50
265.856815926
 51
279.5310982622
  0
ARC
  5
55D
330
1F
100
AcDbEntity
  8
0
  6
PHANTOM
 62
     8
370
    18
100
AcDbCircle
 10
-123.2595061727
 20
-258.0391999326
 30
0.0
 40
2.100000000000006
100
AcDbArc
 50
279.5310982622
 51
355.856815926
  0
ARC
  5
55E
330
1F
100
AcDbEntity
  8
0
  6
PHANTOM
 62
     8
370
    18
100
AcDbCircle
 10
-123.2595061727
 20
-258.0391999326
 30
0.0
 40
2.100000000000006
100
AcDbArc
 50
355.856815926
 51
9.5310982622
  0
ARC
  5
55F
330
1F
100
AcDbEntity
  8
0
  6
PHANTOM
 62
     8
370
    18
100
AcDbCircle
 10
-123.2595061727
 20
-258.0391999326
 30
0.0
 40
2.100000000000023
100
AcDbArc
 50
9.5310982622
 51
85.856815926
  0
ARC
  5
560
330
1F
100
AcDbEntity
  8
0
  6
PHANTOM
 62
     8
370
    18
100
AcDbCircle
 10
-123.2595061727
 20
-258.0391999326
 30
0.0
 40
2.100000000000073
100
AcDbArc
 50
85.856815926
 51
99.5310982622
  0
ARC
  5
561
330
1F
100
AcDbEntity
  8
0
  6
PHANTOM
 62
     8
370
    18
100
AcDbCircle
 10
-123.2595061727
 20
-258.0391999326
 30
0.0
 40
2.099999999999997
100
AcDbArc
 50
175.856815926
 51
189.5310982622
  0
ARC
  5
562
330
1F
100
AcDbEntity
  8
0
  6
PHANTOM
 62
     8
370
    18
100
AcDbCircle
 10
-480.2595061728
 20
-393.0391999327
 30
0.0
 40
2.100000000000001
100
AcDbArc
 50
9.5310982622
 51
85.856815926
  0
ARC
  5
563
330
1F
100
AcDbEntity
  8
0
  6
PHANTOM
 62
     8
370
    18
100
AcDbCircle
 10
-480.2595061728
 20
-393.0391999327
 30
0.0
 40
2.10000000000001
100
AcDbArc
 50
85.856815926
 51
99.5310982622
  0
ARC
  5
564
330
1F
100
AcDbEntity
  8
0
  6
PHANTOM
 62
     8
370
    18
100
AcDbCircle
 10
-480.2595061728
 20
-393.0391999327
 30
0.0
 40
2.10000000000001
100
AcDbArc
 50
99.5310982622
 51
175.856815926
  0
ARC
  5
565
330
1F
100
AcDbEntity
  8
0
  6
PHANTOM
 62
     8
370
    18
100
AcDbCircle
 10
-480.2595061728
 20
-393.0391999327
 30
0.0
 40
2.10000000000001
100
AcDbArc
 50
175.856815926
 51
189.5310982622
  0
ARC
  5
566
330
1F
100
AcDbEntity
  8
0
  6
PHANTOM
 62
     8
370
    18
100
AcDbCircle
 10
-480.2595061728
 20
-393.0391999327
 30
0.0
 40
2.10000000000001
100
AcDbArc
 50
189.5310982622
 51
265.856815926
  0
ARC
  5
567
330
1F
100
AcDbEntity
  8
0
  6
PHANTOM
 62
     8
370
    18
100
AcDbCircle
 10
-480.2595061728
 20
-393.0391999327
 30
0.0
 40
2.100000000000001
100
AcDbArc
 50
265.856815926
 51
279.5310982622
  0
ARC
  5
568
330
1F
100
AcDbEntity
  8
0
  6
PHANTOM
 62
     8
370
    18
100
AcDbCircle
 10
-480.2595061728
 20
-393.0391999327
 30
0.0
 40
2.100000000000001
100
AcDbArc
 50
279.5310982622
 51
355.856815926
  0
ARC
  5
569
330
1F
100
AcDbEntity
  8
0
  6
PHANTOM
 62
     8
370
    18
100
AcDbCircle
 10
-480.2595061728
 20
-393.0391999327
 30
0.0
 40
2.100000000000001
100
AcDbArc
 50
355.856815926
 51
9.5310982622
  0
ARC
  5
56A
330
1F
100
AcDbEntity
  8
0
  6
PHANTOM
 62
     8
370
    18
100
AcDbCircle
 10
-435.2595061728
 20
-213.0391999326
 30
0.0
 40
2.10000000000001
100
AcDbArc
 50
184.143184074
 51
260.4689017378
  0
ARC
  5
56B
330
1F
100
AcDbEntity
  8
0
  6
PHANTOM
 62
     8
370
    18
100
AcDbCircle
 10
-435.2595061728
 20
-213.0391999326
 30
0.0
 40
2.100000000000013
100
AcDbArc
 50
260.4689017378
 51
274.143184074
  0
ARC
  5
56C
330
1F
100
AcDbEntity
  8
0
  6
PHANTOM
 62
     8
370
    18
100
AcDbCircle
 10
-435.2595061728
 20
-213.0391999326
 30
0.0
 40
2.100000000000099
100
AcDbArc
 50
274.143184074
 51
350.4689017378
  0
ARC
  5
56D
330
1F
100
AcDbEntity
  8
0
  6
PHANTOM
 62
     8
370
    18
100
AcDbCircle
 10
-435.2595061728
 20
-213.0391999326
 30
0.0
 40
2.100000000000099
100
AcDbArc
 50
350.4689017378
 51
4.143184074
  0
ARC
  5
56E
330
1F
100
AcDbEntity
  8
0
  6
PHANTOM
 62
     8
370
    18
100
AcDbCircle
 10
-435.2595061728
 20
-213.0391999326
 30
0.0
 40
2.100000000000009
100
AcDbArc
 50
4.143184074
 51
80.4689017378
  0
ARC
  5
56F
330
1F
100
AcDbEntity
  8
0
  6
PHANTOM
 62
     8
370
    18
100
AcDbCircle
 10
-435.2595061728
 20
-213.0391999326
 30
0.0
 40
2.100000000000005
100
AcDbArc
 50
80.4689017378
 51
94.143184074
  0
ARC
  5
570
330
1F
100
AcDbEntity
  8
0
  6
PHANTOM
 62
     8
370
    18
100
AcDbCircle
 10
-435.2595061728
 20
-213.0391999326
 30
0.0
 40
2.100000000000005
100
AcDbArc
 50
94.143184074
 51
170.4689017378
  0
ARC
  5
571
330
1F
100
AcDbEntity
  8
0
  6
PHANTOM
 62
     8
370
    18
100
AcDbCircle
 10
-435.2595061728
 20
-213.0391999326
 30
0.0
 40
2.099999999999952
100
AcDbArc
 50
170.4689017378
 51
184.143184074
  0
ARC
  5
572
330
1F
100
AcDbEntity
  8
0
  6
PHANTOM
 62
     8
370
    18
100
AcDbCircle
 10
-123.2595061727
 20
-393.0391999327
 30
0.0
 40
2.100000000000001
100
AcDbArc
 50
4.143184074
 51
80.4689017378
  0
ARC
  5
573
330
1F
100
AcDbEntity
  8
0
  6
PHANTOM
 62
     8
370
    18
100
AcDbCircle
 10
-123.2595061727
 20
-393.0391999327
 30
0.0
 40
2.09999999999995
100
AcDbArc
 50
80.4689017378
 51
94.143184074
  0
ARC
  5
574
330
1F
100
AcDbEntity
  8
0
  6
PHANTOM
 62
     8
370
    18
100
AcDbCircle
 10
-123.2595061727
 20
-393.0391999327
 30
0.0
 40
2.099999999999991
100
AcDbArc
 50
94.143184074
 51
170.4689017378
  0
ARC
  5
575
330
1F
100
AcDbEntity
  8
0
  6
PHANTOM
 62
     8
370
    18
100
AcDbCircle
 10
-123.2595061727
 20
-393.0391999327
 30
0.0
 40
2.099999999999991
100
AcDbArc
 50
170.4689017378
 51
184.143184074
  0
ARC
  5
576
330
1F
100
AcDbEntity
  8
0
  6
PHANTOM
 62
     8
370
    18
100
AcDbCircle
 10
-123.2595061727
 20
-393.0391999327
 30
0.0
 40
2.100000000000056
100
AcDbArc
 50
184.143184074
 51
260.4689017378
  0
ARC
  5
577
330
1F
100
AcDbEntity
  8
0
  6
PHANTOM
 62
     8
370
    18
100
AcDbCircle
 10
-123.2595061727
 20
-393.0391999327
 30
0.0
 40
2.100000000000056
100
AcDbArc
 50
260.4689017378
 51
274.143184074
  0
ARC
  5
578
330
1F
100
AcDbEntity
  8
0
  6
PHANTOM
 62
     8
370
    18
100
AcDbCircle
 10
-123.2595061727
 20
-393.0391999327
 30
0.0
 40
2.100000000000029
100
AcDbArc
 50
274.143184074
 51
350.4689017378
  0
ARC
  5
579
330
1F
100
AcDbEntity
  8
0
  6
PHANTOM
 62
     8
370
    18
100
AcDbCircle
 10
-123.2595061727
 20
-393.0391999327
 30
0.0
 40
2.100000000000029
100
AcDbArc
 50
350.4689017378
 51
4.143184074
  0
ARC
  5
57A
330
1F
100
AcDbEntity
  8
0
  6
PHANTOM
 62
     8
370
    18
100
AcDbCircle
 10
-301.7595061727
 20
-438.0391999327
 30
0.0
 40
2.100000000000001
100
AcDbArc
 50
9.5310982622
 51
85.856815926
  0
ARC
  5
57B
330
1F
100
AcDbEntity
  8
0
  6
PHANTOM
 62
     8
370
    18
100
AcDbCircle
 10
-301.7595061727
 20
-438.0391999327
 30
0.0
 40
2.10000000000001
100
AcDbArc
 50
85.856815926
 51
99.5310982622
  0
ARC
  5
57C
330
1F
100
AcDbEntity
  8
0
  6
PHANTOM
 62
     8
370
    18
100
AcDbCircle
 10
-301.7595061727
 20
-438.0391999327
 30
0.0
 40
2.10000000000001
100
AcDbArc
 50
99.5310982622
 51
175.856815926
  0
ARC
  5
57D
330
1F
100
AcDbEntity
  8
0
  6
PHANTOM
 62
     8
370
    18
100
AcDbCircle
 10
-301.7595061727
 20
-438.0391999327
 30
0.0
 40
2.10000000000001
100
AcDbArc
 50
175.856815926
 51
189.5310982622
  0
ARC
  5
57E
330
1F
100
AcDbEntity
  8
0
  6
PHANTOM
 62
     8
370
    18
100
AcDbCircle
 10
-301.7595061727
 20
-438.0391999327
 30
0.0
 40
2.10000000000001
100
AcDbArc
 50
189.5310982622
 51
265.856815926
  0
ARC
  5
57F
330
1F
100
AcDbEntity
  8
0
  6
PHANTOM
 62
     8
370
    18
100
AcDbCircle
 10
-301.7595061727
 20
-438.0391999327
 30
0.0
 40
2.100000000000001
100
AcDbArc
 50
265.856815926
 51
279.5310982622
  0
ARC
  5
580
330
1F
100
AcDbEntity
  8
0
  6
PHANTOM
 62
     8
370
    18
100
AcDbCircle
 10
-301.7595061727
 20
-438.0391999327
 30
0.0
 40
2.099999999999997
100
AcDbArc
 50
279.5310982622
 51
355.856815926
  0
ARC
  5
581
330
1F
100
AcDbEntity
  8
0
  6
PHANTOM
 62
     8
370
    18
100
AcDbCircle
 10
-301.7595061727
 20
-438.0391999327
 30
0.0
 40
2.100000000000001
100
AcDbArc
 50
355.856815926
 51
9.5310982622
  0
ARC
  5
582
330
1F
100
AcDbEntity
  8
0
  6
PHANTOM
 62
     8
370
    18
100
AcDbCircle
 10
-301.7595061728
 20
-213.0391999326
 30
0.0
 40
2.100000000000009
100
AcDbArc
 50
184.143184074
 51
260.4689017378
  0
ARC
  5
583
330
1F
100
AcDbEntity
  8
0
  6
PHANTOM
 62
     8
370
    18
100
AcDbCircle
 10
-301.7595061728
 20
-213.0391999326
 30
0.0
 40
2.099999999999984
100
AcDbArc
 50
260.4689017378
 51
274.143184074
  0
ARC
  5
584
330
1F
100
AcDbEntity
  8
0
  6
PHANTOM
 62
     8
370
    18
100
AcDbCircle
 10
-301.7595061728
 20
-213.0391999326
 30
0.0
 40
2.100000000000043
100
AcDbArc
 50
274.143184074
 51
350.4689017378
  0
ARC
  5
585
330
1F
100
AcDbEntity
  8
0
  6
PHANTOM
 62
     8
370
    18
100
AcDbCircle
 10
-301.7595061728
 20
-213.0391999326
 30
0.0
 40
2.100000000000043
100
AcDbArc
 50
350.4689017378
 51
4.143184074
  0
ARC
  5
586
330
1F
100
AcDbEntity
  8
0
  6
PHANTOM
 62
     8
370
    18
100
AcDbCircle
 10
-301.7595061728
 20
-213.0391999326
 30
0.0
 40
2.10000000000002
100
AcDbArc
 50
4.143184074
 51
80.4689017378
  0
ARC
  5
587
330
1F
100
AcDbEntity
  8
0
  6
PHANTOM
 62
     8
370
    18
100
AcDbCircle
 10
-301.7595061728
 20
-213.0391999326
 30
0.0
 40
2.10000000000002
100
AcDbArc
 50
80.4689017378
 51
94.143184074
  0
ARC
  5
588
330
1F
100
AcDbEntity
  8
0
  6
PHANTOM
 62
     8
370
    18
100
AcDbCircle
 10
-301.7595061728
 20
-213.0391999326
 30
0.0
 40
2.100000000000005
100
AcDbArc
 50
94.143184074
 51
170.4689017378
  0
ARC
  5
589
330
1F
100
AcDbEntity
  8
0
  6
PHANTOM
 62
     8
370
    18
100
AcDbCircle
 10
-301.7595061728
 20
-213.0391999326
 30
0.0
 40
2.100000000000009
100
AcDbArc
 50
170.4689017378
 51
184.143184074
  0
ARC
  5
58A
330
1F
100
AcDbEntity
  8
0
  6
PHANTOM
 62
     8
370
    18
100
AcDbCircle
 10
-435.2595061728
 20
-438.0391999327
 30
0.0
 40
2.099999999999997
100
AcDbArc
 50
9.5310982622
 51
85.856815926
  0
ARC
  5
58B
330
1F
100
AcDbEntity
  8
0
  6
PHANTOM
 62
     8
370
    18
100
AcDbCircle
 10
-435.2595061728
 20
-438.0391999327
 30
0.0
 40
2.099999999999997
100
AcDbArc
 50
85.856815926
 51
99.5310982622
  0
ARC
  5
58C
330
1F
100
AcDbEntity
  8
0
  6
PHANTOM
 62
     8
370
    18
100
AcDbCircle
 10
-435.2595061728
 20
-438.0391999327
 30
0.0
 40
2.100000000000057
100
AcDbArc
 50
99.5310982622
 51
175.856815926
  0
ARC
  5
58D
330
1F
100
AcDbEntity
  8
0
  6
PHANTOM
 62
     8
370
    18
100
AcDbCircle
 10
-435.2595061728
 20
-438.0391999327
 30
0.0
 40
2.100000000000057
100
AcDbArc
 50
175.856815926
 51
189.5310982622
  0
ARC
  5
58E
330
1F
100
AcDbEntity
  8
0
  6
PHANTOM
 62
     8
370
    18
100
AcDbCircle
 10
-435.2595061728
 20
-438.0391999327
 30
0.0
 40
2.100000000000061
100
AcDbArc
 50
189.5310982622
 51
265.856815926
  0
ARC
  5
58F
330
1F
100
AcDbEntity
  8
0
  6
PHANTOM
 62
     8
370
    18
100
AcDbCircle
 10
-435.2595061728
 20
-438.0391999327
 30
0.0
 40
2.100000000000061
100
AcDbArc
 50
265.856815926
 51
279.5310982622
  0
ARC
  5
590
330
1F
100
AcDbEntity
  8
0
  6
PHANTOM
 62
     8
370
    18
100
AcDbCircle
 10
-435.2595061728
 20
-438.0391999327
 30
0.0
 40
2.100000000000001
100
AcDbArc
 50
279.5310982622
 51
355.856815926
  0
ARC
  5
591
330
1F
100
AcDbEntity
  8
0
  6
PHANTOM
 62
     8
370
    18
100
AcDbCircle
 10
-435.2595061728
 20
-438.0391999327
 30
0.0
 40
2.099999999999954
100
AcDbArc
 50
355.856815926
 51
9.5310982622
  0
CIRCLE
  5
592
330
1F
100
AcDbEntity
  8
0
  6
PHANTOM
 62
     8
370
    18
100
AcDbCircle
 10
-159.9520061705
 20
-339.9741999365
 30
0.0
 40
19.99999999999997
  0
CIRCLE
  5
593
330
1F
100
AcDbEntity
  8
0
  6
PHANTOM
 62
     8
370
    18
100
AcDbCircle
 10
-443.2570061727
 20
-311.1041999326
 30
0.0
 40
20.0
  0
LINE
  5
594
330
1F
100
AcDbEntity
  8
0
  6
PHANTOM
 62
     8
370
    18
100
AcDbLine
 10
-485.2595061728
 20
-208.0391999326
 30
0.0
 11
-485.2595061727
 21
-443.0391999326
 31
0.0
  0
LINE
  5
595
330
1F
100
AcDbEntity
  8
0
  6
PHANTOM
 62
     8
370
    18
100
AcDbLine
 10
-118.2595061727
 20
-208.0391999326
 30
0.0
 11
-485.2595061728
 21
-208.0391999326
 31
0.0
  0
LINE
  5
596
330
1F
100
AcDbEntity
  8
0
  6
PHANTOM
 62
     8
370
    18
100
AcDbLine
 10
-118.2595061727
 20
-443.0391999326
 30
0.0
 11
-118.2595061727
 21
-208.0391999326
 31
0.0
  0
LINE
  5
597
330
1F
100
AcDbEntity
  8
0
  6
PHANTOM
 62
     8
370
    18
100
AcDbLine
 10
-485.2595061727
 20
-443.0391999326
 30
0.0
 11
-118.2595061727
 21
-443.0391999326
 31
0.0
  0
LINE
  5
598
330
1F
100
AcDbEntity
  8
0
  6
PHANTOM
 62
     8
370
    18
100
AcDbLine
 10
-433.7029722404
 20
-178.5410925125
 30
0.0
 11
-169.816040105
 21
-178.5410925125
 31
0.0
  0
LINE
  5
599
330
1F
100
AcDbEntity
  8
0
  6
PHANTOM
 62
     8
370
    18
100
AcDbLine
 10
-433.7029722404
 20
-174.3410925125
 30
0.0
 11
-169.816040105
 21
-174.3410925125
 31
0.0
  0
LINE
  5
59A
330
1F
100
AcDbEntity
  8
0
  6
PHANTOM
 62
     8
370
    18
100
AcDbLine
 10
-425.8877731389
 20
-177.8591187744
 30
0.0
 11
-177.6312392066
 21
-177.8591187744
 31
0.0
  0
LINE
  5
59B
330
1F
100
AcDbEntity
  8
0
  6
PHANTOM
 62
     8
370
    18
100
AcDbLine
 10
-425.8877731389
 20
-173.6591187744
 30
0.0
 11
-177.6312392066
 21
-173.6591187744
 31
0.0
  0
LINE
  5
59C
330
1F
100
AcDbEntity
  8
0
  6
PHANTOM
 62
     8
370
    18
100
AcDbLine
 10
-425.6595061727
 20
-177.6100652154
 30
0.0
 11
-177.8595061727
 21
-177.6100652154
 31
0.0
  0
LINE
  5
59D
330
1F
100
AcDbEntity
  8
0
  6
PHANTOM
 62
     8
370
    18
100
AcDbLine
 10
-425.6595061727
 20
-173.4100652154
 30
0.0
 11
-177.8595061727
 21
-173.4100652154
 31
0.0
  0
LINE
  5
59E
330
1F
100
AcDbEntity
  8
0
  6
PHANTOM
 62
     8
370
    18
100
AcDbLine
 10
-169.816040105
 20
-472.5373073528
 30
0.0
 11
-433.7029722404
 21
-472.5373073528
 31
0.0
  0
LINE
  5
59F
330
1F
100
AcDbEntity
  8
0
  6
PHANTOM
 62
     8
370
    18
100
AcDbLine
 10
-169.816040105
 20
-476.7373073528
 30
0.0
 11
-433.7029722404
 21
-476.7373073528
 31
0.0
  0
LINE
  5
5A0
330
1F
100
AcDbEntity
  8
0
  6
PHANTOM
 62
     8
370
    18
100
AcDbLine
 10
-177.6312392066
 20
-473.2192810908
 30
0.0
 11
-425.8877731389
 21
-473.2192810908
 31
0.0
  0
LINE
  5
5A1
330
1F
100
AcDbEntity
  8
0
  6
PHANTOM
 62
     8
370
    18
100
AcDbLine
 10
-177.6312392066
 20
-477.4192810908
 30
0.0
 11
-425.8877731389
 21
-477.4192810908
 31
0.0
  0
LINE
  5
5A2
330
1F
100
AcDbEntity
  8
0
  6
PHANTOM
 62
     8
370
    18
100
AcDbLine
 10
-177.8595061727
 20
-473.4683346498
 30
0.0
 11
-425.6595061727
 21
-473.4683346498
 31
0.0
  0
LINE
  5
5A3
330
1F
100
AcDbEntity
  8
0
  6
PHANTOM
 62
     8
370
    18
100
AcDbLine
 10
-177.8595061727
 20
-477.6683346498
 30
0.0
 11
-425.6595061727
 21
-477.6683346498
 31
0.0
  0
LINE
  5
5A4
330
1F
100
AcDbEntity
  8
0
  6
PHANTOM
 62
     8
370
    18
100
AcDbLine
 10
-176.7595061727
 20
-483.2391999326
 30
0.0
 11
-426.7595061727
 21
-483.2391999326
 31
0.0
  0
LINE
  5
5A5
330
1F
100
AcDbEntity
  8
0
  6
PHANTOM
 62
     8
370
    18
100
AcDbLine
 10
-426.7595061727
 20
-167.8391999326
 30
0.0
 11
-176.7595061727
 21
-167.8391999326
 31
0.0
  0
ENDSEC
  0
SECTION
  2
OBJECTS
  0
DICTIONARY
  5
C
330
0
100
AcDbDictionary
281
     1
  3
ACAD_GROUP
350
D
  3
ACAD_LAYOUT
350
1A
  3
ACAD_MLINESTYLE
350
17
  3
ACAD_PLOTSETTINGS
350
19
  3
ACAD_PLOTSTYLENAME
350
E
  3
ACAD_SCALELIST
350
47
  3
DWGPROPS
350
5A6
  0
DICTIONARY
  5
D
102
{ACAD_REACTORS
330
C
102
}
330
C
100
AcDbDictionary
281
     1
  0
DICTIONARY
  5
1A
102
{ACAD_REACTORS
330
C
102
}
330
C
100
AcDbDictionary
281
     1
  3
Layout1
350
1E
  3
Layout2
350
26
  3
Model
350
22
  0
DICTIONARY
  5
17
102
{ACAD_REACTORS
330
C
102
}
330
C
100
AcDbDictionary
281
     1
  3
Standard
350
18
  0
DICTIONARY
  5
19
102
{ACAD_REACTORS
330
C
102
}
330
C
100
AcDbDictionary
281
     1
  0
ACDBDICTIONARYWDFLT
  5
E
102
{ACAD_REACTORS
330
C
102
}
330
C
100
AcDbDictionary
281
     1
  3
Normal
350
F
100
AcDbDictionaryWithDefault
340
F
  0
DICTIONARY
  5
47
102
{ACAD_REACTORS
330
C
102
}
330
C
100
AcDbDictionary
281
     1
  3
A0
350
48
  3
A1
350
49
  3
A2
350
4A
  3
A3
350
4B
  3
A4
350
4C
  3
A5
350
4D
  3
A6
350
4E
  3
A7
350
4F
  3
A8
350
50
  3
A9
350
51
  3
B0
350
52
  3
B1
350
53
  3
B2
350
54
  3
B3
350
55
  3
B4
350
56
  3
B5
350
57
  3
B6
350
58
  3
B7
350
59
  3
B8
350
5A
  3
B9
350
5B
  3
C0
350
5C
  3
C1
350
5D
  3
C2
350
5E
  3
C3
350
5F
  3
C4
350
60
  3
C5
350
61
  3
C6
350
62
  3
C7
350
63
  3
C8
350
64
  3
C9
350
65
  3
D0
350
66
  3
D1
350
67
  3
D2
350
68
  0
XRECORD
  5
5A6
102
{ACAD_REACTORS
330
C
102
}
330
C
100
AcDbXrecord
280
     1
  1
DWGPROPS COOKIE
  2

  3

  4

  6

  7

  8
Emilis.Masalas
  9

300
=
301
=
302
=
303
=
304
=
305
=
306
=
307
=
308
=
309
=
 40
0.0
 41
2459500.487982593
 42
2459500.487983114
  1

 90
        0
  0
LAYOUT
  5
1E
102
{ACAD_REACTORS
330
1A
102
}
330
1A
100
AcDbPlotSettings
  1

  2
none_device
  4

  6

 40
0.0
 41
0.0
 42
0.0
 43
0.0
 44
0.0
 45
0.0
 46
0.0
 47
0.0
 48
0.0
 49
0.0
140
0.0
141
0.0
142
1.0
143
1.0
 70
   688
 72
     1
 73
     0
 74
     5
  7

 75
    16
147
1.0
148
0.0
149
0.0
100
AcDbLayout
  1
Layout1
 70
     1
 71
     1
 10
0.0
 20
0.0
 11
420.0
 21
297.0
 12
0.0
 22
0.0
 32
0.0
 14
1.0000000000E+20
 24
1.0000000000E+20
 34
1.0000000000E+20
 15
-1.0000000000E+20
 25
-1.0000000000E+20
 35
-1.0000000000E+20
146
0.0
 13
0.0
 23
0.0
 33
0.0
 16
1.0
 26
0.0
 36
0.0
 17
0.0
 27
1.0
 37
0.0
 76
     0
330
1B
  0
LAYOUT
  5
26
102
{ACAD_REACTORS
330
1A
102
}
330
1A
100
AcDbPlotSettings
  1

  2
none_device
  4

  6

 40
0.0
 41
0.0
 42
0.0
 43
0.0
 44
0.0
 45
0.0
 46
0.0
 47
0.0
 48
0.0
 49
0.0
140
0.0
141
0.0
142
1.0
143
1.0
 70
   688
 72
     1
 73
     0
 74
     5
  7

 75
    16
147
1.0
148
0.0
149
0.0
100
AcDbLayout
  1
Layout2
 70
     1
 71
     2
 10
0.0
 20
0.0
 11
0.0
 21
0.0
 12
0.0
 22
0.0
 32
0.0
 14
0.0
 24
0.0
 34
0.0
 15
0.0
 25
0.0
 35
0.0
146
0.0
 13
0.0
 23
0.0
 33
0.0
 16
1.0
 26
0.0
 36
0.0
 17
0.0
 27
1.0
 37
0.0
 76
     0
330
23
  0
LAYOUT
  5
22
102
{ACAD_REACTORS
330
1A
102
}
330
1A
100
AcDbPlotSettings
  1

  2
none_device
  4
Letter_(8.50_x_11.00_Inches)
  6

 40
6.35
 41
6.35
 42
6.35000508
 43
6.35000508
 44
215.9
 45
279.4
 46
0.0
 47
0.0
 48
0.0
 49
0.0
140
0.0
141
0.0
142
1.0
143
1.0
 70
  1712
 72
     1
 73
     0
 74
     0
  7

 75
     0
147
1.0
148
0.0
149
0.0
100
AcDbLayout
  1
Model
 70
     1
 71
     0
 10
0.0
 20
0.0
 11
420.0
 21
297.0
 12
0.0
 22
0.0
 32
0.0
 14
0.0
 24
0.0
 34
0.0
 15
420.0
 25
297.0
 35
0.0
146
0.0
 13
0.0
 23
0.0
 33
0.0
 16
1.0
 26
0.0
 36
0.0
 17
0.0
 27
1.0
 37
0.0
 76
     0
330
1F
331
29
  0
MLINESTYLE
  5
18
102
{ACAD_REACTORS
330
17
102
}
330
17
100
AcDbMlineStyle
  2
Standard
 70
     0
  3

 62
   256
 51
90.0
 52
90.0
 71
     2
 49
0.5
 62
   256
  6
BYLAYER
 49
-0.5
 62
   256
  6
BYLAYER
  0
ACDBPLACEHOLDER
  5
F
102
{ACAD_REACTORS
330
E
102
}
330
E
  0
SCALE
  5
48
102
{ACAD_REACTORS
330
47
102
}
330
47
100
AcDbScale
 70
     0
300
1:1
140
1.0
141
1.0
290
     1
  0
SCALE
  5
49
102
{ACAD_REACTORS
330
47
102
}
330
47
100
AcDbScale
 70
     0
300
1:2
140
1.0
141
2.0
290
     0
  0
SCALE
  5
4A
102
{ACAD_REACTORS
330
47
102
}
330
47
100
AcDbScale
 70
     0
300
1:4
140
1.0
141
4.0
290
     0
  0
SCALE
  5
4B
102
{ACAD_REACTORS
330
47
102
}
330
47
100
AcDbScale
 70
     0
300
1:5
140
1.0
141
5.0
290
     0
  0
SCALE
  5
4C
102
{ACAD_REACTORS
330
47
102
}
330
47
100
AcDbScale
 70
     0
300
1:8
140
1.0
141
8.0
290
     0
  0
SCALE
  5
4D
102
{ACAD_REACTORS
330
47
102
}
330
47
100
AcDbScale
 70
     0
300
1:10
140
1.0
141
10.0
290
     0
  0
SCALE
  5
4E
102
{ACAD_REACTORS
330
47
102
}
330
47
100
AcDbScale
 70
     0
300
1:16
140
1.0
141
16.0
290
     0
  0
SCALE
  5
4F
102
{ACAD_REACTORS
330
47
102
}
330
47
100
AcDbScale
 70
     0
300
1:20
140
1.0
141
20.0
290
     0
  0
SCALE
  5
50
102
{ACAD_REACTORS
330
47
102
}
330
47
100
AcDbScale
 70
     0
300
1:30
140
1.0
141
30.0
290
     0
  0
SCALE
  5
51
102
{ACAD_REACTORS
330
47
102
}
330
47
100
AcDbScale
 70
     0
300
1:40
140
1.0
141
40.0
290
     0
  0
SCALE
  5
52
102
{ACAD_REACTORS
330
47
102
}
330
47
100
AcDbScale
 70
     0
300
1:50
140
1.0
141
50.0
290
     0
  0
SCALE
  5
53
102
{ACAD_REACTORS
330
47
102
}
330
47
100
AcDbScale
 70
     0
300
1:100
140
1.0
141
100.0
290
     0
  0
SCALE
  5
54
102
{ACAD_REACTORS
330
47
102
}
330
47
100
AcDbScale
 70
     0
300
2:1
140
2.0
141
1.0
290
     0
  0
SCALE
  5
55
102
{ACAD_REACTORS
330
47
102
}
330
47
100
AcDbScale
 70
     0
300
4:1
140
4.0
141
1.0
290
     0
  0
SCALE
  5
56
102
{ACAD_REACTORS
330
47
102
}
330
47
100
AcDbScale
 70
     0
300
8:1
140
8.0
141
1.0
290
     0
  0
SCALE
  5
57
102
{ACAD_REACTORS
330
47
102
}
330
47
100
AcDbScale
 70
     0
300
10:1
140
10.0
141
1.0
290
     0
  0
SCALE
  5
58
102
{ACAD_REACTORS
330
47
102
}
330
47
100
AcDbScale
 70
     0
300
100:1
140
100.0
141
1.0
290
     0
  0
SCALE
  5
59
102
{ACAD_REACTORS
330
47
102
}
330
47
100
AcDbScale
 70
     0
300
1/128" = 1'-0"
140
0.0078125
141
12.0
290
     0
  0
SCALE
  5
5A
102
{ACAD_REACTORS
330
47
102
}
330
47
100
AcDbScale
 70
     0
300
1/64" = 1'-0"
140
0.015625
141
12.0
290
     0
  0
SCALE
  5
5B
102
{ACAD_REACTORS
330
47
102
}
330
47
100
AcDbScale
 70
     0
300
1/32" = 1'-0"
140
0.03125
141
12.0
290
     0
  0
SCALE
  5
5C
102
{ACAD_REACTORS
330
47
102
}
330
47
100
AcDbScale
 70
     0
300
1/16" = 1'-0"
140
0.0625
141
12.0
290
     0
  0
SCALE
  5
5D
102
{ACAD_REACTORS
330
47
102
}
330
47
100
AcDbScale
 70
     0
300
3/32" = 1'-0"
140
0.09375
141
12.0
290
     0
  0
SCALE
  5
5E
102
{ACAD_REACTORS
330
47
102
}
330
47
100
AcDbScale
 70
     0
300
1/8" = 1'-0"
140
0.125
141
12.0
290
     0
  0
SCALE
  5
5F
102
{ACAD_REACTORS
330
47
102
}
330
47
100
AcDbScale
 70
     0
300
3/16" = 1'-0"
140
0.1875
141
12.0
290
     0
  0
SCALE
  5
60
102
{ACAD_REACTORS
330
47
102
}
330
47
100
AcDbScale
 70
     0
300
1/4" = 1'-0"
140
0.25
141
12.0
290
     0
  0
SCALE
  5
61
102
{ACAD_REACTORS
330
47
102
}
330
47
100
AcDbScale
 70
     0
300
3/8" = 1'-0"
140
0.375
141
12.0
290
     0
  0
SCALE
  5
62
102
{ACAD_REACTORS
330
47
102
}
330
47
100
AcDbScale
 70
     0
300
1/2" = 1'-0"
140
0.5
141
12.0
290
     0
  0
SCALE
  5
63
102
{ACAD_REACTORS
330
47
102
}
330
47
100
AcDbScale
 70
     0
300
3/4" = 1'-0"
140
0.75
141
12.0
290
     0
  0
SCALE
  5
64
102
{ACAD_REACTORS
330
47
102
}
330
47
100
AcDbScale
 70
     0
300
1" = 1'-0"
140
1.0
141
12.0
290
     0
  0
SCALE
  5
65
102
{ACAD_REACTORS
330
47
102
}
330
47
100
AcDbScale
 70
     0
300
1-1/2" = 1'-0"
140
1.5
141
12.0
290
     0
  0
SCALE
  5
66
102
{ACAD_REACTORS
330
47
102
}
330
47
100
AcDbScale
 70
     0
300
3" = 1'-0"
140
3.0
141
12.0
290
     0
  0
SCALE
  5
67
102
{ACAD_REACTORS
330
47
102
}
330
47
100
AcDbScale
 70
     0
300
6" = 1'-0"
140
6.0
141
12.0
290
     0
  0
SCALE
  5
68
102
{ACAD_REACTORS
330
47
102
}
330
47
100
AcDbScale
 70
     0
300
1'-0" = 1'-0"
140
12.0
141
12.0
290
     0
  0
ENDSEC
  0
EOF
