  0
SECTION
  2
HEADER
  9
$ACADVER
  1
AC1015
  9
$ACADMAINTVER
 70
     6
  9
$DWGCODEPAGE
  3
ANSI_1257
  9
$INSBASE
 10
0.0
 20
0.0
 30
0.0
  9
$EXTMIN
 10
0.0
 20
0.0
 30
0.0
  9
$EXTMAX
 10
420.0
 20
297.0
 30
0.0
  9
$LIMMIN
 10
0.0
 20
0.0
  9
$LIMMAX
 10
420.0
 20
297.0
  9
$ORTHOMODE
 70
     0
  9
$REGENMODE
 70
     1
  9
$FILLMODE
 70
     1
  9
$QTEXTMODE
 70
     0
  9
$MIRRTEXT
 70
     1
  9
$LTSCALE
 40
1.0
  9
$ATTMODE
 70
     1
  9
$TEXTSIZE
 40
5.6444444444
  9
$TRACEWID
 40
1.0
  9
$TEXTSTYLE
  7
Standard
  9
$CLAYER
  8
0
  9
$CELTYPE
  6
ByLayer
  9
$CECOLOR
 62
   256
  9
$CELTSCALE
 40
1.0
  9
$DISPSILH
 70
     0
  9
$DIMSCALE
 40
1.0
  9
$DIMASZ
 40
3.175
  9
$DIMEXO
 40
1.0
  9
$DIMDLI
 40
3.75
  9
$DIMRND
 40
0.0
  9
$DIMDLE
 40
0.0
  9
$DIMEXE
 40
1.0
  9
$DIMTP
 40
0.0
  9
$DIMTM
 40
0.0
  9
$DIMTXT
 40
5.6444444444
  9
$DIMCEN
 40
2.5
  9
$DIMTSZ
 40
0.0
  9
$DIMTOL
 70
     0
  9
$DIMLIM
 70
     0
  9
$DIMTIH
 70
     1
  9
$DIMTOH
 70
     1
  9
$DIMSE1
 70
     0
  9
$DIMSE2
 70
     0
  9
$DIMTAD
 70
     1
  9
$DIMZIN
 70
     0
  9
$DIMBLK
  1

  9
$DIMASO
 70
     1
  9
$DIMSHO
 70
     1
  9
$DIMPOST
  1

  9
$DIMAPOST
  1

  9
$DIMALT
 70
     0
  9
$DIMALTD
 70
     3
  9
$DIMALTF
 40
0.0393700787
  9
$DIMLFAC
 40
1.0
  9
$DIMTOFL
 70
     1
  9
$DIMTVP
 40
0.0
  9
$DIMTIX
 70
     0
  9
$DIMSOXD
 70
     0
  9
$DIMSAH
 70
     0
  9
$DIMBLK1
  1

  9
$DIMBLK2
  1

  9
$DIMSTYLE
  2
ISO-25
  9
$DIMCLRD
 70
     0
  9
$DIMCLRE
 70
     0
  9
$DIMCLRT
 70
     0
  9
$DIMTFAC
 40
1.0
  9
$DIMGAP
 40
1.524
  9
$DIMJUST
 70
     0
  9
$DIMSD1
 70
     0
  9
$DIMSD2
 70
     0
  9
$DIMTOLJ
 70
     0
  9
$DIMTZIN
 70
     0
  9
$DIMALTZ
 70
     0
  9
$DIMALTTZ
 70
     0
  9
$DIMUPT
 70
     0
  9
$DIMDEC
 70
     1
  9
$DIMTDEC
 70
     1
  9
$DIMALTU
 70
     2
  9
$DIMALTTD
 70
     3
  9
$DIMTXSTY
  7
Standard
  9
$DIMAUNIT
 70
     0
  9
$DIMADEC
 70
     1
  9
$DIMALTRND
 40
0.0
  9
$DIMAZIN
 70
     0
  9
$DIMDSEP
 70
    44
  9
$DIMATFIT
 70
     3
  9
$DIMFRAC
 70
     0
  9
$DIMLDRBLK
  1

  9
$DIMLUNIT
 70
     2
  9
$DIMLWD
 70
    -2
  9
$DIMLWE
 70
    -2
  9
$DIMTMOVE
 70
     0
  9
$LUNITS
 70
     2
  9
$LUPREC
 70
     1
  9
$SKETCHINC
 40
1.0
  9
$FILLETRAD
 40
10.0
  9
$AUNITS
 70
     0
  9
$AUPREC
 70
     1
  9
$MENU
  1
.
  9
$ELEVATION
 40
0.0
  9
$PELEVATION
 40
0.0
  9
$THICKNESS
 40
0.0
  9
$LIMCHECK
 70
     0
  9
$CHAMFERA
 40
0.0
  9
$CHAMFERB
 40
0.0
  9
$CHAMFERC
 40
0.0
  9
$CHAMFERD
 40
0.0
  9
$SKPOLY
 70
     0
  9
$TDCREATE
 40
2459500.645113692
  9
$TDUCREATE
 40
2459500.520113692
  9
$TDUPDATE
 40
2459500.645114178
  9
$TDUUPDATE
 40
2459500.520114178
  9
$TDINDWG
 40
0.0000000116
  9
$TDUSRTIMER
 40
0.0000000116
  9
$USRTIMER
 70
     1
  9
$ANGBASE
 50
0.0
  9
$ANGDIR
 70
     0
  9
$PDMODE
 70
     0
  9
$PDSIZE
 40
-1.0
  9
$PLINEWID
 40
0.0
  9
$SPLFRAME
 70
     0
  9
$SPLINETYPE
 70
     6
  9
$SPLINESEGS
 70
     8
  9
$HANDSEED
  5
5FF
  9
$SURFTAB1
 70
     6
  9
$SURFTAB2
 70
     6
  9
$SURFTYPE
 70
     6
  9
$SURFU
 70
     6
  9
$SURFV
 70
     6
  9
$UCSBASE
  2

  9
$UCSNAME
  2

  9
$UCSORG
 10
0.0
 20
0.0
 30
0.0
  9
$UCSXDIR
 10
1.0
 20
0.0
 30
0.0
  9
$UCSYDIR
 10
0.0
 20
1.0
 30
0.0
  9
$UCSORTHOREF
  2

  9
$UCSORTHOVIEW
 70
     0
  9
$UCSORGTOP
 10
0.0
 20
0.0
 30
0.0
  9
$UCSORGBOTTOM
 10
0.0
 20
0.0
 30
0.0
  9
$UCSORGLEFT
 10
0.0
 20
0.0
 30
0.0
  9
$UCSORGRIGHT
 10
0.0
 20
0.0
 30
0.0
  9
$UCSORGFRONT
 10
0.0
 20
0.0
 30
0.0
  9
$UCSORGBACK
 10
0.0
 20
0.0
 30
0.0
  9
$PUCSBASE
  2

  9
$PUCSNAME
  2

  9
$PUCSORG
 10
0.0
 20
0.0
 30
0.0
  9
$PUCSXDIR
 10
1.0
 20
0.0
 30
0.0
  9
$PUCSYDIR
 10
0.0
 20
1.0
 30
0.0
  9
$PUCSORTHOREF
  2

  9
$PUCSORTHOVIEW
 70
     0
  9
$PUCSORGTOP
 10
0.0
 20
0.0
 30
0.0
  9
$PUCSORGBOTTOM
 10
0.0
 20
0.0
 30
0.0
  9
$PUCSORGLEFT
 10
0.0
 20
0.0
 30
0.0
  9
$PUCSORGRIGHT
 10
0.0
 20
0.0
 30
0.0
  9
$PUCSORGFRONT
 10
0.0
 20
0.0
 30
0.0
  9
$PUCSORGBACK
 10
0.0
 20
0.0
 30
0.0
  9
$USERI1
 70
     0
  9
$USERI2
 70
     0
  9
$USERI3
 70
     0
  9
$USERI4
 70
     0
  9
$USERI5
 70
     0
  9
$USERR1
 40
0.0
  9
$USERR2
 40
0.0
  9
$USERR3
 40
0.0
  9
$USERR4
 40
0.0
  9
$USERR5
 40
0.0
  9
$WORLDVIEW
 70
     1
  9
$SHADEDGE
 70
     3
  9
$SHADEDIF
 70
    70
  9
$TILEMODE
 70
     1
  9
$MAXACTVP
 70
    64
  9
$PINSBASE
 10
0.0
 20
0.0
 30
0.0
  9
$PLIMCHECK
 70
     0
  9
$PEXTMIN
 10
1.0000000000E+20
 20
1.0000000000E+20
 30
1.0000000000E+20
  9
$PEXTMAX
 10
-1.0000000000E+20
 20
-1.0000000000E+20
 30
-1.0000000000E+20
  9
$PLIMMIN
 10
0.0
 20
0.0
  9
$PLIMMAX
 10
420.0
 20
297.0
  9
$UNITMODE
 70
     0
  9
$VISRETAIN
 70
     1
  9
$PLINEGEN
 70
     0
  9
$PSLTSCALE
 70
     1
  9
$TREEDEPTH
 70
  3020
  9
$CMLSTYLE
  2
Standard
  9
$CMLJUST
 70
     0
  9
$CMLSCALE
 40
20.0
  9
$PROXYGRAPHICS
 70
     1
  9
$MEASUREMENT
 70
     1
  9
$CELWEIGHT
370
    -1
  9
$ENDCAPS
280
     0
  9
$JOINSTYLE
280
     0
  9
$LWDISPLAY
290
     1
  9
$INSUNITS
 70
     4
  9
$HYPERLINKBASE
  1

  9
$STYLESHEET
  1

  9
$XEDIT
290
     1
  9
$CEPSNTYPE
380
     0
  9
$PSTYLEMODE
290
     1
  9
$FINGERPRINTGUID
  2
{0c98dd59-6ffd-44c9-863e-bb0231ba34e5}
  9
$VERSIONGUID
  2
{FAEB1C32-E019-11D5-929B-00C0DF256EC4}
  9
$EXTNAMES
290
     1
  9
$PSVPSCALE
 40
0.0
  9
$OLESTARTUP
290
     0
  0
ENDSEC
  0
SECTION
  2
CLASSES
  0
CLASS
  1
ACDBDICTIONARYWDFLT
  2
AcDbDictionaryWithDefault
  3
ObjectDBX Classes
 90
        0
280
     0
281
     0
  0
CLASS
  1
VISUALSTYLE
  2
AcDbVisualStyle
  3
ObjectDBX Classes
 90
     4095
280
     0
281
     0
  0
CLASS
  1
MATERIAL
  2
AcDbMaterial
  3
ObjectDBX Classes
 90
     1153
280
     0
281
     0
  0
CLASS
  1
SCALE
  2
AcDbScale
  3
ObjectDBX Classes
 90
     1153
280
     0
281
     0
  0
CLASS
  1
TABLESTYLE
  2
AcDbTableStyle
  3
ObjectDBX Classes
 90
     4095
280
     0
281
     0
  0
CLASS
  1
MLEADERSTYLE
  2
AcDbMLeaderStyle
  3
ACDB_MLEADERSTYLE_CLASS
 90
     4095
280
     0
281
     0
  0
CLASS
  1
SUN
  2
AcDbSun
  3
SCENEOE
 90
     1153
280
     0
281
     0
  0
CLASS
  1
ACDBPLACEHOLDER
  2
AcDbPlaceHolder
  3
ObjectDBX Classes
 90
        0
280
     0
281
     0
  0
CLASS
  1
LAYOUT
  2
AcDbLayout
  3
ObjectDBX Classes
 90
        0
280
     0
281
     0
  0
ENDSEC
  0
SECTION
  2
TABLES
  0
TABLE
  2
VPORT
  5
8
330
0
100
AcDbSymbolTable
 70
     1
  0
VPORT
  5
29
330
8
100
AcDbSymbolTableRecord
100
AcDbViewportTableRecord
  2
*Active
 70
     0
 10
0.0
 20
0.0
 11
1.0
 21
1.0
 12
210.0
 22
148.5
 13
0.0
 23
0.0
 14
10.0
 24
10.0
 15
10.0
 25
10.0
 16
0.0
 26
0.0
 36
1.0
 17
0.0
 27
0.0
 37
0.0
 40
297.0
 41
1.4141414141
 42
50.0
 43
0.0
 44
0.0
 50
0.0
 51
0.0
 71
     0
 72
  2000
 73
     1
 74
     3
 75
     0
 76
     0
 77
     0
 78
     0
281
     0
 65
     1
110
0.0
120
0.0
130
0.0
111
1.0
121
0.0
131
0.0
112
0.0
122
1.0
132
0.0
 79
     0
146
0.0
  0
ENDTAB
  0
TABLE
  2
LTYPE
  5
5
330
0
100
AcDbSymbolTable
 70
     6
  0
LTYPE
  5
14
330
5
100
AcDbSymbolTableRecord
100
AcDbLinetypeTableRecord
  2
ByBlock
 70
     0
  3

 72
    65
 73
     0
 40
0.0
  0
LTYPE
  5
15
330
5
100
AcDbSymbolTableRecord
100
AcDbLinetypeTableRecord
  2
ByLayer
 70
     0
  3

 72
    65
 73
     0
 40
0.0
  0
LTYPE
  5
16
330
5
100
AcDbSymbolTableRecord
100
AcDbLinetypeTableRecord
  2
Continuous
 70
     0
  3
Solid line
 72
    65
 73
     0
 40
0.0
  0
LTYPE
  5
6E
330
5
100
AcDbSymbolTableRecord
100
AcDbLinetypeTableRecord
  2
HIDDEN
 70
     0
  3
Hidden __ __ __ __ __ __ __ __ __ __ __ __ __ __
 72
    65
 73
     2
 40
1.905
 49
1.27
 74
     0
 49
-0.635
 74
     0
  0
LTYPE
  5
6F
330
5
100
AcDbSymbolTableRecord
100
AcDbLinetypeTableRecord
  2
PHANTOM
 70
     0
  3
Phantom ______  __  __  ______  __  __  ______
 72
    65
 73
     6
 40
12.7
 49
6.35
 74
     0
 49
-1.27
 74
     0
 49
1.27
 74
     0
 49
-1.27
 74
     0
 49
1.27
 74
     0
 49
-1.27
 74
     0
  0
LTYPE
  5
70
330
5
100
AcDbSymbolTableRecord
100
AcDbLinetypeTableRecord
  2
CENTER
 70
     0
  3
Center ____ _ ____ _ ____ _ ____ _ ____ _ ____
 72
    65
 73
     4
 40
10.16
 49
6.35
 74
     0
 49
-1.27
 74
     0
 49
1.27
 74
     0
 49
-1.27
 74
     0
  0
LTYPE
  5
71
330
5
100
AcDbSymbolTableRecord
100
AcDbLinetypeTableRecord
  2
CENTERX2
 70
     0
  3
Center (2x) ________  __  ________  __  _____
 72
    65
 73
     4
 40
20.32
 49
12.7
 74
     0
 49
-2.54
 74
     0
 49
2.54
 74
     0
 49
-2.54
 74
     0
  0
LTYPE
  5
72
330
5
100
AcDbSymbolTableRecord
100
AcDbLinetypeTableRecord
  2
DOT2
 70
     0
  3
Dot (.5x) ........................................
 72
    65
 73
     2
 40
0.635
 49
0.0
 74
     0
 49
-0.635
 74
     0
  0
ENDTAB
  0
TABLE
  2
LAYER
  5
2
330
0
100
AcDbSymbolTable
 70
     2
  0
LAYER
  5
10
330
2
100
AcDbSymbolTableRecord
100
AcDbLayerTableRecord
  2
0
 70
     0
 62
     7
  6
Continuous
370
    -3
390
F
  0
LAYER
  5
73
330
2
100
AcDbSymbolTableRecord
100
AcDbLayerTableRecord
  2
LENKIMO
 70
     0
 62
     1
  6
CENTERX2
370
    -3
390
F
  0
ENDTAB
  0
TABLE
  2
STYLE
  5
3
330
0
100
AcDbSymbolTable
 70
     2
  0
STYLE
  5
11
330
3
100
AcDbSymbolTableRecord
100
AcDbTextStyleTableRecord
  2
Standard
 70
     0
 40
0.0
 41
1.0
 50
0.0
 71
     0
 42
5.6444444444
  3
txt
  4

  0
STYLE
  5
81
330
3
100
AcDbSymbolTableRecord
100
AcDbTextStyleTableRecord
  2
SLDTEXTSTYLE0
 70
     0
 40
0.0
 41
0.605
 50
0.0
 71
     0
 42
5.6444444444
  3
TXT
  4

  0
ENDTAB
  0
TABLE
  2
VIEW
  5
6
330
0
100
AcDbSymbolTable
 70
     0
  0
ENDTAB
  0
TABLE
  2
UCS
  5
7
330
0
100
AcDbSymbolTable
 70
     0
  0
ENDTAB
  0
TABLE
  2
APPID
  5
9
330
0
100
AcDbSymbolTable
 70
     1
  0
APPID
  5
12
330
9
100
AcDbSymbolTableRecord
100
AcDbRegAppTableRecord
  2
ACAD
 70
     0
  0
ENDTAB
  0
TABLE
  2
DIMSTYLE
  5
A
330
0
100
AcDbSymbolTable
 70
     1
100
AcDbDimStyleTable
  0
DIMSTYLE
105
27
330
A
100
AcDbSymbolTableRecord
100
AcDbDimStyleTableRecord
  2
ISO-25
 70
     0
 41
2.5
 42
0.625
 43
3.75
 44
1.25
 73
     0
 74
     0
 77
     1
 78
     8
140
2.5
141
2.5
143
0.0393700787
147
0.625
171
     3
172
     1
178
     0
271
     2
272
     2
274
     3
278
    44
283
     0
284
     8
340
11
  0
ENDTAB
  0
TABLE
  2
BLOCK_RECORD
  5
1
330
0
100
AcDbSymbolTable
 70
     6
  0
BLOCK_RECORD
  5
1F
330
1
100
AcDbSymbolTableRecord
100
AcDbBlockTableRecord
  2
*Model_Space
340
22
  0
BLOCK_RECORD
  5
1B
330
1
100
AcDbSymbolTableRecord
100
AcDbBlockTableRecord
  2
*Paper_Space
340
1E
  0
BLOCK_RECORD
  5
23
330
1
100
AcDbSymbolTableRecord
100
AcDbBlockTableRecord
  2
*Paper_Space0
340
26
  0
BLOCK_RECORD
  5
74
330
1
100
AcDbSymbolTableRecord
100
AcDbBlockTableRecord
  2
ODA_2
340
0
102
{BLKREFS
331
213
102
}
  0
BLOCK_RECORD
  5
7E
330
1
100
AcDbSymbolTableRecord
100
AcDbBlockTableRecord
  2
SW_NOTE_0
340
0
102
{BLKREFS
331
83
102
}
  0
BLOCK_RECORD
  5
84
330
1
100
AcDbSymbolTableRecord
100
AcDbBlockTableRecord
  2
SUP_2_
340
0
102
{BLKREFS
331
214
102
}
  0
BLOCK_RECORD
  5
8E
330
1
100
AcDbSymbolTableRecord
100
AcDbBlockTableRecord
  2
SW_NOTE_0_1
340
0
102
{BLKREFS
331
92
102
}
  0
BLOCK_RECORD
  5
93
330
1
100
AcDbSymbolTableRecord
100
AcDbBlockTableRecord
  2
Block11_2
340
0
  0
ENDTAB
  0
ENDSEC
  0
SECTION
  2
BLOCKS
  0
BLOCK
  5
20
330
1F
100
AcDbEntity
  8
0
100
AcDbBlockBegin
  2
*Model_Space
 70
     0
 10
0.0
 20
0.0
 30
0.0
  3
*Model_Space
  1

  0
ENDBLK
  5
21
330
1F
100
AcDbEntity
  8
0
100
AcDbBlockEnd
  0
BLOCK
  5
1C
330
1B
100
AcDbEntity
 67
     1
  8
0
100
AcDbBlockBegin
  2
*Paper_Space
 70
     0
 10
0.0
 20
0.0
 30
0.0
  3
*Paper_Space
  1

  0
ENDBLK
  5
1D
330
1B
100
AcDbEntity
 67
     1
  8
0
100
AcDbBlockEnd
  0
BLOCK
  5
24
330
23
100
AcDbEntity
  8
0
100
AcDbBlockBegin
  2
*Paper_Space0
 70
     0
 10
0.0
 20
0.0
 30
0.0
  3
*Paper_Space0
  1

  0
ENDBLK
  5
25
330
23
100
AcDbEntity
  8
0
100
AcDbBlockEnd
  0
BLOCK
  5
75
330
74
100
AcDbEntity
  8
0
100
AcDbBlockBegin
  2
ODA_2
 70
     0
 10
0.0
 20
0.0
 30
0.0
  3
ODA_2
  1

  0
LINE
  5
77
330
74
100
AcDbEntity
  8
0
  6
Continuous
 62
     7
370
    18
100
AcDbLine
 10
-10.958767963
 20
2.5
 30
0.0
 11
-5.0
 21
-2.5
 31
0.0
  0
LINE
  5
78
330
74
100
AcDbEntity
  8
0
  6
Continuous
 62
     7
370
    18
100
AcDbLine
 10
-5.0
 20
-2.5
 30
0.0
 11
-5.0
 21
0.0
 31
0.0
  0
LINE
  5
79
330
74
100
AcDbEntity
  8
0
  6
Continuous
 62
     7
370
    18
100
AcDbLine
 10
-5.0
 20
0.0
 30
0.0
 11
5.0
 21
0.0
 31
0.0
  0
LINE
  5
7A
330
74
100
AcDbEntity
  8
0
  6
Continuous
 62
     7
370
    18
100
AcDbLine
 10
5.0
 20
0.0
 30
0.0
 11
5.0
 21
5.0
 31
0.0
  0
LINE
  5
7B
330
74
100
AcDbEntity
  8
0
  6
Continuous
 62
     7
370
    18
100
AcDbLine
 10
5.0
 20
5.0
 30
0.0
 11
-5.0
 21
5.0
 31
0.0
  0
LINE
  5
7C
330
74
100
AcDbEntity
  8
0
  6
Continuous
 62
     7
370
    18
100
AcDbLine
 10
-5.0
 20
5.0
 30
0.0
 11
-5.0
 21
7.5
 31
0.0
  0
LINE
  5
7D
330
74
100
AcDbEntity
  8
0
  6
Continuous
 62
     7
370
    18
100
AcDbLine
 10
-5.0
 20
7.5
 30
0.0
 11
-10.958767963
 21
2.5
 31
0.0
  0
INSERT
  5
83
330
74
100
AcDbEntity
  8
0
  6
Continuous
 62
     7
370
    18
100
AcDbBlockReference
  2
SW_NOTE_0
 10
-7.5124503659
 20
-0.180906557
 30
0.0
  0
ENDBLK
  5
76
330
74
100
AcDbEntity
  8
0
100
AcDbBlockEnd
  0
BLOCK
  5
7F
330
7E
100
AcDbEntity
  8
0
100
AcDbBlockBegin
  2
SW_NOTE_0
 70
     0
 10
0.0
 20
0.0
 30
0.0
  3
SW_NOTE_0
  1

  0
MTEXT
  5
82
330
7E
100
AcDbEntity
  8
0
  6
Continuous
 62
     0
370
    18
100
AcDbMText
 10
0.0
 20
4.7749217527
 30
0.0
 40
3.7041666667
 41
0.0
 71
     1
 72
     1
  1
ODA
  7
SLDTEXTSTYLE0
 73
     1
 44
1.0
  0
ENDBLK
  5
80
330
7E
100
AcDbEntity
  8
0
100
AcDbBlockEnd
  0
BLOCK
  5
85
330
84
100
AcDbEntity
  8
0
100
AcDbBlockBegin
  2
SUP_2_
 70
     0
 10
0.0
 20
0.0
 30
0.0
  3
SUP_2_
  1

  0
LINE
  5
87
330
84
100
AcDbEntity
  8
0
  6
Continuous
 62
     7
370
    18
100
AcDbLine
 10
-10.958767963
 20
2.5
 30
0.0
 11
-5.0
 21
-2.5
 31
0.0
  0
LINE
  5
88
330
84
100
AcDbEntity
  8
0
  6
Continuous
 62
     7
370
    18
100
AcDbLine
 10
-5.0
 20
-2.5
 30
0.0
 11
-5.0
 21
0.0
 31
0.0
  0
LINE
  5
89
330
84
100
AcDbEntity
  8
0
  6
Continuous
 62
     7
370
    18
100
AcDbLine
 10
-5.0
 20
0.0
 30
0.0
 11
5.0
 21
0.0
 31
0.0
  0
LINE
  5
8A
330
84
100
AcDbEntity
  8
0
  6
Continuous
 62
     7
370
    18
100
AcDbLine
 10
5.0
 20
0.0
 30
0.0
 11
5.0
 21
5.0
 31
0.0
  0
LINE
  5
8B
330
84
100
AcDbEntity
  8
0
  6
Continuous
 62
     7
370
    18
100
AcDbLine
 10
5.0
 20
5.0
 30
0.0
 11
-5.0
 21
5.0
 31
0.0
  0
LINE
  5
8C
330
84
100
AcDbEntity
  8
0
  6
Continuous
 62
     7
370
    18
100
AcDbLine
 10
-5.0
 20
5.0
 30
0.0
 11
-5.0
 21
7.5
 31
0.0
  0
LINE
  5
8D
330
84
100
AcDbEntity
  8
0
  6
Continuous
 62
     7
370
    18
100
AcDbLine
 10
-5.0
 20
7.5
 30
0.0
 11
-10.958767963
 21
2.5
 31
0.0
  0
INSERT
  5
92
330
84
100
AcDbEntity
  8
0
  6
Continuous
 62
     7
370
    18
100
AcDbBlockReference
  2
SW_NOTE_0_1
 10
-7.3511146643
 20
-0.194193237
 30
0.0
  0
ENDBLK
  5
86
330
84
100
AcDbEntity
  8
0
100
AcDbBlockEnd
  0
BLOCK
  5
8F
330
8E
100
AcDbEntity
  8
0
100
AcDbBlockBegin
  2
SW_NOTE_0_1
 70
     0
 10
0.0
 20
0.0
 30
0.0
  3
SW_NOTE_0_1
  1

  0
MTEXT
  5
91
330
8E
100
AcDbEntity
  8
0
  6
Continuous
 62
     0
370
    18
100
AcDbMText
 10
0.0
 20
4.7749217527
 30
0.0
 40
3.7041666667
 41
0.0
 71
     1
 72
     1
  1
SUP
  7
SLDTEXTSTYLE0
 73
     1
 44
1.0
  0
ENDBLK
  5
90
330
8E
100
AcDbEntity
  8
0
100
AcDbBlockEnd
  0
BLOCK
  5
94
330
93
100
AcDbEntity
  8
0
100
AcDbBlockBegin
  2
Block11_2
 70
     0
 10
0.0
 20
0.0
 30
0.0
  3
Block11_2
  1

  0
LINE
  5
96
330
93
100
AcDbEntity
  8
0
  6
Continuous
100
AcDbLine
 10
-15.7956326374
 20
2.3055746011
 30
0.0
 11
-18.0649288667
 21
1.8146036087
 31
0.0
  0
LINE
  5
97
330
93
100
AcDbEntity
  8
0
  6
Continuous
100
AcDbLine
 10
-15.6988785554
 20
-9.1195335787
 30
0.0
 11
-10.2261014967
 21
-7.9354771524
 31
0.0
  0
LINE
  5
98
330
93
100
AcDbEntity
  8
0
  6
Continuous
100
AcDbLine
 10
-10.2261014967
 20
-7.9354771524
 30
0.0
 11
-10.6655808869
 21
-5.9041780766
 31
0.0
  0
LINE
  5
99
330
93
100
AcDbEntity
  8
0
  6
Continuous
100
AcDbLine
 10
-10.6655808869
 20
-5.9041780766
 30
0.0
 11
-13.8699456036
 21
-6.5974547429
 31
0.0
  0
LINE
  5
9A
330
93
100
AcDbEntity
  8
0
  6
Continuous
100
AcDbLine
 10
-8.296070931
 20
1.802048972
 30
0.0
 11
-6.9198111955
 21
2.0998080743
 31
0.0
  0
LINE
  5
9B
330
93
100
AcDbEntity
  8
0
  6
Continuous
100
AcDbLine
 10
-5.4333831358
 20
-4.7719736412
 30
0.0
 11
-6.8095376466
 21
-5.0697099777
 31
0.0
  0
LINE
  5
9C
330
93
100
AcDbEntity
  8
0
  6
Continuous
100
AcDbLine
 10
-11.0044904538
 20
3.3421566929
 30
0.0
 11
-8.6388294738
 21
-7.5920647278
 31
0.0
  0
LINE
  5
9D
330
93
100
AcDbEntity
  8
0
  6
Continuous
100
AcDbLine
 10
-8.6388294738
 20
-7.5920647278
 30
0.0
 11
-8.6384401425
 21
-7.5919804944
 31
0.0
  0
LINE
  5
9E
330
93
100
AcDbEntity
  8
0
  6
Continuous
100
AcDbLine
 10
-8.6384401425
 20
-7.5919804944
 30
0.0
 11
-4.4940245505
 21
-6.6953201952
 31
0.0
  0
LINE
  5
9F
330
93
100
AcDbEntity
  8
0
  6
Continuous
100
AcDbLine
 10
-6.8595855671
 20
4.238922853
 30
0.0
 11
-11.0044904538
 21
3.3421566929
 31
0.0
  0
LINE
  5
A0
330
93
100
AcDbEntity
  8
0
  6
Continuous
100
AcDbLine
 10
-32.9933593229
 20
-3.3005605139
 30
0.0
 11
-32.8591663041
 21
-3.2715273367
 31
0.0
  0
LINE
  5
A1
330
93
100
AcDbEntity
  8
0
  6
Continuous
100
AcDbLine
 10
-31.5697721187
 20
-3.9678201523
 30
0.0
 11
-29.2969561243
 21
-3.4760876451
 31
0.0
  0
LINE
  5
A2
330
93
100
AcDbEntity
  8
0
  6
Continuous
100
AcDbLine
 10
-33.2794920496
 20
-1.2667721217
 30
0.0
 11
-33.3448839193
 21
-1.2809199049
 31
0.0
  0
LINE
  5
A3
330
93
100
AcDbEntity
  8
0
  6
Continuous
100
AcDbLine
 10
-31.3289079349
 20
-10.5856399919
 30
0.0
 11
-31.4650581325
 21
-10.6150966123
 31
0.0
  0
LINE
  5
A4
330
93
100
AcDbEntity
  8
0
  6
Continuous
100
AcDbLine
 10
-32.8822392925
 20
-9.9377601564
 30
0.0
 11
-35.1888692339
 21
-10.4368084414
 31
0.0
  0
LINE
  5
A5
330
93
100
AcDbEntity
  8
0
  6
Continuous
100
AcDbLine
 10
-31.5949683304
 20
-12.7295787952
 30
0.0
 11
-30.2063920476
 21
-12.4291549603
 31
0.0
  0
LINE
  5
A6
330
93
100
AcDbEntity
  8
0
  6
Continuous
100
AcDbLine
 10
6.262509235
 20
-4.3681026205
 30
0.0
 11
8.6370616994
 21
-3.8543590356
 31
0.0
  0
LINE
  5
A7
330
93
100
AcDbEntity
  8
0
  6
Continuous
100
AcDbLine
 10
8.6370616994
 20
-3.8543590356
 30
0.0
 11
3.9059396663
 21
6.5680857621
 31
0.0
  0
LINE
  5
A8
330
93
100
AcDbEntity
  8
0
  6
Continuous
100
AcDbLine
 10
3.9059396663
 20
6.5680857621
 30
0.0
 11
0.0
 21
5.7230206493
 31
0.0
  0
LINE
  5
A9
330
93
100
AcDbEntity
  8
0
  6
Continuous
100
AcDbLine
 10
0.0
 20
5.7230206493
 30
0.0
 11
0.0
 21
-5.7230206493
 31
0.0
  0
LINE
  5
AA
330
93
100
AcDbEntity
  8
0
  6
Continuous
100
AcDbLine
 10
0.0
 20
-5.7230206493
 30
0.0
 11
2.3746576891
 21
-5.2092542987
 31
0.0
  0
LINE
  5
AB
330
93
100
AcDbEntity
  8
0
  6
Continuous
100
AcDbLine
 10
2.3746576891
 20
-5.2092542987
 30
0.0
 11
2.3747844598
 21
-3.0912381741
 31
0.0
  0
LINE
  5
AC
330
93
100
AcDbEntity
  8
0
  6
Continuous
100
AcDbLine
 10
2.3747844598
 20
-3.0912381741
 30
0.0
 11
4.0318309599
 21
-2.7327297722
 31
0.0
  0
LINE
  5
AD
330
93
100
AcDbEntity
  8
0
  6
Continuous
100
AcDbLine
 10
4.0318309599
 20
-2.7327297722
 30
0.0
 11
3.5923515697
 21
-0.7014306964
 31
0.0
  0
LINE
  5
AE
330
93
100
AcDbEntity
  8
0
  6
Continuous
100
AcDbLine
 10
3.5923515697
 20
-0.7014306964
 30
0.0
 11
2.3750284336
 21
-0.9648032524
 31
0.0
  0
LINE
  5
AF
330
93
100
AcDbEntity
  8
0
  6
Continuous
100
AcDbLine
 10
2.3750284336
 20
-0.9648032524
 30
0.0
 11
2.3752084601
 21
4.1936873712
 31
0.0
  0
LINE
  5
B0
330
93
100
AcDbEntity
  8
0
  6
Continuous
100
AcDbLine
 10
2.3752084601
 20
4.1936873712
 30
0.0
 11
6.262509235
 21
-4.3681026205
 31
0.0
  0
LINE
  5
B1
330
93
100
AcDbEntity
  8
0
  6
Continuous
100
AcDbLine
 10
-53.0629352118
 20
-11.4801779454
 30
0.0
 11
-50.7945341276
 21
-8.0228043203
 31
0.0
  0
LINE
  5
B2
330
93
100
AcDbEntity
  8
0
  6
Continuous
100
AcDbLine
 10
-50.7945341276
 20
-8.0228043203
 30
0.0
 11
-54.2891069366
 21
-5.8122833411
 31
0.0
  0
LINE
  5
B3
330
93
100
AcDbEntity
  8
0
  6
Continuous
100
AcDbLine
 10
-54.2891069366
 20
-5.8122833411
 30
0.0
 11
-51.4073820962
 21
-5.1888110564
 31
0.0
  0
LINE
  5
B4
330
93
100
AcDbEntity
  8
0
  6
Continuous
100
AcDbLine
 10
-51.4073820962
 20
-5.1888110564
 30
0.0
 11
-47.9127327975
 21
-7.3992273667
 31
0.0
  0
LINE
  5
B5
330
93
100
AcDbEntity
  8
0
  6
Continuous
100
AcDbLine
 10
-47.9127327975
 20
-7.3992273667
 30
0.0
 11
-50.1813587974
 21
-10.8569360435
 31
0.0
  0
LINE
  5
B6
330
93
100
AcDbEntity
  8
0
  6
Continuous
100
AcDbLine
 10
-50.1813587974
 20
-10.8569360435
 30
0.0
 11
-53.0628942334
 21
-11.4803673498
 31
0.0
  0
LINE
  5
B7
330
93
100
AcDbEntity
  8
0
  6
Continuous
100
AcDbLine
 10
-53.0628942334
 20
-11.4803673498
 30
0.0
 11
-53.0629352118
 21
-11.4801779454
 31
0.0
  0
LINE
  5
B8
330
93
100
AcDbEntity
  8
0
  6
Continuous
100
AcDbLine
 10
-42.7624916815
 20
-3.31845567
 30
0.0
 11
-45.0307950789
 21
-6.7757971452
 31
0.0
  0
LINE
  5
B9
330
93
100
AcDbEntity
  8
0
  6
Continuous
100
AcDbLine
 10
-45.0307950789
 20
-6.7757971452
 30
0.0
 11
-48.5254573289
 21
-4.5652955168
 31
0.0
  0
LINE
  5
BA
330
93
100
AcDbEntity
  8
0
  6
Continuous
100
AcDbLine
 10
-48.5254573289
 20
-4.5652955168
 30
0.0
 11
-48.5257466967
 21
-4.5653581227
 31
0.0
  0
LINE
  5
BB
330
93
100
AcDbEntity
  8
0
  6
Continuous
100
AcDbLine
 10
-48.5257466967
 20
-4.5653581227
 30
0.0
 11
-47.9126146215
 21
-7.399289919
 31
0.0
  0
LINE
  5
BC
330
93
100
AcDbEntity
  8
0
  6
Continuous
100
AcDbLine
 10
-47.9126146215
 20
-7.399289919
 30
0.0
 11
-44.4177372167
 21
-9.6098441329
 31
0.0
  0
LINE
  5
BD
330
93
100
AcDbEntity
  8
0
  6
Continuous
100
AcDbLine
 10
-44.4177372167
 20
-9.6098441329
 30
0.0
 11
-42.1490649772
 21
-6.1523237222
 31
0.0
  0
LINE
  5
BE
330
93
100
AcDbEntity
  8
0
  6
Continuous
100
AcDbLine
 10
-42.1490649772
 20
-6.1523237222
 30
0.0
 11
-42.7621970524
 21
-3.3183919259
 31
0.0
  0
LINE
  5
BF
330
93
100
AcDbEntity
  8
0
  6
Continuous
100
AcDbLine
 10
-42.7621970524
 20
-3.3183919259
 30
0.0
 11
-42.7624916815
 21
-3.31845567
 31
0.0
  0
LINE
  5
C0
330
93
100
AcDbEntity
  8
0
  6
Continuous
100
AcDbLine
 10
-41.535889647
 20
-8.9864554454
 30
0.0
 11
-43.8045413973
 21
-12.4440705583
 31
0.0
  0
LINE
  5
C1
330
93
100
AcDbEntity
  8
0
  6
Continuous
100
AcDbLine
 10
-43.8045413973
 20
-12.4440705583
 30
0.0
 11
-40.3564529382
 21
-14.625159785
 31
0.0
  0
LINE
  5
C2
330
93
100
AcDbEntity
  8
0
  6
Continuous
100
AcDbLine
 10
-40.3564529382
 20
-14.625159785
 30
0.0
 11
-43.2382724808
 21
-15.2486525588
 31
0.0
  0
LINE
  5
C3
330
93
100
AcDbEntity
  8
0
  6
Continuous
100
AcDbLine
 10
-43.2382724808
 20
-15.2486525588
 30
0.0
 11
-46.686243472
 21
-13.0676480676
 31
0.0
  0
LINE
  5
C4
330
93
100
AcDbEntity
  8
0
  6
Continuous
100
AcDbLine
 10
-46.686243472
 20
-13.0676480676
 30
0.0
 11
-44.4177144509
 21
-9.6099493576
 31
0.0
  0
LINE
  5
C5
330
93
100
AcDbEntity
  8
0
  6
Continuous
100
AcDbLine
 10
-44.4177144509
 20
-9.6099493576
 30
0.0
 11
-41.535889647
 21
-8.9864554454
 31
0.0
  0
LINE
  5
C6
330
93
100
AcDbEntity
  8
0
  6
Continuous
100
AcDbLine
 10
-51.8063383656
 20
-17.1023866618
 30
0.0
 11
-49.5681857438
 21
-13.6910572443
 31
0.0
  0
LINE
  5
C7
330
93
100
AcDbEntity
  8
0
  6
Continuous
100
AcDbLine
 10
-49.5681857438
 20
-13.6910572443
 30
0.0
 11
-46.1199973213
 21
-15.8721248435
 31
0.0
  0
LINE
  5
C8
330
93
100
AcDbEntity
  8
0
  6
Continuous
100
AcDbLine
 10
-46.1199973213
 20
-15.8721248435
 30
0.0
 11
-46.0813956519
 21
-15.8637732234
 31
0.0
  0
LINE
  5
C9
330
93
100
AcDbEntity
  8
0
  6
Continuous
100
AcDbLine
 10
-46.0813956519
 20
-15.8637732234
 30
0.0
 11
-46.6863662012
 21
-13.0675644704
 31
0.0
  0
LINE
  5
CA
330
93
100
AcDbEntity
  8
0
  6
Continuous
100
AcDbLine
 10
-46.6863662012
 20
-13.0675644704
 30
0.0
 11
-50.1813587974
 21
-10.8569360435
 31
0.0
  0
LINE
  5
CB
330
93
100
AcDbEntity
  8
0
  6
Continuous
100
AcDbLine
 10
-50.1813587974
 20
-10.8569360435
 30
0.0
 11
-52.4497621582
 21
-14.3142991462
 31
0.0
  0
LINE
  5
CC
330
93
100
AcDbEntity
  8
0
  6
Continuous
100
AcDbLine
 10
-52.4497621582
 20
-14.3142991462
 30
0.0
 11
-51.8447506306
 21
-17.1106973035
 31
0.0
  0
LINE
  5
CD
330
93
100
AcDbEntity
  8
0
  6
Continuous
100
AcDbLine
 10
-51.8447506306
 20
-17.1106973035
 30
0.0
 11
-51.8063383656
 21
-17.1023866618
 31
0.0
  0
LINE
  5
CE
330
93
100
AcDbEntity
  8
0
  6
Continuous
100
AcDbLine
 10
-20.0432683672
 20
-10.0594590717
 30
0.0
 11
-17.6687053803
 21
-9.5457132103
 31
0.0
  0
LINE
  5
CF
330
93
100
AcDbEntity
  8
0
  6
Continuous
100
AcDbLine
 10
-17.6687053803
 20
-9.5457132103
 30
0.0
 11
-22.3998379359
 21
0.8767293109
 31
0.0
  0
LINE
  5
D0
330
93
100
AcDbEntity
  8
0
  6
Continuous
100
AcDbLine
 10
-22.3998379359
 20
0.8767293109
 30
0.0
 11
-26.3058670432
 21
0.0316448472
 31
0.0
  0
LINE
  5
D1
330
93
100
AcDbEntity
  8
0
  6
Continuous
100
AcDbLine
 10
-26.3058670432
 20
0.0316448472
 30
0.0
 11
-26.3056723775
 21
-11.4143543348
 31
0.0
  0
LINE
  5
D2
330
93
100
AcDbEntity
  8
0
  6
Continuous
100
AcDbLine
 10
-26.3056723775
 20
-11.4143543348
 30
0.0
 11
-23.9311146519
 21
-10.9006096116
 31
0.0
  0
LINE
  5
D3
330
93
100
AcDbEntity
  8
0
  6
Continuous
100
AcDbLine
 10
-23.9311146519
 20
-10.9006096116
 30
0.0
 11
-23.9309931424
 21
-8.7825946253
 31
0.0
  0
LINE
  5
D4
330
93
100
AcDbEntity
  8
0
  6
Continuous
100
AcDbLine
 10
-23.9309931424
 20
-8.7825946253
 30
0.0
 11
-22.2738308951
 21
-8.4240611811
 31
0.0
  0
LINE
  5
D5
330
93
100
AcDbEntity
  8
0
  6
Continuous
100
AcDbLine
 10
-22.2738308951
 20
-8.4240611811
 30
0.0
 11
-22.7133102854
 21
-6.3927621053
 31
0.0
  0
LINE
  5
D6
330
93
100
AcDbEntity
  8
0
  6
Continuous
100
AcDbLine
 10
-22.7133102854
 20
-6.3927621053
 30
0.0
 11
-23.9308333483
 21
-6.6561779162
 31
0.0
  0
LINE
  5
D7
330
93
100
AcDbEntity
  8
0
  6
Continuous
100
AcDbLine
 10
-23.9308333483
 20
-6.6561779162
 30
0.0
 11
-23.9305586196
 21
-1.4976668035
 31
0.0
  0
LINE
  5
D8
330
93
100
AcDbEntity
  8
0
  6
Continuous
100
AcDbLine
 10
-23.9305586196
 20
-1.4976668035
 30
0.0
 11
-20.0432683672
 21
-10.0594590717
 31
0.0
  0
SPLINE
  5
D9
330
93
100
AcDbEntity
  8
0
100
AcDbSpline
210
0.0
220
0.0
230
1.0
 70
     8
 71
     3
 72
     8
 73
     4
 74
     0
 42
0.00000001
 43
0.00000001
 40
0.0
 40
0.0
 40
0.0
 40
0.0
 40
1.0
 40
1.0
 40
1.0
 40
1.0
 10
-13.86994560355125
 20
-6.597454742918429
 30
0.0
 10
-13.88373254946556
 20
-6.53373068413859
 30
0.0
 10
-15.11365515797402
 20
-0.8489574873494021
 30
0.0
 10
-15.79563263740206
 20
2.305574601061459
 30
0.0
  0
SPLINE
  5
DA
330
93
100
AcDbEntity
  8
0
100
AcDbSpline
210
0.0
220
0.0
230
1.0
 70
     8
 71
     3
 72
     8
 73
     4
 74
     0
 42
0.00000001
 43
0.00000001
 40
2.0
 40
2.0
 40
2.0
 40
2.0
 40
3.0
 40
3.0
 40
3.0
 40
3.0
 10
-18.06492886668426
 20
1.814603608696524
 30
0.0
 10
-17.24003965005502
 20
-1.995739949107536
 30
0.0
 10
-15.71186186991051
 20
-9.059523950669432
 30
0.0
 10
-15.69887855542093
 20
-9.119533578677906
 30
0.0
  0
SPLINE
  5
DB
330
93
100
AcDbEntity
  8
0
100
AcDbSpline
210
0.0
220
0.0
230
1.0
 70
     8
 71
     3
 72
     8
 73
     4
 74
     0
 42
0.00000001
 43
0.00000001
 40
0.0
 40
0.0
 40
0.0
 40
0.0
 40
1.0
 40
1.0
 40
1.0
 40
1.0
 10
-6.809537646582547
 20
-5.069709977697404
 30
0.0
 10
-7.284290309572815
 20
-2.875375801708635
 30
0.0
 10
-7.897830097865885
 20
-0.0390758678013329
 30
0.0
 10
-8.296070930952649
 20
1.80204897196991
 30
0.0
  0
SPLINE
  5
DC
330
93
100
AcDbEntity
  8
0
100
AcDbSpline
210
0.0
220
0.0
230
1.0
 70
     8
 71
     3
 72
     8
 73
     4
 74
     0
 42
0.00000001
 43
0.00000001
 40
2.0
 40
2.0
 40
2.0
 40
2.0
 40
3.0
 40
3.0
 40
3.0
 40
3.0
 10
-6.919811195494074
 20
2.099808074263809
 30
0.0
 10
-6.228016878711183
 20
2.249480443098069
 30
0.0
 10
-5.547633595833446
 20
1.815851349115847
 30
0.0
 10
-5.399398884916104
 20
1.130701970100344
 30
0.0
  0
SPLINE
  5
DD
330
93
100
AcDbEntity
  8
0
100
AcDbSpline
210
0.0
220
0.0
230
1.0
 70
     8
 71
     3
 72
     8
 73
     4
 74
     0
 42
0.00000001
 43
0.00000001
 40
3.0
 40
3.0
 40
3.0
 40
3.0
 40
4.0
 40
4.0
 40
4.0
 40
4.0
 10
-5.399398884916104
 20
1.130701970100344
 30
0.0
 10
-5.107009087764085
 20
-0.2207405274728672
 30
0.0
 10
-4.711497421058354
 20
-2.048334586467611
 30
0.0
 10
-4.449160707297047
 20
-3.260870000165379
 30
0.0
  0
SPLINE
  5
DE
330
93
100
AcDbEntity
  8
0
100
AcDbSpline
210
0.0
220
0.0
230
1.0
 70
     8
 71
     3
 72
     8
 73
     4
 74
     0
 42
0.00000001
 43
0.00000001
 40
4.0
 40
4.0
 40
4.0
 40
4.0
 40
5.0
 40
5.0
 40
5.0
 40
5.0
 10
-4.449160707297047
 20
-3.260870000165379
 30
0.0
 10
-4.300905507193207
 20
-3.946114081381999
 30
0.0
 10
-4.741570606399121
 20
-4.622385452066122
 30
0.0
 10
-5.433383135791953
 20
-4.771973641166296
 30
0.0
  0
SPLINE
  5
DF
330
93
100
AcDbEntity
  8
0
100
AcDbSpline
210
0.0
220
0.0
230
1.0
 70
     8
 71
     3
 72
     8
 73
     4
 74
     0
 42
0.00000001
 43
0.00000001
 40
3.0
 40
3.0
 40
3.0
 40
3.0
 40
4.0
 40
4.0
 40
4.0
 40
4.0
 10
-4.494024550545999
 20
-6.695320195210662
 30
0.0
 10
-2.825524345390513
 20
-6.334333740063992
 30
0.0
 10
-1.762658323115034
 20
-4.702068307882374
 30
0.0
 10
-2.120071189640999
 20
-3.049576315093403
 30
0.0
  0
SPLINE
  5
E0
330
93
100
AcDbEntity
  8
0
100
AcDbSpline
210
0.0
220
0.0
230
1.0
 70
     8
 71
     3
 72
     8
 73
     4
 74
     0
 42
0.00000001
 43
0.00000001
 40
4.0
 40
4.0
 40
4.0
 40
4.0
 40
5.0
 40
5.0
 40
5.0
 40
5.0
 10
-2.120071189640999
 20
-3.049576315093403
 30
0.0
 10
-2.485983017556096
 20
-1.358310753073632
 30
0.0
 10
-2.867352798370483
 20
0.4044023583376265
 30
0.0
 10
-3.190995488197396
 20
1.900704823656681
 30
0.0
  0
SPLINE
  5
E1
330
93
100
AcDbEntity
  8
0
100
AcDbSpline
210
0.0
220
0.0
230
1.0
 70
     8
 71
     3
 72
     8
 73
     4
 74
     0
 42
0.00000001
 43
0.00000001
 40
5.0
 40
5.0
 40
5.0
 40
5.0
 40
6.0
 40
6.0
 40
6.0
 40
6.0
 10
-3.190995488197396
 20
1.900704823656681
 30
0.0
 10
-3.54857504695031
 20
3.553458157285876
 30
0.0
 10
-5.190901218780231
 20
4.599949148191988
 30
0.0
 10
-6.859585567104196
 20
4.238922852960538
 30
0.0
  0
SPLINE
  5
E2
330
93
100
AcDbEntity
  8
0
100
AcDbSpline
210
0.0
220
0.0
230
1.0
 70
     8
 71
     3
 72
     8
 73
     4
 74
     0
 42
0.00000001
 43
0.00000001
 40
0.0
 40
0.0
 40
0.0
 40
0.0
 40
1.0
 40
1.0
 40
1.0
 40
1.0
 10
-30.23703582864644
 20
-6.251438951366732
 30
0.0
 10
-30.9104300186728
 20
-6.015603382360459
 30
0.0
 10
-31.40848551125485
 20
-5.893156856121871
 30
0.0
 10
-32.67210357750635
 20
-5.496689523479785
 30
0.0
  0
SPLINE
  5
E3
330
93
100
AcDbEntity
  8
0
100
AcDbSpline
210
0.0
220
0.0
230
1.0
 70
     8
 71
     3
 72
     8
 73
     4
 74
     0
 42
0.00000001
 43
0.00000001
 40
1.0
 40
1.0
 40
1.0
 40
1.0
 40
2.0
 40
2.0
 40
2.0
 40
2.0
 10
-32.67210357750635
 20
-5.496689523479785
 30
0.0
 10
-33.03332194555517
 20
-5.383421617718132
 30
0.0
 10
-33.81210282496122
 20
-5.206692347750555
 30
0.0
 10
-33.94849250952588
 20
-4.576291363356936
 30
0.0
  0
SPLINE
  5
E4
330
93
100
AcDbEntity
  8
0
100
AcDbSpline
210
0.0
220
0.0
230
1.0
 70
     8
 71
     3
 72
     8
 73
     4
 74
     0
 42
0.00000001
 43
0.00000001
 40
2.0
 40
2.0
 40
2.0
 40
2.0
 40
3.0
 40
3.0
 40
3.0
 40
3.0
 10
-33.94849250952588
 20
-4.576291363356936
 30
0.0
 10
-34.11622381965225
 20
-3.801027578894063
 30
0.0
 10
-33.67528356585564
 20
-3.448097454184924
 30
0.0
 10
-32.99335932290604
 20
-3.30056051389548
 30
0.0
  0
SPLINE
  5
E5
330
93
100
AcDbEntity
  8
0
100
AcDbSpline
210
0.0
220
0.0
230
1.0
 70
     8
 71
     3
 72
     8
 73
     4
 74
     0
 42
0.00000001
 43
0.00000001
 40
4.0
 40
4.0
 40
4.0
 40
4.0
 40
5.0
 40
5.0
 40
5.0
 40
5.0
 10
-32.85916630414497
 20
-3.271527336675416
 30
0.0
 10
-32.2786944245911
 20
-3.14594000653005
 30
0.0
 10
-31.77109773641243
 20
-3.328116480283148
 30
0.0
 10
-31.56977211870437
 20
-3.967820152272103
 30
0.0
  0
SPLINE
  5
E6
330
93
100
AcDbEntity
  8
0
100
AcDbSpline
210
0.0
220
0.0
230
1.0
 70
     8
 71
     3
 72
     8
 73
     4
 74
     0
 42
0.00000001
 43
0.00000001
 40
6.0
 40
6.0
 40
6.0
 40
6.0
 40
7.0
 40
7.0
 40
7.0
 40
7.0
 10
-29.29695612428625
 20
-3.476087645143529
 30
0.0
 10
-29.68810071971012
 20
-1.866802583842748
 30
0.0
 10
-30.87776107222441
 20
-0.7599478056671497
 30
0.0
 10
-33.27949204955325
 20
-1.266772121690862
 30
0.0
  0
SPLINE
  5
E7
330
93
100
AcDbEntity
  8
0
100
AcDbSpline
210
0.0
220
0.0
230
1.0
 70
     8
 71
     3
 72
     8
 73
     4
 74
     0
 42
0.00000001
 43
0.00000001
 40
8.0
 40
8.0
 40
8.0
 40
8.0
 40
9.0
 40
9.0
 40
9.0
 40
9.0
 10
-33.34488391931659
 20
-1.280919904944554
 30
0.0
 10
-35.81152992452102
 20
-1.828202838410209
 30
0.0
 10
-36.33378487826545
 20
-3.54465012997844
 30
0.0
 10
-36.09207577942843
 20
-4.962606301827474
 30
0.0
  0
SPLINE
  5
E8
330
93
100
AcDbEntity
  8
0
100
AcDbSpline
210
0.0
220
0.0
230
1.0
 70
     8
 71
     3
 72
     8
 73
     4
 74
     0
 42
0.00000001
 43
0.00000001
 40
9.0
 40
9.0
 40
9.0
 40
9.0
 40
10.0
 40
10.0
 40
10.0
 40
10.0
 10
-36.09207577942843
 20
-4.962606301827474
 30
0.0
 10
-35.83736690020325
 20
-6.457652824126185
 30
0.0
 10
-34.96800490008025
 20
-7.196828812263726
 30
0.0
 10
-33.99931718292642
 20
-7.502708028683521
 30
0.0
  0
SPLINE
  5
E9
330
93
100
AcDbEntity
  8
0
100
AcDbSpline
210
0.0
220
0.0
230
1.0
 70
     8
 71
     3
 72
     8
 73
     4
 74
     0
 42
0.00000001
 43
0.00000001
 40
10.0
 40
10.0
 40
10.0
 40
10.0
 40
11.0
 40
11.0
 40
11.0
 40
11.0
 10
-33.99931718292642
 20
-7.502708028683521
 30
0.0
 10
-33.40907414696034
 20
-7.689011641945549
 30
0.0
 10
-32.48616403135102
 20
-7.975318844696811
 30
0.0
 10
-31.47547483016511
 20
-8.271505052332133
 30
0.0
  0
SPLINE
  5
EA
330
93
100
AcDbEntity
  8
0
100
AcDbSpline
210
0.0
220
0.0
230
1.0
 70
     8
 71
     3
 72
     8
 73
     4
 74
     0
 42
0.00000001
 43
0.00000001
 40
11.0
 40
11.0
 40
11.0
 40
11.0
 40
12.0
 40
12.0
 40
12.0
 40
12.0
 10
-31.47547483016511
 20
-8.271505052332133
 30
0.0
 10
-31.11213516930565
 20
-8.377980375833697
 30
0.0
 10
-30.40258052645035
 20
-8.55729511966404
 30
0.0
 10
-30.28870163819746
 20
-9.336631754491275
 30
0.0
  0
SPLINE
  5
EB
330
93
100
AcDbEntity
  8
0
100
AcDbSpline
210
0.0
220
0.0
230
1.0
 70
     8
 71
     3
 72
     8
 73
     4
 74
     0
 42
0.00000001
 43
0.00000001
 40
12.0
 40
12.0
 40
12.0
 40
12.0
 40
13.0
 40
13.0
 40
13.0
 40
13.0
 10
-30.28870163819746
 20
-9.336631754491275
 30
0.0
 10
-30.1883718252622
 20
-10.02498578462436
 30
0.0
 10
-30.64014408852681
 20
-10.43662327702193
 30
0.0
 10
-31.32890793487913
 20
-10.58563999188937
 30
0.0
  0
SPLINE
  5
EC
330
93
100
AcDbEntity
  8
0
100
AcDbSpline
210
0.0
220
0.0
230
1.0
 70
     8
 71
     3
 72
     8
 73
     4
 74
     0
 42
0.00000001
 43
0.00000001
 40
14.0
 40
14.0
 40
14.0
 40
14.0
 40
15.0
 40
15.0
 40
15.0
 40
15.0
 10
-31.46505813246006
 20
-10.61509661229636
 30
0.0
 10
-32.05208024758041
 20
-10.74210111117219
 30
0.0
 10
-32.71260096537058
 20
-10.55064660173623
 30
0.0
 10
-32.8822392924921
 20
-9.937760156430087
 30
0.0
  0
SPLINE
  5
ED
330
93
100
AcDbEntity
  8
0
100
AcDbSpline
210
0.0
220
0.0
230
1.0
 70
     8
 71
     3
 72
     8
 73
     4
 74
     0
 42
0.00000001
 43
0.00000001
 40
16.0
 40
16.0
 40
16.0
 40
16.0
 40
17.0
 40
17.0
 40
17.0
 40
17.0
 10
-35.1888692338865
 20
-10.43680844141459
 30
0.0
 10
-34.81471685749703
 20
-11.8843133271045
 30
0.0
 10
-33.72975075395794
 20
-12.95131992706823
 30
0.0
 10
-31.59496833044066
 20
-12.72957879515504
 30
0.0
  0
SPLINE
  5
EE
330
93
100
AcDbEntity
  8
0
100
AcDbSpline
210
0.0
220
0.0
230
1.0
 70
     8
 71
     3
 72
     8
 73
     4
 74
     0
 42
0.00000001
 43
0.00000001
 40
18.0
 40
18.0
 40
18.0
 40
18.0
 40
19.0
 40
19.0
 40
19.0
 40
19.0
 10
-30.20639204762402
 20
-12.42915496033268
 30
0.0
 10
-28.36320980349184
 20
-11.79454394754582
 30
0.0
 10
-27.78707037380765
 20
-10.41512978795686
 30
0.0
 10
-27.91988511866083
 20
-9.073464993912006
 30
0.0
  0
SPLINE
  5
EF
330
93
100
AcDbEntity
  8
0
100
AcDbSpline
210
0.0
220
0.0
230
1.0
 70
     8
 71
     3
 72
     8
 73
     4
 74
     0
 42
0.00000001
 43
0.00000001
 40
19.0
 40
19.0
 40
19.0
 40
19.0
 40
20.0
 40
20.0
 40
20.0
 40
20.0
 10
-27.91988511866083
 20
-9.073464993912006
 30
0.0
 10
-28.12563217330358
 20
-6.994152508733083
 30
0.0
 10
-29.51271678483619
 20
-6.50510505043454
 30
0.0
 10
-30.23703582864644
 20
-6.251438951366732
 30
0.0
  0
HATCH
  5
F0
330
93
100
AcDbEntity
  8
0
100
AcDbHatch
 10
0.0
 20
0.0
 30
0.0
210
0.0
220
0.0
230
1.0
  2
SOLID
 70
     1
 71
     0
 91
        1
 92
        0
 93
        7
 72
     1
 10
-53.06293521179145
 20
-11.48017794540906
 11
-53.0628942334185
 21
-11.48036734981106
 72
     1
 10
-53.0628942334185
 20
-11.48036734981106
 11
-50.18135879739363
 21
-10.85693604353014
 72
     1
 10
-50.18135879739363
 20
-10.85693604353014
 11
-47.91273279754322
 21
-7.399227366744369
 72
     1
 10
-47.91273279754322
 20
-7.399227366744369
 11
-51.40738209617635
 21
-5.188811056417426
 72
     1
 10
-51.40738209617635
 20
-5.188811056417426
 11
-54.28910693660305
 21
-5.812283341071309
 72
     1
 10
-54.28910693660305
 20
-5.812283341071309
 11
-50.79453412756107
 21
-8.022804320319173
 72
     1
 10
-50.79453412756107
 20
-8.022804320319173
 11
-53.06293521179145
 21
-11.48017794540906
 97
        0
 75
     0
 76
     1
 98
        1
 10
0.0
 20
0.0
  0
HATCH
  5
F1
330
93
100
AcDbEntity
  8
0
100
AcDbHatch
 10
0.0
 20
0.0
 30
0.0
210
0.0
220
0.0
230
1.0
  2
SOLID
 70
     1
 71
     0
 91
        1
 92
        0
 93
        6
 72
     1
 10
-41.53588964704281
 20
-8.986455445432597
 11
-44.41771445090438
 21
-9.609949357561213
 72
     1
 10
-44.41771445090438
 20
-9.609949357561213
 11
-46.68624347197728
 21
-13.06764806762683
 72
     1
 10
-46.68624347197728
 20
-13.06764806762683
 11
-43.23827248082917
 21
-15.24865255879992
 72
     1
 10
-43.23827248082917
 20
-15.24865255879992
 11
-40.35645293820115
 21
-14.62515978495947
 72
     1
 10
-40.35645293820115
 20
-14.62515978495947
 11
-43.80454139731328
 21
-12.44407055830516
 72
     1
 10
-43.80454139731328
 20
-12.44407055830516
 11
-41.53588964704281
 21
-8.986455445432597
 97
        0
 75
     0
 76
     1
 98
        1
 10
0.0
 20
0.0
  0
HATCH
  5
F2
330
93
100
AcDbEntity
  8
0
100
AcDbHatch
 10
0.0
 20
0.0
 30
0.0
210
0.0
220
0.0
230
1.0
  2
SOLID
 70
     1
 71
     0
 91
        1
 92
        0
 93
       20
 72
     4
 94
        3
 73
     1
 74
     0
 95
        8
 96
        4
 40
18.0
 40
18.0
 40
18.0
 40
18.0
 40
19.0
 40
19.0
 40
19.0
 40
19.0
 10
-30.20639204762402
 20
-12.42915496033267
 42
1.0
 10
-28.36320980349188
 20
-11.79454394754584
 42
1.0
 10
-27.78707037380775
 20
-10.41512978795687
 42
1.0
 10
-27.91988511866085
 20
-9.073464993912015
 42
1.0
 72
     4
 94
        3
 73
     1
 74
     0
 95
        8
 96
        4
 40
19.0
 40
19.0
 40
19.0
 40
19.0
 40
20.0
 40
20.0
 40
20.0
 40
20.0
 10
-27.91988511866085
 20
-9.073464993912015
 42
1.0
 10
-28.1256321733036
 20
-6.994152508733093
 42
1.0
 10
-29.51271678483624
 20
-6.505105050434554
 42
1.0
 10
-30.23703582864647
 20
-6.251438951366739
 42
1.0
 72
     4
 94
        3
 73
     1
 74
     0
 95
        8
 96
        4
 40
0.0
 40
0.0
 40
0.0
 40
0.0
 40
1.0
 40
1.0
 40
1.0
 40
1.0
 10
-30.23703582864647
 20
-6.251438951366739
 42
1.0
 10
-30.91043001867278
 20
-6.015603382360466
 42
1.0
 10
-31.40848551125484
 20
-5.893156856121866
 42
1.0
 10
-32.67210357750633
 20
-5.496689523479784
 42
1.0
 72
     4
 94
        3
 73
     1
 74
     0
 95
        8
 96
        4
 40
1.0
 40
1.0
 40
1.0
 40
1.0
 40
2.0
 40
2.0
 40
2.0
 40
2.0
 10
-32.67210357750633
 20
-5.496689523479784
 42
1.0
 10
-33.03332194555515
 20
-5.383421617718138
 42
1.0
 10
-33.81210282496121
 20
-5.206692347750558
 42
1.0
 10
-33.94849250952591
 20
-4.576291363356954
 42
1.0
 72
     4
 94
        3
 73
     1
 74
     0
 95
        8
 96
        4
 40
2.0
 40
2.0
 40
2.0
 40
2.0
 40
3.0
 40
3.0
 40
3.0
 40
3.0
 10
-33.94849250952591
 20
-4.576291363356954
 42
1.0
 10
-34.11622381965228
 20
-3.801027578894066
 42
1.0
 10
-33.67528356585566
 20
-3.448097454184939
 42
1.0
 10
-32.99335932290605
 20
-3.300560513895483
 42
1.0
 72
     1
 10
-32.99335932290605
 20
-3.300560513895483
 11
-32.85916630414502
 21
-3.271527336675422
 72
     4
 94
        3
 73
     1
 74
     0
 95
        8
 96
        4
 40
4.0
 40
4.0
 40
4.0
 40
4.0
 40
5.0
 40
5.0
 40
5.0
 40
5.0
 10
-32.85916630414502
 20
-3.271527336675422
 42
1.0
 10
-32.27869442459117
 20
-3.145940006530068
 42
1.0
 10
-31.77109773641243
 20
-3.328116480283154
 42
1.0
 10
-31.5697721187044
 20
-3.967820152272114
 42
1.0
 72
     1
 10
-31.5697721187044
 20
-3.967820152272114
 11
-29.29695612428624
 21
-3.476087645143523
 72
     4
 94
        3
 73
     1
 74
     0
 95
        8
 96
        4
 40
6.0
 40
6.0
 40
6.0
 40
6.0
 40
7.0
 40
7.0
 40
7.0
 40
7.0
 10
-29.2969561242863
 20
-3.476087645143538
 42
1.0
 10
-29.6881007197101
 20
-1.866802583842747
 42
1.0
 10
-30.87776107222446
 20
-0.7599478056671519
 42
1.0
 10
-33.27949204955327
 20
-1.266772121690873
 42
1.0
 72
     1
 10
-33.27949204955321
 20
-1.266772121690857
 11
-33.3448839193166
 21
-1.280919904944549
 72
     4
 94
        3
 73
     1
 74
     0
 95
        8
 96
        4
 40
8.0
 40
8.0
 40
8.0
 40
8.0
 40
9.0
 40
9.0
 40
9.0
 40
9.0
 10
-33.34488391931666
 20
-1.280919904944565
 42
1.0
 10
-35.8115299245211
 20
-1.828202838410234
 42
1.0
 10
-36.3337848782655
 20
-3.544650129978449
 42
1.0
 10
-36.09207577942846
 20
-4.962606301827486
 42
1.0
 72
     4
 94
        3
 73
     1
 74
     0
 95
        8
 96
        4
 40
9.0
 40
9.0
 40
9.0
 40
9.0
 40
10.0
 40
10.0
 40
10.0
 40
10.0
 10
-36.09207577942846
 20
-4.962606301827486
 42
1.0
 10
-35.83736690020323
 20
-6.457652824126184
 42
1.0
 10
-34.96800490008029
 20
-7.196828812263736
 42
1.0
 10
-33.99931718292643
 20
-7.502708028683525
 42
1.0
 72
     4
 94
        3
 73
     1
 74
     0
 95
        8
 96
        4
 40
10.0
 40
10.0
 40
10.0
 40
10.0
 40
11.0
 40
11.0
 40
11.0
 40
11.0
 10
-33.99931718292643
 20
-7.502708028683525
 42
1.0
 10
-33.40907414696031
 20
-7.689011641945555
 42
1.0
 10
-32.48616403135106
 20
-7.975318844696822
 42
1.0
 10
-31.47547483016516
 20
-8.27150505233215
 42
1.0
 72
     4
 94
        3
 73
     1
 74
     0
 95
        8
 96
        4
 40
11.0
 40
11.0
 40
11.0
 40
11.0
 40
12.0
 40
12.0
 40
12.0
 40
12.0
 10
-31.47547483016516
 20
-8.27150505233215
 42
1.0
 10
-31.11213516930568
 20
-8.377980375833708
 42
1.0
 10
-30.40258052645039
 20
-8.557295119664056
 42
1.0
 10
-30.28870163819752
 20
-9.336631754491272
 42
1.0
 72
     4
 94
        3
 73
     1
 74
     0
 95
        8
 96
        4
 40
12.0
 40
12.0
 40
12.0
 40
12.0
 40
13.0
 40
13.0
 40
13.0
 40
13.0
 10
-30.28870163819752
 20
-9.336631754491272
 42
1.0
 10
-30.18837182526216
 20
-10.02498578462435
 42
1.0
 10
-30.64014408852681
 20
-10.43662327702195
 42
1.0
 10
-31.32890793487914
 20
-10.58563999188937
 42
1.0
 72
     1
 10
-31.32890793487914
 20
-10.58563999188937
 11
-31.46505813246008
 21
-10.61509661229637
 72
     4
 94
        3
 73
     1
 74
     0
 95
        8
 96
        4
 40
14.0
 40
14.0
 40
14.0
 40
14.0
 40
15.0
 40
15.0
 40
15.0
 40
15.0
 10
-31.46505813246008
 20
-10.61509661229637
 42
1.0
 10
-32.05208024758041
 20
-10.7421011111722
 42
1.0
 10
-32.71260096537064
 20
-10.55064660173623
 42
1.0
 10
-32.88223929249212
 20
-9.937760156430087
 42
1.0
 72
     1
 10
-32.88223929249212
 20
-9.937760156430087
 11
-35.18886923388655
 21
-10.43680844141459
 72
     4
 94
        3
 73
     1
 74
     0
 95
        8
 96
        4
 40
16.0
 40
16.0
 40
16.0
 40
16.0
 40
17.0
 40
17.0
 40
17.0
 40
17.0
 10
-35.18886923388649
 20
-10.43680844141459
 42
1.0
 10
-34.81471685749708
 20
-11.88431332710451
 42
1.0
 10
-33.72975075395801
 20
-12.95131992706824
 42
1.0
 10
-31.59496833044075
 20
-12.72957879515506
 42
1.0
 72
     1
 10
-31.59496833044068
 20
-12.72957879515504
 11
-30.20639204762409
 21
-12.42915496033269
 97
        0
 75
     0
 76
     1
 98
        1
 10
0.0
 20
0.0
  0
HATCH
  5
F3
330
93
100
AcDbEntity
  8
0
100
AcDbHatch
 10
0.0
 20
0.0
 30
0.0
210
0.0
220
0.0
230
1.0
  2
SOLID
 70
     1
 71
     0
 91
        1
 92
        0
 93
       11
 72
     1
 10
-23.93083334830058
 20
-6.656177916224847
 11
-23.9305586195879
 21
-1.497666803489873
 72
     1
 10
-23.9305586195879
 20
-1.497666803489873
 11
-20.04326836721582
 21
-10.05945907169815
 72
     1
 10
-20.04326836721582
 20
-10.05945907169815
 11
-17.66870538033285
 21
-9.545713210289948
 72
     1
 10
-17.66870538033285
 20
-9.545713210289948
 11
-22.39983793591613
 21
0.8767293108990284
 72
     1
 10
-22.39983793591613
 20
0.8767293108990277
 11
-26.30586704316552
 21
0.0316448471579831
 72
     1
 10
-26.30586704316552
 20
0.0316448471579831
 11
-26.30567237753049
 21
-11.41435433475813
 72
     1
 10
-26.30567237753049
 20
-11.41435433475813
 11
-23.93111465188077
 21
-10.90060961163804
 72
     1
 10
-23.93111465188077
 20
-10.90060961163804
 11
-23.93099314235586
 21
-8.782594625323274
 72
     1
 10
-23.93099314235586
 20
-8.782594625323274
 11
-22.27383089514867
 21
-8.42406118111162
 72
     1
 10
-22.27383089514867
 20
-8.42406118111162
 11
-22.7133102853523
 21
-6.392762105309743
 72
     1
 10
-22.7133102853523
 20
-6.392762105309743
 11
-23.93083334830058
 21
-6.656177916224847
 97
        0
 75
     0
 76
     1
 98
        1
 10
0.0
 20
0.0
  0
HATCH
  5
F4
330
93
100
AcDbEntity
  8
0
100
AcDbHatch
 10
0.0
 20
0.0
 30
0.0
210
0.0
220
0.0
230
1.0
  2
SOLID
 70
     1
 71
     0
 91
        1
 92
        0
 93
        6
 72
     1
 10
-15.79563263740209
 20
2.305574601061446
 11
-18.06492886668423
 21
1.814603608696526
 72
     4
 94
        3
 73
     1
 74
     0
 95
        8
 96
        4
 40
2.0
 40
2.0
 40
2.0
 40
2.0
 40
3.0
 40
3.0
 40
3.0
 40
3.0
 10
-18.06492886668423
 20
1.814603608696526
 42
1.0
 10
-17.240039650055
 20
-1.995739949107533
 42
1.0
 10
-15.71186186991055
 20
-9.059523950669437
 42
1.0
 10
-15.69887855542098
 20
-9.119533578677919
 42
1.0
 72
     1
 10
-15.69887855542092
 20
-9.119533578677903
 11
-10.22610149671526
 21
-7.93547715235816
 72
     1
 10
-10.22610149671526
 20
-7.93547715235816
 11
-10.66558088691882
 21
-5.904178076556605
 72
     1
 10
-10.66558088691882
 20
-5.904178076556605
 11
-13.86994560355126
 21
-6.597454742918437
 72
     4
 94
        3
 73
     1
 74
     0
 95
        8
 96
        4
 40
0.0
 40
0.0
 40
0.0
 40
0.0
 40
1.0
 40
1.0
 40
1.0
 40
1.0
 10
-13.86994560355126
 20
-6.597454742918437
 42
1.0
 10
-13.88373254946556
 20
-6.533730684138598
 42
1.0
 10
-15.1136551579741
 20
-0.8489574873494129
 42
1.0
 10
-15.79563263740209
 20
2.305574601061446
 42
1.0
 97
        0
 75
     0
 76
     1
 98
        1
 10
0.0
 20
0.0
  0
HATCH
  5
F5
330
93
100
AcDbEntity
  8
0
100
AcDbHatch
 10
0.0
 20
0.0
 30
0.0
210
0.0
220
0.0
230
1.0
  2
SOLID
 70
     1
 71
     0
 91
        1
 92
        0
 93
       11
 72
     1
 10
2.375028433631206
 20
-0.9648032523823513
 11
2.375208460142868
 21
4.193687371166118
 72
     1
 10
2.375208460142868
 20
4.193687371166118
 11
6.262509234981617
 21
-4.368102620465918
 72
     1
 10
6.262509234981617
 20
-4.368102620465917
 11
8.637061699398163
 21
-3.854359035633896
 72
     1
 10
8.637061699398163
 20
-3.854359035633896
 11
3.905939666281055
 21
6.568085762131229
 72
     1
 10
3.905939666281055
 20
6.56808576213123
 11
-0.0000000000001235
 21
5.723020649288631
 72
     1
 10
-0.0000000000001234
 20
5.723020649288631
 11
-0.000000000000185
 21
-5.723020649288538
 72
     1
 10
-0.000000000000185
 20
-5.723020649288538
 11
2.37465768908423
 21
-5.20925429869377
 72
     1
 10
2.37465768908423
 20
-5.20925429869377
 11
2.374784459841949
 21
-3.091238174090979
 72
     1
 10
2.374784459841949
 20
-3.091238174090979
 11
4.031830959914354
 21
-2.732729772218408
 72
     1
 10
4.031830959914354
 20
-2.732729772218408
 11
3.592351569710606
 21
-0.701430696416514
 72
     1
 10
3.592351569710606
 20
-0.7014306964165138
 11
2.375028433631206
 21
-0.9648032523823513
 97
        0
 75
     0
 76
     1
 98
        1
 10
0.0
 20
0.0
  0
HATCH
  5
F6
330
93
100
AcDbEntity
  8
0
100
AcDbHatch
 10
0.0
 20
0.0
 30
0.0
210
0.0
220
0.0
230
1.0
  2
SOLID
 70
     1
 71
     0
 91
        1
 92
        0
 93
        8
 72
     1
 10
-42.14906497721024
 20
-6.152323722221632
 11
-42.76219705242848
 21
-3.318391925879333
 72
     1
 10
-42.76219705242848
 20
-3.318391925879333
 11
-42.76249168149826
 21
-3.318455670015027
 72
     1
 10
-42.76249168149826
 20
-3.318455670015027
 11
-45.03079507887072
 21
-6.775797145163721
 72
     1
 10
-45.03079507887072
 20
-6.775797145163721
 11
-48.52545732888054
 21
-4.565295516814268
 72
     1
 10
-48.52545732888054
 20
-4.565295516814268
 11
-48.52574669671678
 21
-4.565358122661792
 72
     1
 10
-48.52574669671678
 20
-4.565358122661792
 11
-47.91261462149855
 21
-7.39928991900409
 72
     1
 10
-47.91261462149855
 20
-7.39928991900409
 11
-44.41773721666716
 21
-9.60984413289331
 72
     1
 10
-44.41773721666716
 20
-9.60984413289331
 11
-42.14906497721024
 21
-6.152323722221632
 97
        0
 75
     0
 76
     1
 98
        1
 10
0.0
 20
0.0
  0
HATCH
  5
F7
330
93
100
AcDbEntity
  8
0
100
AcDbHatch
 10
0.0
 20
0.0
 30
0.0
210
0.0
220
0.0
230
1.0
  2
SOLID
 70
     1
 71
     0
 91
        1
 92
        0
 93
        8
 72
     1
 10
-46.11999732125613
 20
-15.87212484345383
 11
-46.08139565189786
 21
-15.8637732233933
 72
     1
 10
-46.08139565189786
 20
-15.8637732233933
 11
-46.68636620117444
 21
-13.06756447043367
 72
     1
 10
-46.68636620117444
 20
-13.06756447043367
 11
-50.18135879739361
 21
-10.85693604353009
 72
     1
 10
-50.18135879739361
 20
-10.85693604353009
 11
-52.44976215820033
 21
-14.31429914615315
 72
     1
 10
-52.44976215820033
 20
-14.31429914615315
 11
-51.84475063055083
 21
-17.11069730351469
 72
     1
 10
-51.84475063055083
 20
-17.11069730351469
 11
-51.80633836559459
 21
-17.1023866618271
 72
     1
 10
-51.80633836559459
 20
-17.1023866618271
 11
-49.56818574380249
 21
-13.69105724427409
 72
     1
 10
-49.56818574380249
 20
-13.69105724427409
 11
-46.11999732125613
 21
-15.87212484345383
 97
        0
 75
     0
 76
     1
 98
        1
 10
0.0
 20
0.0
  0
HATCH
  5
F8
330
93
100
AcDbEntity
  8
0
100
AcDbHatch
 10
0.0
 20
0.0
 30
0.0
210
0.0
220
0.0
230
1.0
  2
SOLID
 70
     1
 71
     0
 91
        2
 92
        0
 93
        7
 72
     1
 10
-6.859585567104196
 20
4.238922852960538
 11
-11.00449045380928
 21
3.342156692939393
 72
     1
 10
-11.00449045380928
 20
3.342156692939393
 11
-8.638829473816639
 21
-7.592064727757185
 72
     1
 10
-8.638829473816639
 20
-7.592064727757185
 11
-8.63844014254617
 21
-7.591980494435086
 72
     1
 10
-8.63844014254617
 20
-7.591980494435086
 11
-4.494024550545999
 21
-6.695320195210662
 72
     4
 94
        3
 73
     1
 74
     0
 95
        8
 96
        4
 40
3.0
 40
3.0
 40
3.0
 40
3.0
 40
4.0
 40
4.0
 40
4.0
 40
4.0
 10
-4.494024550545999
 20
-6.695320195210662
 42
1.0
 10
-2.825524345390513
 20
-6.334333740063992
 42
1.0
 10
-1.762658323115034
 20
-4.702068307882374
 42
1.0
 10
-2.120071189640999
 20
-3.049576315093403
 42
1.0
 72
     4
 94
        3
 73
     1
 74
     0
 95
        8
 96
        4
 40
4.0
 40
4.0
 40
4.0
 40
4.0
 40
5.0
 40
5.0
 40
5.0
 40
5.0
 10
-2.120071189640999
 20
-3.049576315093403
 42
1.0
 10
-2.485983017556096
 20
-1.358310753073632
 42
1.0
 10
-2.867352798370483
 20
0.4044023583376265
 42
1.0
 10
-3.190995488197396
 20
1.900704823656681
 42
1.0
 72
     4
 94
        3
 73
     1
 74
     0
 95
        8
 96
        4
 40
5.0
 40
5.0
 40
5.0
 40
5.0
 40
6.0
 40
6.0
 40
6.0
 40
6.0
 10
-3.190995488197396
 20
1.900704823656681
 42
1.0
 10
-3.54857504695031
 20
3.553458157285876
 42
1.0
 10
-5.190901218780231
 20
4.599949148191988
 42
1.0
 10
-6.859585567104196
 20
4.238922852960538
 42
1.0
 97
        0
 92
        0
 93
        6
 72
     4
 94
        3
 73
     1
 74
     0
 95
        8
 96
        4
 40
2.0
 40
2.0
 40
2.0
 40
2.0
 40
3.0
 40
3.0
 40
3.0
 40
3.0
 10
-6.919811195494074
 20
2.099808074263809
 42
1.0
 10
-6.228016878711183
 20
2.249480443098069
 42
1.0
 10
-5.547633595833446
 20
1.815851349115847
 42
1.0
 10
-5.399398884916104
 20
1.130701970100344
 42
1.0
 72
     4
 94
        3
 73
     1
 74
     0
 95
        8
 96
        4
 40
3.0
 40
3.0
 40
3.0
 40
3.0
 40
4.0
 40
4.0
 40
4.0
 40
4.0
 10
-5.399398884916104
 20
1.130701970100344
 42
1.0
 10
-5.107009087764085
 20
-0.2207405274728672
 42
1.0
 10
-4.711497421058354
 20
-2.048334586467611
 42
1.0
 10
-4.449160707297047
 20
-3.260870000165379
 42
1.0
 72
     4
 94
        3
 73
     1
 74
     0
 95
        8
 96
        4
 40
4.0
 40
4.0
 40
4.0
 40
4.0
 40
5.0
 40
5.0
 40
5.0
 40
5.0
 10
-4.449160707297047
 20
-3.260870000165379
 42
1.0
 10
-4.300905507193207
 20
-3.946114081381999
 42
1.0
 10
-4.741570606399121
 20
-4.622385452066122
 42
1.0
 10
-5.433383135791953
 20
-4.771973641166296
 42
1.0
 72
     1
 10
-5.433383135791953
 20
-4.771973641166296
 11
-6.809537646582547
 21
-5.069709977697404
 72
     4
 94
        3
 73
     1
 74
     0
 95
        8
 96
        4
 40
0.0
 40
0.0
 40
0.0
 40
0.0
 40
1.0
 40
1.0
 40
1.0
 40
1.0
 10
-6.809537646582547
 20
-5.069709977697404
 42
1.0
 10
-7.284290309572815
 20
-2.875375801708635
 42
1.0
 10
-7.897830097865885
 20
-0.0390758678013329
 42
1.0
 10
-8.296070930952649
 20
1.80204897196991
 42
1.0
 72
     1
 10
-8.296070930952649
 20
1.80204897196991
 11
-6.919811195494074
 21
2.099808074263809
 97
        0
 75
     0
 76
     1
 98
        1
 10
0.0
 20
0.0
  0
ENDBLK
  5
95
330
93
100
AcDbEntity
  8
0
100
AcDbBlockEnd
  0
ENDSEC
  0
SECTION
  2
ENTITIES
  0
LINE
  5
F9
330
1F
100
AcDbEntity
  8
0
100
AcDbLine
 10
378.2276144476
 20
413.8431618909
 30
0.0
 11
378.2276144476
 21
421.5431618909
 31
0.0
  0
LINE
  5
FA
330
1F
100
AcDbEntity
  8
0
100
AcDbLine
 10
351.3276144476
 20
421.5431618909
 30
0.0
 11
351.3276144476
 21
413.8431618909
 31
0.0
  0
LINE
  5
FB
330
1F
100
AcDbEntity
  8
0
100
AcDbLine
 10
352.0276144476
 20
400.9431618909
 30
0.0
 11
352.7776144476
 21
400.1931618909
 31
0.0
  0
LINE
  5
FC
330
1F
100
AcDbEntity
  8
0
100
AcDbLine
 10
376.7776144476
 20
400.1931618909
 30
0.0
 11
377.5276144476
 21
400.9431618909
 31
0.0
  0
LINE
  5
FD
330
1F
100
AcDbEntity
  8
0
100
AcDbLine
 10
352.0276144476
 20
408.4431618909
 30
0.0
 11
352.0276144476
 21
400.9431618909
 31
0.0
  0
LINE
  5
FE
330
1F
100
AcDbEntity
  8
0
100
AcDbLine
 10
377.5276144476
 20
400.9431618909
 30
0.0
 11
377.5276144476
 21
408.4431618909
 31
0.0
  0
LINE
  5
FF
330
1F
100
AcDbEntity
  8
0
100
AcDbLine
 10
379.7776144476
 20
421.5431618909
 30
0.0
 11
379.7776144476
 21
421.9431618909
 31
0.0
  0
LINE
  5
100
330
1F
100
AcDbEntity
  8
0
100
AcDbLine
 10
350.8776144476
 20
430.1431618909
 30
0.0
 11
350.8776144476
 21
421.9431618909
 31
0.0
  0
LINE
  5
101
330
1F
100
AcDbEntity
  8
0
100
AcDbLine
 10
378.6776144476
 20
421.9431618909
 30
0.0
 11
378.6776144476
 21
430.1431618909
 31
0.0
  0
ARC
  5
102
330
1F
100
AcDbEntity
  8
0
100
AcDbCircle
 10
352.2776144476
 20
430.1431618909
 30
0.0
 40
1.400000000000034
100
AcDbArc
 50
90.0
 51
180.0
  0
ARC
  5
103
330
1F
100
AcDbEntity
  8
0
100
AcDbCircle
 10
377.2776144476
 20
430.1431618909
 30
0.0
 40
1.400000000000091
100
AcDbArc
 50
0.0
 51
90.0
  0
LINE
  5
104
330
1F
100
AcDbEntity
  8
0
100
AcDbLine
 10
375.7776144476
 20
389.3931618909
 30
0.0
 11
375.7776144476
 21
400.1931618909
 31
0.0
  0
LINE
  5
105
330
1F
100
AcDbEntity
  8
0
100
AcDbLine
 10
353.7776144476
 20
400.1931618909
 30
0.0
 11
353.7776144476
 21
389.3931618909
 31
0.0
  0
LINE
  5
106
330
1F
100
AcDbEntity
  8
0
100
AcDbLine
 10
349.3576144438
 20
413.8431618909
 30
0.0
 11
349.3576144438
 21
421.5431618909
 31
0.0
  0
LINE
  5
107
330
1F
100
AcDbEntity
  8
0
100
AcDbLine
 10
322.4576144438
 20
421.5431618909
 30
0.0
 11
322.4576144438
 21
413.8431618909
 31
0.0
  0
LINE
  5
108
330
1F
100
AcDbEntity
  8
0
100
AcDbLine
 10
323.1576144438
 20
408.4431618909
 30
0.0
 11
323.1576144438
 21
400.9431618909
 31
0.0
  0
LINE
  5
109
330
1F
100
AcDbEntity
  8
0
100
AcDbLine
 10
348.6576144438
 20
400.9431618909
 30
0.0
 11
348.6576144438
 21
408.4431618909
 31
0.0
  0
LINE
  5
10A
330
1F
100
AcDbEntity
  8
0
100
AcDbLine
 10
323.1576144438
 20
400.9431618909
 30
0.0
 11
323.9076144438
 21
400.1931618909
 31
0.0
  0
LINE
  5
10B
330
1F
100
AcDbEntity
  8
0
100
AcDbLine
 10
347.9076144438
 20
400.1931618909
 30
0.0
 11
348.6576144438
 21
400.9431618909
 31
0.0
  0
LINE
  5
10C
330
1F
100
AcDbEntity
  8
0
100
AcDbLine
 10
350.9076144438
 20
421.5431618909
 30
0.0
 11
350.9076144438
 21
421.9431618909
 31
0.0
  0
LINE
  5
10D
330
1F
100
AcDbEntity
  8
0
100
AcDbLine
 10
320.9076144438
 20
421.9431618909
 30
0.0
 11
320.9076144438
 21
421.5431618909
 31
0.0
  0
LINE
  5
10E
330
1F
100
AcDbEntity
  8
0
100
AcDbLine
 10
322.0076144438
 20
430.1431618909
 30
0.0
 11
322.0076144438
 21
421.9431618909
 31
0.0
  0
LINE
  5
10F
330
1F
100
AcDbEntity
  8
0
100
AcDbLine
 10
349.8076144438
 20
421.9431618909
 30
0.0
 11
349.8076144438
 21
430.1431618909
 31
0.0
  0
ARC
  5
110
330
1F
100
AcDbEntity
  8
0
100
AcDbCircle
 10
323.4076144438
 20
430.1431618909
 30
0.0
 40
1.400000000000034
100
AcDbArc
 50
90.0
 51
180.0
  0
ARC
  5
111
330
1F
100
AcDbEntity
  8
0
100
AcDbCircle
 10
348.4076144438
 20
430.1431618909
 30
0.0
 40
1.400000000000091
100
AcDbArc
 50
0.0
 51
90.0
  0
LINE
  5
112
330
1F
100
AcDbEntity
  8
0
100
AcDbLine
 10
346.9076144438
 20
389.3931618909
 30
0.0
 11
346.9076144438
 21
400.1931618909
 31
0.0
  0
LINE
  5
113
330
1F
100
AcDbEntity
  8
0
100
AcDbLine
 10
324.9076144438
 20
400.1931618909
 30
0.0
 11
324.9076144438
 21
389.3931618909
 31
0.0
  0
ARC
  5
114
330
1F
100
AcDbEntity
  8
0
100
AcDbCircle
 10
280.7426144438
 20
378.4431618909
 30
0.0
 40
2.0
100
AcDbArc
 50
90.0
 51
180.0
  0
ARC
  5
115
330
1F
100
AcDbEntity
  8
0
100
AcDbCircle
 10
284.9426144438
 20
378.4431618909
 30
0.0
 40
2.0
100
AcDbArc
 50
0.0
 51
90.0
  0
LINE
  5
116
330
1F
100
AcDbEntity
  8
0
100
AcDbLine
 10
278.7426144438
 20
378.4431618909
 30
0.0
 11
278.7426144438
 21
377.3931618909
 31
0.0
  0
LINE
  5
117
330
1F
100
AcDbEntity
  8
0
100
AcDbLine
 10
286.9426144438
 20
377.3931618909
 30
0.0
 11
286.9426144438
 21
378.4431618909
 31
0.0
  0
LINE
  5
118
330
1F
100
AcDbEntity
  8
0
100
AcDbLine
 10
282.3176144438
 20
368.3931618909
 30
0.0
 11
282.5426144438
 21
367.8931618909
 31
0.0
  0
LINE
  5
119
330
1F
100
AcDbEntity
  8
0
100
AcDbLine
 10
283.1426144438
 20
367.8931618909
 30
0.0
 11
283.3676144438
 21
368.3931618909
 31
0.0
  0
LINE
  5
11A
330
1F
100
AcDbEntity
  8
0
100
AcDbLine
 10
413.7426144438
 20
378.4431618909
 30
0.0
 11
413.7426144438
 21
377.3931618909
 31
0.0
  0
LINE
  5
11B
330
1F
100
AcDbEntity
  8
0
100
AcDbLine
 10
421.9426144438
 20
377.3931618909
 30
0.0
 11
421.9426144438
 21
378.4431618909
 31
0.0
  0
ARC
  5
11C
330
1F
100
AcDbEntity
  8
0
100
AcDbCircle
 10
415.7426144438
 20
378.4431618909
 30
0.0
 40
2.0
100
AcDbArc
 50
90.0
 51
180.0
  0
ARC
  5
11D
330
1F
100
AcDbEntity
  8
0
100
AcDbCircle
 10
419.9426144438
 20
378.4431618909
 30
0.0
 40
2.0
100
AcDbArc
 50
0.0
 51
90.0
  0
LINE
  5
11E
330
1F
100
AcDbEntity
  8
0
100
AcDbLine
 10
417.3176144438
 20
368.3931618909
 30
0.0
 11
417.5426144438
 21
367.8931618909
 31
0.0
  0
LINE
  5
11F
330
1F
100
AcDbEntity
  8
0
100
AcDbLine
 10
418.1426144438
 20
367.8931618909
 30
0.0
 11
418.3676144438
 21
368.3931618909
 31
0.0
  0
ARC
  5
120
330
1F
100
AcDbEntity
  8
0
100
AcDbCircle
 10
460.7426144438
 20
378.4431618909
 30
0.0
 40
2.0
100
AcDbArc
 50
90.0
 51
180.0
  0
ARC
  5
121
330
1F
100
AcDbEntity
  8
0
100
AcDbCircle
 10
464.9426144438
 20
378.4431618909
 30
0.0
 40
2.0
100
AcDbArc
 50
0.0
 51
90.0
  0
LINE
  5
122
330
1F
100
AcDbEntity
  8
0
100
AcDbLine
 10
458.7426144438
 20
378.4431618909
 30
0.0
 11
458.7426144438
 21
377.3931618909
 31
0.0
  0
LINE
  5
123
330
1F
100
AcDbEntity
  8
0
100
AcDbLine
 10
466.9426144438
 20
377.3931618909
 30
0.0
 11
466.9426144438
 21
378.4431618909
 31
0.0
  0
ARC
  5
124
330
1F
100
AcDbEntity
  8
0
100
AcDbCircle
 10
235.7426144438
 20
378.4431618909
 30
0.0
 40
2.0
100
AcDbArc
 50
90.0
 51
180.0
  0
ARC
  5
125
330
1F
100
AcDbEntity
  8
0
100
AcDbCircle
 10
239.9426144438
 20
378.4431618909
 30
0.0
 40
2.000000000000028
100
AcDbArc
 50
0.0
 51
90.0
  0
LINE
  5
126
330
1F
100
AcDbEntity
  8
0
100
AcDbLine
 10
233.7426144438
 20
378.4431618909
 30
0.0
 11
233.7426144438
 21
377.3931618909
 31
0.0
  0
LINE
  5
127
330
1F
100
AcDbEntity
  8
0
100
AcDbLine
 10
241.9426144438
 20
377.3931618909
 30
0.0
 11
241.9426144438
 21
378.4431618909
 31
0.0
  0
ARC
  5
128
330
1F
100
AcDbEntity
  8
0
100
AcDbCircle
 10
460.3270644522
 20
-148.853906837
 30
0.0
 40
5.000000000000042
100
AcDbArc
 50
236.1590076815
 51
262.1320762394
  0
ARC
  5
129
330
1F
100
AcDbEntity
  8
0
100
AcDbCircle
 10
460.7581644354
 20
-148.853906837
 30
0.0
 40
4.999999999999979
100
AcDbArc
 50
277.8679237606
 51
303.8409923185
  0
ARC
  5
12A
330
1F
100
AcDbEntity
  8
0
100
AcDbCircle
 10
239.9270644522
 20
-148.853906837
 30
0.0
 40
4.999999999999995
100
AcDbArc
 50
236.1590076815
 51
262.1320762394
  0
ARC
  5
12B
330
1F
100
AcDbEntity
  8
0
100
AcDbCircle
 10
240.3581644354
 20
-148.853906837
 30
0.0
 40
5.000000000000011
100
AcDbArc
 50
277.8679237606
 51
303.8409923185
  0
LINE
  5
12C
330
1F
100
AcDbEntity
  8
0
100
AcDbLine
 10
398.7776144476
 20
377.3931618909
 30
0.0
 11
398.7776144476
 21
379.3931618909
 31
0.0
  0
ARC
  5
12D
330
1F
100
AcDbEntity
  8
0
100
AcDbCircle
 10
384.7776144476
 20
387.3931618909
 30
0.0
 40
8.0
100
AcDbArc
 50
180.0
 51
270.0
  0
ARC
  5
12E
330
1F
100
AcDbEntity
  8
0
100
AcDbCircle
 10
344.7776144476
 20
387.3931618909
 30
0.0
 40
8.000000000000005
100
AcDbArc
 50
314.0770425568
 51
0.0
  0
LINE
  5
12F
330
1F
100
AcDbEntity
  8
0
100
AcDbLine
 10
376.7776144476
 20
387.3931618909
 30
0.0
 11
376.7776144476
 21
389.3931618909
 31
0.0
  0
LINE
  5
130
330
1F
100
AcDbEntity
  8
0
100
AcDbLine
 10
352.7776144476
 20
389.3931618909
 30
0.0
 11
352.7776144476
 21
387.3931618909
 31
0.0
  0
LINE
  5
131
330
1F
100
AcDbEntity
  8
0
100
AcDbLine
 10
369.9076144438
 20
377.3931618909
 30
0.0
 11
369.9076144438
 21
379.3931618909
 31
0.0
  0
LINE
  5
132
330
1F
100
AcDbEntity
  8
0
100
AcDbLine
 10
301.9076144438
 20
379.3931618909
 30
0.0
 11
301.9076144438
 21
377.3931618909
 31
0.0
  0
ARC
  5
133
330
1F
100
AcDbEntity
  8
0
100
AcDbCircle
 10
355.9076144438
 20
387.3931618909
 30
0.0
 40
8.0
100
AcDbArc
 50
180.0
 51
270.0
  0
ARC
  5
134
330
1F
100
AcDbEntity
  8
0
100
AcDbCircle
 10
315.9076144438
 20
387.3931618909
 30
0.0
 40
8.0
100
AcDbArc
 50
270.0
 51
0.0
  0
LINE
  5
135
330
1F
100
AcDbEntity
  8
0
100
AcDbLine
 10
347.9076144438
 20
387.3931618909
 30
0.0
 11
347.9076144438
 21
389.3931618909
 31
0.0
  0
LINE
  5
136
330
1F
100
AcDbEntity
  8
0
100
AcDbLine
 10
323.9076144438
 20
389.3931618909
 30
0.0
 11
323.9076144438
 21
387.3931618909
 31
0.0
  0
ARC
  5
137
330
1F
100
AcDbEntity
  8
0
100
AcDbCircle
 10
184.2426140207
 20
-95.7068381091
 30
0.0
 40
0.5
100
AcDbArc
 50
184.9871394293
 51
0.0
  0
ARC
  5
138
330
1F
100
AcDbEntity
  8
0
100
AcDbCircle
 10
184.2426140207
 20
318.0931618909
 30
0.0
 40
0.5
100
AcDbArc
 50
0.0
 51
175.0128605707
  0
ARC
  5
139
330
1F
100
AcDbEntity
  8
0
100
AcDbCircle
 10
180.0426140207
 20
-95.7068381091
 30
0.0
 40
0.5
100
AcDbArc
 50
184.9871394293
 51
0.0
  0
ARC
  5
13A
330
1F
100
AcDbEntity
  8
0
100
AcDbCircle
 10
180.0426140207
 20
318.0931618909
 30
0.0
 40
0.5000000000000037
100
AcDbArc
 50
0.0
 51
175.0128605707
  0
LINE
  5
13B
330
1F
100
AcDbEntity
  8
0
100
AcDbLine
 10
183.7445069027
 20
318.1366279586
 30
0.0
 11
183.0625331647
 21
310.321428857
 31
0.0
  0
LINE
  5
13C
330
1F
100
AcDbEntity
  8
0
100
AcDbLine
 10
183.0625331647
 20
-87.9351050753
 30
0.0
 11
183.7445069027
 21
-95.7503041768
 31
0.0
  0
LINE
  5
13D
330
1F
100
AcDbEntity
  8
0
100
AcDbLine
 10
179.5445069027
 20
318.1366279586
 30
0.0
 11
178.8625331647
 21
310.321428857
 31
0.0
  0
LINE
  5
13E
330
1F
100
AcDbEntity
  8
0
100
AcDbLine
 10
178.8625331647
 20
-87.9351050753
 30
0.0
 11
179.5445069027
 21
-95.7503041768
 31
0.0
  0
ARC
  5
13F
330
1F
100
AcDbEntity
  8
0
100
AcDbCircle
 10
178.6134796057
 20
-87.9568381091
 30
0.0
 40
0.25
100
AcDbArc
 50
4.9871394293
 51
90.0
  0
ARC
  5
140
330
1F
100
AcDbEntity
  8
0
100
AcDbCircle
 10
178.6134796057
 20
310.3431618909
 30
0.0
 40
0.2499999999999877
100
AcDbArc
 50
270.0
 51
355.0128605707
  0
ARC
  5
141
330
1F
100
AcDbEntity
  8
0
100
AcDbCircle
 10
182.8134796057
 20
-87.9568381091
 30
0.0
 40
0.2500000000000284
100
AcDbArc
 50
4.9871394293
 51
90.0
  0
ARC
  5
142
330
1F
100
AcDbEntity
  8
0
100
AcDbCircle
 10
182.8134796057
 20
310.3431618909
 30
0.0
 40
0.2499999999999877
100
AcDbArc
 50
270.0
 51
355.0128605707
  0
LINE
  5
143
330
1F
100
AcDbEntity
  8
0
100
AcDbLine
 10
180.5426140207
 20
-87.7068381091
 30
0.0
 11
182.8134796057
 21
-87.7068381091
 31
0.0
  0
LINE
  5
144
330
1F
100
AcDbEntity
  8
0
100
AcDbLine
 10
182.8134796057
 20
310.0931618909
 30
0.0
 11
180.5426140207
 21
310.0931618909
 31
0.0
  0
LINE
  5
145
330
1F
100
AcDbEntity
  8
0
100
AcDbLine
 10
177.5426144438
 20
-87.7068381091
 30
0.0
 11
178.6134796057
 21
-87.7068381091
 31
0.0
  0
LINE
  5
146
330
1F
100
AcDbEntity
  8
0
100
AcDbLine
 10
178.6134796057
 20
310.0931618909
 30
0.0
 11
177.5426144438
 21
310.0931618909
 31
0.0
  0
ARC
  5
147
330
1F
100
AcDbEntity
  8
0
100
AcDbCircle
 10
520.6426148668
 20
318.0931618909
 30
0.0
 40
0.5
100
AcDbArc
 50
4.9871394293
 51
180.0
  0
ARC
  5
148
330
1F
100
AcDbEntity
  8
0
100
AcDbCircle
 10
520.6426148668
 20
-95.7068381091
 30
0.0
 40
0.4999999999999716
100
AcDbArc
 50
180.0
 51
355.0128605707
  0
ARC
  5
149
330
1F
100
AcDbEntity
  8
0
100
AcDbCircle
 10
516.4426148668
 20
318.0931618909
 30
0.0
 40
0.5000000000001137
100
AcDbArc
 50
4.9871394293
 51
180.0
  0
ARC
  5
14A
330
1F
100
AcDbEntity
  8
0
100
AcDbCircle
 10
516.4426148668
 20
-95.7068381091
 30
0.0
 40
0.5000000000001137
100
AcDbArc
 50
180.0
 51
355.0128605707
  0
LINE
  5
14B
330
1F
100
AcDbEntity
  8
0
100
AcDbLine
 10
521.1407219848
 20
-95.7503041768
 30
0.0
 11
521.8226957228
 21
-87.9351050753
 31
0.0
  0
LINE
  5
14C
330
1F
100
AcDbEntity
  8
0
100
AcDbLine
 10
521.8226957228
 20
310.321428857
 30
0.0
 11
521.1407219848
 21
318.1366279586
 31
0.0
  0
LINE
  5
14D
330
1F
100
AcDbEntity
  8
0
100
AcDbLine
 10
516.9407219848
 20
-95.7503041768
 30
0.0
 11
517.6226957228
 21
-87.9351050753
 31
0.0
  0
LINE
  5
14E
330
1F
100
AcDbEntity
  8
0
100
AcDbLine
 10
517.6226957228
 20
310.321428857
 30
0.0
 11
516.9407219848
 21
318.1366279586
 31
0.0
  0
ARC
  5
14F
330
1F
100
AcDbEntity
  8
0
100
AcDbCircle
 10
522.0717492818
 20
310.3431618909
 30
0.0
 40
0.2499999999999432
100
AcDbArc
 50
184.9871394293
 51
270.0
  0
ARC
  5
150
330
1F
100
AcDbEntity
  8
0
100
AcDbCircle
 10
522.0717492818
 20
-87.9568381091
 30
0.0
 40
0.25
100
AcDbArc
 50
90.0
 51
175.0128605707
  0
ARC
  5
151
330
1F
100
AcDbEntity
  8
0
100
AcDbCircle
 10
517.8717492818
 20
310.3431618909
 30
0.0
 40
0.2499999999999877
100
AcDbArc
 50
184.9871394293
 51
270.0
  0
ARC
  5
152
330
1F
100
AcDbEntity
  8
0
100
AcDbCircle
 10
517.8717492818
 20
-87.9568381091
 30
0.0
 40
0.2500000000000284
100
AcDbArc
 50
90.0
 51
175.0128605707
  0
LINE
  5
153
330
1F
100
AcDbEntity
  8
0
100
AcDbLine
 10
520.1426148668
 20
310.0931618909
 30
0.0
 11
517.8717492818
 21
310.0931618909
 31
0.0
  0
LINE
  5
154
330
1F
100
AcDbEntity
  8
0
100
AcDbLine
 10
517.8717492818
 20
-87.7068381091
 30
0.0
 11
520.1426148668
 21
-87.7068381091
 31
0.0
  0
LINE
  5
155
330
1F
100
AcDbEntity
  8
0
100
AcDbLine
 10
523.1426144438
 20
310.0931618909
 30
0.0
 11
522.0717492818
 21
310.0931618909
 31
0.0
  0
LINE
  5
156
330
1F
100
AcDbEntity
  8
0
100
AcDbLine
 10
522.0717492818
 20
-87.7068381091
 30
0.0
 11
523.1426144438
 21
-87.7068381091
 31
0.0
  0
LINE
  5
157
330
1F
100
AcDbEntity
  8
0
100
AcDbLine
 10
504.9044258166
 20
311.3431104904
 30
0.0
 11
464.8426144438
 21
311.3431104904
 31
0.0
  0
LINE
  5
158
330
1F
100
AcDbEntity
  8
0
100
AcDbLine
 10
464.8426144438
 20
-88.9567867087
 30
0.0
 11
504.9044258166
 21
-88.9567867087
 31
0.0
  0
LINE
  5
159
330
1F
100
AcDbEntity
  8
0
100
AcDbLine
 10
504.9044258166
 20
-88.9567867087
 30
0.0
 11
506.6699311341
 21
-87.1912813912
 31
0.0
  0
LINE
  5
15A
330
1F
100
AcDbEntity
  8
0
100
AcDbLine
 10
506.6699311341
 20
309.5776051729
 30
0.0
 11
504.9044258166
 21
311.3431104904
 31
0.0
  0
ARC
  5
15B
330
1F
100
AcDbEntity
  8
0
100
AcDbCircle
 10
527.8426160152
 20
309.8931618909
 30
0.0
 40
1.300000000004729
100
AcDbArc
 50
0.0
 51
90.0000692571
  0
ARC
  5
15C
330
1F
100
AcDbEntity
  8
0
100
AcDbCircle
 10
527.8426160152
 20
-87.5068381091
 30
0.0
 40
1.300000000004729
100
AcDbArc
 50
269.9999307429
 51
0.0
  0
LINE
  5
15D
330
1F
100
AcDbEntity
  8
0
100
AcDbLine
 10
529.1426160152
 20
-87.5068381091
 30
0.0
 11
529.1426160152
 21
309.8931618909
 31
0.0
  0
LINE
  5
15E
330
1F
100
AcDbEntity
  8
0
100
AcDbLine
 10
527.8426144438
 20
311.1931618909
 30
0.0
 11
523.1426144438
 21
311.1931618909
 31
0.0
  0
LINE
  5
15F
330
1F
100
AcDbEntity
  8
0
100
AcDbLine
 10
523.1426144438
 20
-88.8068381091
 30
0.0
 11
527.8426144438
 21
-88.8068381091
 31
0.0
  0
LINE
  5
160
330
1F
100
AcDbEntity
  8
0
100
AcDbLine
 10
506.6699311341
 20
-87.1912813912
 30
0.0
 11
513.6155031627
 21
-85.2060832955
 31
0.0
  0
LINE
  5
161
330
1F
100
AcDbEntity
  8
0
100
AcDbLine
 10
513.6155031627
 20
307.5924070772
 30
0.0
 11
506.6699311341
 21
309.5776051729
 31
0.0
  0
LINE
  5
162
330
1F
100
AcDbEntity
  8
0
100
AcDbLine
 10
515.9426148668
 20
307.5924070772
 30
0.0
 11
513.6155031627
 21
307.5924070772
 31
0.0
  0
LINE
  5
163
330
1F
100
AcDbEntity
  8
0
100
AcDbLine
 10
513.6155031627
 20
-85.2060832955
 30
0.0
 11
515.9426148668
 21
-85.2060832955
 31
0.0
  0
LINE
  5
164
330
1F
100
AcDbEntity
  8
0
100
AcDbLine
 10
195.7808030709
 20
311.3431104904
 30
0.0
 11
194.0152977534
 21
309.5776051729
 31
0.0
  0
LINE
  5
165
330
1F
100
AcDbEntity
  8
0
100
AcDbLine
 10
194.0152977534
 20
-87.1912813912
 30
0.0
 11
195.7808030709
 21
-88.9567867087
 31
0.0
  0
LINE
  5
166
330
1F
100
AcDbEntity
  8
0
100
AcDbLine
 10
195.7808030709
 20
-88.9567867087
 30
0.0
 11
235.8426144438
 21
-88.9567867087
 31
0.0
  0
LINE
  5
167
330
1F
100
AcDbEntity
  8
0
100
AcDbLine
 10
235.8426144438
 20
311.3431104904
 30
0.0
 11
195.7808030709
 21
311.3431104904
 31
0.0
  0
LINE
  5
168
330
1F
100
AcDbEntity
  8
0
100
AcDbLine
 10
172.8426144438
 20
-88.8068381091
 30
0.0
 11
177.5426144438
 21
-88.8068381091
 31
0.0
  0
LINE
  5
169
330
1F
100
AcDbEntity
  8
0
100
AcDbLine
 10
177.5426144438
 20
311.1931618909
 30
0.0
 11
172.8426144438
 21
311.1931618909
 31
0.0
  0
ARC
  5
16A
330
1F
100
AcDbEntity
  8
0
100
AcDbCircle
 10
172.8426128724
 20
-87.5068381091
 30
0.0
 40
1.300000000004644
100
AcDbArc
 50
180.0
 51
270.0000692571
  0
ARC
  5
16B
330
1F
100
AcDbEntity
  8
0
100
AcDbCircle
 10
172.8426128724
 20
309.8931618909
 30
0.0
 40
1.300000000004673
100
AcDbArc
 50
89.9999307429
 51
180.0
  0
LINE
  5
16C
330
1F
100
AcDbEntity
  8
0
100
AcDbLine
 10
171.5426128724
 20
309.8931618909
 30
0.0
 11
171.5426128724
 21
-87.5068381091
 31
0.0
  0
LINE
  5
16D
330
1F
100
AcDbEntity
  8
0
100
AcDbLine
 10
194.0152977534
 20
309.5776051729
 30
0.0
 11
187.0697257248
 21
307.5924070772
 31
0.0
  0
LINE
  5
16E
330
1F
100
AcDbEntity
  8
0
100
AcDbLine
 10
187.0697257248
 20
-85.2060832955
 30
0.0
 11
194.0152977534
 21
-87.1912813912
 31
0.0
  0
LINE
  5
16F
330
1F
100
AcDbEntity
  8
0
100
AcDbLine
 10
184.7426140207
 20
-85.2060832955
 30
0.0
 11
187.0697257248
 21
-85.2060832955
 31
0.0
  0
LINE
  5
170
330
1F
100
AcDbEntity
  8
0
100
AcDbLine
 10
187.0697257248
 20
307.5924070772
 30
0.0
 11
184.7426140207
 21
307.5924070772
 31
0.0
  0
LINE
  5
171
330
1F
100
AcDbEntity
  8
0
100
AcDbLine
 10
351.2776144476
 20
413.8431618909
 30
0.0
 11
351.2776144476
 21
408.4431618909
 31
0.0
  0
LINE
  5
172
330
1F
100
AcDbEntity
  8
0
100
AcDbLine
 10
351.2776144476
 20
413.8431618909
 30
0.0
 11
364.7776144476
 21
413.8431618909
 31
0.0
  0
LINE
  5
173
330
1F
100
AcDbEntity
  8
0
100
AcDbLine
 10
364.7776144476
 20
413.8431618909
 30
0.0
 11
364.7776144476
 21
408.4431618909
 31
0.0
  0
LINE
  5
174
330
1F
100
AcDbEntity
  8
0
100
AcDbLine
 10
351.2776144476
 20
408.4431618909
 30
0.0
 11
364.7776144476
 21
408.4431618909
 31
0.0
  0
LINE
  5
175
330
1F
100
AcDbEntity
  8
0
100
AcDbLine
 10
364.7776144476
 20
413.8431618909
 30
0.0
 11
378.2776144476
 21
413.8431618909
 31
0.0
  0
LINE
  5
176
330
1F
100
AcDbEntity
  8
0
100
AcDbLine
 10
378.2776144476
 20
413.8431618909
 30
0.0
 11
378.2776144476
 21
408.4431618909
 31
0.0
  0
LINE
  5
177
330
1F
100
AcDbEntity
  8
0
100
AcDbLine
 10
364.7776144476
 20
408.4431618909
 30
0.0
 11
378.2776144476
 21
408.4431618909
 31
0.0
  0
LINE
  5
178
330
1F
100
AcDbEntity
  8
0
100
AcDbLine
 10
376.7776144476
 20
400.1931618909
 30
0.0
 11
352.7776144476
 21
400.1931618909
 31
0.0
  0
LINE
  5
179
330
1F
100
AcDbEntity
  8
0
100
AcDbLine
 10
352.0276144476
 20
400.9431618909
 30
0.0
 11
377.5276144476
 21
400.9431618909
 31
0.0
  0
LINE
  5
17A
330
1F
100
AcDbEntity
  8
0
100
AcDbLine
 10
379.7776144476
 20
421.5431618909
 30
0.0
 11
350.9076144438
 21
421.5431618909
 31
0.0
  0
LINE
  5
17B
330
1F
100
AcDbEntity
  8
0
100
AcDbLine
 10
379.7776144476
 20
421.9431618909
 30
0.0
 11
350.9076144438
 21
421.9431618909
 31
0.0
  0
LINE
  5
17C
330
1F
100
AcDbEntity
  8
0
100
AcDbLine
 10
377.2761973509
 20
431.5431618909
 30
0.0
 11
352.2776144476
 21
431.5431618909
 31
0.0
  0
LINE
  5
17D
330
1F
100
AcDbEntity
  8
0
100
AcDbLine
 10
322.4076144438
 20
413.8431618909
 30
0.0
 11
322.4076144438
 21
408.4431618909
 31
0.0
  0
LINE
  5
17E
330
1F
100
AcDbEntity
  8
0
100
AcDbLine
 10
335.9076144438
 20
413.8431618909
 30
0.0
 11
335.9076144438
 21
408.4431618909
 31
0.0
  0
LINE
  5
17F
330
1F
100
AcDbEntity
  8
0
100
AcDbLine
 10
322.4076144438
 20
408.4431618909
 30
0.0
 11
335.9076144438
 21
408.4431618909
 31
0.0
  0
LINE
  5
180
330
1F
100
AcDbEntity
  8
0
100
AcDbLine
 10
322.4076144438
 20
413.8431618909
 30
0.0
 11
335.9076144438
 21
413.8431618909
 31
0.0
  0
LINE
  5
181
330
1F
100
AcDbEntity
  8
0
100
AcDbLine
 10
349.4076144438
 20
413.8431618909
 30
0.0
 11
349.4076144438
 21
408.4431618909
 31
0.0
  0
LINE
  5
182
330
1F
100
AcDbEntity
  8
0
100
AcDbLine
 10
335.9076144438
 20
408.4431618909
 30
0.0
 11
349.4076144438
 21
408.4431618909
 31
0.0
  0
LINE
  5
183
330
1F
100
AcDbEntity
  8
0
100
AcDbLine
 10
335.9076144438
 20
413.8431618909
 30
0.0
 11
349.4076144438
 21
413.8431618909
 31
0.0
  0
LINE
  5
184
330
1F
100
AcDbEntity
  8
0
100
AcDbLine
 10
323.1576144438
 20
400.9431618909
 30
0.0
 11
348.6576144438
 21
400.9431618909
 31
0.0
  0
LINE
  5
185
330
1F
100
AcDbEntity
  8
0
100
AcDbLine
 10
347.9076144438
 20
400.1931618909
 30
0.0
 11
323.9076144438
 21
400.1931618909
 31
0.0
  0
LINE
  5
186
330
1F
100
AcDbEntity
  8
0
100
AcDbLine
 10
350.9076144438
 20
421.5431618909
 30
0.0
 11
320.9076144438
 21
421.5431618909
 31
0.0
  0
LINE
  5
187
330
1F
100
AcDbEntity
  8
0
100
AcDbLine
 10
350.9076144438
 20
421.9431618909
 30
0.0
 11
320.9076144438
 21
421.9431618909
 31
0.0
  0
LINE
  5
188
330
1F
100
AcDbEntity
  8
0
100
AcDbLine
 10
348.4076144438
 20
431.5431618909
 30
0.0
 11
323.4090315405
 21
431.5431618909
 31
0.0
  0
LINE
  5
189
330
1F
100
AcDbEntity
  8
0
100
AcDbLine
 10
280.7426144438
 20
380.4431618909
 30
0.0
 11
280.7575484976
 21
380.4431618909
 31
0.0
  0
LINE
  5
18A
330
1F
100
AcDbEntity
  8
0
100
AcDbLine
 10
280.7575484976
 20
380.4431618909
 30
0.0
 11
282.5926144438
 21
380.4431618909
 31
0.0
  0
LINE
  5
18B
330
1F
100
AcDbEntity
  8
0
100
AcDbLine
 10
282.5926144438
 20
380.4431618909
 30
0.0
 11
283.0926144438
 21
380.4431618909
 31
0.0
  0
LINE
  5
18C
330
1F
100
AcDbEntity
  8
0
100
AcDbLine
 10
283.0926144438
 20
380.4431618909
 30
0.0
 11
284.92768039
 21
380.4431618909
 31
0.0
  0
LINE
  5
18D
330
1F
100
AcDbEntity
  8
0
100
AcDbLine
 10
284.92768039
 20
380.4431618909
 30
0.0
 11
284.9426144438
 21
380.4431618909
 31
0.0
  0
LINE
  5
18E
330
1F
100
AcDbEntity
  8
0
100
AcDbLine
 10
283.1426144438
 20
367.8931618909
 30
0.0
 11
282.5426144438
 21
367.8931618909
 31
0.0
  0
LINE
  5
18F
330
1F
100
AcDbEntity
  8
0
100
AcDbLine
 10
415.7426144438
 20
380.4431618909
 30
0.0
 11
415.7575484976
 21
380.4431618909
 31
0.0
  0
LINE
  5
190
330
1F
100
AcDbEntity
  8
0
100
AcDbLine
 10
415.7575484976
 20
380.4431618909
 30
0.0
 11
417.5926144438
 21
380.4431618909
 31
0.0
  0
LINE
  5
191
330
1F
100
AcDbEntity
  8
0
100
AcDbLine
 10
417.5926144438
 20
380.4431618909
 30
0.0
 11
418.0926144438
 21
380.4431618909
 31
0.0
  0
LINE
  5
192
330
1F
100
AcDbEntity
  8
0
100
AcDbLine
 10
418.0926144438
 20
380.4431618909
 30
0.0
 11
419.92768039
 21
380.4431618909
 31
0.0
  0
LINE
  5
193
330
1F
100
AcDbEntity
  8
0
100
AcDbLine
 10
419.92768039
 20
380.4431618909
 30
0.0
 11
419.9426144438
 21
380.4431618909
 31
0.0
  0
LINE
  5
194
330
1F
100
AcDbEntity
  8
0
100
AcDbLine
 10
418.1426144438
 20
367.8931618909
 30
0.0
 11
417.5426144438
 21
367.8931618909
 31
0.0
  0
LINE
  5
195
330
1F
100
AcDbEntity
  8
0
100
AcDbLine
 10
460.7426144438
 20
380.4431618909
 30
0.0
 11
460.7575484976
 21
380.4431618909
 31
0.0
  0
LINE
  5
196
330
1F
100
AcDbEntity
  8
0
100
AcDbLine
 10
460.7575484976
 20
380.4431618909
 30
0.0
 11
462.5926144438
 21
380.4431618909
 31
0.0
  0
LINE
  5
197
330
1F
100
AcDbEntity
  8
0
100
AcDbLine
 10
462.5926144438
 20
380.4431618909
 30
0.0
 11
463.0926144438
 21
380.4431618909
 31
0.0
  0
LINE
  5
198
330
1F
100
AcDbEntity
  8
0
100
AcDbLine
 10
463.0926144438
 20
380.4431618909
 30
0.0
 11
464.92768039
 21
380.4431618909
 31
0.0
  0
LINE
  5
199
330
1F
100
AcDbEntity
  8
0
100
AcDbLine
 10
464.92768039
 20
380.4431618909
 30
0.0
 11
464.9426144438
 21
380.4431618909
 31
0.0
  0
LINE
  5
19A
330
1F
100
AcDbEntity
  8
0
100
AcDbLine
 10
235.7426144438
 20
380.4431618909
 30
0.0
 11
235.7575484976
 21
380.4431618909
 31
0.0
  0
LINE
  5
19B
330
1F
100
AcDbEntity
  8
0
100
AcDbLine
 10
235.7575484976
 20
380.4431618909
 30
0.0
 11
237.5926144438
 21
380.4431618909
 31
0.0
  0
LINE
  5
19C
330
1F
100
AcDbEntity
  8
0
100
AcDbLine
 10
237.5926144438
 20
380.4431618909
 30
0.0
 11
238.0926144438
 21
380.4431618909
 31
0.0
  0
LINE
  5
19D
330
1F
100
AcDbEntity
  8
0
100
AcDbLine
 10
238.0926144438
 20
380.4431618909
 30
0.0
 11
239.92768039
 21
380.4431618909
 31
0.0
  0
LINE
  5
19E
330
1F
100
AcDbEntity
  8
0
100
AcDbLine
 10
239.92768039
 20
380.4431618909
 30
0.0
 11
239.9426144438
 21
380.4431618909
 31
0.0
  0
CIRCLE
  5
19F
330
1F
100
AcDbEntity
  8
0
100
AcDbCircle
 10
298.3426144438
 20
355.4893143136
 30
0.0
 40
3.000000000000001
  0
CIRCLE
  5
1A0
330
1F
100
AcDbEntity
  8
0
100
AcDbCircle
 10
298.3426144438
 20
355.4893143136
 30
0.0
 40
0.899999999999968
  0
CIRCLE
  5
1A1
330
1F
100
AcDbEntity
  8
0
100
AcDbCircle
 10
402.3426144438
 20
355.4893143136
 30
0.0
 40
2.99999999999997
  0
CIRCLE
  5
1A2
330
1F
100
AcDbEntity
  8
0
100
AcDbCircle
 10
402.3426144438
 20
355.4893143136
 30
0.0
 40
0.8999999999999913
  0
CIRCLE
  5
1A3
330
1F
100
AcDbEntity
  8
0
100
AcDbCircle
 10
460.5426144438
 20
234.7681618909
 30
0.0
 40
3.000000000000057
  0
CIRCLE
  5
1A4
330
1F
100
AcDbEntity
  8
0
100
AcDbCircle
 10
460.5426144438
 20
234.7681618909
 30
0.0
 40
0.8999999999999773
  0
CIRCLE
  5
1A5
330
1F
100
AcDbEntity
  8
0
100
AcDbCircle
 10
240.1426144438
 20
234.7681618909
 30
0.0
 40
3.0
  0
CIRCLE
  5
1A6
330
1F
100
AcDbEntity
  8
0
100
AcDbCircle
 10
240.1426144438
 20
234.7681618909
 30
0.0
 40
0.9000000000000057
  0
CIRCLE
  5
1A7
330
1F
100
AcDbEntity
  8
0
100
AcDbCircle
 10
240.1426144438
 20
358.6931618909
 30
0.0
 40
3.0
  0
CIRCLE
  5
1A8
330
1F
100
AcDbEntity
  8
0
100
AcDbCircle
 10
240.1426144438
 20
358.6931618909
 30
0.0
 40
0.9000000000000057
  0
CIRCLE
  5
1A9
330
1F
100
AcDbEntity
  8
0
100
AcDbCircle
 10
240.1426144438
 20
110.8431618909
 30
0.0
 40
3.0
  0
CIRCLE
  5
1AA
330
1F
100
AcDbEntity
  8
0
100
AcDbCircle
 10
240.1426144438
 20
110.8431618909
 30
0.0
 40
0.9000000000000057
  0
CIRCLE
  5
1AB
330
1F
100
AcDbEntity
  8
0
100
AcDbCircle
 10
460.5426144438
 20
358.6931618909
 30
0.0
 40
3.000000000000057
  0
CIRCLE
  5
1AC
330
1F
100
AcDbEntity
  8
0
100
AcDbCircle
 10
460.5426144438
 20
358.6931618909
 30
0.0
 40
0.9000000000000341
  0
LINE
  5
1AD
330
1F
100
AcDbEntity
  8
0
100
AcDbLine
 10
461.2960666377
 20
-153.8068381091
 30
0.0
 11
461.4426144438
 21
-153.8068381091
 31
0.0
  0
LINE
  5
1AE
330
1F
100
AcDbEntity
  8
0
100
AcDbLine
 10
459.6426144438
 20
-153.8068381091
 30
0.0
 11
461.2960666377
 21
-153.8068381091
 31
0.0
  0
CIRCLE
  5
1AF
330
1F
100
AcDbEntity
  8
0
100
AcDbCircle
 10
460.5426144438
 20
110.8431618909
 30
0.0
 40
3.000000000000057
  0
CIRCLE
  5
1B0
330
1F
100
AcDbEntity
  8
0
100
AcDbCircle
 10
460.5426144438
 20
110.8431618909
 30
0.0
 40
0.9000000000000341
  0
CIRCLE
  5
1B1
330
1F
100
AcDbEntity
  8
0
100
AcDbCircle
 10
460.5426144438
 20
-137.0068381091
 30
0.0
 40
3.000000000000057
  0
CIRCLE
  5
1B2
330
1F
100
AcDbEntity
  8
0
100
AcDbCircle
 10
460.5426144438
 20
-137.0068381091
 30
0.0
 40
0.9000000000000341
  0
CIRCLE
  5
1B3
330
1F
100
AcDbEntity
  8
0
100
AcDbCircle
 10
298.3426144438
 20
25.7559809802
 30
0.0
 40
3.0
  0
CIRCLE
  5
1B4
330
1F
100
AcDbEntity
  8
0
100
AcDbCircle
 10
298.3426144438
 20
25.7559809802
 30
0.0
 40
0.9000000000000341
  0
CIRCLE
  5
1B5
330
1F
100
AcDbEntity
  8
0
100
AcDbCircle
 10
402.3426144438
 20
190.6226476469
 30
0.0
 40
3.0
  0
CIRCLE
  5
1B6
330
1F
100
AcDbEntity
  8
0
100
AcDbCircle
 10
402.3426144438
 20
190.6226476469
 30
0.0
 40
0.9000000000000341
  0
CIRCLE
  5
1B7
330
1F
100
AcDbEntity
  8
0
100
AcDbCircle
 10
402.3426144438
 20
25.7559809802
 30
0.0
 40
3.0
  0
CIRCLE
  5
1B8
330
1F
100
AcDbEntity
  8
0
100
AcDbCircle
 10
402.3426144438
 20
25.7559809802
 30
0.0
 40
0.8999999999999773
  0
CIRCLE
  5
1B9
330
1F
100
AcDbEntity
  8
0
100
AcDbCircle
 10
298.3426144438
 20
190.6226476469
 30
0.0
 40
3.0
  0
CIRCLE
  5
1BA
330
1F
100
AcDbEntity
  8
0
100
AcDbCircle
 10
298.3426144438
 20
190.6226476469
 30
0.0
 40
0.8999999999999773
  0
CIRCLE
  5
1BB
330
1F
100
AcDbEntity
  8
0
100
AcDbCircle
 10
402.3426144438
 20
-139.1106856864
 30
0.0
 40
3.0
  0
CIRCLE
  5
1BC
330
1F
100
AcDbEntity
  8
0
100
AcDbCircle
 10
402.3426144438
 20
-139.1106856864
 30
0.0
 40
0.9000000000000341
  0
LINE
  5
1BD
330
1F
100
AcDbEntity
  8
0
100
AcDbLine
 10
240.8960666377
 20
-153.8068381091
 30
0.0
 11
241.0426144438
 21
-153.8068381091
 31
0.0
  0
LINE
  5
1BE
330
1F
100
AcDbEntity
  8
0
100
AcDbLine
 10
239.2426144438
 20
-153.8068381091
 30
0.0
 11
240.8960666377
 21
-153.8068381091
 31
0.0
  0
CIRCLE
  5
1BF
330
1F
100
AcDbEntity
  8
0
100
AcDbCircle
 10
298.3426144438
 20
-139.1106856864
 30
0.0
 40
3.0
  0
CIRCLE
  5
1C0
330
1F
100
AcDbEntity
  8
0
100
AcDbCircle
 10
298.3426144438
 20
-139.1106856864
 30
0.0
 40
0.8999999999999773
  0
CIRCLE
  5
1C1
330
1F
100
AcDbEntity
  8
0
100
AcDbCircle
 10
240.1426144438
 20
-13.0818381091
 30
0.0
 40
3.0
  0
CIRCLE
  5
1C2
330
1F
100
AcDbEntity
  8
0
100
AcDbCircle
 10
240.1426144438
 20
-13.0818381091
 30
0.0
 40
0.9000000000000057
  0
CIRCLE
  5
1C3
330
1F
100
AcDbEntity
  8
0
100
AcDbCircle
 10
460.5426144438
 20
-13.0818381091
 30
0.0
 40
3.000000000000057
  0
CIRCLE
  5
1C4
330
1F
100
AcDbEntity
  8
0
100
AcDbCircle
 10
460.5426144438
 20
-13.0818381091
 30
0.0
 40
0.8999999999999773
  0
CIRCLE
  5
1C5
330
1F
100
AcDbEntity
  8
0
100
AcDbCircle
 10
240.1426144438
 20
-137.0068381091
 30
0.0
 40
3.0
  0
CIRCLE
  5
1C6
330
1F
100
AcDbEntity
  8
0
100
AcDbCircle
 10
240.1426144438
 20
-137.0068381091
 30
0.0
 40
0.9000000000000057
  0
LINE
  5
1C7
330
1F
100
AcDbEntity
  8
0
100
AcDbLine
 10
398.7776144476
 20
379.3931618909
 30
0.0
 11
369.9076144438
 21
379.3931618909
 31
0.0
  0
LINE
  5
1C8
330
1F
100
AcDbEntity
  8
0
100
AcDbLine
 10
353.7709141724
 20
389.3931618909
 30
0.0
 11
352.7776144476
 21
389.3931618909
 31
0.0
  0
LINE
  5
1C9
330
1F
100
AcDbEntity
  8
0
100
AcDbLine
 10
376.7776144476
 20
389.3931618909
 30
0.0
 11
353.7709141724
 21
389.3931618909
 31
0.0
  0
LINE
  5
1CA
330
1F
100
AcDbEntity
  8
0
100
AcDbLine
 10
369.9076144438
 20
379.3931618909
 30
0.0
 11
301.9076144438
 21
379.3931618909
 31
0.0
  0
LINE
  5
1CB
330
1F
100
AcDbEntity
  8
0
100
AcDbLine
 10
347.9076144438
 20
389.3931618909
 30
0.0
 11
323.9076144438
 21
389.3931618909
 31
0.0
  0
LINE
  5
1CC
330
1F
100
AcDbEntity
  8
0
100
AcDbLine
 10
468.6658377486
 20
375.6931618909
 30
0.0
 11
468.6658377485
 21
368.3931618909
 31
0.0
  0
LINE
  5
1CD
330
1F
100
AcDbEntity
  8
0
100
AcDbLine
 10
232.0193911391
 20
368.3931618909
 30
0.0
 11
468.6658377485
 21
368.3931618909
 31
0.0
  0
LINE
  5
1CE
330
1F
100
AcDbEntity
  8
0
100
AcDbLine
 10
232.0193911391
 20
368.3931618909
 30
0.0
 11
232.0193911391
 21
375.6931618909
 31
0.0
  0
ELLIPSE
  5
1CF
330
1F
100
AcDbEntity
  8
0
100
AcDbEllipse
 10
467.8426144438
 20
375.6931618909
 30
0.0
 11
0.0
 21
1.699999999999989
 31
0.0
210
0.0
220
0.0
230
1.0
 40
0.4842490028
 41
4.712388980384697
 42
6.283185307179586
  0
ELLIPSE
  5
1D0
330
1F
100
AcDbEntity
  8
0
100
AcDbEllipse
 10
232.8426144438
 20
375.6931618909
 30
0.0
 11
0.0
 21
1.700000000000045
 31
0.0
210
0.0
220
0.0
230
1.0
 40
0.4842490028
 41
0.0
 42
1.570796326794897
  0
LINE
  5
1D1
330
1F
100
AcDbEntity
  8
0
100
AcDbLine
 10
232.8426144438
 20
377.3931618909
 30
0.0
 11
467.8426144438
 21
377.3931618909
 31
0.0
  0
LINE
  5
1D2
330
1F
100
AcDbEntity
  8
0
100
AcDbLine
 10
468.8426144438
 20
368.3931618909
 30
0.0
 11
468.8426144438
 21
375.6931618909
 31
0.0
  0
LINE
  5
1D3
330
1F
100
AcDbEntity
  8
0
100
AcDbLine
 10
469.5426144438
 20
368.3931618909
 30
0.0
 11
469.5426144438
 21
375.6931618909
 31
0.0
  0
LINE
  5
1D4
330
1F
100
AcDbEntity
  8
0
100
AcDbLine
 10
468.8426144438
 20
368.3931618909
 30
0.0
 11
469.5426144438
 21
368.3931618909
 31
0.0
  0
ARC
  5
1D5
330
1F
100
AcDbEntity
  8
0
100
AcDbCircle
 10
232.8426144438
 20
375.6931618909
 30
0.0
 40
1.699999999999989
100
AcDbArc
 50
90.0
 51
180.0
  0
ARC
  5
1D6
330
1F
100
AcDbEntity
  8
0
100
AcDbCircle
 10
232.8426144438
 20
375.6931618909
 30
0.0
 40
1.000000000000028
100
AcDbArc
 50
139.5433409386
 51
180.0
  0
LINE
  5
1D7
330
1F
100
AcDbEntity
  8
0
100
AcDbLine
 10
231.8426144438
 20
368.3931618909
 30
0.0
 11
231.1426144438
 21
368.3931618909
 31
0.0
  0
LINE
  5
1D8
330
1F
100
AcDbEntity
  8
0
100
AcDbLine
 10
231.8426144438
 20
375.6931618909
 30
0.0
 11
231.8426144438
 21
368.3931618909
 31
0.0
  0
LINE
  5
1D9
330
1F
100
AcDbEntity
  8
0
100
AcDbLine
 10
231.1426144438
 20
375.6931618909
 30
0.0
 11
231.1426144438
 21
368.3931618909
 31
0.0
  0
ARC
  5
1DA
330
1F
100
AcDbEntity
  8
0
100
AcDbCircle
 10
467.8426144438
 20
375.6931618909
 30
0.0
 40
1.699999999999989
100
AcDbArc
 50
0.0
 51
89.9999999981
  0
ARC
  5
1DB
330
1F
100
AcDbEntity
  8
0
100
AcDbCircle
 10
467.8426144438
 20
375.6931618909
 30
0.0
 40
1.0
100
AcDbArc
 50
0.0
 51
40.4566029977
  0
LINE
  5
1DC
330
1F
100
AcDbEntity
  8
0
100
AcDbLine
 10
464.8426144438
 20
368.3931618909
 30
0.0
 11
464.8426144438
 21
-151.3068381091
 31
0.0
  0
LINE
  5
1DD
330
1F
100
AcDbEntity
  8
0
100
AcDbLine
 10
235.8426144438
 20
368.3931618909
 30
0.0
 11
235.8426144438
 21
-151.3068381091
 31
0.0
  0
LINE
  5
1DE
330
1F
100
AcDbEntity
  8
0
100
AcDbLine
 10
464.8426144438
 20
-151.3068381091
 30
0.0
 11
464.8426144438
 21
-153.0068381091
 31
0.0
  0
LINE
  5
1DF
330
1F
100
AcDbEntity
  8
0
100
AcDbLine
 10
464.8426144438
 20
-153.0068381091
 30
0.0
 11
235.8426144438
 21
-153.0068381091
 31
0.0
  0
LINE
  5
1E0
330
1F
100
AcDbEntity
  8
0
100
AcDbLine
 10
235.8426144438
 20
-151.3068381091
 30
0.0
 11
235.8426144438
 21
-153.0068381091
 31
0.0
  0
LINE
  5
1E1
330
1F
100
AcDbEntity
  8
0
100
AcDbLine
 10
184.7426140207
 20
-95.7068381091
 30
0.0
 11
184.7426140207
 21
318.0931618909
 31
0.0
  0
LINE
  5
1E2
330
1F
100
AcDbEntity
  8
0
100
AcDbLine
 10
180.5426140207
 20
-95.7068381091
 30
0.0
 11
180.5426140207
 21
318.0931618909
 31
0.0
  0
LINE
  5
1E3
330
1F
100
AcDbEntity
  8
0
100
AcDbLine
 10
520.1426148668
 20
318.0931618909
 30
0.0
 11
520.1426148668
 21
-95.7068381091
 31
0.0
  0
LINE
  5
1E4
330
1F
100
AcDbEntity
  8
0
100
AcDbLine
 10
515.9426148668
 20
318.0931618909
 30
0.0
 11
515.9426148668
 21
-95.7068381091
 31
0.0
  0
LINE
  5
1E5
330
1F
100
AcDbEntity
  8
0
100
AcDbLine
 10
504.9044258166
 20
111.1931618909
 30
0.0
 11
504.9044258166
 21
-88.9567867087
 31
0.0
  0
LINE
  5
1E6
330
1F
100
AcDbEntity
  8
0
100
AcDbLine
 10
504.9044258166
 20
311.3431104904
 30
0.0
 11
504.9044258166
 21
111.1931618909
 31
0.0
  0
LINE
  5
1E7
330
1F
100
AcDbEntity
  8
0
100
AcDbLine
 10
506.6699311341
 20
111.1931618909
 30
0.0
 11
506.6699311341
 21
-87.1912813912
 31
0.0
  0
LINE
  5
1E8
330
1F
100
AcDbEntity
  8
0
100
AcDbLine
 10
506.6699311341
 20
309.5776051729
 30
0.0
 11
506.6699311341
 21
111.1931618909
 31
0.0
  0
LINE
  5
1E9
330
1F
100
AcDbEntity
  8
0
100
AcDbLine
 10
523.1426144438
 20
111.1931618909
 30
0.0
 11
523.1426144438
 21
-88.8068381091
 31
0.0
  0
LINE
  5
1EA
330
1F
100
AcDbEntity
  8
0
100
AcDbLine
 10
523.1426144438
 20
311.1931618909
 30
0.0
 11
523.1426144438
 21
111.1931618909
 31
0.0
  0
LINE
  5
1EB
330
1F
100
AcDbEntity
  8
0
100
AcDbLine
 10
513.6155031627
 20
111.1931618909
 30
0.0
 11
513.6155031627
 21
-85.2060832955
 31
0.0
  0
LINE
  5
1EC
330
1F
100
AcDbEntity
  8
0
100
AcDbLine
 10
513.6155031627
 20
307.5924070772
 30
0.0
 11
513.6155031627
 21
111.1931618909
 31
0.0
  0
LINE
  5
1ED
330
1F
100
AcDbEntity
  8
0
100
AcDbLine
 10
195.7808030709
 20
-88.9567867087
 30
0.0
 11
195.7808030709
 21
311.3431104904
 31
0.0
  0
LINE
  5
1EE
330
1F
100
AcDbEntity
  8
0
100
AcDbLine
 10
194.0152977534
 20
-87.1912813912
 30
0.0
 11
194.0152977534
 21
309.5776051729
 31
0.0
  0
LINE
  5
1EF
330
1F
100
AcDbEntity
  8
0
100
AcDbLine
 10
177.5426144438
 20
-88.8068381091
 30
0.0
 11
177.5426144438
 21
311.1931618909
 31
0.0
  0
LINE
  5
1F0
330
1F
100
AcDbEntity
  8
0
100
AcDbLine
 10
187.0697257248
 20
-85.2060832955
 30
0.0
 11
187.0697257248
 21
307.5924070772
 31
0.0
  0
LINE
  5
1F1
330
1F
100
AcDbEntity
  8
0
  6
PHANTOM
 62
     8
370
    18
100
AcDbLine
 10
350.8776144476
 20
430.1431618909
 30
0.0
 11
378.6776144476
 21
430.1431618909
 31
0.0
  0
LINE
  5
1F2
330
1F
100
AcDbEntity
  8
0
  6
PHANTOM
 62
     8
370
    18
100
AcDbLine
 10
322.0076144438
 20
430.1431618909
 30
0.0
 11
349.8076144438
 21
430.1431618909
 31
0.0
  0
LINE
  5
1F3
330
1F
100
AcDbEntity
  8
0
  6
PHANTOM
 62
     8
370
    18
100
AcDbLine
 10
322.0091902553
 20
430.1431618909
 30
0.0
 11
322.0091902553
 21
421.9431618909
 31
0.0
  0
ARC
  5
1F4
330
1F
100
AcDbEntity
  8
0
  6
PHANTOM
 62
     8
370
    18
100
AcDbCircle
 10
323.4091109024
 20
430.1432412438
 30
0.0
 40
1.399920649331539
100
AcDbArc
 50
90.0032481147
 51
180.0032477464
  0
LINE
  5
1F5
330
1F
100
AcDbEntity
  8
0
  6
PHANTOM
 62
     8
370
    18
100
AcDbLine
 10
282.8426144438
 20
378.4431618909
 30
0.0
 11
286.9426144438
 21
378.4431618909
 31
0.0
  0
LINE
  5
1F6
330
1F
100
AcDbEntity
  8
0
  6
PHANTOM
 62
     8
370
    18
100
AcDbLine
 10
278.7426144438
 20
378.4431618909
 30
0.0
 11
282.8426144438
 21
378.4431618909
 31
0.0
  0
LINE
  5
1F7
330
1F
100
AcDbEntity
  8
0
  6
PHANTOM
 62
     8
370
    18
100
AcDbLine
 10
417.8426144438
 20
378.4431618909
 30
0.0
 11
421.9426144438
 21
378.4431618909
 31
0.0
  0
LINE
  5
1F8
330
1F
100
AcDbEntity
  8
0
  6
PHANTOM
 62
     8
370
    18
100
AcDbLine
 10
413.7426144438
 20
378.4431618909
 30
0.0
 11
417.8426144438
 21
378.4431618909
 31
0.0
  0
LINE
  5
1F9
330
1F
100
AcDbEntity
  8
0
  6
PHANTOM
 62
     8
370
    18
100
AcDbLine
 10
462.8426144438
 20
378.4431618909
 30
0.0
 11
466.9426144438
 21
378.4431618909
 31
0.0
  0
LINE
  5
1FA
330
1F
100
AcDbEntity
  8
0
  6
PHANTOM
 62
     8
370
    18
100
AcDbLine
 10
458.7426144438
 20
378.4431618909
 30
0.0
 11
462.8426144438
 21
378.4431618909
 31
0.0
  0
LINE
  5
1FB
330
1F
100
AcDbEntity
  8
0
  6
PHANTOM
 62
     8
370
    18
100
AcDbLine
 10
237.8426144438
 20
378.4431618909
 30
0.0
 11
241.9426144438
 21
378.4431618909
 31
0.0
  0
LINE
  5
1FC
330
1F
100
AcDbEntity
  8
0
  6
PHANTOM
 62
     8
370
    18
100
AcDbLine
 10
233.7426144438
 20
378.4431618909
 30
0.0
 11
237.8426144438
 21
378.4431618909
 31
0.0
  0
LINE
  5
1FD
330
1F
100
AcDbEntity
  8
0
  6
PHANTOM
 62
     8
370
    18
100
AcDbLine
 10
353.7709141724
 20
387.3931618909
 30
0.0
 11
352.7776144476
 21
387.3931618909
 31
0.0
  0
LINE
  5
1FE
330
1F
100
AcDbEntity
  8
0
  6
PHANTOM
 62
     8
370
    18
100
AcDbLine
 10
376.7776144476
 20
387.3931618909
 30
0.0
 11
353.7709141724
 21
387.3931618909
 31
0.0
  0
LINE
  5
1FF
330
1F
100
AcDbEntity
  8
0
  6
PHANTOM
 62
     8
370
    18
100
AcDbLine
 10
347.9076144438
 20
387.3931618909
 30
0.0
 11
323.9076144438
 21
387.3931618909
 31
0.0
  0
LINE
  5
200
330
1F
100
AcDbEntity
  8
0
  6
PHANTOM
 62
     8
370
    18
100
AcDbLine
 10
232.0193911391
 20
375.6931618909
 30
0.0
 11
468.6658377486
 21
375.6931618909
 31
0.0
  0
LINE
  5
201
330
1F
100
AcDbEntity
  8
0
  6
PHANTOM
 62
     8
370
    18
100
AcDbLine
 10
468.8426144438
 20
375.6931618909
 30
0.0
 11
469.5426144438
 21
375.6931618909
 31
0.0
  0
LINE
  5
202
330
1F
100
AcDbEntity
  8
0
  6
PHANTOM
 62
     8
370
    18
100
AcDbLine
 10
231.8426144438
 20
375.6931618909
 30
0.0
 11
231.1426144438
 21
375.6931618909
 31
0.0
  0
LINE
  5
203
330
1F
100
AcDbEntity
  8
0
  6
PHANTOM
 62
     8
370
    18
100
AcDbLine
 10
464.8426144438
 20
-151.3068381091
 30
0.0
 11
235.8426144438
 21
-151.3068381091
 31
0.0
  0
LINE
  5
204
330
1F
100
AcDbEntity
  8
0
  6
PHANTOM
 62
     8
370
    18
100
AcDbLine
 10
183.7445069027
 20
-95.7503041768
 30
0.0
 11
183.7445069027
 21
318.1366279586
 31
0.0
  0
LINE
  5
205
330
1F
100
AcDbEntity
  8
0
  6
PHANTOM
 62
     8
370
    18
100
AcDbLine
 10
179.5445069027
 20
-95.7503041768
 30
0.0
 11
179.5445069027
 21
318.1366279586
 31
0.0
  0
LINE
  5
206
330
1F
100
AcDbEntity
  8
0
  6
PHANTOM
 62
     8
370
    18
100
AcDbLine
 10
183.0625331647
 20
-87.9351050753
 30
0.0
 11
183.0625331647
 21
310.321428857
 31
0.0
  0
LINE
  5
207
330
1F
100
AcDbEntity
  8
0
  6
PHANTOM
 62
     8
370
    18
100
AcDbLine
 10
178.8625331647
 20
-87.9351050753
 30
0.0
 11
178.8625331647
 21
310.321428857
 31
0.0
  0
LINE
  5
208
330
1F
100
AcDbEntity
  8
0
  6
PHANTOM
 62
     8
370
    18
100
AcDbLine
 10
178.6134796057
 20
-87.7068381091
 30
0.0
 11
178.6134796057
 21
310.0931618909
 31
0.0
  0
LINE
  5
209
330
1F
100
AcDbEntity
  8
0
  6
PHANTOM
 62
     8
370
    18
100
AcDbLine
 10
182.8134796057
 20
-87.7068381091
 30
0.0
 11
182.8134796057
 21
310.0931618909
 31
0.0
  0
LINE
  5
20A
330
1F
100
AcDbEntity
  8
0
  6
PHANTOM
 62
     8
370
    18
100
AcDbLine
 10
521.1407219848
 20
318.1366279586
 30
0.0
 11
521.1407219848
 21
-95.7503041768
 31
0.0
  0
LINE
  5
20B
330
1F
100
AcDbEntity
  8
0
  6
PHANTOM
 62
     8
370
    18
100
AcDbLine
 10
516.9407219848
 20
318.1366279586
 30
0.0
 11
516.9407219848
 21
-95.7503041768
 31
0.0
  0
LINE
  5
20C
330
1F
100
AcDbEntity
  8
0
  6
PHANTOM
 62
     8
370
    18
100
AcDbLine
 10
521.8226957228
 20
310.321428857
 30
0.0
 11
521.8226957228
 21
-87.9351050753
 31
0.0
  0
LINE
  5
20D
330
1F
100
AcDbEntity
  8
0
  6
PHANTOM
 62
     8
370
    18
100
AcDbLine
 10
517.6226957228
 20
310.321428857
 30
0.0
 11
517.6226957228
 21
-87.9351050753
 31
0.0
  0
LINE
  5
20E
330
1F
100
AcDbEntity
  8
0
  6
PHANTOM
 62
     8
370
    18
100
AcDbLine
 10
522.0717492818
 20
310.0931618909
 30
0.0
 11
522.0717492818
 21
-87.7068381091
 31
0.0
  0
LINE
  5
20F
330
1F
100
AcDbEntity
  8
0
  6
PHANTOM
 62
     8
370
    18
100
AcDbLine
 10
517.8717492818
 20
310.0931618909
 30
0.0
 11
517.8717492818
 21
-87.7068381091
 31
0.0
  0
LINE
  5
210
330
1F
100
AcDbEntity
  8
0
  6
PHANTOM
 62
     8
370
    18
100
AcDbLine
 10
527.8426144438
 20
111.1931618909
 30
0.0
 11
527.8426144438
 21
-88.8068381091
 31
0.0
  0
LINE
  5
211
330
1F
100
AcDbEntity
  8
0
  6
PHANTOM
 62
     8
370
    18
100
AcDbLine
 10
527.8426144438
 20
311.1931618909
 30
0.0
 11
527.8426144438
 21
111.1931618909
 31
0.0
  0
LINE
  5
212
330
1F
100
AcDbEntity
  8
0
  6
PHANTOM
 62
     8
370
    18
100
AcDbLine
 10
172.8426144438
 20
-88.8068381091
 30
0.0
 11
172.8426144438
 21
311.1931618909
 31
0.0
  0
INSERT
  5
213
330
1F
100
AcDbEntity
  8
0
  6
Continuous
 62
     7
100
AcDbBlockReference
  2
ODA_2
 10
622.2621405052
 20
98.6931618909
 30
0.0
 41
5.0
 42
5.0
 43
5.0
  0
INSERT
  5
214
330
1F
100
AcDbEntity
  8
0
  6
Continuous
 62
     7
100
AcDbBlockReference
  2
SUP_2_
 10
105.3634434908
 20
105.1114176897
 30
0.0
 41
5.0
 42
5.0
 43
5.0
  0
LINE
  5
215
330
1F
100
AcDbEntity
  8
0
100
AcDbLine
 10
-171.507690204
 20
413.8431618909
 30
0.0
 11
-171.507690204
 21
421.5431618909
 31
0.0
  0
LINE
  5
216
330
1F
100
AcDbEntity
  8
0
100
AcDbLine
 10
-198.407690204
 20
421.5431618909
 30
0.0
 11
-198.407690204
 21
413.8431618909
 31
0.0
  0
LINE
  5
217
330
1F
100
AcDbEntity
  8
0
100
AcDbLine
 10
-197.707690204
 20
408.4431618909
 30
0.0
 11
-197.707690204
 21
400.9431618909
 31
0.0
  0
LINE
  5
218
330
1F
100
AcDbEntity
  8
0
100
AcDbLine
 10
-172.207690204
 20
400.9431618909
 30
0.0
 11
-172.207690204
 21
408.4431618909
 31
0.0
  0
LINE
  5
219
330
1F
100
AcDbEntity
  8
0
100
AcDbLine
 10
-197.707690204
 20
400.9431618909
 30
0.0
 11
-196.957690204
 21
400.1931618909
 31
0.0
  0
LINE
  5
21A
330
1F
100
AcDbEntity
  8
0
100
AcDbLine
 10
-172.957690204
 20
400.1931618909
 30
0.0
 11
-172.207690204
 21
400.9431618909
 31
0.0
  0
LINE
  5
21B
330
1F
100
AcDbEntity
  8
0
100
AcDbLine
 10
-169.957690204
 20
421.5431618909
 30
0.0
 11
-169.957690204
 21
421.9431618909
 31
0.0
  0
LINE
  5
21C
330
1F
100
AcDbEntity
  8
0
100
AcDbLine
 10
-199.957690204
 20
421.9431618909
 30
0.0
 11
-199.957690204
 21
421.5431618909
 31
0.0
  0
ARC
  5
21D
330
1F
100
AcDbEntity
  8
0
100
AcDbCircle
 10
-197.457690204
 20
430.1431618909
 30
0.0
 40
1.400000000000006
100
AcDbArc
 50
90.0
 51
180.0
  0
ARC
  5
21E
330
1F
100
AcDbEntity
  8
0
100
AcDbCircle
 10
-172.457690204
 20
430.1431618909
 30
0.0
 40
1.400000000000034
100
AcDbArc
 50
0.0
 51
90.0
  0
LINE
  5
21F
330
1F
100
AcDbEntity
  8
0
100
AcDbLine
 10
-198.857690204
 20
430.1431618909
 30
0.0
 11
-198.857690204
 21
421.9431618909
 31
0.0
  0
LINE
  5
220
330
1F
100
AcDbEntity
  8
0
100
AcDbLine
 10
-171.057690204
 20
421.9431618909
 30
0.0
 11
-171.057690204
 21
430.1431618909
 31
0.0
  0
LINE
  5
221
330
1F
100
AcDbEntity
  8
0
100
AcDbLine
 10
-173.957690204
 20
389.3931618909
 30
0.0
 11
-173.957690204
 21
400.1931618909
 31
0.0
  0
LINE
  5
222
330
1F
100
AcDbEntity
  8
0
100
AcDbLine
 10
-195.957690204
 20
400.1931618909
 30
0.0
 11
-195.957690204
 21
389.3931618909
 31
0.0
  0
LINE
  5
223
330
1F
100
AcDbEntity
  8
0
100
AcDbLine
 10
-536.0826902062
 20
413.8431618909
 30
0.0
 11
-536.0826902062
 21
421.5431618909
 31
0.0
  0
LINE
  5
224
330
1F
100
AcDbEntity
  8
0
100
AcDbLine
 10
-562.9826902062
 20
421.5431618909
 30
0.0
 11
-562.9826902062
 21
413.8431618909
 31
0.0
  0
LINE
  5
225
330
1F
100
AcDbEntity
  8
0
100
AcDbLine
 10
-562.2826902062
 20
408.4431618909
 30
0.0
 11
-562.2826902062
 21
400.9431618909
 31
0.0
  0
LINE
  5
226
330
1F
100
AcDbEntity
  8
0
100
AcDbLine
 10
-536.7826902062
 20
400.9431618909
 30
0.0
 11
-536.7826902062
 21
408.4431618909
 31
0.0
  0
LINE
  5
227
330
1F
100
AcDbEntity
  8
0
100
AcDbLine
 10
-562.2826902062
 20
400.9431618909
 30
0.0
 11
-561.5326902062
 21
400.1931618909
 31
0.0
  0
LINE
  5
228
330
1F
100
AcDbEntity
  8
0
100
AcDbLine
 10
-537.5326902062
 20
400.1931618909
 30
0.0
 11
-536.7826902062
 21
400.9431618909
 31
0.0
  0
LINE
  5
229
330
1F
100
AcDbEntity
  8
0
100
AcDbLine
 10
-534.5326902062
 20
421.5431618909
 30
0.0
 11
-534.5326902062
 21
421.9431618909
 31
0.0
  0
LINE
  5
22A
330
1F
100
AcDbEntity
  8
0
100
AcDbLine
 10
-564.5326902062
 20
421.9431618909
 30
0.0
 11
-564.5326902062
 21
421.5431618909
 31
0.0
  0
LINE
  5
22B
330
1F
100
AcDbEntity
  8
0
100
AcDbLine
 10
-563.4326902062
 20
430.1431618909
 30
0.0
 11
-563.4326902062
 21
421.9431618909
 31
0.0
  0
LINE
  5
22C
330
1F
100
AcDbEntity
  8
0
100
AcDbLine
 10
-535.6326902062
 20
421.9431618909
 30
0.0
 11
-535.6326902062
 21
430.1431618909
 31
0.0
  0
ARC
  5
22D
330
1F
100
AcDbEntity
  8
0
100
AcDbCircle
 10
-562.0326902062
 20
430.1431618909
 30
0.0
 40
1.400000000000034
100
AcDbArc
 50
90.0
 51
180.0
  0
ARC
  5
22E
330
1F
100
AcDbEntity
  8
0
100
AcDbCircle
 10
-537.0326902062
 20
430.1431618909
 30
0.0
 40
1.400000000000091
100
AcDbArc
 50
0.0
 51
90.0
  0
LINE
  5
22F
330
1F
100
AcDbEntity
  8
0
100
AcDbLine
 10
-538.5326902062
 20
389.3931618909
 30
0.0
 11
-538.5326902062
 21
400.1931618909
 31
0.0
  0
LINE
  5
230
330
1F
100
AcDbEntity
  8
0
100
AcDbLine
 10
-560.5326902062
 20
400.1931618909
 30
0.0
 11
-560.5326902062
 21
389.3931618909
 31
0.0
  0
LINE
  5
231
330
1F
100
AcDbEntity
  8
0
100
AcDbLine
 10
-448.987690204
 20
289.0765232843
 30
0.0
 11
-448.987690204
 21
230.6805271966
 31
0.0
  0
LINE
  5
232
330
1F
100
AcDbEntity
  8
0
100
AcDbLine
 10
-448.987690204
 20
222.8805271966
 30
0.0
 11
-448.987690204
 21
-66.6901995025
 31
0.0
  0
LINE
  5
233
330
1F
100
AcDbEntity
  8
0
100
AcDbLine
 10
-435.487690204
 20
-72.2815441603
 30
0.0
 11
-435.487690204
 21
222.8805271966
 31
0.0
  0
LINE
  5
234
330
1F
100
AcDbEntity
  8
0
100
AcDbLine
 10
-435.487690204
 20
230.6805271966
 30
0.0
 11
-435.487690204
 21
294.667867942
 31
0.0
  0
LINE
  5
235
330
1F
100
AcDbEntity
  8
0
100
AcDbLine
 10
-465.6526902062
 20
280.443341537
 30
0.0
 11
-465.6526902062
 21
230.6805271966
 31
0.0
  0
LINE
  5
236
330
1F
100
AcDbEntity
  8
0
100
AcDbLine
 10
-465.6526902062
 20
222.8805271966
 30
0.0
 11
-465.6526902062
 21
-58.0570177553
 31
0.0
  0
LINE
  5
237
330
1F
100
AcDbEntity
  8
0
100
AcDbLine
 10
-452.1526902062
 20
-65.2042751944
 30
0.0
 11
-452.1526902062
 21
222.8805271966
 31
0.0
  0
LINE
  5
238
330
1F
100
AcDbEntity
  8
0
100
AcDbLine
 10
-452.1526902062
 20
230.6805271966
 30
0.0
 11
-452.1526902062
 21
287.5905989761
 31
0.0
  0
LINE
  5
239
330
1F
100
AcDbEntity
  8
0
100
AcDbLine
 10
-415.657690204
 20
300.8504602225
 30
0.0
 11
-415.657690204
 21
230.6805271966
 31
0.0
  0
LINE
  5
23A
330
1F
100
AcDbEntity
  8
0
100
AcDbLine
 10
-415.657690204
 20
222.8805271966
 30
0.0
 11
-415.657690204
 21
-78.4641364408
 31
0.0
  0
LINE
  5
23B
330
1F
100
AcDbEntity
  8
0
100
AcDbLine
 10
-402.157690204
 20
-81.3956703669
 30
0.0
 11
-402.157690204
 21
222.8805271966
 31
0.0
  0
LINE
  5
23C
330
1F
100
AcDbEntity
  8
0
100
AcDbLine
 10
-402.157690204
 20
230.6805271966
 30
0.0
 11
-402.157690204
 21
303.7819941486
 31
0.0
  0
LINE
  5
23D
330
1F
100
AcDbEntity
  8
0
100
AcDbLine
 10
-432.3226902062
 20
295.8114512347
 30
0.0
 11
-432.3226902062
 21
230.6805271966
 31
0.0
  0
LINE
  5
23E
330
1F
100
AcDbEntity
  8
0
100
AcDbLine
 10
-432.3226902062
 20
222.8805271966
 30
0.0
 11
-432.3226902062
 21
-73.425127453
 31
0.0
  0
LINE
  5
23F
330
1F
100
AcDbEntity
  8
0
100
AcDbLine
 10
-418.8226902062
 20
-77.6306587999
 30
0.0
 11
-418.8226902062
 21
222.8805271966
 31
0.0
  0
LINE
  5
240
330
1F
100
AcDbEntity
  8
0
100
AcDbLine
 10
-418.8226902062
 20
230.6805271966
 30
0.0
 11
-418.8226902062
 21
300.0169825816
 31
0.0
  0
LINE
  5
241
330
1F
100
AcDbEntity
  8
0
100
AcDbLine
 10
-382.327690204
 20
306.3226408537
 30
0.0
 11
-382.327690204
 21
230.6805271966
 31
0.0
  0
LINE
  5
242
330
1F
100
AcDbEntity
  8
0
100
AcDbLine
 10
-382.327690204
 20
222.8805271966
 30
0.0
 11
-382.327690204
 21
-83.936317072
 31
0.0
  0
LINE
  5
243
330
1F
100
AcDbEntity
  8
0
100
AcDbLine
 10
-368.827690204
 20
-84.5009132884
 30
0.0
 11
-368.827690204
 21
222.8805271966
 31
0.0
  0
LINE
  5
244
330
1F
100
AcDbEntity
  8
0
100
AcDbLine
 10
-368.827690204
 20
230.6805271966
 30
0.0
 11
-368.827690204
 21
306.8872370701
 31
0.0
  0
LINE
  5
245
330
1F
100
AcDbEntity
  8
0
100
AcDbLine
 10
-398.9926902062
 20
304.3263398025
 30
0.0
 11
-398.9926902062
 21
230.6805271966
 31
0.0
  0
LINE
  5
246
330
1F
100
AcDbEntity
  8
0
100
AcDbLine
 10
-398.9926902062
 20
222.8805271966
 30
0.0
 11
-398.9926902062
 21
-81.9400160208
 31
0.0
  0
LINE
  5
247
330
1F
100
AcDbEntity
  8
0
100
AcDbLine
 10
-385.4926902062
 20
-83.6684220867
 30
0.0
 11
-385.4926902062
 21
222.8805271966
 31
0.0
  0
LINE
  5
248
330
1F
100
AcDbEntity
  8
0
100
AcDbLine
 10
-385.4926902062
 20
230.6805271966
 30
0.0
 11
-385.4926902062
 21
306.0547458685
 31
0.0
  0
LINE
  5
249
330
1F
100
AcDbEntity
  8
0
100
AcDbLine
 10
-348.997690204
 20
306.0247776779
 30
0.0
 11
-348.997690204
 21
230.6805271966
 31
0.0
  0
LINE
  5
24A
330
1F
100
AcDbEntity
  8
0
100
AcDbLine
 10
-348.997690204
 20
222.8805271966
 30
0.0
 11
-348.997690204
 21
-83.6384538961
 31
0.0
  0
LINE
  5
24B
330
1F
100
AcDbEntity
  8
0
100
AcDbLine
 10
-335.497690204
 20
-81.8874068107
 30
0.0
 11
-335.497690204
 21
222.8805271966
 31
0.0
  0
LINE
  5
24C
330
1F
100
AcDbEntity
  8
0
100
AcDbLine
 10
-335.497690204
 20
230.6805271966
 30
0.0
 11
-335.497690204
 21
304.2737305924
 31
0.0
  0
LINE
  5
24D
330
1F
100
AcDbEntity
  8
0
100
AcDbLine
 10
-365.6626902062
 20
306.8846493405
 30
0.0
 11
-365.6626902062
 21
230.6805271966
 31
0.0
  0
LINE
  5
24E
330
1F
100
AcDbEntity
  8
0
100
AcDbLine
 10
-365.6626902062
 20
222.8805271966
 30
0.0
 11
-365.6626902062
 21
-84.4983255588
 31
0.0
  0
LINE
  5
24F
330
1F
100
AcDbEntity
  8
0
100
AcDbLine
 10
-352.1626902062
 20
-83.9115811582
 30
0.0
 11
-352.1626902062
 21
222.8805271966
 31
0.0
  0
LINE
  5
250
330
1F
100
AcDbEntity
  8
0
100
AcDbLine
 10
-352.1626902062
 20
230.6805271966
 30
0.0
 11
-352.1626902062
 21
306.29790494
 31
0.0
  0
LINE
  5
251
330
1F
100
AcDbEntity
  8
0
100
AcDbLine
 10
-315.667690204
 20
299.9295538772
 30
0.0
 11
-315.667690204
 21
230.6805271966
 31
0.0
  0
LINE
  5
252
330
1F
100
AcDbEntity
  8
0
100
AcDbLine
 10
-315.667690204
 20
222.8805271966
 30
0.0
 11
-315.667690204
 21
-77.5432300955
 31
0.0
  0
LINE
  5
253
330
1F
100
AcDbEntity
  8
0
100
AcDbLine
 10
-302.167690204
 20
-73.3122937465
 30
0.0
 11
-302.167690204
 21
222.8805271966
 31
0.0
  0
LINE
  5
254
330
1F
100
AcDbEntity
  8
0
100
AcDbLine
 10
-302.167690204
 20
230.6805271966
 30
0.0
 11
-302.167690204
 21
295.6986175283
 31
0.0
  0
LINE
  5
255
330
1F
100
AcDbEntity
  8
0
100
AcDbLine
 10
-332.3326902062
 20
303.7239758149
 30
0.0
 11
-332.3326902062
 21
230.6805271966
 31
0.0
  0
LINE
  5
256
330
1F
100
AcDbEntity
  8
0
100
AcDbLine
 10
-332.3326902062
 20
222.8805271966
 30
0.0
 11
-332.3326902062
 21
-81.3376520332
 31
0.0
  0
LINE
  5
257
330
1F
100
AcDbEntity
  8
0
100
AcDbLine
 10
-318.8326902062
 20
-78.3824346669
 30
0.0
 11
-318.8326902062
 21
222.8805271966
 31
0.0
  0
LINE
  5
258
330
1F
100
AcDbEntity
  8
0
100
AcDbLine
 10
-318.8326902062
 20
230.6805271966
 30
0.0
 11
-318.8326902062
 21
300.7687584487
 31
0.0
  0
LINE
  5
259
330
1F
100
AcDbEntity
  8
0
100
AcDbLine
 10
-282.337690204
 20
287.4365022186
 30
0.0
 11
-282.337690204
 21
230.6805271966
 31
0.0
  0
LINE
  5
25A
330
1F
100
AcDbEntity
  8
0
100
AcDbLine
 10
-282.337690204
 20
222.8805271966
 30
0.0
 11
-282.337690204
 21
-65.0501784368
 31
0.0
  0
LINE
  5
25B
330
1F
100
AcDbEntity
  8
0
100
AcDbLine
 10
-268.837690204
 20
-57.8708570777
 30
0.0
 11
-268.837690204
 21
222.8805271966
 31
0.0
  0
LINE
  5
25C
330
1F
100
AcDbEntity
  8
0
100
AcDbLine
 10
-268.837690204
 20
230.6805271966
 30
0.0
 11
-268.837690204
 21
280.2571808595
 31
0.0
  0
LINE
  5
25D
330
1F
100
AcDbEntity
  8
0
100
AcDbLine
 10
-299.0026902062
 20
294.5488069096
 30
0.0
 11
-299.0026902062
 21
230.6805271966
 31
0.0
  0
LINE
  5
25E
330
1F
100
AcDbEntity
  8
0
100
AcDbLine
 10
-299.0026902062
 20
222.8805271966
 30
0.0
 11
-299.0026902062
 21
-72.1624831279
 31
0.0
  0
LINE
  5
25F
330
1F
100
AcDbEntity
  8
0
100
AcDbLine
 10
-285.5026902062
 20
-66.543089505
 30
0.0
 11
-285.5026902062
 21
222.8805271966
 31
0.0
  0
LINE
  5
260
330
1F
100
AcDbEntity
  8
0
100
AcDbLine
 10
-285.5026902062
 20
230.6805271966
 30
0.0
 11
-285.5026902062
 21
288.9294132867
 31
0.0
  0
LINE
  5
261
330
1F
100
AcDbEntity
  8
0
100
AcDbLine
 10
-249.007690204
 20
267.0142983253
 30
0.0
 11
-249.007690204
 21
230.6805271966
 31
0.0
  0
LINE
  5
262
330
1F
100
AcDbEntity
  8
0
100
AcDbLine
 10
-249.007690204
 20
222.8805271966
 30
0.0
 11
-249.007690204
 21
-44.6279745436
 31
0.0
  0
LINE
  5
263
330
1F
100
AcDbEntity
  8
0
100
AcDbLine
 10
-235.507690204
 20
-33.3794636634
 30
0.0
 11
-235.507690204
 21
222.8805271966
 31
0.0
  0
LINE
  5
264
330
1F
100
AcDbEntity
  8
0
100
AcDbLine
 10
-235.507690204
 20
230.6805271966
 30
0.0
 11
-235.507690204
 21
255.7657874452
 31
0.0
  0
LINE
  5
265
330
1F
100
AcDbEntity
  8
0
100
AcDbLine
 10
-265.6726902062
 20
278.3717879477
 30
0.0
 11
-265.6726902062
 21
230.6805271966
 31
0.0
  0
LINE
  5
266
330
1F
100
AcDbEntity
  8
0
100
AcDbLine
 10
-265.6726902062
 20
222.8805271966
 30
0.0
 11
-265.6726902062
 21
-55.985464166
 31
0.0
  0
LINE
  5
267
330
1F
100
AcDbEntity
  8
0
100
AcDbLine
 10
-252.1726902062
 20
-46.9828966965
 30
0.0
 11
-252.1726902062
 21
222.8805271966
 31
0.0
  0
LINE
  5
268
330
1F
100
AcDbEntity
  8
0
100
AcDbLine
 10
-252.1726902062
 20
230.6805271966
 30
0.0
 11
-252.1726902062
 21
269.3692204783
 31
0.0
  0
LINE
  5
269
330
1F
100
AcDbEntity
  8
0
100
AcDbLine
 10
-215.677690204
 20
234.7931631432
 30
0.0
 11
-215.677690204
 21
230.6805271966
 31
0.0
  0
LINE
  5
26A
330
1F
100
AcDbEntity
  8
0
100
AcDbLine
 10
-215.677690204
 20
222.8805271966
 30
0.0
 11
-215.677690204
 21
-12.4068393614
 31
0.0
  0
LINE
  5
26B
330
1F
100
AcDbEntity
  8
0
100
AcDbLine
 10
-202.177690204
 20
6.3214888351
 30
0.0
 11
-202.177690204
 21
216.0648349466
 31
0.0
  0
LINE
  5
26C
330
1F
100
AcDbEntity
  8
0
100
AcDbLine
 10
-232.3426902062
 20
252.8134840916
 30
0.0
 11
-232.3426902062
 21
230.6805271966
 31
0.0
  0
LINE
  5
26D
330
1F
100
AcDbEntity
  8
0
100
AcDbLine
 10
-232.3426902062
 20
222.8805271966
 30
0.0
 11
-232.3426902062
 21
-30.4271603099
 31
0.0
  0
LINE
  5
26E
330
1F
100
AcDbEntity
  8
0
100
AcDbLine
 10
-218.8426902062
 20
-16.1935648912
 30
0.0
 11
-218.8426902062
 21
222.8805271966
 31
0.0
  0
LINE
  5
26F
330
1F
100
AcDbEntity
  8
0
100
AcDbLine
 10
-218.8426902062
 20
230.6805271966
 30
0.0
 11
-218.8426902062
 21
238.5798886729
 31
0.0
  0
LINE
  5
270
330
1F
100
AcDbEntity
  8
0
100
AcDbLine
 10
-548.977690204
 20
184.1974207465
 30
0.0
 11
-548.977690204
 21
38.1889030352
 31
0.0
  0
LINE
  5
271
330
1F
100
AcDbEntity
  8
0
100
AcDbLine
 10
-535.477690204
 20
10.944324935
 30
0.0
 11
-535.477690204
 21
211.4419988467
 31
0.0
  0
LINE
  5
272
330
1F
100
AcDbEntity
  8
0
100
AcDbLine
 10
-552.1426902062
 20
46.6156839264
 30
0.0
 11
-552.1426902062
 21
175.7706398553
 31
0.0
  0
LINE
  5
273
330
1F
100
AcDbEntity
  8
0
100
AcDbLine
 10
-515.647690204
 20
238.9521371565
 30
0.0
 11
-515.647690204
 21
230.6805271966
 31
0.0
  0
LINE
  5
274
330
1F
100
AcDbEntity
  8
0
100
AcDbLine
 10
-515.647690204
 20
222.8805271966
 30
0.0
 11
-515.647690204
 21
-16.5658133747
 31
0.0
  0
LINE
  5
275
330
1F
100
AcDbEntity
  8
0
100
AcDbLine
 10
-502.147690204
 20
-30.7316536308
 30
0.0
 11
-502.147690204
 21
222.8805271966
 31
0.0
  0
LINE
  5
276
330
1F
100
AcDbEntity
  8
0
100
AcDbLine
 10
-502.147690204
 20
230.6805271966
 30
0.0
 11
-502.147690204
 21
253.1179774125
 31
0.0
  0
LINE
  5
277
330
1F
100
AcDbEntity
  8
0
100
AcDbLine
 10
-532.3126902062
 20
216.5673096229
 30
0.0
 11
-532.3126902062
 21
5.8190141588
 31
0.0
  0
LINE
  5
278
330
1F
100
AcDbEntity
  8
0
100
AcDbLine
 10
-518.8126902062
 20
-12.798626185
 30
0.0
 11
-518.8126902062
 21
222.8805271966
 31
0.0
  0
LINE
  5
279
330
1F
100
AcDbEntity
  8
0
100
AcDbLine
 10
-518.8126902062
 20
230.6805271966
 30
0.0
 11
-518.8126902062
 21
235.1849499667
 31
0.0
  0
LINE
  5
27A
330
1F
100
AcDbEntity
  8
0
100
AcDbLine
 10
-482.317690204
 20
269.6018482397
 30
0.0
 11
-482.317690204
 21
230.6805271966
 31
0.0
  0
LINE
  5
27B
330
1F
100
AcDbEntity
  8
0
100
AcDbLine
 10
-482.317690204
 20
222.8805271966
 30
0.0
 11
-482.317690204
 21
-47.215524458
 31
0.0
  0
LINE
  5
27C
330
1F
100
AcDbEntity
  8
0
100
AcDbLine
 10
-468.817690204
 20
-56.1797732292
 30
0.0
 11
-468.817690204
 21
222.8805271966
 31
0.0
  0
LINE
  5
27D
330
1F
100
AcDbEntity
  8
0
100
AcDbLine
 10
-468.817690204
 20
230.6805271966
 30
0.0
 11
-468.817690204
 21
278.5660970109
 31
0.0
  0
LINE
  5
27E
330
1F
100
AcDbEntity
  8
0
100
AcDbLine
 10
-498.9826902062
 20
256.0570844536
 30
0.0
 11
-498.9826902062
 21
230.6805271966
 31
0.0
  0
LINE
  5
27F
330
1F
100
AcDbEntity
  8
0
100
AcDbLine
 10
-498.9826902062
 20
222.8805271966
 30
0.0
 11
-498.9826902062
 21
-33.6707606718
 31
0.0
  0
LINE
  5
280
330
1F
100
AcDbEntity
  8
0
100
AcDbLine
 10
-485.4826902062
 20
-44.8706025141
 30
0.0
 11
-485.4826902062
 21
222.8805271966
 31
0.0
  0
LINE
  5
281
330
1F
100
AcDbEntity
  8
0
100
AcDbLine
 10
-485.4826902062
 20
230.6805271966
 30
0.0
 11
-485.4826902062
 21
267.2569262958
 31
0.0
  0
LINE
  5
282
330
1F
100
AcDbEntity
  8
0
100
AcDbLine
 10
-182.347690204
 20
174.8478259731
 30
0.0
 11
-182.347690204
 21
47.5384978086
 31
0.0
  0
LINE
  5
283
330
1F
100
AcDbEntity
  8
0
100
AcDbLine
 10
-199.0126902062
 20
210.9035450526
 30
0.0
 11
-199.0126902062
 21
11.4827787292
 31
0.0
  0
LINE
  5
284
330
1F
100
AcDbEntity
  8
0
100
AcDbLine
 10
-185.5126902062
 20
38.9898862709
 30
0.0
 11
-185.5126902062
 21
183.3964375108
 31
0.0
  0
LINE
  5
285
330
1F
100
AcDbEntity
  8
0
100
AcDbLine
 10
-216.1776902062
 20
226.5805271966
 30
0.0
 11
-216.1776902062
 21
222.8805271966
 31
0.0
  0
LINE
  5
286
330
1F
100
AcDbEntity
  8
0
100
AcDbLine
 10
-249.5076902062
 20
226.5805271966
 30
0.0
 11
-249.5076902062
 21
222.8805271966
 31
0.0
  0
LINE
  5
287
330
1F
100
AcDbEntity
  8
0
100
AcDbLine
 10
-235.0076902062
 20
222.8805271966
 30
0.0
 11
-235.0076902062
 21
226.5805271966
 31
0.0
  0
LINE
  5
288
330
1F
100
AcDbEntity
  8
0
100
AcDbLine
 10
-316.1676902062
 20
226.5805271966
 30
0.0
 11
-316.1676902062
 21
222.8805271966
 31
0.0
  0
LINE
  5
289
330
1F
100
AcDbEntity
  8
0
100
AcDbLine
 10
-301.6676902062
 20
222.8805271966
 30
0.0
 11
-301.6676902062
 21
226.5805271966
 31
0.0
  0
LINE
  5
28A
330
1F
100
AcDbEntity
  8
0
100
AcDbLine
 10
-282.8376902062
 20
226.5805271966
 30
0.0
 11
-282.8376902062
 21
222.8805271966
 31
0.0
  0
LINE
  5
28B
330
1F
100
AcDbEntity
  8
0
100
AcDbLine
 10
-268.3376902062
 20
222.8805271966
 30
0.0
 11
-268.3376902062
 21
226.5805271966
 31
0.0
  0
LINE
  5
28C
330
1F
100
AcDbEntity
  8
0
100
AcDbLine
 10
-349.4976902062
 20
226.5805271966
 30
0.0
 11
-349.4976902062
 21
222.8805271966
 31
0.0
  0
LINE
  5
28D
330
1F
100
AcDbEntity
  8
0
100
AcDbLine
 10
-334.9976902062
 20
222.8805271966
 30
0.0
 11
-334.9976902062
 21
226.5805271966
 31
0.0
  0
LINE
  5
28E
330
1F
100
AcDbEntity
  8
0
100
AcDbLine
 10
-382.8276902062
 20
226.5805271966
 30
0.0
 11
-382.8276902062
 21
222.8805271966
 31
0.0
  0
LINE
  5
28F
330
1F
100
AcDbEntity
  8
0
100
AcDbLine
 10
-368.3276902062
 20
222.8805271966
 30
0.0
 11
-368.3276902062
 21
226.5805271966
 31
0.0
  0
LINE
  5
290
330
1F
100
AcDbEntity
  8
0
100
AcDbLine
 10
-449.4876902062
 20
226.5805271966
 30
0.0
 11
-449.4876902062
 21
222.8805271966
 31
0.0
  0
LINE
  5
291
330
1F
100
AcDbEntity
  8
0
100
AcDbLine
 10
-434.9876902062
 20
222.8805271966
 30
0.0
 11
-434.9876902062
 21
226.5805271966
 31
0.0
  0
LINE
  5
292
330
1F
100
AcDbEntity
  8
0
100
AcDbLine
 10
-416.1576902062
 20
226.5805271966
 30
0.0
 11
-416.1576902062
 21
222.8805271966
 31
0.0
  0
LINE
  5
293
330
1F
100
AcDbEntity
  8
0
100
AcDbLine
 10
-401.6576902062
 20
222.8805271966
 30
0.0
 11
-401.6576902062
 21
226.5805271966
 31
0.0
  0
LINE
  5
294
330
1F
100
AcDbEntity
  8
0
100
AcDbLine
 10
-482.8176902062
 20
226.5805271966
 30
0.0
 11
-482.8176902062
 21
222.8805271966
 31
0.0
  0
LINE
  5
295
330
1F
100
AcDbEntity
  8
0
100
AcDbLine
 10
-468.3176902062
 20
222.8805271966
 30
0.0
 11
-468.3176902062
 21
226.5805271966
 31
0.0
  0
LINE
  5
296
330
1F
100
AcDbEntity
  8
0
100
AcDbLine
 10
-516.1476902062
 20
226.5805271966
 30
0.0
 11
-516.1476902062
 21
222.8805271966
 31
0.0
  0
LINE
  5
297
330
1F
100
AcDbEntity
  8
0
100
AcDbLine
 10
-501.6476902062
 20
222.8805271966
 30
0.0
 11
-501.6476902062
 21
226.5805271966
 31
0.0
  0
LINE
  5
298
330
1F
100
AcDbEntity
  8
0
100
AcDbLine
 10
-232.8426902062
 20
226.5805271966
 30
0.0
 11
-232.8426902062
 21
222.8805271966
 31
0.0
  0
LINE
  5
299
330
1F
100
AcDbEntity
  8
0
100
AcDbLine
 10
-218.3426902062
 20
222.8805271966
 30
0.0
 11
-218.3426902062
 21
226.5805271966
 31
0.0
  0
LINE
  5
29A
330
1F
100
AcDbEntity
  8
0
100
AcDbLine
 10
-266.1726902062
 20
226.5805271966
 30
0.0
 11
-266.1726902062
 21
222.8805271966
 31
0.0
  0
LINE
  5
29B
330
1F
100
AcDbEntity
  8
0
100
AcDbLine
 10
-251.6726902062
 20
222.8805271966
 30
0.0
 11
-251.6726902062
 21
226.5805271966
 31
0.0
  0
LINE
  5
29C
330
1F
100
AcDbEntity
  8
0
100
AcDbLine
 10
-299.5026902062
 20
226.5805271966
 30
0.0
 11
-299.5026902062
 21
222.8805271966
 31
0.0
  0
LINE
  5
29D
330
1F
100
AcDbEntity
  8
0
100
AcDbLine
 10
-285.0026902062
 20
222.8805271966
 30
0.0
 11
-285.0026902062
 21
226.5805271966
 31
0.0
  0
LINE
  5
29E
330
1F
100
AcDbEntity
  8
0
100
AcDbLine
 10
-332.8326902062
 20
226.5805271966
 30
0.0
 11
-332.8326902062
 21
222.8805271966
 31
0.0
  0
LINE
  5
29F
330
1F
100
AcDbEntity
  8
0
100
AcDbLine
 10
-318.3326902062
 20
222.8805271966
 30
0.0
 11
-318.3326902062
 21
226.5805271966
 31
0.0
  0
LINE
  5
2A0
330
1F
100
AcDbEntity
  8
0
100
AcDbLine
 10
-366.1626902062
 20
226.5805271966
 30
0.0
 11
-366.1626902062
 21
222.8805271966
 31
0.0
  0
LINE
  5
2A1
330
1F
100
AcDbEntity
  8
0
100
AcDbLine
 10
-351.6626902062
 20
222.8805271966
 30
0.0
 11
-351.6626902062
 21
226.5805271966
 31
0.0
  0
LINE
  5
2A2
330
1F
100
AcDbEntity
  8
0
100
AcDbLine
 10
-399.4926902062
 20
226.5805271966
 30
0.0
 11
-399.4926902062
 21
222.8805271966
 31
0.0
  0
LINE
  5
2A3
330
1F
100
AcDbEntity
  8
0
100
AcDbLine
 10
-384.9926902062
 20
222.8805271966
 30
0.0
 11
-384.9926902062
 21
226.5805271966
 31
0.0
  0
LINE
  5
2A4
330
1F
100
AcDbEntity
  8
0
100
AcDbLine
 10
-432.8226902062
 20
226.5805271966
 30
0.0
 11
-432.8226902062
 21
222.8805271966
 31
0.0
  0
LINE
  5
2A5
330
1F
100
AcDbEntity
  8
0
100
AcDbLine
 10
-418.3226902062
 20
222.8805271966
 30
0.0
 11
-418.3226902062
 21
226.5805271966
 31
0.0
  0
LINE
  5
2A6
330
1F
100
AcDbEntity
  8
0
100
AcDbLine
 10
-466.1526902062
 20
226.5805271966
 30
0.0
 11
-466.1526902062
 21
222.8805271966
 31
0.0
  0
LINE
  5
2A7
330
1F
100
AcDbEntity
  8
0
100
AcDbLine
 10
-451.6526902062
 20
222.8805271966
 30
0.0
 11
-451.6526902062
 21
226.5805271966
 31
0.0
  0
LINE
  5
2A8
330
1F
100
AcDbEntity
  8
0
100
AcDbLine
 10
-518.3126902062
 20
222.8805271966
 30
0.0
 11
-518.3126902062
 21
226.5805271966
 31
0.0
  0
LINE
  5
2A9
330
1F
100
AcDbEntity
  8
0
100
AcDbLine
 10
-499.4826902062
 20
226.5805271966
 30
0.0
 11
-499.4826902062
 21
222.8805271966
 31
0.0
  0
LINE
  5
2AA
330
1F
100
AcDbEntity
  8
0
100
AcDbLine
 10
-484.9826902062
 20
222.8805271966
 30
0.0
 11
-484.9826902062
 21
226.5805271966
 31
0.0
  0
LINE
  5
2AB
330
1F
100
AcDbEntity
  8
0
100
AcDbLine
 10
-216.1776902062
 20
230.4805271966
 30
0.0
 11
-216.1776902062
 21
226.7805271966
 31
0.0
  0
LINE
  5
2AC
330
1F
100
AcDbEntity
  8
0
100
AcDbLine
 10
-249.5076902062
 20
230.4805271966
 30
0.0
 11
-249.5076902062
 21
226.7805271966
 31
0.0
  0
LINE
  5
2AD
330
1F
100
AcDbEntity
  8
0
100
AcDbLine
 10
-235.0076902062
 20
226.7805271966
 30
0.0
 11
-235.0076902062
 21
230.4805271966
 31
0.0
  0
LINE
  5
2AE
330
1F
100
AcDbEntity
  8
0
100
AcDbLine
 10
-282.8376902062
 20
230.4805271966
 30
0.0
 11
-282.8376902062
 21
226.7805271966
 31
0.0
  0
LINE
  5
2AF
330
1F
100
AcDbEntity
  8
0
100
AcDbLine
 10
-268.3376902062
 20
226.7805271966
 30
0.0
 11
-268.3376902062
 21
230.4805271966
 31
0.0
  0
LINE
  5
2B0
330
1F
100
AcDbEntity
  8
0
100
AcDbLine
 10
-316.1676902062
 20
230.4805271966
 30
0.0
 11
-316.1676902062
 21
226.7805271966
 31
0.0
  0
LINE
  5
2B1
330
1F
100
AcDbEntity
  8
0
100
AcDbLine
 10
-301.6676902062
 20
226.7805271966
 30
0.0
 11
-301.6676902062
 21
230.4805271966
 31
0.0
  0
LINE
  5
2B2
330
1F
100
AcDbEntity
  8
0
100
AcDbLine
 10
-349.4976902062
 20
230.4805271966
 30
0.0
 11
-349.4976902062
 21
226.7805271966
 31
0.0
  0
LINE
  5
2B3
330
1F
100
AcDbEntity
  8
0
100
AcDbLine
 10
-334.9976902062
 20
226.7805271966
 30
0.0
 11
-334.9976902062
 21
230.4805271966
 31
0.0
  0
LINE
  5
2B4
330
1F
100
AcDbEntity
  8
0
100
AcDbLine
 10
-382.8276902062
 20
230.4805271966
 30
0.0
 11
-382.8276902062
 21
226.7805271966
 31
0.0
  0
LINE
  5
2B5
330
1F
100
AcDbEntity
  8
0
100
AcDbLine
 10
-368.3276902062
 20
226.7805271966
 30
0.0
 11
-368.3276902062
 21
230.4805271966
 31
0.0
  0
LINE
  5
2B6
330
1F
100
AcDbEntity
  8
0
100
AcDbLine
 10
-416.1576902062
 20
230.4805271966
 30
0.0
 11
-416.1576902062
 21
226.7805271966
 31
0.0
  0
LINE
  5
2B7
330
1F
100
AcDbEntity
  8
0
100
AcDbLine
 10
-401.6576902062
 20
226.7805271966
 30
0.0
 11
-401.6576902062
 21
230.4805271966
 31
0.0
  0
LINE
  5
2B8
330
1F
100
AcDbEntity
  8
0
100
AcDbLine
 10
-449.4876902062
 20
230.4805271966
 30
0.0
 11
-449.4876902062
 21
226.7805271966
 31
0.0
  0
LINE
  5
2B9
330
1F
100
AcDbEntity
  8
0
100
AcDbLine
 10
-434.9876902062
 20
226.7805271966
 30
0.0
 11
-434.9876902062
 21
230.4805271966
 31
0.0
  0
LINE
  5
2BA
330
1F
100
AcDbEntity
  8
0
100
AcDbLine
 10
-482.8176902062
 20
230.4805271966
 30
0.0
 11
-482.8176902062
 21
226.7805271966
 31
0.0
  0
LINE
  5
2BB
330
1F
100
AcDbEntity
  8
0
100
AcDbLine
 10
-468.3176902062
 20
226.7805271966
 30
0.0
 11
-468.3176902062
 21
230.4805271966
 31
0.0
  0
LINE
  5
2BC
330
1F
100
AcDbEntity
  8
0
100
AcDbLine
 10
-516.1476902062
 20
230.4805271966
 30
0.0
 11
-516.1476902062
 21
226.7805271966
 31
0.0
  0
LINE
  5
2BD
330
1F
100
AcDbEntity
  8
0
100
AcDbLine
 10
-501.6476902062
 20
226.7805271966
 30
0.0
 11
-501.6476902062
 21
230.4805271966
 31
0.0
  0
LINE
  5
2BE
330
1F
100
AcDbEntity
  8
0
100
AcDbLine
 10
-232.8426902062
 20
230.4805271966
 30
0.0
 11
-232.8426902062
 21
226.7805271966
 31
0.0
  0
LINE
  5
2BF
330
1F
100
AcDbEntity
  8
0
100
AcDbLine
 10
-218.3426902062
 20
226.7805271966
 30
0.0
 11
-218.3426902062
 21
230.4805271966
 31
0.0
  0
LINE
  5
2C0
330
1F
100
AcDbEntity
  8
0
100
AcDbLine
 10
-266.1726902062
 20
230.4805271966
 30
0.0
 11
-266.1726902062
 21
226.7805271966
 31
0.0
  0
LINE
  5
2C1
330
1F
100
AcDbEntity
  8
0
100
AcDbLine
 10
-251.6726902062
 20
226.7805271966
 30
0.0
 11
-251.6726902062
 21
230.4805271966
 31
0.0
  0
LINE
  5
2C2
330
1F
100
AcDbEntity
  8
0
100
AcDbLine
 10
-299.5026902062
 20
230.4805271966
 30
0.0
 11
-299.5026902062
 21
226.7805271966
 31
0.0
  0
LINE
  5
2C3
330
1F
100
AcDbEntity
  8
0
100
AcDbLine
 10
-285.0026902062
 20
226.7805271966
 30
0.0
 11
-285.0026902062
 21
230.4805271966
 31
0.0
  0
LINE
  5
2C4
330
1F
100
AcDbEntity
  8
0
100
AcDbLine
 10
-332.8326902062
 20
230.4805271966
 30
0.0
 11
-332.8326902062
 21
226.7805271966
 31
0.0
  0
LINE
  5
2C5
330
1F
100
AcDbEntity
  8
0
100
AcDbLine
 10
-318.3326902062
 20
226.7805271966
 30
0.0
 11
-318.3326902062
 21
230.4805271966
 31
0.0
  0
LINE
  5
2C6
330
1F
100
AcDbEntity
  8
0
100
AcDbLine
 10
-366.1626902062
 20
230.4805271966
 30
0.0
 11
-366.1626902062
 21
226.7805271966
 31
0.0
  0
LINE
  5
2C7
330
1F
100
AcDbEntity
  8
0
100
AcDbLine
 10
-351.6626902062
 20
226.7805271966
 30
0.0
 11
-351.6626902062
 21
230.4805271966
 31
0.0
  0
LINE
  5
2C8
330
1F
100
AcDbEntity
  8
0
100
AcDbLine
 10
-399.4926902062
 20
230.4805271966
 30
0.0
 11
-399.4926902062
 21
226.7805271966
 31
0.0
  0
LINE
  5
2C9
330
1F
100
AcDbEntity
  8
0
100
AcDbLine
 10
-384.9926902062
 20
226.7805271966
 30
0.0
 11
-384.9926902062
 21
230.4805271966
 31
0.0
  0
LINE
  5
2CA
330
1F
100
AcDbEntity
  8
0
100
AcDbLine
 10
-432.8226902062
 20
230.4805271966
 30
0.0
 11
-432.8226902062
 21
226.7805271966
 31
0.0
  0
LINE
  5
2CB
330
1F
100
AcDbEntity
  8
0
100
AcDbLine
 10
-418.3226902062
 20
226.7805271966
 30
0.0
 11
-418.3226902062
 21
230.4805271966
 31
0.0
  0
LINE
  5
2CC
330
1F
100
AcDbEntity
  8
0
100
AcDbLine
 10
-466.1526902062
 20
230.4805271966
 30
0.0
 11
-466.1526902062
 21
226.7805271966
 31
0.0
  0
LINE
  5
2CD
330
1F
100
AcDbEntity
  8
0
100
AcDbLine
 10
-451.6526902062
 20
226.7805271966
 30
0.0
 11
-451.6526902062
 21
230.4805271966
 31
0.0
  0
LINE
  5
2CE
330
1F
100
AcDbEntity
  8
0
100
AcDbLine
 10
-499.4826902062
 20
230.4805271966
 30
0.0
 11
-499.4826902062
 21
226.7805271966
 31
0.0
  0
LINE
  5
2CF
330
1F
100
AcDbEntity
  8
0
100
AcDbLine
 10
-484.9826902062
 20
226.7805271966
 30
0.0
 11
-484.9826902062
 21
230.4805271966
 31
0.0
  0
LINE
  5
2D0
330
1F
100
AcDbEntity
  8
0
100
AcDbLine
 10
-518.3126902062
 20
226.7805271966
 30
0.0
 11
-518.3126902062
 21
230.4805271966
 31
0.0
  0
ARC
  5
2D1
330
1F
100
AcDbEntity
  8
0
100
AcDbCircle
 10
-141.0051902062
 20
378.4431618909
 30
0.0
 40
2.0
100
AcDbArc
 50
90.0
 51
180.0
  0
ARC
  5
2D2
330
1F
100
AcDbEntity
  8
0
100
AcDbCircle
 10
-136.8051902062
 20
378.4431618909
 30
0.0
 40
2.0
100
AcDbArc
 50
0.0
 51
90.0
  0
LINE
  5
2D3
330
1F
100
AcDbEntity
  8
0
100
AcDbLine
 10
-143.0051902062
 20
378.4431618909
 30
0.0
 11
-143.0051902062
 21
377.3931618909
 31
0.0
  0
LINE
  5
2D4
330
1F
100
AcDbEntity
  8
0
100
AcDbLine
 10
-134.8051902062
 20
377.3931618909
 30
0.0
 11
-134.8051902062
 21
378.4431618909
 31
0.0
  0
LINE
  5
2D5
330
1F
100
AcDbEntity
  8
0
100
AcDbLine
 10
-139.4301902062
 20
368.3931618909
 30
0.0
 11
-139.2051902062
 21
367.8931618909
 31
0.0
  0
LINE
  5
2D6
330
1F
100
AcDbEntity
  8
0
100
AcDbLine
 10
-138.6051902062
 20
367.8931618909
 30
0.0
 11
-138.3801902062
 21
368.3931618909
 31
0.0
  0
ARC
  5
2D7
330
1F
100
AcDbEntity
  8
0
100
AcDbCircle
 10
-598.0051902063
 20
378.4431618909
 30
0.0
 40
2.0
100
AcDbArc
 50
90.0
 51
180.0
  0
ARC
  5
2D8
330
1F
100
AcDbEntity
  8
0
100
AcDbCircle
 10
-593.8051902063
 20
378.4431618909
 30
0.0
 40
2.0
100
AcDbArc
 50
0.0
 51
90.0
  0
LINE
  5
2D9
330
1F
100
AcDbEntity
  8
0
100
AcDbLine
 10
-600.0051902063
 20
378.4431618909
 30
0.0
 11
-600.0051902063
 21
377.3931618909
 31
0.0
  0
LINE
  5
2DA
330
1F
100
AcDbEntity
  8
0
100
AcDbLine
 10
-591.8051902063
 20
377.3931618909
 30
0.0
 11
-591.8051902063
 21
378.4431618909
 31
0.0
  0
LINE
  5
2DB
330
1F
100
AcDbEntity
  8
0
100
AcDbLine
 10
-596.4301902063
 20
368.3931618909
 30
0.0
 11
-596.2051902063
 21
367.8931618909
 31
0.0
  0
LINE
  5
2DC
330
1F
100
AcDbEntity
  8
0
100
AcDbLine
 10
-595.6051902063
 20
367.8931618909
 30
0.0
 11
-595.3801902063
 21
368.3931618909
 31
0.0
  0
LINE
  5
2DD
330
1F
100
AcDbEntity
  8
0
100
AcDbLine
 10
-188.0051902062
 20
378.4431618909
 30
0.0
 11
-188.0051902062
 21
377.3931618909
 31
0.0
  0
LINE
  5
2DE
330
1F
100
AcDbEntity
  8
0
100
AcDbLine
 10
-179.8051902062
 20
377.3931618909
 30
0.0
 11
-179.8051902062
 21
378.4431618909
 31
0.0
  0
ARC
  5
2DF
330
1F
100
AcDbEntity
  8
0
100
AcDbCircle
 10
-186.0051902062
 20
378.4431618909
 30
0.0
 40
2.000000000000028
100
AcDbArc
 50
90.0
 51
180.0
  0
ARC
  5
2E0
330
1F
100
AcDbEntity
  8
0
100
AcDbCircle
 10
-181.8051902062
 20
378.4431618909
 30
0.0
 40
2.0
100
AcDbArc
 50
0.0
 51
90.0
  0
LINE
  5
2E1
330
1F
100
AcDbEntity
  8
0
100
AcDbLine
 10
-184.4301902062
 20
368.3931618909
 30
0.0
 11
-184.2051902062
 21
367.8931618909
 31
0.0
  0
LINE
  5
2E2
330
1F
100
AcDbEntity
  8
0
100
AcDbLine
 10
-183.6051902062
 20
367.8931618909
 30
0.0
 11
-183.3801902062
 21
368.3931618909
 31
0.0
  0
ARC
  5
2E3
330
1F
100
AcDbEntity
  8
0
100
AcDbCircle
 10
-369.5051902063
 20
378.4431618909
 30
0.0
 40
2.0
100
AcDbArc
 50
90.0
 51
180.0
  0
ARC
  5
2E4
330
1F
100
AcDbEntity
  8
0
100
AcDbCircle
 10
-365.3051902063
 20
378.4431618909
 30
0.0
 40
2.0
100
AcDbArc
 50
0.0
 51
90.0
  0
LINE
  5
2E5
330
1F
100
AcDbEntity
  8
0
100
AcDbLine
 10
-371.5051902063
 20
378.4431618909
 30
0.0
 11
-371.5051902063
 21
377.3931618909
 31
0.0
  0
LINE
  5
2E6
330
1F
100
AcDbEntity
  8
0
100
AcDbLine
 10
-363.3051902063
 20
377.3931618909
 30
0.0
 11
-363.3051902063
 21
378.4431618909
 31
0.0
  0
LINE
  5
2E7
330
1F
100
AcDbEntity
  8
0
100
AcDbLine
 10
-367.9301902063
 20
368.3931618909
 30
0.0
 11
-367.7051902063
 21
367.8931618909
 31
0.0
  0
LINE
  5
2E8
330
1F
100
AcDbEntity
  8
0
100
AcDbLine
 10
-367.1051902063
 20
367.8931618909
 30
0.0
 11
-366.8801902063
 21
368.3931618909
 31
0.0
  0
ARC
  5
2E9
330
1F
100
AcDbEntity
  8
0
100
AcDbCircle
 10
-553.0051902063
 20
378.4431618909
 30
0.0
 40
2.0
100
AcDbArc
 50
90.0
 51
180.0
  0
ARC
  5
2EA
330
1F
100
AcDbEntity
  8
0
100
AcDbCircle
 10
-548.8051902063
 20
378.4431618909
 30
0.0
 40
2.0
100
AcDbArc
 50
0.0
 51
90.0
  0
LINE
  5
2EB
330
1F
100
AcDbEntity
  8
0
100
AcDbLine
 10
-555.0051902063
 20
378.4431618909
 30
0.0
 11
-555.0051902063
 21
377.3931618909
 31
0.0
  0
LINE
  5
2EC
330
1F
100
AcDbEntity
  8
0
100
AcDbLine
 10
-546.8051902063
 20
377.3931618909
 30
0.0
 11
-546.8051902063
 21
378.4431618909
 31
0.0
  0
LINE
  5
2ED
330
1F
100
AcDbEntity
  8
0
100
AcDbLine
 10
-551.4301902063
 20
368.3931618909
 30
0.0
 11
-551.2051902063
 21
367.8931618909
 31
0.0
  0
LINE
  5
2EE
330
1F
100
AcDbEntity
  8
0
100
AcDbLine
 10
-550.6051902063
 20
367.8931618909
 30
0.0
 11
-550.3801902063
 21
368.3931618909
 31
0.0
  0
ARC
  5
2EF
330
1F
100
AcDbEntity
  8
0
100
AcDbCircle
 10
-584.4522589342
 20
355.7048643052
 30
0.0
 40
5.000000000000091
100
AcDbArc
 50
163.9023784336
 51
172.1320762394
  0
ARC
  5
2F0
330
1F
100
AcDbEntity
  8
0
100
AcDbCircle
 10
-584.4522589342
 20
355.273764322
 30
0.0
 40
5.000000000000073
100
AcDbArc
 50
187.8679237606
 51
213.8409923185
  0
ARC
  5
2F1
330
1F
100
AcDbEntity
  8
0
100
AcDbCircle
 10
-176.4207401978
 20
-148.853906837
 30
0.0
 40
5.000000000000026
100
AcDbArc
 50
236.1590076815
 51
262.1320762394
  0
ARC
  5
2F2
330
1F
100
AcDbEntity
  8
0
100
AcDbCircle
 10
-175.9896402147
 20
-148.853906837
 30
0.0
 40
5.000000000000026
100
AcDbArc
 50
277.8679237606
 51
303.8409923185
  0
LINE
  5
2F3
330
1F
100
AcDbEntity
  8
0
100
AcDbLine
 10
-174.2051902062
 20
-149.5068381091
 30
0.0
 11
-175.2051902062
 21
-148.5068381091
 31
0.0
  0
LINE
  5
2F4
330
1F
100
AcDbEntity
  8
0
100
AcDbLine
 10
-177.2051902062
 20
-148.5068381091
 30
0.0
 11
-178.2051902062
 21
-149.5068381091
 31
0.0
  0
LINE
  5
2F5
330
1F
100
AcDbEntity
  8
0
100
AcDbLine
 10
-177.7051902062
 20
-149.5068381091
 30
0.0
 11
-177.7051902062
 21
-151.6068381091
 31
0.0
  0
LINE
  5
2F6
330
1F
100
AcDbEntity
  8
0
100
AcDbLine
 10
-174.7051902062
 20
-151.6068381091
 30
0.0
 11
-174.7051902062
 21
-149.5068381091
 31
0.0
  0
ARC
  5
2F7
330
1F
100
AcDbEntity
  8
0
100
AcDbCircle
 10
-584.4522589342
 20
234.9837118825
 30
0.0
 40
5.000000000000064
100
AcDbArc
 50
146.1590076815
 51
172.1320762394
  0
ARC
  5
2F8
330
1F
100
AcDbEntity
  8
0
100
AcDbCircle
 10
-584.4522589342
 20
234.5526118993
 30
0.0
 40
5.000000000000064
100
AcDbArc
 50
187.8679237606
 51
213.8409923185
  0
LINE
  5
2F9
330
1F
100
AcDbEntity
  8
0
100
AcDbLine
 10
-585.1051902062
 20
232.7681618909
 30
0.0
 11
-584.1051902062
 21
233.7681618909
 31
0.0
  0
LINE
  5
2FA
330
1F
100
AcDbEntity
  8
0
100
AcDbLine
 10
-584.1051902062
 20
235.7681618909
 30
0.0
 11
-585.1051902062
 21
236.7681618909
 31
0.0
  0
LINE
  5
2FB
330
1F
100
AcDbEntity
  8
0
100
AcDbLine
 10
-585.1051902062
 20
236.2681618909
 30
0.0
 11
-587.2051902062
 21
236.2681618909
 31
0.0
  0
LINE
  5
2FC
330
1F
100
AcDbEntity
  8
0
100
AcDbLine
 10
-587.2051902062
 20
233.2681618909
 30
0.0
 11
-585.1051902062
 21
233.2681618909
 31
0.0
  0
ARC
  5
2FD
330
1F
100
AcDbEntity
  8
0
100
AcDbCircle
 10
-150.3581214783
 20
-13.2973881007
 30
0.0
 40
5.000000000000012
100
AcDbArc
 50
326.1590076815
 51
352.1320762394
  0
ARC
  5
2FE
330
1F
100
AcDbEntity
  8
0
100
AcDbCircle
 10
-150.3581214783
 20
-12.8662881175
 30
0.0
 40
5.000000000000004
100
AcDbArc
 50
7.8679237606
 51
33.8409923185
  0
LINE
  5
2FF
330
1F
100
AcDbEntity
  8
0
100
AcDbLine
 10
-149.7051902062
 20
-11.0818381091
 30
0.0
 11
-150.7051902062
 21
-12.0818381091
 31
0.0
  0
LINE
  5
300
330
1F
100
AcDbEntity
  8
0
100
AcDbLine
 10
-150.7051902062
 20
-14.0818381091
 30
0.0
 11
-149.7051902062
 21
-15.0818381091
 31
0.0
  0
LINE
  5
301
330
1F
100
AcDbEntity
  8
0
100
AcDbLine
 10
-149.7051902062
 20
-14.5818381091
 30
0.0
 11
-147.6051902062
 21
-14.5818381091
 31
0.0
  0
LINE
  5
302
330
1F
100
AcDbEntity
  8
0
100
AcDbLine
 10
-147.6051902062
 20
-11.5818381091
 30
0.0
 11
-149.7051902062
 21
-11.5818381091
 31
0.0
  0
ARC
  5
303
330
1F
100
AcDbEntity
  8
0
100
AcDbCircle
 10
-584.4522589342
 20
358.9087118825
 30
0.0
 40
5.000000000000068
100
AcDbArc
 50
146.1590076815
 51
172.1320762394
  0
ARC
  5
304
330
1F
100
AcDbEntity
  8
0
100
AcDbCircle
 10
-584.4522589342
 20
358.4776118993
 30
0.0
 40
5.00000000000006
100
AcDbArc
 50
187.8679237606
 51
213.8409923185
  0
LINE
  5
305
330
1F
100
AcDbEntity
  8
0
100
AcDbLine
 10
-585.1051902062
 20
356.6931618909
 30
0.0
 11
-584.1051902062
 21
357.6931618909
 31
0.0
  0
LINE
  5
306
330
1F
100
AcDbEntity
  8
0
100
AcDbLine
 10
-584.1051902062
 20
359.6931618909
 30
0.0
 11
-585.1051902062
 21
360.6931618909
 31
0.0
  0
LINE
  5
307
330
1F
100
AcDbEntity
  8
0
100
AcDbLine
 10
-585.1051902062
 20
360.1931618909
 30
0.0
 11
-587.2051902062
 21
360.1931618909
 31
0.0
  0
LINE
  5
308
330
1F
100
AcDbEntity
  8
0
100
AcDbLine
 10
-587.2051902062
 20
357.1931618909
 30
0.0
 11
-585.1051902062
 21
357.1931618909
 31
0.0
  0
ARC
  5
309
330
1F
100
AcDbEntity
  8
0
100
AcDbCircle
 10
-558.8207401978
 20
-148.853906837
 30
0.0
 40
4.999999999999996
100
AcDbArc
 50
236.1590076815
 51
262.1320762394
  0
ARC
  5
30A
330
1F
100
AcDbEntity
  8
0
100
AcDbCircle
 10
-558.3896402147
 20
-148.853906837
 30
0.0
 40
5.000000000000058
100
AcDbArc
 50
277.8679237606
 51
303.8409923185
  0
LINE
  5
30B
330
1F
100
AcDbEntity
  8
0
100
AcDbLine
 10
-556.6051902062
 20
-149.5068381091
 30
0.0
 11
-557.6051902062
 21
-148.5068381091
 31
0.0
  0
LINE
  5
30C
330
1F
100
AcDbEntity
  8
0
100
AcDbLine
 10
-559.6051902062
 20
-148.5068381091
 30
0.0
 11
-560.6051902062
 21
-149.5068381091
 31
0.0
  0
LINE
  5
30D
330
1F
100
AcDbEntity
  8
0
100
AcDbLine
 10
-560.1051902062
 20
-149.5068381091
 30
0.0
 11
-560.1051902062
 21
-151.6068381091
 31
0.0
  0
LINE
  5
30E
330
1F
100
AcDbEntity
  8
0
100
AcDbLine
 10
-557.1051902062
 20
-151.6068381091
 30
0.0
 11
-557.1051902062
 21
-149.5068381091
 31
0.0
  0
ARC
  5
30F
330
1F
100
AcDbEntity
  8
0
100
AcDbCircle
 10
-150.3581214783
 20
-139.326235678
 30
0.0
 40
4.999999999999987
100
AcDbArc
 50
326.1590076815
 51
352.1320762394
  0
LINE
  5
310
330
1F
100
AcDbEntity
  8
0
100
AcDbLine
 10
-145.4051902062
 20
-138.2106856864
 30
0.0
 11
-145.428569889
 21
-138.0587618978
 31
0.0
  0
ARC
  5
311
330
1F
100
AcDbEntity
  8
0
100
AcDbCircle
 10
-584.4522589342
 20
111.0587118825
 30
0.0
 40
5.00000000000006
100
AcDbArc
 50
146.1590076815
 51
172.1320762394
  0
ARC
  5
312
330
1F
100
AcDbEntity
  8
0
100
AcDbCircle
 10
-584.4522589342
 20
110.6276118993
 30
0.0
 40
5.000000000000065
100
AcDbArc
 50
187.8679237606
 51
213.8409923185
  0
LINE
  5
313
330
1F
100
AcDbEntity
  8
0
100
AcDbLine
 10
-585.1051902062
 20
108.8431618909
 30
0.0
 11
-584.1051902062
 21
109.8431618909
 31
0.0
  0
LINE
  5
314
330
1F
100
AcDbEntity
  8
0
100
AcDbLine
 10
-584.1051902062
 20
111.8431618909
 30
0.0
 11
-585.1051902062
 21
112.8431618909
 31
0.0
  0
LINE
  5
315
330
1F
100
AcDbEntity
  8
0
100
AcDbLine
 10
-585.1051902062
 20
112.3431618909
 30
0.0
 11
-587.2051902062
 21
112.3431618909
 31
0.0
  0
LINE
  5
316
330
1F
100
AcDbEntity
  8
0
100
AcDbLine
 10
-587.2051902062
 20
109.3431618909
 30
0.0
 11
-585.1051902062
 21
109.3431618909
 31
0.0
  0
ARC
  5
317
330
1F
100
AcDbEntity
  8
0
100
AcDbCircle
 10
-584.4522589342
 20
-136.7912881175
 30
0.0
 40
5.000000000000056
100
AcDbArc
 50
146.1590076815
 51
172.1320762394
  0
ARC
  5
318
330
1F
100
AcDbEntity
  8
0
100
AcDbCircle
 10
-584.4522589342
 20
-137.2223881007
 30
0.0
 40
5.000000000000064
100
AcDbArc
 50
187.8679237606
 51
213.8409923185
  0
LINE
  5
319
330
1F
100
AcDbEntity
  8
0
100
AcDbLine
 10
-585.1051902062
 20
-139.0068381091
 30
0.0
 11
-584.1051902062
 21
-138.0068381091
 31
0.0
  0
LINE
  5
31A
330
1F
100
AcDbEntity
  8
0
100
AcDbLine
 10
-584.1051902062
 20
-136.0068381091
 30
0.0
 11
-585.1051902062
 21
-135.0068381091
 31
0.0
  0
LINE
  5
31B
330
1F
100
AcDbEntity
  8
0
100
AcDbLine
 10
-585.1051902062
 20
-135.5068381091
 30
0.0
 11
-587.2051902062
 21
-135.5068381091
 31
0.0
  0
LINE
  5
31C
330
1F
100
AcDbEntity
  8
0
100
AcDbLine
 10
-587.2051902062
 20
-138.5068381091
 30
0.0
 11
-585.1051902062
 21
-138.5068381091
 31
0.0
  0
ARC
  5
31D
330
1F
100
AcDbEntity
  8
0
100
AcDbCircle
 10
-584.4522589342
 20
190.8381976385
 30
0.0
 40
5.000000000000064
100
AcDbArc
 50
146.1590076815
 51
172.1320762394
  0
ARC
  5
31E
330
1F
100
AcDbEntity
  8
0
100
AcDbCircle
 10
-584.4522589342
 20
190.4070976553
 30
0.0
 40
5.00000000000006
100
AcDbArc
 50
187.8679237606
 51
213.8409923185
  0
ARC
  5
31F
330
1F
100
AcDbEntity
  8
0
100
AcDbCircle
 10
-584.4522589342
 20
25.9715309718
 30
0.0
 40
5.000000000000063
100
AcDbArc
 50
146.1590076815
 51
172.1320762394
  0
ARC
  5
320
330
1F
100
AcDbEntity
  8
0
100
AcDbCircle
 10
-584.4522589342
 20
25.5404309887
 30
0.0
 40
5.000000000000063
100
AcDbArc
 50
187.8679237606
 51
213.8409923185
  0
ARC
  5
321
330
1F
100
AcDbEntity
  8
0
100
AcDbCircle
 10
-150.3581214783
 20
110.6276118993
 30
0.0
 40
5.00000000000001
100
AcDbArc
 50
326.1590076815
 51
352.1320762394
  0
ARC
  5
322
330
1F
100
AcDbEntity
  8
0
100
AcDbCircle
 10
-150.3581214783
 20
111.0587118825
 30
0.0
 40
4.999999999999995
100
AcDbArc
 50
7.8679237606
 51
33.8409923185
  0
LINE
  5
323
330
1F
100
AcDbEntity
  8
0
100
AcDbLine
 10
-149.7051902062
 20
112.8431618909
 30
0.0
 11
-150.7051902062
 21
111.8431618909
 31
0.0
  0
LINE
  5
324
330
1F
100
AcDbEntity
  8
0
100
AcDbLine
 10
-150.7051902062
 20
109.8431618909
 30
0.0
 11
-149.7051902062
 21
108.8431618909
 31
0.0
  0
LINE
  5
325
330
1F
100
AcDbEntity
  8
0
100
AcDbLine
 10
-149.7051902062
 20
109.3431618909
 30
0.0
 11
-147.6051902062
 21
109.3431618909
 31
0.0
  0
LINE
  5
326
330
1F
100
AcDbEntity
  8
0
100
AcDbLine
 10
-147.6051902062
 20
112.3431618909
 30
0.0
 11
-149.7051902062
 21
112.3431618909
 31
0.0
  0
ARC
  5
327
330
1F
100
AcDbEntity
  8
0
100
AcDbCircle
 10
-437.6207401978
 20
-148.853906837
 30
0.0
 40
5.000000000000058
100
AcDbArc
 50
236.1590076815
 51
262.1320762394
  0
ARC
  5
328
330
1F
100
AcDbEntity
  8
0
100
AcDbCircle
 10
-437.1896402147
 20
-148.853906837
 30
0.0
 40
5.000000000000026
100
AcDbArc
 50
277.8679237606
 51
303.8409923185
  0
LINE
  5
329
330
1F
100
AcDbEntity
  8
0
100
AcDbLine
 10
-435.4051902062
 20
-149.5068381091
 30
0.0
 11
-436.4051902062
 21
-148.5068381091
 31
0.0
  0
LINE
  5
32A
330
1F
100
AcDbEntity
  8
0
100
AcDbLine
 10
-438.4051902062
 20
-148.5068381091
 30
0.0
 11
-439.4051902062
 21
-149.5068381091
 31
0.0
  0
LINE
  5
32B
330
1F
100
AcDbEntity
  8
0
100
AcDbLine
 10
-438.9051902062
 20
-149.5068381091
 30
0.0
 11
-438.9051902062
 21
-151.6068381091
 31
0.0
  0
LINE
  5
32C
330
1F
100
AcDbEntity
  8
0
100
AcDbLine
 10
-435.9051902062
 20
-151.6068381091
 30
0.0
 11
-435.9051902062
 21
-149.5068381091
 31
0.0
  0
ARC
  5
32D
330
1F
100
AcDbEntity
  8
0
100
AcDbCircle
 10
-150.3581214783
 20
234.5526118993
 30
0.0
 40
4.999999999999995
100
AcDbArc
 50
326.1590076815
 51
352.1320762394
  0
ARC
  5
32E
330
1F
100
AcDbEntity
  8
0
100
AcDbCircle
 10
-150.3581214783
 20
234.9837118825
 30
0.0
 40
4.999999999999983
100
AcDbArc
 50
7.8679237606
 51
33.8409923185
  0
LINE
  5
32F
330
1F
100
AcDbEntity
  8
0
100
AcDbLine
 10
-149.7051902062
 20
236.7681618909
 30
0.0
 11
-150.7051902062
 21
235.7681618909
 31
0.0
  0
LINE
  5
330
330
1F
100
AcDbEntity
  8
0
100
AcDbLine
 10
-150.7051902062
 20
233.7681618909
 30
0.0
 11
-149.7051902062
 21
232.7681618909
 31
0.0
  0
LINE
  5
331
330
1F
100
AcDbEntity
  8
0
100
AcDbLine
 10
-149.7051902062
 20
233.2681618909
 30
0.0
 11
-147.6051902062
 21
233.2681618909
 31
0.0
  0
LINE
  5
332
330
1F
100
AcDbEntity
  8
0
100
AcDbLine
 10
-147.6051902062
 20
236.2681618909
 30
0.0
 11
-149.7051902062
 21
236.2681618909
 31
0.0
  0
ARC
  5
333
330
1F
100
AcDbEntity
  8
0
100
AcDbCircle
 10
-150.3581214783
 20
358.4776118993
 30
0.0
 40
4.999999999999995
100
AcDbArc
 50
326.1590076815
 51
352.1320762394
  0
ARC
  5
334
330
1F
100
AcDbEntity
  8
0
100
AcDbCircle
 10
-150.3581214783
 20
358.9087118825
 30
0.0
 40
4.999999999999983
100
AcDbArc
 50
7.8679237606
 51
33.8409923185
  0
LINE
  5
335
330
1F
100
AcDbEntity
  8
0
100
AcDbLine
 10
-149.7051902062
 20
360.6931618909
 30
0.0
 11
-150.7051902062
 21
359.6931618909
 31
0.0
  0
LINE
  5
336
330
1F
100
AcDbEntity
  8
0
100
AcDbLine
 10
-150.7051902062
 20
357.6931618909
 30
0.0
 11
-149.7051902062
 21
356.6931618909
 31
0.0
  0
LINE
  5
337
330
1F
100
AcDbEntity
  8
0
100
AcDbLine
 10
-149.7051902062
 20
357.1931618909
 30
0.0
 11
-147.6051902062
 21
357.1931618909
 31
0.0
  0
LINE
  5
338
330
1F
100
AcDbEntity
  8
0
100
AcDbLine
 10
-147.6051902062
 20
360.1931618909
 30
0.0
 11
-149.7051902062
 21
360.1931618909
 31
0.0
  0
LINE
  5
339
330
1F
100
AcDbEntity
  8
0
100
AcDbLine
 10
-589.3818105235
 20
-138.0587618978
 30
0.0
 11
-589.4051902062
 21
-138.2106856864
 31
0.0
  0
ARC
  5
33A
330
1F
100
AcDbEntity
  8
0
100
AcDbCircle
 10
-584.4522589342
 20
-139.326235678
 30
0.0
 40
5.000000000000064
100
AcDbArc
 50
187.8679237606
 51
213.8409923185
  0
ARC
  5
33B
330
1F
100
AcDbEntity
  8
0
100
AcDbCircle
 10
-150.3581214783
 20
190.4070976553
 30
0.0
 40
4.999999999999987
100
AcDbArc
 50
326.1590076815
 51
352.1320762394
  0
ARC
  5
33C
330
1F
100
AcDbEntity
  8
0
100
AcDbCircle
 10
-150.3581214783
 20
190.8381976385
 30
0.0
 40
4.999999999999987
100
AcDbArc
 50
7.8679237606
 51
33.8409923185
  0
ARC
  5
33D
330
1F
100
AcDbEntity
  8
0
100
AcDbCircle
 10
-584.4522589342
 20
-12.8662881175
 30
0.0
 40
5.00000000000006
100
AcDbArc
 50
146.1590076815
 51
172.1320762394
  0
ARC
  5
33E
330
1F
100
AcDbEntity
  8
0
100
AcDbCircle
 10
-584.4522589342
 20
-13.2973881007
 30
0.0
 40
5.000000000000065
100
AcDbArc
 50
187.8679237606
 51
213.8409923185
  0
LINE
  5
33F
330
1F
100
AcDbEntity
  8
0
100
AcDbLine
 10
-585.1051902062
 20
-15.0818381091
 30
0.0
 11
-584.1051902062
 21
-14.0818381091
 31
0.0
  0
LINE
  5
340
330
1F
100
AcDbEntity
  8
0
100
AcDbLine
 10
-584.1051902062
 20
-12.0818381091
 30
0.0
 11
-585.1051902062
 21
-11.0818381091
 31
0.0
  0
LINE
  5
341
330
1F
100
AcDbEntity
  8
0
100
AcDbLine
 10
-585.1051902062
 20
-11.5818381091
 30
0.0
 11
-587.2051902062
 21
-11.5818381091
 31
0.0
  0
LINE
  5
342
330
1F
100
AcDbEntity
  8
0
100
AcDbLine
 10
-587.2051902062
 20
-14.5818381091
 30
0.0
 11
-585.1051902062
 21
-14.5818381091
 31
0.0
  0
ARC
  5
343
330
1F
100
AcDbEntity
  8
0
100
AcDbCircle
 10
-150.3581214783
 20
355.273764322
 30
0.0
 40
5.000000000000002
100
AcDbArc
 50
326.1590076815
 51
352.1320762394
  0
ARC
  5
344
330
1F
100
AcDbEntity
  8
0
100
AcDbCircle
 10
-150.3581214783
 20
355.7048643052
 30
0.0
 40
4.999999999999983
100
AcDbArc
 50
7.8679237606
 51
16.0976209539
  0
ARC
  5
345
330
1F
100
AcDbEntity
  8
0
100
AcDbCircle
 10
-150.3581214783
 20
25.5404309887
 30
0.0
 40
5.00000000000002
100
AcDbArc
 50
326.1590076815
 51
352.1320762394
  0
ARC
  5
346
330
1F
100
AcDbEntity
  8
0
100
AcDbCircle
 10
-150.3581214783
 20
25.9715309718
 30
0.0
 40
4.999999999999996
100
AcDbArc
 50
7.8679237606
 51
33.8409923185
  0
ARC
  5
347
330
1F
100
AcDbEntity
  8
0
100
AcDbCircle
 10
-150.3581214783
 20
-137.2223881007
 30
0.0
 40
5.000000000000012
100
AcDbArc
 50
326.1590076815
 51
352.1320762394
  0
ARC
  5
348
330
1F
100
AcDbEntity
  8
0
100
AcDbCircle
 10
-150.3581214783
 20
-136.7912881175
 30
0.0
 40
5.000000000000008
100
AcDbArc
 50
7.8679237606
 51
33.8409923185
  0
LINE
  5
349
330
1F
100
AcDbEntity
  8
0
100
AcDbLine
 10
-149.7051902062
 20
-135.0068381091
 30
0.0
 11
-150.7051902062
 21
-136.0068381091
 31
0.0
  0
LINE
  5
34A
330
1F
100
AcDbEntity
  8
0
100
AcDbLine
 10
-150.7051902062
 20
-138.0068381091
 30
0.0
 11
-149.7051902062
 21
-139.0068381091
 31
0.0
  0
LINE
  5
34B
330
1F
100
AcDbEntity
  8
0
100
AcDbLine
 10
-149.7051902062
 20
-138.5068381091
 30
0.0
 11
-147.6051902062
 21
-138.5068381091
 31
0.0
  0
LINE
  5
34C
330
1F
100
AcDbEntity
  8
0
100
AcDbLine
 10
-147.6051902062
 20
-135.5068381091
 30
0.0
 11
-149.7051902062
 21
-135.5068381091
 31
0.0
  0
ARC
  5
34D
330
1F
100
AcDbEntity
  8
0
100
AcDbCircle
 10
-297.6207401978
 20
-148.853906837
 30
0.0
 40
5.000000000000026
100
AcDbArc
 50
236.1590076815
 51
262.1320762394
  0
ARC
  5
34E
330
1F
100
AcDbEntity
  8
0
100
AcDbCircle
 10
-297.1896402147
 20
-148.853906837
 30
0.0
 40
5.000000000000026
100
AcDbArc
 50
277.8679237606
 51
303.8409923185
  0
LINE
  5
34F
330
1F
100
AcDbEntity
  8
0
100
AcDbLine
 10
-295.4051902062
 20
-149.5068381091
 30
0.0
 11
-296.4051902062
 21
-148.5068381091
 31
0.0
  0
LINE
  5
350
330
1F
100
AcDbEntity
  8
0
100
AcDbLine
 10
-298.4051902062
 20
-148.5068381091
 30
0.0
 11
-299.4051902062
 21
-149.5068381091
 31
0.0
  0
LINE
  5
351
330
1F
100
AcDbEntity
  8
0
100
AcDbLine
 10
-298.9051902062
 20
-149.5068381091
 30
0.0
 11
-298.9051902062
 21
-151.6068381091
 31
0.0
  0
LINE
  5
352
330
1F
100
AcDbEntity
  8
0
100
AcDbLine
 10
-295.9051902062
 20
-151.6068381091
 30
0.0
 11
-295.9051902062
 21
-149.5068381091
 31
0.0
  0
LINE
  5
353
330
1F
100
AcDbEntity
  8
0
100
AcDbLine
 10
-150.957690204
 20
377.3931618909
 30
0.0
 11
-150.957690204
 21
379.3931618909
 31
0.0
  0
LINE
  5
354
330
1F
100
AcDbEntity
  8
0
100
AcDbLine
 10
-218.957690204
 20
379.3931618909
 30
0.0
 11
-218.957690204
 21
377.3931618909
 31
0.0
  0
ARC
  5
355
330
1F
100
AcDbEntity
  8
0
100
AcDbCircle
 10
-164.957690204
 20
387.3931618909
 30
0.0
 40
8.0
100
AcDbArc
 50
180.0
 51
270.0
  0
ARC
  5
356
330
1F
100
AcDbEntity
  8
0
100
AcDbCircle
 10
-204.957690204
 20
387.3931618909
 30
0.0
 40
8.0
100
AcDbArc
 50
270.0
 51
0.0
  0
LINE
  5
357
330
1F
100
AcDbEntity
  8
0
100
AcDbLine
 10
-172.957690204
 20
387.3931618909
 30
0.0
 11
-172.957690204
 21
389.3931618909
 31
0.0
  0
LINE
  5
358
330
1F
100
AcDbEntity
  8
0
100
AcDbLine
 10
-196.957690204
 20
389.3931618909
 30
0.0
 11
-196.957690204
 21
387.3931618909
 31
0.0
  0
LINE
  5
359
330
1F
100
AcDbEntity
  8
0
100
AcDbLine
 10
-515.5326902062
 20
377.3931618909
 30
0.0
 11
-515.5326902062
 21
379.3931618909
 31
0.0
  0
LINE
  5
35A
330
1F
100
AcDbEntity
  8
0
100
AcDbLine
 10
-583.5326902062
 20
379.3931618909
 30
0.0
 11
-583.5326902062
 21
377.3931618909
 31
0.0
  0
ARC
  5
35B
330
1F
100
AcDbEntity
  8
0
100
AcDbCircle
 10
-529.5326902062
 20
387.3931618909
 30
0.0
 40
8.0
100
AcDbArc
 50
180.0
 51
270.0
  0
ARC
  5
35C
330
1F
100
AcDbEntity
  8
0
100
AcDbCircle
 10
-569.5326902062
 20
387.3931618909
 30
0.0
 40
8.0
100
AcDbArc
 50
270.0
 51
0.0
  0
LINE
  5
35D
330
1F
100
AcDbEntity
  8
0
100
AcDbLine
 10
-537.5326902062
 20
387.3931618909
 30
0.0
 11
-537.5326902062
 21
389.3931618909
 31
0.0
  0
LINE
  5
35E
330
1F
100
AcDbEntity
  8
0
100
AcDbLine
 10
-561.5326902062
 20
389.3931618909
 30
0.0
 11
-561.5326902062
 21
387.3931618909
 31
0.0
  0
CIRCLE
  5
35F
330
1F
100
AcDbEntity
  8
0
100
AcDbCircle
 10
-367.4051902062
 20
111.1931618909
 30
0.0
 40
207.4
  0
LINE
  5
360
330
1F
100
AcDbEntity
  8
0
100
AcDbLine
 10
-192.7519188381
 20
413.8431618909
 30
0.0
 11
-192.7519188381
 21
408.4431618909
 31
0.0
  0
LINE
  5
361
330
1F
100
AcDbEntity
  8
0
100
AcDbLine
 10
-177.1634615699
 20
413.8431618909
 30
0.0
 11
-177.1634615699
 21
408.4431618909
 31
0.0
  0
LINE
  5
362
330
1F
100
AcDbEntity
  8
0
100
AcDbLine
 10
-192.7519188381
 20
408.4431618909
 30
0.0
 11
-177.1634615699
 21
408.4431618909
 31
0.0
  0
LINE
  5
363
330
1F
100
AcDbEntity
  8
0
100
AcDbLine
 10
-192.7519188381
 20
413.8431618909
 30
0.0
 11
-177.1634615699
 21
413.8431618909
 31
0.0
  0
LINE
  5
364
330
1F
100
AcDbEntity
  8
0
100
AcDbLine
 10
-169.3692329359
 20
413.8431618909
 30
0.0
 11
-169.3692329359
 21
408.4431618909
 31
0.0
  0
LINE
  5
365
330
1F
100
AcDbEntity
  8
0
100
AcDbLine
 10
-177.1634615699
 20
408.4431618909
 30
0.0
 11
-169.3692329359
 21
408.4431618909
 31
0.0
  0
LINE
  5
366
330
1F
100
AcDbEntity
  8
0
100
AcDbLine
 10
-177.1634615699
 20
413.8431618909
 30
0.0
 11
-169.3692329359
 21
413.8431618909
 31
0.0
  0
LINE
  5
367
330
1F
100
AcDbEntity
  8
0
100
AcDbLine
 10
-200.5461474721
 20
413.8431618909
 30
0.0
 11
-200.5461474721
 21
408.4431618909
 31
0.0
  0
LINE
  5
368
330
1F
100
AcDbEntity
  8
0
100
AcDbLine
 10
-200.5461474721
 20
408.4431618909
 30
0.0
 11
-192.7519188381
 21
408.4431618909
 31
0.0
  0
LINE
  5
369
330
1F
100
AcDbEntity
  8
0
100
AcDbLine
 10
-200.5461474721
 20
413.8431618909
 30
0.0
 11
-192.7519188381
 21
413.8431618909
 31
0.0
  0
LINE
  5
36A
330
1F
100
AcDbEntity
  8
0
100
AcDbLine
 10
-184.957690204
 20
400.9431618909
 30
0.0
 11
-172.207690204
 21
400.9431618909
 31
0.0
  0
LINE
  5
36B
330
1F
100
AcDbEntity
  8
0
100
AcDbLine
 10
-197.707690204
 20
400.9431618909
 30
0.0
 11
-184.957690204
 21
400.9431618909
 31
0.0
  0
LINE
  5
36C
330
1F
100
AcDbEntity
  8
0
100
AcDbLine
 10
-184.957690204
 20
400.1931618909
 30
0.0
 11
-196.957690204
 21
400.1931618909
 31
0.0
  0
LINE
  5
36D
330
1F
100
AcDbEntity
  8
0
100
AcDbLine
 10
-172.957690204
 20
400.1931618909
 30
0.0
 11
-184.957690204
 21
400.1931618909
 31
0.0
  0
LINE
  5
36E
330
1F
100
AcDbEntity
  8
0
100
AcDbLine
 10
-169.957690204
 20
421.9431618909
 30
0.0
 11
-199.957690204
 21
421.9431618909
 31
0.0
  0
LINE
  5
36F
330
1F
100
AcDbEntity
  8
0
100
AcDbLine
 10
-169.957690204
 20
421.5431618909
 30
0.0
 11
-199.957690204
 21
421.5431618909
 31
0.0
  0
LINE
  5
370
330
1F
100
AcDbEntity
  8
0
100
AcDbLine
 10
-184.7694738131
 20
431.5431618909
 30
0.0
 11
-197.457690204
 21
431.5431618909
 31
0.0
  0
LINE
  5
371
330
1F
100
AcDbEntity
  8
0
100
AcDbLine
 10
-172.457690204
 20
431.5431618909
 30
0.0
 11
-184.7694738131
 21
431.5431618909
 31
0.0
  0
LINE
  5
372
330
1F
100
AcDbEntity
  8
0
100
AcDbLine
 10
-541.7384615722
 20
413.8431618909
 30
0.0
 11
-541.7384615722
 21
408.4431618909
 31
0.0
  0
LINE
  5
373
330
1F
100
AcDbEntity
  8
0
100
AcDbLine
 10
-541.7384615722
 20
413.8431618909
 30
0.0
 11
-533.9442329381
 21
413.8431618909
 31
0.0
  0
LINE
  5
374
330
1F
100
AcDbEntity
  8
0
100
AcDbLine
 10
-533.9442329381
 20
413.8431618909
 30
0.0
 11
-533.9442329381
 21
408.4431618909
 31
0.0
  0
LINE
  5
375
330
1F
100
AcDbEntity
  8
0
100
AcDbLine
 10
-541.7384615722
 20
408.4431618909
 30
0.0
 11
-533.9442329381
 21
408.4431618909
 31
0.0
  0
LINE
  5
376
330
1F
100
AcDbEntity
  8
0
100
AcDbLine
 10
-557.3269188403
 20
413.8431618909
 30
0.0
 11
-557.3269188403
 21
408.4431618909
 31
0.0
  0
LINE
  5
377
330
1F
100
AcDbEntity
  8
0
100
AcDbLine
 10
-557.3269188403
 20
413.8431618909
 30
0.0
 11
-541.7384615722
 21
413.8431618909
 31
0.0
  0
LINE
  5
378
330
1F
100
AcDbEntity
  8
0
100
AcDbLine
 10
-557.3269188403
 20
408.4431618909
 30
0.0
 11
-541.7384615722
 21
408.4431618909
 31
0.0
  0
LINE
  5
379
330
1F
100
AcDbEntity
  8
0
100
AcDbLine
 10
-565.1211474744
 20
413.8431618909
 30
0.0
 11
-565.1211474744
 21
408.4431618909
 31
0.0
  0
LINE
  5
37A
330
1F
100
AcDbEntity
  8
0
100
AcDbLine
 10
-565.1211474744
 20
413.8431618909
 30
0.0
 11
-557.3269188403
 21
413.8431618909
 31
0.0
  0
LINE
  5
37B
330
1F
100
AcDbEntity
  8
0
100
AcDbLine
 10
-565.1211474744
 20
408.4431618909
 30
0.0
 11
-557.3269188403
 21
408.4431618909
 31
0.0
  0
LINE
  5
37C
330
1F
100
AcDbEntity
  8
0
100
AcDbLine
 10
-562.2826902062
 20
400.9431618909
 30
0.0
 11
-536.7826902062
 21
400.9431618909
 31
0.0
  0
LINE
  5
37D
330
1F
100
AcDbEntity
  8
0
100
AcDbLine
 10
-537.5326902062
 20
400.1931618909
 30
0.0
 11
-561.5326902062
 21
400.1931618909
 31
0.0
  0
LINE
  5
37E
330
1F
100
AcDbEntity
  8
0
100
AcDbLine
 10
-549.3068305372
 20
421.9431618909
 30
0.0
 11
-564.5326902062
 21
421.9431618909
 31
0.0
  0
LINE
  5
37F
330
1F
100
AcDbEntity
  8
0
100
AcDbLine
 10
-534.5326902062
 20
421.9431618909
 30
0.0
 11
-549.3068305372
 21
421.9431618909
 31
0.0
  0
LINE
  5
380
330
1F
100
AcDbEntity
  8
0
100
AcDbLine
 10
-549.3068305372
 20
421.5431618909
 30
0.0
 11
-564.5326902062
 21
421.5431618909
 31
0.0
  0
LINE
  5
381
330
1F
100
AcDbEntity
  8
0
100
AcDbLine
 10
-534.5326902062
 20
421.5431618909
 30
0.0
 11
-549.3068305372
 21
421.5431618909
 31
0.0
  0
LINE
  5
382
330
1F
100
AcDbEntity
  8
0
100
AcDbLine
 10
-537.0326902062
 20
431.5431618909
 30
0.0
 11
-562.0326902062
 21
431.5431618909
 31
0.0
  0
LINE
  5
383
330
1F
100
AcDbEntity
  8
0
100
AcDbLine
 10
-525.4683120732
 20
226.5805271966
 30
0.0
 11
-209.3420683393
 21
226.5805271966
 31
0.0
  0
LINE
  5
384
330
1F
100
AcDbEntity
  8
0
100
AcDbLine
 10
-525.3221163041
 20
226.7805271966
 30
0.0
 11
-209.4882641084
 21
226.7805271966
 31
0.0
  0
LINE
  5
385
330
1F
100
AcDbEntity
  8
0
100
AcDbLine
 10
-216.1776902062
 20
222.8805271966
 30
0.0
 11
-206.7063196515
 21
222.8805271966
 31
0.0
  0
LINE
  5
386
330
1F
100
AcDbEntity
  8
0
100
AcDbLine
 10
-249.5076902062
 20
222.8805271966
 30
0.0
 11
-235.0076902062
 21
222.8805271966
 31
0.0
  0
LINE
  5
387
330
1F
100
AcDbEntity
  8
0
100
AcDbLine
 10
-316.1676902062
 20
222.8805271966
 30
0.0
 11
-301.6676902062
 21
222.8805271966
 31
0.0
  0
LINE
  5
388
330
1F
100
AcDbEntity
  8
0
100
AcDbLine
 10
-282.8376902062
 20
222.8805271966
 30
0.0
 11
-268.3376902062
 21
222.8805271966
 31
0.0
  0
LINE
  5
389
330
1F
100
AcDbEntity
  8
0
100
AcDbLine
 10
-349.4976902062
 20
222.8805271966
 30
0.0
 11
-334.9976902062
 21
222.8805271966
 31
0.0
  0
LINE
  5
38A
330
1F
100
AcDbEntity
  8
0
100
AcDbLine
 10
-382.8276902062
 20
222.8805271966
 30
0.0
 11
-368.3276902062
 21
222.8805271966
 31
0.0
  0
LINE
  5
38B
330
1F
100
AcDbEntity
  8
0
100
AcDbLine
 10
-449.4876902062
 20
222.8805271966
 30
0.0
 11
-434.9876902062
 21
222.8805271966
 31
0.0
  0
LINE
  5
38C
330
1F
100
AcDbEntity
  8
0
100
AcDbLine
 10
-416.1576902062
 20
222.8805271966
 30
0.0
 11
-401.6576902062
 21
222.8805271966
 31
0.0
  0
LINE
  5
38D
330
1F
100
AcDbEntity
  8
0
100
AcDbLine
 10
-482.8176902062
 20
222.8805271966
 30
0.0
 11
-468.3176902062
 21
222.8805271966
 31
0.0
  0
LINE
  5
38E
330
1F
100
AcDbEntity
  8
0
100
AcDbLine
 10
-516.1476902062
 20
222.8805271966
 30
0.0
 11
-501.6476902062
 21
222.8805271966
 31
0.0
  0
LINE
  5
38F
330
1F
100
AcDbEntity
  8
0
100
AcDbLine
 10
-232.8426902062
 20
222.8805271966
 30
0.0
 11
-218.3426902062
 21
222.8805271966
 31
0.0
  0
LINE
  5
390
330
1F
100
AcDbEntity
  8
0
100
AcDbLine
 10
-266.1726902062
 20
222.8805271966
 30
0.0
 11
-251.6726902062
 21
222.8805271966
 31
0.0
  0
LINE
  5
391
330
1F
100
AcDbEntity
  8
0
100
AcDbLine
 10
-299.5026902062
 20
222.8805271966
 30
0.0
 11
-285.0026902062
 21
222.8805271966
 31
0.0
  0
LINE
  5
392
330
1F
100
AcDbEntity
  8
0
100
AcDbLine
 10
-332.8326902062
 20
222.8805271966
 30
0.0
 11
-318.3326902062
 21
222.8805271966
 31
0.0
  0
LINE
  5
393
330
1F
100
AcDbEntity
  8
0
100
AcDbLine
 10
-366.1626902062
 20
222.8805271966
 30
0.0
 11
-351.6626902062
 21
222.8805271966
 31
0.0
  0
LINE
  5
394
330
1F
100
AcDbEntity
  8
0
100
AcDbLine
 10
-399.4926902062
 20
222.8805271966
 30
0.0
 11
-384.9926902062
 21
222.8805271966
 31
0.0
  0
LINE
  5
395
330
1F
100
AcDbEntity
  8
0
100
AcDbLine
 10
-432.8226902062
 20
222.8805271966
 30
0.0
 11
-418.3226902062
 21
222.8805271966
 31
0.0
  0
LINE
  5
396
330
1F
100
AcDbEntity
  8
0
100
AcDbLine
 10
-466.1526902062
 20
222.8805271966
 30
0.0
 11
-451.6526902062
 21
222.8805271966
 31
0.0
  0
LINE
  5
397
330
1F
100
AcDbEntity
  8
0
100
AcDbLine
 10
-528.104060761
 20
222.8805271966
 30
0.0
 11
-518.3126902062
 21
222.8805271966
 31
0.0
  0
LINE
  5
398
330
1F
100
AcDbEntity
  8
0
100
AcDbLine
 10
-499.4826902062
 20
222.8805271966
 30
0.0
 11
-484.9826902062
 21
222.8805271966
 31
0.0
  0
LINE
  5
399
330
1F
100
AcDbEntity
  8
0
100
AcDbLine
 10
-522.5461552829
 20
230.4805271966
 30
0.0
 11
-212.2642251295
 21
230.4805271966
 31
0.0
  0
LINE
  5
39A
330
1F
100
AcDbEntity
  8
0
100
AcDbLine
 10
-522.3921706233
 20
230.6805271966
 30
0.0
 11
-212.4182097892
 21
230.6805271966
 31
0.0
  0
LINE
  5
39B
330
1F
100
AcDbEntity
  8
0
100
AcDbLine
 10
-141.0051902062
 20
380.4431618909
 30
0.0
 11
-140.9902561524
 21
380.4431618909
 31
0.0
  0
LINE
  5
39C
330
1F
100
AcDbEntity
  8
0
100
AcDbLine
 10
-140.9902561524
 20
380.4431618909
 30
0.0
 11
-139.1551902062
 21
380.4431618909
 31
0.0
  0
LINE
  5
39D
330
1F
100
AcDbEntity
  8
0
100
AcDbLine
 10
-139.1551902062
 20
380.4431618909
 30
0.0
 11
-138.6551902062
 21
380.4431618909
 31
0.0
  0
LINE
  5
39E
330
1F
100
AcDbEntity
  8
0
100
AcDbLine
 10
-138.6551902062
 20
380.4431618909
 30
0.0
 11
-136.82012426
 21
380.4431618909
 31
0.0
  0
LINE
  5
39F
330
1F
100
AcDbEntity
  8
0
100
AcDbLine
 10
-136.82012426
 20
380.4431618909
 30
0.0
 11
-136.8051902062
 21
380.4431618909
 31
0.0
  0
LINE
  5
3A0
330
1F
100
AcDbEntity
  8
0
100
AcDbLine
 10
-138.9051902062
 20
367.8931618909
 30
0.0
 11
-139.2051902062
 21
367.8931618909
 31
0.0
  0
LINE
  5
3A1
330
1F
100
AcDbEntity
  8
0
100
AcDbLine
 10
-138.6051902062
 20
367.8931618909
 30
0.0
 11
-138.9051902062
 21
367.8931618909
 31
0.0
  0
LINE
  5
3A2
330
1F
100
AcDbEntity
  8
0
100
AcDbLine
 10
-595.6551902063
 20
380.4431618909
 30
0.0
 11
-593.8201242601
 21
380.4431618909
 31
0.0
  0
LINE
  5
3A3
330
1F
100
AcDbEntity
  8
0
100
AcDbLine
 10
-593.8201242601
 20
380.4431618909
 30
0.0
 11
-593.8051902063
 21
380.4431618909
 31
0.0
  0
LINE
  5
3A4
330
1F
100
AcDbEntity
  8
0
100
AcDbLine
 10
-598.0051902063
 20
380.4431618909
 30
0.0
 11
-597.9902561525
 21
380.4431618909
 31
0.0
  0
LINE
  5
3A5
330
1F
100
AcDbEntity
  8
0
100
AcDbLine
 10
-597.9902561525
 20
380.4431618909
 30
0.0
 11
-596.1551902063
 21
380.4431618909
 31
0.0
  0
LINE
  5
3A6
330
1F
100
AcDbEntity
  8
0
100
AcDbLine
 10
-596.1551902063
 20
380.4431618909
 30
0.0
 11
-595.6551902063
 21
380.4431618909
 31
0.0
  0
LINE
  5
3A7
330
1F
100
AcDbEntity
  8
0
100
AcDbLine
 10
-595.6051902063
 20
367.8931618909
 30
0.0
 11
-596.2051902063
 21
367.8931618909
 31
0.0
  0
LINE
  5
3A8
330
1F
100
AcDbEntity
  8
0
100
AcDbLine
 10
-186.0051902062
 20
380.4431618909
 30
0.0
 11
-185.9902561524
 21
380.4431618909
 31
0.0
  0
LINE
  5
3A9
330
1F
100
AcDbEntity
  8
0
100
AcDbLine
 10
-185.9902561524
 20
380.4431618909
 30
0.0
 11
-184.1551902062
 21
380.4431618909
 31
0.0
  0
LINE
  5
3AA
330
1F
100
AcDbEntity
  8
0
100
AcDbLine
 10
-184.1551902062
 20
380.4431618909
 30
0.0
 11
-183.6551902062
 21
380.4431618909
 31
0.0
  0
LINE
  5
3AB
330
1F
100
AcDbEntity
  8
0
100
AcDbLine
 10
-183.6551902062
 20
380.4431618909
 30
0.0
 11
-181.82012426
 21
380.4431618909
 31
0.0
  0
LINE
  5
3AC
330
1F
100
AcDbEntity
  8
0
100
AcDbLine
 10
-181.82012426
 20
380.4431618909
 30
0.0
 11
-181.8051902062
 21
380.4431618909
 31
0.0
  0
LINE
  5
3AD
330
1F
100
AcDbEntity
  8
0
100
AcDbLine
 10
-183.9051902062
 20
367.8931618909
 30
0.0
 11
-184.2051902062
 21
367.8931618909
 31
0.0
  0
LINE
  5
3AE
330
1F
100
AcDbEntity
  8
0
100
AcDbLine
 10
-183.6051902062
 20
367.8931618909
 30
0.0
 11
-183.9051902062
 21
367.8931618909
 31
0.0
  0
LINE
  5
3AF
330
1F
100
AcDbEntity
  8
0
100
AcDbLine
 10
-367.1551902063
 20
380.4431618909
 30
0.0
 11
-365.3201242601
 21
380.4431618909
 31
0.0
  0
LINE
  5
3B0
330
1F
100
AcDbEntity
  8
0
100
AcDbLine
 10
-365.3201242601
 20
380.4431618909
 30
0.0
 11
-365.3051902063
 21
380.4431618909
 31
0.0
  0
LINE
  5
3B1
330
1F
100
AcDbEntity
  8
0
100
AcDbLine
 10
-369.5051902063
 20
380.4431618909
 30
0.0
 11
-369.4902561525
 21
380.4431618909
 31
0.0
  0
LINE
  5
3B2
330
1F
100
AcDbEntity
  8
0
100
AcDbLine
 10
-369.4902561525
 20
380.4431618909
 30
0.0
 11
-367.6551902063
 21
380.4431618909
 31
0.0
  0
LINE
  5
3B3
330
1F
100
AcDbEntity
  8
0
100
AcDbLine
 10
-367.6551902063
 20
380.4431618909
 30
0.0
 11
-367.1551902063
 21
380.4431618909
 31
0.0
  0
LINE
  5
3B4
330
1F
100
AcDbEntity
  8
0
100
AcDbLine
 10
-367.1051902063
 20
367.8931618909
 30
0.0
 11
-367.7051902063
 21
367.8931618909
 31
0.0
  0
LINE
  5
3B5
330
1F
100
AcDbEntity
  8
0
100
AcDbLine
 10
-550.6551902063
 20
380.4431618909
 30
0.0
 11
-548.8201242601
 21
380.4431618909
 31
0.0
  0
LINE
  5
3B6
330
1F
100
AcDbEntity
  8
0
100
AcDbLine
 10
-548.8201242601
 20
380.4431618909
 30
0.0
 11
-548.8051902063
 21
380.4431618909
 31
0.0
  0
LINE
  5
3B7
330
1F
100
AcDbEntity
  8
0
100
AcDbLine
 10
-553.0051902063
 20
380.4431618909
 30
0.0
 11
-552.9902561525
 21
380.4431618909
 31
0.0
  0
LINE
  5
3B8
330
1F
100
AcDbEntity
  8
0
100
AcDbLine
 10
-552.9902561525
 20
380.4431618909
 30
0.0
 11
-551.1551902063
 21
380.4431618909
 31
0.0
  0
LINE
  5
3B9
330
1F
100
AcDbEntity
  8
0
100
AcDbLine
 10
-551.1551902063
 20
380.4431618909
 30
0.0
 11
-550.6551902063
 21
380.4431618909
 31
0.0
  0
LINE
  5
3BA
330
1F
100
AcDbEntity
  8
0
100
AcDbLine
 10
-550.6051902063
 20
367.8931618909
 30
0.0
 11
-551.2051902063
 21
367.8931618909
 31
0.0
  0
LINE
  5
3BB
330
1F
100
AcDbEntity
  8
0
100
AcDbLine
 10
-589.4051902062
 20
356.3893143136
 30
0.0
 11
-589.4051902062
 21
354.5893143136
 31
0.0
  0
LINE
  5
3BC
330
1F
100
AcDbEntity
  8
0
100
AcDbLine
 10
-176.697439931
 20
-153.8068381091
 30
0.0
 11
-175.3051902062
 21
-153.8068381091
 31
0.0
  0
LINE
  5
3BD
330
1F
100
AcDbEntity
  8
0
100
AcDbLine
 10
-177.1051902062
 20
-153.8068381091
 30
0.0
 11
-176.697439931
 21
-153.8068381091
 31
0.0
  0
LINE
  5
3BE
330
1F
100
AcDbEntity
  8
0
100
AcDbLine
 10
-176.7521343448
 20
-148.5068381091
 30
0.0
 11
-175.2051902062
 21
-148.5068381091
 31
0.0
  0
LINE
  5
3BF
330
1F
100
AcDbEntity
  8
0
100
AcDbLine
 10
-177.2051902062
 20
-148.5068381091
 30
0.0
 11
-176.7521343448
 21
-148.5068381091
 31
0.0
  0
LINE
  5
3C0
330
1F
100
AcDbEntity
  8
0
100
AcDbLine
 10
-177.2990784835
 20
-149.5068381091
 30
0.0
 11
-174.2051902062
 21
-149.5068381091
 31
0.0
  0
LINE
  5
3C1
330
1F
100
AcDbEntity
  8
0
100
AcDbLine
 10
-178.2051902062
 20
-149.5068381091
 30
0.0
 11
-177.2990784835
 21
-149.5068381091
 31
0.0
  0
LINE
  5
3C2
330
1F
100
AcDbEntity
  8
0
100
AcDbLine
 10
-589.4051902062
 20
235.6681618909
 30
0.0
 11
-589.4051902062
 21
233.8681618909
 31
0.0
  0
LINE
  5
3C3
330
1F
100
AcDbEntity
  8
0
100
AcDbLine
 10
-584.1051902062
 20
235.7681618909
 30
0.0
 11
-584.1051902062
 21
233.7681618909
 31
0.0
  0
LINE
  5
3C4
330
1F
100
AcDbEntity
  8
0
100
AcDbLine
 10
-585.1051902062
 20
236.7681618909
 30
0.0
 11
-585.1051902062
 21
232.7681618909
 31
0.0
  0
LINE
  5
3C5
330
1F
100
AcDbEntity
  8
0
100
AcDbLine
 10
-145.4051902062
 20
-12.2500359757
 30
0.0
 11
-145.4051902062
 21
-12.1818381091
 31
0.0
  0
LINE
  5
3C6
330
1F
100
AcDbEntity
  8
0
100
AcDbLine
 10
-145.4051902062
 20
-13.9818381091
 30
0.0
 11
-145.4051902062
 21
-12.2500359757
 31
0.0
  0
LINE
  5
3C7
330
1F
100
AcDbEntity
  8
0
100
AcDbLine
 10
-150.7051902062
 20
-12.1576135164
 30
0.0
 11
-150.7051902062
 21
-12.0818381091
 31
0.0
  0
LINE
  5
3C8
330
1F
100
AcDbEntity
  8
0
100
AcDbLine
 10
-150.7051902062
 20
-14.0818381091
 30
0.0
 11
-150.7051902062
 21
-12.1576135164
 31
0.0
  0
LINE
  5
3C9
330
1F
100
AcDbEntity
  8
0
100
AcDbLine
 10
-149.7051902062
 20
-11.2333889237
 30
0.0
 11
-149.7051902062
 21
-11.0818381091
 31
0.0
  0
LINE
  5
3CA
330
1F
100
AcDbEntity
  8
0
100
AcDbLine
 10
-149.7051902062
 20
-15.0818381091
 30
0.0
 11
-149.7051902062
 21
-11.2333889237
 31
0.0
  0
LINE
  5
3CB
330
1F
100
AcDbEntity
  8
0
100
AcDbLine
 10
-589.4051902062
 20
359.5931618909
 30
0.0
 11
-589.4051902062
 21
357.7931618909
 31
0.0
  0
LINE
  5
3CC
330
1F
100
AcDbEntity
  8
0
100
AcDbLine
 10
-584.1051902062
 20
359.6931618909
 30
0.0
 11
-584.1051902062
 21
357.6931618909
 31
0.0
  0
LINE
  5
3CD
330
1F
100
AcDbEntity
  8
0
100
AcDbLine
 10
-585.1051902062
 20
360.6931618909
 30
0.0
 11
-585.1051902062
 21
356.6931618909
 31
0.0
  0
LINE
  5
3CE
330
1F
100
AcDbEntity
  8
0
100
AcDbLine
 10
-559.097439931
 20
-153.8068381091
 30
0.0
 11
-557.7051902062
 21
-153.8068381091
 31
0.0
  0
LINE
  5
3CF
330
1F
100
AcDbEntity
  8
0
100
AcDbLine
 10
-559.5051902062
 20
-153.8068381091
 30
0.0
 11
-559.097439931
 21
-153.8068381091
 31
0.0
  0
LINE
  5
3D0
330
1F
100
AcDbEntity
  8
0
100
AcDbLine
 10
-559.1521343448
 20
-148.5068381091
 30
0.0
 11
-557.6051902062
 21
-148.5068381091
 31
0.0
  0
LINE
  5
3D1
330
1F
100
AcDbEntity
  8
0
100
AcDbLine
 10
-559.6051902062
 20
-148.5068381091
 30
0.0
 11
-559.1521343448
 21
-148.5068381091
 31
0.0
  0
LINE
  5
3D2
330
1F
100
AcDbEntity
  8
0
100
AcDbLine
 10
-559.6990784835
 20
-149.5068381091
 30
0.0
 11
-556.6051902062
 21
-149.5068381091
 31
0.0
  0
LINE
  5
3D3
330
1F
100
AcDbEntity
  8
0
100
AcDbLine
 10
-560.6051902062
 20
-149.5068381091
 30
0.0
 11
-559.6990784835
 21
-149.5068381091
 31
0.0
  0
LINE
  5
3D4
330
1F
100
AcDbEntity
  8
0
100
AcDbLine
 10
-145.4051902062
 20
-140.0106856864
 30
0.0
 11
-145.4051902062
 21
-138.2106856864
 31
0.0
  0
LINE
  5
3D5
330
1F
100
AcDbEntity
  8
0
100
AcDbLine
 10
-589.4051902062
 20
111.7431618909
 30
0.0
 11
-589.4051902062
 21
109.9431618909
 31
0.0
  0
LINE
  5
3D6
330
1F
100
AcDbEntity
  8
0
100
AcDbLine
 10
-584.1051902062
 20
111.8431618909
 30
0.0
 11
-584.1051902062
 21
109.8431618909
 31
0.0
  0
LINE
  5
3D7
330
1F
100
AcDbEntity
  8
0
100
AcDbLine
 10
-585.1051902062
 20
112.8431618909
 30
0.0
 11
-585.1051902062
 21
108.8431618909
 31
0.0
  0
LINE
  5
3D8
330
1F
100
AcDbEntity
  8
0
100
AcDbLine
 10
-589.4051902062
 20
-136.1068381091
 30
0.0
 11
-589.4051902062
 21
-137.9068381091
 31
0.0
  0
LINE
  5
3D9
330
1F
100
AcDbEntity
  8
0
100
AcDbLine
 10
-584.1051902062
 20
-136.0068381091
 30
0.0
 11
-584.1051902062
 21
-138.0068381091
 31
0.0
  0
LINE
  5
3DA
330
1F
100
AcDbEntity
  8
0
100
AcDbLine
 10
-585.1051902062
 20
-135.0068381091
 30
0.0
 11
-585.1051902062
 21
-139.0068381091
 31
0.0
  0
LINE
  5
3DB
330
1F
100
AcDbEntity
  8
0
100
AcDbLine
 10
-589.4051902062
 20
191.5226476469
 30
0.0
 11
-589.4051902062
 21
189.7226476469
 31
0.0
  0
LINE
  5
3DC
330
1F
100
AcDbEntity
  8
0
100
AcDbLine
 10
-589.4051902062
 20
26.6559809802
 30
0.0
 11
-589.4051902062
 21
24.8559809802
 31
0.0
  0
LINE
  5
3DD
330
1F
100
AcDbEntity
  8
0
100
AcDbLine
 10
-145.4051902062
 20
109.9431618909
 30
0.0
 11
-145.4051902062
 21
111.7431618909
 31
0.0
  0
LINE
  5
3DE
330
1F
100
AcDbEntity
  8
0
100
AcDbLine
 10
-150.7051902062
 20
109.8431618909
 30
0.0
 11
-150.7051902062
 21
111.8431618909
 31
0.0
  0
LINE
  5
3DF
330
1F
100
AcDbEntity
  8
0
100
AcDbLine
 10
-149.7051902062
 20
108.8431618909
 30
0.0
 11
-149.7051902062
 21
112.8431618909
 31
0.0
  0
LINE
  5
3E0
330
1F
100
AcDbEntity
  8
0
100
AcDbLine
 10
-437.897439931
 20
-153.8068381091
 30
0.0
 11
-436.5051902062
 21
-153.8068381091
 31
0.0
  0
LINE
  5
3E1
330
1F
100
AcDbEntity
  8
0
100
AcDbLine
 10
-438.3051902062
 20
-153.8068381091
 30
0.0
 11
-437.897439931
 21
-153.8068381091
 31
0.0
  0
LINE
  5
3E2
330
1F
100
AcDbEntity
  8
0
100
AcDbLine
 10
-437.9521343448
 20
-148.5068381091
 30
0.0
 11
-436.4051902062
 21
-148.5068381091
 31
0.0
  0
LINE
  5
3E3
330
1F
100
AcDbEntity
  8
0
100
AcDbLine
 10
-438.4051902062
 20
-148.5068381091
 30
0.0
 11
-437.9521343448
 21
-148.5068381091
 31
0.0
  0
LINE
  5
3E4
330
1F
100
AcDbEntity
  8
0
100
AcDbLine
 10
-438.4990784835
 20
-149.5068381091
 30
0.0
 11
-435.4051902062
 21
-149.5068381091
 31
0.0
  0
LINE
  5
3E5
330
1F
100
AcDbEntity
  8
0
100
AcDbLine
 10
-439.4051902062
 20
-149.5068381091
 30
0.0
 11
-438.4990784835
 21
-149.5068381091
 31
0.0
  0
LINE
  5
3E6
330
1F
100
AcDbEntity
  8
0
100
AcDbLine
 10
-145.4051902062
 20
233.8681618909
 30
0.0
 11
-145.4051902062
 21
235.6681618909
 31
0.0
  0
LINE
  5
3E7
330
1F
100
AcDbEntity
  8
0
100
AcDbLine
 10
-150.7051902062
 20
233.7681618909
 30
0.0
 11
-150.7051902062
 21
235.7681618909
 31
0.0
  0
LINE
  5
3E8
330
1F
100
AcDbEntity
  8
0
100
AcDbLine
 10
-149.7051902062
 20
232.7681618909
 30
0.0
 11
-149.7051902062
 21
236.7681618909
 31
0.0
  0
LINE
  5
3E9
330
1F
100
AcDbEntity
  8
0
100
AcDbLine
 10
-145.4051902062
 20
357.7931618909
 30
0.0
 11
-145.4051902062
 21
359.5931618909
 31
0.0
  0
LINE
  5
3EA
330
1F
100
AcDbEntity
  8
0
100
AcDbLine
 10
-150.7051902062
 20
357.6931618909
 30
0.0
 11
-150.7051902062
 21
359.6931618909
 31
0.0
  0
LINE
  5
3EB
330
1F
100
AcDbEntity
  8
0
100
AcDbLine
 10
-149.7051902062
 20
356.6931618909
 30
0.0
 11
-149.7051902062
 21
360.6931618909
 31
0.0
  0
LINE
  5
3EC
330
1F
100
AcDbEntity
  8
0
100
AcDbLine
 10
-589.4051902062
 20
-138.2106856864
 30
0.0
 11
-589.4051902062
 21
-140.0106856864
 31
0.0
  0
LINE
  5
3ED
330
1F
100
AcDbEntity
  8
0
100
AcDbLine
 10
-145.4051902062
 20
189.7226476469
 30
0.0
 11
-145.4051902062
 21
191.5226476469
 31
0.0
  0
LINE
  5
3EE
330
1F
100
AcDbEntity
  8
0
100
AcDbLine
 10
-589.4051902062
 20
-12.1818381091
 30
0.0
 11
-589.4051902062
 21
-13.9818381091
 31
0.0
  0
LINE
  5
3EF
330
1F
100
AcDbEntity
  8
0
100
AcDbLine
 10
-584.1051902062
 20
-12.0818381091
 30
0.0
 11
-584.1051902062
 21
-14.0818381091
 31
0.0
  0
LINE
  5
3F0
330
1F
100
AcDbEntity
  8
0
100
AcDbLine
 10
-585.1051902062
 20
-11.0818381091
 30
0.0
 11
-585.1051902062
 21
-15.0818381091
 31
0.0
  0
LINE
  5
3F1
330
1F
100
AcDbEntity
  8
0
100
AcDbLine
 10
-145.4051902062
 20
354.5893143136
 30
0.0
 11
-145.4051902062
 21
356.3893143136
 31
0.0
  0
LINE
  5
3F2
330
1F
100
AcDbEntity
  8
0
100
AcDbLine
 10
-145.4051902062
 20
26.5877831137
 30
0.0
 11
-145.4051902062
 21
26.6559809802
 31
0.0
  0
LINE
  5
3F3
330
1F
100
AcDbEntity
  8
0
100
AcDbLine
 10
-145.4051902062
 20
24.8559809802
 30
0.0
 11
-145.4051902062
 21
26.5877831137
 31
0.0
  0
LINE
  5
3F4
330
1F
100
AcDbEntity
  8
0
100
AcDbLine
 10
-145.4051902062
 20
-136.1750359757
 30
0.0
 11
-145.4051902062
 21
-136.1068381091
 31
0.0
  0
LINE
  5
3F5
330
1F
100
AcDbEntity
  8
0
100
AcDbLine
 10
-145.4051902062
 20
-137.9068381091
 30
0.0
 11
-145.4051902062
 21
-136.1750359757
 31
0.0
  0
LINE
  5
3F6
330
1F
100
AcDbEntity
  8
0
100
AcDbLine
 10
-150.7051902062
 20
-136.0826135164
 30
0.0
 11
-150.7051902062
 21
-136.0068381091
 31
0.0
  0
LINE
  5
3F7
330
1F
100
AcDbEntity
  8
0
100
AcDbLine
 10
-150.7051902062
 20
-138.0068381091
 30
0.0
 11
-150.7051902062
 21
-136.0826135164
 31
0.0
  0
LINE
  5
3F8
330
1F
100
AcDbEntity
  8
0
100
AcDbLine
 10
-149.7051902062
 20
-135.1583889237
 30
0.0
 11
-149.7051902062
 21
-135.0068381091
 31
0.0
  0
LINE
  5
3F9
330
1F
100
AcDbEntity
  8
0
100
AcDbLine
 10
-149.7051902062
 20
-139.0068381091
 30
0.0
 11
-149.7051902062
 21
-135.1583889237
 31
0.0
  0
LINE
  5
3FA
330
1F
100
AcDbEntity
  8
0
100
AcDbLine
 10
-297.897439931
 20
-153.8068381091
 30
0.0
 11
-296.5051902062
 21
-153.8068381091
 31
0.0
  0
LINE
  5
3FB
330
1F
100
AcDbEntity
  8
0
100
AcDbLine
 10
-298.3051902062
 20
-153.8068381091
 30
0.0
 11
-297.897439931
 21
-153.8068381091
 31
0.0
  0
LINE
  5
3FC
330
1F
100
AcDbEntity
  8
0
100
AcDbLine
 10
-297.9521343448
 20
-148.5068381091
 30
0.0
 11
-296.4051902062
 21
-148.5068381091
 31
0.0
  0
LINE
  5
3FD
330
1F
100
AcDbEntity
  8
0
100
AcDbLine
 10
-298.4051902062
 20
-148.5068381091
 30
0.0
 11
-297.9521343448
 21
-148.5068381091
 31
0.0
  0
LINE
  5
3FE
330
1F
100
AcDbEntity
  8
0
100
AcDbLine
 10
-298.4990784835
 20
-149.5068381091
 30
0.0
 11
-295.4051902062
 21
-149.5068381091
 31
0.0
  0
LINE
  5
3FF
330
1F
100
AcDbEntity
  8
0
100
AcDbLine
 10
-299.4051902062
 20
-149.5068381091
 30
0.0
 11
-298.4990784835
 21
-149.5068381091
 31
0.0
  0
LINE
  5
400
330
1F
100
AcDbEntity
  8
0
100
AcDbLine
 10
-150.957690204
 20
379.3931618909
 30
0.0
 11
-180.0452186155
 21
379.3931618909
 31
0.0
  0
LINE
  5
401
330
1F
100
AcDbEntity
  8
0
100
AcDbLine
 10
-187.7651617968
 20
379.3931618909
 30
0.0
 11
-218.957690204
 21
379.3931618909
 31
0.0
  0
LINE
  5
402
330
1F
100
AcDbEntity
  8
0
100
AcDbLine
 10
-172.957690204
 20
389.3931618909
 30
0.0
 11
-196.957690204
 21
389.3931618909
 31
0.0
  0
LINE
  5
403
330
1F
100
AcDbEntity
  8
0
100
AcDbLine
 10
-515.5326902062
 20
379.3931618909
 30
0.0
 11
-547.0452186156
 21
379.3931618909
 31
0.0
  0
LINE
  5
404
330
1F
100
AcDbEntity
  8
0
100
AcDbLine
 10
-554.765161797
 20
379.3931618909
 30
0.0
 11
-583.5326902062
 21
379.3931618909
 31
0.0
  0
LINE
  5
405
330
1F
100
AcDbEntity
  8
0
100
AcDbLine
 10
-537.5326902062
 20
389.3931618909
 30
0.0
 11
-561.5326902062
 21
389.3931618909
 31
0.0
  0
LINE
  5
406
330
1F
100
AcDbEntity
  8
0
100
AcDbLine
 10
-133.0819669016
 20
375.6931618909
 30
0.0
 11
-133.0819669015
 21
368.3931618909
 31
0.0
  0
LINE
  5
407
330
1F
100
AcDbEntity
  8
0
100
AcDbLine
 10
-601.7284135111
 20
368.3931618909
 30
0.0
 11
-133.0819669015
 21
368.3931618909
 31
0.0
  0
LINE
  5
408
330
1F
100
AcDbEntity
  8
0
100
AcDbLine
 10
-601.7284135111
 20
368.3931618909
 30
0.0
 11
-601.728413511
 21
375.6931618909
 31
0.0
  0
ELLIPSE
  5
409
330
1F
100
AcDbEntity
  8
0
100
AcDbEllipse
 10
-133.9051902062
 20
375.6931618909
 30
0.0
 11
0.0
 21
1.700000000000045
 31
0.0
210
0.0
220
0.0
230
1.0
 40
0.4842490027
 41
4.712388980384697
 42
6.283185307179586
  0
ELLIPSE
  5
40A
330
1F
100
AcDbEntity
  8
0
100
AcDbEllipse
 10
-600.9051902062
 20
375.6931618909
 30
0.0
 11
0.0
 21
1.699999999999989
 31
0.0
210
0.0
220
0.0
230
1.0
 40
0.4842490028
 41
0.0
 42
1.570796326794897
  0
LINE
  5
40B
330
1F
100
AcDbEntity
  8
0
100
AcDbLine
 10
-600.9051902062
 20
377.3931618909
 30
0.0
 11
-133.9051902062
 21
377.3931618909
 31
0.0
  0
LINE
  5
40C
330
1F
100
AcDbEntity
  8
0
100
AcDbLine
 10
-132.2051902061
 20
368.3931618909
 30
0.0
 11
-132.2051902062
 21
375.6931618909
 31
0.0
  0
LINE
  5
40D
330
1F
100
AcDbEntity
  8
0
100
AcDbLine
 10
-132.9051902061
 20
368.3931618909
 30
0.0
 11
-132.2051902061
 21
368.3931618909
 31
0.0
  0
LINE
  5
40E
330
1F
100
AcDbEntity
  8
0
100
AcDbLine
 10
-132.9051902061
 20
368.3931618909
 30
0.0
 11
-132.9051902062
 21
375.6931618909
 31
0.0
  0
ARC
  5
40F
330
1F
100
AcDbEntity
  8
0
100
AcDbCircle
 10
-133.9051902062
 20
375.6931618909
 30
0.0
 40
1.0
100
AcDbArc
 50
0.0
 51
40.4565085264
  0
ARC
  5
410
330
1F
100
AcDbEntity
  8
0
100
AcDbCircle
 10
-133.9051902062
 20
375.6931618909
 30
0.0
 40
1.699999999999989
100
AcDbArc
 50
0.0
 51
90.0000000001
  0
LINE
  5
411
330
1F
100
AcDbEntity
  8
0
100
AcDbLine
 10
-601.9051902063
 20
368.3931618909
 30
0.0
 11
-602.6051902063
 21
368.3931618909
 31
0.0
  0
LINE
  5
412
330
1F
100
AcDbEntity
  8
0
100
AcDbLine
 10
-601.9051902063
 20
375.6931618909
 30
0.0
 11
-601.9051902063
 21
368.3931618909
 31
0.0
  0
LINE
  5
413
330
1F
100
AcDbEntity
  8
0
100
AcDbLine
 10
-602.6051902062
 20
375.6931618909
 30
0.0
 11
-602.6051902063
 21
368.3931618909
 31
0.0
  0
ARC
  5
414
330
1F
100
AcDbEntity
  8
0
100
AcDbCircle
 10
-600.9051902062
 20
375.6931618909
 30
0.0
 40
1.000000000000027
100
AcDbArc
 50
139.5435491763
 51
180.0
  0
ARC
  5
415
330
1F
100
AcDbEntity
  8
0
100
AcDbCircle
 10
-600.9051902062
 20
375.6931618909
 30
0.0
 40
1.700000000000045
100
AcDbArc
 50
90.0
 51
180.0
  0
LINE
  5
416
330
1F
100
AcDbEntity
  8
0
100
AcDbLine
 10
-146.2051902062
 20
-151.3068381091
 30
0.0
 11
-146.2051902062
 21
368.3931618909
 31
0.0
  0
LINE
  5
417
330
1F
100
AcDbEntity
  8
0
100
AcDbLine
 10
-146.9051902062
 20
-151.3068381091
 30
0.0
 11
-146.9051902062
 21
368.3931618909
 31
0.0
  0
LINE
  5
418
330
1F
100
AcDbEntity
  8
0
100
AcDbLine
 10
-588.6051902062
 20
368.3931618909
 30
0.0
 11
-588.6051902062
 21
-151.3068381091
 31
0.0
  0
LINE
  5
419
330
1F
100
AcDbEntity
  8
0
100
AcDbLine
 10
-587.9051902062
 20
368.3931618909
 30
0.0
 11
-587.9051902062
 21
-151.3068381091
 31
0.0
  0
ARC
  5
41A
330
1F
100
AcDbEntity
  8
0
100
AcDbCircle
 10
-147.9051902062
 20
-151.3068381091
 30
0.0
 40
1.0
100
AcDbArc
 50
270.0
 51
0.0
  0
ARC
  5
41B
330
1F
100
AcDbEntity
  8
0
100
AcDbCircle
 10
-147.9051902062
 20
-151.3068381091
 30
0.0
 40
1.700000000000045
100
AcDbArc
 50
270.0
 51
0.0
  0
LINE
  5
41C
330
1F
100
AcDbEntity
  8
0
100
AcDbLine
 10
-586.9051902062
 20
-153.0068381091
 30
0.0
 11
-147.9051902062
 21
-153.0068381091
 31
0.0
  0
LINE
  5
41D
330
1F
100
AcDbEntity
  8
0
100
AcDbLine
 10
-586.9051902062
 20
-152.3068381091
 30
0.0
 11
-147.9051902062
 21
-152.3068381091
 31
0.0
  0
ARC
  5
41E
330
1F
100
AcDbEntity
  8
0
100
AcDbCircle
 10
-586.9051902062
 20
-151.3068381091
 30
0.0
 40
1.0
100
AcDbArc
 50
180.0
 51
270.0
  0
ARC
  5
41F
330
1F
100
AcDbEntity
  8
0
100
AcDbCircle
 10
-586.9051902062
 20
-151.3068381091
 30
0.0
 40
1.700000000000045
100
AcDbArc
 50
180.0
 51
270.0
  0
CIRCLE
  5
420
330
1F
100
AcDbEntity
  8
0
100
AcDbCircle
 10
-367.4051902062
 20
111.1931618909
 30
0.0
 40
195.7000000000029
  0
CIRCLE
  5
421
330
1F
100
AcDbEntity
  8
0
100
AcDbCircle
 10
-367.4051902062
 20
111.1931618909
 30
0.0
 40
200.0
  0
CIRCLE
  5
422
330
1F
100
AcDbEntity
  8
0
100
AcDbCircle
 10
-367.4051902062
 20
111.1931618909
 30
0.0
 40
195.6992451863356
  0
CIRCLE
  5
423
330
1F
100
AcDbEntity
  8
0
100
AcDbCircle
 10
-367.4051902062
 20
323.6931618909
 30
0.0
 40
3.90000000000001
  0
CIRCLE
  5
424
330
1F
100
AcDbEntity
  8
0
100
AcDbCircle
 10
-367.4051902062
 20
323.6931618909
 30
0.0
 40
1.099999999999976
  0
CIRCLE
  5
425
330
1F
100
AcDbEntity
  8
0
100
AcDbCircle
 10
-492.8973415707
 20
-61.5319664082
 30
0.0
 40
3.900000000000013
  0
CIRCLE
  5
426
330
1F
100
AcDbEntity
  8
0
100
AcDbCircle
 10
-492.8973415707
 20
-61.5319664082
 30
0.0
 40
1.100000000000016
  0
CIRCLE
  5
427
330
1F
100
AcDbEntity
  8
0
100
AcDbCircle
 10
-569.504699919
 20
176.8592731955
 30
0.0
 40
3.899999999999979
  0
CIRCLE
  5
428
330
1F
100
AcDbEntity
  8
0
100
AcDbCircle
 10
-569.504699919
 20
176.8592731955
 30
0.0
 40
1.099999999999975
  0
CIRCLE
  5
429
330
1F
100
AcDbEntity
  8
0
100
AcDbCircle
 10
-242.5008240941
 20
283.1092731955
 30
0.0
 40
3.900000000000034
  0
CIRCLE
  5
42A
330
1F
100
AcDbEntity
  8
0
100
AcDbCircle
 10
-242.5008240941
 20
283.1092731955
 30
0.0
 40
1.100000000000023
  0
CIRCLE
  5
42B
330
1F
100
AcDbEntity
  8
0
100
AcDbCircle
 10
-165.3056804935
 20
45.5270505862
 30
0.0
 40
3.90000000000001
  0
CIRCLE
  5
42C
330
1F
100
AcDbEntity
  8
0
100
AcDbCircle
 10
-165.3056804935
 20
45.5270505862
 30
0.0
 40
1.099999999999979
  0
CIRCLE
  5
42D
330
1F
100
AcDbEntity
  8
0
100
AcDbCircle
 10
-569.504699919
 20
45.5270505862
 30
0.0
 40
3.899999999999954
  0
CIRCLE
  5
42E
330
1F
100
AcDbEntity
  8
0
100
AcDbCircle
 10
-569.504699919
 20
45.5270505862
 30
0.0
 40
1.099999999999987
  0
CIRCLE
  5
42F
330
1F
100
AcDbEntity
  8
0
100
AcDbCircle
 10
-492.3095563184
 20
283.1092731955
 30
0.0
 40
3.900000000000005
  0
CIRCLE
  5
430
330
1F
100
AcDbEntity
  8
0
100
AcDbCircle
 10
-492.3095563184
 20
283.1092731955
 30
0.0
 40
1.099999999999975
  0
CIRCLE
  5
431
330
1F
100
AcDbEntity
  8
0
100
AcDbCircle
 10
-165.3056804935
 20
176.8592731955
 30
0.0
 40
3.899999999999998
  0
CIRCLE
  5
432
330
1F
100
AcDbEntity
  8
0
100
AcDbCircle
 10
-165.3056804935
 20
176.8592731955
 30
0.0
 40
1.099999999999993
  0
CIRCLE
  5
433
330
1F
100
AcDbEntity
  8
0
100
AcDbCircle
 10
-367.4051902062
 20
-101.3068381091
 30
0.0
 40
3.900000000000022
  0
CIRCLE
  5
434
330
1F
100
AcDbEntity
  8
0
100
AcDbCircle
 10
-367.4051902062
 20
-101.3068381091
 30
0.0
 40
1.10000000000001
  0
CIRCLE
  5
435
330
1F
100
AcDbEntity
  8
0
100
AcDbCircle
 10
-242.5008240941
 20
-60.7229494138
 30
0.0
 40
3.900000000000003
  0
CIRCLE
  5
436
330
1F
100
AcDbEntity
  8
0
100
AcDbCircle
 10
-242.5008240941
 20
-60.7229494138
 30
0.0
 40
1.100000000000008
  0
LINE
  5
437
330
1F
100
AcDbEntity
  8
0
100
AcDbLine
 10
-587.9051902062
 20
-151.536127431
 30
0.0
 11
-587.2051902062
 21
-151.536127431
 31
0.0
  0
LINE
  5
438
330
1F
100
AcDbEntity
  8
0
100
AcDbLine
 10
-587.9051902062
 20
-151.536127431
 30
0.0
 11
-587.9051902062
 21
368.3931618909
 31
0.0
  0
LINE
  5
439
330
1F
100
AcDbEntity
  8
0
100
AcDbLine
 10
-587.2051902062
 20
-151.536127431
 30
0.0
 11
-587.2051902062
 21
368.3931618909
 31
0.0
  0
LINE
  5
43A
330
1F
100
AcDbEntity
  8
0
100
AcDbLine
 10
-147.6759008844
 20
-152.3068381091
 30
0.0
 11
-147.6759008844
 21
-151.6068381091
 31
0.0
  0
LINE
  5
43B
330
1F
100
AcDbEntity
  8
0
100
AcDbLine
 10
-147.6759008844
 20
-152.3068381091
 30
0.0
 11
-587.1344795281
 21
-152.3068381091
 31
0.0
  0
LINE
  5
43C
330
1F
100
AcDbEntity
  8
0
100
AcDbLine
 10
-587.1344795281
 20
-152.3068381091
 30
0.0
 11
-587.1344795281
 21
-151.6068381091
 31
0.0
  0
LINE
  5
43D
330
1F
100
AcDbEntity
  8
0
100
AcDbLine
 10
-147.6759008844
 20
-151.6068381091
 30
0.0
 11
-587.1344795281
 21
-151.6068381091
 31
0.0
  0
LINE
  5
43E
330
1F
100
AcDbEntity
  8
0
100
AcDbLine
 10
-146.9051902062
 20
368.3931618909
 30
0.0
 11
-146.9051902062
 21
-151.536127431
 31
0.0
  0
LINE
  5
43F
330
1F
100
AcDbEntity
  8
0
100
AcDbLine
 10
-146.9051902062
 20
-151.536127431
 30
0.0
 11
-147.6051902062
 21
-151.536127431
 31
0.0
  0
LINE
  5
440
330
1F
100
AcDbEntity
  8
0
100
AcDbLine
 10
-147.6051902062
 20
368.3931618909
 30
0.0
 11
-147.6051902062
 21
-151.536127431
 31
0.0
  0
SPLINE
  5
441
330
1F
100
AcDbEntity
  8
0
100
AcDbSpline
210
0.0
220
0.0
230
1.0
 70
     8
 71
     3
 72
    11
 73
     7
 74
     0
 42
0.00000001
 43
0.00000001
 40
0.0
 40
0.0
 40
0.0
 40
0.0
 40
0.2497194705775512
 40
0.4995459238714955
 40
0.7493726557941666
 40
0.9999999999999999
 40
0.9999999999999999
 40
0.9999999999999999
 40
0.9999999999999999
 10
-587.2051902062458
 20
-151.5361274310095
 30
0.0
 10
-587.1901928320902
 20
-151.4587745148003
 30
0.0
 10
-587.1601916587299
 20
-151.3040355434958
 30
0.0
 10
-586.929344645407
 20
-151.0719081358704
 30
0.0
 10
-586.5988794955135
 20
-150.8395029692145
 30
0.0
 10
-586.3365598531843
 20
-150.6844757318875
 30
0.0
 10
-586.2051902062457
 20
-150.6068381091281
 30
0.0
  0
SPLINE
  5
442
330
1F
100
AcDbEntity
  8
0
100
AcDbSpline
210
0.0
220
0.0
230
1.0
 70
     8
 71
     3
 72
    11
 73
     7
 74
     0
 42
0.00000001
 43
0.00000001
 40
0.0
 40
0.0
 40
0.0
 40
0.0
 40
0.2497194705774909
 40
0.4995459238714834
 40
0.7493726557941414
 40
1.0
 40
1.0
 40
1.0
 40
1.0
 10
-148.6051902062457
 20
-150.6068381091281
 30
0.0
 10
-148.4743015042218
 20
-150.6841910253372
 30
0.0
 10
-148.2124680259365
 20
-150.8389299966417
 30
0.0
 10
-147.8820832469527
 20
-151.0710574042671
 30
0.0
 10
-147.6504608101295
 20
-151.3034625709229
 30
0.0
 10
-147.620296492881
 20
-151.4584898082501
 30
0.0
 10
-147.6051902062457
 20
-151.5361274310095
 30
0.0
  0
SPLINE
  5
443
330
1F
100
AcDbEntity
  8
0
100
AcDbSpline
210
0.0
220
0.0
230
1.0
 70
     8
 71
     3
 72
    11
 73
     7
 74
     0
 42
0.00000001
 43
0.00000001
 40
0.0
 40
0.0
 40
0.0
 40
0.0
 40
0.2497194705775814
 40
0.4995459238715421
 40
0.7493726557941957
 40
0.9999999999999999
 40
0.9999999999999999
 40
0.9999999999999999
 40
0.9999999999999999
 10
-586.2051902062457
 20
-150.6068381091281
 30
0.0
 10
-586.282543122455
 20
-150.737726811152
 30
0.0
 10
-586.4372820937594
 20
-150.9995602894373
 30
0.0
 10
-586.6694095013851
 20
-151.3299450684212
 30
0.0
 10
-586.9018146680403
 20
-151.5615675052443
 30
0.0
 10
-587.0568419053677
 20
-151.5917318224929
 30
0.0
 10
-587.1344795281271
 20
-151.6068381091281
 30
0.0
  0
SPLINE
  5
444
330
1F
100
AcDbEntity
  8
0
100
AcDbSpline
210
0.0
220
0.0
230
1.0
 70
     8
 71
     3
 72
    11
 73
     7
 74
     0
 42
0.00000001
 43
0.00000001
 40
0.0
 40
0.0
 40
0.0
 40
0.0
 40
0.2497194705775477
 40
0.4995459238715203
 40
0.7493726557941792
 40
1.0
 40
1.0
 40
1.0
 40
1.0
 10
-147.6759008843644
 20
-151.6068381091281
 30
0.0
 10
-147.7532538005736
 20
-151.5918407349725
 30
0.0
 10
-147.907992771878
 20
-151.5618395616122
 30
0.0
 10
-148.1401201795035
 20
-151.3309925482893
 30
0.0
 10
-148.3725253461593
 20
-151.0005273983958
 30
0.0
 10
-148.5275525834863
 20
-150.7382077560667
 30
0.0
 10
-148.6051902062457
 20
-150.6068381091281
 30
0.0
  0
LINE
  5
445
330
1F
100
AcDbEntity
  8
0
  6
PHANTOM
 62
     8
370
    18
100
AcDbLine
 10
-184.7483935773
 20
430.1431618909
 30
0.0
 11
-171.057690204
 21
430.1431618909
 31
0.0
  0
LINE
  5
446
330
1F
100
AcDbEntity
  8
0
  6
PHANTOM
 62
     8
370
    18
100
AcDbLine
 10
-198.857690204
 20
430.1431618909
 30
0.0
 11
-184.7483935773
 21
430.1431618909
 31
0.0
  0
ARC
  5
447
330
1F
100
AcDbEntity
  8
0
  6
PHANTOM
 62
     8
370
    18
100
AcDbCircle
 10
-208.0087255478
 20
430.493082538
 30
0.0
 40
23.26296386612092
100
AcDbArc
 50
359.1381264879
 51
2.5871839043
  0
LINE
  5
448
330
1F
100
AcDbEntity
  8
0
  6
PHANTOM
 62
     8
370
    18
100
AcDbLine
 10
-184.7483935773
 20
430.1431618909
 30
0.0
 11
-184.7483935773
 21
421.9431618909
 31
0.0
  0
LINE
  5
449
330
1F
100
AcDbEntity
  8
0
  6
PHANTOM
 62
     8
370
    18
100
AcDbLine
 10
-563.4326902062
 20
430.1431618909
 30
0.0
 11
-535.6326902062
 21
430.1431618909
 31
0.0
  0
LINE
  5
44A
330
1F
100
AcDbEntity
  8
0
  6
PHANTOM
 62
     8
370
    18
100
AcDbLine
 10
-143.0051902062
 20
378.4431618909
 30
0.0
 11
-134.8051902062
 21
378.4431618909
 31
0.0
  0
LINE
  5
44B
330
1F
100
AcDbEntity
  8
0
  6
PHANTOM
 62
     8
370
    18
100
AcDbLine
 10
-600.0051902063
 20
378.4431618909
 30
0.0
 11
-591.8051902063
 21
378.4431618909
 31
0.0
  0
LINE
  5
44C
330
1F
100
AcDbEntity
  8
0
  6
PHANTOM
 62
     8
370
    18
100
AcDbLine
 10
-188.0051902062
 20
378.4431618909
 30
0.0
 11
-179.8051902062
 21
378.4431618909
 31
0.0
  0
LINE
  5
44D
330
1F
100
AcDbEntity
  8
0
  6
PHANTOM
 62
     8
370
    18
100
AcDbLine
 10
-371.5051902063
 20
378.4431618909
 30
0.0
 11
-363.3051902063
 21
378.4431618909
 31
0.0
  0
LINE
  5
44E
330
1F
100
AcDbEntity
  8
0
  6
PHANTOM
 62
     8
370
    18
100
AcDbLine
 10
-555.0051902063
 20
378.4431618909
 30
0.0
 11
-546.8051902063
 21
378.4431618909
 31
0.0
  0
LINE
  5
44F
330
1F
100
AcDbEntity
  8
0
  6
PHANTOM
 62
     8
370
    18
100
AcDbLine
 10
-172.957690204
 20
387.3931618909
 30
0.0
 11
-196.957690204
 21
387.3931618909
 31
0.0
  0
LINE
  5
450
330
1F
100
AcDbEntity
  8
0
  6
PHANTOM
 62
     8
370
    18
100
AcDbLine
 10
-537.5326902062
 20
387.3931618909
 30
0.0
 11
-561.5326902062
 21
387.3931618909
 31
0.0
  0
LINE
  5
451
330
1F
100
AcDbEntity
  8
0
  6
PHANTOM
 62
     8
370
    18
100
AcDbLine
 10
-601.728413511
 20
375.6931618909
 30
0.0
 11
-133.0819669016
 21
375.6931618909
 31
0.0
  0
LINE
  5
452
330
1F
100
AcDbEntity
  8
0
  6
PHANTOM
 62
     8
370
    18
100
AcDbLine
 10
-132.9051902062
 20
375.6931618909
 30
0.0
 11
-132.2051902062
 21
375.6931618909
 31
0.0
  0
LINE
  5
453
330
1F
100
AcDbEntity
  8
0
  6
PHANTOM
 62
     8
370
    18
100
AcDbLine
 10
-601.9051902063
 20
375.6931618909
 30
0.0
 11
-602.6051902062
 21
375.6931618909
 31
0.0
  0
LINE
  5
454
330
1F
100
AcDbEntity
  8
0
  6
PHANTOM
 62
     8
370
    18
100
AcDbLine
 10
-146.9051902062
 20
-151.3068381091
 30
0.0
 11
-146.2051902062
 21
-151.3068381091
 31
0.0
  0
LINE
  5
455
330
1F
100
AcDbEntity
  8
0
  6
PHANTOM
 62
     8
370
    18
100
AcDbLine
 10
-588.6051902062
 20
-151.3068381091
 30
0.0
 11
-587.9051902062
 21
-151.3068381091
 31
0.0
  0
LINE
  5
456
330
1F
100
AcDbEntity
  8
0
  6
PHANTOM
 62
     8
370
    18
100
AcDbLine
 10
-147.9051902062
 20
-153.0068381091
 30
0.0
 11
-147.9051902062
 21
-152.3068381091
 31
0.0
  0
LINE
  5
457
330
1F
100
AcDbEntity
  8
0
  6
PHANTOM
 62
     8
370
    18
100
AcDbLine
 10
-586.9051902062
 20
-152.3068381091
 30
0.0
 11
-586.9051902062
 21
-153.0068381091
 31
0.0
  0
CIRCLE
  5
458
330
1F
100
AcDbEntity
  8
0
  6
PHANTOM
 62
     8
370
    18
100
AcDbCircle
 10
-367.4051902062
 20
111.1931618909
 30
0.0
 40
206.9434660676938
  0
CIRCLE
  5
459
330
1F
100
AcDbEntity
  8
0
  6
PHANTOM
 62
     8
370
    18
100
AcDbCircle
 10
-367.4051902062
 20
111.1931618909
 30
0.0
 40
196.9984005204029
  0
CIRCLE
  5
45A
330
1F
100
AcDbEntity
  8
0
  6
PHANTOM
 62
     8
370
    18
100
AcDbCircle
 10
-367.4051902062
 20
111.1931618909
 30
0.0
 40
198.6979787073981
  0
LINE
  5
45B
330
1F
100
AcDbEntity
  8
0
  6
PHANTOM
 62
     8
370
    18
100
AcDbLine
 10
-586.2051902062
 20
368.3931618909
 30
0.0
 11
-586.2051902062
 21
360.1931618909
 31
0.0
  0
LINE
  5
45C
330
1F
100
AcDbEntity
  8
0
  6
PHANTOM
 62
     8
370
    18
100
AcDbLine
 10
-586.2051902062
 20
357.1931618909
 30
0.0
 11
-586.2051902062
 21
236.2681618909
 31
0.0
  0
LINE
  5
45D
330
1F
100
AcDbEntity
  8
0
  6
PHANTOM
 62
     8
370
    18
100
AcDbLine
 10
-586.2051902062
 20
233.2681618909
 30
0.0
 11
-586.2051902062
 21
112.3431618909
 31
0.0
  0
LINE
  5
45E
330
1F
100
AcDbEntity
  8
0
  6
PHANTOM
 62
     8
370
    18
100
AcDbLine
 10
-586.2051902062
 20
109.3431618909
 30
0.0
 11
-586.2051902062
 21
-11.5818381091
 31
0.0
  0
LINE
  5
45F
330
1F
100
AcDbEntity
  8
0
  6
PHANTOM
 62
     8
370
    18
100
AcDbLine
 10
-586.2051902062
 20
-14.5818381091
 30
0.0
 11
-586.2051902062
 21
-135.5068381091
 31
0.0
  0
LINE
  5
460
330
1F
100
AcDbEntity
  8
0
  6
PHANTOM
 62
     8
370
    18
100
AcDbLine
 10
-586.2051902062
 20
-138.5068381091
 30
0.0
 11
-586.2051902062
 21
-150.6068381091
 31
0.0
  0
LINE
  5
461
330
1F
100
AcDbEntity
  8
0
  6
PHANTOM
 62
     8
370
    18
100
AcDbLine
 10
-148.6051902062
 20
-150.6068381091
 30
0.0
 11
-148.6051902062
 21
-138.5068381091
 31
0.0
  0
LINE
  5
462
330
1F
100
AcDbEntity
  8
0
  6
PHANTOM
 62
     8
370
    18
100
AcDbLine
 10
-148.6051902062
 20
-135.5068381091
 30
0.0
 11
-148.6051902062
 21
-14.5818381091
 31
0.0
  0
LINE
  5
463
330
1F
100
AcDbEntity
  8
0
  6
PHANTOM
 62
     8
370
    18
100
AcDbLine
 10
-148.6051902062
 20
-11.5818381091
 30
0.0
 11
-148.6051902062
 21
109.3431618909
 31
0.0
  0
LINE
  5
464
330
1F
100
AcDbEntity
  8
0
  6
PHANTOM
 62
     8
370
    18
100
AcDbLine
 10
-148.6051902062
 20
112.3431618909
 30
0.0
 11
-148.6051902062
 21
233.2681618909
 31
0.0
  0
LINE
  5
465
330
1F
100
AcDbEntity
  8
0
  6
PHANTOM
 62
     8
370
    18
100
AcDbLine
 10
-148.6051902062
 20
236.2681618909
 30
0.0
 11
-148.6051902062
 21
357.1931618909
 31
0.0
  0
LINE
  5
466
330
1F
100
AcDbEntity
  8
0
  6
PHANTOM
 62
     8
370
    18
100
AcDbLine
 10
-148.6051902062
 20
360.1931618909
 30
0.0
 11
-148.6051902062
 21
368.3931618909
 31
0.0
  0
LINE
  5
467
330
1F
100
AcDbEntity
  8
0
  6
PHANTOM
 62
     8
370
    18
100
AcDbLine
 10
-586.2051902062
 20
-150.6068381091
 30
0.0
 11
-560.1051902062
 21
-150.6068381091
 31
0.0
  0
LINE
  5
468
330
1F
100
AcDbEntity
  8
0
  6
PHANTOM
 62
     8
370
    18
100
AcDbLine
 10
-557.1051902062
 20
-150.6068381091
 30
0.0
 11
-438.9051902062
 21
-150.6068381091
 31
0.0
  0
LINE
  5
469
330
1F
100
AcDbEntity
  8
0
  6
PHANTOM
 62
     8
370
    18
100
AcDbLine
 10
-435.9051902062
 20
-150.6068381091
 30
0.0
 11
-298.9051902062
 21
-150.6068381091
 31
0.0
  0
LINE
  5
46A
330
1F
100
AcDbEntity
  8
0
  6
PHANTOM
 62
     8
370
    18
100
AcDbLine
 10
-295.9051902062
 20
-150.6068381091
 30
0.0
 11
-177.7051902062
 21
-150.6068381091
 31
0.0
  0
LINE
  5
46B
330
1F
100
AcDbEntity
  8
0
  6
PHANTOM
 62
     8
370
    18
100
AcDbLine
 10
-174.7051902062
 20
-150.6068381091
 30
0.0
 11
-148.6051902062
 21
-150.6068381091
 31
0.0
  0
ARC
  5
46C
330
1F
100
AcDbEntity
  8
0
100
AcDbCircle
 10
-574.3051902062
 20
-373.0899824949
 30
0.0
 40
0.4999999999999655
100
AcDbArc
 50
94.9871394293
 51
270.0
  0
ARC
  5
46D
330
1F
100
AcDbEntity
  8
0
100
AcDbCircle
 10
-160.5051902062
 20
-373.0899824949
 30
0.0
 40
0.5000000000000568
100
AcDbArc
 50
270.0
 51
85.0128605707
  0
ARC
  5
46E
330
1F
100
AcDbEntity
  8
0
100
AcDbCircle
 10
-574.3051902062
 20
-377.2899824949
 30
0.0
 40
0.5000000000000221
100
AcDbArc
 50
94.9871394293
 51
270.0
  0
ARC
  5
46F
330
1F
100
AcDbEntity
  8
0
100
AcDbCircle
 10
-160.5051902062
 20
-377.2899824949
 30
0.0
 40
0.5000000000000294
100
AcDbArc
 50
270.0
 51
85.0128605707
  0
LINE
  5
470
330
1F
100
AcDbEntity
  8
0
100
AcDbLine
 10
-160.4617241386
 20
-376.7918753769
 30
0.0
 11
-168.2769232401
 21
-376.1099016389
 31
0.0
  0
LINE
  5
471
330
1F
100
AcDbEntity
  8
0
100
AcDbLine
 10
-566.5334571724
 20
-376.1099016389
 30
0.0
 11
-574.3486562739
 21
-376.7918753769
 31
0.0
  0
LINE
  5
472
330
1F
100
AcDbEntity
  8
0
100
AcDbLine
 10
-160.4617241386
 20
-372.5918753769
 30
0.0
 11
-168.2769232401
 21
-371.9099016389
 31
0.0
  0
LINE
  5
473
330
1F
100
AcDbEntity
  8
0
100
AcDbLine
 10
-566.5334571724
 20
-371.9099016389
 30
0.0
 11
-574.3486562739
 21
-372.5918753769
 31
0.0
  0
ARC
  5
474
330
1F
100
AcDbEntity
  8
0
100
AcDbCircle
 10
-566.5551902062
 20
-375.8608480799
 30
0.0
 40
0.25
100
AcDbArc
 50
274.9871394293
 51
0.0
  0
ARC
  5
475
330
1F
100
AcDbEntity
  8
0
100
AcDbCircle
 10
-168.2551902062
 20
-375.8608480799
 30
0.0
 40
0.2500000000000284
100
AcDbArc
 50
180.0
 51
265.0128605707
  0
ARC
  5
476
330
1F
100
AcDbEntity
  8
0
100
AcDbCircle
 10
-566.5551902062
 20
-371.6608480799
 30
0.0
 40
0.25
100
AcDbArc
 50
274.9871394293
 51
0.0
  0
ARC
  5
477
330
1F
100
AcDbEntity
  8
0
100
AcDbCircle
 10
-168.2551902062
 20
-371.6608480799
 30
0.0
 40
0.2500000000000284
100
AcDbArc
 50
180.0
 51
265.0128605707
  0
LINE
  5
478
330
1F
100
AcDbEntity
  8
0
100
AcDbLine
 10
-566.3051902062
 20
-373.5899824949
 30
0.0
 11
-566.3051902062
 21
-375.8608480799
 31
0.0
  0
LINE
  5
479
330
1F
100
AcDbEntity
  8
0
100
AcDbLine
 10
-168.5051902062
 20
-375.8608480799
 30
0.0
 11
-168.5051902062
 21
-373.5899824949
 31
0.0
  0
LINE
  5
47A
330
1F
100
AcDbEntity
  8
0
100
AcDbLine
 10
-566.3051902062
 20
-370.5899829179
 30
0.0
 11
-566.3051902062
 21
-371.6608480799
 31
0.0
  0
LINE
  5
47B
330
1F
100
AcDbEntity
  8
0
100
AcDbLine
 10
-168.5051902062
 20
-371.6608480799
 30
0.0
 11
-168.5051902062
 21
-370.5899829179
 31
0.0
  0
ARC
  5
47C
330
1F
100
AcDbEntity
  8
0
100
AcDbCircle
 10
-160.5051902062
 20
-709.489983341
 30
0.0
 40
0.500000000000086
100
AcDbArc
 50
274.9871394293
 51
90.0
  0
ARC
  5
47D
330
1F
100
AcDbEntity
  8
0
100
AcDbCircle
 10
-574.3051902062
 20
-709.489983341
 30
0.0
 40
0.5000000000000886
100
AcDbArc
 50
90.0
 51
265.0128605707
  0
ARC
  5
47E
330
1F
100
AcDbEntity
  8
0
100
AcDbCircle
 10
-160.5051902062
 20
-713.689983341
 30
0.0
 40
0.5
100
AcDbArc
 50
274.9871394293
 51
90.0
  0
ARC
  5
47F
330
1F
100
AcDbEntity
  8
0
100
AcDbCircle
 10
-574.3051902062
 20
-713.689983341
 30
0.0
 40
0.5000000000001137
100
AcDbArc
 50
90.0
 51
265.0128605707
  0
LINE
  5
480
330
1F
100
AcDbEntity
  8
0
100
AcDbLine
 10
-574.3486562739
 20
-709.988090459
 30
0.0
 11
-566.5334571724
 21
-710.670064197
 31
0.0
  0
LINE
  5
481
330
1F
100
AcDbEntity
  8
0
100
AcDbLine
 10
-168.2769232401
 20
-710.670064197
 30
0.0
 11
-160.4617241386
 21
-709.988090459
 31
0.0
  0
LINE
  5
482
330
1F
100
AcDbEntity
  8
0
100
AcDbLine
 10
-574.3486562739
 20
-714.188090459
 30
0.0
 11
-566.5334571724
 21
-714.870064197
 31
0.0
  0
LINE
  5
483
330
1F
100
AcDbEntity
  8
0
100
AcDbLine
 10
-168.2769232401
 20
-714.870064197
 30
0.0
 11
-160.4617241386
 21
-714.188090459
 31
0.0
  0
ARC
  5
484
330
1F
100
AcDbEntity
  8
0
100
AcDbCircle
 10
-168.2551902062
 20
-710.919117756
 30
0.0
 40
0.25
100
AcDbArc
 50
94.9871394293
 51
180.0
  0
ARC
  5
485
330
1F
100
AcDbEntity
  8
0
100
AcDbCircle
 10
-566.5551902062
 20
-710.919117756
 30
0.0
 40
0.25
100
AcDbArc
 50
0.0
 51
85.0128605707
  0
ARC
  5
486
330
1F
100
AcDbEntity
  8
0
100
AcDbCircle
 10
-168.2551902062
 20
-715.119117756
 30
0.0
 40
0.25
100
AcDbArc
 50
94.9871394293
 51
180.0
  0
ARC
  5
487
330
1F
100
AcDbEntity
  8
0
100
AcDbCircle
 10
-566.5551902062
 20
-715.119117756
 30
0.0
 40
0.2500000000001009
100
AcDbArc
 50
0.0
 51
85.0128605707
  0
LINE
  5
488
330
1F
100
AcDbEntity
  8
0
100
AcDbLine
 10
-168.5051902062
 20
-713.189983341
 30
0.0
 11
-168.5051902062
 21
-710.919117756
 31
0.0
  0
LINE
  5
489
330
1F
100
AcDbEntity
  8
0
100
AcDbLine
 10
-566.3051902062
 20
-710.919117756
 30
0.0
 11
-566.3051902062
 21
-713.189983341
 31
0.0
  0
LINE
  5
48A
330
1F
100
AcDbEntity
  8
0
100
AcDbLine
 10
-168.5051902062
 20
-716.1899829179
 30
0.0
 11
-168.5051902062
 21
-715.119117756
 31
0.0
  0
LINE
  5
48B
330
1F
100
AcDbEntity
  8
0
100
AcDbLine
 10
-566.3051902062
 20
-715.119117756
 30
0.0
 11
-566.3051902062
 21
-716.1899829179
 31
0.0
  0
LINE
  5
48C
330
1F
100
AcDbEntity
  8
0
100
AcDbLine
 10
-167.2552416067
 20
-697.9517942908
 30
0.0
 11
-167.2552416067
 21
-662.5899829179
 31
0.0
  0
LINE
  5
48D
330
1F
100
AcDbEntity
  8
0
100
AcDbLine
 10
-567.5551388058
 20
-662.5899829179
 30
0.0
 11
-567.5551388058
 21
-697.9517942908
 31
0.0
  0
LINE
  5
48E
330
1F
100
AcDbEntity
  8
0
100
AcDbLine
 10
-567.5551388058
 20
-697.9517942908
 30
0.0
 11
-565.7896334883
 21
-699.7172996083
 31
0.0
  0
LINE
  5
48F
330
1F
100
AcDbEntity
  8
0
100
AcDbLine
 10
-169.0207469242
 20
-699.7172996083
 30
0.0
 11
-167.2552416067
 21
-697.9517942908
 31
0.0
  0
ARC
  5
490
330
1F
100
AcDbEntity
  8
0
100
AcDbCircle
 10
-168.7051902062
 20
-720.8899844893
 30
0.0
 40
1.300000000004627
100
AcDbArc
 50
270.0
 51
0.0000692571
  0
ARC
  5
491
330
1F
100
AcDbEntity
  8
0
100
AcDbCircle
 10
-566.1051902062
 20
-720.8899844893
 30
0.0
 40
1.300000000004656
100
AcDbArc
 50
179.9999307429
 51
270.0
  0
LINE
  5
492
330
1F
100
AcDbEntity
  8
0
100
AcDbLine
 10
-566.1051902062
 20
-722.1899844893
 30
0.0
 11
-168.7051902062
 21
-722.1899844893
 31
0.0
  0
LINE
  5
493
330
1F
100
AcDbEntity
  8
0
100
AcDbLine
 10
-167.4051902062
 20
-720.8899829179
 30
0.0
 11
-167.4051902062
 21
-716.1899829179
 31
0.0
  0
LINE
  5
494
330
1F
100
AcDbEntity
  8
0
100
AcDbLine
 10
-567.4051902062
 20
-716.1899829179
 30
0.0
 11
-567.4051902062
 21
-720.8899829179
 31
0.0
  0
LINE
  5
495
330
1F
100
AcDbEntity
  8
0
100
AcDbLine
 10
-565.7896334883
 20
-699.7172996083
 30
0.0
 11
-563.8044353926
 21
-706.6628716369
 31
0.0
  0
LINE
  5
496
330
1F
100
AcDbEntity
  8
0
100
AcDbLine
 10
-171.0059450199
 20
-706.6628716369
 30
0.0
 11
-169.0207469242
 21
-699.7172996083
 31
0.0
  0
LINE
  5
497
330
1F
100
AcDbEntity
  8
0
100
AcDbLine
 10
-171.0059450199
 20
-708.989983341
 30
0.0
 11
-171.0059450199
 21
-706.6628716369
 31
0.0
  0
LINE
  5
498
330
1F
100
AcDbEntity
  8
0
100
AcDbLine
 10
-563.8044353926
 20
-706.6628716369
 30
0.0
 11
-563.8044353926
 21
-708.989983341
 31
0.0
  0
LINE
  5
499
330
1F
100
AcDbEntity
  8
0
100
AcDbLine
 10
-167.2552416067
 20
-388.8281715451
 30
0.0
 11
-169.0207469242
 21
-387.0626662276
 31
0.0
  0
LINE
  5
49A
330
1F
100
AcDbEntity
  8
0
100
AcDbLine
 10
-565.7896334883
 20
-387.0626662276
 30
0.0
 11
-567.5551388058
 21
-388.8281715451
 31
0.0
  0
LINE
  5
49B
330
1F
100
AcDbEntity
  8
0
100
AcDbLine
 10
-567.5551388058
 20
-388.8281715451
 30
0.0
 11
-567.5551388058
 21
-424.1899829179
 31
0.0
  0
LINE
  5
49C
330
1F
100
AcDbEntity
  8
0
100
AcDbLine
 10
-167.2552416067
 20
-424.1899829179
 30
0.0
 11
-167.2552416067
 21
-388.8281715451
 31
0.0
  0
LINE
  5
49D
330
1F
100
AcDbEntity
  8
0
100
AcDbLine
 10
-567.4051902062
 20
-365.8899829179
 30
0.0
 11
-567.4051902062
 21
-370.5899829179
 31
0.0
  0
LINE
  5
49E
330
1F
100
AcDbEntity
  8
0
100
AcDbLine
 10
-167.4051902062
 20
-370.5899829179
 30
0.0
 11
-167.4051902062
 21
-365.8899829179
 31
0.0
  0
ARC
  5
49F
330
1F
100
AcDbEntity
  8
0
100
AcDbCircle
 10
-566.1051902062
 20
-365.8899813466
 30
0.0
 40
1.300000000004656
100
AcDbArc
 50
90.0
 51
180.0000692571
  0
ARC
  5
4A0
330
1F
100
AcDbEntity
  8
0
100
AcDbCircle
 10
-168.7051902062
 20
-365.8899813466
 30
0.0
 40
1.300000000004656
100
AcDbArc
 50
359.9999307429
 51
90.0
  0
LINE
  5
4A1
330
1F
100
AcDbEntity
  8
0
100
AcDbLine
 10
-168.7051902062
 20
-364.5899813465
 30
0.0
 11
-566.1051902062
 21
-364.5899813465
 31
0.0
  0
LINE
  5
4A2
330
1F
100
AcDbEntity
  8
0
100
AcDbLine
 10
-169.0207469242
 20
-387.0626662276
 30
0.0
 11
-171.0059450199
 21
-380.117094199
 31
0.0
  0
LINE
  5
4A3
330
1F
100
AcDbEntity
  8
0
100
AcDbLine
 10
-563.8044353926
 20
-380.117094199
 30
0.0
 11
-565.7896334883
 21
-387.0626662276
 31
0.0
  0
LINE
  5
4A4
330
1F
100
AcDbEntity
  8
0
100
AcDbLine
 10
-563.8044353926
 20
-377.7899824949
 30
0.0
 11
-563.8044353926
 21
-380.117094199
 31
0.0
  0
LINE
  5
4A5
330
1F
100
AcDbEntity
  8
0
100
AcDbLine
 10
-171.0059450199
 20
-380.117094199
 30
0.0
 11
-171.0059450199
 21
-377.7899824949
 31
0.0
  0
LINE
  5
4A6
330
1F
100
AcDbEntity
  8
0
100
AcDbLine
 10
-177.1634615699
 20
-544.3249829218
 30
0.0
 11
-178.4193417887
 21
-544.3249829218
 31
0.0
  0
LINE
  5
4A7
330
1F
100
AcDbEntity
  8
0
100
AcDbLine
 10
-191.4960386193
 20
-544.3249829218
 30
0.0
 11
-192.7519188381
 21
-544.3249829218
 31
0.0
  0
LINE
  5
4A8
330
1F
100
AcDbEntity
  8
0
100
AcDbLine
 10
-169.3692329359
 20
-557.8249829218
 30
0.0
 11
-169.9971730453
 21
-556.7373587483
 31
0.0
  0
LINE
  5
4A9
330
1F
100
AcDbEntity
  8
0
100
AcDbLine
 10
-176.5355214606
 20
-545.4126070954
 30
0.0
 11
-177.1634615699
 21
-544.3249829218
 31
0.0
  0
LINE
  5
4AA
330
1F
100
AcDbEntity
  8
0
100
AcDbLine
 10
-177.1634615699
 20
-571.3249829218
 30
0.0
 11
-176.5355214606
 21
-570.2373587483
 31
0.0
  0
LINE
  5
4AB
330
1F
100
AcDbEntity
  8
0
100
AcDbLine
 10
-169.9971730453
 20
-558.9126070954
 30
0.0
 11
-169.3692329359
 21
-557.8249829218
 31
0.0
  0
LINE
  5
4AC
330
1F
100
AcDbEntity
  8
0
100
AcDbLine
 10
-192.7519188381
 20
-571.3249829218
 30
0.0
 11
-191.4960386193
 21
-571.3249829218
 31
0.0
  0
LINE
  5
4AD
330
1F
100
AcDbEntity
  8
0
100
AcDbLine
 10
-178.4193417887
 20
-571.3249829218
 30
0.0
 11
-177.1634615699
 21
-571.3249829218
 31
0.0
  0
LINE
  5
4AE
330
1F
100
AcDbEntity
  8
0
100
AcDbLine
 10
-200.5461474721
 20
-557.8249829218
 30
0.0
 11
-199.9182073628
 21
-558.9126070954
 31
0.0
  0
LINE
  5
4AF
330
1F
100
AcDbEntity
  8
0
100
AcDbLine
 10
-193.3798589474
 20
-570.2373587483
 30
0.0
 11
-192.7519188381
 21
-571.3249829218
 31
0.0
  0
LINE
  5
4B0
330
1F
100
AcDbEntity
  8
0
100
AcDbLine
 10
-192.7519188381
 20
-544.3249829218
 30
0.0
 11
-193.3798589474
 21
-545.4126070954
 31
0.0
  0
LINE
  5
4B1
330
1F
100
AcDbEntity
  8
0
100
AcDbLine
 10
-199.9182073628
 20
-556.7373587483
 30
0.0
 11
-200.5461474721
 21
-557.8249829218
 31
0.0
  0
CIRCLE
  5
4B2
330
1F
100
AcDbEntity
  8
0
100
AcDbCircle
 10
-184.957690204
 20
-557.8249829218
 30
0.0
 40
15.00000000000002
  0
CIRCLE
  5
4B3
330
1F
100
AcDbEntity
  8
0
100
AcDbCircle
 10
-184.957690204
 20
-557.8249829218
 30
0.0
 40
13.89999999999999
  0
LINE
  5
4B4
330
1F
100
AcDbEntity
  8
0
100
AcDbLine
 10
-557.3269188403
 20
-542.4549829179
 30
0.0
 11
-556.0710386216
 21
-542.4549829179
 31
0.0
  0
LINE
  5
4B5
330
1F
100
AcDbEntity
  8
0
100
AcDbLine
 10
-542.9943417909
 20
-542.4549829179
 30
0.0
 11
-541.7384615722
 21
-542.4549829179
 31
0.0
  0
LINE
  5
4B6
330
1F
100
AcDbEntity
  8
0
100
AcDbLine
 10
-565.1211474744
 20
-528.9549829179
 30
0.0
 11
-564.493207365
 21
-530.0426070915
 31
0.0
  0
LINE
  5
4B7
330
1F
100
AcDbEntity
  8
0
100
AcDbLine
 10
-557.9548589497
 20
-541.3673587444
 30
0.0
 11
-557.3269188403
 21
-542.4549829179
 31
0.0
  0
LINE
  5
4B8
330
1F
100
AcDbEntity
  8
0
100
AcDbLine
 10
-557.3269188403
 20
-515.4549829179
 30
0.0
 11
-557.9548589497
 21
-516.5426070915
 31
0.0
  0
LINE
  5
4B9
330
1F
100
AcDbEntity
  8
0
100
AcDbLine
 10
-564.493207365
 20
-527.8673587444
 30
0.0
 11
-565.1211474744
 21
-528.9549829179
 31
0.0
  0
LINE
  5
4BA
330
1F
100
AcDbEntity
  8
0
100
AcDbLine
 10
-541.7384615722
 20
-515.4549829179
 30
0.0
 11
-542.9943417909
 21
-515.4549829179
 31
0.0
  0
LINE
  5
4BB
330
1F
100
AcDbEntity
  8
0
100
AcDbLine
 10
-556.0710386216
 20
-515.4549829179
 30
0.0
 11
-557.3269188403
 21
-515.4549829179
 31
0.0
  0
LINE
  5
4BC
330
1F
100
AcDbEntity
  8
0
100
AcDbLine
 10
-541.7384615722
 20
-542.4549829179
 30
0.0
 11
-541.1105214628
 21
-541.3673587444
 31
0.0
  0
LINE
  5
4BD
330
1F
100
AcDbEntity
  8
0
100
AcDbLine
 10
-534.5721730475
 20
-530.0426070915
 30
0.0
 11
-533.9442329381
 21
-528.9549829179
 31
0.0
  0
LINE
  5
4BE
330
1F
100
AcDbEntity
  8
0
100
AcDbLine
 10
-533.9442329381
 20
-528.9549829179
 30
0.0
 11
-534.5721730475
 21
-527.8673587444
 31
0.0
  0
LINE
  5
4BF
330
1F
100
AcDbEntity
  8
0
100
AcDbLine
 10
-541.1105214628
 20
-516.5426070915
 30
0.0
 11
-541.7384615722
 21
-515.4549829179
 31
0.0
  0
CIRCLE
  5
4C0
330
1F
100
AcDbEntity
  8
0
100
AcDbCircle
 10
-549.5326902062
 20
-528.9549829179
 30
0.0
 40
15.00000000000002
  0
CIRCLE
  5
4C1
330
1F
100
AcDbEntity
  8
0
100
AcDbCircle
 10
-549.5326902062
 20
-528.9549829179
 30
0.0
 40
13.9000000000001
  0
LINE
  5
4C2
330
1F
100
AcDbEntity
  8
0
100
AcDbLine
 10
-593.8201242601
 20
-476.1399829179
 30
0.0
 11
-593.8201242601
 21
-475.6399829179
 31
0.0
  0
LINE
  5
4C3
330
1F
100
AcDbEntity
  8
0
100
AcDbLine
 10
-596.1551902063
 20
-477.1399829179
 30
0.0
 11
-596.1551902063
 21
-477.9750488641
 31
0.0
  0
LINE
  5
4C4
330
1F
100
AcDbEntity
  8
0
100
AcDbLine
 10
-597.9902561525
 20
-476.1399829179
 30
0.0
 11
-597.1551902063
 21
-476.1399829179
 31
0.0
  0
ARC
  5
4C5
330
1F
100
AcDbEntity
  8
0
100
AcDbCircle
 10
-597.1551902063
 20
-477.1399829179
 30
0.0
 40
1.0
100
AcDbArc
 50
0.0
 51
90.0
  0
LINE
  5
4C6
330
1F
100
AcDbEntity
  8
0
100
AcDbLine
 10
-593.8201242601
 20
-475.6399829179
 30
0.0
 11
-594.6551902063
 21
-475.6399829179
 31
0.0
  0
ARC
  5
4C7
330
1F
100
AcDbEntity
  8
0
100
AcDbCircle
 10
-594.6551902063
 20
-474.6399829179
 30
0.0
 40
1.0
100
AcDbArc
 50
180.0
 51
270.0
  0
LINE
  5
4C8
330
1F
100
AcDbEntity
  8
0
100
AcDbLine
 10
-595.6551902063
 20
-474.6399829179
 30
0.0
 11
-595.6551902063
 21
-473.8049169717
 31
0.0
  0
LINE
  5
4C9
330
1F
100
AcDbEntity
  8
0
100
AcDbLine
 10
-597.9902561525
 20
-475.6399829179
 30
0.0
 11
-597.9902561525
 21
-476.1399829179
 31
0.0
  0
LINE
  5
4CA
330
1F
100
AcDbEntity
  8
0
100
AcDbLine
 10
-596.1551902063
 20
-477.9750488641
 30
0.0
 11
-595.6551902063
 21
-477.9750488641
 31
0.0
  0
LINE
  5
4CB
330
1F
100
AcDbEntity
  8
0
100
AcDbLine
 10
-595.6551902063
 20
-477.9750488641
 30
0.0
 11
-595.6551902063
 21
-477.1399829179
 31
0.0
  0
LINE
  5
4CC
330
1F
100
AcDbEntity
  8
0
100
AcDbLine
 10
-594.6551902063
 20
-476.1399829179
 30
0.0
 11
-593.8201242601
 21
-476.1399829179
 31
0.0
  0
ARC
  5
4CD
330
1F
100
AcDbEntity
  8
0
100
AcDbCircle
 10
-594.6551902063
 20
-477.1399829179
 30
0.0
 40
1.0
100
AcDbArc
 50
90.0
 51
180.0
  0
LINE
  5
4CE
330
1F
100
AcDbEntity
  8
0
100
AcDbLine
 10
-595.6551902063
 20
-473.8049169717
 30
0.0
 11
-596.1551902063
 21
-473.8049169717
 31
0.0
  0
LINE
  5
4CF
330
1F
100
AcDbEntity
  8
0
100
AcDbLine
 10
-597.1551902063
 20
-475.6399829179
 30
0.0
 11
-597.9902561525
 21
-475.6399829179
 31
0.0
  0
ARC
  5
4D0
330
1F
100
AcDbEntity
  8
0
100
AcDbCircle
 10
-597.1551902063
 20
-474.6399829179
 30
0.0
 40
1.0
100
AcDbArc
 50
270.0
 51
0.0
  0
LINE
  5
4D1
330
1F
100
AcDbEntity
  8
0
100
AcDbLine
 10
-596.1551902063
 20
-473.8049169717
 30
0.0
 11
-596.1551902063
 21
-474.6399829179
 31
0.0
  0
CIRCLE
  5
4D2
330
1F
100
AcDbEntity
  8
0
100
AcDbCircle
 10
-595.9051902063
 20
-475.8899829179
 30
0.0
 40
4.100000000000023
  0
LINE
  5
4D3
330
1F
100
AcDbEntity
  8
0
100
AcDbLine
 10
-138.6551902062
 20
-612.9750488641
 30
0.0
 11
-138.6551902062
 21
-612.1399829179
 31
0.0
  0
ARC
  5
4D4
330
1F
100
AcDbEntity
  8
0
100
AcDbCircle
 10
-137.6551902062
 20
-612.1399829179
 30
0.0
 40
1.0
100
AcDbArc
 50
90.0
 51
180.0
  0
LINE
  5
4D5
330
1F
100
AcDbEntity
  8
0
100
AcDbLine
 10
-137.6551902062
 20
-611.1399829179
 30
0.0
 11
-136.82012426
 21
-611.1399829179
 31
0.0
  0
LINE
  5
4D6
330
1F
100
AcDbEntity
  8
0
100
AcDbLine
 10
-138.6551902062
 20
-608.8049169717
 30
0.0
 11
-139.1551902062
 21
-608.8049169717
 31
0.0
  0
LINE
  5
4D7
330
1F
100
AcDbEntity
  8
0
100
AcDbLine
 10
-140.9902561524
 20
-611.1399829179
 30
0.0
 11
-140.1551902062
 21
-611.1399829179
 31
0.0
  0
ARC
  5
4D8
330
1F
100
AcDbEntity
  8
0
100
AcDbCircle
 10
-140.1551902062
 20
-612.1399829179
 30
0.0
 40
1.0
100
AcDbArc
 50
360.0
 51
90.0
  0
LINE
  5
4D9
330
1F
100
AcDbEntity
  8
0
100
AcDbLine
 10
-139.1551902062
 20
-612.1399829179
 30
0.0
 11
-139.1551902062
 21
-612.9750488641
 31
0.0
  0
CIRCLE
  5
4DA
330
1F
100
AcDbEntity
  8
0
100
AcDbCircle
 10
-138.9051902062
 20
-610.8899829179
 30
0.0
 40
4.099999999999994
  0
LINE
  5
4DB
330
1F
100
AcDbEntity
  8
0
100
AcDbLine
 10
-139.1551902062
 20
-612.9750488641
 30
0.0
 11
-138.6551902062
 21
-612.9750488641
 31
0.0
  0
LINE
  5
4DC
330
1F
100
AcDbEntity
  8
0
100
AcDbLine
 10
-136.82012426
 20
-611.1399829179
 30
0.0
 11
-136.82012426
 21
-610.6399829179
 31
0.0
  0
ARC
  5
4DD
330
1F
100
AcDbEntity
  8
0
100
AcDbCircle
 10
-140.1551902062
 20
-609.6399829179
 30
0.0
 40
1.0
100
AcDbArc
 50
270.0
 51
0.0
  0
LINE
  5
4DE
330
1F
100
AcDbEntity
  8
0
100
AcDbLine
 10
-140.1551902062
 20
-610.6399829179
 30
0.0
 11
-140.9902561524
 21
-610.6399829179
 31
0.0
  0
LINE
  5
4DF
330
1F
100
AcDbEntity
  8
0
100
AcDbLine
 10
-139.1551902062
 20
-608.8049169717
 30
0.0
 11
-139.1551902062
 21
-609.6399829179
 31
0.0
  0
LINE
  5
4E0
330
1F
100
AcDbEntity
  8
0
100
AcDbLine
 10
-140.9902561524
 20
-610.6399829179
 30
0.0
 11
-140.9902561524
 21
-611.1399829179
 31
0.0
  0
ARC
  5
4E1
330
1F
100
AcDbEntity
  8
0
100
AcDbCircle
 10
-137.6551902062
 20
-609.6399829179
 30
0.0
 40
1.0
100
AcDbArc
 50
180.0
 51
270.0
  0
LINE
  5
4E2
330
1F
100
AcDbEntity
  8
0
100
AcDbLine
 10
-136.82012426
 20
-610.6399829179
 30
0.0
 11
-137.6551902062
 21
-610.6399829179
 31
0.0
  0
LINE
  5
4E3
330
1F
100
AcDbEntity
  8
0
100
AcDbLine
 10
-138.6551902062
 20
-609.6399829179
 30
0.0
 11
-138.6551902062
 21
-608.8049169717
 31
0.0
  0
LINE
  5
4E4
330
1F
100
AcDbEntity
  8
0
100
AcDbLine
 10
-136.82012426
 20
-475.6399829179
 30
0.0
 11
-137.6551902062
 21
-475.6399829179
 31
0.0
  0
ARC
  5
4E5
330
1F
100
AcDbEntity
  8
0
100
AcDbCircle
 10
-137.6551902062
 20
-474.6399829179
 30
0.0
 40
1.0
100
AcDbArc
 50
180.0
 51
270.0
  0
LINE
  5
4E6
330
1F
100
AcDbEntity
  8
0
100
AcDbLine
 10
-138.6551902062
 20
-474.6399829179
 30
0.0
 11
-138.6551902062
 21
-473.8049169717
 31
0.0
  0
LINE
  5
4E7
330
1F
100
AcDbEntity
  8
0
100
AcDbLine
 10
-139.1551902062
 20
-473.8049169717
 30
0.0
 11
-139.1551902062
 21
-474.6399829179
 31
0.0
  0
ARC
  5
4E8
330
1F
100
AcDbEntity
  8
0
100
AcDbCircle
 10
-140.1551902062
 20
-474.6399829179
 30
0.0
 40
1.0
100
AcDbArc
 50
270.0
 51
0.0
  0
LINE
  5
4E9
330
1F
100
AcDbEntity
  8
0
100
AcDbLine
 10
-140.1551902062
 20
-475.6399829179
 30
0.0
 11
-140.9902561524
 21
-475.6399829179
 31
0.0
  0
LINE
  5
4EA
330
1F
100
AcDbEntity
  8
0
100
AcDbLine
 10
-138.6551902062
 20
-477.9750488641
 30
0.0
 11
-138.6551902062
 21
-477.1399829179
 31
0.0
  0
ARC
  5
4EB
330
1F
100
AcDbEntity
  8
0
100
AcDbCircle
 10
-137.6551902062
 20
-477.1399829179
 30
0.0
 40
1.0
100
AcDbArc
 50
90.0
 51
180.0
  0
LINE
  5
4EC
330
1F
100
AcDbEntity
  8
0
100
AcDbLine
 10
-137.6551902062
 20
-476.1399829179
 30
0.0
 11
-136.82012426
 21
-476.1399829179
 31
0.0
  0
LINE
  5
4ED
330
1F
100
AcDbEntity
  8
0
100
AcDbLine
 10
-136.82012426
 20
-476.1399829179
 30
0.0
 11
-136.82012426
 21
-475.6399829179
 31
0.0
  0
LINE
  5
4EE
330
1F
100
AcDbEntity
  8
0
100
AcDbLine
 10
-139.1551902062
 20
-477.9750488641
 30
0.0
 11
-138.6551902062
 21
-477.9750488641
 31
0.0
  0
LINE
  5
4EF
330
1F
100
AcDbEntity
  8
0
100
AcDbLine
 10
-140.9902561524
 20
-475.6399829179
 30
0.0
 11
-140.9902561524
 21
-476.1399829179
 31
0.0
  0
CIRCLE
  5
4F0
330
1F
100
AcDbEntity
  8
0
100
AcDbCircle
 10
-138.9051902062
 20
-475.8899829179
 30
0.0
 40
4.099999999999994
  0
LINE
  5
4F1
330
1F
100
AcDbEntity
  8
0
100
AcDbLine
 10
-138.6551902062
 20
-473.8049169717
 30
0.0
 11
-139.1551902062
 21
-473.8049169717
 31
0.0
  0
ARC
  5
4F2
330
1F
100
AcDbEntity
  8
0
100
AcDbCircle
 10
-140.1551902062
 20
-477.1399829179
 30
0.0
 40
1.0
100
AcDbArc
 50
0.0
 51
90.0
  0
LINE
  5
4F3
330
1F
100
AcDbEntity
  8
0
100
AcDbLine
 10
-139.1551902062
 20
-477.1399829179
 30
0.0
 11
-139.1551902062
 21
-477.9750488641
 31
0.0
  0
LINE
  5
4F4
330
1F
100
AcDbEntity
  8
0
100
AcDbLine
 10
-140.9902561524
 20
-476.1399829179
 30
0.0
 11
-140.1551902062
 21
-476.1399829179
 31
0.0
  0
LINE
  5
4F5
330
1F
100
AcDbEntity
  8
0
100
AcDbLine
 10
-593.8201242601
 20
-611.1399829179
 30
0.0
 11
-593.8201242601
 21
-610.6399829179
 31
0.0
  0
LINE
  5
4F6
330
1F
100
AcDbEntity
  8
0
100
AcDbLine
 10
-596.1551902063
 20
-608.8049169717
 30
0.0
 11
-596.1551902063
 21
-609.6399829179
 31
0.0
  0
ARC
  5
4F7
330
1F
100
AcDbEntity
  8
0
100
AcDbCircle
 10
-597.1551902063
 20
-609.6399829179
 30
0.0
 40
1.0
100
AcDbArc
 50
270.0
 51
0.0
  0
LINE
  5
4F8
330
1F
100
AcDbEntity
  8
0
100
AcDbLine
 10
-597.1551902063
 20
-610.6399829179
 30
0.0
 11
-597.9902561525
 21
-610.6399829179
 31
0.0
  0
CIRCLE
  5
4F9
330
1F
100
AcDbEntity
  8
0
100
AcDbCircle
 10
-595.9051902063
 20
-610.8899829179
 30
0.0
 40
4.100000000000023
  0
LINE
  5
4FA
330
1F
100
AcDbEntity
  8
0
100
AcDbLine
 10
-595.6551902063
 20
-612.9750488641
 30
0.0
 11
-595.6551902063
 21
-612.1399829179
 31
0.0
  0
ARC
  5
4FB
330
1F
100
AcDbEntity
  8
0
100
AcDbCircle
 10
-594.6551902063
 20
-612.1399829179
 30
0.0
 40
1.0
100
AcDbArc
 50
90.0
 51
180.0
  0
LINE
  5
4FC
330
1F
100
AcDbEntity
  8
0
100
AcDbLine
 10
-594.6551902063
 20
-611.1399829179
 30
0.0
 11
-593.8201242601
 21
-611.1399829179
 31
0.0
  0
LINE
  5
4FD
330
1F
100
AcDbEntity
  8
0
100
AcDbLine
 10
-595.6551902063
 20
-608.8049169717
 30
0.0
 11
-596.1551902063
 21
-608.8049169717
 31
0.0
  0
LINE
  5
4FE
330
1F
100
AcDbEntity
  8
0
100
AcDbLine
 10
-596.1551902063
 20
-612.9750488641
 30
0.0
 11
-595.6551902063
 21
-612.9750488641
 31
0.0
  0
ARC
  5
4FF
330
1F
100
AcDbEntity
  8
0
100
AcDbCircle
 10
-594.6551902063
 20
-609.6399829179
 30
0.0
 40
1.0
100
AcDbArc
 50
180.0
 51
270.0
  0
LINE
  5
500
330
1F
100
AcDbEntity
  8
0
100
AcDbLine
 10
-595.6551902063
 20
-609.6399829179
 30
0.0
 11
-595.6551902063
 21
-608.8049169717
 31
0.0
  0
LINE
  5
501
330
1F
100
AcDbEntity
  8
0
100
AcDbLine
 10
-593.8201242601
 20
-610.6399829179
 30
0.0
 11
-594.6551902063
 21
-610.6399829179
 31
0.0
  0
LINE
  5
502
330
1F
100
AcDbEntity
  8
0
100
AcDbLine
 10
-596.1551902063
 20
-612.1399829179
 30
0.0
 11
-596.1551902063
 21
-612.9750488641
 31
0.0
  0
LINE
  5
503
330
1F
100
AcDbEntity
  8
0
100
AcDbLine
 10
-597.9902561525
 20
-611.1399829179
 30
0.0
 11
-597.1551902063
 21
-611.1399829179
 31
0.0
  0
ARC
  5
504
330
1F
100
AcDbEntity
  8
0
100
AcDbCircle
 10
-597.1551902063
 20
-612.1399829179
 30
0.0
 40
1.0
100
AcDbArc
 50
0.0
 51
90.0
  0
LINE
  5
505
330
1F
100
AcDbEntity
  8
0
100
AcDbLine
 10
-597.9902561525
 20
-610.6399829179
 30
0.0
 11
-597.9902561525
 21
-611.1399829179
 31
0.0
  0
LINE
  5
506
330
1F
100
AcDbEntity
  8
0
100
AcDbLine
 10
-183.6551902062
 20
-428.8049169717
 30
0.0
 11
-184.1551902062
 21
-428.8049169717
 31
0.0
  0
LINE
  5
507
330
1F
100
AcDbEntity
  8
0
100
AcDbLine
 10
-184.1551902062
 20
-432.9750488641
 30
0.0
 11
-183.6551902062
 21
-432.9750488641
 31
0.0
  0
LINE
  5
508
330
1F
100
AcDbEntity
  8
0
100
AcDbLine
 10
-183.6551902062
 20
-432.9750488641
 30
0.0
 11
-183.6551902062
 21
-432.1399829179
 31
0.0
  0
ARC
  5
509
330
1F
100
AcDbEntity
  8
0
100
AcDbCircle
 10
-182.6551902062
 20
-432.1399829179
 30
0.0
 40
1.0
100
AcDbArc
 50
90.0
 51
180.0
  0
LINE
  5
50A
330
1F
100
AcDbEntity
  8
0
100
AcDbLine
 10
-182.6551902062
 20
-431.1399829179
 30
0.0
 11
-181.82012426
 21
-431.1399829179
 31
0.0
  0
LINE
  5
50B
330
1F
100
AcDbEntity
  8
0
100
AcDbLine
 10
-185.9902561524
 20
-430.6399829179
 30
0.0
 11
-185.9902561524
 21
-431.1399829179
 31
0.0
  0
LINE
  5
50C
330
1F
100
AcDbEntity
  8
0
100
AcDbLine
 10
-181.82012426
 20
-431.1399829179
 30
0.0
 11
-181.82012426
 21
-430.6399829179
 31
0.0
  0
LINE
  5
50D
330
1F
100
AcDbEntity
  8
0
100
AcDbLine
 10
-185.9902561524
 20
-431.1399829179
 30
0.0
 11
-185.1551902062
 21
-431.1399829179
 31
0.0
  0
LINE
  5
50E
330
1F
100
AcDbEntity
  8
0
100
AcDbLine
 10
-184.1551902062
 20
-432.1399829179
 30
0.0
 11
-184.1551902062
 21
-432.9750488641
 31
0.0
  0
ARC
  5
50F
330
1F
100
AcDbEntity
  8
0
100
AcDbCircle
 10
-185.1551902062
 20
-432.1399829179
 30
0.0
 40
1.0
100
AcDbArc
 50
0.0
 51
90.0
  0
ARC
  5
510
330
1F
100
AcDbEntity
  8
0
100
AcDbCircle
 10
-182.6551902062
 20
-429.6399829179
 30
0.0
 40
1.0
100
AcDbArc
 50
180.0
 51
270.0
  0
LINE
  5
511
330
1F
100
AcDbEntity
  8
0
100
AcDbLine
 10
-181.82012426
 20
-430.6399829179
 30
0.0
 11
-182.6551902062
 21
-430.6399829179
 31
0.0
  0
LINE
  5
512
330
1F
100
AcDbEntity
  8
0
100
AcDbLine
 10
-183.6551902062
 20
-429.6399829179
 30
0.0
 11
-183.6551902062
 21
-428.8049169717
 31
0.0
  0
CIRCLE
  5
513
330
1F
100
AcDbEntity
  8
0
100
AcDbCircle
 10
-183.9051902062
 20
-430.8899829179
 30
0.0
 40
4.099999999999994
  0
LINE
  5
514
330
1F
100
AcDbEntity
  8
0
100
AcDbLine
 10
-185.1551902062
 20
-430.6399829179
 30
0.0
 11
-185.9902561524
 21
-430.6399829179
 31
0.0
  0
LINE
  5
515
330
1F
100
AcDbEntity
  8
0
100
AcDbLine
 10
-184.1551902062
 20
-428.8049169717
 30
0.0
 11
-184.1551902062
 21
-429.6399829179
 31
0.0
  0
ARC
  5
516
330
1F
100
AcDbEntity
  8
0
100
AcDbCircle
 10
-185.1551902062
 20
-429.6399829179
 30
0.0
 40
1.0
100
AcDbArc
 50
270.0
 51
0.0
  0
LINE
  5
517
330
1F
100
AcDbEntity
  8
0
100
AcDbLine
 10
-367.1551902063
 20
-428.8049169717
 30
0.0
 11
-367.6551902063
 21
-428.8049169717
 31
0.0
  0
CIRCLE
  5
518
330
1F
100
AcDbEntity
  8
0
100
AcDbCircle
 10
-367.4051902063
 20
-430.8899829179
 30
0.0
 40
4.099999999999966
  0
LINE
  5
519
330
1F
100
AcDbEntity
  8
0
100
AcDbLine
 10
-369.4902561525
 20
-430.6399829179
 30
0.0
 11
-369.4902561525
 21
-431.1399829179
 31
0.0
  0
ARC
  5
51A
330
1F
100
AcDbEntity
  8
0
100
AcDbCircle
 10
-368.6551902063
 20
-429.6399829179
 30
0.0
 40
1.0
100
AcDbArc
 50
270.0
 51
0.0
  0
LINE
  5
51B
330
1F
100
AcDbEntity
  8
0
100
AcDbLine
 10
-367.6551902063
 20
-428.8049169717
 30
0.0
 11
-367.6551902063
 21
-429.6399829179
 31
0.0
  0
LINE
  5
51C
330
1F
100
AcDbEntity
  8
0
100
AcDbLine
 10
-368.6551902063
 20
-430.6399829179
 30
0.0
 11
-369.4902561525
 21
-430.6399829179
 31
0.0
  0
LINE
  5
51D
330
1F
100
AcDbEntity
  8
0
100
AcDbLine
 10
-365.3201242601
 20
-431.1399829179
 30
0.0
 11
-365.3201242601
 21
-430.6399829179
 31
0.0
  0
LINE
  5
51E
330
1F
100
AcDbEntity
  8
0
100
AcDbLine
 10
-367.6551902063
 20
-432.1399829179
 30
0.0
 11
-367.6551902063
 21
-432.9750488641
 31
0.0
  0
LINE
  5
51F
330
1F
100
AcDbEntity
  8
0
100
AcDbLine
 10
-369.4902561525
 20
-431.1399829179
 30
0.0
 11
-368.6551902063
 21
-431.1399829179
 31
0.0
  0
ARC
  5
520
330
1F
100
AcDbEntity
  8
0
100
AcDbCircle
 10
-368.6551902063
 20
-432.1399829179
 30
0.0
 40
1.0
100
AcDbArc
 50
0.0
 51
90.0
  0
LINE
  5
521
330
1F
100
AcDbEntity
  8
0
100
AcDbLine
 10
-367.6551902063
 20
-432.9750488641
 30
0.0
 11
-367.1551902063
 21
-432.9750488641
 31
0.0
  0
LINE
  5
522
330
1F
100
AcDbEntity
  8
0
100
AcDbLine
 10
-367.1551902063
 20
-432.9750488641
 30
0.0
 11
-367.1551902063
 21
-432.1399829179
 31
0.0
  0
ARC
  5
523
330
1F
100
AcDbEntity
  8
0
100
AcDbCircle
 10
-366.1551902063
 20
-432.1399829179
 30
0.0
 40
1.0
100
AcDbArc
 50
90.0
 51
180.0
  0
LINE
  5
524
330
1F
100
AcDbEntity
  8
0
100
AcDbLine
 10
-366.1551902063
 20
-431.1399829179
 30
0.0
 11
-365.3201242601
 21
-431.1399829179
 31
0.0
  0
ARC
  5
525
330
1F
100
AcDbEntity
  8
0
100
AcDbCircle
 10
-366.1551902063
 20
-429.6399829179
 30
0.0
 40
1.0
100
AcDbArc
 50
180.0
 51
270.0
  0
LINE
  5
526
330
1F
100
AcDbEntity
  8
0
100
AcDbLine
 10
-365.3201242601
 20
-430.6399829179
 30
0.0
 11
-366.1551902063
 21
-430.6399829179
 31
0.0
  0
LINE
  5
527
330
1F
100
AcDbEntity
  8
0
100
AcDbLine
 10
-367.1551902063
 20
-429.6399829179
 30
0.0
 11
-367.1551902063
 21
-428.8049169717
 31
0.0
  0
LINE
  5
528
330
1F
100
AcDbEntity
  8
0
100
AcDbLine
 10
-181.82012426
 20
-656.1399829179
 30
0.0
 11
-181.82012426
 21
-655.6399829179
 31
0.0
  0
LINE
  5
529
330
1F
100
AcDbEntity
  8
0
100
AcDbLine
 10
-185.9902561524
 20
-655.6399829179
 30
0.0
 11
-185.9902561524
 21
-656.1399829179
 31
0.0
  0
ARC
  5
52A
330
1F
100
AcDbEntity
  8
0
100
AcDbCircle
 10
-182.6551902062
 20
-654.6399829179
 30
0.0
 40
1.0
100
AcDbArc
 50
180.0
 51
270.0
  0
LINE
  5
52B
330
1F
100
AcDbEntity
  8
0
100
AcDbLine
 10
-183.6551902062
 20
-654.6399829179
 30
0.0
 11
-183.6551902062
 21
-653.8049169717
 31
0.0
  0
LINE
  5
52C
330
1F
100
AcDbEntity
  8
0
100
AcDbLine
 10
-181.82012426
 20
-655.6399829179
 30
0.0
 11
-182.6551902062
 21
-655.6399829179
 31
0.0
  0
LINE
  5
52D
330
1F
100
AcDbEntity
  8
0
100
AcDbLine
 10
-183.6551902062
 20
-657.9750488641
 30
0.0
 11
-183.6551902062
 21
-657.1399829179
 31
0.0
  0
ARC
  5
52E
330
1F
100
AcDbEntity
  8
0
100
AcDbCircle
 10
-182.6551902062
 20
-657.1399829179
 30
0.0
 40
1.0
100
AcDbArc
 50
90.0
 51
180.0
  0
LINE
  5
52F
330
1F
100
AcDbEntity
  8
0
100
AcDbLine
 10
-182.6551902062
 20
-656.1399829179
 30
0.0
 11
-181.82012426
 21
-656.1399829179
 31
0.0
  0
LINE
  5
530
330
1F
100
AcDbEntity
  8
0
100
AcDbLine
 10
-184.1551902062
 20
-657.9750488641
 30
0.0
 11
-183.6551902062
 21
-657.9750488641
 31
0.0
  0
LINE
  5
531
330
1F
100
AcDbEntity
  8
0
100
AcDbLine
 10
-185.9902561524
 20
-656.1399829179
 30
0.0
 11
-185.1551902062
 21
-656.1399829179
 31
0.0
  0
LINE
  5
532
330
1F
100
AcDbEntity
  8
0
100
AcDbLine
 10
-184.1551902062
 20
-657.1399829179
 30
0.0
 11
-184.1551902062
 21
-657.9750488641
 31
0.0
  0
ARC
  5
533
330
1F
100
AcDbEntity
  8
0
100
AcDbCircle
 10
-185.1551902062
 20
-657.1399829179
 30
0.0
 40
1.0
100
AcDbArc
 50
0.0
 51
90.0
  0
LINE
  5
534
330
1F
100
AcDbEntity
  8
0
100
AcDbLine
 10
-183.6551902062
 20
-653.8049169717
 30
0.0
 11
-184.1551902062
 21
-653.8049169717
 31
0.0
  0
LINE
  5
535
330
1F
100
AcDbEntity
  8
0
100
AcDbLine
 10
-184.1551902062
 20
-653.8049169717
 30
0.0
 11
-184.1551902062
 21
-654.6399829179
 31
0.0
  0
ARC
  5
536
330
1F
100
AcDbEntity
  8
0
100
AcDbCircle
 10
-185.1551902062
 20
-654.6399829179
 30
0.0
 40
1.0
100
AcDbArc
 50
270.0
 51
0.0
  0
LINE
  5
537
330
1F
100
AcDbEntity
  8
0
100
AcDbLine
 10
-185.1551902062
 20
-655.6399829179
 30
0.0
 11
-185.9902561524
 21
-655.6399829179
 31
0.0
  0
CIRCLE
  5
538
330
1F
100
AcDbEntity
  8
0
100
AcDbCircle
 10
-183.9051902062
 20
-655.8899829179
 30
0.0
 40
4.099999999999994
  0
LINE
  5
539
330
1F
100
AcDbEntity
  8
0
100
AcDbLine
 10
-369.4902561525
 20
-655.6399829179
 30
0.0
 11
-369.4902561525
 21
-656.1399829179
 31
0.0
  0
LINE
  5
53A
330
1F
100
AcDbEntity
  8
0
100
AcDbLine
 10
-369.4902561525
 20
-656.1399829179
 30
0.0
 11
-368.6551902063
 21
-656.1399829179
 31
0.0
  0
ARC
  5
53B
330
1F
100
AcDbEntity
  8
0
100
AcDbCircle
 10
-368.6551902063
 20
-657.1399829179
 30
0.0
 40
1.0
100
AcDbArc
 50
0.0
 51
90.0
  0
LINE
  5
53C
330
1F
100
AcDbEntity
  8
0
100
AcDbLine
 10
-367.6551902063
 20
-657.1399829179
 30
0.0
 11
-367.6551902063
 21
-657.9750488641
 31
0.0
  0
LINE
  5
53D
330
1F
100
AcDbEntity
  8
0
100
AcDbLine
 10
-367.1551902063
 20
-653.8049169717
 30
0.0
 11
-367.6551902063
 21
-653.8049169717
 31
0.0
  0
LINE
  5
53E
330
1F
100
AcDbEntity
  8
0
100
AcDbLine
 10
-365.3201242601
 20
-656.1399829179
 30
0.0
 11
-365.3201242601
 21
-655.6399829179
 31
0.0
  0
LINE
  5
53F
330
1F
100
AcDbEntity
  8
0
100
AcDbLine
 10
-367.1551902063
 20
-657.9750488641
 30
0.0
 11
-367.1551902063
 21
-657.1399829179
 31
0.0
  0
ARC
  5
540
330
1F
100
AcDbEntity
  8
0
100
AcDbCircle
 10
-366.1551902063
 20
-657.1399829179
 30
0.0
 40
1.0
100
AcDbArc
 50
90.0
 51
180.0
  0
LINE
  5
541
330
1F
100
AcDbEntity
  8
0
100
AcDbLine
 10
-366.1551902063
 20
-656.1399829179
 30
0.0
 11
-365.3201242601
 21
-656.1399829179
 31
0.0
  0
LINE
  5
542
330
1F
100
AcDbEntity
  8
0
100
AcDbLine
 10
-367.6551902063
 20
-653.8049169717
 30
0.0
 11
-367.6551902063
 21
-654.6399829179
 31
0.0
  0
ARC
  5
543
330
1F
100
AcDbEntity
  8
0
100
AcDbCircle
 10
-368.6551902063
 20
-654.6399829179
 30
0.0
 40
1.0
100
AcDbArc
 50
270.0
 51
0.0
  0
LINE
  5
544
330
1F
100
AcDbEntity
  8
0
100
AcDbLine
 10
-368.6551902063
 20
-655.6399829179
 30
0.0
 11
-369.4902561525
 21
-655.6399829179
 31
0.0
  0
LINE
  5
545
330
1F
100
AcDbEntity
  8
0
100
AcDbLine
 10
-367.6551902063
 20
-657.9750488641
 30
0.0
 11
-367.1551902063
 21
-657.9750488641
 31
0.0
  0
LINE
  5
546
330
1F
100
AcDbEntity
  8
0
100
AcDbLine
 10
-367.1551902063
 20
-654.6399829179
 30
0.0
 11
-367.1551902063
 21
-653.8049169717
 31
0.0
  0
ARC
  5
547
330
1F
100
AcDbEntity
  8
0
100
AcDbCircle
 10
-366.1551902063
 20
-654.6399829179
 30
0.0
 40
1.0
100
AcDbArc
 50
180.0
 51
270.0
  0
LINE
  5
548
330
1F
100
AcDbEntity
  8
0
100
AcDbLine
 10
-365.3201242601
 20
-655.6399829179
 30
0.0
 11
-366.1551902063
 21
-655.6399829179
 31
0.0
  0
CIRCLE
  5
549
330
1F
100
AcDbEntity
  8
0
100
AcDbCircle
 10
-367.4051902063
 20
-655.8899829179
 30
0.0
 40
4.099999999999966
  0
LINE
  5
54A
330
1F
100
AcDbEntity
  8
0
100
AcDbLine
 10
-551.1551902063
 20
-653.8049169717
 30
0.0
 11
-551.1551902063
 21
-654.6399829179
 31
0.0
  0
ARC
  5
54B
330
1F
100
AcDbEntity
  8
0
100
AcDbCircle
 10
-552.1551902063
 20
-654.6399829179
 30
0.0
 40
1.000000000000114
100
AcDbArc
 50
270.0
 51
0.0
  0
LINE
  5
54C
330
1F
100
AcDbEntity
  8
0
100
AcDbLine
 10
-552.1551902063
 20
-655.6399829179
 30
0.0
 11
-552.9902561525
 21
-655.6399829179
 31
0.0
  0
LINE
  5
54D
330
1F
100
AcDbEntity
  8
0
100
AcDbLine
 10
-552.9902561525
 20
-655.6399829179
 30
0.0
 11
-552.9902561525
 21
-656.1399829179
 31
0.0
  0
LINE
  5
54E
330
1F
100
AcDbEntity
  8
0
100
AcDbLine
 10
-552.9902561525
 20
-656.1399829179
 30
0.0
 11
-552.1551902063
 21
-656.1399829179
 31
0.0
  0
ARC
  5
54F
330
1F
100
AcDbEntity
  8
0
100
AcDbCircle
 10
-552.1551902063
 20
-657.1399829179
 30
0.0
 40
1.0
100
AcDbArc
 50
0.0
 51
90.0
  0
LINE
  5
550
330
1F
100
AcDbEntity
  8
0
100
AcDbLine
 10
-551.1551902063
 20
-657.1399829179
 30
0.0
 11
-551.1551902063
 21
-657.9750488641
 31
0.0
  0
LINE
  5
551
330
1F
100
AcDbEntity
  8
0
100
AcDbLine
 10
-548.8201242601
 20
-656.1399829179
 30
0.0
 11
-548.8201242601
 21
-655.6399829179
 31
0.0
  0
CIRCLE
  5
552
330
1F
100
AcDbEntity
  8
0
100
AcDbCircle
 10
-550.9051902063
 20
-655.8899829179
 30
0.0
 40
4.100000000000023
  0
LINE
  5
553
330
1F
100
AcDbEntity
  8
0
100
AcDbLine
 10
-551.1551902063
 20
-657.9750488641
 30
0.0
 11
-550.6551902063
 21
-657.9750488641
 31
0.0
  0
LINE
  5
554
330
1F
100
AcDbEntity
  8
0
100
AcDbLine
 10
-550.6551902063
 20
-657.9750488641
 30
0.0
 11
-550.6551902063
 21
-657.1399829179
 31
0.0
  0
ARC
  5
555
330
1F
100
AcDbEntity
  8
0
100
AcDbCircle
 10
-549.6551902063
 20
-657.1399829179
 30
0.0
 40
1.0
100
AcDbArc
 50
90.0
 51
180.0
  0
LINE
  5
556
330
1F
100
AcDbEntity
  8
0
100
AcDbLine
 10
-549.6551902063
 20
-656.1399829179
 30
0.0
 11
-548.8201242601
 21
-656.1399829179
 31
0.0
  0
LINE
  5
557
330
1F
100
AcDbEntity
  8
0
100
AcDbLine
 10
-550.6551902063
 20
-653.8049169717
 30
0.0
 11
-551.1551902063
 21
-653.8049169717
 31
0.0
  0
ARC
  5
558
330
1F
100
AcDbEntity
  8
0
100
AcDbCircle
 10
-549.6551902063
 20
-654.6399829179
 30
0.0
 40
1.000000000000114
100
AcDbArc
 50
180.0
 51
270.0
  0
LINE
  5
559
330
1F
100
AcDbEntity
  8
0
100
AcDbLine
 10
-550.6551902063
 20
-654.6399829179
 30
0.0
 11
-550.6551902063
 21
-653.8049169717
 31
0.0
  0
LINE
  5
55A
330
1F
100
AcDbEntity
  8
0
100
AcDbLine
 10
-548.8201242601
 20
-655.6399829179
 30
0.0
 11
-549.6551902063
 21
-655.6399829179
 31
0.0
  0
ARC
  5
55B
330
1F
100
AcDbEntity
  8
0
100
AcDbCircle
 10
-552.1551902063
 20
-432.1399829179
 30
0.0
 40
1.0
100
AcDbArc
 50
0.0
 51
90.0
  0
LINE
  5
55C
330
1F
100
AcDbEntity
  8
0
100
AcDbLine
 10
-551.1551902063
 20
-432.1399829179
 30
0.0
 11
-551.1551902063
 21
-432.9750488641
 31
0.0
  0
LINE
  5
55D
330
1F
100
AcDbEntity
  8
0
100
AcDbLine
 10
-552.9902561525
 20
-431.1399829179
 30
0.0
 11
-552.1551902063
 21
-431.1399829179
 31
0.0
  0
LINE
  5
55E
330
1F
100
AcDbEntity
  8
0
100
AcDbLine
 10
-550.6551902063
 20
-432.9750488641
 30
0.0
 11
-550.6551902063
 21
-432.1399829179
 31
0.0
  0
ARC
  5
55F
330
1F
100
AcDbEntity
  8
0
100
AcDbCircle
 10
-549.6551902063
 20
-432.1399829179
 30
0.0
 40
1.0
100
AcDbArc
 50
90.0
 51
180.0
  0
LINE
  5
560
330
1F
100
AcDbEntity
  8
0
100
AcDbLine
 10
-549.6551902063
 20
-431.1399829179
 30
0.0
 11
-548.8201242601
 21
-431.1399829179
 31
0.0
  0
LINE
  5
561
330
1F
100
AcDbEntity
  8
0
100
AcDbLine
 10
-552.9902561525
 20
-430.6399829179
 30
0.0
 11
-552.9902561525
 21
-431.1399829179
 31
0.0
  0
CIRCLE
  5
562
330
1F
100
AcDbEntity
  8
0
100
AcDbCircle
 10
-550.9051902063
 20
-430.8899829179
 30
0.0
 40
4.100000000000023
  0
LINE
  5
563
330
1F
100
AcDbEntity
  8
0
100
AcDbLine
 10
-548.8201242601
 20
-430.6399829179
 30
0.0
 11
-549.6551902063
 21
-430.6399829179
 31
0.0
  0
ARC
  5
564
330
1F
100
AcDbEntity
  8
0
100
AcDbCircle
 10
-549.6551902063
 20
-429.6399829179
 30
0.0
 40
1.0
100
AcDbArc
 50
180.0
 51
270.0
  0
LINE
  5
565
330
1F
100
AcDbEntity
  8
0
100
AcDbLine
 10
-550.6551902063
 20
-429.6399829179
 30
0.0
 11
-550.6551902063
 21
-428.8049169717
 31
0.0
  0
LINE
  5
566
330
1F
100
AcDbEntity
  8
0
100
AcDbLine
 10
-551.1551902063
 20
-428.8049169717
 30
0.0
 11
-551.1551902063
 21
-429.6399829179
 31
0.0
  0
LINE
  5
567
330
1F
100
AcDbEntity
  8
0
100
AcDbLine
 10
-552.1551902063
 20
-430.6399829179
 30
0.0
 11
-552.9902561525
 21
-430.6399829179
 31
0.0
  0
ARC
  5
568
330
1F
100
AcDbEntity
  8
0
100
AcDbCircle
 10
-552.1551902063
 20
-429.6399829179
 30
0.0
 40
1.0
100
AcDbArc
 50
270.0
 51
0.0
  0
LINE
  5
569
330
1F
100
AcDbEntity
  8
0
100
AcDbLine
 10
-550.6551902063
 20
-428.8049169717
 30
0.0
 11
-551.1551902063
 21
-428.8049169717
 31
0.0
  0
LINE
  5
56A
330
1F
100
AcDbEntity
  8
0
100
AcDbLine
 10
-551.1551902063
 20
-432.9750488641
 30
0.0
 11
-550.6551902063
 21
-432.9750488641
 31
0.0
  0
LINE
  5
56B
330
1F
100
AcDbEntity
  8
0
100
AcDbLine
 10
-548.8201242601
 20
-431.1399829179
 30
0.0
 11
-548.8201242601
 21
-430.6399829179
 31
0.0
  0
CIRCLE
  5
56C
330
1F
100
AcDbEntity
  8
0
100
AcDbCircle
 10
-184.957690204
 20
-557.8249829218
 30
0.0
 40
33.99999999999995
  0
CIRCLE
  5
56D
330
1F
100
AcDbEntity
  8
0
100
AcDbCircle
 10
-549.5326902062
 20
-528.9549829179
 30
0.0
 40
34.0
  0
LINE
  5
56E
330
1F
100
AcDbEntity
  8
0
100
AcDbLine
 10
-132.9051902061
 20
-425.0667596131
 30
0.0
 11
-132.2051902062
 21
-425.0667596132
 31
0.0
  0
LINE
  5
56F
330
1F
100
AcDbEntity
  8
0
100
AcDbLine
 10
-133.9051902062
 20
-425.8899829179
 30
0.0
 11
-132.2051902062
 21
-425.0667596132
 31
0.0
  0
LINE
  5
570
330
1F
100
AcDbEntity
  8
0
100
AcDbLine
 10
-133.9051902062
 20
-425.8899829179
 30
0.0
 11
-132.9051902062
 21
-425.0667596132
 31
0.0
  0
LINE
  5
571
330
1F
100
AcDbEntity
  8
0
100
AcDbLine
 10
-600.9051902062
 20
-425.8899829179
 30
0.0
 11
-601.7284135109
 21
-424.1899829179
 31
0.0
  0
LINE
  5
572
330
1F
100
AcDbEntity
  8
0
100
AcDbLine
 10
-133.0819669015
 20
-424.1899829179
 30
0.0
 11
-601.7284135109
 21
-424.1899829179
 31
0.0
  0
LINE
  5
573
330
1F
100
AcDbEntity
  8
0
100
AcDbLine
 10
-133.0819669015
 20
-424.1899829179
 30
0.0
 11
-133.9051902062
 21
-425.8899829179
 31
0.0
  0
LINE
  5
574
330
1F
100
AcDbEntity
  8
0
100
AcDbLine
 10
-132.2051902062
 20
-661.7132062228
 30
0.0
 11
-132.2051902062
 21
-425.0667596132
 31
0.0
  0
LINE
  5
575
330
1F
100
AcDbEntity
  8
0
100
AcDbLine
 10
-132.2051902062
 20
-661.7132062228
 30
0.0
 11
-133.9051902063
 21
-660.889982918
 31
0.0
  0
LINE
  5
576
330
1F
100
AcDbEntity
  8
0
100
AcDbLine
 10
-133.0819669015
 20
-424.8899829179
 30
0.0
 11
-133.9051902062
 21
-425.8899829179
 31
0.0
  0
LINE
  5
577
330
1F
100
AcDbEntity
  8
0
100
AcDbLine
 10
-133.0819669015
 20
-424.8899829179
 30
0.0
 11
-133.0819669015
 21
-424.1899829179
 31
0.0
  0
LINE
  5
578
330
1F
100
AcDbEntity
  8
0
100
AcDbLine
 10
-601.728413511
 20
-424.8899829179
 30
0.0
 11
-601.7284135109
 21
-424.1899829179
 31
0.0
  0
LINE
  5
579
330
1F
100
AcDbEntity
  8
0
100
AcDbLine
 10
-600.9051902062
 20
-425.8899829179
 30
0.0
 11
-601.7284135109
 21
-424.8899829179
 31
0.0
  0
LINE
  5
57A
330
1F
100
AcDbEntity
  8
0
100
AcDbLine
 10
-601.9051902062
 20
-425.0667596133
 30
0.0
 11
-600.9051902062
 21
-425.889982918
 31
0.0
  0
LINE
  5
57B
330
1F
100
AcDbEntity
  8
0
100
AcDbLine
 10
-602.6051902062
 20
-425.0667596133
 30
0.0
 11
-600.9051902062
 21
-425.889982918
 31
0.0
  0
LINE
  5
57C
330
1F
100
AcDbEntity
  8
0
100
AcDbLine
 10
-601.9051902062
 20
-425.0667596133
 30
0.0
 11
-602.6051902062
 21
-425.0667596133
 31
0.0
  0
LINE
  5
57D
330
1F
100
AcDbEntity
  8
0
100
AcDbLine
 10
-600.9051902062
 20
-660.889982918
 30
0.0
 11
-602.6051902062
 21
-661.7132062227
 31
0.0
  0
LINE
  5
57E
330
1F
100
AcDbEntity
  8
0
100
AcDbLine
 10
-602.6051902062
 20
-425.0667596133
 30
0.0
 11
-602.6051902062
 21
-661.7132062227
 31
0.0
  0
LINE
  5
57F
330
1F
100
AcDbEntity
  8
0
100
AcDbLine
 10
-133.9051902062
 20
-660.8899829179
 30
0.0
 11
-133.0819669016
 21
-662.5899829179
 31
0.0
  0
LINE
  5
580
330
1F
100
AcDbEntity
  8
0
100
AcDbLine
 10
-601.728413511
 20
-662.5899829179
 30
0.0
 11
-133.0819669016
 21
-662.5899829179
 31
0.0
  0
LINE
  5
581
330
1F
100
AcDbEntity
  8
0
100
AcDbLine
 10
-601.728413511
 20
-662.5899829179
 30
0.0
 11
-600.9051902062
 21
-660.889982918
 31
0.0
  0
LINE
  5
582
330
1F
100
AcDbEntity
  8
0
100
AcDbLine
 10
-133.0819669015
 20
-661.889982918
 30
0.0
 11
-133.0819669016
 21
-662.5899829179
 31
0.0
  0
LINE
  5
583
330
1F
100
AcDbEntity
  8
0
100
AcDbLine
 10
-133.9051902062
 20
-660.889982918
 30
0.0
 11
-133.0819669016
 21
-661.8899829179
 31
0.0
  0
LINE
  5
584
330
1F
100
AcDbEntity
  8
0
100
AcDbLine
 10
-132.9051902062
 20
-661.7132062228
 30
0.0
 11
-133.9051902062
 21
-660.889982918
 31
0.0
  0
LINE
  5
585
330
1F
100
AcDbEntity
  8
0
100
AcDbLine
 10
-132.9051902062
 20
-661.7132062228
 30
0.0
 11
-132.2051902062
 21
-661.7132062228
 31
0.0
  0
LINE
  5
586
330
1F
100
AcDbEntity
  8
0
100
AcDbLine
 10
-601.9051902063
 20
-661.7132062227
 30
0.0
 11
-602.6051902062
 21
-661.7132062227
 31
0.0
  0
LINE
  5
587
330
1F
100
AcDbEntity
  8
0
100
AcDbLine
 10
-600.9051902062
 20
-660.889982918
 30
0.0
 11
-601.9051902062
 21
-661.7132062227
 31
0.0
  0
LINE
  5
588
330
1F
100
AcDbEntity
  8
0
100
AcDbLine
 10
-601.728413511
 20
-661.8899829179
 30
0.0
 11
-600.9051902062
 21
-660.8899829179
 31
0.0
  0
LINE
  5
589
330
1F
100
AcDbEntity
  8
0
100
AcDbLine
 10
-601.728413511
 20
-661.8899829179
 30
0.0
 11
-601.728413511
 21
-662.5899829179
 31
0.0
  0
LINE
  5
58A
330
1F
100
AcDbEntity
  8
0
100
AcDbLine
 10
-574.3051902062
 20
-373.5899824949
 30
0.0
 11
-160.5051902062
 21
-373.5899824949
 31
0.0
  0
LINE
  5
58B
330
1F
100
AcDbEntity
  8
0
100
AcDbLine
 10
-574.3051902062
 20
-377.7899824949
 30
0.0
 11
-160.5051902062
 21
-377.7899824949
 31
0.0
  0
LINE
  5
58C
330
1F
100
AcDbEntity
  8
0
100
AcDbLine
 10
-160.5051902062
 20
-708.989983341
 30
0.0
 11
-574.3051902062
 21
-708.989983341
 31
0.0
  0
LINE
  5
58D
330
1F
100
AcDbEntity
  8
0
100
AcDbLine
 10
-160.5051902062
 20
-713.189983341
 30
0.0
 11
-574.3051902062
 21
-713.189983341
 31
0.0
  0
LINE
  5
58E
330
1F
100
AcDbEntity
  8
0
100
AcDbLine
 10
-167.2552416067
 20
-697.9517942908
 30
0.0
 11
-567.5551388058
 21
-697.9517942908
 31
0.0
  0
LINE
  5
58F
330
1F
100
AcDbEntity
  8
0
100
AcDbLine
 10
-169.0207469242
 20
-699.7172996083
 30
0.0
 11
-565.7896334883
 21
-699.7172996083
 31
0.0
  0
LINE
  5
590
330
1F
100
AcDbEntity
  8
0
100
AcDbLine
 10
-167.4051902062
 20
-716.1899829179
 30
0.0
 11
-567.4051902062
 21
-716.1899829179
 31
0.0
  0
LINE
  5
591
330
1F
100
AcDbEntity
  8
0
100
AcDbLine
 10
-171.0059450199
 20
-706.6628716369
 30
0.0
 11
-563.8044353926
 21
-706.6628716369
 31
0.0
  0
LINE
  5
592
330
1F
100
AcDbEntity
  8
0
100
AcDbLine
 10
-567.5551388058
 20
-388.8281715451
 30
0.0
 11
-167.2552416067
 21
-388.8281715451
 31
0.0
  0
LINE
  5
593
330
1F
100
AcDbEntity
  8
0
100
AcDbLine
 10
-565.7896334883
 20
-387.0626662276
 30
0.0
 11
-169.0207469242
 21
-387.0626662276
 31
0.0
  0
LINE
  5
594
330
1F
100
AcDbEntity
  8
0
100
AcDbLine
 10
-567.4051902062
 20
-370.5899829179
 30
0.0
 11
-167.4051902062
 21
-370.5899829179
 31
0.0
  0
LINE
  5
595
330
1F
100
AcDbEntity
  8
0
100
AcDbLine
 10
-563.8044353926
 20
-380.117094199
 30
0.0
 11
-171.0059450199
 21
-380.117094199
 31
0.0
  0
CIRCLE
  5
596
330
1F
100
AcDbEntity
  8
0
  6
PHANTOM
 62
     8
370
    18
100
AcDbCircle
 10
-184.957690204
 20
-557.8249829218
 30
0.0
 40
12.50000000000007
  0
LINE
  5
597
330
1F
100
AcDbEntity
  8
0
  6
PHANTOM
 62
     8
370
    18
100
AcDbLine
 10
-184.7694738131
 20
-570.3235658251
 30
0.0
 11
-184.7483935773
 21
-571.7234071103
 31
0.0
  0
CIRCLE
  5
598
330
1F
100
AcDbEntity
  8
0
  6
PHANTOM
 62
     8
370
    18
100
AcDbCircle
 10
-549.5326902062
 20
-528.9549829179
 30
0.0
 40
12.49999999999996
  0
LINE
  5
599
330
1F
100
AcDbEntity
  8
0
  6
PHANTOM
 62
     8
370
    18
100
AcDbLine
 10
-549.7209065971
 20
-516.4564000147
 30
0.0
 11
-549.7419868329
 21
-515.0565587295
 31
0.0
  0
ARC
  5
59A
330
1F
100
AcDbEntity
  8
0
  6
PHANTOM
 62
     8
370
    18
100
AcDbCircle
 10
-595.9051902063
 20
-475.8899829179
 30
0.0
 40
2.099999999999975
100
AcDbArc
 50
353.1628588319
 51
6.8371411681
  0
ARC
  5
59B
330
1F
100
AcDbEntity
  8
0
  6
PHANTOM
 62
     8
370
    18
100
AcDbCircle
 10
-595.9051902063
 20
-475.8899829179
 30
0.0
 40
2.099999999999989
100
AcDbArc
 50
186.8371411681
 51
263.1628588319
  0
ARC
  5
59C
330
1F
100
AcDbEntity
  8
0
  6
PHANTOM
 62
     8
370
    18
100
AcDbCircle
 10
-595.9051902063
 20
-475.8899829179
 30
0.0
 40
2.099999999999975
100
AcDbArc
 50
6.8371411681
 51
83.1628588319
  0
ARC
  5
59D
330
1F
100
AcDbEntity
  8
0
  6
PHANTOM
 62
     8
370
    18
100
AcDbCircle
 10
-595.9051902063
 20
-475.8899829179
 30
0.0
 40
2.099999999999975
100
AcDbArc
 50
173.1628588319
 51
186.8371411681
  0
ARC
  5
59E
330
1F
100
AcDbEntity
  8
0
  6
PHANTOM
 62
     8
370
    18
100
AcDbCircle
 10
-595.9051902063
 20
-475.8899829179
 30
0.0
 40
2.099999999999989
100
AcDbArc
 50
263.1628588319
 51
276.8371411681
  0
ARC
  5
59F
330
1F
100
AcDbEntity
  8
0
  6
PHANTOM
 62
     8
370
    18
100
AcDbCircle
 10
-595.9051902063
 20
-475.8899829179
 30
0.0
 40
2.099999999999975
100
AcDbArc
 50
276.8371411681
 51
353.1628588319
  0
ARC
  5
5A0
330
1F
100
AcDbEntity
  8
0
  6
PHANTOM
 62
     8
370
    18
100
AcDbCircle
 10
-595.9051902063
 20
-475.8899829179
 30
0.0
 40
2.099999999999989
100
AcDbArc
 50
83.1628588319
 51
96.8371411681
  0
ARC
  5
5A1
330
1F
100
AcDbEntity
  8
0
  6
PHANTOM
 62
     8
370
    18
100
AcDbCircle
 10
-595.9051902063
 20
-475.8899829179
 30
0.0
 40
2.099999999999989
100
AcDbArc
 50
96.8371411681
 51
173.1628588319
  0
ARC
  5
5A2
330
1F
100
AcDbEntity
  8
0
  6
PHANTOM
 62
     8
370
    18
100
AcDbCircle
 10
-138.9051902062
 20
-610.8899829179
 30
0.0
 40
2.100000000000003
100
AcDbArc
 50
276.8371411681
 51
353.1628588319
  0
ARC
  5
5A3
330
1F
100
AcDbEntity
  8
0
  6
PHANTOM
 62
     8
370
    18
100
AcDbCircle
 10
-138.9051902062
 20
-610.8899829179
 30
0.0
 40
2.100000000000095
100
AcDbArc
 50
83.1628588319
 51
96.8371411681
  0
ARC
  5
5A4
330
1F
100
AcDbEntity
  8
0
  6
PHANTOM
 62
     8
370
    18
100
AcDbCircle
 10
-138.9051902062
 20
-610.8899829179
 30
0.0
 40
2.09999999999999
100
AcDbArc
 50
186.8371411681
 51
263.1628588319
  0
ARC
  5
5A5
330
1F
100
AcDbEntity
  8
0
  6
PHANTOM
 62
     8
370
    18
100
AcDbCircle
 10
-138.9051902062
 20
-610.8899829179
 30
0.0
 40
2.100000000000081
100
AcDbArc
 50
96.8371411681
 51
173.1628588319
  0
ARC
  5
5A6
330
1F
100
AcDbEntity
  8
0
  6
PHANTOM
 62
     8
370
    18
100
AcDbCircle
 10
-138.9051902062
 20
-610.8899829179
 30
0.0
 40
2.100000000000003
100
AcDbArc
 50
173.1628588319
 51
186.8371411681
  0
ARC
  5
5A7
330
1F
100
AcDbEntity
  8
0
  6
PHANTOM
 62
     8
370
    18
100
AcDbCircle
 10
-138.9051902062
 20
-610.8899829179
 30
0.0
 40
2.099999999999978
100
AcDbArc
 50
263.1628588319
 51
276.8371411681
  0
ARC
  5
5A8
330
1F
100
AcDbEntity
  8
0
  6
PHANTOM
 62
     8
370
    18
100
AcDbCircle
 10
-138.9051902062
 20
-610.8899829179
 30
0.0
 40
2.100000000000018
100
AcDbArc
 50
353.1628588319
 51
6.8371411681
  0
ARC
  5
5A9
330
1F
100
AcDbEntity
  8
0
  6
PHANTOM
 62
     8
370
    18
100
AcDbCircle
 10
-138.9051902062
 20
-610.8899829179
 30
0.0
 40
2.100000000000095
100
AcDbArc
 50
6.8371411681
 51
83.1628588319
  0
ARC
  5
5AA
330
1F
100
AcDbEntity
  8
0
  6
PHANTOM
 62
     8
370
    18
100
AcDbCircle
 10
-138.9051902062
 20
-475.8899829179
 30
0.0
 40
2.099999999999989
100
AcDbArc
 50
6.8371411681
 51
83.1628588319
  0
ARC
  5
5AB
330
1F
100
AcDbEntity
  8
0
  6
PHANTOM
 62
     8
370
    18
100
AcDbCircle
 10
-138.9051902062
 20
-475.8899829179
 30
0.0
 40
2.100000000000003
100
AcDbArc
 50
96.8371411681
 51
173.1628588319
  0
ARC
  5
5AC
330
1F
100
AcDbEntity
  8
0
  6
PHANTOM
 62
     8
370
    18
100
AcDbCircle
 10
-138.9051902062
 20
-475.8899829179
 30
0.0
 40
2.099999999999997
100
AcDbArc
 50
276.8371411681
 51
353.1628588319
  0
ARC
  5
5AD
330
1F
100
AcDbEntity
  8
0
  6
PHANTOM
 62
     8
370
    18
100
AcDbCircle
 10
-138.9051902062
 20
-475.8899829179
 30
0.0
 40
2.099999999999997
100
AcDbArc
 50
353.1628588319
 51
6.8371411681
  0
ARC
  5
5AE
330
1F
100
AcDbEntity
  8
0
  6
PHANTOM
 62
     8
370
    18
100
AcDbCircle
 10
-138.9051902062
 20
-475.8899829179
 30
0.0
 40
2.099999999999982
100
AcDbArc
 50
263.1628588319
 51
276.8371411681
  0
ARC
  5
5AF
330
1F
100
AcDbEntity
  8
0
  6
PHANTOM
 62
     8
370
    18
100
AcDbCircle
 10
-138.9051902062
 20
-475.8899829179
 30
0.0
 40
2.10000000000001
100
AcDbArc
 50
173.1628588319
 51
186.8371411681
  0
ARC
  5
5B0
330
1F
100
AcDbEntity
  8
0
  6
PHANTOM
 62
     8
370
    18
100
AcDbCircle
 10
-138.9051902062
 20
-475.8899829179
 30
0.0
 40
2.10000000000001
100
AcDbArc
 50
186.8371411681
 51
263.1628588319
  0
ARC
  5
5B1
330
1F
100
AcDbEntity
  8
0
  6
PHANTOM
 62
     8
370
    18
100
AcDbCircle
 10
-138.9051902062
 20
-475.8899829179
 30
0.0
 40
2.099999999999982
100
AcDbArc
 50
83.1628588319
 51
96.8371411681
  0
ARC
  5
5B2
330
1F
100
AcDbEntity
  8
0
  6
PHANTOM
 62
     8
370
    18
100
AcDbCircle
 10
-595.9051902063
 20
-610.8899829179
 30
0.0
 40
2.099999999999989
100
AcDbArc
 50
353.1628588319
 51
6.8371411681
  0
ARC
  5
5B3
330
1F
100
AcDbEntity
  8
0
  6
PHANTOM
 62
     8
370
    18
100
AcDbCircle
 10
-595.9051902063
 20
-610.8899829179
 30
0.0
 40
2.099999999999989
100
AcDbArc
 50
96.8371411681
 51
173.1628588319
  0
ARC
  5
5B4
330
1F
100
AcDbEntity
  8
0
  6
PHANTOM
 62
     8
370
    18
100
AcDbCircle
 10
-595.9051902063
 20
-610.8899829179
 30
0.0
 40
2.100000000000088
100
AcDbArc
 50
276.8371411681
 51
353.1628588319
  0
ARC
  5
5B5
330
1F
100
AcDbEntity
  8
0
  6
PHANTOM
 62
     8
370
    18
100
AcDbCircle
 10
-595.9051902063
 20
-610.8899829179
 30
0.0
 40
2.099999999999975
100
AcDbArc
 50
6.8371411681
 51
83.1628588319
  0
ARC
  5
5B6
330
1F
100
AcDbEntity
  8
0
  6
PHANTOM
 62
     8
370
    18
100
AcDbCircle
 10
-595.9051902063
 20
-610.8899829179
 30
0.0
 40
2.099999999999989
100
AcDbArc
 50
83.1628588319
 51
96.8371411681
  0
ARC
  5
5B7
330
1F
100
AcDbEntity
  8
0
  6
PHANTOM
 62
     8
370
    18
100
AcDbCircle
 10
-595.9051902063
 20
-610.8899829179
 30
0.0
 40
2.099999999999989
100
AcDbArc
 50
173.1628588319
 51
186.8371411681
  0
ARC
  5
5B8
330
1F
100
AcDbEntity
  8
0
  6
PHANTOM
 62
     8
370
    18
100
AcDbCircle
 10
-595.9051902063
 20
-610.8899829179
 30
0.0
 40
2.100000000000101
100
AcDbArc
 50
186.8371411681
 51
263.1628588319
  0
ARC
  5
5B9
330
1F
100
AcDbEntity
  8
0
  6
PHANTOM
 62
     8
370
    18
100
AcDbCircle
 10
-595.9051902063
 20
-610.8899829179
 30
0.0
 40
2.100000000000101
100
AcDbArc
 50
263.1628588319
 51
276.8371411681
  0
ARC
  5
5BA
330
1F
100
AcDbEntity
  8
0
  6
PHANTOM
 62
     8
370
    18
100
AcDbCircle
 10
-183.9051902062
 20
-430.8899829179
 30
0.0
 40
2.100000000000042
100
AcDbArc
 50
83.1628588319
 51
96.8371411681
  0
ARC
  5
5BB
330
1F
100
AcDbEntity
  8
0
  6
PHANTOM
 62
     8
370
    18
100
AcDbCircle
 10
-183.9051902062
 20
-430.8899829179
 30
0.0
 40
2.100000000000035
100
AcDbArc
 50
263.1628588319
 51
276.8371411681
  0
ARC
  5
5BC
330
1F
100
AcDbEntity
  8
0
  6
PHANTOM
 62
     8
370
    18
100
AcDbCircle
 10
-183.9051902062
 20
-430.8899829179
 30
0.0
 40
2.100000000000035
100
AcDbArc
 50
276.8371411681
 51
353.1628588319
  0
ARC
  5
5BD
330
1F
100
AcDbEntity
  8
0
  6
PHANTOM
 62
     8
370
    18
100
AcDbCircle
 10
-183.9051902062
 20
-430.8899829179
 30
0.0
 40
2.100000000000018
100
AcDbArc
 50
173.1628588319
 51
186.8371411681
  0
ARC
  5
5BE
330
1F
100
AcDbEntity
  8
0
  6
PHANTOM
 62
     8
370
    18
100
AcDbCircle
 10
-183.9051902062
 20
-430.8899829179
 30
0.0
 40
2.099999999999975
100
AcDbArc
 50
353.1628588319
 51
6.8371411681
  0
ARC
  5
5BF
330
1F
100
AcDbEntity
  8
0
  6
PHANTOM
 62
     8
370
    18
100
AcDbCircle
 10
-183.9051902062
 20
-430.8899829179
 30
0.0
 40
2.100000000000028
100
AcDbArc
 50
186.8371411681
 51
263.1628588319
  0
ARC
  5
5C0
330
1F
100
AcDbEntity
  8
0
  6
PHANTOM
 62
     8
370
    18
100
AcDbCircle
 10
-183.9051902062
 20
-430.8899829179
 30
0.0
 40
2.100000000000021
100
AcDbArc
 50
6.8371411681
 51
83.1628588319
  0
ARC
  5
5C1
330
1F
100
AcDbEntity
  8
0
  6
PHANTOM
 62
     8
370
    18
100
AcDbCircle
 10
-183.9051902062
 20
-430.8899829179
 30
0.0
 40
2.100000000000042
100
AcDbArc
 50
96.8371411681
 51
173.1628588319
  0
ARC
  5
5C2
330
1F
100
AcDbEntity
  8
0
  6
PHANTOM
 62
     8
370
    18
100
AcDbCircle
 10
-367.4051902063
 20
-430.8899829179
 30
0.0
 40
2.100000000000032
100
AcDbArc
 50
83.1628588319
 51
96.8371411681
  0
ARC
  5
5C3
330
1F
100
AcDbEntity
  8
0
  6
PHANTOM
 62
     8
370
    18
100
AcDbCircle
 10
-367.4051902063
 20
-430.8899829179
 30
0.0
 40
2.100000000000088
100
AcDbArc
 50
276.8371411681
 51
353.1628588319
  0
ARC
  5
5C4
330
1F
100
AcDbEntity
  8
0
  6
PHANTOM
 62
     8
370
    18
100
AcDbCircle
 10
-367.4051902063
 20
-430.8899829179
 30
0.0
 40
2.099999999999982
100
AcDbArc
 50
353.1628588319
 51
6.8371411681
  0
ARC
  5
5C5
330
1F
100
AcDbEntity
  8
0
  6
PHANTOM
 62
     8
370
    18
100
AcDbCircle
 10
-367.4051902063
 20
-430.8899829179
 30
0.0
 40
2.100000000000032
100
AcDbArc
 50
6.8371411681
 51
83.1628588319
  0
ARC
  5
5C6
330
1F
100
AcDbEntity
  8
0
  6
PHANTOM
 62
     8
370
    18
100
AcDbCircle
 10
-367.4051902063
 20
-430.8899829179
 30
0.0
 40
2.100000000000032
100
AcDbArc
 50
96.8371411681
 51
173.1628588319
  0
ARC
  5
5C7
330
1F
100
AcDbEntity
  8
0
  6
PHANTOM
 62
     8
370
    18
100
AcDbCircle
 10
-367.4051902063
 20
-430.8899829179
 30
0.0
 40
2.100000000000038
100
AcDbArc
 50
173.1628588319
 51
186.8371411681
  0
ARC
  5
5C8
330
1F
100
AcDbEntity
  8
0
  6
PHANTOM
 62
     8
370
    18
100
AcDbCircle
 10
-367.4051902063
 20
-430.8899829179
 30
0.0
 40
2.100000000000088
100
AcDbArc
 50
186.8371411681
 51
263.1628588319
  0
ARC
  5
5C9
330
1F
100
AcDbEntity
  8
0
  6
PHANTOM
 62
     8
370
    18
100
AcDbCircle
 10
-367.4051902063
 20
-430.8899829179
 30
0.0
 40
2.100000000000088
100
AcDbArc
 50
263.1628588319
 51
276.8371411681
  0
ARC
  5
5CA
330
1F
100
AcDbEntity
  8
0
  6
PHANTOM
 62
     8
370
    18
100
AcDbCircle
 10
-183.9051902062
 20
-655.8899829179
 30
0.0
 40
2.100000000000003
100
AcDbArc
 50
353.1628588319
 51
6.8371411681
  0
ARC
  5
5CB
330
1F
100
AcDbEntity
  8
0
  6
PHANTOM
 62
     8
370
    18
100
AcDbCircle
 10
-183.9051902062
 20
-655.8899829179
 30
0.0
 40
2.100000000000018
100
AcDbArc
 50
173.1628588319
 51
186.8371411681
  0
ARC
  5
5CC
330
1F
100
AcDbEntity
  8
0
  6
PHANTOM
 62
     8
370
    18
100
AcDbCircle
 10
-183.9051902062
 20
-655.8899829179
 30
0.0
 40
2.100000000000003
100
AcDbArc
 50
6.8371411681
 51
83.1628588319
  0
ARC
  5
5CD
330
1F
100
AcDbEntity
  8
0
  6
PHANTOM
 62
     8
370
    18
100
AcDbCircle
 10
-183.9051902062
 20
-655.8899829179
 30
0.0
 40
2.100000000000003
100
AcDbArc
 50
276.8371411681
 51
353.1628588319
  0
ARC
  5
5CE
330
1F
100
AcDbEntity
  8
0
  6
PHANTOM
 62
     8
370
    18
100
AcDbCircle
 10
-183.9051902062
 20
-655.8899829179
 30
0.0
 40
2.099999999999985
100
AcDbArc
 50
263.1628588319
 51
276.8371411681
  0
ARC
  5
5CF
330
1F
100
AcDbEntity
  8
0
  6
PHANTOM
 62
     8
370
    18
100
AcDbCircle
 10
-183.9051902062
 20
-655.8899829179
 30
0.0
 40
2.100000000000018
100
AcDbArc
 50
186.8371411681
 51
263.1628588319
  0
ARC
  5
5D0
330
1F
100
AcDbEntity
  8
0
  6
PHANTOM
 62
     8
370
    18
100
AcDbCircle
 10
-183.9051902062
 20
-655.8899829179
 30
0.0
 40
2.099999999999978
100
AcDbArc
 50
83.1628588319
 51
96.8371411681
  0
ARC
  5
5D1
330
1F
100
AcDbEntity
  8
0
  6
PHANTOM
 62
     8
370
    18
100
AcDbCircle
 10
-183.9051902062
 20
-655.8899829179
 30
0.0
 40
2.100000000000017
100
AcDbArc
 50
96.8371411681
 51
173.1628588319
  0
ARC
  5
5D2
330
1F
100
AcDbEntity
  8
0
  6
PHANTOM
 62
     8
370
    18
100
AcDbCircle
 10
-367.4051902063
 20
-655.8899829179
 30
0.0
 40
2.100000000000032
100
AcDbArc
 50
173.1628588319
 51
186.8371411681
  0
ARC
  5
5D3
330
1F
100
AcDbEntity
  8
0
  6
PHANTOM
 62
     8
370
    18
100
AcDbCircle
 10
-367.4051902063
 20
-655.8899829179
 30
0.0
 40
2.100000000000018
100
AcDbArc
 50
186.8371411681
 51
263.1628588319
  0
ARC
  5
5D4
330
1F
100
AcDbEntity
  8
0
  6
PHANTOM
 62
     8
370
    18
100
AcDbCircle
 10
-367.4051902063
 20
-655.8899829179
 30
0.0
 40
2.100000000000088
100
AcDbArc
 50
83.1628588319
 51
96.8371411681
  0
ARC
  5
5D5
330
1F
100
AcDbEntity
  8
0
  6
PHANTOM
 62
     8
370
    18
100
AcDbCircle
 10
-367.4051902063
 20
-655.8899829179
 30
0.0
 40
2.099999999999975
100
AcDbArc
 50
353.1628588319
 51
6.8371411681
  0
ARC
  5
5D6
330
1F
100
AcDbEntity
  8
0
  6
PHANTOM
 62
     8
370
    18
100
AcDbCircle
 10
-367.4051902063
 20
-655.8899829179
 30
0.0
 40
2.099999999999975
100
AcDbArc
 50
276.8371411681
 51
353.1628588319
  0
ARC
  5
5D7
330
1F
100
AcDbEntity
  8
0
  6
PHANTOM
 62
     8
370
    18
100
AcDbCircle
 10
-367.4051902063
 20
-655.8899829179
 30
0.0
 40
2.100000000000088
100
AcDbArc
 50
96.8371411681
 51
173.1628588319
  0
ARC
  5
5D8
330
1F
100
AcDbEntity
  8
0
  6
PHANTOM
 62
     8
370
    18
100
AcDbCircle
 10
-367.4051902063
 20
-655.8899829179
 30
0.0
 40
2.099999999999975
100
AcDbArc
 50
263.1628588319
 51
276.8371411681
  0
ARC
  5
5D9
330
1F
100
AcDbEntity
  8
0
  6
PHANTOM
 62
     8
370
    18
100
AcDbCircle
 10
-367.4051902063
 20
-655.8899829179
 30
0.0
 40
2.100000000000088
100
AcDbArc
 50
6.8371411681
 51
83.1628588319
  0
ARC
  5
5DA
330
1F
100
AcDbEntity
  8
0
  6
PHANTOM
 62
     8
370
    18
100
AcDbCircle
 10
-550.9051902063
 20
-655.8899829179
 30
0.0
 40
2.100000000000088
100
AcDbArc
 50
96.8371411681
 51
173.1628588319
  0
ARC
  5
5DB
330
1F
100
AcDbEntity
  8
0
  6
PHANTOM
 62
     8
370
    18
100
AcDbCircle
 10
-550.9051902063
 20
-655.8899829179
 30
0.0
 40
2.099999999999975
100
AcDbArc
 50
173.1628588319
 51
186.8371411681
  0
ARC
  5
5DC
330
1F
100
AcDbEntity
  8
0
  6
PHANTOM
 62
     8
370
    18
100
AcDbCircle
 10
-550.9051902063
 20
-655.8899829179
 30
0.0
 40
2.099999999999975
100
AcDbArc
 50
186.8371411681
 51
263.1628588319
  0
ARC
  5
5DD
330
1F
100
AcDbEntity
  8
0
  6
PHANTOM
 62
     8
370
    18
100
AcDbCircle
 10
-550.9051902063
 20
-655.8899829179
 30
0.0
 40
2.099999999999975
100
AcDbArc
 50
353.1628588319
 51
6.8371411681
  0
ARC
  5
5DE
330
1F
100
AcDbEntity
  8
0
  6
PHANTOM
 62
     8
370
    18
100
AcDbCircle
 10
-550.9051902063
 20
-655.8899829179
 30
0.0
 40
2.099999999999975
100
AcDbArc
 50
276.8371411681
 51
353.1628588319
  0
ARC
  5
5DF
330
1F
100
AcDbEntity
  8
0
  6
PHANTOM
 62
     8
370
    18
100
AcDbCircle
 10
-550.9051902063
 20
-655.8899829179
 30
0.0
 40
2.100000000000088
100
AcDbArc
 50
6.8371411681
 51
83.1628588319
  0
ARC
  5
5E0
330
1F
100
AcDbEntity
  8
0
  6
PHANTOM
 62
     8
370
    18
100
AcDbCircle
 10
-550.9051902063
 20
-655.8899829179
 30
0.0
 40
2.100000000000088
100
AcDbArc
 50
83.1628588319
 51
96.8371411681
  0
ARC
  5
5E1
330
1F
100
AcDbEntity
  8
0
  6
PHANTOM
 62
     8
370
    18
100
AcDbCircle
 10
-550.9051902063
 20
-655.8899829179
 30
0.0
 40
2.099999999999975
100
AcDbArc
 50
263.1628588319
 51
276.8371411681
  0
ARC
  5
5E2
330
1F
100
AcDbEntity
  8
0
  6
PHANTOM
 62
     8
370
    18
100
AcDbCircle
 10
-550.9051902063
 20
-430.8899829179
 30
0.0
 40
2.099999999999975
100
AcDbArc
 50
186.8371411681
 51
263.1628588319
  0
ARC
  5
5E3
330
1F
100
AcDbEntity
  8
0
  6
PHANTOM
 62
     8
370
    18
100
AcDbCircle
 10
-550.9051902063
 20
-430.8899829179
 30
0.0
 40
2.099999999999975
100
AcDbArc
 50
276.8371411681
 51
353.1628588319
  0
ARC
  5
5E4
330
1F
100
AcDbEntity
  8
0
  6
PHANTOM
 62
     8
370
    18
100
AcDbCircle
 10
-550.9051902063
 20
-430.8899829179
 30
0.0
 40
2.099999999999975
100
AcDbArc
 50
173.1628588319
 51
186.8371411681
  0
ARC
  5
5E5
330
1F
100
AcDbEntity
  8
0
  6
PHANTOM
 62
     8
370
    18
100
AcDbCircle
 10
-550.9051902063
 20
-430.8899829179
 30
0.0
 40
2.099999999999975
100
AcDbArc
 50
353.1628588319
 51
6.8371411681
  0
ARC
  5
5E6
330
1F
100
AcDbEntity
  8
0
  6
PHANTOM
 62
     8
370
    18
100
AcDbCircle
 10
-550.9051902063
 20
-430.8899829179
 30
0.0
 40
2.100000000000032
100
AcDbArc
 50
6.8371411681
 51
83.1628588319
  0
ARC
  5
5E7
330
1F
100
AcDbEntity
  8
0
  6
PHANTOM
 62
     8
370
    18
100
AcDbCircle
 10
-550.9051902063
 20
-430.8899829179
 30
0.0
 40
2.100000000000032
100
AcDbArc
 50
83.1628588319
 51
96.8371411681
  0
ARC
  5
5E8
330
1F
100
AcDbEntity
  8
0
  6
PHANTOM
 62
     8
370
    18
100
AcDbCircle
 10
-550.9051902063
 20
-430.8899829179
 30
0.0
 40
2.100000000000032
100
AcDbArc
 50
96.8371411681
 51
173.1628588319
  0
ARC
  5
5E9
330
1F
100
AcDbEntity
  8
0
  6
PHANTOM
 62
     8
370
    18
100
AcDbCircle
 10
-550.9051902063
 20
-430.8899829179
 30
0.0
 40
2.099999999999975
100
AcDbArc
 50
263.1628588319
 51
276.8371411681
  0
CIRCLE
  5
5EA
330
1F
100
AcDbEntity
  8
0
  6
PHANTOM
 62
     8
370
    18
100
AcDbCircle
 10
-184.957690204
 20
-557.8249829218
 30
0.0
 40
19.99999999999997
  0
CIRCLE
  5
5EB
330
1F
100
AcDbEntity
  8
0
  6
PHANTOM
 62
     8
370
    18
100
AcDbCircle
 10
-549.5326902062
 20
-528.9549829179
 30
0.0
 40
19.99999999999994
  0
LINE
  5
5EC
330
1F
100
AcDbEntity
  8
0
  6
PHANTOM
 62
     8
370
    18
100
AcDbLine
 10
-600.9051902062
 20
-660.889982918
 30
0.0
 11
-133.9051902062
 21
-660.8899829179
 31
0.0
  0
LINE
  5
5ED
330
1F
100
AcDbEntity
  8
0
  6
PHANTOM
 62
     8
370
    18
100
AcDbLine
 10
-600.9051902062
 20
-425.8899829179
 30
0.0
 11
-600.9051902062
 21
-660.889982918
 31
0.0
  0
LINE
  5
5EE
330
1F
100
AcDbEntity
  8
0
  6
PHANTOM
 62
     8
370
    18
100
AcDbLine
 10
-133.9051902062
 20
-425.8899829179
 30
0.0
 11
-600.9051902062
 21
-425.8899829179
 31
0.0
  0
LINE
  5
5EF
330
1F
100
AcDbEntity
  8
0
  6
PHANTOM
 62
     8
370
    18
100
AcDbLine
 10
-133.9051902062
 20
-660.8899829179
 30
0.0
 11
-133.9051902062
 21
-425.8899829179
 31
0.0
  0
LINE
  5
5F0
330
1F
100
AcDbEntity
  8
0
  6
PHANTOM
 62
     8
370
    18
100
AcDbLine
 10
-574.3486562739
 20
-372.5918753769
 30
0.0
 11
-160.4617241386
 21
-372.5918753769
 31
0.0
  0
LINE
  5
5F1
330
1F
100
AcDbEntity
  8
0
  6
PHANTOM
 62
     8
370
    18
100
AcDbLine
 10
-574.3486562739
 20
-376.7918753769
 30
0.0
 11
-160.4617241386
 21
-376.7918753769
 31
0.0
  0
LINE
  5
5F2
330
1F
100
AcDbEntity
  8
0
  6
PHANTOM
 62
     8
370
    18
100
AcDbLine
 10
-566.5334571724
 20
-376.1099016389
 30
0.0
 11
-168.2769232401
 21
-376.1099016389
 31
0.0
  0
LINE
  5
5F3
330
1F
100
AcDbEntity
  8
0
  6
PHANTOM
 62
     8
370
    18
100
AcDbLine
 10
-566.5334571724
 20
-371.9099016389
 30
0.0
 11
-168.2769232401
 21
-371.9099016389
 31
0.0
  0
LINE
  5
5F4
330
1F
100
AcDbEntity
  8
0
  6
PHANTOM
 62
     8
370
    18
100
AcDbLine
 10
-566.3051902062
 20
-375.8608480799
 30
0.0
 11
-168.5051902062
 21
-375.8608480799
 31
0.0
  0
LINE
  5
5F5
330
1F
100
AcDbEntity
  8
0
  6
PHANTOM
 62
     8
370
    18
100
AcDbLine
 10
-566.3051902062
 20
-371.6608480799
 30
0.0
 11
-168.5051902062
 21
-371.6608480799
 31
0.0
  0
LINE
  5
5F6
330
1F
100
AcDbEntity
  8
0
  6
PHANTOM
 62
     8
370
    18
100
AcDbLine
 10
-160.4617241386
 20
-709.988090459
 30
0.0
 11
-574.3486562739
 21
-709.988090459
 31
0.0
  0
LINE
  5
5F7
330
1F
100
AcDbEntity
  8
0
  6
PHANTOM
 62
     8
370
    18
100
AcDbLine
 10
-160.4617241386
 20
-714.188090459
 30
0.0
 11
-574.3486562739
 21
-714.188090459
 31
0.0
  0
LINE
  5
5F8
330
1F
100
AcDbEntity
  8
0
  6
PHANTOM
 62
     8
370
    18
100
AcDbLine
 10
-168.2769232401
 20
-710.670064197
 30
0.0
 11
-566.5334571724
 21
-710.670064197
 31
0.0
  0
LINE
  5
5F9
330
1F
100
AcDbEntity
  8
0
  6
PHANTOM
 62
     8
370
    18
100
AcDbLine
 10
-168.2769232401
 20
-714.870064197
 30
0.0
 11
-566.5334571724
 21
-714.870064197
 31
0.0
  0
LINE
  5
5FA
330
1F
100
AcDbEntity
  8
0
  6
PHANTOM
 62
     8
370
    18
100
AcDbLine
 10
-168.5051902062
 20
-710.919117756
 30
0.0
 11
-566.3051902062
 21
-710.919117756
 31
0.0
  0
LINE
  5
5FB
330
1F
100
AcDbEntity
  8
0
  6
PHANTOM
 62
     8
370
    18
100
AcDbLine
 10
-168.5051902062
 20
-715.119117756
 30
0.0
 11
-566.3051902062
 21
-715.119117756
 31
0.0
  0
LINE
  5
5FC
330
1F
100
AcDbEntity
  8
0
  6
PHANTOM
 62
     8
370
    18
100
AcDbLine
 10
-167.4051902062
 20
-720.8899829179
 30
0.0
 11
-567.4051902062
 21
-720.8899829179
 31
0.0
  0
LINE
  5
5FD
330
1F
100
AcDbEntity
  8
0
  6
PHANTOM
 62
     8
370
    18
100
AcDbLine
 10
-567.4051902062
 20
-365.8899829179
 30
0.0
 11
-167.4051902062
 21
-365.8899829179
 31
0.0
  0
ENDSEC
  0
SECTION
  2
OBJECTS
  0
DICTIONARY
  5
C
330
0
100
AcDbDictionary
281
     1
  3
ACAD_GROUP
350
D
  3
ACAD_LAYOUT
350
1A
  3
ACAD_MLINESTYLE
350
17
  3
ACAD_PLOTSETTINGS
350
19
  3
ACAD_PLOTSTYLENAME
350
E
  3
ACAD_SCALELIST
350
47
  3
DWGPROPS
350
5FE
  0
DICTIONARY
  5
D
102
{ACAD_REACTORS
330
C
102
}
330
C
100
AcDbDictionary
281
     1
  0
DICTIONARY
  5
1A
102
{ACAD_REACTORS
330
C
102
}
330
C
100
AcDbDictionary
281
     1
  3
Layout1
350
1E
  3
Layout2
350
26
  3
Model
350
22
  0
DICTIONARY
  5
17
102
{ACAD_REACTORS
330
C
102
}
330
C
100
AcDbDictionary
281
     1
  3
Standard
350
18
  0
DICTIONARY
  5
19
102
{ACAD_REACTORS
330
C
102
}
330
C
100
AcDbDictionary
281
     1
  0
ACDBDICTIONARYWDFLT
  5
E
102
{ACAD_REACTORS
330
C
102
}
330
C
100
AcDbDictionary
281
     1
  3
Normal
350
F
100
AcDbDictionaryWithDefault
340
F
  0
DICTIONARY
  5
47
102
{ACAD_REACTORS
330
C
102
}
330
C
100
AcDbDictionary
281
     1
  3
A0
350
48
  3
A1
350
49
  3
A2
350
4A
  3
A3
350
4B
  3
A4
350
4C
  3
A5
350
4D
  3
A6
350
4E
  3
A7
350
4F
  3
A8
350
50
  3
A9
350
51
  3
B0
350
52
  3
B1
350
53
  3
B2
350
54
  3
B3
350
55
  3
B4
350
56
  3
B5
350
57
  3
B6
350
58
  3
B7
350
59
  3
B8
350
5A
  3
B9
350
5B
  3
C0
350
5C
  3
C1
350
5D
  3
C2
350
5E
  3
C3
350
5F
  3
C4
350
60
  3
C5
350
61
  3
C6
350
62
  3
C7
350
63
  3
C8
350
64
  3
C9
350
65
  3
D0
350
66
  3
D1
350
67
  3
D2
350
68
  0
XRECORD
  5
5FE
102
{ACAD_REACTORS
330
C
102
}
330
C
100
AcDbXrecord
280
     1
  1
DWGPROPS COOKIE
  2

  3

  4

  6

  7

  8
Emilis.Masalas
  9

300
=
301
=
302
=
303
=
304
=
305
=
306
=
307
=
308
=
309
=
 40
0.0
 41
2459500.520113692
 42
2459500.520114178
  1

 90
        0
  0
LAYOUT
  5
1E
102
{ACAD_REACTORS
330
1A
102
}
330
1A
100
AcDbPlotSettings
  1

  2
none_device
  4

  6

 40
0.0
 41
0.0
 42
0.0
 43
0.0
 44
0.0
 45
0.0
 46
0.0
 47
0.0
 48
0.0
 49
0.0
140
0.0
141
0.0
142
1.0
143
1.0
 70
   688
 72
     1
 73
     0
 74
     5
  7

 75
    16
147
1.0
148
0.0
149
0.0
100
AcDbLayout
  1
Layout1
 70
     1
 71
     1
 10
0.0
 20
0.0
 11
420.0
 21
297.0
 12
0.0
 22
0.0
 32
0.0
 14
1.0000000000E+20
 24
1.0000000000E+20
 34
1.0000000000E+20
 15
-1.0000000000E+20
 25
-1.0000000000E+20
 35
-1.0000000000E+20
146
0.0
 13
0.0
 23
0.0
 33
0.0
 16
1.0
 26
0.0
 36
0.0
 17
0.0
 27
1.0
 37
0.0
 76
     0
330
1B
  0
LAYOUT
  5
26
102
{ACAD_REACTORS
330
1A
102
}
330
1A
100
AcDbPlotSettings
  1

  2
none_device
  4

  6

 40
0.0
 41
0.0
 42
0.0
 43
0.0
 44
0.0
 45
0.0
 46
0.0
 47
0.0
 48
0.0
 49
0.0
140
0.0
141
0.0
142
1.0
143
1.0
 70
   688
 72
     1
 73
     0
 74
     5
  7

 75
    16
147
1.0
148
0.0
149
0.0
100
AcDbLayout
  1
Layout2
 70
     1
 71
     2
 10
0.0
 20
0.0
 11
0.0
 21
0.0
 12
0.0
 22
0.0
 32
0.0
 14
0.0
 24
0.0
 34
0.0
 15
0.0
 25
0.0
 35
0.0
146
0.0
 13
0.0
 23
0.0
 33
0.0
 16
1.0
 26
0.0
 36
0.0
 17
0.0
 27
1.0
 37
0.0
 76
     0
330
23
  0
LAYOUT
  5
22
102
{ACAD_REACTORS
330
1A
102
}
330
1A
100
AcDbPlotSettings
  1

  2
none_device
  4
Letter_(8.50_x_11.00_Inches)
  6

 40
6.35
 41
6.35
 42
6.35000508
 43
6.35000508
 44
215.9
 45
279.4
 46
0.0
 47
0.0
 48
0.0
 49
0.0
140
0.0
141
0.0
142
1.0
143
1.0
 70
  1712
 72
     1
 73
     0
 74
     0
  7

 75
     0
147
1.0
148
0.0
149
0.0
100
AcDbLayout
  1
Model
 70
     1
 71
     0
 10
0.0
 20
0.0
 11
420.0
 21
297.0
 12
0.0
 22
0.0
 32
0.0
 14
0.0
 24
0.0
 34
0.0
 15
420.0
 25
297.0
 35
0.0
146
0.0
 13
0.0
 23
0.0
 33
0.0
 16
1.0
 26
0.0
 36
0.0
 17
0.0
 27
1.0
 37
0.0
 76
     0
330
1F
331
29
  0
MLINESTYLE
  5
18
102
{ACAD_REACTORS
330
17
102
}
330
17
100
AcDbMlineStyle
  2
Standard
 70
     0
  3

 62
   256
 51
90.0
 52
90.0
 71
     2
 49
0.5
 62
   256
  6
BYLAYER
 49
-0.5
 62
   256
  6
BYLAYER
  0
ACDBPLACEHOLDER
  5
F
102
{ACAD_REACTORS
330
E
102
}
330
E
  0
SCALE
  5
48
102
{ACAD_REACTORS
330
47
102
}
330
47
100
AcDbScale
 70
     0
300
1:1
140
1.0
141
1.0
290
     1
  0
SCALE
  5
49
102
{ACAD_REACTORS
330
47
102
}
330
47
100
AcDbScale
 70
     0
300
1:2
140
1.0
141
2.0
290
     0
  0
SCALE
  5
4A
102
{ACAD_REACTORS
330
47
102
}
330
47
100
AcDbScale
 70
     0
300
1:4
140
1.0
141
4.0
290
     0
  0
SCALE
  5
4B
102
{ACAD_REACTORS
330
47
102
}
330
47
100
AcDbScale
 70
     0
300
1:5
140
1.0
141
5.0
290
     0
  0
SCALE
  5
4C
102
{ACAD_REACTORS
330
47
102
}
330
47
100
AcDbScale
 70
     0
300
1:8
140
1.0
141
8.0
290
     0
  0
SCALE
  5
4D
102
{ACAD_REACTORS
330
47
102
}
330
47
100
AcDbScale
 70
     0
300
1:10
140
1.0
141
10.0
290
     0
  0
SCALE
  5
4E
102
{ACAD_REACTORS
330
47
102
}
330
47
100
AcDbScale
 70
     0
300
1:16
140
1.0
141
16.0
290
     0
  0
SCALE
  5
4F
102
{ACAD_REACTORS
330
47
102
}
330
47
100
AcDbScale
 70
     0
300
1:20
140
1.0
141
20.0
290
     0
  0
SCALE
  5
50
102
{ACAD_REACTORS
330
47
102
}
330
47
100
AcDbScale
 70
     0
300
1:30
140
1.0
141
30.0
290
     0
  0
SCALE
  5
51
102
{ACAD_REACTORS
330
47
102
}
330
47
100
AcDbScale
 70
     0
300
1:40
140
1.0
141
40.0
290
     0
  0
SCALE
  5
52
102
{ACAD_REACTORS
330
47
102
}
330
47
100
AcDbScale
 70
     0
300
1:50
140
1.0
141
50.0
290
     0
  0
SCALE
  5
53
102
{ACAD_REACTORS
330
47
102
}
330
47
100
AcDbScale
 70
     0
300
1:100
140
1.0
141
100.0
290
     0
  0
SCALE
  5
54
102
{ACAD_REACTORS
330
47
102
}
330
47
100
AcDbScale
 70
     0
300
2:1
140
2.0
141
1.0
290
     0
  0
SCALE
  5
55
102
{ACAD_REACTORS
330
47
102
}
330
47
100
AcDbScale
 70
     0
300
4:1
140
4.0
141
1.0
290
     0
  0
SCALE
  5
56
102
{ACAD_REACTORS
330
47
102
}
330
47
100
AcDbScale
 70
     0
300
8:1
140
8.0
141
1.0
290
     0
  0
SCALE
  5
57
102
{ACAD_REACTORS
330
47
102
}
330
47
100
AcDbScale
 70
     0
300
10:1
140
10.0
141
1.0
290
     0
  0
SCALE
  5
58
102
{ACAD_REACTORS
330
47
102
}
330
47
100
AcDbScale
 70
     0
300
100:1
140
100.0
141
1.0
290
     0
  0
SCALE
  5
59
102
{ACAD_REACTORS
330
47
102
}
330
47
100
AcDbScale
 70
     0
300
1/128" = 1'-0"
140
0.0078125
141
12.0
290
     0
  0
SCALE
  5
5A
102
{ACAD_REACTORS
330
47
102
}
330
47
100
AcDbScale
 70
     0
300
1/64" = 1'-0"
140
0.015625
141
12.0
290
     0
  0
SCALE
  5
5B
102
{ACAD_REACTORS
330
47
102
}
330
47
100
AcDbScale
 70
     0
300
1/32" = 1'-0"
140
0.03125
141
12.0
290
     0
  0
SCALE
  5
5C
102
{ACAD_REACTORS
330
47
102
}
330
47
100
AcDbScale
 70
     0
300
1/16" = 1'-0"
140
0.0625
141
12.0
290
     0
  0
SCALE
  5
5D
102
{ACAD_REACTORS
330
47
102
}
330
47
100
AcDbScale
 70
     0
300
3/32" = 1'-0"
140
0.09375
141
12.0
290
     0
  0
SCALE
  5
5E
102
{ACAD_REACTORS
330
47
102
}
330
47
100
AcDbScale
 70
     0
300
1/8" = 1'-0"
140
0.125
141
12.0
290
     0
  0
SCALE
  5
5F
102
{ACAD_REACTORS
330
47
102
}
330
47
100
AcDbScale
 70
     0
300
3/16" = 1'-0"
140
0.1875
141
12.0
290
     0
  0
SCALE
  5
60
102
{ACAD_REACTORS
330
47
102
}
330
47
100
AcDbScale
 70
     0
300
1/4" = 1'-0"
140
0.25
141
12.0
290
     0
  0
SCALE
  5
61
102
{ACAD_REACTORS
330
47
102
}
330
47
100
AcDbScale
 70
     0
300
3/8" = 1'-0"
140
0.375
141
12.0
290
     0
  0
SCALE
  5
62
102
{ACAD_REACTORS
330
47
102
}
330
47
100
AcDbScale
 70
     0
300
1/2" = 1'-0"
140
0.5
141
12.0
290
     0
  0
SCALE
  5
63
102
{ACAD_REACTORS
330
47
102
}
330
47
100
AcDbScale
 70
     0
300
3/4" = 1'-0"
140
0.75
141
12.0
290
     0
  0
SCALE
  5
64
102
{ACAD_REACTORS
330
47
102
}
330
47
100
AcDbScale
 70
     0
300
1" = 1'-0"
140
1.0
141
12.0
290
     0
  0
SCALE
  5
65
102
{ACAD_REACTORS
330
47
102
}
330
47
100
AcDbScale
 70
     0
300
1-1/2" = 1'-0"
140
1.5
141
12.0
290
     0
  0
SCALE
  5
66
102
{ACAD_REACTORS
330
47
102
}
330
47
100
AcDbScale
 70
     0
300
3" = 1'-0"
140
3.0
141
12.0
290
     0
  0
SCALE
  5
67
102
{ACAD_REACTORS
330
47
102
}
330
47
100
AcDbScale
 70
     0
300
6" = 1'-0"
140
6.0
141
12.0
290
     0
  0
SCALE
  5
68
102
{ACAD_REACTORS
330
47
102
}
330
47
100
AcDbScale
 70
     0
300
1'-0" = 1'-0"
140
12.0
141
12.0
290
     0
  0
ENDSEC
  0
EOF
