  0
SECTION
  2
HEADER
  9
$ACADVER
  1
AC1015
  9
$ACADMAINTVER
 70
     6
  9
$DWGCODEPAGE
  3
ANSI_1257
  9
$INSBASE
 10
0.0
 20
0.0
 30
0.0
  9
$EXTMIN
 10
0.0
 20
0.0
 30
0.0
  9
$EXTMAX
 10
420.0
 20
297.0
 30
0.0
  9
$LIMMIN
 10
0.0
 20
0.0
  9
$LIMMAX
 10
420.0
 20
297.0
  9
$ORTHOMODE
 70
     0
  9
$REGENMODE
 70
     1
  9
$FILLMODE
 70
     1
  9
$QTEXTMODE
 70
     0
  9
$MIRRTEXT
 70
     1
  9
$LTSCALE
 40
1.0
  9
$ATTMODE
 70
     1
  9
$TEXTSIZE
 40
5.6444444444
  9
$TRACEWID
 40
1.0
  9
$TEXTSTYLE
  7
Standard
  9
$CLAYER
  8
0
  9
$CELTYPE
  6
ByLayer
  9
$CECOLOR
 62
   256
  9
$CELTSCALE
 40
1.0
  9
$DISPSILH
 70
     0
  9
$DIMSCALE
 40
1.0
  9
$DIMASZ
 40
3.175
  9
$DIMEXO
 40
1.0
  9
$DIMDLI
 40
3.75
  9
$DIMRND
 40
0.0
  9
$DIMDLE
 40
0.0
  9
$DIMEXE
 40
1.0
  9
$DIMTP
 40
0.0
  9
$DIMTM
 40
0.0
  9
$DIMTXT
 40
5.6444444444
  9
$DIMCEN
 40
2.5
  9
$DIMTSZ
 40
0.0
  9
$DIMTOL
 70
     0
  9
$DIMLIM
 70
     0
  9
$DIMTIH
 70
     1
  9
$DIMTOH
 70
     1
  9
$DIMSE1
 70
     0
  9
$DIMSE2
 70
     0
  9
$DIMTAD
 70
     1
  9
$DIMZIN
 70
     0
  9
$DIMBLK
  1

  9
$DIMASO
 70
     1
  9
$DIMSHO
 70
     1
  9
$DIMPOST
  1

  9
$DIMAPOST
  1

  9
$DIMALT
 70
     0
  9
$DIMALTD
 70
     3
  9
$DIMALTF
 40
0.0393700787
  9
$DIMLFAC
 40
1.0
  9
$DIMTOFL
 70
     1
  9
$DIMTVP
 40
0.0
  9
$DIMTIX
 70
     0
  9
$DIMSOXD
 70
     0
  9
$DIMSAH
 70
     0
  9
$DIMBLK1
  1

  9
$DIMBLK2
  1

  9
$DIMSTYLE
  2
ISO-25
  9
$DIMCLRD
 70
     0
  9
$DIMCLRE
 70
     0
  9
$DIMCLRT
 70
     0
  9
$DIMTFAC
 40
1.0
  9
$DIMGAP
 40
1.524
  9
$DIMJUST
 70
     0
  9
$DIMSD1
 70
     0
  9
$DIMSD2
 70
     0
  9
$DIMTOLJ
 70
     0
  9
$DIMTZIN
 70
     0
  9
$DIMALTZ
 70
     0
  9
$DIMALTTZ
 70
     0
  9
$DIMUPT
 70
     0
  9
$DIMDEC
 70
     1
  9
$DIMTDEC
 70
     1
  9
$DIMALTU
 70
     2
  9
$DIMALTTD
 70
     3
  9
$DIMTXSTY
  7
Standard
  9
$DIMAUNIT
 70
     0
  9
$DIMADEC
 70
     1
  9
$DIMALTRND
 40
0.0
  9
$DIMAZIN
 70
     0
  9
$DIMDSEP
 70
    44
  9
$DIMATFIT
 70
     3
  9
$DIMFRAC
 70
     0
  9
$DIMLDRBLK
  1

  9
$DIMLUNIT
 70
     2
  9
$DIMLWD
 70
    -2
  9
$DIMLWE
 70
    -2
  9
$DIMTMOVE
 70
     0
  9
$LUNITS
 70
     2
  9
$LUPREC
 70
     1
  9
$SKETCHINC
 40
1.0
  9
$FILLETRAD
 40
10.0
  9
$AUNITS
 70
     0
  9
$AUPREC
 70
     1
  9
$MENU
  1
.
  9
$ELEVATION
 40
0.0
  9
$PELEVATION
 40
0.0
  9
$THICKNESS
 40
0.0
  9
$LIMCHECK
 70
     0
  9
$CHAMFERA
 40
0.0
  9
$CHAMFERB
 40
0.0
  9
$CHAMFERC
 40
0.0
  9
$CHAMFERD
 40
0.0
  9
$SKPOLY
 70
     0
  9
$TDCREATE
 40
2459605.422604745
  9
$TDUCREATE
 40
2459605.339271412
  9
$TDUPDATE
 40
2459605.422605116
  9
$TDUUPDATE
 40
2459605.339271782
  9
$TDINDWG
 40
0.0000000116
  9
$TDUSRTIMER
 40
0.0000000116
  9
$USRTIMER
 70
     1
  9
$ANGBASE
 50
0.0
  9
$ANGDIR
 70
     0
  9
$PDMODE
 70
     0
  9
$PDSIZE
 40
-1.0
  9
$PLINEWID
 40
0.0
  9
$SPLFRAME
 70
     0
  9
$SPLINETYPE
 70
     6
  9
$SPLINESEGS
 70
     8
  9
$HANDSEED
  5
391
  9
$SURFTAB1
 70
     6
  9
$SURFTAB2
 70
     6
  9
$SURFTYPE
 70
     6
  9
$SURFU
 70
     6
  9
$SURFV
 70
     6
  9
$UCSBASE
  2

  9
$UCSNAME
  2

  9
$UCSORG
 10
0.0
 20
0.0
 30
0.0
  9
$UCSXDIR
 10
1.0
 20
0.0
 30
0.0
  9
$UCSYDIR
 10
0.0
 20
1.0
 30
0.0
  9
$UCSORTHOREF
  2

  9
$UCSORTHOVIEW
 70
     0
  9
$UCSORGTOP
 10
0.0
 20
0.0
 30
0.0
  9
$UCSORGBOTTOM
 10
0.0
 20
0.0
 30
0.0
  9
$UCSORGLEFT
 10
0.0
 20
0.0
 30
0.0
  9
$UCSORGRIGHT
 10
0.0
 20
0.0
 30
0.0
  9
$UCSORGFRONT
 10
0.0
 20
0.0
 30
0.0
  9
$UCSORGBACK
 10
0.0
 20
0.0
 30
0.0
  9
$PUCSBASE
  2

  9
$PUCSNAME
  2

  9
$PUCSORG
 10
0.0
 20
0.0
 30
0.0
  9
$PUCSXDIR
 10
1.0
 20
0.0
 30
0.0
  9
$PUCSYDIR
 10
0.0
 20
1.0
 30
0.0
  9
$PUCSORTHOREF
  2

  9
$PUCSORTHOVIEW
 70
     0
  9
$PUCSORGTOP
 10
0.0
 20
0.0
 30
0.0
  9
$PUCSORGBOTTOM
 10
0.0
 20
0.0
 30
0.0
  9
$PUCSORGLEFT
 10
0.0
 20
0.0
 30
0.0
  9
$PUCSORGRIGHT
 10
0.0
 20
0.0
 30
0.0
  9
$PUCSORGFRONT
 10
0.0
 20
0.0
 30
0.0
  9
$PUCSORGBACK
 10
0.0
 20
0.0
 30
0.0
  9
$USERI1
 70
     0
  9
$USERI2
 70
     0
  9
$USERI3
 70
     0
  9
$USERI4
 70
     0
  9
$USERI5
 70
     0
  9
$USERR1
 40
0.0
  9
$USERR2
 40
0.0
  9
$USERR3
 40
0.0
  9
$USERR4
 40
0.0
  9
$USERR5
 40
0.0
  9
$WORLDVIEW
 70
     1
  9
$SHADEDGE
 70
     3
  9
$SHADEDIF
 70
    70
  9
$TILEMODE
 70
     1
  9
$MAXACTVP
 70
    64
  9
$PINSBASE
 10
0.0
 20
0.0
 30
0.0
  9
$PLIMCHECK
 70
     0
  9
$PEXTMIN
 10
1.0000000000E+20
 20
1.0000000000E+20
 30
1.0000000000E+20
  9
$PEXTMAX
 10
-1.0000000000E+20
 20
-1.0000000000E+20
 30
-1.0000000000E+20
  9
$PLIMMIN
 10
0.0
 20
0.0
  9
$PLIMMAX
 10
420.0
 20
297.0
  9
$UNITMODE
 70
     0
  9
$VISRETAIN
 70
     1
  9
$PLINEGEN
 70
     0
  9
$PSLTSCALE
 70
     1
  9
$TREEDEPTH
 70
  3020
  9
$CMLSTYLE
  2
Standard
  9
$CMLJUST
 70
     0
  9
$CMLSCALE
 40
20.0
  9
$PROXYGRAPHICS
 70
     1
  9
$MEASUREMENT
 70
     1
  9
$CELWEIGHT
370
    -1
  9
$ENDCAPS
280
     0
  9
$JOINSTYLE
280
     0
  9
$LWDISPLAY
290
     1
  9
$INSUNITS
 70
     4
  9
$HYPERLINKBASE
  1

  9
$STYLESHEET
  1

  9
$XEDIT
290
     1
  9
$CEPSNTYPE
380
     0
  9
$PSTYLEMODE
290
     1
  9
$FINGERPRINTGUID
  2
{531387a2-004f-44cb-b1c6-91c09c580f53}
  9
$VERSIONGUID
  2
{FAEB1C32-E019-11D5-929B-00C0DF256EC4}
  9
$EXTNAMES
290
     1
  9
$PSVPSCALE
 40
0.0
  9
$OLESTARTUP
290
     0
  0
ENDSEC
  0
SECTION
  2
CLASSES
  0
CLASS
  1
ACDBDICTIONARYWDFLT
  2
AcDbDictionaryWithDefault
  3
ObjectDBX Classes
 90
        0
280
     0
281
     0
  0
CLASS
  1
VISUALSTYLE
  2
AcDbVisualStyle
  3
ObjectDBX Classes
 90
     4095
280
     0
281
     0
  0
CLASS
  1
MATERIAL
  2
AcDbMaterial
  3
ObjectDBX Classes
 90
     1153
280
     0
281
     0
  0
CLASS
  1
SCALE
  2
AcDbScale
  3
ObjectDBX Classes
 90
     1153
280
     0
281
     0
  0
CLASS
  1
TABLESTYLE
  2
AcDbTableStyle
  3
ObjectDBX Classes
 90
     4095
280
     0
281
     0
  0
CLASS
  1
MLEADERSTYLE
  2
AcDbMLeaderStyle
  3
ACDB_MLEADERSTYLE_CLASS
 90
     4095
280
     0
281
     0
  0
CLASS
  1
SUN
  2
AcDbSun
  3
SCENEOE
 90
     1153
280
     0
281
     0
  0
CLASS
  1
ACDBPLACEHOLDER
  2
AcDbPlaceHolder
  3
ObjectDBX Classes
 90
        0
280
     0
281
     0
  0
CLASS
  1
LAYOUT
  2
AcDbLayout
  3
ObjectDBX Classes
 90
        0
280
     0
281
     0
  0
ENDSEC
  0
SECTION
  2
TABLES
  0
TABLE
  2
VPORT
  5
8
330
0
100
AcDbSymbolTable
 70
     1
  0
VPORT
  5
29
330
8
100
AcDbSymbolTableRecord
100
AcDbViewportTableRecord
  2
*Active
 70
     0
 10
0.0
 20
0.0
 11
1.0
 21
1.0
 12
210.0
 22
148.5
 13
0.0
 23
0.0
 14
10.0
 24
10.0
 15
10.0
 25
10.0
 16
0.0
 26
0.0
 36
1.0
 17
0.0
 27
0.0
 37
0.0
 40
297.0
 41
1.4141414141
 42
50.0
 43
0.0
 44
0.0
 50
0.0
 51
0.0
 71
     0
 72
  2000
 73
     1
 74
     3
 75
     0
 76
     0
 77
     0
 78
     0
281
     0
 65
     1
110
0.0
120
0.0
130
0.0
111
1.0
121
0.0
131
0.0
112
0.0
122
1.0
132
0.0
 79
     0
146
0.0
  0
ENDTAB
  0
TABLE
  2
LTYPE
  5
5
330
0
100
AcDbSymbolTable
 70
     6
  0
LTYPE
  5
14
330
5
100
AcDbSymbolTableRecord
100
AcDbLinetypeTableRecord
  2
ByBlock
 70
     0
  3

 72
    65
 73
     0
 40
0.0
  0
LTYPE
  5
15
330
5
100
AcDbSymbolTableRecord
100
AcDbLinetypeTableRecord
  2
ByLayer
 70
     0
  3

 72
    65
 73
     0
 40
0.0
  0
LTYPE
  5
16
330
5
100
AcDbSymbolTableRecord
100
AcDbLinetypeTableRecord
  2
Continuous
 70
     0
  3
Solid line
 72
    65
 73
     0
 40
0.0
  0
LTYPE
  5
6E
330
5
100
AcDbSymbolTableRecord
100
AcDbLinetypeTableRecord
  2
HIDDEN
 70
     0
  3
Hidden __ __ __ __ __ __ __ __ __ __ __ __ __ __
 72
    65
 73
     2
 40
1.905
 49
1.27
 74
     0
 49
-0.635
 74
     0
  0
LTYPE
  5
6F
330
5
100
AcDbSymbolTableRecord
100
AcDbLinetypeTableRecord
  2
PHANTOM
 70
     0
  3
Phantom ______  __  __  ______  __  __  ______
 72
    65
 73
     6
 40
12.7
 49
6.35
 74
     0
 49
-1.27
 74
     0
 49
1.27
 74
     0
 49
-1.27
 74
     0
 49
1.27
 74
     0
 49
-1.27
 74
     0
  0
LTYPE
  5
70
330
5
100
AcDbSymbolTableRecord
100
AcDbLinetypeTableRecord
  2
CENTER
 70
     0
  3
Center ____ _ ____ _ ____ _ ____ _ ____ _ ____
 72
    65
 73
     4
 40
10.16
 49
6.35
 74
     0
 49
-1.27
 74
     0
 49
1.27
 74
     0
 49
-1.27
 74
     0
  0
LTYPE
  5
71
330
5
100
AcDbSymbolTableRecord
100
AcDbLinetypeTableRecord
  2
CENTERX2
 70
     0
  3
Center (2x) ________  __  ________  __  _____
 72
    65
 73
     4
 40
20.32
 49
12.7
 74
     0
 49
-2.54
 74
     0
 49
2.54
 74
     0
 49
-2.54
 74
     0
  0
LTYPE
  5
72
330
5
100
AcDbSymbolTableRecord
100
AcDbLinetypeTableRecord
  2
DOT2
 70
     0
  3
Dot (.5x) ........................................
 72
    65
 73
     2
 40
0.635
 49
0.0
 74
     0
 49
-0.635
 74
     0
  0
ENDTAB
  0
TABLE
  2
LAYER
  5
2
330
0
100
AcDbSymbolTable
 70
     2
  0
LAYER
  5
10
330
2
100
AcDbSymbolTableRecord
100
AcDbLayerTableRecord
  2
0
 70
     0
 62
     7
  6
Continuous
370
    -3
390
F
  0
LAYER
  5
73
330
2
100
AcDbSymbolTableRecord
100
AcDbLayerTableRecord
  2
LENKIMO
 70
     0
 62
     1
  6
CENTERX2
370
    -3
390
F
  0
ENDTAB
  0
TABLE
  2
STYLE
  5
3
330
0
100
AcDbSymbolTable
 70
     2
  0
STYLE
  5
11
330
3
100
AcDbSymbolTableRecord
100
AcDbTextStyleTableRecord
  2
Standard
 70
     0
 40
0.0
 41
1.0
 50
0.0
 71
     0
 42
5.6444444444
  3
txt
  4

  0
STYLE
  5
81
330
3
100
AcDbSymbolTableRecord
100
AcDbTextStyleTableRecord
  2
SLDTEXTSTYLE0
 70
     0
 40
0.0
 41
0.605
 50
0.0
 71
     0
 42
5.6444444444
  3
TXT
  4

  0
ENDTAB
  0
TABLE
  2
VIEW
  5
6
330
0
100
AcDbSymbolTable
 70
     0
  0
ENDTAB
  0
TABLE
  2
UCS
  5
7
330
0
100
AcDbSymbolTable
 70
     0
  0
ENDTAB
  0
TABLE
  2
APPID
  5
9
330
0
100
AcDbSymbolTable
 70
     1
  0
APPID
  5
12
330
9
100
AcDbSymbolTableRecord
100
AcDbRegAppTableRecord
  2
ACAD
 70
     0
  0
ENDTAB
  0
TABLE
  2
DIMSTYLE
  5
A
330
0
100
AcDbSymbolTable
 70
     1
100
AcDbDimStyleTable
  0
DIMSTYLE
105
27
330
A
100
AcDbSymbolTableRecord
100
AcDbDimStyleTableRecord
  2
ISO-25
 70
     0
 41
2.5
 42
0.625
 43
3.75
 44
1.25
 73
     0
 74
     0
 77
     1
 78
     8
140
2.5
141
2.5
143
0.0393700787
147
0.625
171
     3
172
     1
178
     0
271
     2
272
     2
274
     3
278
    44
283
     0
284
     8
340
11
  0
ENDTAB
  0
TABLE
  2
BLOCK_RECORD
  5
1
330
0
100
AcDbSymbolTable
 70
     6
  0
BLOCK_RECORD
  5
1F
330
1
100
AcDbSymbolTableRecord
100
AcDbBlockTableRecord
  2
*Model_Space
340
22
  0
BLOCK_RECORD
  5
1B
330
1
100
AcDbSymbolTableRecord
100
AcDbBlockTableRecord
  2
*Paper_Space
340
1E
  0
BLOCK_RECORD
  5
23
330
1
100
AcDbSymbolTableRecord
100
AcDbBlockTableRecord
  2
*Paper_Space0
340
26
  0
BLOCK_RECORD
  5
74
330
1
100
AcDbSymbolTableRecord
100
AcDbBlockTableRecord
  2
ODA
340
0
102
{BLKREFS
331
F9
102
}
  0
BLOCK_RECORD
  5
7E
330
1
100
AcDbSymbolTableRecord
100
AcDbBlockTableRecord
  2
SW_NOTE_0
340
0
102
{BLKREFS
331
83
102
}
  0
BLOCK_RECORD
  5
84
330
1
100
AcDbSymbolTableRecord
100
AcDbBlockTableRecord
  2
SUP_
340
0
102
{BLKREFS
331
38F
102
}
  0
BLOCK_RECORD
  5
8E
330
1
100
AcDbSymbolTableRecord
100
AcDbBlockTableRecord
  2
SW_NOTE_0_1
340
0
102
{BLKREFS
331
92
102
}
  0
BLOCK_RECORD
  5
93
330
1
100
AcDbSymbolTableRecord
100
AcDbBlockTableRecord
  2
Block11_2
340
0
  0
ENDTAB
  0
ENDSEC
  0
SECTION
  2
BLOCKS
  0
BLOCK
  5
20
330
1F
100
AcDbEntity
  8
0
100
AcDbBlockBegin
  2
*Model_Space
 70
     0
 10
0.0
 20
0.0
 30
0.0
  3
*Model_Space
  1

  0
ENDBLK
  5
21
330
1F
100
AcDbEntity
  8
0
100
AcDbBlockEnd
  0
BLOCK
  5
1C
330
1B
100
AcDbEntity
 67
     1
  8
0
100
AcDbBlockBegin
  2
*Paper_Space
 70
     0
 10
0.0
 20
0.0
 30
0.0
  3
*Paper_Space
  1

  0
ENDBLK
  5
1D
330
1B
100
AcDbEntity
 67
     1
  8
0
100
AcDbBlockEnd
  0
BLOCK
  5
24
330
23
100
AcDbEntity
  8
0
100
AcDbBlockBegin
  2
*Paper_Space0
 70
     0
 10
0.0
 20
0.0
 30
0.0
  3
*Paper_Space0
  1

  0
ENDBLK
  5
25
330
23
100
AcDbEntity
  8
0
100
AcDbBlockEnd
  0
BLOCK
  5
75
330
74
100
AcDbEntity
  8
0
100
AcDbBlockBegin
  2
ODA
 70
     0
 10
0.0
 20
0.0
 30
0.0
  3
ODA
  1

  0
LINE
  5
77
330
74
100
AcDbEntity
  8
0
  6
Continuous
 62
     7
370
    18
100
AcDbLine
 10
5.0
 20
-7.5
 30
0.0
 11
10.958767963
 21
-2.5
 31
0.0
  0
LINE
  5
78
330
74
100
AcDbEntity
  8
0
  6
Continuous
 62
     7
370
    18
100
AcDbLine
 10
10.958767963
 20
-2.5
 30
0.0
 11
5.0
 21
2.5
 31
0.0
  0
LINE
  5
79
330
74
100
AcDbEntity
  8
0
  6
Continuous
 62
     7
370
    18
100
AcDbLine
 10
5.0
 20
2.5
 30
0.0
 11
5.0
 21
0.0
 31
0.0
  0
LINE
  5
7A
330
74
100
AcDbEntity
  8
0
  6
Continuous
 62
     7
370
    18
100
AcDbLine
 10
5.0
 20
0.0
 30
0.0
 11
-5.0
 21
0.0
 31
0.0
  0
LINE
  5
7B
330
74
100
AcDbEntity
  8
0
  6
Continuous
 62
     7
370
    18
100
AcDbLine
 10
-5.0
 20
0.0
 30
0.0
 11
-5.0
 21
-5.0
 31
0.0
  0
LINE
  5
7C
330
74
100
AcDbEntity
  8
0
  6
Continuous
 62
     7
370
    18
100
AcDbLine
 10
-5.0
 20
-5.0
 30
0.0
 11
5.0
 21
-5.0
 31
0.0
  0
LINE
  5
7D
330
74
100
AcDbEntity
  8
0
  6
Continuous
 62
     7
370
    18
100
AcDbLine
 10
5.0
 20
-5.0
 30
0.0
 11
5.0
 21
-7.5
 31
0.0
  0
INSERT
  5
83
330
74
100
AcDbEntity
  8
0
  6
Continuous
 62
     7
370
    18
100
AcDbBlockReference
  2
SW_NOTE_0
 10
-3.2081381725
 20
-5.1422594862
 30
0.0
  0
ENDBLK
  5
76
330
74
100
AcDbEntity
  8
0
100
AcDbBlockEnd
  0
BLOCK
  5
7F
330
7E
100
AcDbEntity
  8
0
100
AcDbBlockBegin
  2
SW_NOTE_0
 70
     0
 10
0.0
 20
0.0
 30
0.0
  3
SW_NOTE_0
  1

  0
MTEXT
  5
82
330
7E
100
AcDbEntity
  8
0
  6
Continuous
 62
     0
370
    18
100
AcDbMText
 10
0.0
 20
4.7749217527
 30
0.0
 40
3.7041666667
 41
0.0
 71
     1
 72
     1
  1
ODA
  7
SLDTEXTSTYLE0
 73
     1
 44
1.0
  0
ENDBLK
  5
80
330
7E
100
AcDbEntity
  8
0
100
AcDbBlockEnd
  0
BLOCK
  5
85
330
84
100
AcDbEntity
  8
0
100
AcDbBlockBegin
  2
SUP_
 70
     0
 10
0.0
 20
0.0
 30
0.0
  3
SUP_
  1

  0
LINE
  5
87
330
84
100
AcDbEntity
  8
0
  6
Continuous
 62
     7
370
    18
100
AcDbLine
 10
5.0
 20
-7.5
 30
0.0
 11
10.958767963
 21
-2.5
 31
0.0
  0
LINE
  5
88
330
84
100
AcDbEntity
  8
0
  6
Continuous
 62
     7
370
    18
100
AcDbLine
 10
10.958767963
 20
-2.5
 30
0.0
 11
5.0
 21
2.5
 31
0.0
  0
LINE
  5
89
330
84
100
AcDbEntity
  8
0
  6
Continuous
 62
     7
370
    18
100
AcDbLine
 10
5.0
 20
2.5
 30
0.0
 11
5.0
 21
0.0
 31
0.0
  0
LINE
  5
8A
330
84
100
AcDbEntity
  8
0
  6
Continuous
 62
     7
370
    18
100
AcDbLine
 10
5.0
 20
0.0
 30
0.0
 11
-5.0
 21
0.0
 31
0.0
  0
LINE
  5
8B
330
84
100
AcDbEntity
  8
0
  6
Continuous
 62
     7
370
    18
100
AcDbLine
 10
-5.0
 20
0.0
 30
0.0
 11
-5.0
 21
-5.0
 31
0.0
  0
LINE
  5
8C
330
84
100
AcDbEntity
  8
0
  6
Continuous
 62
     7
370
    18
100
AcDbLine
 10
-5.0
 20
-5.0
 30
0.0
 11
5.0
 21
-5.0
 31
0.0
  0
LINE
  5
8D
330
84
100
AcDbEntity
  8
0
  6
Continuous
 62
     7
370
    18
100
AcDbLine
 10
5.0
 20
-5.0
 30
0.0
 11
5.0
 21
-7.5
 31
0.0
  0
INSERT
  5
92
330
84
100
AcDbEntity
  8
0
  6
Continuous
 62
     7
370
    18
100
AcDbBlockReference
  2
SW_NOTE_0_1
 10
-2.6178021797
 20
-5.1564015317
 30
0.0
  0
ENDBLK
  5
86
330
84
100
AcDbEntity
  8
0
100
AcDbBlockEnd
  0
BLOCK
  5
8F
330
8E
100
AcDbEntity
  8
0
100
AcDbBlockBegin
  2
SW_NOTE_0_1
 70
     0
 10
0.0
 20
0.0
 30
0.0
  3
SW_NOTE_0_1
  1

  0
MTEXT
  5
91
330
8E
100
AcDbEntity
  8
0
  6
Continuous
 62
     0
370
    18
100
AcDbMText
 10
0.0
 20
4.7749217527
 30
0.0
 40
3.7041666667
 41
0.0
 71
     1
 72
     1
  1
SUP
  7
SLDTEXTSTYLE0
 73
     1
 44
1.0
  0
ENDBLK
  5
90
330
8E
100
AcDbEntity
  8
0
100
AcDbBlockEnd
  0
BLOCK
  5
94
330
93
100
AcDbEntity
  8
0
100
AcDbBlockBegin
  2
Block11_2
 70
     0
 10
0.0
 20
0.0
 30
0.0
  3
Block11_2
  1

  0
LINE
  5
96
330
93
100
AcDbEntity
  8
0
  6
Continuous
100
AcDbLine
 10
-15.7956326374
 20
2.3055746011
 30
0.0
 11
-18.0649288667
 21
1.8146036087
 31
0.0
  0
LINE
  5
97
330
93
100
AcDbEntity
  8
0
  6
Continuous
100
AcDbLine
 10
-15.6988785554
 20
-9.1195335787
 30
0.0
 11
-10.2261014967
 21
-7.9354771524
 31
0.0
  0
LINE
  5
98
330
93
100
AcDbEntity
  8
0
  6
Continuous
100
AcDbLine
 10
-10.2261014967
 20
-7.9354771524
 30
0.0
 11
-10.6655808869
 21
-5.9041780766
 31
0.0
  0
LINE
  5
99
330
93
100
AcDbEntity
  8
0
  6
Continuous
100
AcDbLine
 10
-10.6655808869
 20
-5.9041780766
 30
0.0
 11
-13.8699456036
 21
-6.5974547429
 31
0.0
  0
LINE
  5
9A
330
93
100
AcDbEntity
  8
0
  6
Continuous
100
AcDbLine
 10
-8.296070931
 20
1.802048972
 30
0.0
 11
-6.9198111955
 21
2.0998080743
 31
0.0
  0
LINE
  5
9B
330
93
100
AcDbEntity
  8
0
  6
Continuous
100
AcDbLine
 10
-5.4333831358
 20
-4.7719736412
 30
0.0
 11
-6.8095376466
 21
-5.0697099777
 31
0.0
  0
LINE
  5
9C
330
93
100
AcDbEntity
  8
0
  6
Continuous
100
AcDbLine
 10
-11.0044904538
 20
3.3421566929
 30
0.0
 11
-8.6388294738
 21
-7.5920647278
 31
0.0
  0
LINE
  5
9D
330
93
100
AcDbEntity
  8
0
  6
Continuous
100
AcDbLine
 10
-8.6388294738
 20
-7.5920647278
 30
0.0
 11
-8.6384401425
 21
-7.5919804944
 31
0.0
  0
LINE
  5
9E
330
93
100
AcDbEntity
  8
0
  6
Continuous
100
AcDbLine
 10
-8.6384401425
 20
-7.5919804944
 30
0.0
 11
-4.4940245505
 21
-6.6953201952
 31
0.0
  0
LINE
  5
9F
330
93
100
AcDbEntity
  8
0
  6
Continuous
100
AcDbLine
 10
-6.8595855671
 20
4.238922853
 30
0.0
 11
-11.0044904538
 21
3.3421566929
 31
0.0
  0
LINE
  5
A0
330
93
100
AcDbEntity
  8
0
  6
Continuous
100
AcDbLine
 10
-32.9933593229
 20
-3.3005605139
 30
0.0
 11
-32.8591663041
 21
-3.2715273367
 31
0.0
  0
LINE
  5
A1
330
93
100
AcDbEntity
  8
0
  6
Continuous
100
AcDbLine
 10
-31.5697721187
 20
-3.9678201523
 30
0.0
 11
-29.2969561243
 21
-3.4760876451
 31
0.0
  0
LINE
  5
A2
330
93
100
AcDbEntity
  8
0
  6
Continuous
100
AcDbLine
 10
-33.2794920496
 20
-1.2667721217
 30
0.0
 11
-33.3448839193
 21
-1.2809199049
 31
0.0
  0
LINE
  5
A3
330
93
100
AcDbEntity
  8
0
  6
Continuous
100
AcDbLine
 10
-31.3289079349
 20
-10.5856399919
 30
0.0
 11
-31.4650581325
 21
-10.6150966123
 31
0.0
  0
LINE
  5
A4
330
93
100
AcDbEntity
  8
0
  6
Continuous
100
AcDbLine
 10
-32.8822392925
 20
-9.9377601564
 30
0.0
 11
-35.1888692339
 21
-10.4368084414
 31
0.0
  0
LINE
  5
A5
330
93
100
AcDbEntity
  8
0
  6
Continuous
100
AcDbLine
 10
-31.5949683304
 20
-12.7295787952
 30
0.0
 11
-30.2063920476
 21
-12.4291549603
 31
0.0
  0
LINE
  5
A6
330
93
100
AcDbEntity
  8
0
  6
Continuous
100
AcDbLine
 10
6.262509235
 20
-4.3681026205
 30
0.0
 11
8.6370616994
 21
-3.8543590356
 31
0.0
  0
LINE
  5
A7
330
93
100
AcDbEntity
  8
0
  6
Continuous
100
AcDbLine
 10
8.6370616994
 20
-3.8543590356
 30
0.0
 11
3.9059396663
 21
6.5680857621
 31
0.0
  0
LINE
  5
A8
330
93
100
AcDbEntity
  8
0
  6
Continuous
100
AcDbLine
 10
3.9059396663
 20
6.5680857621
 30
0.0
 11
0.0
 21
5.7230206493
 31
0.0
  0
LINE
  5
A9
330
93
100
AcDbEntity
  8
0
  6
Continuous
100
AcDbLine
 10
0.0
 20
5.7230206493
 30
0.0
 11
0.0
 21
-5.7230206493
 31
0.0
  0
LINE
  5
AA
330
93
100
AcDbEntity
  8
0
  6
Continuous
100
AcDbLine
 10
0.0
 20
-5.7230206493
 30
0.0
 11
2.3746576891
 21
-5.2092542987
 31
0.0
  0
LINE
  5
AB
330
93
100
AcDbEntity
  8
0
  6
Continuous
100
AcDbLine
 10
2.3746576891
 20
-5.2092542987
 30
0.0
 11
2.3747844598
 21
-3.0912381741
 31
0.0
  0
LINE
  5
AC
330
93
100
AcDbEntity
  8
0
  6
Continuous
100
AcDbLine
 10
2.3747844598
 20
-3.0912381741
 30
0.0
 11
4.0318309599
 21
-2.7327297722
 31
0.0
  0
LINE
  5
AD
330
93
100
AcDbEntity
  8
0
  6
Continuous
100
AcDbLine
 10
4.0318309599
 20
-2.7327297722
 30
0.0
 11
3.5923515697
 21
-0.7014306964
 31
0.0
  0
LINE
  5
AE
330
93
100
AcDbEntity
  8
0
  6
Continuous
100
AcDbLine
 10
3.5923515697
 20
-0.7014306964
 30
0.0
 11
2.3750284336
 21
-0.9648032524
 31
0.0
  0
LINE
  5
AF
330
93
100
AcDbEntity
  8
0
  6
Continuous
100
AcDbLine
 10
2.3750284336
 20
-0.9648032524
 30
0.0
 11
2.3752084601
 21
4.1936873712
 31
0.0
  0
LINE
  5
B0
330
93
100
AcDbEntity
  8
0
  6
Continuous
100
AcDbLine
 10
2.3752084601
 20
4.1936873712
 30
0.0
 11
6.262509235
 21
-4.3681026205
 31
0.0
  0
LINE
  5
B1
330
93
100
AcDbEntity
  8
0
  6
Continuous
100
AcDbLine
 10
-53.0629352118
 20
-11.4801779454
 30
0.0
 11
-50.7945341276
 21
-8.0228043203
 31
0.0
  0
LINE
  5
B2
330
93
100
AcDbEntity
  8
0
  6
Continuous
100
AcDbLine
 10
-50.7945341276
 20
-8.0228043203
 30
0.0
 11
-54.2891069366
 21
-5.8122833411
 31
0.0
  0
LINE
  5
B3
330
93
100
AcDbEntity
  8
0
  6
Continuous
100
AcDbLine
 10
-54.2891069366
 20
-5.8122833411
 30
0.0
 11
-51.4073820962
 21
-5.1888110564
 31
0.0
  0
LINE
  5
B4
330
93
100
AcDbEntity
  8
0
  6
Continuous
100
AcDbLine
 10
-51.4073820962
 20
-5.1888110564
 30
0.0
 11
-47.9127327975
 21
-7.3992273667
 31
0.0
  0
LINE
  5
B5
330
93
100
AcDbEntity
  8
0
  6
Continuous
100
AcDbLine
 10
-47.9127327975
 20
-7.3992273667
 30
0.0
 11
-50.1813587974
 21
-10.8569360435
 31
0.0
  0
LINE
  5
B6
330
93
100
AcDbEntity
  8
0
  6
Continuous
100
AcDbLine
 10
-50.1813587974
 20
-10.8569360435
 30
0.0
 11
-53.0628942334
 21
-11.4803673498
 31
0.0
  0
LINE
  5
B7
330
93
100
AcDbEntity
  8
0
  6
Continuous
100
AcDbLine
 10
-53.0628942334
 20
-11.4803673498
 30
0.0
 11
-53.0629352118
 21
-11.4801779454
 31
0.0
  0
LINE
  5
B8
330
93
100
AcDbEntity
  8
0
  6
Continuous
100
AcDbLine
 10
-42.7624916815
 20
-3.31845567
 30
0.0
 11
-45.0307950789
 21
-6.7757971452
 31
0.0
  0
LINE
  5
B9
330
93
100
AcDbEntity
  8
0
  6
Continuous
100
AcDbLine
 10
-45.0307950789
 20
-6.7757971452
 30
0.0
 11
-48.5254573289
 21
-4.5652955168
 31
0.0
  0
LINE
  5
BA
330
93
100
AcDbEntity
  8
0
  6
Continuous
100
AcDbLine
 10
-48.5254573289
 20
-4.5652955168
 30
0.0
 11
-48.5257466967
 21
-4.5653581227
 31
0.0
  0
LINE
  5
BB
330
93
100
AcDbEntity
  8
0
  6
Continuous
100
AcDbLine
 10
-48.5257466967
 20
-4.5653581227
 30
0.0
 11
-47.9126146215
 21
-7.399289919
 31
0.0
  0
LINE
  5
BC
330
93
100
AcDbEntity
  8
0
  6
Continuous
100
AcDbLine
 10
-47.9126146215
 20
-7.399289919
 30
0.0
 11
-44.4177372167
 21
-9.6098441329
 31
0.0
  0
LINE
  5
BD
330
93
100
AcDbEntity
  8
0
  6
Continuous
100
AcDbLine
 10
-44.4177372167
 20
-9.6098441329
 30
0.0
 11
-42.1490649772
 21
-6.1523237222
 31
0.0
  0
LINE
  5
BE
330
93
100
AcDbEntity
  8
0
  6
Continuous
100
AcDbLine
 10
-42.1490649772
 20
-6.1523237222
 30
0.0
 11
-42.7621970524
 21
-3.3183919259
 31
0.0
  0
LINE
  5
BF
330
93
100
AcDbEntity
  8
0
  6
Continuous
100
AcDbLine
 10
-42.7621970524
 20
-3.3183919259
 30
0.0
 11
-42.7624916815
 21
-3.31845567
 31
0.0
  0
LINE
  5
C0
330
93
100
AcDbEntity
  8
0
  6
Continuous
100
AcDbLine
 10
-41.535889647
 20
-8.9864554454
 30
0.0
 11
-43.8045413973
 21
-12.4440705583
 31
0.0
  0
LINE
  5
C1
330
93
100
AcDbEntity
  8
0
  6
Continuous
100
AcDbLine
 10
-43.8045413973
 20
-12.4440705583
 30
0.0
 11
-40.3564529382
 21
-14.625159785
 31
0.0
  0
LINE
  5
C2
330
93
100
AcDbEntity
  8
0
  6
Continuous
100
AcDbLine
 10
-40.3564529382
 20
-14.625159785
 30
0.0
 11
-43.2382724808
 21
-15.2486525588
 31
0.0
  0
LINE
  5
C3
330
93
100
AcDbEntity
  8
0
  6
Continuous
100
AcDbLine
 10
-43.2382724808
 20
-15.2486525588
 30
0.0
 11
-46.686243472
 21
-13.0676480676
 31
0.0
  0
LINE
  5
C4
330
93
100
AcDbEntity
  8
0
  6
Continuous
100
AcDbLine
 10
-46.686243472
 20
-13.0676480676
 30
0.0
 11
-44.4177144509
 21
-9.6099493576
 31
0.0
  0
LINE
  5
C5
330
93
100
AcDbEntity
  8
0
  6
Continuous
100
AcDbLine
 10
-44.4177144509
 20
-9.6099493576
 30
0.0
 11
-41.535889647
 21
-8.9864554454
 31
0.0
  0
LINE
  5
C6
330
93
100
AcDbEntity
  8
0
  6
Continuous
100
AcDbLine
 10
-51.8063383656
 20
-17.1023866618
 30
0.0
 11
-49.5681857438
 21
-13.6910572443
 31
0.0
  0
LINE
  5
C7
330
93
100
AcDbEntity
  8
0
  6
Continuous
100
AcDbLine
 10
-49.5681857438
 20
-13.6910572443
 30
0.0
 11
-46.1199973213
 21
-15.8721248435
 31
0.0
  0
LINE
  5
C8
330
93
100
AcDbEntity
  8
0
  6
Continuous
100
AcDbLine
 10
-46.1199973213
 20
-15.8721248435
 30
0.0
 11
-46.0813956519
 21
-15.8637732234
 31
0.0
  0
LINE
  5
C9
330
93
100
AcDbEntity
  8
0
  6
Continuous
100
AcDbLine
 10
-46.0813956519
 20
-15.8637732234
 30
0.0
 11
-46.6863662012
 21
-13.0675644704
 31
0.0
  0
LINE
  5
CA
330
93
100
AcDbEntity
  8
0
  6
Continuous
100
AcDbLine
 10
-46.6863662012
 20
-13.0675644704
 30
0.0
 11
-50.1813587974
 21
-10.8569360435
 31
0.0
  0
LINE
  5
CB
330
93
100
AcDbEntity
  8
0
  6
Continuous
100
AcDbLine
 10
-50.1813587974
 20
-10.8569360435
 30
0.0
 11
-52.4497621582
 21
-14.3142991462
 31
0.0
  0
LINE
  5
CC
330
93
100
AcDbEntity
  8
0
  6
Continuous
100
AcDbLine
 10
-52.4497621582
 20
-14.3142991462
 30
0.0
 11
-51.8447506306
 21
-17.1106973035
 31
0.0
  0
LINE
  5
CD
330
93
100
AcDbEntity
  8
0
  6
Continuous
100
AcDbLine
 10
-51.8447506306
 20
-17.1106973035
 30
0.0
 11
-51.8063383656
 21
-17.1023866618
 31
0.0
  0
LINE
  5
CE
330
93
100
AcDbEntity
  8
0
  6
Continuous
100
AcDbLine
 10
-20.0432683672
 20
-10.0594590717
 30
0.0
 11
-17.6687053803
 21
-9.5457132103
 31
0.0
  0
LINE
  5
CF
330
93
100
AcDbEntity
  8
0
  6
Continuous
100
AcDbLine
 10
-17.6687053803
 20
-9.5457132103
 30
0.0
 11
-22.3998379359
 21
0.8767293109
 31
0.0
  0
LINE
  5
D0
330
93
100
AcDbEntity
  8
0
  6
Continuous
100
AcDbLine
 10
-22.3998379359
 20
0.8767293109
 30
0.0
 11
-26.3058670432
 21
0.0316448472
 31
0.0
  0
LINE
  5
D1
330
93
100
AcDbEntity
  8
0
  6
Continuous
100
AcDbLine
 10
-26.3058670432
 20
0.0316448472
 30
0.0
 11
-26.3056723775
 21
-11.4143543348
 31
0.0
  0
LINE
  5
D2
330
93
100
AcDbEntity
  8
0
  6
Continuous
100
AcDbLine
 10
-26.3056723775
 20
-11.4143543348
 30
0.0
 11
-23.9311146519
 21
-10.9006096116
 31
0.0
  0
LINE
  5
D3
330
93
100
AcDbEntity
  8
0
  6
Continuous
100
AcDbLine
 10
-23.9311146519
 20
-10.9006096116
 30
0.0
 11
-23.9309931424
 21
-8.7825946253
 31
0.0
  0
LINE
  5
D4
330
93
100
AcDbEntity
  8
0
  6
Continuous
100
AcDbLine
 10
-23.9309931424
 20
-8.7825946253
 30
0.0
 11
-22.2738308951
 21
-8.4240611811
 31
0.0
  0
LINE
  5
D5
330
93
100
AcDbEntity
  8
0
  6
Continuous
100
AcDbLine
 10
-22.2738308951
 20
-8.4240611811
 30
0.0
 11
-22.7133102854
 21
-6.3927621053
 31
0.0
  0
LINE
  5
D6
330
93
100
AcDbEntity
  8
0
  6
Continuous
100
AcDbLine
 10
-22.7133102854
 20
-6.3927621053
 30
0.0
 11
-23.9308333483
 21
-6.6561779162
 31
0.0
  0
LINE
  5
D7
330
93
100
AcDbEntity
  8
0
  6
Continuous
100
AcDbLine
 10
-23.9308333483
 20
-6.6561779162
 30
0.0
 11
-23.9305586196
 21
-1.4976668035
 31
0.0
  0
LINE
  5
D8
330
93
100
AcDbEntity
  8
0
  6
Continuous
100
AcDbLine
 10
-23.9305586196
 20
-1.4976668035
 30
0.0
 11
-20.0432683672
 21
-10.0594590717
 31
0.0
  0
SPLINE
  5
D9
330
93
100
AcDbEntity
  8
0
100
AcDbSpline
210
0.0
220
0.0
230
1.0
 70
     8
 71
     3
 72
     8
 73
     4
 74
     0
 42
0.00000001
 43
0.00000001
 40
0.0
 40
0.0
 40
0.0
 40
0.0
 40
1.0
 40
1.0
 40
1.0
 40
1.0
 10
-13.86994560355125
 20
-6.597454742918429
 30
0.0
 10
-13.88373254946556
 20
-6.53373068413859
 30
0.0
 10
-15.11365515797402
 20
-0.8489574873494021
 30
0.0
 10
-15.79563263740206
 20
2.305574601061459
 30
0.0
  0
SPLINE
  5
DA
330
93
100
AcDbEntity
  8
0
100
AcDbSpline
210
0.0
220
0.0
230
1.0
 70
     8
 71
     3
 72
     8
 73
     4
 74
     0
 42
0.00000001
 43
0.00000001
 40
2.0
 40
2.0
 40
2.0
 40
2.0
 40
3.0
 40
3.0
 40
3.0
 40
3.0
 10
-18.06492886668426
 20
1.814603608696524
 30
0.0
 10
-17.24003965005502
 20
-1.995739949107536
 30
0.0
 10
-15.71186186991051
 20
-9.059523950669432
 30
0.0
 10
-15.69887855542093
 20
-9.119533578677906
 30
0.0
  0
SPLINE
  5
DB
330
93
100
AcDbEntity
  8
0
100
AcDbSpline
210
0.0
220
0.0
230
1.0
 70
     8
 71
     3
 72
     8
 73
     4
 74
     0
 42
0.00000001
 43
0.00000001
 40
0.0
 40
0.0
 40
0.0
 40
0.0
 40
1.0
 40
1.0
 40
1.0
 40
1.0
 10
-6.809537646582547
 20
-5.069709977697404
 30
0.0
 10
-7.284290309572815
 20
-2.875375801708635
 30
0.0
 10
-7.897830097865885
 20
-0.0390758678013329
 30
0.0
 10
-8.296070930952649
 20
1.80204897196991
 30
0.0
  0
SPLINE
  5
DC
330
93
100
AcDbEntity
  8
0
100
AcDbSpline
210
0.0
220
0.0
230
1.0
 70
     8
 71
     3
 72
     8
 73
     4
 74
     0
 42
0.00000001
 43
0.00000001
 40
2.0
 40
2.0
 40
2.0
 40
2.0
 40
3.0
 40
3.0
 40
3.0
 40
3.0
 10
-6.919811195494074
 20
2.099808074263809
 30
0.0
 10
-6.228016878711183
 20
2.249480443098069
 30
0.0
 10
-5.547633595833446
 20
1.815851349115847
 30
0.0
 10
-5.399398884916104
 20
1.130701970100344
 30
0.0
  0
SPLINE
  5
DD
330
93
100
AcDbEntity
  8
0
100
AcDbSpline
210
0.0
220
0.0
230
1.0
 70
     8
 71
     3
 72
     8
 73
     4
 74
     0
 42
0.00000001
 43
0.00000001
 40
3.0
 40
3.0
 40
3.0
 40
3.0
 40
4.0
 40
4.0
 40
4.0
 40
4.0
 10
-5.399398884916104
 20
1.130701970100344
 30
0.0
 10
-5.107009087764085
 20
-0.2207405274728672
 30
0.0
 10
-4.711497421058354
 20
-2.048334586467611
 30
0.0
 10
-4.449160707297047
 20
-3.260870000165379
 30
0.0
  0
SPLINE
  5
DE
330
93
100
AcDbEntity
  8
0
100
AcDbSpline
210
0.0
220
0.0
230
1.0
 70
     8
 71
     3
 72
     8
 73
     4
 74
     0
 42
0.00000001
 43
0.00000001
 40
4.0
 40
4.0
 40
4.0
 40
4.0
 40
5.0
 40
5.0
 40
5.0
 40
5.0
 10
-4.449160707297047
 20
-3.260870000165379
 30
0.0
 10
-4.300905507193207
 20
-3.946114081381999
 30
0.0
 10
-4.741570606399121
 20
-4.622385452066122
 30
0.0
 10
-5.433383135791953
 20
-4.771973641166296
 30
0.0
  0
SPLINE
  5
DF
330
93
100
AcDbEntity
  8
0
100
AcDbSpline
210
0.0
220
0.0
230
1.0
 70
     8
 71
     3
 72
     8
 73
     4
 74
     0
 42
0.00000001
 43
0.00000001
 40
3.0
 40
3.0
 40
3.0
 40
3.0
 40
4.0
 40
4.0
 40
4.0
 40
4.0
 10
-4.494024550545999
 20
-6.695320195210662
 30
0.0
 10
-2.825524345390513
 20
-6.334333740063992
 30
0.0
 10
-1.762658323115034
 20
-4.702068307882374
 30
0.0
 10
-2.120071189640999
 20
-3.049576315093403
 30
0.0
  0
SPLINE
  5
E0
330
93
100
AcDbEntity
  8
0
100
AcDbSpline
210
0.0
220
0.0
230
1.0
 70
     8
 71
     3
 72
     8
 73
     4
 74
     0
 42
0.00000001
 43
0.00000001
 40
4.0
 40
4.0
 40
4.0
 40
4.0
 40
5.0
 40
5.0
 40
5.0
 40
5.0
 10
-2.120071189640999
 20
-3.049576315093403
 30
0.0
 10
-2.485983017556096
 20
-1.358310753073632
 30
0.0
 10
-2.867352798370483
 20
0.4044023583376265
 30
0.0
 10
-3.190995488197396
 20
1.900704823656681
 30
0.0
  0
SPLINE
  5
E1
330
93
100
AcDbEntity
  8
0
100
AcDbSpline
210
0.0
220
0.0
230
1.0
 70
     8
 71
     3
 72
     8
 73
     4
 74
     0
 42
0.00000001
 43
0.00000001
 40
5.0
 40
5.0
 40
5.0
 40
5.0
 40
6.0
 40
6.0
 40
6.0
 40
6.0
 10
-3.190995488197396
 20
1.900704823656681
 30
0.0
 10
-3.54857504695031
 20
3.553458157285876
 30
0.0
 10
-5.190901218780231
 20
4.599949148191988
 30
0.0
 10
-6.859585567104196
 20
4.238922852960538
 30
0.0
  0
SPLINE
  5
E2
330
93
100
AcDbEntity
  8
0
100
AcDbSpline
210
0.0
220
0.0
230
1.0
 70
     8
 71
     3
 72
     8
 73
     4
 74
     0
 42
0.00000001
 43
0.00000001
 40
0.0
 40
0.0
 40
0.0
 40
0.0
 40
1.0
 40
1.0
 40
1.0
 40
1.0
 10
-30.23703582864644
 20
-6.251438951366732
 30
0.0
 10
-30.9104300186728
 20
-6.015603382360459
 30
0.0
 10
-31.40848551125485
 20
-5.893156856121871
 30
0.0
 10
-32.67210357750635
 20
-5.496689523479785
 30
0.0
  0
SPLINE
  5
E3
330
93
100
AcDbEntity
  8
0
100
AcDbSpline
210
0.0
220
0.0
230
1.0
 70
     8
 71
     3
 72
     8
 73
     4
 74
     0
 42
0.00000001
 43
0.00000001
 40
1.0
 40
1.0
 40
1.0
 40
1.0
 40
2.0
 40
2.0
 40
2.0
 40
2.0
 10
-32.67210357750635
 20
-5.496689523479785
 30
0.0
 10
-33.03332194555517
 20
-5.383421617718132
 30
0.0
 10
-33.81210282496122
 20
-5.206692347750555
 30
0.0
 10
-33.94849250952588
 20
-4.576291363356936
 30
0.0
  0
SPLINE
  5
E4
330
93
100
AcDbEntity
  8
0
100
AcDbSpline
210
0.0
220
0.0
230
1.0
 70
     8
 71
     3
 72
     8
 73
     4
 74
     0
 42
0.00000001
 43
0.00000001
 40
2.0
 40
2.0
 40
2.0
 40
2.0
 40
3.0
 40
3.0
 40
3.0
 40
3.0
 10
-33.94849250952588
 20
-4.576291363356936
 30
0.0
 10
-34.11622381965225
 20
-3.801027578894063
 30
0.0
 10
-33.67528356585564
 20
-3.448097454184924
 30
0.0
 10
-32.99335932290604
 20
-3.30056051389548
 30
0.0
  0
SPLINE
  5
E5
330
93
100
AcDbEntity
  8
0
100
AcDbSpline
210
0.0
220
0.0
230
1.0
 70
     8
 71
     3
 72
     8
 73
     4
 74
     0
 42
0.00000001
 43
0.00000001
 40
4.0
 40
4.0
 40
4.0
 40
4.0
 40
5.0
 40
5.0
 40
5.0
 40
5.0
 10
-32.85916630414497
 20
-3.271527336675416
 30
0.0
 10
-32.2786944245911
 20
-3.14594000653005
 30
0.0
 10
-31.77109773641243
 20
-3.328116480283148
 30
0.0
 10
-31.56977211870437
 20
-3.967820152272103
 30
0.0
  0
SPLINE
  5
E6
330
93
100
AcDbEntity
  8
0
100
AcDbSpline
210
0.0
220
0.0
230
1.0
 70
     8
 71
     3
 72
     8
 73
     4
 74
     0
 42
0.00000001
 43
0.00000001
 40
6.0
 40
6.0
 40
6.0
 40
6.0
 40
7.0
 40
7.0
 40
7.0
 40
7.0
 10
-29.29695612428625
 20
-3.476087645143529
 30
0.0
 10
-29.68810071971012
 20
-1.866802583842748
 30
0.0
 10
-30.87776107222441
 20
-0.7599478056671497
 30
0.0
 10
-33.27949204955325
 20
-1.266772121690862
 30
0.0
  0
SPLINE
  5
E7
330
93
100
AcDbEntity
  8
0
100
AcDbSpline
210
0.0
220
0.0
230
1.0
 70
     8
 71
     3
 72
     8
 73
     4
 74
     0
 42
0.00000001
 43
0.00000001
 40
8.0
 40
8.0
 40
8.0
 40
8.0
 40
9.0
 40
9.0
 40
9.0
 40
9.0
 10
-33.34488391931659
 20
-1.280919904944554
 30
0.0
 10
-35.81152992452102
 20
-1.828202838410209
 30
0.0
 10
-36.33378487826545
 20
-3.54465012997844
 30
0.0
 10
-36.09207577942843
 20
-4.962606301827474
 30
0.0
  0
SPLINE
  5
E8
330
93
100
AcDbEntity
  8
0
100
AcDbSpline
210
0.0
220
0.0
230
1.0
 70
     8
 71
     3
 72
     8
 73
     4
 74
     0
 42
0.00000001
 43
0.00000001
 40
9.0
 40
9.0
 40
9.0
 40
9.0
 40
10.0
 40
10.0
 40
10.0
 40
10.0
 10
-36.09207577942843
 20
-4.962606301827474
 30
0.0
 10
-35.83736690020325
 20
-6.457652824126185
 30
0.0
 10
-34.96800490008025
 20
-7.196828812263726
 30
0.0
 10
-33.99931718292642
 20
-7.502708028683521
 30
0.0
  0
SPLINE
  5
E9
330
93
100
AcDbEntity
  8
0
100
AcDbSpline
210
0.0
220
0.0
230
1.0
 70
     8
 71
     3
 72
     8
 73
     4
 74
     0
 42
0.00000001
 43
0.00000001
 40
10.0
 40
10.0
 40
10.0
 40
10.0
 40
11.0
 40
11.0
 40
11.0
 40
11.0
 10
-33.99931718292642
 20
-7.502708028683521
 30
0.0
 10
-33.40907414696034
 20
-7.689011641945549
 30
0.0
 10
-32.48616403135102
 20
-7.975318844696811
 30
0.0
 10
-31.47547483016511
 20
-8.271505052332133
 30
0.0
  0
SPLINE
  5
EA
330
93
100
AcDbEntity
  8
0
100
AcDbSpline
210
0.0
220
0.0
230
1.0
 70
     8
 71
     3
 72
     8
 73
     4
 74
     0
 42
0.00000001
 43
0.00000001
 40
11.0
 40
11.0
 40
11.0
 40
11.0
 40
12.0
 40
12.0
 40
12.0
 40
12.0
 10
-31.47547483016511
 20
-8.271505052332133
 30
0.0
 10
-31.11213516930565
 20
-8.377980375833697
 30
0.0
 10
-30.40258052645035
 20
-8.55729511966404
 30
0.0
 10
-30.28870163819746
 20
-9.336631754491275
 30
0.0
  0
SPLINE
  5
EB
330
93
100
AcDbEntity
  8
0
100
AcDbSpline
210
0.0
220
0.0
230
1.0
 70
     8
 71
     3
 72
     8
 73
     4
 74
     0
 42
0.00000001
 43
0.00000001
 40
12.0
 40
12.0
 40
12.0
 40
12.0
 40
13.0
 40
13.0
 40
13.0
 40
13.0
 10
-30.28870163819746
 20
-9.336631754491275
 30
0.0
 10
-30.1883718252622
 20
-10.02498578462436
 30
0.0
 10
-30.64014408852681
 20
-10.43662327702193
 30
0.0
 10
-31.32890793487913
 20
-10.58563999188937
 30
0.0
  0
SPLINE
  5
EC
330
93
100
AcDbEntity
  8
0
100
AcDbSpline
210
0.0
220
0.0
230
1.0
 70
     8
 71
     3
 72
     8
 73
     4
 74
     0
 42
0.00000001
 43
0.00000001
 40
14.0
 40
14.0
 40
14.0
 40
14.0
 40
15.0
 40
15.0
 40
15.0
 40
15.0
 10
-31.46505813246006
 20
-10.61509661229636
 30
0.0
 10
-32.05208024758041
 20
-10.74210111117219
 30
0.0
 10
-32.71260096537058
 20
-10.55064660173623
 30
0.0
 10
-32.8822392924921
 20
-9.937760156430087
 30
0.0
  0
SPLINE
  5
ED
330
93
100
AcDbEntity
  8
0
100
AcDbSpline
210
0.0
220
0.0
230
1.0
 70
     8
 71
     3
 72
     8
 73
     4
 74
     0
 42
0.00000001
 43
0.00000001
 40
16.0
 40
16.0
 40
16.0
 40
16.0
 40
17.0
 40
17.0
 40
17.0
 40
17.0
 10
-35.1888692338865
 20
-10.43680844141459
 30
0.0
 10
-34.81471685749703
 20
-11.8843133271045
 30
0.0
 10
-33.72975075395794
 20
-12.95131992706823
 30
0.0
 10
-31.59496833044066
 20
-12.72957879515504
 30
0.0
  0
SPLINE
  5
EE
330
93
100
AcDbEntity
  8
0
100
AcDbSpline
210
0.0
220
0.0
230
1.0
 70
     8
 71
     3
 72
     8
 73
     4
 74
     0
 42
0.00000001
 43
0.00000001
 40
18.0
 40
18.0
 40
18.0
 40
18.0
 40
19.0
 40
19.0
 40
19.0
 40
19.0
 10
-30.20639204762402
 20
-12.42915496033268
 30
0.0
 10
-28.36320980349184
 20
-11.79454394754582
 30
0.0
 10
-27.78707037380765
 20
-10.41512978795686
 30
0.0
 10
-27.91988511866083
 20
-9.073464993912006
 30
0.0
  0
SPLINE
  5
EF
330
93
100
AcDbEntity
  8
0
100
AcDbSpline
210
0.0
220
0.0
230
1.0
 70
     8
 71
     3
 72
     8
 73
     4
 74
     0
 42
0.00000001
 43
0.00000001
 40
19.0
 40
19.0
 40
19.0
 40
19.0
 40
20.0
 40
20.0
 40
20.0
 40
20.0
 10
-27.91988511866083
 20
-9.073464993912006
 30
0.0
 10
-28.12563217330358
 20
-6.994152508733083
 30
0.0
 10
-29.51271678483619
 20
-6.50510505043454
 30
0.0
 10
-30.23703582864644
 20
-6.251438951366732
 30
0.0
  0
HATCH
  5
F0
330
93
100
AcDbEntity
  8
0
100
AcDbHatch
 10
0.0
 20
0.0
 30
0.0
210
0.0
220
0.0
230
1.0
  2
SOLID
 70
     1
 71
     0
 91
        1
 92
        0
 93
        7
 72
     1
 10
-53.06293521179145
 20
-11.48017794540906
 11
-53.0628942334185
 21
-11.48036734981106
 72
     1
 10
-53.0628942334185
 20
-11.48036734981106
 11
-50.18135879739363
 21
-10.85693604353014
 72
     1
 10
-50.18135879739363
 20
-10.85693604353014
 11
-47.91273279754322
 21
-7.399227366744369
 72
     1
 10
-47.91273279754322
 20
-7.399227366744369
 11
-51.40738209617635
 21
-5.188811056417426
 72
     1
 10
-51.40738209617635
 20
-5.188811056417426
 11
-54.28910693660305
 21
-5.812283341071309
 72
     1
 10
-54.28910693660305
 20
-5.812283341071309
 11
-50.79453412756107
 21
-8.022804320319173
 72
     1
 10
-50.79453412756107
 20
-8.022804320319173
 11
-53.06293521179145
 21
-11.48017794540906
 97
        0
 75
     0
 76
     1
 98
        1
 10
0.0
 20
0.0
  0
HATCH
  5
F1
330
93
100
AcDbEntity
  8
0
100
AcDbHatch
 10
0.0
 20
0.0
 30
0.0
210
0.0
220
0.0
230
1.0
  2
SOLID
 70
     1
 71
     0
 91
        1
 92
        0
 93
        6
 72
     1
 10
-41.53588964704281
 20
-8.986455445432597
 11
-44.41771445090438
 21
-9.609949357561213
 72
     1
 10
-44.41771445090438
 20
-9.609949357561213
 11
-46.68624347197728
 21
-13.06764806762683
 72
     1
 10
-46.68624347197728
 20
-13.06764806762683
 11
-43.23827248082917
 21
-15.24865255879992
 72
     1
 10
-43.23827248082917
 20
-15.24865255879992
 11
-40.35645293820115
 21
-14.62515978495947
 72
     1
 10
-40.35645293820115
 20
-14.62515978495947
 11
-43.80454139731328
 21
-12.44407055830516
 72
     1
 10
-43.80454139731328
 20
-12.44407055830516
 11
-41.53588964704281
 21
-8.986455445432597
 97
        0
 75
     0
 76
     1
 98
        1
 10
0.0
 20
0.0
  0
HATCH
  5
F2
330
93
100
AcDbEntity
  8
0
100
AcDbHatch
 10
0.0
 20
0.0
 30
0.0
210
0.0
220
0.0
230
1.0
  2
SOLID
 70
     1
 71
     0
 91
        1
 92
        0
 93
       20
 72
     4
 94
        3
 73
     1
 74
     0
 95
        8
 96
        4
 40
18.0
 40
18.0
 40
18.0
 40
18.0
 40
19.0
 40
19.0
 40
19.0
 40
19.0
 10
-30.20639204762402
 20
-12.42915496033267
 42
1.0
 10
-28.36320980349188
 20
-11.79454394754584
 42
1.0
 10
-27.78707037380775
 20
-10.41512978795687
 42
1.0
 10
-27.91988511866085
 20
-9.073464993912015
 42
1.0
 72
     4
 94
        3
 73
     1
 74
     0
 95
        8
 96
        4
 40
19.0
 40
19.0
 40
19.0
 40
19.0
 40
20.0
 40
20.0
 40
20.0
 40
20.0
 10
-27.91988511866085
 20
-9.073464993912015
 42
1.0
 10
-28.1256321733036
 20
-6.994152508733093
 42
1.0
 10
-29.51271678483624
 20
-6.505105050434554
 42
1.0
 10
-30.23703582864647
 20
-6.251438951366739
 42
1.0
 72
     4
 94
        3
 73
     1
 74
     0
 95
        8
 96
        4
 40
0.0
 40
0.0
 40
0.0
 40
0.0
 40
1.0
 40
1.0
 40
1.0
 40
1.0
 10
-30.23703582864647
 20
-6.251438951366739
 42
1.0
 10
-30.91043001867278
 20
-6.015603382360466
 42
1.0
 10
-31.40848551125484
 20
-5.893156856121866
 42
1.0
 10
-32.67210357750633
 20
-5.496689523479784
 42
1.0
 72
     4
 94
        3
 73
     1
 74
     0
 95
        8
 96
        4
 40
1.0
 40
1.0
 40
1.0
 40
1.0
 40
2.0
 40
2.0
 40
2.0
 40
2.0
 10
-32.67210357750633
 20
-5.496689523479784
 42
1.0
 10
-33.03332194555515
 20
-5.383421617718138
 42
1.0
 10
-33.81210282496121
 20
-5.206692347750558
 42
1.0
 10
-33.94849250952591
 20
-4.576291363356954
 42
1.0
 72
     4
 94
        3
 73
     1
 74
     0
 95
        8
 96
        4
 40
2.0
 40
2.0
 40
2.0
 40
2.0
 40
3.0
 40
3.0
 40
3.0
 40
3.0
 10
-33.94849250952591
 20
-4.576291363356954
 42
1.0
 10
-34.11622381965228
 20
-3.801027578894066
 42
1.0
 10
-33.67528356585566
 20
-3.448097454184939
 42
1.0
 10
-32.99335932290605
 20
-3.300560513895483
 42
1.0
 72
     1
 10
-32.99335932290605
 20
-3.300560513895483
 11
-32.85916630414502
 21
-3.271527336675422
 72
     4
 94
        3
 73
     1
 74
     0
 95
        8
 96
        4
 40
4.0
 40
4.0
 40
4.0
 40
4.0
 40
5.0
 40
5.0
 40
5.0
 40
5.0
 10
-32.85916630414502
 20
-3.271527336675422
 42
1.0
 10
-32.27869442459117
 20
-3.145940006530068
 42
1.0
 10
-31.77109773641243
 20
-3.328116480283154
 42
1.0
 10
-31.5697721187044
 20
-3.967820152272114
 42
1.0
 72
     1
 10
-31.5697721187044
 20
-3.967820152272114
 11
-29.29695612428624
 21
-3.476087645143523
 72
     4
 94
        3
 73
     1
 74
     0
 95
        8
 96
        4
 40
6.0
 40
6.0
 40
6.0
 40
6.0
 40
7.0
 40
7.0
 40
7.0
 40
7.0
 10
-29.2969561242863
 20
-3.476087645143538
 42
1.0
 10
-29.6881007197101
 20
-1.866802583842747
 42
1.0
 10
-30.87776107222446
 20
-0.7599478056671519
 42
1.0
 10
-33.27949204955327
 20
-1.266772121690873
 42
1.0
 72
     1
 10
-33.27949204955321
 20
-1.266772121690857
 11
-33.3448839193166
 21
-1.280919904944549
 72
     4
 94
        3
 73
     1
 74
     0
 95
        8
 96
        4
 40
8.0
 40
8.0
 40
8.0
 40
8.0
 40
9.0
 40
9.0
 40
9.0
 40
9.0
 10
-33.34488391931666
 20
-1.280919904944565
 42
1.0
 10
-35.8115299245211
 20
-1.828202838410234
 42
1.0
 10
-36.3337848782655
 20
-3.544650129978449
 42
1.0
 10
-36.09207577942846
 20
-4.962606301827486
 42
1.0
 72
     4
 94
        3
 73
     1
 74
     0
 95
        8
 96
        4
 40
9.0
 40
9.0
 40
9.0
 40
9.0
 40
10.0
 40
10.0
 40
10.0
 40
10.0
 10
-36.09207577942846
 20
-4.962606301827486
 42
1.0
 10
-35.83736690020323
 20
-6.457652824126184
 42
1.0
 10
-34.96800490008029
 20
-7.196828812263736
 42
1.0
 10
-33.99931718292643
 20
-7.502708028683525
 42
1.0
 72
     4
 94
        3
 73
     1
 74
     0
 95
        8
 96
        4
 40
10.0
 40
10.0
 40
10.0
 40
10.0
 40
11.0
 40
11.0
 40
11.0
 40
11.0
 10
-33.99931718292643
 20
-7.502708028683525
 42
1.0
 10
-33.40907414696031
 20
-7.689011641945555
 42
1.0
 10
-32.48616403135106
 20
-7.975318844696822
 42
1.0
 10
-31.47547483016516
 20
-8.27150505233215
 42
1.0
 72
     4
 94
        3
 73
     1
 74
     0
 95
        8
 96
        4
 40
11.0
 40
11.0
 40
11.0
 40
11.0
 40
12.0
 40
12.0
 40
12.0
 40
12.0
 10
-31.47547483016516
 20
-8.27150505233215
 42
1.0
 10
-31.11213516930568
 20
-8.377980375833708
 42
1.0
 10
-30.40258052645039
 20
-8.557295119664056
 42
1.0
 10
-30.28870163819752
 20
-9.336631754491272
 42
1.0
 72
     4
 94
        3
 73
     1
 74
     0
 95
        8
 96
        4
 40
12.0
 40
12.0
 40
12.0
 40
12.0
 40
13.0
 40
13.0
 40
13.0
 40
13.0
 10
-30.28870163819752
 20
-9.336631754491272
 42
1.0
 10
-30.18837182526216
 20
-10.02498578462435
 42
1.0
 10
-30.64014408852681
 20
-10.43662327702195
 42
1.0
 10
-31.32890793487914
 20
-10.58563999188937
 42
1.0
 72
     1
 10
-31.32890793487914
 20
-10.58563999188937
 11
-31.46505813246008
 21
-10.61509661229637
 72
     4
 94
        3
 73
     1
 74
     0
 95
        8
 96
        4
 40
14.0
 40
14.0
 40
14.0
 40
14.0
 40
15.0
 40
15.0
 40
15.0
 40
15.0
 10
-31.46505813246008
 20
-10.61509661229637
 42
1.0
 10
-32.05208024758041
 20
-10.7421011111722
 42
1.0
 10
-32.71260096537064
 20
-10.55064660173623
 42
1.0
 10
-32.88223929249212
 20
-9.937760156430087
 42
1.0
 72
     1
 10
-32.88223929249212
 20
-9.937760156430087
 11
-35.18886923388655
 21
-10.43680844141459
 72
     4
 94
        3
 73
     1
 74
     0
 95
        8
 96
        4
 40
16.0
 40
16.0
 40
16.0
 40
16.0
 40
17.0
 40
17.0
 40
17.0
 40
17.0
 10
-35.18886923388649
 20
-10.43680844141459
 42
1.0
 10
-34.81471685749708
 20
-11.88431332710451
 42
1.0
 10
-33.72975075395801
 20
-12.95131992706824
 42
1.0
 10
-31.59496833044075
 20
-12.72957879515506
 42
1.0
 72
     1
 10
-31.59496833044068
 20
-12.72957879515504
 11
-30.20639204762409
 21
-12.42915496033269
 97
        0
 75
     0
 76
     1
 98
        1
 10
0.0
 20
0.0
  0
HATCH
  5
F3
330
93
100
AcDbEntity
  8
0
100
AcDbHatch
 10
0.0
 20
0.0
 30
0.0
210
0.0
220
0.0
230
1.0
  2
SOLID
 70
     1
 71
     0
 91
        1
 92
        0
 93
       11
 72
     1
 10
-23.93083334830058
 20
-6.656177916224847
 11
-23.9305586195879
 21
-1.497666803489873
 72
     1
 10
-23.9305586195879
 20
-1.497666803489873
 11
-20.04326836721582
 21
-10.05945907169815
 72
     1
 10
-20.04326836721582
 20
-10.05945907169815
 11
-17.66870538033285
 21
-9.545713210289948
 72
     1
 10
-17.66870538033285
 20
-9.545713210289948
 11
-22.39983793591613
 21
0.8767293108990284
 72
     1
 10
-22.39983793591613
 20
0.8767293108990277
 11
-26.30586704316552
 21
0.0316448471579831
 72
     1
 10
-26.30586704316552
 20
0.0316448471579831
 11
-26.30567237753049
 21
-11.41435433475813
 72
     1
 10
-26.30567237753049
 20
-11.41435433475813
 11
-23.93111465188077
 21
-10.90060961163804
 72
     1
 10
-23.93111465188077
 20
-10.90060961163804
 11
-23.93099314235586
 21
-8.782594625323274
 72
     1
 10
-23.93099314235586
 20
-8.782594625323274
 11
-22.27383089514867
 21
-8.42406118111162
 72
     1
 10
-22.27383089514867
 20
-8.42406118111162
 11
-22.7133102853523
 21
-6.392762105309743
 72
     1
 10
-22.7133102853523
 20
-6.392762105309743
 11
-23.93083334830058
 21
-6.656177916224847
 97
        0
 75
     0
 76
     1
 98
        1
 10
0.0
 20
0.0
  0
HATCH
  5
F4
330
93
100
AcDbEntity
  8
0
100
AcDbHatch
 10
0.0
 20
0.0
 30
0.0
210
0.0
220
0.0
230
1.0
  2
SOLID
 70
     1
 71
     0
 91
        1
 92
        0
 93
        6
 72
     1
 10
-15.79563263740209
 20
2.305574601061446
 11
-18.06492886668423
 21
1.814603608696526
 72
     4
 94
        3
 73
     1
 74
     0
 95
        8
 96
        4
 40
2.0
 40
2.0
 40
2.0
 40
2.0
 40
3.0
 40
3.0
 40
3.0
 40
3.0
 10
-18.06492886668423
 20
1.814603608696526
 42
1.0
 10
-17.240039650055
 20
-1.995739949107533
 42
1.0
 10
-15.71186186991055
 20
-9.059523950669437
 42
1.0
 10
-15.69887855542098
 20
-9.119533578677919
 42
1.0
 72
     1
 10
-15.69887855542092
 20
-9.119533578677903
 11
-10.22610149671526
 21
-7.93547715235816
 72
     1
 10
-10.22610149671526
 20
-7.93547715235816
 11
-10.66558088691882
 21
-5.904178076556605
 72
     1
 10
-10.66558088691882
 20
-5.904178076556605
 11
-13.86994560355126
 21
-6.597454742918437
 72
     4
 94
        3
 73
     1
 74
     0
 95
        8
 96
        4
 40
0.0
 40
0.0
 40
0.0
 40
0.0
 40
1.0
 40
1.0
 40
1.0
 40
1.0
 10
-13.86994560355126
 20
-6.597454742918437
 42
1.0
 10
-13.88373254946556
 20
-6.533730684138598
 42
1.0
 10
-15.1136551579741
 20
-0.8489574873494129
 42
1.0
 10
-15.79563263740209
 20
2.305574601061446
 42
1.0
 97
        0
 75
     0
 76
     1
 98
        1
 10
0.0
 20
0.0
  0
HATCH
  5
F5
330
93
100
AcDbEntity
  8
0
100
AcDbHatch
 10
0.0
 20
0.0
 30
0.0
210
0.0
220
0.0
230
1.0
  2
SOLID
 70
     1
 71
     0
 91
        1
 92
        0
 93
       11
 72
     1
 10
2.375028433631206
 20
-0.9648032523823513
 11
2.375208460142868
 21
4.193687371166118
 72
     1
 10
2.375208460142868
 20
4.193687371166118
 11
6.262509234981617
 21
-4.368102620465918
 72
     1
 10
6.262509234981617
 20
-4.368102620465917
 11
8.637061699398163
 21
-3.854359035633896
 72
     1
 10
8.637061699398163
 20
-3.854359035633896
 11
3.905939666281055
 21
6.568085762131229
 72
     1
 10
3.905939666281055
 20
6.56808576213123
 11
-0.0000000000001235
 21
5.723020649288631
 72
     1
 10
-0.0000000000001234
 20
5.723020649288631
 11
-0.000000000000185
 21
-5.723020649288538
 72
     1
 10
-0.000000000000185
 20
-5.723020649288538
 11
2.37465768908423
 21
-5.20925429869377
 72
     1
 10
2.37465768908423
 20
-5.20925429869377
 11
2.374784459841949
 21
-3.091238174090979
 72
     1
 10
2.374784459841949
 20
-3.091238174090979
 11
4.031830959914354
 21
-2.732729772218408
 72
     1
 10
4.031830959914354
 20
-2.732729772218408
 11
3.592351569710606
 21
-0.701430696416514
 72
     1
 10
3.592351569710606
 20
-0.7014306964165138
 11
2.375028433631206
 21
-0.9648032523823513
 97
        0
 75
     0
 76
     1
 98
        1
 10
0.0
 20
0.0
  0
HATCH
  5
F6
330
93
100
AcDbEntity
  8
0
100
AcDbHatch
 10
0.0
 20
0.0
 30
0.0
210
0.0
220
0.0
230
1.0
  2
SOLID
 70
     1
 71
     0
 91
        1
 92
        0
 93
        8
 72
     1
 10
-42.14906497721024
 20
-6.152323722221632
 11
-42.76219705242848
 21
-3.318391925879333
 72
     1
 10
-42.76219705242848
 20
-3.318391925879333
 11
-42.76249168149826
 21
-3.318455670015027
 72
     1
 10
-42.76249168149826
 20
-3.318455670015027
 11
-45.03079507887072
 21
-6.775797145163721
 72
     1
 10
-45.03079507887072
 20
-6.775797145163721
 11
-48.52545732888054
 21
-4.565295516814268
 72
     1
 10
-48.52545732888054
 20
-4.565295516814268
 11
-48.52574669671678
 21
-4.565358122661792
 72
     1
 10
-48.52574669671678
 20
-4.565358122661792
 11
-47.91261462149855
 21
-7.39928991900409
 72
     1
 10
-47.91261462149855
 20
-7.39928991900409
 11
-44.41773721666716
 21
-9.60984413289331
 72
     1
 10
-44.41773721666716
 20
-9.60984413289331
 11
-42.14906497721024
 21
-6.152323722221632
 97
        0
 75
     0
 76
     1
 98
        1
 10
0.0
 20
0.0
  0
HATCH
  5
F7
330
93
100
AcDbEntity
  8
0
100
AcDbHatch
 10
0.0
 20
0.0
 30
0.0
210
0.0
220
0.0
230
1.0
  2
SOLID
 70
     1
 71
     0
 91
        1
 92
        0
 93
        8
 72
     1
 10
-46.11999732125613
 20
-15.87212484345383
 11
-46.08139565189786
 21
-15.8637732233933
 72
     1
 10
-46.08139565189786
 20
-15.8637732233933
 11
-46.68636620117444
 21
-13.06756447043367
 72
     1
 10
-46.68636620117444
 20
-13.06756447043367
 11
-50.18135879739361
 21
-10.85693604353009
 72
     1
 10
-50.18135879739361
 20
-10.85693604353009
 11
-52.44976215820033
 21
-14.31429914615315
 72
     1
 10
-52.44976215820033
 20
-14.31429914615315
 11
-51.84475063055083
 21
-17.11069730351469
 72
     1
 10
-51.84475063055083
 20
-17.11069730351469
 11
-51.80633836559459
 21
-17.1023866618271
 72
     1
 10
-51.80633836559459
 20
-17.1023866618271
 11
-49.56818574380249
 21
-13.69105724427409
 72
     1
 10
-49.56818574380249
 20
-13.69105724427409
 11
-46.11999732125613
 21
-15.87212484345383
 97
        0
 75
     0
 76
     1
 98
        1
 10
0.0
 20
0.0
  0
HATCH
  5
F8
330
93
100
AcDbEntity
  8
0
100
AcDbHatch
 10
0.0
 20
0.0
 30
0.0
210
0.0
220
0.0
230
1.0
  2
SOLID
 70
     1
 71
     0
 91
        2
 92
        0
 93
        7
 72
     1
 10
-6.859585567104196
 20
4.238922852960538
 11
-11.00449045380928
 21
3.342156692939393
 72
     1
 10
-11.00449045380928
 20
3.342156692939393
 11
-8.638829473816639
 21
-7.592064727757185
 72
     1
 10
-8.638829473816639
 20
-7.592064727757185
 11
-8.63844014254617
 21
-7.591980494435086
 72
     1
 10
-8.63844014254617
 20
-7.591980494435086
 11
-4.494024550545999
 21
-6.695320195210662
 72
     4
 94
        3
 73
     1
 74
     0
 95
        8
 96
        4
 40
3.0
 40
3.0
 40
3.0
 40
3.0
 40
4.0
 40
4.0
 40
4.0
 40
4.0
 10
-4.494024550545999
 20
-6.695320195210662
 42
1.0
 10
-2.825524345390513
 20
-6.334333740063992
 42
1.0
 10
-1.762658323115034
 20
-4.702068307882374
 42
1.0
 10
-2.120071189640999
 20
-3.049576315093403
 42
1.0
 72
     4
 94
        3
 73
     1
 74
     0
 95
        8
 96
        4
 40
4.0
 40
4.0
 40
4.0
 40
4.0
 40
5.0
 40
5.0
 40
5.0
 40
5.0
 10
-2.120071189640999
 20
-3.049576315093403
 42
1.0
 10
-2.485983017556096
 20
-1.358310753073632
 42
1.0
 10
-2.867352798370483
 20
0.4044023583376265
 42
1.0
 10
-3.190995488197396
 20
1.900704823656681
 42
1.0
 72
     4
 94
        3
 73
     1
 74
     0
 95
        8
 96
        4
 40
5.0
 40
5.0
 40
5.0
 40
5.0
 40
6.0
 40
6.0
 40
6.0
 40
6.0
 10
-3.190995488197396
 20
1.900704823656681
 42
1.0
 10
-3.54857504695031
 20
3.553458157285876
 42
1.0
 10
-5.190901218780231
 20
4.599949148191988
 42
1.0
 10
-6.859585567104196
 20
4.238922852960538
 42
1.0
 97
        0
 92
        0
 93
        6
 72
     4
 94
        3
 73
     1
 74
     0
 95
        8
 96
        4
 40
2.0
 40
2.0
 40
2.0
 40
2.0
 40
3.0
 40
3.0
 40
3.0
 40
3.0
 10
-6.919811195494074
 20
2.099808074263809
 42
1.0
 10
-6.228016878711183
 20
2.249480443098069
 42
1.0
 10
-5.547633595833446
 20
1.815851349115847
 42
1.0
 10
-5.399398884916104
 20
1.130701970100344
 42
1.0
 72
     4
 94
        3
 73
     1
 74
     0
 95
        8
 96
        4
 40
3.0
 40
3.0
 40
3.0
 40
3.0
 40
4.0
 40
4.0
 40
4.0
 40
4.0
 10
-5.399398884916104
 20
1.130701970100344
 42
1.0
 10
-5.107009087764085
 20
-0.2207405274728672
 42
1.0
 10
-4.711497421058354
 20
-2.048334586467611
 42
1.0
 10
-4.449160707297047
 20
-3.260870000165379
 42
1.0
 72
     4
 94
        3
 73
     1
 74
     0
 95
        8
 96
        4
 40
4.0
 40
4.0
 40
4.0
 40
4.0
 40
5.0
 40
5.0
 40
5.0
 40
5.0
 10
-4.449160707297047
 20
-3.260870000165379
 42
1.0
 10
-4.300905507193207
 20
-3.946114081381999
 42
1.0
 10
-4.741570606399121
 20
-4.622385452066122
 42
1.0
 10
-5.433383135791953
 20
-4.771973641166296
 42
1.0
 72
     1
 10
-5.433383135791953
 20
-4.771973641166296
 11
-6.809537646582547
 21
-5.069709977697404
 72
     4
 94
        3
 73
     1
 74
     0
 95
        8
 96
        4
 40
0.0
 40
0.0
 40
0.0
 40
0.0
 40
1.0
 40
1.0
 40
1.0
 40
1.0
 10
-6.809537646582547
 20
-5.069709977697404
 42
1.0
 10
-7.284290309572815
 20
-2.875375801708635
 42
1.0
 10
-7.897830097865885
 20
-0.0390758678013329
 42
1.0
 10
-8.296070930952649
 20
1.80204897196991
 42
1.0
 72
     1
 10
-8.296070930952649
 20
1.80204897196991
 11
-6.919811195494074
 21
2.099808074263809
 97
        0
 75
     0
 76
     1
 98
        1
 10
0.0
 20
0.0
  0
ENDBLK
  5
95
330
93
100
AcDbEntity
  8
0
100
AcDbBlockEnd
  0
ENDSEC
  0
SECTION
  2
ENTITIES
  0
INSERT
  5
F9
330
1F
100
AcDbEntity
  8
0
  6
Continuous
 62
     7
100
AcDbBlockReference
  2
ODA
 10
-609.6828460928
 20
207.5585237532
 30
0.0
 41
15.0
 42
15.0
 43
15.0
  0
ARC
  5
FA
330
1F
100
AcDbEntity
  8
0
100
AcDbCircle
 10
526.1106794345
 20
-338.2937889299
 30
0.0
 40
4.99999999999992
100
AcDbArc
 50
313.3006884733
 51
350.3421313068
  0
ARC
  5
FB
330
1F
100
AcDbEntity
  8
0
100
AcDbCircle
 10
526.1106794345
 20
-337.7714340972
 30
0.0
 40
4.999999999999879
100
AcDbArc
 50
9.6578686932
 51
46.6993115267
  0
ARC
  5
FC
330
1F
100
AcDbEntity
  8
0
100
AcDbCircle
 10
-356.7213624925
 20
-344.6034760241
 30
0.0
 40
4.999999999999977
100
AcDbArc
 50
223.3006884733
 51
260.3421313068
  0
ARC
  5
FD
330
1F
100
AcDbEntity
  8
0
100
AcDbCircle
 10
-356.1990076597
 20
-344.6034760241
 30
0.0
 40
4.999999999999987
100
AcDbArc
 50
279.6578686932
 51
316.6993115267
  0
ARC
  5
FE
330
1F
100
AcDbEntity
  8
0
100
AcDbCircle
 10
-363.0310495866
 20
-337.7714340972
 30
0.0
 40
4.999999999999996
100
AcDbArc
 50
133.3006884733
 51
170.3421313068
  0
ARC
  5
FF
330
1F
100
AcDbEntity
  8
0
100
AcDbCircle
 10
-363.0310495866
 20
-338.2937889299
 30
0.0
 40
5.000000000000037
100
AcDbArc
 50
189.6578686932
 51
226.6993115267
  0
ARC
  5
100
330
1F
100
AcDbEntity
  8
0
100
AcDbCircle
 10
-356.1990076597
 20
688.538252997
 30
0.0
 40
5.000000000000099
100
AcDbArc
 50
43.3006884733
 51
80.3421313068
  0
ARC
  5
101
330
1F
100
AcDbEntity
  8
0
100
AcDbCircle
 10
-356.7213624925
 20
688.538252997
 30
0.0
 40
5.000000000000089
100
AcDbArc
 50
99.6578686932
 51
136.6993115267
  0
ARC
  5
102
330
1F
100
AcDbEntity
  8
0
100
AcDbCircle
 10
526.1106794345
 20
-134.2937889299
 30
0.0
 40
4.9999999999999
100
AcDbArc
 50
313.3006884733
 51
350.3421313068
  0
ARC
  5
103
330
1F
100
AcDbEntity
  8
0
100
AcDbCircle
 10
526.1106794345
 20
-133.7714340972
 30
0.0
 40
4.9999999999999
100
AcDbArc
 50
9.6578686932
 51
46.6993115267
  0
ARC
  5
104
330
1F
100
AcDbEntity
  8
0
100
AcDbCircle
 10
-363.0310495866
 20
-133.7714340972
 30
0.0
 40
5.000000000000016
100
AcDbArc
 50
133.3006884733
 51
170.3421313068
  0
ARC
  5
105
330
1F
100
AcDbEntity
  8
0
100
AcDbCircle
 10
-363.0310495866
 20
-134.2937889299
 30
0.0
 40
5.000000000000016
100
AcDbArc
 50
189.6578686932
 51
226.6993115267
  0
ARC
  5
106
330
1F
100
AcDbEntity
  8
0
100
AcDbCircle
 10
526.1106794345
 20
69.7062110701
 30
0.0
 40
4.999999999999909
100
AcDbArc
 50
313.3006884733
 51
350.3421313068
  0
ARC
  5
107
330
1F
100
AcDbEntity
  8
0
100
AcDbCircle
 10
526.1106794345
 20
70.2285659028
 30
0.0
 40
4.999999999999909
100
AcDbArc
 50
9.6578686932
 51
46.6993115267
  0
ARC
  5
108
330
1F
100
AcDbEntity
  8
0
100
AcDbCircle
 10
-6.3213624925
 20
-344.6034760241
 30
0.0
 40
4.999999999999987
100
AcDbArc
 50
223.3006884733
 51
260.3421313068
  0
ARC
  5
109
330
1F
100
AcDbEntity
  8
0
100
AcDbCircle
 10
-5.7990076597
 20
-344.6034760241
 30
0.0
 40
4.999999999999986
100
AcDbArc
 50
279.6578686932
 51
316.6993115267
  0
ARC
  5
10A
330
1F
100
AcDbEntity
  8
0
100
AcDbCircle
 10
-363.0310495866
 20
274.2285659028
 30
0.0
 40
5.000000000000037
100
AcDbArc
 50
133.3006884733
 51
170.3421313068
  0
ARC
  5
10B
330
1F
100
AcDbEntity
  8
0
100
AcDbCircle
 10
-363.0310495866
 20
273.7062110701
 30
0.0
 40
5.000000000000037
100
AcDbArc
 50
189.6578686932
 51
226.6993115267
  0
ARC
  5
10C
330
1F
100
AcDbEntity
  8
0
100
AcDbCircle
 10
169.4009923403
 20
688.538252997
 30
0.0
 40
5.000000000000093
100
AcDbArc
 50
43.3006884733
 51
80.3421313068
  0
ARC
  5
10D
330
1F
100
AcDbEntity
  8
0
100
AcDbCircle
 10
168.8786375075
 20
688.538252997
 30
0.0
 40
5.000000000000093
100
AcDbArc
 50
99.6578686932
 51
136.6993115267
  0
ARC
  5
10E
330
1F
100
AcDbEntity
  8
0
100
AcDbCircle
 10
519.8009923403
 20
688.538252997
 30
0.0
 40
5.000000000000108
100
AcDbArc
 50
43.3006884733
 51
80.3421313068
  0
ARC
  5
10F
330
1F
100
AcDbEntity
  8
0
100
AcDbCircle
 10
519.2786375075
 20
688.538252997
 30
0.0
 40
5.000000000000069
100
AcDbArc
 50
99.6578686932
 51
136.6993115267
  0
ARC
  5
110
330
1F
100
AcDbEntity
  8
0
100
AcDbCircle
 10
-180.9990076597
 20
688.538252997
 30
0.0
 40
5.000000000000093
100
AcDbArc
 50
43.3006884733
 51
80.3421313068
  0
ARC
  5
111
330
1F
100
AcDbEntity
  8
0
100
AcDbCircle
 10
-181.5213624925
 20
688.538252997
 30
0.0
 40
5.000000000000093
100
AcDbArc
 50
99.6578686932
 51
136.6993115267
  0
ARC
  5
112
330
1F
100
AcDbEntity
  8
0
100
AcDbCircle
 10
526.1106794345
 20
273.7062110701
 30
0.0
 40
5.000000000000099
100
AcDbArc
 50
313.3006884733
 51
350.3421313068
  0
ARC
  5
113
330
1F
100
AcDbEntity
  8
0
100
AcDbCircle
 10
526.1106794345
 20
274.2285659028
 30
0.0
 40
5.000000000000089
100
AcDbArc
 50
9.6578686932
 51
46.6993115267
  0
ARC
  5
114
330
1F
100
AcDbEntity
  8
0
100
AcDbCircle
 10
-363.0310495866
 20
70.2285659028
 30
0.0
 40
5.000000000000027
100
AcDbArc
 50
133.3006884733
 51
170.3421313068
  0
ARC
  5
115
330
1F
100
AcDbEntity
  8
0
100
AcDbCircle
 10
-363.0310495866
 20
69.7062110701
 30
0.0
 40
5.000000000000027
100
AcDbArc
 50
189.6578686932
 51
226.6993115267
  0
ARC
  5
116
330
1F
100
AcDbEntity
  8
0
100
AcDbCircle
 10
-5.7990076597
 20
688.538252997
 30
0.0
 40
5.000000000000093
100
AcDbArc
 50
43.3006884733
 51
80.3421313068
  0
ARC
  5
117
330
1F
100
AcDbEntity
  8
0
100
AcDbCircle
 10
-6.3213624925
 20
688.538252997
 30
0.0
 40
5.000000000000093
100
AcDbArc
 50
99.6578686932
 51
136.6993115267
  0
ARC
  5
118
330
1F
100
AcDbEntity
  8
0
100
AcDbCircle
 10
-181.5213624925
 20
-344.6034760241
 30
0.0
 40
4.999999999999998
100
AcDbArc
 50
223.3006884733
 51
260.3421313068
  0
ARC
  5
119
330
1F
100
AcDbEntity
  8
0
100
AcDbCircle
 10
-180.9990076597
 20
-344.6034760241
 30
0.0
 40
4.999999999999981
100
AcDbArc
 50
279.6578686932
 51
316.6993115267
  0
ARC
  5
11A
330
1F
100
AcDbEntity
  8
0
100
AcDbCircle
 10
344.0786375075
 20
-344.6034760241
 30
0.0
 40
4.999999999999998
100
AcDbArc
 50
223.3006884733
 51
260.3421313068
  0
ARC
  5
11B
330
1F
100
AcDbEntity
  8
0
100
AcDbCircle
 10
344.6009923403
 20
-344.6034760241
 30
0.0
 40
5.000000000000039
100
AcDbArc
 50
279.6578686932
 51
316.6993115267
  0
ARC
  5
11C
330
1F
100
AcDbEntity
  8
0
100
AcDbCircle
 10
519.2786375075
 20
-344.6034760241
 30
0.0
 40
4.999999999999998
100
AcDbArc
 50
223.3006884733
 51
260.3421313068
  0
ARC
  5
11D
330
1F
100
AcDbEntity
  8
0
100
AcDbCircle
 10
519.8009923403
 20
-344.6034760241
 30
0.0
 40
4.999999999999998
100
AcDbArc
 50
279.6578686932
 51
316.6993115267
  0
ARC
  5
11E
330
1F
100
AcDbEntity
  8
0
100
AcDbCircle
 10
526.1106794345
 20
477.7062110701
 30
0.0
 40
5.000000000000108
100
AcDbArc
 50
313.3006884733
 51
350.3421313068
  0
ARC
  5
11F
330
1F
100
AcDbEntity
  8
0
100
AcDbCircle
 10
526.1106794345
 20
478.2285659028
 30
0.0
 40
5.000000000000108
100
AcDbArc
 50
9.6578686932
 51
46.6993115267
  0
ARC
  5
120
330
1F
100
AcDbEntity
  8
0
100
AcDbCircle
 10
168.8786375075
 20
-344.6034760241
 30
0.0
 40
4.999999999999981
100
AcDbArc
 50
223.3006884733
 51
260.3421313068
  0
ARC
  5
121
330
1F
100
AcDbEntity
  8
0
100
AcDbCircle
 10
169.4009923403
 20
-344.6034760241
 30
0.0
 40
4.999999999999998
100
AcDbArc
 50
279.6578686932
 51
316.6993115267
  0
ARC
  5
122
330
1F
100
AcDbEntity
  8
0
100
AcDbCircle
 10
-363.0310495866
 20
478.2285659028
 30
0.0
 40
4.999999999999996
100
AcDbArc
 50
133.3006884733
 51
170.3421313068
  0
ARC
  5
123
330
1F
100
AcDbEntity
  8
0
100
AcDbCircle
 10
-363.0310495866
 20
477.7062110701
 30
0.0
 40
5.000000000000037
100
AcDbArc
 50
189.6578686932
 51
226.6993115267
  0
ARC
  5
124
330
1F
100
AcDbEntity
  8
0
100
AcDbCircle
 10
526.1106794345
 20
681.7062110701
 30
0.0
 40
5.000000000000127
100
AcDbArc
 50
313.3006884733
 51
350.3421313068
  0
ARC
  5
125
330
1F
100
AcDbEntity
  8
0
100
AcDbCircle
 10
526.1106794345
 20
682.2285659028
 30
0.0
 40
5.000000000000108
100
AcDbArc
 50
9.6578686932
 51
46.6993115267
  0
ARC
  5
126
330
1F
100
AcDbEntity
  8
0
100
AcDbCircle
 10
344.6009923403
 20
688.538252997
 30
0.0
 40
5.000000000000089
100
AcDbArc
 50
43.3006884733
 51
80.3421313068
  0
ARC
  5
127
330
1F
100
AcDbEntity
  8
0
100
AcDbCircle
 10
344.0786375075
 20
688.538252997
 30
0.0
 40
5.000000000000089
100
AcDbArc
 50
99.6578686932
 51
136.6993115267
  0
ARC
  5
128
330
1F
100
AcDbEntity
  8
0
100
AcDbCircle
 10
-363.0310495866
 20
682.2285659028
 30
0.0
 40
4.999999999999996
100
AcDbArc
 50
133.3006884733
 51
170.3421313068
  0
ARC
  5
129
330
1F
100
AcDbEntity
  8
0
100
AcDbCircle
 10
-363.0310495866
 20
681.7062110701
 30
0.0
 40
5.000000000000037
100
AcDbArc
 50
189.6578686932
 51
226.6993115267
  0
LINE
  5
12A
330
1F
100
AcDbEntity
  8
0
100
AcDbLine
 10
407.539814924
 20
-380.5326115135
 30
0.0
 11
407.539814924
 21
-382.1326115135
 31
0.0
  0
LINE
  5
12B
330
1F
100
AcDbEntity
  8
0
100
AcDbLine
 10
423.539814924
 20
-382.1326115135
 30
0.0
 11
423.539814924
 21
-380.5326115135
 31
0.0
  0
LINE
  5
12C
330
1F
100
AcDbEntity
  8
0
100
AcDbLine
 10
423.539814924
 20
724.4673884865
 30
0.0
 11
423.539814924
 21
726.0673884865
 31
0.0
  0
LINE
  5
12D
330
1F
100
AcDbEntity
  8
0
100
AcDbLine
 10
407.539814924
 20
726.0673884865
 30
0.0
 11
407.539814924
 21
724.4673884865
 31
0.0
  0
LINE
  5
12E
330
1F
100
AcDbEntity
  8
0
100
AcDbLine
 10
-244.460185076
 20
724.4673884865
 30
0.0
 11
-244.460185076
 21
726.0673884865
 31
0.0
  0
LINE
  5
12F
330
1F
100
AcDbEntity
  8
0
100
AcDbLine
 10
-260.460185076
 20
726.0673884865
 30
0.0
 11
-260.460185076
 21
724.4673884865
 31
0.0
  0
LINE
  5
130
330
1F
100
AcDbEntity
  8
0
100
AcDbLine
 10
-260.460185076
 20
-380.5326115135
 30
0.0
 11
-260.460185076
 21
-382.1326115135
 31
0.0
  0
LINE
  5
131
330
1F
100
AcDbEntity
  8
0
100
AcDbLine
 10
-244.460185076
 20
-382.1326115135
 30
0.0
 11
-244.460185076
 21
-380.5326115135
 31
0.0
  0
LINE
  5
132
330
1F
100
AcDbEntity
  8
0
100
AcDbLine
 10
127.0398149239
 20
199.1763697603
 30
0.0
 11
127.0398149239
 21
194.2773902747
 31
0.0
  0
LINE
  5
133
330
1F
100
AcDbEntity
  8
0
100
AcDbLine
 10
127.0398149239
 20
194.2773902747
 30
0.0
 11
36.0398149239
 21
194.2773902747
 31
0.0
  0
LINE
  5
134
330
1F
100
AcDbEntity
  8
0
100
AcDbLine
 10
36.0398149239
 20
199.1763697603
 30
0.0
 11
36.0398149239
 21
194.2773902747
 31
0.0
  0
LINE
  5
135
330
1F
100
AcDbEntity
  8
0
100
AcDbLine
 10
36.0398149239
 20
199.1763697603
 30
0.0
 11
127.0398149239
 21
199.1763697603
 31
0.0
  0
ARC
  5
136
330
1F
100
AcDbEntity
  8
0
100
AcDbCircle
 10
81.5398149239
 20
-433.9431199825
 30
0.0
 40
650.000000000003
100
AcDbArc
 50
85.4345325045
 51
94.5654674955
  0
ARC
  5
137
330
1F
100
AcDbEntity
  8
0
100
AcDbCircle
 10
133.0398149239
 20
211.0039708707
 30
0.0
 40
3.0
100
AcDbArc
 50
0.0
 51
85.4345325045
  0
LINE
  5
138
330
1F
100
AcDbEntity
  8
0
100
AcDbLine
 10
136.0398149239
 20
148.1097891643
 30
0.0
 11
136.0398149239
 21
211.0039708707
 31
0.0
  0
ARC
  5
139
330
1F
100
AcDbEntity
  8
0
100
AcDbCircle
 10
133.0398149239
 20
148.1097891643
 30
0.0
 40
3.0
100
AcDbArc
 50
274.5654674955
 51
0.0
  0
ARC
  5
13A
330
1F
100
AcDbEntity
  8
0
100
AcDbCircle
 10
81.5398149239
 20
793.0568800175
 30
0.0
 40
650.0000000000028
100
AcDbArc
 50
265.4345325045
 51
274.5654674955
  0
ARC
  5
13B
330
1F
100
AcDbEntity
  8
0
100
AcDbCircle
 10
30.0398149239
 20
148.1097891643
 30
0.0
 40
3.000000000000042
100
AcDbArc
 50
180.0
 51
265.4345325045
  0
LINE
  5
13C
330
1F
100
AcDbEntity
  8
0
100
AcDbLine
 10
27.0398149239
 20
211.0039708707
 30
0.0
 11
27.0398149239
 21
148.1097891643
 31
0.0
  0
ARC
  5
13D
330
1F
100
AcDbEntity
  8
0
100
AcDbCircle
 10
30.0398149239
 20
211.0039708707
 30
0.0
 40
3.000000000000042
100
AcDbArc
 50
94.5654674955
 51
180.0
  0
LINE
  5
13E
330
1F
100
AcDbEntity
  8
0
100
AcDbLine
 10
127.0398149239
 20
193.2268800175
 30
0.0
 11
36.0398149239
 21
193.2268800175
 31
0.0
  0
ARC
  5
13F
330
1F
100
AcDbEntity
  8
0
100
AcDbCircle
 10
-200.4570792162
 20
152.6586125092
 30
0.0
 40
330.000000000054
100
AcDbArc
 50
359.7514167075
 51
7.0614708025
  0
ARC
  5
140
330
1F
100
AcDbEntity
  8
0
100
AcDbCircle
 10
363.536709064
 20
152.6586125092
 30
0.0
 40
330.0000000000277
100
AcDbArc
 50
172.9385291975
 51
180.2485832925
  0
LINE
  5
141
330
1F
100
AcDbEntity
  8
0
100
AcDbLine
 10
33.5398149239
 20
151.2268800175
 30
0.0
 11
129.5398149239
 21
151.2268800175
 31
0.0
  0
LINE
  5
142
330
1F
100
AcDbEntity
  8
0
100
AcDbLine
 10
128.4049603461
 20
180.0403388057
 30
0.0
 11
34.6746695017
 21
180.0403388057
 31
0.0
  0
LINE
  5
143
330
1F
100
AcDbEntity
  8
0
100
AcDbLine
 10
129.5398149239
 20
151.2268800175
 30
0.0
 11
129.5398149239
 21
154.0903450009
 31
0.0
  0
LINE
  5
144
330
1F
100
AcDbEntity
  8
0
100
AcDbLine
 10
33.5398149239
 20
151.2268800175
 30
0.0
 11
33.5398149239
 21
154.0903450008
 31
0.0
  0
SPLINE
  5
145
330
1F
100
AcDbEntity
  8
0
100
AcDbSpline
210
0.0
220
0.0
230
1.0
 70
     8
 71
     3
 72
    12
 73
     8
 74
     0
 42
0.00000001
 43
0.00000001
 40
0.0
 40
0.0
 40
0.0
 40
0.0
 40
0.1880285141707254
 40
0.376251047423172
 40
0.5686823856225807
 40
0.7726895670111462
 40
0.9999999999999999
 40
0.9999999999999999
 40
0.9999999999999999
 40
0.9999999999999999
 10
528.7691042458023
 20
-348.0326115135394
 30
0.0
 10
528.7583331749527
 20
-348.0159403054446
 30
0.0
 10
528.7367799190174
 20
-347.9825806869039
 30
0.0
 10
528.6192494882675
 20
-347.7262534768138
 30
0.0
 10
528.4308917426905
 20
-347.3515734764804
 30
0.0
 10
528.1538089479277
 20
-346.8769060457243
 30
0.0
 10
527.9481827923097
 20
-346.5204623441852
 30
0.0
 10
527.8398149239239
 20
-346.3326115135396
 30
0.0
  0
LINE
  5
146
330
1F
100
AcDbEntity
  8
0
100
AcDbLine
 10
-365.689474398
 20
-348.0326115135
 30
0.0
 11
528.7691042458
 21
-348.0326115135
 31
0.0
  0
SPLINE
  5
147
330
1F
100
AcDbEntity
  8
0
100
AcDbSpline
210
0.0
220
0.0
230
1.0
 70
     8
 71
     3
 72
    12
 73
     8
 74
     0
 42
0.00000001
 43
0.00000001
 40
0.0
 40
0.0
 40
0.0
 40
0.0
 40
0.2542643672578797
 40
0.5042359317169205
 40
0.7350876570764233
 40
0.9478886987174369
 40
1.0
 40
1.0
 40
1.0
 40
1.0
 10
-364.760185076079
 20
-346.3326115135396
 30
0.0
 10
-364.8733614552798
 20
-346.5457913528151
 30
0.0
 10
-365.0978034312831
 20
-346.968551867942
 30
0.0
 10
-365.3677799750547
 20
-347.5240754983903
 30
0.0
 10
-365.5662182322708
 20
-347.8975375807926
 30
0.0
 10
-365.658763549528
 20
-348.0245694613244
 30
0.0
 10
-365.6844262499607
 20
-348.0312895875138
 30
0.0
 10
-365.6894743979603
 20
-348.0326115135392
 30
0.0
  0
SPLINE
  5
148
330
1F
100
AcDbEntity
  8
0
100
AcDbSpline
210
0.0
220
0.0
230
1.0
 70
     8
 71
     3
 72
    12
 73
     8
 74
     0
 42
0.00000001
 43
0.00000001
 40
0.0
 40
0.0
 40
0.0
 40
0.0
 40
0.1609724555104017
 40
0.2971397164612701
 40
0.4952155825759474
 40
0.7084705255121655
 40
1.0
 40
1.0
 40
1.0
 40
1.0
 10
-366.460185076079
 20
-347.2619008354211
 30
0.0
 10
-366.448567990104
 20
-347.2380641101628
 30
0.0
 10
-366.4271239634115
 20
-347.1940638011525
 30
0.0
 10
-366.2503380227975
 20
-347.1042142825299
 30
0.0
 10
-365.9413609055231
 20
-346.9675419246989
 30
0.0
 10
-365.4341368689612
 20
-346.6778577191575
 30
0.0
 10
-365.006917946125
 20
-346.4590056979373
 30
0.0
 10
-364.7601850760789
 20
-346.3326115135398
 30
0.0
  0
LINE
  5
149
330
1F
100
AcDbEntity
  8
0
100
AcDbLine
 10
-366.4601850761
 20
691.1966778083
 30
0.0
 11
-366.4601850761
 21
-347.2619008354
 31
0.0
  0
SPLINE
  5
14A
330
1F
100
AcDbEntity
  8
0
100
AcDbSpline
210
0.0
220
0.0
230
1.0
 70
     8
 71
     3
 72
    13
 73
     9
 74
     0
 42
0.00000001
 43
0.00000001
 40
0.0
 40
0.0
 40
0.0
 40
0.0
 40
0.2819917439021889
 40
0.4977893237930814
 40
0.6216706348981278
 40
0.7460552556178732
 40
0.8718673278990294
 40
1.0
 40
1.0
 40
1.0
 40
1.0
 10
-364.7601850760789
 20
690.2673884864613
 30
0.0
 10
-364.9937905436383
 20
690.4026972871748
 30
0.0
 10
-365.4061654100851
 20
690.6415527780424
 30
0.0
 10
-365.8628204764261
 20
690.9018529504864
 30
0.0
 10
-366.1449071846387
 20
691.040947409011
 30
0.0
 10
-366.3196551376174
 20
691.1236714484209
 30
0.0
 10
-366.43740604142
 20
691.178751607796
 30
0.0
 10
-366.4525459473244
 20
691.1906661157433
 30
0.0
 10
-366.460185076079
 20
691.1966778083413
 30
0.0
  0
SPLINE
  5
14B
330
1F
100
AcDbEntity
  8
0
100
AcDbSpline
210
0.0
220
0.0
230
1.0
 70
     8
 71
     3
 72
    12
 73
     8
 74
     0
 42
0.00000001
 43
0.00000001
 40
0.0
 40
0.0
 40
0.0
 40
0.0
 40
0.149100429630117
 40
0.2765762250650375
 40
0.4681781473645939
 40
0.6893569185928055
 40
1.0
 40
1.0
 40
1.0
 40
1.0
 10
-365.7601850760789
 20
-347.2619008354211
 30
0.0
 10
-365.7532891289684
 20
-347.2379933605981
 30
0.0
 10
-365.7404973816547
 20
-347.1936458080544
 30
0.0
 10
-365.6348333553657
 20
-347.1028695680304
 30
0.0
 10
-365.4457902807012
 20
-346.9595095069815
 30
0.0
 10
-365.1525305208867
 20
-346.6737707883879
 30
0.0
 10
-364.9048550712636
 20
-346.4584075723512
 30
0.0
 10
-364.7601850760789
 20
-346.3326115135398
 30
0.0
  0
LINE
  5
14C
330
1F
100
AcDbEntity
  8
0
100
AcDbLine
 10
-366.4601850761
 20
-347.2619008354
 30
0.0
 11
-365.7601850761
 21
-347.2619008354
 31
0.0
  0
LINE
  5
14D
330
1F
100
AcDbEntity
  8
0
100
AcDbLine
 10
-365.689474398
 20
-348.0326115135
 30
0.0
 11
-365.689474398
 21
-347.3326115135
 31
0.0
  0
SPLINE
  5
14E
330
1F
100
AcDbEntity
  8
0
100
AcDbSpline
210
0.0
220
0.0
230
1.0
 70
     8
 71
     3
 72
    12
 73
     8
 74
     0
 42
0.00000001
 43
0.00000001
 40
0.0
 40
0.0
 40
0.0
 40
0.0
 40
0.3149342562115072
 40
0.5593733681364426
 40
0.7633670954623265
 40
0.9357345810191934
 40
0.9999999999999999
 40
0.9999999999999999
 40
0.9999999999999999
 40
0.9999999999999999
 10
-364.760185076079
 20
-346.3326115135396
 30
0.0
 10
-364.8902915298728
 20
-346.4775593381179
 30
0.0
 10
-365.1213813012762
 20
-346.7350097463832
 30
0.0
 10
-365.3896830891825
 20
-347.0587841422362
 30
0.0
 10
-365.5668710416223
 20
-347.2521885090326
 30
0.0
 10
-365.6564245683732
 20
-347.3260448295482
 30
0.0
 10
-365.6824156642299
 20
-347.331209010883
 30
0.0
 10
-365.6894743979603
 20
-347.3326115135395
 30
0.0
  0
LWPOLYLINE
  5
14F
330
1F
100
AcDbEntity
  8
0
100
AcDbPolyline
 90
        2
 70
   128
 43
0.0
 10
-364.7601850761
 20
690.2673884865
 10
-364.7601850761
 20
690.2673884865
  0
LINE
  5
150
330
1F
100
AcDbEntity
  8
0
100
AcDbLine
 10
-366.4601850761
 20
691.1966778083
 30
0.0
 11
-365.7601850761
 21
691.1966778083
 31
0.0
  0
SPLINE
  5
151
330
1F
100
AcDbEntity
  8
0
100
AcDbSpline
210
0.0
220
0.0
230
1.0
 70
     8
 71
     3
 72
    13
 73
     9
 74
     0
 42
0.00000001
 43
0.00000001
 40
0.0
 40
0.0
 40
0.0
 40
0.0
 40
0.3059278728864129
 40
0.5302149823806347
 40
0.6516086810410125
 40
0.7689731228928663
 40
0.8843784541914981
 40
1.0
 40
1.0
 40
1.0
 40
1.0
 10
-364.7601850760789
 20
690.2673884864613
 30
0.0
 10
-364.8965368173684
 20
690.4015889833794
 30
0.0
 10
-365.1328530948729
 20
690.6341768592
 30
0.0
 10
-365.4024940750364
 20
690.8962467757821
 30
0.0
 10
-365.5725353240413
 20
691.0391990122013
 30
0.0
 10
-365.6762876557368
 20
691.1226899704529
 30
0.0
 10
-365.7465312151785
 20
691.178515105504
 30
0.0
 10
-365.7556309503447
 20
691.1906197978633
 30
0.0
 10
-365.7601850760789
 20
691.1966778083413
 30
0.0
  0
SPLINE
  5
152
330
1F
100
AcDbEntity
  8
0
100
AcDbSpline
210
0.0
220
0.0
230
1.0
 70
     8
 71
     3
 72
    12
 73
     8
 74
     0
 42
0.00000001
 43
0.00000001
 40
0.0
 40
0.0
 40
0.0
 40
0.0
 40
0.1880285141759807
 40
0.3762510474328719
 40
0.5686823856265617
 40
0.7726895669989797
 40
1.0
 40
1.0
 40
1.0
 40
1.0
 10
-365.6894743979603
 20
691.9673884864604
 30
0.0
 10
-365.6787033271128
 20
691.9507172783642
 30
0.0
 10
-365.6571500711818
 20
691.917357659821
 30
0.0
 10
-365.5396196404491
 20
691.6610304497211
 30
0.0
 10
-365.3512618948528
 20
691.2863504493972
 30
0.0
 10
-365.0741791000838
 20
690.8116830186578
 30
0.0
 10
-364.8685529444726
 20
690.455239317119
 30
0.0
 10
-364.7601850760832
 20
690.2673884864611
 30
0.0
  0
SPLINE
  5
153
330
1F
100
AcDbEntity
  8
0
100
AcDbSpline
210
0.0
220
0.0
230
1.0
 70
     8
 71
     3
 72
    12
 73
     8
 74
     0
 42
0.00000001
 43
0.00000001
 40
0.0
 40
0.0
 40
0.0
 40
0.0
 40
0.155260887071014
 40
0.3102887794934781
 40
0.4743006331901415
 40
0.7165804899734638
 40
1.0
 40
1.0
 40
1.0
 40
1.0
 10
-365.6894743979603
 20
691.2673884864607
 30
0.0
 10
-365.6800083431465
 20
691.2590645675923
 30
0.0
 10
-365.6610904388997
 20
691.242429221273
 30
0.0
 10
-365.5634167847276
 20
691.1176392226018
 30
0.0
 10
-365.3954758635713
 20
690.9152227597365
 30
0.0
 10
-365.114003543985
 20
690.6273343402088
 30
0.0
 10
-364.8841211992933
 20
690.3934709206073
 30
0.0
 10
-364.7601850760832
 20
690.2673884864608
 30
0.0
  0
LINE
  5
154
330
1F
100
AcDbEntity
  8
0
100
AcDbLine
 10
-365.689474398
 20
691.9673884865
 30
0.0
 11
-365.689474398
 21
691.2673884865
 31
0.0
  0
LINE
  5
155
330
1F
100
AcDbEntity
  8
0
100
AcDbLine
 10
528.7691042458
 20
691.9673884865
 30
0.0
 11
-365.689474398
 21
691.9673884865
 31
0.0
  0
SPLINE
  5
156
330
1F
100
AcDbEntity
  8
0
100
AcDbSpline
210
0.0
220
0.0
230
1.0
 70
     8
 71
     3
 72
    11
 73
     7
 74
     0
 42
0.00000001
 43
0.00000001
 40
0.0
 40
0.0
 40
0.0
 40
0.0
 40
0.2843190105780679
 40
0.5441307697383343
 40
0.7817021045415116
 40
1.0
 40
1.0
 40
1.0
 40
1.0
 10
527.8398149239212
 20
690.2673884864636
 30
0.0
 10
527.9661254857366
 20
690.5065638676595
 30
0.0
 10
528.2078591042064
 20
690.9642985931986
 30
0.0
 10
528.4845339004636
 20
691.5329237286777
 30
0.0
 10
528.6832227826694
 20
691.89893907363
 30
0.0
 10
528.7412954993573
 20
691.9452243046186
 30
0.0
 10
528.7691042458025
 20
691.9673884864604
 30
0.0
  0
SPLINE
  5
157
330
1F
100
AcDbEntity
  8
0
100
AcDbSpline
210
0.0
220
0.0
230
1.0
 70
     8
 71
     3
 72
    12
 73
     8
 74
     0
 42
0.00000001
 43
0.00000001
 40
0.0
 40
0.0
 40
0.0
 40
0.0
 40
0.1880285142105793
 40
0.3762510474957825
 40
0.5686823856601008
 40
0.7726895669389899
 40
1.0
 40
1.0
 40
1.0
 40
1.0
 10
529.539814923921
 20
691.1966778083413
 30
0.0
 10
529.5231437158194
 20
691.1859067375016
 30
0.0
 10
529.4897840972661
 20
691.1643534815867
 30
0.0
 10
529.233456887084
 20
691.0468230509367
 30
0.0
 10
528.8587768868148
 20
690.8584653052333
 30
0.0
 10
528.3841094561723
 20
690.5813825104335
 30
0.0
 10
528.0276657546399
 20
690.3757563548642
 30
0.0
 10
527.8398149239216
 20
690.2673884864599
 30
0.0
  0
LINE
  5
158
330
1F
100
AcDbEntity
  8
0
100
AcDbLine
 10
529.5398149239
 20
-347.2619008354
 30
0.0
 11
529.5398149239
 21
691.1966778083
 31
0.0
  0
SPLINE
  5
159
330
1F
100
AcDbEntity
  8
0
100
AcDbSpline
210
0.0
220
0.0
230
1.0
 70
     8
 71
     3
 72
    11
 73
     7
 74
     0
 42
0.00000001
 43
0.00000001
 40
0.0
 40
0.0
 40
0.0
 40
0.0
 40
0.2842368907706446
 40
0.5440223526041409
 40
0.7816221871029514
 40
1.0
 40
1.0
 40
1.0
 40
1.0
 10
527.8398149239208
 20
-346.33261151354
 30
0.0
 10
528.0789207297347
 20
-346.4588809959089
 30
0.0
 10
528.5365633061348
 20
-346.7005576504568
 30
0.0
 10
529.1051878721098
 20
-346.9771871356273
 30
0.0
 10
529.4713259206405
 20
-347.1758960526099
 30
0.0
 10
529.5176359995635
 20
-347.2340497428227
 30
0.0
 10
529.539814923921
 20
-347.2619008354213
 30
0.0
  0
LWPOLYLINE
  5
15A
330
1F
100
AcDbEntity
  8
0
100
AcDbPolyline
 90
        2
 70
   128
 43
0.0
 10
527.8398149239
 20
-346.3326115135
 10
527.8398149239
 20
-346.3326115135
  0
LINE
  5
15B
330
1F
100
AcDbEntity
  8
0
100
AcDbLine
 10
529.5398149239
 20
-347.2619008354
 30
0.0
 11
528.8398149239
 21
-347.2619008354
 31
0.0
  0
SPLINE
  5
15C
330
1F
100
AcDbEntity
  8
0
100
AcDbSpline
210
0.0
220
0.0
230
1.0
 70
     8
 71
     3
 72
    12
 73
     8
 74
     0
 42
0.00000001
 43
0.00000001
 40
0.0
 40
0.0
 40
0.0
 40
0.0
 40
0.3027346052331981
 40
0.566970808050572
 40
0.7969177191343154
 40
0.9014412882797405
 40
0.9999999999999999
 40
0.9999999999999999
 40
0.9999999999999999
 40
0.9999999999999999
 10
527.8398149239209
 20
-346.33261151354
 30
0.0
 10
527.9789012018452
 20
-346.4576620165391
 30
0.0
 10
528.2393863199003
 20
-346.6918604976735
 30
0.0
 10
528.579672260456
 20
-346.9729427106971
 30
0.0
 10
528.7594492195032
 20
-347.1402518558735
 30
0.0
 10
528.8301545477318
 20
-347.2266104942955
 30
0.0
 10
528.8366584755094
 20
-347.2503700069099
 30
0.0
 10
528.839814923921
 20
-347.2619008354213
 30
0.0
  0
SPLINE
  5
15D
330
1F
100
AcDbEntity
  8
0
100
AcDbSpline
210
0.0
220
0.0
230
1.0
 70
     8
 71
     3
 72
    12
 73
     8
 74
     0
 42
0.00000001
 43
0.00000001
 40
0.0
 40
0.0
 40
0.0
 40
0.0
 40
0.1552608870646454
 40
0.3102887794805255
 40
0.4743006331852477
 40
0.716580489938398
 40
1.0
 40
1.0
 40
1.0
 40
1.0
 10
528.7691042458023
 20
-347.3326115135395
 30
0.0
 10
528.7596381909867
 20
-347.3242875946717
 30
0.0
 10
528.7407202867366
 20
-347.3076522483539
 30
0.0
 10
528.6430466325543
 20
-347.1828622496934
 30
0.0
 10
528.4751057114161
 20
-346.9804457868414
 30
0.0
 10
528.1936333918525
 20
-346.6925573672971
 30
0.0
 10
527.9637510471524
 20
-346.4586939476987
 30
0.0
 10
527.8398149239239
 20
-346.3326115135396
 30
0.0
  0
LINE
  5
15E
330
1F
100
AcDbEntity
  8
0
100
AcDbLine
 10
528.7691042458
 20
-348.0326115135
 30
0.0
 11
528.7691042458
 21
-347.3326115135
 31
0.0
  0
LWPOLYLINE
  5
15F
330
1F
100
AcDbEntity
  8
0
100
AcDbPolyline
 90
        2
 70
   128
 43
0.0
 10
527.8398149239
 20
690.2673884865
 10
527.8398149239
 20
690.2673884865
  0
LINE
  5
160
330
1F
100
AcDbEntity
  8
0
100
AcDbLine
 10
528.7691042458
 20
691.9673884865
 30
0.0
 11
528.7691042458
 21
691.2673884865
 31
0.0
  0
SPLINE
  5
161
330
1F
100
AcDbEntity
  8
0
100
AcDbSpline
210
0.0
220
0.0
230
1.0
 70
     8
 71
     3
 72
    12
 73
     8
 74
     0
 42
0.00000001
 43
0.00000001
 40
0.0
 40
0.0
 40
0.0
 40
0.0
 40
0.3028227561225828
 40
0.5670860327197704
 40
0.7970010075703311
 40
0.9014884783322364
 40
1.0
 40
1.0
 40
1.0
 40
1.0
 10
527.8398149239212
 20
690.2673884864624
 30
0.0
 10
527.9649057715674
 20
690.406515345342
 30
0.0
 10
528.1991592121926
 20
690.6670535540845
 30
0.0
 10
528.4802893280727
 20
691.0073391760064
 30
0.0
 10
528.647584262053
 20
691.1870688603193
 30
0.0
 10
528.7338863550916
 20
691.2577353836432
 30
0.0
 10
528.7575976221804
 20
691.2642345604684
 30
0.0
 10
528.7691042458025
 20
691.2673884864605
 30
0.0
  0
SPLINE
  5
162
330
1F
100
AcDbEntity
  8
0
100
AcDbSpline
210
0.0
220
0.0
230
1.0
 70
     8
 71
     3
 72
    12
 73
     8
 74
     0
 42
0.00000001
 43
0.00000001
 40
0.0
 40
0.0
 40
0.0
 40
0.0
 40
0.1552608871102778
 40
0.3102887795745849
 40
0.4743006332305215
 40
0.7165804901970239
 40
1.0
 40
1.0
 40
1.0
 40
1.0
 10
528.839814923921
 20
691.1966778083413
 30
0.0
 10
528.8314910050484
 20
691.1872117535335
 30
0.0
 10
528.8148556587205
 20
691.1682938492988
 30
0.0
 10
528.6900656599897
 20
691.0706201951758
 30
0.0
 10
528.4876491970294
 20
690.9026792739052
 30
0.0
 10
528.1997607776005
 20
690.621206954196
 30
0.0
 10
527.9658973579855
 20
690.391324609554
 30
0.0
 10
527.8398149239214
 20
690.2673884864599
 30
0.0
  0
LINE
  5
163
330
1F
100
AcDbEntity
  8
0
100
AcDbLine
 10
529.5398149239
 20
691.1966778083
 30
0.0
 11
528.8398149239
 21
691.1966778083
 31
0.0
  0
CIRCLE
  5
164
330
1F
100
AcDbEntity
  8
0
100
AcDbCircle
 10
-266.4601850761
 20
683.2673884865
 30
0.0
 40
8.0
  0
CIRCLE
  5
165
330
1F
100
AcDbEntity
  8
0
100
AcDbCircle
 10
-266.4601850761
 20
-339.3326115135
 30
0.0
 40
8.0
  0
CIRCLE
  5
166
330
1F
100
AcDbEntity
  8
0
100
AcDbCircle
 10
429.5398149239
 20
-339.3326115135
 30
0.0
 40
8.0
  0
CIRCLE
  5
167
330
1F
100
AcDbEntity
  8
0
100
AcDbCircle
 10
-357.7601850761
 20
171.9673884865
 30
0.0
 40
8.000000000000028
  0
CIRCLE
  5
168
330
1F
100
AcDbEntity
  8
0
100
AcDbCircle
 10
520.8398149239
 20
171.9673884865
 30
0.0
 40
8.000000000000028
  0
CIRCLE
  5
169
330
1F
100
AcDbEntity
  8
0
100
AcDbCircle
 10
81.5398149239
 20
683.2673884865
 30
0.0
 40
8.0
  0
CIRCLE
  5
16A
330
1F
100
AcDbEntity
  8
0
100
AcDbCircle
 10
520.8398149239
 20
-248.0326115135
 30
0.0
 40
8.0
  0
CIRCLE
  5
16B
330
1F
100
AcDbEntity
  8
0
100
AcDbCircle
 10
-357.7601850761
 20
-248.0326115135
 30
0.0
 40
8.000000000000028
  0
CIRCLE
  5
16C
330
1F
100
AcDbEntity
  8
0
100
AcDbCircle
 10
81.5398149239
 20
-339.3326115135
 30
0.0
 40
8.0
  0
CIRCLE
  5
16D
330
1F
100
AcDbEntity
  8
0
100
AcDbCircle
 10
429.5398149239
 20
683.2673884865
 30
0.0
 40
8.0
  0
CIRCLE
  5
16E
330
1F
100
AcDbEntity
  8
0
100
AcDbCircle
 10
520.8398149239
 20
591.9673884865
 30
0.0
 40
8.0
  0
CIRCLE
  5
16F
330
1F
100
AcDbEntity
  8
0
100
AcDbCircle
 10
-357.7601850761
 20
591.9673884865
 30
0.0
 40
8.0
  0
LINE
  5
170
330
1F
100
AcDbEntity
  8
0
100
AcDbLine
 10
531.0398149239
 20
-337.0081220441
 30
0.0
 11
531.0398149239
 21
-336.9326115135
 31
0.0
  0
LINE
  5
171
330
1F
100
AcDbEntity
  8
0
100
AcDbLine
 10
531.0398149239
 20
-339.1326115135
 30
0.0
 11
531.0398149239
 21
-337.0081220441
 31
0.0
  0
LINE
  5
172
330
1F
100
AcDbEntity
  8
0
100
AcDbLine
 10
-357.5601850761
 20
-349.5326115135
 30
0.0
 11
-355.3601850761
 21
-349.5326115135
 31
0.0
  0
LINE
  5
173
330
1F
100
AcDbEntity
  8
0
100
AcDbLine
 10
-367.9601850761
 20
-337.5267004369
 30
0.0
 11
-367.9601850761
 21
-339.1326115135
 31
0.0
  0
LINE
  5
174
330
1F
100
AcDbEntity
  8
0
100
AcDbLine
 10
-367.9601850761
 20
-336.9326115135
 30
0.0
 11
-367.9601850761
 21
-337.5267004369
 31
0.0
  0
LINE
  5
175
330
1F
100
AcDbEntity
  8
0
100
AcDbLine
 10
-355.3601850761
 20
693.4673884865
 30
0.0
 11
-357.5601850761
 21
693.4673884865
 31
0.0
  0
LINE
  5
176
330
1F
100
AcDbEntity
  8
0
100
AcDbLine
 10
531.0398149239
 20
-133.0081220441
 30
0.0
 11
531.0398149239
 21
-132.9326115135
 31
0.0
  0
LINE
  5
177
330
1F
100
AcDbEntity
  8
0
100
AcDbLine
 10
531.0398149239
 20
-135.1326115135
 30
0.0
 11
531.0398149239
 21
-133.0081220441
 31
0.0
  0
LINE
  5
178
330
1F
100
AcDbEntity
  8
0
100
AcDbLine
 10
-367.9601850761
 20
-133.5267004369
 30
0.0
 11
-367.9601850761
 21
-135.1326115135
 31
0.0
  0
LINE
  5
179
330
1F
100
AcDbEntity
  8
0
100
AcDbLine
 10
-367.9601850761
 20
-132.9326115135
 30
0.0
 11
-367.9601850761
 21
-133.5267004369
 31
0.0
  0
LINE
  5
17A
330
1F
100
AcDbEntity
  8
0
100
AcDbLine
 10
531.0398149239
 20
70.9918779559
 30
0.0
 11
531.0398149239
 21
71.0673884865
 31
0.0
  0
LINE
  5
17B
330
1F
100
AcDbEntity
  8
0
100
AcDbLine
 10
531.0398149239
 20
68.8673884865
 30
0.0
 11
531.0398149239
 21
70.9918779559
 31
0.0
  0
LINE
  5
17C
330
1F
100
AcDbEntity
  8
0
100
AcDbLine
 10
-7.1601850761
 20
-349.5326115135
 30
0.0
 11
-4.9601850761
 21
-349.5326115135
 31
0.0
  0
LINE
  5
17D
330
1F
100
AcDbEntity
  8
0
100
AcDbLine
 10
-367.9601850761
 20
274.4732995631
 30
0.0
 11
-367.9601850761
 21
272.8673884865
 31
0.0
  0
LINE
  5
17E
330
1F
100
AcDbEntity
  8
0
100
AcDbLine
 10
-367.9601850761
 20
275.0673884865
 30
0.0
 11
-367.9601850761
 21
274.4732995631
 31
0.0
  0
LINE
  5
17F
330
1F
100
AcDbEntity
  8
0
100
AcDbLine
 10
170.2398149239
 20
693.4673884865
 30
0.0
 11
168.0398149239
 21
693.4673884865
 31
0.0
  0
LINE
  5
180
330
1F
100
AcDbEntity
  8
0
100
AcDbLine
 10
520.6398149239
 20
693.4673884865
 30
0.0
 11
518.4398149239
 21
693.4673884865
 31
0.0
  0
LINE
  5
181
330
1F
100
AcDbEntity
  8
0
100
AcDbLine
 10
-180.1601850761
 20
693.4673884865
 30
0.0
 11
-182.3601850761
 21
693.4673884865
 31
0.0
  0
LINE
  5
182
330
1F
100
AcDbEntity
  8
0
100
AcDbLine
 10
531.0398149239
 20
274.9918779559
 30
0.0
 11
531.0398149239
 21
275.0673884865
 31
0.0
  0
LINE
  5
183
330
1F
100
AcDbEntity
  8
0
100
AcDbLine
 10
531.0398149239
 20
272.8673884865
 30
0.0
 11
531.0398149239
 21
274.9918779559
 31
0.0
  0
LINE
  5
184
330
1F
100
AcDbEntity
  8
0
100
AcDbLine
 10
-367.9601850761
 20
70.4732995631
 30
0.0
 11
-367.9601850761
 21
68.8673884865
 31
0.0
  0
LINE
  5
185
330
1F
100
AcDbEntity
  8
0
100
AcDbLine
 10
-367.9601850761
 20
71.0673884865
 30
0.0
 11
-367.9601850761
 21
70.4732995631
 31
0.0
  0
LINE
  5
186
330
1F
100
AcDbEntity
  8
0
100
AcDbLine
 10
-4.9601850761
 20
693.4673884865
 30
0.0
 11
-7.1601850761
 21
693.4673884865
 31
0.0
  0
LINE
  5
187
330
1F
100
AcDbEntity
  8
0
100
AcDbLine
 10
-182.3601850761
 20
-349.5326115135
 30
0.0
 11
-180.1601850761
 21
-349.5326115135
 31
0.0
  0
LINE
  5
188
330
1F
100
AcDbEntity
  8
0
100
AcDbLine
 10
343.2398149239
 20
-349.5326115135
 30
0.0
 11
345.4398149239
 21
-349.5326115135
 31
0.0
  0
LINE
  5
189
330
1F
100
AcDbEntity
  8
0
100
AcDbLine
 10
518.4398149239
 20
-349.5326115135
 30
0.0
 11
520.6398149239
 21
-349.5326115135
 31
0.0
  0
LINE
  5
18A
330
1F
100
AcDbEntity
  8
0
100
AcDbLine
 10
531.0398149239
 20
478.9918779559
 30
0.0
 11
531.0398149239
 21
479.0673884865
 31
0.0
  0
LINE
  5
18B
330
1F
100
AcDbEntity
  8
0
100
AcDbLine
 10
531.0398149239
 20
476.8673884865
 30
0.0
 11
531.0398149239
 21
478.9918779559
 31
0.0
  0
LINE
  5
18C
330
1F
100
AcDbEntity
  8
0
100
AcDbLine
 10
168.0398149239
 20
-349.5326115135
 30
0.0
 11
170.2398149239
 21
-349.5326115135
 31
0.0
  0
LINE
  5
18D
330
1F
100
AcDbEntity
  8
0
100
AcDbLine
 10
-367.9601850761
 20
478.4732995631
 30
0.0
 11
-367.9601850761
 21
476.8673884865
 31
0.0
  0
LINE
  5
18E
330
1F
100
AcDbEntity
  8
0
100
AcDbLine
 10
-367.9601850761
 20
479.0673884865
 30
0.0
 11
-367.9601850761
 21
478.4732995631
 31
0.0
  0
LINE
  5
18F
330
1F
100
AcDbEntity
  8
0
100
AcDbLine
 10
531.0398149239
 20
682.9918779559
 30
0.0
 11
531.0398149239
 21
683.0673884865
 31
0.0
  0
LINE
  5
190
330
1F
100
AcDbEntity
  8
0
100
AcDbLine
 10
531.0398149239
 20
680.8673884865
 30
0.0
 11
531.0398149239
 21
682.9918779559
 31
0.0
  0
LINE
  5
191
330
1F
100
AcDbEntity
  8
0
100
AcDbLine
 10
345.4398149239
 20
693.4673884865
 30
0.0
 11
343.2398149239
 21
693.4673884865
 31
0.0
  0
LINE
  5
192
330
1F
100
AcDbEntity
  8
0
100
AcDbLine
 10
-367.9601850761
 20
682.4732995631
 30
0.0
 11
-367.9601850761
 21
680.8673884865
 31
0.0
  0
LINE
  5
193
330
1F
100
AcDbEntity
  8
0
100
AcDbLine
 10
-367.9601850761
 20
683.0673884865
 30
0.0
 11
-367.9601850761
 21
682.4732995631
 31
0.0
  0
LINE
  5
194
330
1F
100
AcDbEntity
  8
0
100
AcDbLine
 10
-368.4601850761
 20
676.6673884865
 30
0.0
 11
-366.4601850761
 21
676.6673884865
 31
0.0
  0
LINE
  5
195
330
1F
100
AcDbEntity
  8
0
100
AcDbLine
 10
-368.4601850761
 20
-332.3326115135
 30
0.0
 11
-368.4601850761
 21
676.6673884865
 31
0.0
  0
LINE
  5
196
330
1F
100
AcDbEntity
  8
0
100
AcDbLine
 10
-366.4601850761
 20
-332.3326115135
 30
0.0
 11
-368.4601850761
 21
-332.3326115135
 31
0.0
  0
LINE
  5
197
330
1F
100
AcDbEntity
  8
0
100
AcDbLine
 10
529.5398149239
 20
676.2673884865
 30
0.0
 11
531.5398149239
 21
676.2673884865
 31
0.0
  0
LINE
  5
198
330
1F
100
AcDbEntity
  8
0
100
AcDbLine
 10
531.5398149239
 20
676.2673884865
 30
0.0
 11
531.5398149239
 21
-332.7326115135
 31
0.0
  0
LINE
  5
199
330
1F
100
AcDbEntity
  8
0
100
AcDbLine
 10
531.5398149239
 20
-332.7326115135
 30
0.0
 11
529.5398149239
 21
-332.7326115135
 31
0.0
  0
LINE
  5
19A
330
1F
100
AcDbEntity
  8
0
100
AcDbLine
 10
-366.4601850761
 20
676.2673884865
 30
0.0
 11
-368.4601850761
 21
676.2673884865
 31
0.0
  0
LINE
  5
19B
330
1F
100
AcDbEntity
  8
0
100
AcDbLine
 10
531.5398149239
 20
694.2673884865
 30
0.0
 11
531.5398149239
 21
676.2673884865
 31
0.0
  0
LINE
  5
19C
330
1F
100
AcDbEntity
  8
0
100
AcDbLine
 10
-368.4601850761
 20
676.2673884865
 30
0.0
 11
-368.4601850761
 21
694.2673884865
 31
0.0
  0
LINE
  5
19D
330
1F
100
AcDbEntity
  8
0
100
AcDbLine
 10
529.5398149239
 20
-332.3326115135
 30
0.0
 11
531.5398149239
 21
-332.3326115135
 31
0.0
  0
LINE
  5
19E
330
1F
100
AcDbEntity
  8
0
100
AcDbLine
 10
531.5398149239
 20
-332.3326115135
 30
0.0
 11
531.5398149239
 21
-350.3326115135
 31
0.0
  0
LINE
  5
19F
330
1F
100
AcDbEntity
  8
0
100
AcDbLine
 10
-368.4601850761
 20
-350.3326115135
 30
0.0
 11
-368.4601850761
 21
-332.3326115135
 31
0.0
  0
LINE
  5
1A0
330
1F
100
AcDbEntity
  8
0
100
AcDbLine
 10
407.539814924
 20
-382.1326115135
 30
0.0
 11
423.539814924
 21
-382.1326115135
 31
0.0
  0
LINE
  5
1A1
330
1F
100
AcDbEntity
  8
0
100
AcDbLine
 10
423.539814924
 20
726.0673884865
 30
0.0
 11
407.539814924
 21
726.0673884865
 31
0.0
  0
LINE
  5
1A2
330
1F
100
AcDbEntity
  8
0
100
AcDbLine
 10
-244.460185076
 20
726.0673884865
 30
0.0
 11
-260.460185076
 21
726.0673884865
 31
0.0
  0
LINE
  5
1A3
330
1F
100
AcDbEntity
  8
0
100
AcDbLine
 10
-260.460185076
 20
-382.1326115135
 30
0.0
 11
-244.460185076
 21
-382.1326115135
 31
0.0
  0
ARC
  5
1A4
330
1F
100
AcDbEntity
  8
0
100
AcDbCircle
 10
-370.0190047899
 20
-325.4456904665
 30
0.0
 40
1.599813629865258
100
AcDbArc
 50
324.3127499643
 51
347.0014653763
  0
LWPOLYLINE
  5
1A5
330
1F
100
AcDbEntity
  8
0
100
AcDbPolyline
 90
        3
 70
   128
 43
0.0
 10
-368.4601850761
 20
-324.8596926655
 10
-368.4821657421
 20
-324.7777205366
 10
-368.6070632858
 20
-324.4666172479
  0
LWPOLYLINE
  5
1A6
330
1F
100
AcDbEntity
  8
0
100
AcDbPolyline
 90
        3
 70
   128
 43
0.0
 10
-368.6643931857
 20
-326.4328737131
 10
-368.6071967092
 20
-326.3579163463
 10
-368.4601850761
 20
-326.0952984895
  0
LINE
  5
1A7
330
1F
100
AcDbEntity
  8
0
100
AcDbLine
 10
-368.4601850761
 20
-324.5699245376
 30
0.0
 11
-368.4990034221
 21
-324.4875802167
 31
0.0
  0
LWPOLYLINE
  5
1A8
330
1F
100
AcDbEntity
  8
0
100
AcDbPolyline
 90
        3
 70
   128
 43
0.0
 10
-368.6400690994
 20
-326.4024706451
 10
-368.5017472574
 20
-326.3421942883
 10
-368.4601850761
 20
-326.3157914613
  0
LWPOLYLINE
  5
1A9
330
1F
100
AcDbEntity
  8
0
100
AcDbPolyline
 90
        3
 70
   128
 43
0.0
 10
531.7445738318
 20
-324.3663605412
 10
531.56179559
 20
-324.7777205366
 10
531.5398149239
 20
-324.8596926656
  0
LWPOLYLINE
  5
1AA
330
1F
100
AcDbEntity
  8
0
100
AcDbPolyline
 90
        3
 70
   128
 43
0.0
 10
531.5398149239
 20
-325.8055303615
 10
531.56179559
 20
-325.8875024905
 10
531.747609711
 20
-326.3036449748
  0
LINE
  5
1AB
330
1F
100
AcDbEntity
  8
0
100
AcDbLine
 10
531.6527307158
 20
-324.3579079651
 30
0.0
 11
531.5398149239
 21
-324.5699245376
 31
0.0
  0
LINE
  5
1AC
330
1F
100
AcDbEntity
  8
0
100
AcDbLine
 10
531.5398149239
 20
-326.0952984895
 30
0.0
 11
531.6583265318
 21
-326.315960599
 31
0.0
  0
LWPOLYLINE
  5
1AD
330
1F
100
AcDbEntity
  8
0
100
AcDbPolyline
 90
        3
 70
   128
 43
0.0
 10
-368.6649439839
 20
668.3011375141
 10
-368.4821657421
 20
668.7124975095
 10
-368.4601850761
 20
668.7944696384
  0
LWPOLYLINE
  5
1AE
330
1F
100
AcDbEntity
  8
0
100
AcDbPolyline
 90
        3
 70
   128
 43
0.0
 10
-368.4601850761
 20
669.7403073345
 10
-368.4821657421
 20
669.8222794634
 10
-368.6679798631
 20
670.2384219477
  0
LINE
  5
1AF
330
1F
100
AcDbEntity
  8
0
100
AcDbLine
 10
-368.5731008679
 20
668.292684938
 30
0.0
 11
-368.4601850761
 21
668.5047015105
 31
0.0
  0
LINE
  5
1B0
330
1F
100
AcDbEntity
  8
0
100
AcDbLine
 10
-368.4601850761
 20
670.0300754624
 30
0.0
 11
-368.578696684
 21
670.2507375719
 31
0.0
  0
ARC
  5
1B1
330
1F
100
AcDbEntity
  8
0
100
AcDbCircle
 10
533.0986346378
 20
669.3804674394
 30
0.0
 40
1.599813629883473
100
AcDbArc
 50
144.3127499648
 51
167.001465378
  0
LWPOLYLINE
  5
1B2
330
1F
100
AcDbEntity
  8
0
100
AcDbPolyline
 90
        3
 70
   128
 43
0.0
 10
531.5398149239
 20
668.7944696385
 10
531.56179559
 20
668.7124975095
 10
531.6866931337
 20
668.4013942209
  0
LWPOLYLINE
  5
1B3
330
1F
100
AcDbEntity
  8
0
100
AcDbPolyline
 90
        3
 70
   128
 43
0.0
 10
531.7440230336
 20
670.3676506861
 10
531.6868265571
 20
670.2926933192
 10
531.5398149239
 20
670.0300754624
  0
LINE
  5
1B4
330
1F
100
AcDbEntity
  8
0
100
AcDbLine
 10
531.5398149239
 20
668.5047015105
 30
0.0
 11
531.57863327
 21
668.4223571896
 31
0.0
  0
LWPOLYLINE
  5
1B5
330
1F
100
AcDbEntity
  8
0
100
AcDbPolyline
 90
        3
 70
   128
 43
0.0
 10
531.7197857829
 20
670.337273158
 10
531.5813771053
 20
670.2769712612
 10
531.5398149239
 20
670.2505684342
  0
LINE
  5
1B6
330
1F
100
AcDbEntity
  8
0
100
AcDbLine
 10
531.8398149239
 20
679.4673884865
 30
0.0
 11
552.0398149239
 21
679.4673884865
 31
0.0
  0
LINE
  5
1B7
330
1F
100
AcDbEntity
  8
0
100
AcDbLine
 10
531.8398149239
 20
679.4673884865
 30
0.0
 11
531.8398149239
 21
694.2673884865
 31
0.0
  0
LINE
  5
1B8
330
1F
100
AcDbEntity
  8
0
100
AcDbLine
 10
531.8398149239
 20
694.2673884865
 30
0.0
 11
517.0398149239
 21
694.2673884865
 31
0.0
  0
LINE
  5
1B9
330
1F
100
AcDbEntity
  8
0
100
AcDbLine
 10
517.0398149239
 20
714.4673884865
 30
0.0
 11
517.0398149239
 21
694.2673884865
 31
0.0
  0
LINE
  5
1BA
330
1F
100
AcDbEntity
  8
0
100
AcDbLine
 10
562.0398149239
 20
714.4673884865
 30
0.0
 11
562.0398149239
 21
679.4673884865
 31
0.0
  0
LINE
  5
1BB
330
1F
100
AcDbEntity
  8
0
100
AcDbLine
 10
562.0398149239
 20
679.4673884865
 30
0.0
 11
552.0398149239
 21
679.4673884865
 31
0.0
  0
LINE
  5
1BC
330
1F
100
AcDbEntity
  8
0
100
AcDbLine
 10
517.0398149239
 20
724.4673884865
 30
0.0
 11
552.0398149239
 21
724.4673884865
 31
0.0
  0
LINE
  5
1BD
330
1F
100
AcDbEntity
  8
0
100
AcDbLine
 10
517.0398149239
 20
714.4673884865
 30
0.0
 11
517.0398149239
 21
724.4673884865
 31
0.0
  0
ARC
  5
1BE
330
1F
100
AcDbEntity
  8
0
100
AcDbCircle
 10
552.0398149239
 20
714.4673884865
 30
0.0
 40
10.00000000000023
100
AcDbArc
 50
0.0
 51
90.0
  0
LINE
  5
1BF
330
1F
100
AcDbEntity
  8
0
100
AcDbLine
 10
552.0398149239
 20
-380.5326115135
 30
0.0
 11
517.0398149239
 21
-380.5326115135
 31
0.0
  0
LINE
  5
1C0
330
1F
100
AcDbEntity
  8
0
100
AcDbLine
 10
517.0398149239
 20
-380.5326115135
 30
0.0
 11
517.0398149239
 21
-370.5326115135
 31
0.0
  0
LINE
  5
1C1
330
1F
100
AcDbEntity
  8
0
100
AcDbLine
 10
517.0398149239
 20
-350.3326115135
 30
0.0
 11
531.8398149239
 21
-350.3326115135
 31
0.0
  0
LINE
  5
1C2
330
1F
100
AcDbEntity
  8
0
100
AcDbLine
 10
531.8398149239
 20
-350.3326115135
 30
0.0
 11
531.8398149239
 21
-335.5326115135
 31
0.0
  0
LINE
  5
1C3
330
1F
100
AcDbEntity
  8
0
100
AcDbLine
 10
552.0398149239
 20
-335.5326115135
 30
0.0
 11
531.8398149239
 21
-335.5326115135
 31
0.0
  0
LINE
  5
1C4
330
1F
100
AcDbEntity
  8
0
100
AcDbLine
 10
517.0398149239
 20
-350.3326115135
 30
0.0
 11
517.0398149239
 21
-370.5326115135
 31
0.0
  0
ARC
  5
1C5
330
1F
100
AcDbEntity
  8
0
100
AcDbCircle
 10
552.0398149239
 20
-370.5326115135
 30
0.0
 40
10.00000000000011
100
AcDbArc
 50
270.0
 51
0.0
  0
LINE
  5
1C6
330
1F
100
AcDbEntity
  8
0
100
AcDbLine
 10
562.0398149239
 20
-335.5326115135
 30
0.0
 11
562.0398149239
 21
-370.5326115135
 31
0.0
  0
LINE
  5
1C7
330
1F
100
AcDbEntity
  8
0
100
AcDbLine
 10
552.0398149239
 20
-335.5326115135
 30
0.0
 11
562.0398149239
 21
-335.5326115135
 31
0.0
  0
ARC
  5
1C8
330
1F
100
AcDbEntity
  8
0
100
AcDbCircle
 10
-388.9601850761
 20
-370.5326115135
 30
0.0
 40
10.00000000000006
100
AcDbArc
 50
180.0
 51
270.0
  0
LINE
  5
1C9
330
1F
100
AcDbEntity
  8
0
100
AcDbLine
 10
-353.9601850761
 20
-370.5326115135
 30
0.0
 11
-353.9601850761
 21
-380.5326115135
 31
0.0
  0
LINE
  5
1CA
330
1F
100
AcDbEntity
  8
0
100
AcDbLine
 10
-388.9601850761
 20
-380.5326115135
 30
0.0
 11
-353.9601850761
 21
-380.5326115135
 31
0.0
  0
LINE
  5
1CB
330
1F
100
AcDbEntity
  8
0
100
AcDbLine
 10
-398.9601850761
 20
-370.5326115135
 30
0.0
 11
-398.9601850761
 21
-335.5326115135
 31
0.0
  0
LINE
  5
1CC
330
1F
100
AcDbEntity
  8
0
100
AcDbLine
 10
-398.9601850761
 20
-335.5326115135
 30
0.0
 11
-388.9601850761
 21
-335.5326115135
 31
0.0
  0
LINE
  5
1CD
330
1F
100
AcDbEntity
  8
0
100
AcDbLine
 10
-368.7601850761
 20
-350.3326115135
 30
0.0
 11
-368.7601850761
 21
-335.5326115135
 31
0.0
  0
LINE
  5
1CE
330
1F
100
AcDbEntity
  8
0
100
AcDbLine
 10
-353.9601850761
 20
-350.3326115135
 30
0.0
 11
-368.7601850761
 21
-350.3326115135
 31
0.0
  0
LINE
  5
1CF
330
1F
100
AcDbEntity
  8
0
100
AcDbLine
 10
-353.9601850761
 20
-370.5326115135
 30
0.0
 11
-353.9601850761
 21
-350.3326115135
 31
0.0
  0
LINE
  5
1D0
330
1F
100
AcDbEntity
  8
0
100
AcDbLine
 10
-388.9601850761
 20
-335.5326115135
 30
0.0
 11
-368.7601850761
 21
-335.5326115135
 31
0.0
  0
LINE
  5
1D1
330
1F
100
AcDbEntity
  8
0
100
AcDbLine
 10
-398.9601850761
 20
679.4673884865
 30
0.0
 11
-398.9601850761
 21
714.4673884865
 31
0.0
  0
LINE
  5
1D2
330
1F
100
AcDbEntity
  8
0
100
AcDbLine
 10
-388.9601850761
 20
679.4673884865
 30
0.0
 11
-398.9601850761
 21
679.4673884865
 31
0.0
  0
LINE
  5
1D3
330
1F
100
AcDbEntity
  8
0
100
AcDbLine
 10
-353.9601850761
 20
714.4673884865
 30
0.0
 11
-353.9601850761
 21
694.2673884865
 31
0.0
  0
LINE
  5
1D4
330
1F
100
AcDbEntity
  8
0
100
AcDbLine
 10
-353.9601850761
 20
694.2673884865
 30
0.0
 11
-368.7601850761
 21
694.2673884865
 31
0.0
  0
LINE
  5
1D5
330
1F
100
AcDbEntity
  8
0
100
AcDbLine
 10
-368.7601850761
 20
694.2673884865
 30
0.0
 11
-368.7601850761
 21
679.4673884865
 31
0.0
  0
LINE
  5
1D6
330
1F
100
AcDbEntity
  8
0
100
AcDbLine
 10
-388.9601850761
 20
679.4673884865
 30
0.0
 11
-368.7601850761
 21
679.4673884865
 31
0.0
  0
ARC
  5
1D7
330
1F
100
AcDbEntity
  8
0
100
AcDbCircle
 10
-388.9601850761
 20
714.4673884865
 30
0.0
 40
10.0
100
AcDbArc
 50
90.0
 51
180.0
  0
LINE
  5
1D8
330
1F
100
AcDbEntity
  8
0
100
AcDbLine
 10
-388.9601850761
 20
724.4673884865
 30
0.0
 11
-353.9601850761
 21
724.4673884865
 31
0.0
  0
LINE
  5
1D9
330
1F
100
AcDbEntity
  8
0
100
AcDbLine
 10
-353.9601850761
 20
724.4673884865
 30
0.0
 11
-353.9601850761
 21
714.4673884865
 31
0.0
  0
LINE
  5
1DA
330
1F
100
AcDbEntity
  8
0
100
AcDbLine
 10
-388.9601850761
 20
679.4673884865
 30
0.0
 11
-369.2601850761
 21
679.4673884865
 31
0.0
  0
LINE
  5
1DB
330
1F
100
AcDbEntity
  8
0
100
AcDbLine
 10
-388.9601850761
 20
-335.5326115135
 30
0.0
 11
-369.2601850761
 21
-335.5326115135
 31
0.0
  0
LINE
  5
1DC
330
1F
100
AcDbEntity
  8
0
100
AcDbLine
 10
-398.9601850761
 20
679.4673884865
 30
0.0
 11
-398.9601850761
 21
-335.5326115135
 31
0.0
  0
LINE
  5
1DD
330
1F
100
AcDbEntity
  8
0
100
AcDbLine
 10
-368.7601850761
 20
679.4673884865
 30
0.0
 11
-368.7601850761
 21
-335.5326115135
 31
0.0
  0
SPLINE
  5
1DE
330
1F
100
AcDbEntity
  8
0
100
AcDbSpline
210
0.0
220
0.0
230
1.0
 70
     8
 71
     3
 72
    13
 73
     9
 74
     0
 42
0.00000001
 43
0.00000001
 40
0.0
 40
0.0
 40
0.0
 40
0.0
 40
0.0758195100408539
 40
0.2670621142383837
 40
0.4427845448430962
 40
0.626080668280154
 40
0.9037570899487721
 40
1.0
 40
1.0
 40
1.0
 40
1.0
 10
-368.5218122311452
 20
670.2221579513553
 30
0.0
 10
-368.5340398458687
 20
670.2274192384405
 30
0.0
 10
-368.5771096657393
 20
670.2459512818651
 30
0.0
 10
-368.6414693106302
 20
670.2458887153954
 30
0.0
 10
-368.7018902859813
 20
670.2216664564936
 30
0.0
 10
-368.7452080020586
 20
670.1627071224016
 30
0.0
 10
-368.7590390377285
 20
670.0882044815995
 30
0.0
 10
-368.7599504803246
 20
670.0305576523889
 30
0.0
 10
-368.7601850760792
 20
670.0157199638082
 30
0.0
  0
SPLINE
  5
1DF
330
1F
100
AcDbEntity
  8
0
100
AcDbSpline
210
0.0
220
0.0
230
1.0
 70
     8
 71
     3
 72
    13
 73
     9
 74
     0
 42
0.00000001
 43
0.00000001
 40
0.0
 40
0.0
 40
0.0
 40
0.0
 40
0.0707464304199859
 40
0.3170357550378711
 40
0.5021592724430616
 40
0.6884579757822171
 40
0.8497023622388385
 40
0.9999999999999999
 40
0.9999999999999999
 40
0.9999999999999999
 40
0.9999999999999999
 10
-368.7601850760792
 20
668.519057009124
 30
0.0
 10
-368.7600210787307
 20
668.5067208632665
 30
0.0
 10
-368.7592861579317
 20
668.4514389318244
 30
0.0
 10
-368.7466773171884
 20
668.3743523750057
 30
0.0
 10
-368.6999293470498
 20
668.3091597831622
 30
0.0
 10
-368.6300275137285
 20
668.2861323567892
 30
0.0
 10
-368.5445587466909
 20
668.2967925856005
 30
0.0
 10
-368.4876430109938
 20
668.3248022513318
 30
0.0
 10
-368.4601850760712
 20
668.3383149920436
 30
0.0
  0
SPLINE
  5
1E0
330
1F
100
AcDbEntity
  8
0
100
AcDbSpline
210
0.0
220
0.0
230
1.0
 70
     8
 71
     3
 72
    14
 73
    10
 74
     0
 42
0.00000001
 43
0.00000001
 40
0.0
 40
0.0
 40
0.0
 40
0.0
 40
0.0896341789150108
 40
0.2452468542224656
 40
0.4014295032714817
 40
0.5449372473981354
 40
0.6946302210908439
 40
0.9214010251056128
 40
1.0
 40
1.0
 40
1.0
 40
1.0
 10
-368.4159196092002
 20
-324.5596516397461
 30
0.0
 10
-368.4327185511202
 20
-324.5469164866014
 30
0.0
 10
-368.4786819069516
 20
-324.5120720078035
 30
0.0
 10
-368.5601442673262
 20
-324.4832656344627
 30
0.0
 10
-368.6415399349487
 20
-324.4771961993193
 30
0.0
 10
-368.7018713780292
 20
-324.5029454753566
 30
0.0
 10
-368.7452163469478
 20
-324.5614399987541
 30
0.0
 10
-368.7590383200993
 20
-324.6360972052991
 30
0.0
 10
-368.7599503334246
 20
-324.6937343004374
 30
0.0
 10
-368.760185076079
 20
-324.7085694835715
 30
0.0
  0
SPLINE
  5
1E1
330
1F
100
AcDbEntity
  8
0
100
AcDbSpline
210
0.0
220
0.0
230
1.0
 70
     8
 71
     3
 72
    13
 73
     9
 74
     0
 42
0.00000001
 43
0.00000001
 40
0.0
 40
0.0
 40
0.0
 40
0.0
 40
0.0805598397182561
 40
0.3610125548765067
 40
0.5718150051149304
 40
0.7839556541830701
 40
0.9675666412088884
 40
1.0
 40
1.0
 40
1.0
 40
1.0
 10
-368.760185076079
 20
-326.20523243819
 30
0.0
 10
-368.7600213434193
 20
-326.2175702304783
 30
0.0
 10
-368.7592876087696
 20
-326.2728595400287
 30
0.0
 10
-368.7466553888664
 20
-326.3498006735418
 30
0.0
 10
-368.6999875074847
 20
-326.4154914344781
 30
0.0
 10
-368.629819856959
 20
-326.4368654213714
 30
0.0
 10
-368.5659055176455
 20
-326.4328028308385
 30
0.0
 10
-368.5314708008418
 20
-326.4171543972597
 30
0.0
 10
-368.5263013365786
 20
-326.4148051977986
 30
0.0
  0
LINE
  5
1E2
330
1F
100
AcDbEntity
  8
0
100
AcDbLine
 10
-368.7601850761
 20
679.4673884865
 30
0.0
 11
-368.4601850761
 21
679.4673884865
 31
0.0
  0
LINE
  5
1E3
330
1F
100
AcDbEntity
  8
0
100
AcDbLine
 10
-368.7601850761
 20
-335.5326115135
 30
0.0
 11
-368.4601850761
 21
-335.5326115135
 31
0.0
  0
LINE
  5
1E4
330
1F
100
AcDbEntity
  8
0
100
AcDbLine
 10
531.8398149239
 20
-335.5326115135
 30
0.0
 11
531.8398149239
 21
679.4673884865
 31
0.0
  0
LINE
  5
1E5
330
1F
100
AcDbEntity
  8
0
100
AcDbLine
 10
552.0398149239
 20
679.4673884865
 30
0.0
 11
532.3398149239
 21
679.4673884865
 31
0.0
  0
LINE
  5
1E6
330
1F
100
AcDbEntity
  8
0
100
AcDbLine
 10
552.0398149239
 20
-335.5326115135
 30
0.0
 11
532.3398149239
 21
-335.5326115135
 31
0.0
  0
LINE
  5
1E7
330
1F
100
AcDbEntity
  8
0
100
AcDbLine
 10
562.0398149239
 20
-335.5326115135
 30
0.0
 11
562.0398149239
 21
679.4673884865
 31
0.0
  0
SPLINE
  5
1E8
330
1F
100
AcDbEntity
  8
0
100
AcDbSpline
210
0.0
220
0.0
230
1.0
 70
     8
 71
     3
 72
    13
 73
     9
 74
     0
 42
0.00000001
 43
0.00000001
 40
0.0
 40
0.0
 40
0.0
 40
0.0
 40
0.0758195099944185
 40
0.2670621142014966
 40
0.4427845448151194
 40
0.6260806682614116
 40
0.9037570899442207
 40
1.0
 40
1.0
 40
1.0
 40
1.0
 10
531.6014420790124
 20
-326.2873809784373
 30
0.0
 10
531.6136696937277
 20
-326.2926422655189
 30
0.0
 10
531.6567395135904
 20
-326.3111743089405
 30
0.0
 10
531.7210991584733
 20
-326.3111117424679
 30
0.0
 10
531.7815201338245
 20
-326.2868894835667
 30
0.0
 10
531.824837849902
 20
-326.2279301494746
 30
0.0
 10
531.838668885572
 20
-326.1534275086724
 30
0.0
 10
531.8395803281677
 20
-326.0957806794619
 30
0.0
 10
531.8398149239223
 20
-326.080942990881
 30
0.0
  0
SPLINE
  5
1E9
330
1F
100
AcDbEntity
  8
0
100
AcDbSpline
210
0.0
220
0.0
230
1.0
 70
     8
 71
     3
 72
    13
 73
     9
 74
     0
 42
0.00000001
 43
0.00000001
 40
0.0
 40
0.0
 40
0.0
 40
0.0
 40
0.0707464304219847
 40
0.3170357550456849
 40
0.5021592724555836
 40
0.6884579757993567
 40
0.8497023622599297
 40
1.0
 40
1.0
 40
1.0
 40
1.0
 10
531.8398149239223
 20
-324.584280036197
 30
0.0
 10
531.8396509265739
 20
-324.5719438903392
 30
0.0
 10
531.838916005775
 20
-324.5166619588971
 30
0.0
 10
531.8263071650317
 20
-324.4395754020791
 30
0.0
 10
531.7795591948926
 20
-324.3743828102341
 30
0.0
 10
531.7096573615719
 20
-324.3513553838626
 30
0.0
 10
531.6241885945383
 20
-324.3620156126718
 30
0.0
 10
531.5672728588461
 20
-324.3900252784012
 30
0.0
 10
531.5398149239279
 20
-324.4035380191104
 30
0.0
  0
SPLINE
  5
1EA
330
1F
100
AcDbEntity
  8
0
100
AcDbSpline
210
0.0
220
0.0
230
1.0
 70
     8
 71
     3
 72
    13
 73
     9
 74
     0
 42
0.00000001
 43
0.00000001
 40
0.0
 40
0.0
 40
0.0
 40
0.0
 40
0.0877693347909256
 40
0.2765391367230722
 40
0.4499894437799594
 40
0.6309155144201167
 40
0.9050015285740216
 40
1.0
 40
1.0
 40
1.0
 40
1.0
 10
531.595163482317
 20
668.4393768991878
 30
0.0
 10
531.6095187290904
 20
668.4331409587276
 30
0.0
 10
531.6547485073447
 20
668.4134930760622
 30
0.0
 10
531.7211265569741
 20
668.4130580414528
 30
0.0
 10
531.7815127985397
 20
668.4374320007994
 30
0.0
 10
531.8248410872774
 20
668.4963451585998
 30
0.0
 10
531.8386686071699
 20
668.57086315463
 30
0.0
 10
531.8395802711785
 20
668.6285090168182
 30
0.0
 10
531.8398149239224
 20
668.643346456499
 30
0.0
  0
SPLINE
  5
1EB
330
1F
100
AcDbEntity
  8
0
100
AcDbSpline
210
0.0
220
0.0
230
1.0
 70
     8
 71
     3
 72
    14
 73
    10
 74
     0
 42
0.00000001
 43
0.00000001
 40
0.0
 40
0.0
 40
0.0
 40
0.0
 40
0.0686113285713544
 40
0.3074677296734694
 40
0.4870042856988585
 40
0.6676805609679056
 40
0.8240586496558951
 40
0.9759618232473461
 40
1.0
 40
1.0
 40
1.0
 40
1.0
 10
531.8398149239225
 20
670.1400094111175
 30
0.0
 10
531.8396511922851
 20
670.1523445181899
 30
0.0
 10
531.8389174622168
 20
670.2076217944931
 30
0.0
 10
531.826285152005
 20
670.2848001048488
 30
0.0
 10
531.7796175799912
 20
670.3496783813524
 30
0.0
 10
531.7094489026632
 20
670.3737490305647
 30
0.0
 10
531.6237561810894
 20
670.3595784719886
 30
0.0
 10
531.5588891967059
 20
670.336853570828
 30
0.0
 10
531.5278294273089
 20
670.3129400329294
 30
0.0
 10
531.5235858528155
 20
670.3096728200223
 30
0.0
  0
LINE
  5
1EC
330
1F
100
AcDbEntity
  8
0
100
AcDbLine
 10
531.8398149239
 20
-335.5326115135
 30
0.0
 11
531.5398149239
 21
-335.5326115135
 31
0.0
  0
LINE
  5
1ED
330
1F
100
AcDbEntity
  8
0
100
AcDbLine
 10
531.8398149239
 20
679.4673884865
 30
0.0
 11
531.5398149239
 21
679.4673884865
 31
0.0
  0
LINE
  5
1EE
330
1F
100
AcDbEntity
  8
0
100
AcDbLine
 10
517.0398149239
 20
-350.8326115135
 30
0.0
 11
517.0398149239
 21
-370.5326115135
 31
0.0
  0
LINE
  5
1EF
330
1F
100
AcDbEntity
  8
0
100
AcDbLine
 10
-353.9601850761
 20
-350.8326115135
 30
0.0
 11
-353.9601850761
 21
-370.5326115135
 31
0.0
  0
LINE
  5
1F0
330
1F
100
AcDbEntity
  8
0
100
AcDbLine
 10
517.0398149239
 20
-380.5326115135
 30
0.0
 11
-353.9601850761
 21
-380.5326115135
 31
0.0
  0
LINE
  5
1F1
330
1F
100
AcDbEntity
  8
0
100
AcDbLine
 10
517.0398149239
 20
-350.3326115135
 30
0.0
 11
-353.9601850761
 21
-350.3326115135
 31
0.0
  0
LINE
  5
1F2
330
1F
100
AcDbEntity
  8
0
100
AcDbLine
 10
517.0398149239
 20
694.7673884865
 30
0.0
 11
517.0398149239
 21
714.4673884865
 31
0.0
  0
LINE
  5
1F3
330
1F
100
AcDbEntity
  8
0
100
AcDbLine
 10
-353.9601850761
 20
694.7673884865
 30
0.0
 11
-353.9601850761
 21
714.4673884865
 31
0.0
  0
LINE
  5
1F4
330
1F
100
AcDbEntity
  8
0
100
AcDbLine
 10
-353.9601850761
 20
694.2673884865
 30
0.0
 11
517.0398149239
 21
694.2673884865
 31
0.0
  0
LINE
  5
1F5
330
1F
100
AcDbEntity
  8
0
100
AcDbLine
 10
-353.9601850761
 20
724.4673884865
 30
0.0
 11
517.0398149239
 21
724.4673884865
 31
0.0
  0
LINE
  5
1F6
330
1F
100
AcDbEntity
  8
0
  6
PHANTOM
 62
     8
370
    18
100
AcDbLine
 10
127.1498214584
 20
192.3287351509
 30
0.0
 11
35.9298083894
 21
192.3287351509
 31
0.0
  0
LINE
  5
1F7
330
1F
100
AcDbEntity
  8
0
  6
PHANTOM
 62
     8
370
    18
100
AcDbLine
 10
527.8398149239
 20
690.2673884865
 30
0.0
 11
433.4127982701
 21
690.2673884865
 31
0.0
  0
LINE
  5
1F8
330
1F
100
AcDbEntity
  8
0
  6
PHANTOM
 62
     8
370
    18
100
AcDbLine
 10
425.6668315777
 20
690.2673884865
 30
0.0
 11
85.4127982701
 21
690.2673884865
 31
0.0
  0
LINE
  5
1F9
330
1F
100
AcDbEntity
  8
0
  6
PHANTOM
 62
     8
370
    18
100
AcDbLine
 10
77.6668315777
 20
690.2673884865
 30
0.0
 11
-262.5872017299
 21
690.2673884865
 31
0.0
  0
LINE
  5
1FA
330
1F
100
AcDbEntity
  8
0
  6
PHANTOM
 62
     8
370
    18
100
AcDbLine
 10
-270.3331684223
 20
690.2673884865
 30
0.0
 11
-364.7601850761
 21
690.2673884865
 31
0.0
  0
LINE
  5
1FB
330
1F
100
AcDbEntity
  8
0
  6
PHANTOM
 62
     8
370
    18
100
AcDbLine
 10
527.8398149239
 20
-346.3326115135
 30
0.0
 11
527.8398149239
 21
-251.9055948597
 31
0.0
  0
LINE
  5
1FC
330
1F
100
AcDbEntity
  8
0
  6
PHANTOM
 62
     8
370
    18
100
AcDbLine
 10
527.8398149239
 20
-244.1596281673
 30
0.0
 11
527.8398149239
 21
168.0944051402
 31
0.0
  0
LINE
  5
1FD
330
1F
100
AcDbEntity
  8
0
  6
PHANTOM
 62
     8
370
    18
100
AcDbLine
 10
527.8398149239
 20
175.8403718327
 30
0.0
 11
527.8398149239
 21
588.0944051402
 31
0.0
  0
LINE
  5
1FE
330
1F
100
AcDbEntity
  8
0
  6
PHANTOM
 62
     8
370
    18
100
AcDbLine
 10
527.8398149239
 20
595.8403718327
 30
0.0
 11
527.8398149239
 21
690.2673884865
 31
0.0
  0
LINE
  5
1FF
330
1F
100
AcDbEntity
  8
0
  6
PHANTOM
 62
     8
370
    18
100
AcDbLine
 10
-364.7601850761
 20
-346.3326115135
 30
0.0
 11
-270.3331684223
 21
-346.3326115135
 31
0.0
  0
LINE
  5
200
330
1F
100
AcDbEntity
  8
0
  6
PHANTOM
 62
     8
370
    18
100
AcDbLine
 10
-262.5872017299
 20
-346.3326115135
 30
0.0
 11
77.6668315777
 21
-346.3326115135
 31
0.0
  0
LINE
  5
201
330
1F
100
AcDbEntity
  8
0
  6
PHANTOM
 62
     8
370
    18
100
AcDbLine
 10
85.4127982701
 20
-346.3326115135
 30
0.0
 11
425.6668315777
 21
-346.3326115135
 31
0.0
  0
LINE
  5
202
330
1F
100
AcDbEntity
  8
0
  6
PHANTOM
 62
     8
370
    18
100
AcDbLine
 10
433.4127982701
 20
-346.3326115135
 30
0.0
 11
527.8398149239
 21
-346.3326115135
 31
0.0
  0
LINE
  5
203
330
1F
100
AcDbEntity
  8
0
  6
PHANTOM
 62
     8
370
    18
100
AcDbLine
 10
-364.7601850761
 20
690.2673884865
 30
0.0
 11
-364.7601850761
 21
595.8403718327
 31
0.0
  0
LINE
  5
204
330
1F
100
AcDbEntity
  8
0
  6
PHANTOM
 62
     8
370
    18
100
AcDbLine
 10
-364.7601850761
 20
588.0944051403
 30
0.0
 11
-364.7601850761
 21
175.8403718327
 31
0.0
  0
LINE
  5
205
330
1F
100
AcDbEntity
  8
0
  6
PHANTOM
 62
     8
370
    18
100
AcDbLine
 10
-364.7601850761
 20
168.0944051403
 30
0.0
 11
-364.7601850761
 21
-244.1596281673
 31
0.0
  0
LINE
  5
206
330
1F
100
AcDbEntity
  8
0
  6
PHANTOM
 62
     8
370
    18
100
AcDbLine
 10
-364.7601850761
 20
-251.9055948597
 30
0.0
 11
-364.7601850761
 21
-346.3326115135
 31
0.0
  0
CIRCLE
  5
207
330
1F
100
AcDbEntity
  8
0
  6
PHANTOM
 62
     8
370
    18
100
AcDbCircle
 10
-266.4601850761
 20
683.2673884865
 30
0.0
 40
0.1000000000000227
  0
CIRCLE
  5
208
330
1F
100
AcDbEntity
  8
0
  6
PHANTOM
 62
     8
370
    18
100
AcDbCircle
 10
-266.4601850761
 20
683.2673884865
 30
0.0
 40
7.923537225818677
  0
CIRCLE
  5
209
330
1F
100
AcDbEntity
  8
0
  6
PHANTOM
 62
     8
370
    18
100
AcDbCircle
 10
-266.4601850761
 20
-339.3326115135
 30
0.0
 40
0.1000000000001364
  0
CIRCLE
  5
20A
330
1F
100
AcDbEntity
  8
0
  6
PHANTOM
 62
     8
370
    18
100
AcDbCircle
 10
-266.4601850761
 20
-339.3326115135
 30
0.0
 40
7.92353722581862
  0
CIRCLE
  5
20B
330
1F
100
AcDbEntity
  8
0
  6
PHANTOM
 62
     8
370
    18
100
AcDbCircle
 10
429.5398149239
 20
-339.3326115135
 30
0.0
 40
0.0999999999999659
  0
CIRCLE
  5
20C
330
1F
100
AcDbEntity
  8
0
  6
PHANTOM
 62
     8
370
    18
100
AcDbCircle
 10
429.5398149239
 20
-339.3326115135
 30
0.0
 40
7.92353722581862
  0
CIRCLE
  5
20D
330
1F
100
AcDbEntity
  8
0
  6
PHANTOM
 62
     8
370
    18
100
AcDbCircle
 10
-357.7601850761
 20
171.9673884865
 30
0.0
 40
0.0999999999999659
  0
CIRCLE
  5
20E
330
1F
100
AcDbEntity
  8
0
  6
PHANTOM
 62
     8
370
    18
100
AcDbCircle
 10
-357.7601850761
 20
171.9673884865
 30
0.0
 40
7.92353722581862
  0
CIRCLE
  5
20F
330
1F
100
AcDbEntity
  8
0
  6
PHANTOM
 62
     8
370
    18
100
AcDbCircle
 10
520.8398149239
 20
171.9673884865
 30
0.0
 40
0.0999999999999659
  0
CIRCLE
  5
210
330
1F
100
AcDbEntity
  8
0
  6
PHANTOM
 62
     8
370
    18
100
AcDbCircle
 10
520.8398149239
 20
171.9673884865
 30
0.0
 40
7.92353722581862
  0
CIRCLE
  5
211
330
1F
100
AcDbEntity
  8
0
  6
PHANTOM
 62
     8
370
    18
100
AcDbCircle
 10
81.5398149239
 20
683.2673884865
 30
0.0
 40
0.0999999999999091
  0
CIRCLE
  5
212
330
1F
100
AcDbEntity
  8
0
  6
PHANTOM
 62
     8
370
    18
100
AcDbCircle
 10
81.5398149239
 20
683.2673884865
 30
0.0
 40
7.923537225818677
  0
CIRCLE
  5
213
330
1F
100
AcDbEntity
  8
0
  6
PHANTOM
 62
     8
370
    18
100
AcDbCircle
 10
520.8398149239
 20
-248.0326115135
 30
0.0
 40
0.1000000000000512
  0
CIRCLE
  5
214
330
1F
100
AcDbEntity
  8
0
  6
PHANTOM
 62
     8
370
    18
100
AcDbCircle
 10
520.8398149239
 20
-248.0326115135
 30
0.0
 40
7.92353722581862
  0
CIRCLE
  5
215
330
1F
100
AcDbEntity
  8
0
  6
PHANTOM
 62
     8
370
    18
100
AcDbCircle
 10
-357.7601850761
 20
-248.0326115135
 30
0.0
 40
0.1000000000000227
  0
CIRCLE
  5
216
330
1F
100
AcDbEntity
  8
0
  6
PHANTOM
 62
     8
370
    18
100
AcDbCircle
 10
-357.7601850761
 20
-248.0326115135
 30
0.0
 40
7.92353722581862
  0
CIRCLE
  5
217
330
1F
100
AcDbEntity
  8
0
  6
PHANTOM
 62
     8
370
    18
100
AcDbCircle
 10
81.5398149239
 20
-339.3326115135
 30
0.0
 40
0.0999999999999659
  0
CIRCLE
  5
218
330
1F
100
AcDbEntity
  8
0
  6
PHANTOM
 62
     8
370
    18
100
AcDbCircle
 10
81.5398149239
 20
-339.3326115135
 30
0.0
 40
7.92353722581862
  0
CIRCLE
  5
219
330
1F
100
AcDbEntity
  8
0
  6
PHANTOM
 62
     8
370
    18
100
AcDbCircle
 10
429.5398149239
 20
683.2673884865
 30
0.0
 40
0.1000000000000227
  0
CIRCLE
  5
21A
330
1F
100
AcDbEntity
  8
0
  6
PHANTOM
 62
     8
370
    18
100
AcDbCircle
 10
429.5398149239
 20
683.2673884865
 30
0.0
 40
7.923537225818677
  0
CIRCLE
  5
21B
330
1F
100
AcDbEntity
  8
0
  6
PHANTOM
 62
     8
370
    18
100
AcDbCircle
 10
520.8398149239
 20
591.9673884865
 30
0.0
 40
0.1000000000000227
  0
CIRCLE
  5
21C
330
1F
100
AcDbEntity
  8
0
  6
PHANTOM
 62
     8
370
    18
100
AcDbCircle
 10
520.8398149239
 20
591.9673884865
 30
0.0
 40
7.923537225818677
  0
CIRCLE
  5
21D
330
1F
100
AcDbEntity
  8
0
  6
PHANTOM
 62
     8
370
    18
100
AcDbCircle
 10
-357.7601850761
 20
591.9673884865
 30
0.0
 40
0.1000000000000227
  0
CIRCLE
  5
21E
330
1F
100
AcDbEntity
  8
0
  6
PHANTOM
 62
     8
370
    18
100
AcDbCircle
 10
-357.7601850761
 20
591.9673884865
 30
0.0
 40
7.923537225818677
  0
LINE
  5
21F
330
1F
100
AcDbEntity
  8
0
  6
PHANTOM
 62
     8
370
    18
100
AcDbLine
 10
552.0398149239
 20
714.4673884865
 30
0.0
 11
517.0398149239
 21
714.4673884865
 31
0.0
  0
LINE
  5
220
330
1F
100
AcDbEntity
  8
0
  6
PHANTOM
 62
     8
370
    18
100
AcDbLine
 10
552.0398149239
 20
679.4673884865
 30
0.0
 11
552.0398149239
 21
714.4673884865
 31
0.0
  0
LINE
  5
221
330
1F
100
AcDbEntity
  8
0
  6
PHANTOM
 62
     8
370
    18
100
AcDbLine
 10
552.0398149239
 20
714.4673884865
 30
0.0
 11
562.0398149239
 21
714.4673884865
 31
0.0
  0
LINE
  5
222
330
1F
100
AcDbEntity
  8
0
  6
PHANTOM
 62
     8
370
    18
100
AcDbLine
 10
552.0398149239
 20
724.4673884865
 30
0.0
 11
552.0398149239
 21
714.4673884865
 31
0.0
  0
LINE
  5
223
330
1F
100
AcDbEntity
  8
0
  6
PHANTOM
 62
     8
370
    18
100
AcDbLine
 10
517.0398149239
 20
-370.5326115135
 30
0.0
 11
552.0398149239
 21
-370.5326115135
 31
0.0
  0
LINE
  5
224
330
1F
100
AcDbEntity
  8
0
  6
PHANTOM
 62
     8
370
    18
100
AcDbLine
 10
552.0398149239
 20
-370.5326115135
 30
0.0
 11
552.0398149239
 21
-380.5326115135
 31
0.0
  0
LINE
  5
225
330
1F
100
AcDbEntity
  8
0
  6
PHANTOM
 62
     8
370
    18
100
AcDbLine
 10
552.0398149239
 20
-370.5326115135
 30
0.0
 11
552.0398149239
 21
-335.5326115135
 31
0.0
  0
LINE
  5
226
330
1F
100
AcDbEntity
  8
0
  6
PHANTOM
 62
     8
370
    18
100
AcDbLine
 10
562.0398149239
 20
-370.5326115135
 30
0.0
 11
552.0398149239
 21
-370.5326115135
 31
0.0
  0
LINE
  5
227
330
1F
100
AcDbEntity
  8
0
  6
PHANTOM
 62
     8
370
    18
100
AcDbLine
 10
-388.9601850761
 20
-370.5326115135
 30
0.0
 11
-398.9601850761
 21
-370.5326115135
 31
0.0
  0
LINE
  5
228
330
1F
100
AcDbEntity
  8
0
  6
PHANTOM
 62
     8
370
    18
100
AcDbLine
 10
-388.9601850761
 20
-370.5326115135
 30
0.0
 11
-388.9601850761
 21
-380.5326115135
 31
0.0
  0
LINE
  5
229
330
1F
100
AcDbEntity
  8
0
  6
PHANTOM
 62
     8
370
    18
100
AcDbLine
 10
-388.9601850761
 20
-370.5326115135
 30
0.0
 11
-353.9601850761
 21
-370.5326115135
 31
0.0
  0
LINE
  5
22A
330
1F
100
AcDbEntity
  8
0
  6
PHANTOM
 62
     8
370
    18
100
AcDbLine
 10
-388.9601850761
 20
-335.5326115135
 30
0.0
 11
-388.9601850761
 21
-370.5326115135
 31
0.0
  0
LINE
  5
22B
330
1F
100
AcDbEntity
  8
0
  6
PHANTOM
 62
     8
370
    18
100
AcDbLine
 10
-398.9601850761
 20
714.4673884865
 30
0.0
 11
-388.9601850761
 21
714.4673884865
 31
0.0
  0
LINE
  5
22C
330
1F
100
AcDbEntity
  8
0
  6
PHANTOM
 62
     8
370
    18
100
AcDbLine
 10
-388.9601850761
 20
714.4673884865
 30
0.0
 11
-388.9601850761
 21
679.4673884865
 31
0.0
  0
LINE
  5
22D
330
1F
100
AcDbEntity
  8
0
  6
PHANTOM
 62
     8
370
    18
100
AcDbLine
 10
-388.9601850761
 20
714.4673884865
 30
0.0
 11
-353.9601850761
 21
714.4673884865
 31
0.0
  0
LINE
  5
22E
330
1F
100
AcDbEntity
  8
0
  6
PHANTOM
 62
     8
370
    18
100
AcDbLine
 10
-388.9601850761
 20
724.4673884865
 30
0.0
 11
-388.9601850761
 21
714.4673884865
 31
0.0
  0
LINE
  5
22F
330
1F
100
AcDbEntity
  8
0
  6
PHANTOM
 62
     8
370
    18
100
AcDbLine
 10
-388.9601850761
 20
679.4673884865
 30
0.0
 11
-388.9601850761
 21
-335.5326115135
 31
0.0
  0
LINE
  5
230
330
1F
100
AcDbEntity
  8
0
  6
PHANTOM
 62
     8
370
    18
100
AcDbLine
 10
-369.2601850761
 20
679.4673884865
 30
0.0
 11
-369.2601850761
 21
-335.5326115135
 31
0.0
  0
LINE
  5
231
330
1F
100
AcDbEntity
  8
0
  6
PHANTOM
 62
     8
370
    18
100
AcDbLine
 10
532.3398149239
 20
-335.5326115135
 30
0.0
 11
532.3398149239
 21
679.4673884865
 31
0.0
  0
LINE
  5
232
330
1F
100
AcDbEntity
  8
0
  6
PHANTOM
 62
     8
370
    18
100
AcDbLine
 10
552.0398149239
 20
-335.5326115135
 30
0.0
 11
552.0398149239
 21
679.4673884865
 31
0.0
  0
LINE
  5
233
330
1F
100
AcDbEntity
  8
0
  6
PHANTOM
 62
     8
370
    18
100
AcDbLine
 10
517.0398149239
 20
-350.8326115135
 30
0.0
 11
-353.9601850761
 21
-350.8326115135
 31
0.0
  0
LINE
  5
234
330
1F
100
AcDbEntity
  8
0
  6
PHANTOM
 62
     8
370
    18
100
AcDbLine
 10
517.0398149239
 20
-370.5326115135
 30
0.0
 11
-353.9601850761
 21
-370.5326115135
 31
0.0
  0
LINE
  5
235
330
1F
100
AcDbEntity
  8
0
  6
PHANTOM
 62
     8
370
    18
100
AcDbLine
 10
-353.9601850761
 20
694.7673884865
 30
0.0
 11
517.0398149239
 21
694.7673884865
 31
0.0
  0
LINE
  5
236
330
1F
100
AcDbEntity
  8
0
  6
PHANTOM
 62
     8
370
    18
100
AcDbLine
 10
-353.9601850761
 20
714.4673884865
 30
0.0
 11
517.0398149239
 21
714.4673884865
 31
0.0
  0
LINE
  5
237
330
1F
100
AcDbEntity
  8
0
100
AcDbLine
 10
2228.4436518288
 20
216.0568800175
 30
0.0
 11
2227.9436518288
 21
216.0568800175
 31
0.0
  0
LINE
  5
238
330
1F
100
AcDbEntity
  8
0
100
AcDbLine
 10
2227.9436518288
 20
143.0568800175
 30
0.0
 11
2228.4436518288
 21
143.0568800175
 31
0.0
  0
LINE
  5
239
330
1F
100
AcDbEntity
  8
0
100
AcDbLine
 10
1134.4436518288
 20
-380.5326115135
 30
0.0
 11
1134.4436518288
 21
-382.1326115135
 31
0.0
  0
LINE
  5
23A
330
1F
100
AcDbEntity
  8
0
100
AcDbLine
 10
1150.4436518288
 20
-382.1326115135
 30
0.0
 11
1150.4436518288
 21
-380.5326115135
 31
0.0
  0
LINE
  5
23B
330
1F
100
AcDbEntity
  8
0
100
AcDbLine
 10
1150.4436518288
 20
724.4673884865
 30
0.0
 11
1150.4436518288
 21
726.0673884865
 31
0.0
  0
LINE
  5
23C
330
1F
100
AcDbEntity
  8
0
100
AcDbLine
 10
1134.4436518288
 20
726.0673884865
 30
0.0
 11
1134.4436518288
 21
724.4673884865
 31
0.0
  0
LINE
  5
23D
330
1F
100
AcDbEntity
  8
0
100
AcDbLine
 10
2216.4436518288
 20
724.4673884865
 30
0.0
 11
2216.4436518288
 21
726.0673884865
 31
0.0
  0
LINE
  5
23E
330
1F
100
AcDbEntity
  8
0
100
AcDbLine
 10
2200.4436518288
 20
726.0673884865
 30
0.0
 11
2200.4436518288
 21
724.4673884865
 31
0.0
  0
LINE
  5
23F
330
1F
100
AcDbEntity
  8
0
100
AcDbLine
 10
2200.4436518288
 20
-380.5326115135
 30
0.0
 11
2200.4436518288
 21
-382.1326115135
 31
0.0
  0
LINE
  5
240
330
1F
100
AcDbEntity
  8
0
100
AcDbLine
 10
2216.4436518288
 20
-382.1326115135
 30
0.0
 11
2216.4436518288
 21
-380.5326115135
 31
0.0
  0
LINE
  5
241
330
1F
100
AcDbEntity
  8
0
100
AcDbLine
 10
1881.4436518288
 20
670.4673884865
 30
0.0
 11
1881.4436518288
 21
676.2673884865
 31
0.0
  0
LINE
  5
242
330
1F
100
AcDbEntity
  8
0
100
AcDbLine
 10
1882.4436518288
 20
670.4673884865
 30
0.0
 11
1882.4436518288
 21
676.2673884865
 31
0.0
  0
LINE
  5
243
330
1F
100
AcDbEntity
  8
0
100
AcDbLine
 10
1882.4436518288
 20
665.4673884865
 30
0.0
 11
1881.4436518288
 21
665.4673884865
 31
0.0
  0
LINE
  5
244
330
1F
100
AcDbEntity
  8
0
100
AcDbLine
 10
1881.4436518288
 20
665.4673884865
 30
0.0
 11
1881.4436518288
 21
670.4673884865
 31
0.0
  0
LINE
  5
245
330
1F
100
AcDbEntity
  8
0
100
AcDbLine
 10
1882.4436518288
 20
670.4673884865
 30
0.0
 11
1882.4436518288
 21
665.4673884865
 31
0.0
  0
LINE
  5
246
330
1F
100
AcDbEntity
  8
0
100
AcDbLine
 10
2087.4436518288
 20
676.2673884865
 30
0.0
 11
2087.4436518288
 21
670.4673884865
 31
0.0
  0
LINE
  5
247
330
1F
100
AcDbEntity
  8
0
100
AcDbLine
 10
2086.4436518288
 20
676.2673884865
 30
0.0
 11
2086.4436518288
 21
670.4673884865
 31
0.0
  0
LINE
  5
248
330
1F
100
AcDbEntity
  8
0
100
AcDbLine
 10
2087.4436518288
 20
665.4673884865
 30
0.0
 11
2086.4436518288
 21
665.4673884865
 31
0.0
  0
LINE
  5
249
330
1F
100
AcDbEntity
  8
0
100
AcDbLine
 10
2086.4436518288
 20
665.4673884865
 30
0.0
 11
2086.4436518288
 21
670.4673884865
 31
0.0
  0
LINE
  5
24A
330
1F
100
AcDbEntity
  8
0
100
AcDbLine
 10
2087.4436518288
 20
670.4673884865
 30
0.0
 11
2087.4436518288
 21
665.4673884865
 31
0.0
  0
LINE
  5
24B
330
1F
100
AcDbEntity
  8
0
100
AcDbLine
 10
1263.4436518288
 20
-332.3326115136
 30
0.0
 11
1263.4436518288
 21
-326.5326115135
 31
0.0
  0
LINE
  5
24C
330
1F
100
AcDbEntity
  8
0
100
AcDbLine
 10
1264.4436518288
 20
-332.3326115136
 30
0.0
 11
1264.4436518288
 21
-326.5326115135
 31
0.0
  0
LINE
  5
24D
330
1F
100
AcDbEntity
  8
0
100
AcDbLine
 10
1263.4436518288
 20
-321.5326115135
 30
0.0
 11
1264.4436518288
 21
-321.5326115135
 31
0.0
  0
LINE
  5
24E
330
1F
100
AcDbEntity
  8
0
100
AcDbLine
 10
1264.4436518288
 20
-321.5326115135
 30
0.0
 11
1264.4436518288
 21
-326.5326115135
 31
0.0
  0
LINE
  5
24F
330
1F
100
AcDbEntity
  8
0
100
AcDbLine
 10
1263.4436518288
 20
-326.5326115135
 30
0.0
 11
1263.4436518288
 21
-321.5326115135
 31
0.0
  0
LINE
  5
250
330
1F
100
AcDbEntity
  8
0
100
AcDbLine
 10
1468.4436518288
 20
-326.5326115135
 30
0.0
 11
1468.4436518288
 21
-321.5326115135
 31
0.0
  0
LINE
  5
251
330
1F
100
AcDbEntity
  8
0
100
AcDbLine
 10
1468.4436518288
 20
-321.5326115135
 30
0.0
 11
1469.4436518288
 21
-321.5326115135
 31
0.0
  0
LINE
  5
252
330
1F
100
AcDbEntity
  8
0
100
AcDbLine
 10
1469.4436518288
 20
-321.5326115135
 30
0.0
 11
1469.4436518288
 21
-326.5326115135
 31
0.0
  0
LINE
  5
253
330
1F
100
AcDbEntity
  8
0
100
AcDbLine
 10
1469.4436518288
 20
-326.5326115135
 30
0.0
 11
1469.4436518288
 21
-332.3326115136
 31
0.0
  0
LINE
  5
254
330
1F
100
AcDbEntity
  8
0
100
AcDbLine
 10
1468.4436518288
 20
-326.5326115135
 30
0.0
 11
1468.4436518288
 21
-332.3326115136
 31
0.0
  0
LINE
  5
255
330
1F
100
AcDbEntity
  8
0
100
AcDbLine
 10
1264.4436518288
 20
665.4673884864
 30
0.0
 11
1263.4436518288
 21
665.4673884864
 31
0.0
  0
LINE
  5
256
330
1F
100
AcDbEntity
  8
0
100
AcDbLine
 10
1264.4436518288
 20
670.4673884864
 30
0.0
 11
1264.4436518288
 21
665.4673884864
 31
0.0
  0
LINE
  5
257
330
1F
100
AcDbEntity
  8
0
100
AcDbLine
 10
1263.4436518288
 20
665.4673884864
 30
0.0
 11
1263.4436518288
 21
670.4673884864
 31
0.0
  0
LINE
  5
258
330
1F
100
AcDbEntity
  8
0
100
AcDbLine
 10
1264.4436518288
 20
670.4673884864
 30
0.0
 11
1264.4436518288
 21
676.2673884864
 31
0.0
  0
LINE
  5
259
330
1F
100
AcDbEntity
  8
0
100
AcDbLine
 10
1263.4436518288
 20
670.4673884864
 30
0.0
 11
1263.4436518288
 21
676.2673884864
 31
0.0
  0
LINE
  5
25A
330
1F
100
AcDbEntity
  8
0
100
AcDbLine
 10
1469.4436518288
 20
676.2673884864
 30
0.0
 11
1469.4436518288
 21
670.4673884864
 31
0.0
  0
LINE
  5
25B
330
1F
100
AcDbEntity
  8
0
100
AcDbLine
 10
1468.4436518288
 20
676.2673884864
 30
0.0
 11
1468.4436518288
 21
670.4673884864
 31
0.0
  0
LINE
  5
25C
330
1F
100
AcDbEntity
  8
0
100
AcDbLine
 10
1469.4436518288
 20
665.4673884864
 30
0.0
 11
1468.4436518288
 21
665.4673884864
 31
0.0
  0
LINE
  5
25D
330
1F
100
AcDbEntity
  8
0
100
AcDbLine
 10
1469.4436518288
 20
670.4673884864
 30
0.0
 11
1469.4436518288
 21
665.4673884864
 31
0.0
  0
LINE
  5
25E
330
1F
100
AcDbEntity
  8
0
100
AcDbLine
 10
1468.4436518288
 20
665.4673884864
 30
0.0
 11
1468.4436518288
 21
670.4673884864
 31
0.0
  0
LINE
  5
25F
330
1F
100
AcDbEntity
  8
0
100
AcDbLine
 10
1881.4436518288
 20
-332.3326115136
 30
0.0
 11
1881.4436518288
 21
-326.5326115135
 31
0.0
  0
LINE
  5
260
330
1F
100
AcDbEntity
  8
0
100
AcDbLine
 10
1882.4436518288
 20
-332.3326115136
 30
0.0
 11
1882.4436518288
 21
-326.5326115135
 31
0.0
  0
LINE
  5
261
330
1F
100
AcDbEntity
  8
0
100
AcDbLine
 10
1881.4436518288
 20
-321.5326115135
 30
0.0
 11
1882.4436518288
 21
-321.5326115135
 31
0.0
  0
LINE
  5
262
330
1F
100
AcDbEntity
  8
0
100
AcDbLine
 10
1882.4436518288
 20
-321.5326115135
 30
0.0
 11
1882.4436518288
 21
-326.5326115135
 31
0.0
  0
LINE
  5
263
330
1F
100
AcDbEntity
  8
0
100
AcDbLine
 10
1881.4436518288
 20
-326.5326115135
 30
0.0
 11
1881.4436518288
 21
-321.5326115135
 31
0.0
  0
LINE
  5
264
330
1F
100
AcDbEntity
  8
0
100
AcDbLine
 10
2086.4436518288
 20
-321.5326115135
 30
0.0
 11
2087.4436518288
 21
-321.5326115135
 31
0.0
  0
LINE
  5
265
330
1F
100
AcDbEntity
  8
0
100
AcDbLine
 10
2087.4436518288
 20
-321.5326115135
 30
0.0
 11
2087.4436518288
 21
-326.5326115135
 31
0.0
  0
LINE
  5
266
330
1F
100
AcDbEntity
  8
0
100
AcDbLine
 10
2086.4436518288
 20
-326.5326115135
 30
0.0
 11
2086.4436518288
 21
-321.5326115135
 31
0.0
  0
LINE
  5
267
330
1F
100
AcDbEntity
  8
0
100
AcDbLine
 10
2087.4436518288
 20
-326.5326115135
 30
0.0
 11
2087.4436518288
 21
-332.3326115136
 31
0.0
  0
LINE
  5
268
330
1F
100
AcDbEntity
  8
0
100
AcDbLine
 10
2086.4436518288
 20
-326.5326115135
 30
0.0
 11
2086.4436518288
 21
-332.3326115136
 31
0.0
  0
LINE
  5
269
330
1F
100
AcDbEntity
  8
0
100
AcDbLine
 10
1573.4436518288
 20
670.4673884864
 30
0.0
 11
1573.4436518288
 21
665.4673884864
 31
0.0
  0
LINE
  5
26A
330
1F
100
AcDbEntity
  8
0
100
AcDbLine
 10
1573.4436518288
 20
665.4673884864
 30
0.0
 11
1572.4436518288
 21
665.4673884864
 31
0.0
  0
LINE
  5
26B
330
1F
100
AcDbEntity
  8
0
100
AcDbLine
 10
1572.4436518288
 20
665.4673884864
 30
0.0
 11
1572.4436518288
 21
670.4673884864
 31
0.0
  0
LINE
  5
26C
330
1F
100
AcDbEntity
  8
0
100
AcDbLine
 10
1573.4436518288
 20
670.4673884864
 30
0.0
 11
1573.4436518288
 21
676.2673884865
 31
0.0
  0
LINE
  5
26D
330
1F
100
AcDbEntity
  8
0
100
AcDbLine
 10
1572.4436518288
 20
670.4673884864
 30
0.0
 11
1572.4436518288
 21
676.2673884865
 31
0.0
  0
LINE
  5
26E
330
1F
100
AcDbEntity
  8
0
100
AcDbLine
 10
1778.4436518288
 20
676.2673884865
 30
0.0
 11
1778.4436518288
 21
670.4673884864
 31
0.0
  0
LINE
  5
26F
330
1F
100
AcDbEntity
  8
0
100
AcDbLine
 10
1777.4436518288
 20
676.2673884865
 30
0.0
 11
1777.4436518288
 21
670.4673884864
 31
0.0
  0
LINE
  5
270
330
1F
100
AcDbEntity
  8
0
100
AcDbLine
 10
1778.4436518288
 20
665.4673884864
 30
0.0
 11
1777.4436518288
 21
665.4673884864
 31
0.0
  0
LINE
  5
271
330
1F
100
AcDbEntity
  8
0
100
AcDbLine
 10
1778.4436518288
 20
670.4673884864
 30
0.0
 11
1778.4436518288
 21
665.4673884864
 31
0.0
  0
LINE
  5
272
330
1F
100
AcDbEntity
  8
0
100
AcDbLine
 10
1777.4436518288
 20
665.4673884864
 30
0.0
 11
1777.4436518288
 21
670.4673884864
 31
0.0
  0
LINE
  5
273
330
1F
100
AcDbEntity
  8
0
100
AcDbLine
 10
1573.4436518288
 20
-332.3326115136
 30
0.0
 11
1573.4436518288
 21
-326.5326115135
 31
0.0
  0
LINE
  5
274
330
1F
100
AcDbEntity
  8
0
100
AcDbLine
 10
1572.4436518288
 20
-332.3326115136
 30
0.0
 11
1572.4436518288
 21
-326.5326115135
 31
0.0
  0
LINE
  5
275
330
1F
100
AcDbEntity
  8
0
100
AcDbLine
 10
1572.4436518288
 20
-321.5326115135
 30
0.0
 11
1573.4436518288
 21
-321.5326115135
 31
0.0
  0
LINE
  5
276
330
1F
100
AcDbEntity
  8
0
100
AcDbLine
 10
1573.4436518288
 20
-321.5326115135
 30
0.0
 11
1573.4436518288
 21
-326.5326115135
 31
0.0
  0
LINE
  5
277
330
1F
100
AcDbEntity
  8
0
100
AcDbLine
 10
1572.4436518288
 20
-326.5326115135
 30
0.0
 11
1572.4436518288
 21
-321.5326115135
 31
0.0
  0
LINE
  5
278
330
1F
100
AcDbEntity
  8
0
100
AcDbLine
 10
1777.4436518288
 20
-326.5326115135
 30
0.0
 11
1777.4436518288
 21
-321.5326115135
 31
0.0
  0
LINE
  5
279
330
1F
100
AcDbEntity
  8
0
100
AcDbLine
 10
1777.4436518288
 20
-321.5326115135
 30
0.0
 11
1778.4436518288
 21
-321.5326115135
 31
0.0
  0
LINE
  5
27A
330
1F
100
AcDbEntity
  8
0
100
AcDbLine
 10
1778.4436518288
 20
-321.5326115135
 30
0.0
 11
1778.4436518288
 21
-326.5326115135
 31
0.0
  0
LINE
  5
27B
330
1F
100
AcDbEntity
  8
0
100
AcDbLine
 10
1777.4436518288
 20
-326.5326115135
 30
0.0
 11
1777.4436518288
 21
-332.3326115136
 31
0.0
  0
LINE
  5
27C
330
1F
100
AcDbEntity
  8
0
100
AcDbLine
 10
1778.4436518288
 20
-326.5326115135
 30
0.0
 11
1778.4436518288
 21
-332.3326115136
 31
0.0
  0
LINE
  5
27D
330
1F
100
AcDbEntity
  8
0
100
AcDbLine
 10
2228.4436518288
 20
148.1097891643
 30
0.0
 11
2228.4436518288
 21
145.119308063
 31
0.0
  0
LINE
  5
27E
330
1F
100
AcDbEntity
  8
0
100
AcDbLine
 10
2228.4436518288
 20
211.0039708707
 30
0.0
 11
2228.4436518288
 21
148.1097891643
 31
0.0
  0
LINE
  5
27F
330
1F
100
AcDbEntity
  8
0
100
AcDbLine
 10
2228.4436518288
 20
213.994451972
 30
0.0
 11
2228.4436518288
 21
211.0039708707
 31
0.0
  0
LINE
  5
280
330
1F
100
AcDbEntity
  8
0
100
AcDbLine
 10
2228.4436518288
 20
216.0568800175
 30
0.0
 11
2228.4436518288
 21
213.994451972
 31
0.0
  0
LINE
  5
281
330
1F
100
AcDbEntity
  8
0
100
AcDbLine
 10
2228.4436518288
 20
145.119308063
 30
0.0
 11
2228.4436518288
 21
143.0568800175
 31
0.0
  0
ARC
  5
282
330
1F
100
AcDbEntity
  8
0
100
AcDbCircle
 10
2225.9436518288
 20
196.7268800175
 30
0.0
 40
3.500000000000065
100
AcDbArc
 50
315.5846914028
 51
44.4153085972
  0
LINE
  5
283
330
1F
100
AcDbEntity
  8
0
100
AcDbLine
 10
2197.4436518288
 20
-350.3326115136
 30
0.0
 11
2197.4436518288
 21
-332.3326115136
 31
0.0
  0
LINE
  5
284
330
1F
100
AcDbEntity
  8
0
100
AcDbLine
 10
2197.4436518288
 20
-332.3326115136
 30
0.0
 11
1153.4436518288
 21
-332.3326115136
 31
0.0
  0
LINE
  5
285
330
1F
100
AcDbEntity
  8
0
100
AcDbLine
 10
1153.4436518288
 20
-332.3326115136
 30
0.0
 11
1153.4436518288
 21
-350.3326115136
 31
0.0
  0
LINE
  5
286
330
1F
100
AcDbEntity
  8
0
100
AcDbLine
 10
2197.4436518288
 20
694.2673884865
 30
0.0
 11
2197.4436518288
 21
676.2673884865
 31
0.0
  0
LINE
  5
287
330
1F
100
AcDbEntity
  8
0
100
AcDbLine
 10
2197.4436518288
 20
676.2673884865
 30
0.0
 11
1153.4436518288
 21
676.2673884864
 31
0.0
  0
LINE
  5
288
330
1F
100
AcDbEntity
  8
0
100
AcDbLine
 10
1153.4436518288
 20
676.2673884864
 30
0.0
 11
1153.4436518288
 21
694.2673884864
 31
0.0
  0
LINE
  5
289
330
1F
100
AcDbEntity
  8
0
100
AcDbLine
 10
1153.1436518288
 20
676.4673884865
 30
0.0
 11
1171.1436518288
 21
676.4673884865
 31
0.0
  0
LINE
  5
28A
330
1F
100
AcDbEntity
  8
0
100
AcDbLine
 10
1171.1436518288
 20
676.4673884865
 30
0.0
 11
1171.1436518288
 21
-332.5326115136
 31
0.0
  0
LINE
  5
28B
330
1F
100
AcDbEntity
  8
0
100
AcDbLine
 10
1171.1436518288
 20
-332.5326115136
 30
0.0
 11
1153.1436518288
 21
-332.5326115136
 31
0.0
  0
LINE
  5
28C
330
1F
100
AcDbEntity
  8
0
100
AcDbLine
 10
2179.7436518288
 20
-332.7326115135
 30
0.0
 11
2179.7436518288
 21
676.2673884865
 31
0.0
  0
LINE
  5
28D
330
1F
100
AcDbEntity
  8
0
100
AcDbLine
 10
2179.7436518288
 20
676.2673884865
 30
0.0
 11
2197.7436518288
 21
676.2673884865
 31
0.0
  0
LINE
  5
28E
330
1F
100
AcDbEntity
  8
0
100
AcDbLine
 10
2197.7436518288
 20
-332.7326115135
 30
0.0
 11
2179.7436518288
 21
-332.7326115135
 31
0.0
  0
LINE
  5
28F
330
1F
100
AcDbEntity
  8
0
100
AcDbLine
 10
2098.1136518288
 20
-332.3326115136
 30
0.0
 11
2098.1136518288
 21
-332.1326115135
 31
0.0
  0
LINE
  5
290
330
1F
100
AcDbEntity
  8
0
100
AcDbLine
 10
2101.0686518288
 20
-332.1326115135
 30
0.0
 11
2101.0686518288
 21
-332.3326115136
 31
0.0
  0
LINE
  5
291
330
1F
100
AcDbEntity
  8
0
100
AcDbLine
 10
2089.8186518288
 20
-332.1326115135
 30
0.0
 11
2089.8186518288
 21
-332.3326115136
 31
0.0
  0
LINE
  5
292
330
1F
100
AcDbEntity
  8
0
100
AcDbLine
 10
2092.7736518288
 20
-332.1326115135
 30
0.0
 11
2092.7736518288
 21
-332.3326115136
 31
0.0
  0
LINE
  5
293
330
1F
100
AcDbEntity
  8
0
100
AcDbLine
 10
2098.1136518288
 20
-331.6326115135
 30
0.0
 11
2101.0686518288
 21
-331.6326115135
 31
0.0
  0
LINE
  5
294
330
1F
100
AcDbEntity
  8
0
100
AcDbLine
 10
2098.1136518288
 20
-332.1326115135
 30
0.0
 11
2098.1136518288
 21
-331.6326115135
 31
0.0
  0
LINE
  5
295
330
1F
100
AcDbEntity
  8
0
100
AcDbLine
 10
2101.0686518288
 20
-331.6326115135
 30
0.0
 11
2101.0686518288
 21
-332.1326115135
 31
0.0
  0
LINE
  5
296
330
1F
100
AcDbEntity
  8
0
100
AcDbLine
 10
2089.8186518288
 20
-331.6326115135
 30
0.0
 11
2092.7736518288
 21
-331.6326115135
 31
0.0
  0
LINE
  5
297
330
1F
100
AcDbEntity
  8
0
100
AcDbLine
 10
2089.8186518288
 20
-332.1326115135
 30
0.0
 11
2089.8186518288
 21
-331.6326115135
 31
0.0
  0
LINE
  5
298
330
1F
100
AcDbEntity
  8
0
100
AcDbLine
 10
2092.7736518288
 20
-331.6326115135
 30
0.0
 11
2092.7736518288
 21
-332.1326115135
 31
0.0
  0
LINE
  5
299
330
1F
100
AcDbEntity
  8
0
100
AcDbLine
 10
1171.1436518288
 20
-250.7026115135
 30
0.0
 11
1171.3436518288
 21
-250.7026115135
 31
0.0
  0
LINE
  5
29A
330
1F
100
AcDbEntity
  8
0
100
AcDbLine
 10
1171.3436518288
 20
-253.6576115135
 30
0.0
 11
1171.1436518288
 21
-253.6576115135
 31
0.0
  0
LINE
  5
29B
330
1F
100
AcDbEntity
  8
0
100
AcDbLine
 10
1171.3436518288
 20
-242.4076115135
 30
0.0
 11
1171.1436518288
 21
-242.4076115135
 31
0.0
  0
LINE
  5
29C
330
1F
100
AcDbEntity
  8
0
100
AcDbLine
 10
1171.3436518288
 20
-245.3626115135
 30
0.0
 11
1171.1436518288
 21
-245.3626115135
 31
0.0
  0
LINE
  5
29D
330
1F
100
AcDbEntity
  8
0
100
AcDbLine
 10
1171.8436518288
 20
-250.7026115135
 30
0.0
 11
1171.8436518288
 21
-253.6576115135
 31
0.0
  0
LINE
  5
29E
330
1F
100
AcDbEntity
  8
0
100
AcDbLine
 10
1171.3436518288
 20
-250.7026115135
 30
0.0
 11
1171.8436518288
 21
-250.7026115135
 31
0.0
  0
LINE
  5
29F
330
1F
100
AcDbEntity
  8
0
100
AcDbLine
 10
1171.8436518288
 20
-253.6576115135
 30
0.0
 11
1171.3436518288
 21
-253.6576115135
 31
0.0
  0
LINE
  5
2A0
330
1F
100
AcDbEntity
  8
0
100
AcDbLine
 10
1171.8436518288
 20
-242.4076115135
 30
0.0
 11
1171.8436518288
 21
-245.3626115135
 31
0.0
  0
LINE
  5
2A1
330
1F
100
AcDbEntity
  8
0
100
AcDbLine
 10
1171.8436518288
 20
-245.3626115135
 30
0.0
 11
1171.3436518288
 21
-245.3626115135
 31
0.0
  0
LINE
  5
2A2
330
1F
100
AcDbEntity
  8
0
100
AcDbLine
 10
1171.3436518288
 20
-242.4076115135
 30
0.0
 11
1171.8436518288
 21
-242.4076115135
 31
0.0
  0
LINE
  5
2A3
330
1F
100
AcDbEntity
  8
0
100
AcDbLine
 10
1171.1436518288
 20
589.2973884865
 30
0.0
 11
1171.3436518288
 21
589.2973884865
 31
0.0
  0
LINE
  5
2A4
330
1F
100
AcDbEntity
  8
0
100
AcDbLine
 10
1171.3436518288
 20
586.3423884865
 30
0.0
 11
1171.1436518288
 21
586.3423884865
 31
0.0
  0
LINE
  5
2A5
330
1F
100
AcDbEntity
  8
0
100
AcDbLine
 10
1171.3436518288
 20
597.5923884865
 30
0.0
 11
1171.1436518288
 21
597.5923884865
 31
0.0
  0
LINE
  5
2A6
330
1F
100
AcDbEntity
  8
0
100
AcDbLine
 10
1171.3436518288
 20
594.6373884865
 30
0.0
 11
1171.1436518288
 21
594.6373884865
 31
0.0
  0
LINE
  5
2A7
330
1F
100
AcDbEntity
  8
0
100
AcDbLine
 10
1171.8436518288
 20
589.2973884865
 30
0.0
 11
1171.8436518288
 21
586.3423884865
 31
0.0
  0
LINE
  5
2A8
330
1F
100
AcDbEntity
  8
0
100
AcDbLine
 10
1171.3436518288
 20
589.2973884865
 30
0.0
 11
1171.8436518288
 21
589.2973884865
 31
0.0
  0
LINE
  5
2A9
330
1F
100
AcDbEntity
  8
0
100
AcDbLine
 10
1171.8436518288
 20
586.3423884865
 30
0.0
 11
1171.3436518288
 21
586.3423884865
 31
0.0
  0
LINE
  5
2AA
330
1F
100
AcDbEntity
  8
0
100
AcDbLine
 10
1171.8436518288
 20
597.5923884865
 30
0.0
 11
1171.8436518288
 21
594.6373884865
 31
0.0
  0
LINE
  5
2AB
330
1F
100
AcDbEntity
  8
0
100
AcDbLine
 10
1171.8436518288
 20
594.6373884865
 30
0.0
 11
1171.3436518288
 21
594.6373884865
 31
0.0
  0
LINE
  5
2AC
330
1F
100
AcDbEntity
  8
0
100
AcDbLine
 10
1171.3436518288
 20
597.5923884865
 30
0.0
 11
1171.8436518288
 21
597.5923884865
 31
0.0
  0
LINE
  5
2AD
330
1F
100
AcDbEntity
  8
0
100
AcDbLine
 10
1252.7736518288
 20
676.2673884865
 30
0.0
 11
1252.7736518288
 21
676.0673884865
 31
0.0
  0
LINE
  5
2AE
330
1F
100
AcDbEntity
  8
0
100
AcDbLine
 10
1249.8186518288
 20
676.0673884865
 30
0.0
 11
1249.8186518288
 21
676.2673884865
 31
0.0
  0
LINE
  5
2AF
330
1F
100
AcDbEntity
  8
0
100
AcDbLine
 10
1261.0686518288
 20
676.0673884865
 30
0.0
 11
1261.0686518288
 21
676.2673884865
 31
0.0
  0
LINE
  5
2B0
330
1F
100
AcDbEntity
  8
0
100
AcDbLine
 10
1258.1136518288
 20
676.0673884865
 30
0.0
 11
1258.1136518288
 21
676.2673884865
 31
0.0
  0
LINE
  5
2B1
330
1F
100
AcDbEntity
  8
0
100
AcDbLine
 10
1252.7736518288
 20
675.5673884865
 30
0.0
 11
1249.8186518288
 21
675.5673884865
 31
0.0
  0
LINE
  5
2B2
330
1F
100
AcDbEntity
  8
0
100
AcDbLine
 10
1252.7736518288
 20
676.0673884865
 30
0.0
 11
1252.7736518288
 21
675.5673884865
 31
0.0
  0
LINE
  5
2B3
330
1F
100
AcDbEntity
  8
0
100
AcDbLine
 10
1249.8186518288
 20
675.5673884865
 30
0.0
 11
1249.8186518288
 21
676.0673884865
 31
0.0
  0
LINE
  5
2B4
330
1F
100
AcDbEntity
  8
0
100
AcDbLine
 10
1261.0686518288
 20
676.0673884865
 30
0.0
 11
1261.0686518288
 21
675.5673884865
 31
0.0
  0
LINE
  5
2B5
330
1F
100
AcDbEntity
  8
0
100
AcDbLine
 10
1261.0686518288
 20
675.5673884865
 30
0.0
 11
1258.1136518288
 21
675.5673884865
 31
0.0
  0
LINE
  5
2B6
330
1F
100
AcDbEntity
  8
0
100
AcDbLine
 10
1258.1136518288
 20
675.5673884865
 30
0.0
 11
1258.1136518288
 21
676.0673884865
 31
0.0
  0
LINE
  5
2B7
330
1F
100
AcDbEntity
  8
0
100
AcDbLine
 10
2179.7436518288
 20
594.6373884865
 30
0.0
 11
2179.5436518288
 21
594.6373884865
 31
0.0
  0
LINE
  5
2B8
330
1F
100
AcDbEntity
  8
0
100
AcDbLine
 10
2179.5436518288
 20
586.3423884865
 30
0.0
 11
2179.7436518288
 21
586.3423884865
 31
0.0
  0
LINE
  5
2B9
330
1F
100
AcDbEntity
  8
0
100
AcDbLine
 10
2179.5436518288
 20
589.2973884865
 30
0.0
 11
2179.7436518288
 21
589.2973884865
 31
0.0
  0
LINE
  5
2BA
330
1F
100
AcDbEntity
  8
0
100
AcDbLine
 10
2179.5436518288
 20
597.5923884865
 30
0.0
 11
2179.7436518288
 21
597.5923884865
 31
0.0
  0
LINE
  5
2BB
330
1F
100
AcDbEntity
  8
0
100
AcDbLine
 10
2179.0436518288
 20
594.6373884865
 30
0.0
 11
2179.0436518288
 21
597.5923884865
 31
0.0
  0
LINE
  5
2BC
330
1F
100
AcDbEntity
  8
0
100
AcDbLine
 10
2179.5436518288
 20
594.6373884865
 30
0.0
 11
2179.0436518288
 21
594.6373884865
 31
0.0
  0
LINE
  5
2BD
330
1F
100
AcDbEntity
  8
0
100
AcDbLine
 10
2179.0436518288
 20
597.5923884865
 30
0.0
 11
2179.5436518288
 21
597.5923884865
 31
0.0
  0
LINE
  5
2BE
330
1F
100
AcDbEntity
  8
0
100
AcDbLine
 10
2179.0436518288
 20
586.3423884865
 30
0.0
 11
2179.0436518288
 21
589.2973884865
 31
0.0
  0
LINE
  5
2BF
330
1F
100
AcDbEntity
  8
0
100
AcDbLine
 10
2179.5436518288
 20
586.3423884865
 30
0.0
 11
2179.0436518288
 21
586.3423884865
 31
0.0
  0
LINE
  5
2C0
330
1F
100
AcDbEntity
  8
0
100
AcDbLine
 10
2179.0436518288
 20
589.2973884865
 30
0.0
 11
2179.5436518288
 21
589.2973884865
 31
0.0
  0
LINE
  5
2C1
330
1F
100
AcDbEntity
  8
0
100
AcDbLine
 10
1171.1436518288
 20
169.2973884865
 30
0.0
 11
1171.3436518288
 21
169.2973884865
 31
0.0
  0
LINE
  5
2C2
330
1F
100
AcDbEntity
  8
0
100
AcDbLine
 10
1171.3436518288
 20
177.5923884865
 30
0.0
 11
1171.1436518288
 21
177.5923884865
 31
0.0
  0
LINE
  5
2C3
330
1F
100
AcDbEntity
  8
0
100
AcDbLine
 10
1171.3436518288
 20
174.6373884865
 30
0.0
 11
1171.1436518288
 21
174.6373884865
 31
0.0
  0
LINE
  5
2C4
330
1F
100
AcDbEntity
  8
0
100
AcDbLine
 10
1171.3436518288
 20
166.3423884865
 30
0.0
 11
1171.1436518288
 21
166.3423884865
 31
0.0
  0
LINE
  5
2C5
330
1F
100
AcDbEntity
  8
0
100
AcDbLine
 10
1171.8436518288
 20
169.2973884865
 30
0.0
 11
1171.8436518288
 21
166.3423884865
 31
0.0
  0
LINE
  5
2C6
330
1F
100
AcDbEntity
  8
0
100
AcDbLine
 10
1171.3436518288
 20
169.2973884865
 30
0.0
 11
1171.8436518288
 21
169.2973884865
 31
0.0
  0
LINE
  5
2C7
330
1F
100
AcDbEntity
  8
0
100
AcDbLine
 10
1171.8436518288
 20
166.3423884865
 30
0.0
 11
1171.3436518288
 21
166.3423884865
 31
0.0
  0
LINE
  5
2C8
330
1F
100
AcDbEntity
  8
0
100
AcDbLine
 10
1171.3436518288
 20
177.5923884865
 30
0.0
 11
1171.8436518288
 21
177.5923884865
 31
0.0
  0
LINE
  5
2C9
330
1F
100
AcDbEntity
  8
0
100
AcDbLine
 10
1171.8436518288
 20
177.5923884865
 30
0.0
 11
1171.8436518288
 21
174.6373884865
 31
0.0
  0
LINE
  5
2CA
330
1F
100
AcDbEntity
  8
0
100
AcDbLine
 10
1171.8436518288
 20
174.6373884865
 30
0.0
 11
1171.3436518288
 21
174.6373884865
 31
0.0
  0
LINE
  5
2CB
330
1F
100
AcDbEntity
  8
0
100
AcDbLine
 10
2179.7436518288
 20
174.6373884865
 30
0.0
 11
2179.5436518288
 21
174.6373884865
 31
0.0
  0
LINE
  5
2CC
330
1F
100
AcDbEntity
  8
0
100
AcDbLine
 10
2179.5436518288
 20
166.3423884865
 30
0.0
 11
2179.7436518288
 21
166.3423884865
 31
0.0
  0
LINE
  5
2CD
330
1F
100
AcDbEntity
  8
0
100
AcDbLine
 10
2179.5436518288
 20
169.2973884865
 30
0.0
 11
2179.7436518288
 21
169.2973884865
 31
0.0
  0
LINE
  5
2CE
330
1F
100
AcDbEntity
  8
0
100
AcDbLine
 10
2179.5436518288
 20
177.5923884865
 30
0.0
 11
2179.7436518288
 21
177.5923884865
 31
0.0
  0
LINE
  5
2CF
330
1F
100
AcDbEntity
  8
0
100
AcDbLine
 10
2179.0436518288
 20
174.6373884865
 30
0.0
 11
2179.0436518288
 21
177.5923884865
 31
0.0
  0
LINE
  5
2D0
330
1F
100
AcDbEntity
  8
0
100
AcDbLine
 10
2179.5436518288
 20
174.6373884865
 30
0.0
 11
2179.0436518288
 21
174.6373884865
 31
0.0
  0
LINE
  5
2D1
330
1F
100
AcDbEntity
  8
0
100
AcDbLine
 10
2179.0436518288
 20
177.5923884865
 30
0.0
 11
2179.5436518288
 21
177.5923884865
 31
0.0
  0
LINE
  5
2D2
330
1F
100
AcDbEntity
  8
0
100
AcDbLine
 10
2179.0436518288
 20
166.3423884865
 30
0.0
 11
2179.0436518288
 21
169.2973884865
 31
0.0
  0
LINE
  5
2D3
330
1F
100
AcDbEntity
  8
0
100
AcDbLine
 10
2179.0436518288
 20
169.2973884865
 30
0.0
 11
2179.5436518288
 21
169.2973884865
 31
0.0
  0
LINE
  5
2D4
330
1F
100
AcDbEntity
  8
0
100
AcDbLine
 10
2179.5436518288
 20
166.3423884865
 30
0.0
 11
2179.0436518288
 21
166.3423884865
 31
0.0
  0
LINE
  5
2D5
330
1F
100
AcDbEntity
  8
0
100
AcDbLine
 10
1258.1136518288
 20
-332.3326115136
 30
0.0
 11
1258.1136518288
 21
-332.1326115136
 31
0.0
  0
LINE
  5
2D6
330
1F
100
AcDbEntity
  8
0
100
AcDbLine
 10
1261.0686518288
 20
-332.1326115136
 30
0.0
 11
1261.0686518288
 21
-332.3326115136
 31
0.0
  0
LINE
  5
2D7
330
1F
100
AcDbEntity
  8
0
100
AcDbLine
 10
1249.8186518288
 20
-332.1326115136
 30
0.0
 11
1249.8186518288
 21
-332.3326115136
 31
0.0
  0
LINE
  5
2D8
330
1F
100
AcDbEntity
  8
0
100
AcDbLine
 10
1252.7736518288
 20
-332.1326115136
 30
0.0
 11
1252.7736518288
 21
-332.3326115136
 31
0.0
  0
LINE
  5
2D9
330
1F
100
AcDbEntity
  8
0
100
AcDbLine
 10
1258.1136518288
 20
-331.6326115136
 30
0.0
 11
1261.0686518288
 21
-331.6326115136
 31
0.0
  0
LINE
  5
2DA
330
1F
100
AcDbEntity
  8
0
100
AcDbLine
 10
1258.1136518288
 20
-332.1326115136
 30
0.0
 11
1258.1136518288
 21
-331.6326115136
 31
0.0
  0
LINE
  5
2DB
330
1F
100
AcDbEntity
  8
0
100
AcDbLine
 10
1261.0686518288
 20
-331.6326115136
 30
0.0
 11
1261.0686518288
 21
-332.1326115136
 31
0.0
  0
LINE
  5
2DC
330
1F
100
AcDbEntity
  8
0
100
AcDbLine
 10
1249.8186518288
 20
-331.6326115136
 30
0.0
 11
1252.7736518288
 21
-331.6326115136
 31
0.0
  0
LINE
  5
2DD
330
1F
100
AcDbEntity
  8
0
100
AcDbLine
 10
1249.8186518288
 20
-332.1326115136
 30
0.0
 11
1249.8186518288
 21
-331.6326115136
 31
0.0
  0
LINE
  5
2DE
330
1F
100
AcDbEntity
  8
0
100
AcDbLine
 10
1252.7736518288
 20
-331.6326115136
 30
0.0
 11
1252.7736518288
 21
-332.1326115136
 31
0.0
  0
LINE
  5
2DF
330
1F
100
AcDbEntity
  8
0
100
AcDbLine
 10
2092.7736518288
 20
676.2673884865
 30
0.0
 11
2092.7736518288
 21
676.0673884865
 31
0.0
  0
LINE
  5
2E0
330
1F
100
AcDbEntity
  8
0
100
AcDbLine
 10
2101.0686518288
 20
676.0673884865
 30
0.0
 11
2101.0686518288
 21
676.2673884865
 31
0.0
  0
LINE
  5
2E1
330
1F
100
AcDbEntity
  8
0
100
AcDbLine
 10
2098.1136518288
 20
676.0673884865
 30
0.0
 11
2098.1136518288
 21
676.2673884865
 31
0.0
  0
LINE
  5
2E2
330
1F
100
AcDbEntity
  8
0
100
AcDbLine
 10
2089.8186518288
 20
676.0673884865
 30
0.0
 11
2089.8186518288
 21
676.2673884865
 31
0.0
  0
LINE
  5
2E3
330
1F
100
AcDbEntity
  8
0
100
AcDbLine
 10
2092.7736518288
 20
675.5673884865
 30
0.0
 11
2089.8186518288
 21
675.5673884865
 31
0.0
  0
LINE
  5
2E4
330
1F
100
AcDbEntity
  8
0
100
AcDbLine
 10
2092.7736518288
 20
676.0673884865
 30
0.0
 11
2092.7736518288
 21
675.5673884865
 31
0.0
  0
LINE
  5
2E5
330
1F
100
AcDbEntity
  8
0
100
AcDbLine
 10
2089.8186518288
 20
675.5673884865
 30
0.0
 11
2089.8186518288
 21
676.0673884865
 31
0.0
  0
LINE
  5
2E6
330
1F
100
AcDbEntity
  8
0
100
AcDbLine
 10
2101.0686518288
 20
676.0673884865
 30
0.0
 11
2101.0686518288
 21
675.5673884865
 31
0.0
  0
LINE
  5
2E7
330
1F
100
AcDbEntity
  8
0
100
AcDbLine
 10
2101.0686518288
 20
675.5673884865
 30
0.0
 11
2098.1136518288
 21
675.5673884865
 31
0.0
  0
LINE
  5
2E8
330
1F
100
AcDbEntity
  8
0
100
AcDbLine
 10
2098.1136518288
 20
675.5673884865
 30
0.0
 11
2098.1136518288
 21
676.0673884865
 31
0.0
  0
LINE
  5
2E9
330
1F
100
AcDbEntity
  8
0
100
AcDbLine
 10
1678.1136518288
 20
-332.3326115136
 30
0.0
 11
1678.1136518288
 21
-332.1326115135
 31
0.0
  0
LINE
  5
2EA
330
1F
100
AcDbEntity
  8
0
100
AcDbLine
 10
1681.0686518288
 20
-332.1326115135
 30
0.0
 11
1681.0686518288
 21
-332.3326115136
 31
0.0
  0
LINE
  5
2EB
330
1F
100
AcDbEntity
  8
0
100
AcDbLine
 10
1669.8186518288
 20
-332.1326115135
 30
0.0
 11
1669.8186518288
 21
-332.3326115136
 31
0.0
  0
LINE
  5
2EC
330
1F
100
AcDbEntity
  8
0
100
AcDbLine
 10
1672.7736518288
 20
-332.1326115135
 30
0.0
 11
1672.7736518288
 21
-332.3326115136
 31
0.0
  0
LINE
  5
2ED
330
1F
100
AcDbEntity
  8
0
100
AcDbLine
 10
1678.1136518288
 20
-331.6326115135
 30
0.0
 11
1681.0686518288
 21
-331.6326115135
 31
0.0
  0
LINE
  5
2EE
330
1F
100
AcDbEntity
  8
0
100
AcDbLine
 10
1678.1136518288
 20
-332.1326115135
 30
0.0
 11
1678.1136518288
 21
-331.6326115135
 31
0.0
  0
LINE
  5
2EF
330
1F
100
AcDbEntity
  8
0
100
AcDbLine
 10
1681.0686518288
 20
-331.6326115135
 30
0.0
 11
1681.0686518288
 21
-332.1326115135
 31
0.0
  0
LINE
  5
2F0
330
1F
100
AcDbEntity
  8
0
100
AcDbLine
 10
1669.8186518288
 20
-332.1326115135
 30
0.0
 11
1669.8186518288
 21
-331.6326115135
 31
0.0
  0
LINE
  5
2F1
330
1F
100
AcDbEntity
  8
0
100
AcDbLine
 10
1669.8186518288
 20
-331.6326115135
 30
0.0
 11
1672.7736518288
 21
-331.6326115135
 31
0.0
  0
LINE
  5
2F2
330
1F
100
AcDbEntity
  8
0
100
AcDbLine
 10
1672.7736518288
 20
-331.6326115135
 30
0.0
 11
1672.7736518288
 21
-332.1326115135
 31
0.0
  0
LINE
  5
2F3
330
1F
100
AcDbEntity
  8
0
100
AcDbLine
 10
2179.7436518288
 20
-245.3626115135
 30
0.0
 11
2179.5436518288
 21
-245.3626115135
 31
0.0
  0
LINE
  5
2F4
330
1F
100
AcDbEntity
  8
0
100
AcDbLine
 10
2179.5436518288
 20
-253.6576115135
 30
0.0
 11
2179.7436518288
 21
-253.6576115135
 31
0.0
  0
LINE
  5
2F5
330
1F
100
AcDbEntity
  8
0
100
AcDbLine
 10
2179.5436518288
 20
-250.7026115135
 30
0.0
 11
2179.7436518288
 21
-250.7026115135
 31
0.0
  0
LINE
  5
2F6
330
1F
100
AcDbEntity
  8
0
100
AcDbLine
 10
2179.5436518288
 20
-242.4076115135
 30
0.0
 11
2179.7436518288
 21
-242.4076115135
 31
0.0
  0
LINE
  5
2F7
330
1F
100
AcDbEntity
  8
0
100
AcDbLine
 10
2179.0436518288
 20
-245.3626115135
 30
0.0
 11
2179.0436518288
 21
-242.4076115135
 31
0.0
  0
LINE
  5
2F8
330
1F
100
AcDbEntity
  8
0
100
AcDbLine
 10
2179.5436518288
 20
-245.3626115135
 30
0.0
 11
2179.0436518288
 21
-245.3626115135
 31
0.0
  0
LINE
  5
2F9
330
1F
100
AcDbEntity
  8
0
100
AcDbLine
 10
2179.0436518288
 20
-242.4076115135
 30
0.0
 11
2179.5436518288
 21
-242.4076115135
 31
0.0
  0
LINE
  5
2FA
330
1F
100
AcDbEntity
  8
0
100
AcDbLine
 10
2179.5436518288
 20
-253.6576115135
 30
0.0
 11
2179.0436518288
 21
-253.6576115135
 31
0.0
  0
LINE
  5
2FB
330
1F
100
AcDbEntity
  8
0
100
AcDbLine
 10
2179.0436518288
 20
-253.6576115135
 30
0.0
 11
2179.0436518288
 21
-250.7026115135
 31
0.0
  0
LINE
  5
2FC
330
1F
100
AcDbEntity
  8
0
100
AcDbLine
 10
2179.0436518288
 20
-250.7026115135
 30
0.0
 11
2179.5436518288
 21
-250.7026115135
 31
0.0
  0
LINE
  5
2FD
330
1F
100
AcDbEntity
  8
0
100
AcDbLine
 10
1672.7736518288
 20
676.2673884865
 30
0.0
 11
1672.7736518288
 21
676.0673884865
 31
0.0
  0
LINE
  5
2FE
330
1F
100
AcDbEntity
  8
0
100
AcDbLine
 10
1669.8186518288
 20
676.0673884865
 30
0.0
 11
1669.8186518288
 21
676.2673884865
 31
0.0
  0
LINE
  5
2FF
330
1F
100
AcDbEntity
  8
0
100
AcDbLine
 10
1681.0686518288
 20
676.0673884865
 30
0.0
 11
1681.0686518288
 21
676.2673884865
 31
0.0
  0
LINE
  5
300
330
1F
100
AcDbEntity
  8
0
100
AcDbLine
 10
1678.1136518288
 20
676.0673884865
 30
0.0
 11
1678.1136518288
 21
676.2673884865
 31
0.0
  0
LINE
  5
301
330
1F
100
AcDbEntity
  8
0
100
AcDbLine
 10
1672.7736518288
 20
675.5673884865
 30
0.0
 11
1669.8186518288
 21
675.5673884865
 31
0.0
  0
LINE
  5
302
330
1F
100
AcDbEntity
  8
0
100
AcDbLine
 10
1672.7736518288
 20
676.0673884865
 30
0.0
 11
1672.7736518288
 21
675.5673884865
 31
0.0
  0
LINE
  5
303
330
1F
100
AcDbEntity
  8
0
100
AcDbLine
 10
1669.8186518288
 20
675.5673884865
 30
0.0
 11
1669.8186518288
 21
676.0673884865
 31
0.0
  0
LINE
  5
304
330
1F
100
AcDbEntity
  8
0
100
AcDbLine
 10
1681.0686518288
 20
676.0673884865
 30
0.0
 11
1681.0686518288
 21
675.5673884865
 31
0.0
  0
LINE
  5
305
330
1F
100
AcDbEntity
  8
0
100
AcDbLine
 10
1681.0686518288
 20
675.5673884865
 30
0.0
 11
1678.1136518288
 21
675.5673884865
 31
0.0
  0
LINE
  5
306
330
1F
100
AcDbEntity
  8
0
100
AcDbLine
 10
1678.1136518288
 20
675.5673884865
 30
0.0
 11
1678.1136518288
 21
676.0673884865
 31
0.0
  0
LINE
  5
307
330
1F
100
AcDbEntity
  8
0
100
AcDbLine
 10
1134.4436518288
 20
-382.1326115135
 30
0.0
 11
1150.4436518288
 21
-382.1326115135
 31
0.0
  0
LINE
  5
308
330
1F
100
AcDbEntity
  8
0
100
AcDbLine
 10
1150.4436518288
 20
726.0673884865
 30
0.0
 11
1134.4436518288
 21
726.0673884865
 31
0.0
  0
LINE
  5
309
330
1F
100
AcDbEntity
  8
0
100
AcDbLine
 10
2216.4436518288
 20
726.0673884865
 30
0.0
 11
2200.4436518288
 21
726.0673884865
 31
0.0
  0
LINE
  5
30A
330
1F
100
AcDbEntity
  8
0
100
AcDbLine
 10
2200.4436518288
 20
-382.1326115135
 30
0.0
 11
2216.4436518288
 21
-382.1326115135
 31
0.0
  0
ARC
  5
30B
330
1F
100
AcDbEntity
  8
0
100
AcDbCircle
 10
1132.9436518288
 20
714.4673884865
 30
0.0
 40
10.00000000000023
100
AcDbArc
 50
90.0
 51
180.0
  0
LINE
  5
30C
330
1F
100
AcDbEntity
  8
0
100
AcDbLine
 10
1122.9436518288
 20
714.4673884865
 30
0.0
 11
1122.9436518288
 21
679.4673884865
 31
0.0
  0
LINE
  5
30D
330
1F
100
AcDbEntity
  8
0
100
AcDbLine
 10
1132.9436518288
 20
679.4673884865
 30
0.0
 11
1122.9436518288
 21
679.4673884865
 31
0.0
  0
LINE
  5
30E
330
1F
100
AcDbEntity
  8
0
100
AcDbLine
 10
1153.1436518288
 20
694.2673884865
 30
0.0
 11
1167.9436518288
 21
694.2673884865
 31
0.0
  0
LINE
  5
30F
330
1F
100
AcDbEntity
  8
0
100
AcDbLine
 10
1153.1436518288
 20
679.4673884865
 30
0.0
 11
1153.1436518288
 21
694.2673884865
 31
0.0
  0
LINE
  5
310
330
1F
100
AcDbEntity
  8
0
100
AcDbLine
 10
1167.9436518288
 20
714.4673884865
 30
0.0
 11
1167.9436518288
 21
694.2673884865
 31
0.0
  0
LINE
  5
311
330
1F
100
AcDbEntity
  8
0
100
AcDbLine
 10
1132.9436518288
 20
679.4673884865
 30
0.0
 11
1153.1436518288
 21
679.4673884865
 31
0.0
  0
LINE
  5
312
330
1F
100
AcDbEntity
  8
0
100
AcDbLine
 10
1132.9436518288
 20
724.4673884865
 30
0.0
 11
1167.9436518288
 21
724.4673884865
 31
0.0
  0
LINE
  5
313
330
1F
100
AcDbEntity
  8
0
100
AcDbLine
 10
1167.9436518288
 20
724.4673884865
 30
0.0
 11
1167.9436518288
 21
714.4673884865
 31
0.0
  0
LINE
  5
314
330
1F
100
AcDbEntity
  8
0
100
AcDbLine
 10
2182.9436518288
 20
-350.3326115135
 30
0.0
 11
2182.9436518288
 21
-370.5326115135
 31
0.0
  0
LINE
  5
315
330
1F
100
AcDbEntity
  8
0
100
AcDbLine
 10
2182.9436518288
 20
-350.3326115135
 30
0.0
 11
2197.7436518288
 21
-350.3326115135
 31
0.0
  0
LINE
  5
316
330
1F
100
AcDbEntity
  8
0
100
AcDbLine
 10
2197.7436518288
 20
-350.3326115135
 30
0.0
 11
2197.7436518288
 21
-335.5326115135
 31
0.0
  0
LINE
  5
317
330
1F
100
AcDbEntity
  8
0
100
AcDbLine
 10
2217.9436518288
 20
-335.5326115135
 30
0.0
 11
2197.7436518288
 21
-335.5326115135
 31
0.0
  0
LINE
  5
318
330
1F
100
AcDbEntity
  8
0
100
AcDbLine
 10
2217.9436518288
 20
-380.5326115135
 30
0.0
 11
2182.9436518288
 21
-380.5326115135
 31
0.0
  0
LINE
  5
319
330
1F
100
AcDbEntity
  8
0
100
AcDbLine
 10
2182.9436518288
 20
-380.5326115135
 30
0.0
 11
2182.9436518288
 21
-370.5326115135
 31
0.0
  0
LINE
  5
31A
330
1F
100
AcDbEntity
  8
0
100
AcDbLine
 10
2227.9436518288
 20
-335.5326115135
 30
0.0
 11
2227.9436518288
 21
-370.5326115135
 31
0.0
  0
LINE
  5
31B
330
1F
100
AcDbEntity
  8
0
100
AcDbLine
 10
2217.9436518288
 20
-335.5326115135
 30
0.0
 11
2227.9436518288
 21
-335.5326115135
 31
0.0
  0
ARC
  5
31C
330
1F
100
AcDbEntity
  8
0
100
AcDbCircle
 10
2217.9436518288
 20
-370.5326115135
 30
0.0
 40
10.0
100
AcDbArc
 50
270.0
 51
0.0
  0
LINE
  5
31D
330
1F
100
AcDbEntity
  8
0
100
AcDbLine
 10
2197.7436518288
 20
679.4673884865
 30
0.0
 11
2217.9436518288
 21
679.4673884865
 31
0.0
  0
LINE
  5
31E
330
1F
100
AcDbEntity
  8
0
100
AcDbLine
 10
2197.7436518288
 20
679.4673884865
 30
0.0
 11
2197.7436518288
 21
694.2673884865
 31
0.0
  0
LINE
  5
31F
330
1F
100
AcDbEntity
  8
0
100
AcDbLine
 10
2197.7436518288
 20
694.2673884865
 30
0.0
 11
2182.9436518288
 21
694.2673884865
 31
0.0
  0
LINE
  5
320
330
1F
100
AcDbEntity
  8
0
100
AcDbLine
 10
2182.9436518288
 20
714.4673884865
 30
0.0
 11
2182.9436518288
 21
694.2673884865
 31
0.0
  0
LINE
  5
321
330
1F
100
AcDbEntity
  8
0
100
AcDbLine
 10
2182.9436518288
 20
724.4673884865
 30
0.0
 11
2217.9436518288
 21
724.4673884865
 31
0.0
  0
LINE
  5
322
330
1F
100
AcDbEntity
  8
0
100
AcDbLine
 10
2182.9436518288
 20
714.4673884865
 30
0.0
 11
2182.9436518288
 21
724.4673884865
 31
0.0
  0
LINE
  5
323
330
1F
100
AcDbEntity
  8
0
100
AcDbLine
 10
2227.9436518288
 20
714.4673884865
 30
0.0
 11
2227.9436518288
 21
679.4673884865
 31
0.0
  0
LINE
  5
324
330
1F
100
AcDbEntity
  8
0
100
AcDbLine
 10
2227.9436518288
 20
679.4673884865
 30
0.0
 11
2217.9436518288
 21
679.4673884865
 31
0.0
  0
ARC
  5
325
330
1F
100
AcDbEntity
  8
0
100
AcDbCircle
 10
2217.9436518288
 20
714.4673884865
 30
0.0
 40
10.0
100
AcDbArc
 50
0.0
 51
90.0
  0
ARC
  5
326
330
1F
100
AcDbEntity
  8
0
100
AcDbCircle
 10
1132.9436518288
 20
-370.5326115135
 30
0.0
 40
10.00000000000023
100
AcDbArc
 50
180.0
 51
270.0
  0
LINE
  5
327
330
1F
100
AcDbEntity
  8
0
100
AcDbLine
 10
1122.9436518288
 20
-370.5326115135
 30
0.0
 11
1122.9436518288
 21
-335.5326115135
 31
0.0
  0
LINE
  5
328
330
1F
100
AcDbEntity
  8
0
100
AcDbLine
 10
1122.9436518288
 20
-335.5326115135
 30
0.0
 11
1132.9436518288
 21
-335.5326115135
 31
0.0
  0
LINE
  5
329
330
1F
100
AcDbEntity
  8
0
100
AcDbLine
 10
1167.9436518288
 20
-370.5326115135
 30
0.0
 11
1167.9436518288
 21
-380.5326115135
 31
0.0
  0
LINE
  5
32A
330
1F
100
AcDbEntity
  8
0
100
AcDbLine
 10
1132.9436518288
 20
-380.5326115135
 30
0.0
 11
1167.9436518288
 21
-380.5326115135
 31
0.0
  0
LINE
  5
32B
330
1F
100
AcDbEntity
  8
0
100
AcDbLine
 10
1153.1436518288
 20
-350.3326115135
 30
0.0
 11
1153.1436518288
 21
-335.5326115135
 31
0.0
  0
LINE
  5
32C
330
1F
100
AcDbEntity
  8
0
100
AcDbLine
 10
1167.9436518288
 20
-350.3326115135
 30
0.0
 11
1153.1436518288
 21
-350.3326115135
 31
0.0
  0
LINE
  5
32D
330
1F
100
AcDbEntity
  8
0
100
AcDbLine
 10
1167.9436518288
 20
-370.5326115135
 30
0.0
 11
1167.9436518288
 21
-350.3326115135
 31
0.0
  0
LINE
  5
32E
330
1F
100
AcDbEntity
  8
0
100
AcDbLine
 10
1132.9436518288
 20
-335.5326115135
 30
0.0
 11
1153.1436518288
 21
-335.5326115135
 31
0.0
  0
LINE
  5
32F
330
1F
100
AcDbEntity
  8
0
100
AcDbLine
 10
1167.9436518288
 20
694.2673884865
 30
0.0
 11
2182.9436518288
 21
694.2673884865
 31
0.0
  0
LINE
  5
330
330
1F
100
AcDbEntity
  8
0
100
AcDbLine
 10
1167.9436518288
 20
694.7673884865
 30
0.0
 11
1167.9436518288
 21
714.4673884865
 31
0.0
  0
LINE
  5
331
330
1F
100
AcDbEntity
  8
0
100
AcDbLine
 10
2182.9436518288
 20
694.7673884865
 30
0.0
 11
2182.9436518288
 21
714.4673884865
 31
0.0
  0
LINE
  5
332
330
1F
100
AcDbEntity
  8
0
100
AcDbLine
 10
1167.9436518288
 20
724.4673884865
 30
0.0
 11
2182.9436518288
 21
724.4673884865
 31
0.0
  0
LINE
  5
333
330
1F
100
AcDbEntity
  8
0
100
AcDbLine
 10
1152.6436518288
 20
-335.5326115135
 30
0.0
 11
1132.9436518288
 21
-335.5326115135
 31
0.0
  0
LINE
  5
334
330
1F
100
AcDbEntity
  8
0
100
AcDbLine
 10
1152.6436518288
 20
679.4673884865
 30
0.0
 11
1132.9436518288
 21
679.4673884865
 31
0.0
  0
LINE
  5
335
330
1F
100
AcDbEntity
  8
0
100
AcDbLine
 10
1122.9436518288
 20
-335.5326115135
 30
0.0
 11
1122.9436518288
 21
679.4673884865
 31
0.0
  0
LINE
  5
336
330
1F
100
AcDbEntity
  8
0
100
AcDbLine
 10
1153.1436518288
 20
-335.5326115135
 30
0.0
 11
1153.1436518288
 21
679.4673884865
 31
0.0
  0
LINE
  5
337
330
1F
100
AcDbEntity
  8
0
100
AcDbLine
 10
1153.4436518288
 20
-335.5326115135
 30
0.0
 11
1153.1436518288
 21
-335.5326115135
 31
0.0
  0
LINE
  5
338
330
1F
100
AcDbEntity
  8
0
100
AcDbLine
 10
1153.4436518288
 20
679.4673884865
 30
0.0
 11
1153.1436518288
 21
679.4673884865
 31
0.0
  0
LINE
  5
339
330
1F
100
AcDbEntity
  8
0
100
AcDbLine
 10
2197.7436518288
 20
679.4673884865
 30
0.0
 11
2197.7436518288
 21
-335.5326115135
 31
0.0
  0
LINE
  5
33A
330
1F
100
AcDbEntity
  8
0
100
AcDbLine
 10
2198.2436518288
 20
679.4673884865
 30
0.0
 11
2217.9436518288
 21
679.4673884865
 31
0.0
  0
LINE
  5
33B
330
1F
100
AcDbEntity
  8
0
100
AcDbLine
 10
2198.2436518288
 20
-335.5326115135
 30
0.0
 11
2217.9436518288
 21
-335.5326115135
 31
0.0
  0
LINE
  5
33C
330
1F
100
AcDbEntity
  8
0
100
AcDbLine
 10
2227.9436518288
 20
679.4673884865
 30
0.0
 11
2227.9436518288
 21
-335.5326115135
 31
0.0
  0
LINE
  5
33D
330
1F
100
AcDbEntity
  8
0
100
AcDbLine
 10
2197.4436518288
 20
679.4673884865
 30
0.0
 11
2197.7436518288
 21
679.4673884865
 31
0.0
  0
LINE
  5
33E
330
1F
100
AcDbEntity
  8
0
100
AcDbLine
 10
2197.4436518288
 20
-335.5326115135
 30
0.0
 11
2197.7436518288
 21
-335.5326115135
 31
0.0
  0
LINE
  5
33F
330
1F
100
AcDbEntity
  8
0
100
AcDbLine
 10
2182.9436518288
 20
-350.8326115135
 30
0.0
 11
2182.9436518288
 21
-370.5326115135
 31
0.0
  0
LINE
  5
340
330
1F
100
AcDbEntity
  8
0
100
AcDbLine
 10
1167.9436518288
 20
-350.8326115135
 30
0.0
 11
1167.9436518288
 21
-370.5326115135
 31
0.0
  0
LINE
  5
341
330
1F
100
AcDbEntity
  8
0
100
AcDbLine
 10
2182.9436518288
 20
-380.5326115135
 30
0.0
 11
1167.9436518288
 21
-380.5326115135
 31
0.0
  0
LINE
  5
342
330
1F
100
AcDbEntity
  8
0
100
AcDbLine
 10
2182.9436518288
 20
-350.3326115135
 30
0.0
 11
1167.9436518288
 21
-350.3326115135
 31
0.0
  0
LINE
  5
343
330
1F
100
AcDbEntity
  8
0
  6
PHANTOM
 62
     8
370
    18
100
AcDbLine
 10
1881.4436518288
 20
670.4673884865
 30
0.0
 11
1882.4436518288
 21
670.4673884865
 31
0.0
  0
LINE
  5
344
330
1F
100
AcDbEntity
  8
0
  6
PHANTOM
 62
     8
370
    18
100
AcDbLine
 10
2086.4436518288
 20
670.4673884865
 30
0.0
 11
2087.4436518288
 21
670.4673884865
 31
0.0
  0
LINE
  5
345
330
1F
100
AcDbEntity
  8
0
  6
PHANTOM
 62
     8
370
    18
100
AcDbLine
 10
1264.4436518288
 20
-326.5326115135
 30
0.0
 11
1263.4436518288
 21
-326.5326115135
 31
0.0
  0
LINE
  5
346
330
1F
100
AcDbEntity
  8
0
  6
PHANTOM
 62
     8
370
    18
100
AcDbLine
 10
1469.4436518288
 20
-326.5326115135
 30
0.0
 11
1468.4436518288
 21
-326.5326115135
 31
0.0
  0
LINE
  5
347
330
1F
100
AcDbEntity
  8
0
  6
PHANTOM
 62
     8
370
    18
100
AcDbLine
 10
1263.4436518288
 20
670.4673884864
 30
0.0
 11
1264.4436518288
 21
670.4673884864
 31
0.0
  0
LINE
  5
348
330
1F
100
AcDbEntity
  8
0
  6
PHANTOM
 62
     8
370
    18
100
AcDbLine
 10
1468.4436518288
 20
670.4673884864
 30
0.0
 11
1469.4436518288
 21
670.4673884864
 31
0.0
  0
LINE
  5
349
330
1F
100
AcDbEntity
  8
0
  6
PHANTOM
 62
     8
370
    18
100
AcDbLine
 10
1882.4436518288
 20
-326.5326115135
 30
0.0
 11
1881.4436518288
 21
-326.5326115135
 31
0.0
  0
LINE
  5
34A
330
1F
100
AcDbEntity
  8
0
  6
PHANTOM
 62
     8
370
    18
100
AcDbLine
 10
2087.4436518288
 20
-326.5326115135
 30
0.0
 11
2086.4436518288
 21
-326.5326115135
 31
0.0
  0
LINE
  5
34B
330
1F
100
AcDbEntity
  8
0
  6
PHANTOM
 62
     8
370
    18
100
AcDbLine
 10
1572.4436518288
 20
670.4673884864
 30
0.0
 11
1573.4436518288
 21
670.4673884864
 31
0.0
  0
LINE
  5
34C
330
1F
100
AcDbEntity
  8
0
  6
PHANTOM
 62
     8
370
    18
100
AcDbLine
 10
1777.4436518288
 20
670.4673884864
 30
0.0
 11
1778.4436518288
 21
670.4673884864
 31
0.0
  0
LINE
  5
34D
330
1F
100
AcDbEntity
  8
0
  6
PHANTOM
 62
     8
370
    18
100
AcDbLine
 10
1573.4436518288
 20
-326.5326115135
 30
0.0
 11
1572.4436518288
 21
-326.5326115135
 31
0.0
  0
LINE
  5
34E
330
1F
100
AcDbEntity
  8
0
  6
PHANTOM
 62
     8
370
    18
100
AcDbLine
 10
1778.4436518288
 20
-326.5326115135
 30
0.0
 11
1777.4436518288
 21
-326.5326115135
 31
0.0
  0
LINE
  5
34F
330
1F
100
AcDbEntity
  8
0
  6
PHANTOM
 62
     8
370
    18
100
AcDbLine
 10
2227.9436518288
 20
145.119308063
 30
0.0
 11
2228.4436518288
 21
145.119308063
 31
0.0
  0
LINE
  5
350
330
1F
100
AcDbEntity
  8
0
  6
PHANTOM
 62
     8
370
    18
100
AcDbLine
 10
2227.9436518288
 20
148.1097891643
 30
0.0
 11
2228.4436518288
 21
148.1097891643
 31
0.0
  0
LINE
  5
351
330
1F
100
AcDbEntity
  8
0
  6
PHANTOM
 62
     8
370
    18
100
AcDbLine
 10
2227.9436518288
 20
211.0039708707
 30
0.0
 11
2228.4436518288
 21
211.0039708707
 31
0.0
  0
LINE
  5
352
330
1F
100
AcDbEntity
  8
0
  6
PHANTOM
 62
     8
370
    18
100
AcDbLine
 10
2227.9436518288
 20
213.994451972
 30
0.0
 11
2228.4436518288
 21
213.994451972
 31
0.0
  0
LINE
  5
353
330
1F
100
AcDbEntity
  8
0
  6
PHANTOM
 62
     8
370
    18
100
AcDbLine
 10
2101.0686518288
 20
-332.1326115135
 30
0.0
 11
2098.1136518288
 21
-332.1326115135
 31
0.0
  0
LINE
  5
354
330
1F
100
AcDbEntity
  8
0
  6
PHANTOM
 62
     8
370
    18
100
AcDbLine
 10
2092.7736518288
 20
-332.1326115135
 30
0.0
 11
2089.8186518288
 21
-332.1326115135
 31
0.0
  0
LINE
  5
355
330
1F
100
AcDbEntity
  8
0
  6
PHANTOM
 62
     8
370
    18
100
AcDbLine
 10
1171.3436518288
 20
-253.6576115135
 30
0.0
 11
1171.3436518288
 21
-250.7026115135
 31
0.0
  0
LINE
  5
356
330
1F
100
AcDbEntity
  8
0
  6
PHANTOM
 62
     8
370
    18
100
AcDbLine
 10
1171.3436518288
 20
-245.3626115135
 30
0.0
 11
1171.3436518288
 21
-242.4076115135
 31
0.0
  0
LINE
  5
357
330
1F
100
AcDbEntity
  8
0
  6
PHANTOM
 62
     8
370
    18
100
AcDbLine
 10
1171.3436518288
 20
586.3423884865
 30
0.0
 11
1171.3436518288
 21
589.2973884865
 31
0.0
  0
LINE
  5
358
330
1F
100
AcDbEntity
  8
0
  6
PHANTOM
 62
     8
370
    18
100
AcDbLine
 10
1171.3436518288
 20
594.6373884865
 30
0.0
 11
1171.3436518288
 21
597.5923884865
 31
0.0
  0
LINE
  5
359
330
1F
100
AcDbEntity
  8
0
  6
PHANTOM
 62
     8
370
    18
100
AcDbLine
 10
1249.8186518288
 20
676.0673884865
 30
0.0
 11
1252.7736518288
 21
676.0673884865
 31
0.0
  0
LINE
  5
35A
330
1F
100
AcDbEntity
  8
0
  6
PHANTOM
 62
     8
370
    18
100
AcDbLine
 10
1258.1136518288
 20
676.0673884865
 30
0.0
 11
1261.0686518288
 21
676.0673884865
 31
0.0
  0
LINE
  5
35B
330
1F
100
AcDbEntity
  8
0
  6
PHANTOM
 62
     8
370
    18
100
AcDbLine
 10
2179.5436518288
 20
597.5923884865
 30
0.0
 11
2179.5436518288
 21
594.6373884865
 31
0.0
  0
LINE
  5
35C
330
1F
100
AcDbEntity
  8
0
  6
PHANTOM
 62
     8
370
    18
100
AcDbLine
 10
2179.5436518288
 20
589.2973884865
 30
0.0
 11
2179.5436518288
 21
586.3423884865
 31
0.0
  0
LINE
  5
35D
330
1F
100
AcDbEntity
  8
0
  6
PHANTOM
 62
     8
370
    18
100
AcDbLine
 10
1171.3436518288
 20
166.3423884865
 30
0.0
 11
1171.3436518288
 21
169.2973884865
 31
0.0
  0
LINE
  5
35E
330
1F
100
AcDbEntity
  8
0
  6
PHANTOM
 62
     8
370
    18
100
AcDbLine
 10
1171.3436518288
 20
174.6373884865
 30
0.0
 11
1171.3436518288
 21
177.5923884865
 31
0.0
  0
LINE
  5
35F
330
1F
100
AcDbEntity
  8
0
  6
PHANTOM
 62
     8
370
    18
100
AcDbLine
 10
2179.5436518288
 20
177.5923884865
 30
0.0
 11
2179.5436518288
 21
174.6373884865
 31
0.0
  0
LINE
  5
360
330
1F
100
AcDbEntity
  8
0
  6
PHANTOM
 62
     8
370
    18
100
AcDbLine
 10
2179.5436518288
 20
169.2973884865
 30
0.0
 11
2179.5436518288
 21
166.3423884865
 31
0.0
  0
LINE
  5
361
330
1F
100
AcDbEntity
  8
0
  6
PHANTOM
 62
     8
370
    18
100
AcDbLine
 10
1261.0686518288
 20
-332.1326115136
 30
0.0
 11
1258.1136518288
 21
-332.1326115136
 31
0.0
  0
LINE
  5
362
330
1F
100
AcDbEntity
  8
0
  6
PHANTOM
 62
     8
370
    18
100
AcDbLine
 10
1252.7736518288
 20
-332.1326115136
 30
0.0
 11
1249.8186518288
 21
-332.1326115136
 31
0.0
  0
LINE
  5
363
330
1F
100
AcDbEntity
  8
0
  6
PHANTOM
 62
     8
370
    18
100
AcDbLine
 10
2089.8186518288
 20
676.0673884865
 30
0.0
 11
2092.7736518288
 21
676.0673884865
 31
0.0
  0
LINE
  5
364
330
1F
100
AcDbEntity
  8
0
  6
PHANTOM
 62
     8
370
    18
100
AcDbLine
 10
2098.1136518288
 20
676.0673884865
 30
0.0
 11
2101.0686518288
 21
676.0673884865
 31
0.0
  0
LINE
  5
365
330
1F
100
AcDbEntity
  8
0
  6
PHANTOM
 62
     8
370
    18
100
AcDbLine
 10
1681.0686518288
 20
-332.1326115135
 30
0.0
 11
1678.1136518288
 21
-332.1326115135
 31
0.0
  0
LINE
  5
366
330
1F
100
AcDbEntity
  8
0
  6
PHANTOM
 62
     8
370
    18
100
AcDbLine
 10
1672.7736518288
 20
-332.1326115135
 30
0.0
 11
1669.8186518288
 21
-332.1326115135
 31
0.0
  0
LINE
  5
367
330
1F
100
AcDbEntity
  8
0
  6
PHANTOM
 62
     8
370
    18
100
AcDbLine
 10
2179.5436518288
 20
-242.4076115135
 30
0.0
 11
2179.5436518288
 21
-245.3626115135
 31
0.0
  0
LINE
  5
368
330
1F
100
AcDbEntity
  8
0
  6
PHANTOM
 62
     8
370
    18
100
AcDbLine
 10
2179.5436518288
 20
-250.7026115135
 30
0.0
 11
2179.5436518288
 21
-253.6576115135
 31
0.0
  0
LINE
  5
369
330
1F
100
AcDbEntity
  8
0
  6
PHANTOM
 62
     8
370
    18
100
AcDbLine
 10
1669.8186518288
 20
676.0673884865
 30
0.0
 11
1672.7736518288
 21
676.0673884865
 31
0.0
  0
LINE
  5
36A
330
1F
100
AcDbEntity
  8
0
  6
PHANTOM
 62
     8
370
    18
100
AcDbLine
 10
1678.1136518288
 20
676.0673884865
 30
0.0
 11
1681.0686518288
 21
676.0673884865
 31
0.0
  0
LINE
  5
36B
330
1F
100
AcDbEntity
  8
0
  6
PHANTOM
 62
     8
370
    18
100
AcDbLine
 10
1132.9436518288
 20
714.4673884865
 30
0.0
 11
1132.9436518288
 21
724.4673884865
 31
0.0
  0
LINE
  5
36C
330
1F
100
AcDbEntity
  8
0
  6
PHANTOM
 62
     8
370
    18
100
AcDbLine
 10
1132.9436518288
 20
714.4673884865
 30
0.0
 11
1122.9436518288
 21
714.4673884865
 31
0.0
  0
LINE
  5
36D
330
1F
100
AcDbEntity
  8
0
  6
PHANTOM
 62
     8
370
    18
100
AcDbLine
 10
1132.9436518288
 20
714.4673884865
 30
0.0
 11
1132.9436518288
 21
679.4673884865
 31
0.0
  0
LINE
  5
36E
330
1F
100
AcDbEntity
  8
0
  6
PHANTOM
 62
     8
370
    18
100
AcDbLine
 10
1167.9436518288
 20
714.4673884865
 30
0.0
 11
1132.9436518288
 21
714.4673884865
 31
0.0
  0
LINE
  5
36F
330
1F
100
AcDbEntity
  8
0
  6
PHANTOM
 62
     8
370
    18
100
AcDbLine
 10
2217.9436518288
 20
-370.5326115135
 30
0.0
 11
2217.9436518288
 21
-335.5326115135
 31
0.0
  0
LINE
  5
370
330
1F
100
AcDbEntity
  8
0
  6
PHANTOM
 62
     8
370
    18
100
AcDbLine
 10
2182.9436518288
 20
-370.5326115135
 30
0.0
 11
2217.9436518288
 21
-370.5326115135
 31
0.0
  0
LINE
  5
371
330
1F
100
AcDbEntity
  8
0
  6
PHANTOM
 62
     8
370
    18
100
AcDbLine
 10
2217.9436518288
 20
-370.5326115135
 30
0.0
 11
2217.9436518288
 21
-380.5326115135
 31
0.0
  0
LINE
  5
372
330
1F
100
AcDbEntity
  8
0
  6
PHANTOM
 62
     8
370
    18
100
AcDbLine
 10
2227.9436518288
 20
-370.5326115135
 30
0.0
 11
2217.9436518288
 21
-370.5326115135
 31
0.0
  0
LINE
  5
373
330
1F
100
AcDbEntity
  8
0
  6
PHANTOM
 62
     8
370
    18
100
AcDbLine
 10
2217.9436518288
 20
714.4673884865
 30
0.0
 11
2182.9436518288
 21
714.4673884865
 31
0.0
  0
LINE
  5
374
330
1F
100
AcDbEntity
  8
0
  6
PHANTOM
 62
     8
370
    18
100
AcDbLine
 10
2217.9436518288
 20
679.4673884865
 30
0.0
 11
2217.9436518288
 21
714.4673884865
 31
0.0
  0
LINE
  5
375
330
1F
100
AcDbEntity
  8
0
  6
PHANTOM
 62
     8
370
    18
100
AcDbLine
 10
2217.9436518288
 20
724.4673884865
 30
0.0
 11
2217.9436518288
 21
714.4673884865
 31
0.0
  0
LINE
  5
376
330
1F
100
AcDbEntity
  8
0
  6
PHANTOM
 62
     8
370
    18
100
AcDbLine
 10
2217.9436518288
 20
714.4673884865
 30
0.0
 11
2227.9436518288
 21
714.4673884865
 31
0.0
  0
LINE
  5
377
330
1F
100
AcDbEntity
  8
0
  6
PHANTOM
 62
     8
370
    18
100
AcDbLine
 10
1132.9436518288
 20
-370.5326115135
 30
0.0
 11
1122.9436518288
 21
-370.5326115135
 31
0.0
  0
LINE
  5
378
330
1F
100
AcDbEntity
  8
0
  6
PHANTOM
 62
     8
370
    18
100
AcDbLine
 10
1132.9436518288
 20
-370.5326115135
 30
0.0
 11
1132.9436518288
 21
-380.5326115135
 31
0.0
  0
LINE
  5
379
330
1F
100
AcDbEntity
  8
0
  6
PHANTOM
 62
     8
370
    18
100
AcDbLine
 10
1132.9436518288
 20
-335.5326115135
 30
0.0
 11
1132.9436518288
 21
-370.5326115135
 31
0.0
  0
LINE
  5
37A
330
1F
100
AcDbEntity
  8
0
  6
PHANTOM
 62
     8
370
    18
100
AcDbLine
 10
1132.9436518288
 20
-370.5326115135
 30
0.0
 11
1167.9436518288
 21
-370.5326115135
 31
0.0
  0
LINE
  5
37B
330
1F
100
AcDbEntity
  8
0
  6
PHANTOM
 62
     8
370
    18
100
AcDbLine
 10
1167.9436518288
 20
694.7673884865
 30
0.0
 11
2182.9436518288
 21
694.7673884865
 31
0.0
  0
LINE
  5
37C
330
1F
100
AcDbEntity
  8
0
  6
PHANTOM
 62
     8
370
    18
100
AcDbLine
 10
1167.9436518288
 20
714.4673884865
 30
0.0
 11
2182.9436518288
 21
714.4673884865
 31
0.0
  0
LINE
  5
37D
330
1F
100
AcDbEntity
  8
0
  6
PHANTOM
 62
     8
370
    18
100
AcDbLine
 10
1152.6436518288
 20
-335.5326115135
 30
0.0
 11
1152.6436518288
 21
679.4673884865
 31
0.0
  0
LINE
  5
37E
330
1F
100
AcDbEntity
  8
0
  6
PHANTOM
 62
     8
370
    18
100
AcDbLine
 10
1132.9436518288
 20
-335.5326115135
 30
0.0
 11
1132.9436518288
 21
679.4673884865
 31
0.0
  0
LINE
  5
37F
330
1F
100
AcDbEntity
  8
0
  6
PHANTOM
 62
     8
370
    18
100
AcDbLine
 10
2198.2436518288
 20
679.4673884865
 30
0.0
 11
2198.2436518288
 21
-335.5326115135
 31
0.0
  0
LINE
  5
380
330
1F
100
AcDbEntity
  8
0
  6
PHANTOM
 62
     8
370
    18
100
AcDbLine
 10
2217.9436518288
 20
679.4673884865
 30
0.0
 11
2217.9436518288
 21
-335.5326115135
 31
0.0
  0
LINE
  5
381
330
1F
100
AcDbEntity
  8
0
  6
PHANTOM
 62
     8
370
    18
100
AcDbLine
 10
2182.9436518288
 20
-350.8326115135
 30
0.0
 11
1167.9436518288
 21
-350.8326115135
 31
0.0
  0
LINE
  5
382
330
1F
100
AcDbEntity
  8
0
  6
PHANTOM
 62
     8
370
    18
100
AcDbLine
 10
2182.9436518288
 20
-370.5326115135
 30
0.0
 11
1167.9436518288
 21
-370.5326115135
 31
0.0
  0
LINE
  5
383
330
1F
100
AcDbEntity
  8
0
  6
Continuous
 62
     7
370
    25
100
AcDbLine
 10
1265.6595045191
 20
675.0618858912
 30
0.0
 11
1467.1625854744
 21
675.0618858912
 31
0.0
  0
LINE
  5
384
330
1F
100
AcDbEntity
  8
0
  6
Continuous
 62
     7
370
    25
100
AcDbLine
 10
1265.6595045191
 20
675.0618858912
 30
0.0
 11
1265.6595045191
 21
-331.3434556024
 31
0.0
  0
LINE
  5
385
330
1F
100
AcDbEntity
  8
0
  6
Continuous
 62
     7
370
    25
100
AcDbLine
 10
1265.6595045191
 20
-331.3434556024
 30
0.0
 11
1467.1625854744
 21
-331.3434556024
 31
0.0
  0
LINE
  5
386
330
1F
100
AcDbEntity
  8
0
  6
Continuous
 62
     7
370
    25
100
AcDbLine
 10
1467.1625854744
 20
675.0618858912
 30
0.0
 11
1467.1625854744
 21
-331.3434556024
 31
0.0
  0
LINE
  5
387
330
1F
100
AcDbEntity
  8
0
  6
Continuous
 62
     7
370
    25
100
AcDbLine
 10
1574.2897325313
 20
-331.3434556024
 30
0.0
 11
1774.8205319235
 21
-331.3434556024
 31
0.0
  0
LINE
  5
388
330
1F
100
AcDbEntity
  8
0
  6
Continuous
 62
     7
370
    25
100
AcDbLine
 10
1574.2897325313
 20
-331.3434556024
 30
0.0
 11
1574.2897325313
 21
675.0618858912
 31
0.0
  0
LINE
  5
389
330
1F
100
AcDbEntity
  8
0
  6
Continuous
 62
     7
370
    25
100
AcDbLine
 10
1574.2897325313
 20
675.0618858912
 30
0.0
 11
1774.8205319235
 21
675.0618858912
 31
0.0
  0
LINE
  5
38A
330
1F
100
AcDbEntity
  8
0
  6
Continuous
 62
     7
370
    25
100
AcDbLine
 10
1774.8205319235
 20
-331.3434556024
 30
0.0
 11
1774.8205319235
 21
675.0618858912
 31
0.0
  0
LINE
  5
38B
330
1F
100
AcDbEntity
  8
0
  6
Continuous
 62
     7
370
    25
100
AcDbLine
 10
1883.1110371225
 20
675.0618858912
 30
0.0
 11
2084.6848768866
 21
675.0618858912
 31
0.0
  0
LINE
  5
38C
330
1F
100
AcDbEntity
  8
0
  6
Continuous
 62
     7
370
    25
100
AcDbLine
 10
1883.1110371225
 20
675.0618858912
 30
0.0
 11
1883.1110371225
 21
-330.036687024
 31
0.0
  0
LINE
  5
38D
330
1F
100
AcDbEntity
  8
0
  6
Continuous
 62
     7
370
    25
100
AcDbLine
 10
1883.1110371225
 20
-330.036687024
 30
0.0
 11
2084.6848768866
 21
-330.036687024
 31
0.0
  0
LINE
  5
38E
330
1F
100
AcDbEntity
  8
0
  6
Continuous
 62
     7
370
    25
100
AcDbLine
 10
2084.6848768866
 20
675.0618858912
 30
0.0
 11
2084.6848768866
 21
-330.036687024
 31
0.0
  0
INSERT
  5
38F
330
1F
100
AcDbEntity
  8
0
  6
Continuous
 62
     7
100
AcDbBlockReference
  2
SUP_
 10
695.8780141982
 20
204.9413910791
 30
0.0
 41
15.0
 42
15.0
 43
15.0
  0
ENDSEC
  0
SECTION
  2
OBJECTS
  0
DICTIONARY
  5
C
330
0
100
AcDbDictionary
281
     1
  3
ACAD_GROUP
350
D
  3
ACAD_LAYOUT
350
1A
  3
ACAD_MLINESTYLE
350
17
  3
ACAD_PLOTSETTINGS
350
19
  3
ACAD_PLOTSTYLENAME
350
E
  3
ACAD_SCALELIST
350
47
  3
DWGPROPS
350
390
  0
DICTIONARY
  5
D
102
{ACAD_REACTORS
330
C
102
}
330
C
100
AcDbDictionary
281
     1
  0
DICTIONARY
  5
1A
102
{ACAD_REACTORS
330
C
102
}
330
C
100
AcDbDictionary
281
     1
  3
Layout1
350
1E
  3
Layout2
350
26
  3
Model
350
22
  0
DICTIONARY
  5
17
102
{ACAD_REACTORS
330
C
102
}
330
C
100
AcDbDictionary
281
     1
  3
Standard
350
18
  0
DICTIONARY
  5
19
102
{ACAD_REACTORS
330
C
102
}
330
C
100
AcDbDictionary
281
     1
  0
ACDBDICTIONARYWDFLT
  5
E
102
{ACAD_REACTORS
330
C
102
}
330
C
100
AcDbDictionary
281
     1
  3
Normal
350
F
100
AcDbDictionaryWithDefault
340
F
  0
DICTIONARY
  5
47
102
{ACAD_REACTORS
330
C
102
}
330
C
100
AcDbDictionary
281
     1
  3
A0
350
48
  3
A1
350
49
  3
A2
350
4A
  3
A3
350
4B
  3
A4
350
4C
  3
A5
350
4D
  3
A6
350
4E
  3
A7
350
4F
  3
A8
350
50
  3
A9
350
51
  3
B0
350
52
  3
B1
350
53
  3
B2
350
54
  3
B3
350
55
  3
B4
350
56
  3
B5
350
57
  3
B6
350
58
  3
B7
350
59
  3
B8
350
5A
  3
B9
350
5B
  3
C0
350
5C
  3
C1
350
5D
  3
C2
350
5E
  3
C3
350
5F
  3
C4
350
60
  3
C5
350
61
  3
C6
350
62
  3
C7
350
63
  3
C8
350
64
  3
C9
350
65
  3
D0
350
66
  3
D1
350
67
  3
D2
350
68
  0
XRECORD
  5
390
102
{ACAD_REACTORS
330
C
102
}
330
C
100
AcDbXrecord
280
     1
  1
DWGPROPS COOKIE
  2

  3

  4

  6

  7

  8
Emilis.Masalas
  9

300
=
301
=
302
=
303
=
304
=
305
=
306
=
307
=
308
=
309
=
 40
0.0
 41
2459605.339271412
 42
2459605.339271782
  1

 90
        0
  0
LAYOUT
  5
1E
102
{ACAD_REACTORS
330
1A
102
}
330
1A
100
AcDbPlotSettings
  1

  2
none_device
  4

  6

 40
0.0
 41
0.0
 42
0.0
 43
0.0
 44
0.0
 45
0.0
 46
0.0
 47
0.0
 48
0.0
 49
0.0
140
0.0
141
0.0
142
1.0
143
1.0
 70
   688
 72
     1
 73
     0
 74
     5
  7

 75
    16
147
1.0
148
0.0
149
0.0
100
AcDbLayout
  1
Layout1
 70
     1
 71
     1
 10
0.0
 20
0.0
 11
420.0
 21
297.0
 12
0.0
 22
0.0
 32
0.0
 14
1.0000000000E+20
 24
1.0000000000E+20
 34
1.0000000000E+20
 15
-1.0000000000E+20
 25
-1.0000000000E+20
 35
-1.0000000000E+20
146
0.0
 13
0.0
 23
0.0
 33
0.0
 16
1.0
 26
0.0
 36
0.0
 17
0.0
 27
1.0
 37
0.0
 76
     0
330
1B
  0
LAYOUT
  5
26
102
{ACAD_REACTORS
330
1A
102
}
330
1A
100
AcDbPlotSettings
  1

  2
none_device
  4

  6

 40
0.0
 41
0.0
 42
0.0
 43
0.0
 44
0.0
 45
0.0
 46
0.0
 47
0.0
 48
0.0
 49
0.0
140
0.0
141
0.0
142
1.0
143
1.0
 70
   688
 72
     1
 73
     0
 74
     5
  7

 75
    16
147
1.0
148
0.0
149
0.0
100
AcDbLayout
  1
Layout2
 70
     1
 71
     2
 10
0.0
 20
0.0
 11
0.0
 21
0.0
 12
0.0
 22
0.0
 32
0.0
 14
0.0
 24
0.0
 34
0.0
 15
0.0
 25
0.0
 35
0.0
146
0.0
 13
0.0
 23
0.0
 33
0.0
 16
1.0
 26
0.0
 36
0.0
 17
0.0
 27
1.0
 37
0.0
 76
     0
330
23
  0
LAYOUT
  5
22
102
{ACAD_REACTORS
330
1A
102
}
330
1A
100
AcDbPlotSettings
  1

  2
none_device
  4
Letter_(8.50_x_11.00_Inches)
  6

 40
6.35
 41
6.35
 42
6.35000508
 43
6.35000508
 44
215.9
 45
279.4
 46
0.0
 47
0.0
 48
0.0
 49
0.0
140
0.0
141
0.0
142
1.0
143
1.0
 70
  1712
 72
     1
 73
     0
 74
     0
  7

 75
     0
147
1.0
148
0.0
149
0.0
100
AcDbLayout
  1
Model
 70
     1
 71
     0
 10
0.0
 20
0.0
 11
420.0
 21
297.0
 12
0.0
 22
0.0
 32
0.0
 14
0.0
 24
0.0
 34
0.0
 15
420.0
 25
297.0
 35
0.0
146
0.0
 13
0.0
 23
0.0
 33
0.0
 16
1.0
 26
0.0
 36
0.0
 17
0.0
 27
1.0
 37
0.0
 76
     0
330
1F
331
29
  0
MLINESTYLE
  5
18
102
{ACAD_REACTORS
330
17
102
}
330
17
100
AcDbMlineStyle
  2
Standard
 70
     0
  3

 62
   256
 51
90.0
 52
90.0
 71
     2
 49
0.5
 62
   256
  6
BYLAYER
 49
-0.5
 62
   256
  6
BYLAYER
  0
ACDBPLACEHOLDER
  5
F
102
{ACAD_REACTORS
330
E
102
}
330
E
  0
SCALE
  5
48
102
{ACAD_REACTORS
330
47
102
}
330
47
100
AcDbScale
 70
     0
300
1:1
140
1.0
141
1.0
290
     1
  0
SCALE
  5
49
102
{ACAD_REACTORS
330
47
102
}
330
47
100
AcDbScale
 70
     0
300
1:2
140
1.0
141
2.0
290
     0
  0
SCALE
  5
4A
102
{ACAD_REACTORS
330
47
102
}
330
47
100
AcDbScale
 70
     0
300
1:4
140
1.0
141
4.0
290
     0
  0
SCALE
  5
4B
102
{ACAD_REACTORS
330
47
102
}
330
47
100
AcDbScale
 70
     0
300
1:5
140
1.0
141
5.0
290
     0
  0
SCALE
  5
4C
102
{ACAD_REACTORS
330
47
102
}
330
47
100
AcDbScale
 70
     0
300
1:8
140
1.0
141
8.0
290
     0
  0
SCALE
  5
4D
102
{ACAD_REACTORS
330
47
102
}
330
47
100
AcDbScale
 70
     0
300
1:10
140
1.0
141
10.0
290
     0
  0
SCALE
  5
4E
102
{ACAD_REACTORS
330
47
102
}
330
47
100
AcDbScale
 70
     0
300
1:16
140
1.0
141
16.0
290
     0
  0
SCALE
  5
4F
102
{ACAD_REACTORS
330
47
102
}
330
47
100
AcDbScale
 70
     0
300
1:20
140
1.0
141
20.0
290
     0
  0
SCALE
  5
50
102
{ACAD_REACTORS
330
47
102
}
330
47
100
AcDbScale
 70
     0
300
1:30
140
1.0
141
30.0
290
     0
  0
SCALE
  5
51
102
{ACAD_REACTORS
330
47
102
}
330
47
100
AcDbScale
 70
     0
300
1:40
140
1.0
141
40.0
290
     0
  0
SCALE
  5
52
102
{ACAD_REACTORS
330
47
102
}
330
47
100
AcDbScale
 70
     0
300
1:50
140
1.0
141
50.0
290
     0
  0
SCALE
  5
53
102
{ACAD_REACTORS
330
47
102
}
330
47
100
AcDbScale
 70
     0
300
1:100
140
1.0
141
100.0
290
     0
  0
SCALE
  5
54
102
{ACAD_REACTORS
330
47
102
}
330
47
100
AcDbScale
 70
     0
300
2:1
140
2.0
141
1.0
290
     0
  0
SCALE
  5
55
102
{ACAD_REACTORS
330
47
102
}
330
47
100
AcDbScale
 70
     0
300
4:1
140
4.0
141
1.0
290
     0
  0
SCALE
  5
56
102
{ACAD_REACTORS
330
47
102
}
330
47
100
AcDbScale
 70
     0
300
8:1
140
8.0
141
1.0
290
     0
  0
SCALE
  5
57
102
{ACAD_REACTORS
330
47
102
}
330
47
100
AcDbScale
 70
     0
300
10:1
140
10.0
141
1.0
290
     0
  0
SCALE
  5
58
102
{ACAD_REACTORS
330
47
102
}
330
47
100
AcDbScale
 70
     0
300
100:1
140
100.0
141
1.0
290
     0
  0
SCALE
  5
59
102
{ACAD_REACTORS
330
47
102
}
330
47
100
AcDbScale
 70
     0
300
1/128" = 1'-0"
140
0.0078125
141
12.0
290
     0
  0
SCALE
  5
5A
102
{ACAD_REACTORS
330
47
102
}
330
47
100
AcDbScale
 70
     0
300
1/64" = 1'-0"
140
0.015625
141
12.0
290
     0
  0
SCALE
  5
5B
102
{ACAD_REACTORS
330
47
102
}
330
47
100
AcDbScale
 70
     0
300
1/32" = 1'-0"
140
0.03125
141
12.0
290
     0
  0
SCALE
  5
5C
102
{ACAD_REACTORS
330
47
102
}
330
47
100
AcDbScale
 70
     0
300
1/16" = 1'-0"
140
0.0625
141
12.0
290
     0
  0
SCALE
  5
5D
102
{ACAD_REACTORS
330
47
102
}
330
47
100
AcDbScale
 70
     0
300
3/32" = 1'-0"
140
0.09375
141
12.0
290
     0
  0
SCALE
  5
5E
102
{ACAD_REACTORS
330
47
102
}
330
47
100
AcDbScale
 70
     0
300
1/8" = 1'-0"
140
0.125
141
12.0
290
     0
  0
SCALE
  5
5F
102
{ACAD_REACTORS
330
47
102
}
330
47
100
AcDbScale
 70
     0
300
3/16" = 1'-0"
140
0.1875
141
12.0
290
     0
  0
SCALE
  5
60
102
{ACAD_REACTORS
330
47
102
}
330
47
100
AcDbScale
 70
     0
300
1/4" = 1'-0"
140
0.25
141
12.0
290
     0
  0
SCALE
  5
61
102
{ACAD_REACTORS
330
47
102
}
330
47
100
AcDbScale
 70
     0
300
3/8" = 1'-0"
140
0.375
141
12.0
290
     0
  0
SCALE
  5
62
102
{ACAD_REACTORS
330
47
102
}
330
47
100
AcDbScale
 70
     0
300
1/2" = 1'-0"
140
0.5
141
12.0
290
     0
  0
SCALE
  5
63
102
{ACAD_REACTORS
330
47
102
}
330
47
100
AcDbScale
 70
     0
300
3/4" = 1'-0"
140
0.75
141
12.0
290
     0
  0
SCALE
  5
64
102
{ACAD_REACTORS
330
47
102
}
330
47
100
AcDbScale
 70
     0
300
1" = 1'-0"
140
1.0
141
12.0
290
     0
  0
SCALE
  5
65
102
{ACAD_REACTORS
330
47
102
}
330
47
100
AcDbScale
 70
     0
300
1-1/2" = 1'-0"
140
1.5
141
12.0
290
     0
  0
SCALE
  5
66
102
{ACAD_REACTORS
330
47
102
}
330
47
100
AcDbScale
 70
     0
300
3" = 1'-0"
140
3.0
141
12.0
290
     0
  0
SCALE
  5
67
102
{ACAD_REACTORS
330
47
102
}
330
47
100
AcDbScale
 70
     0
300
6" = 1'-0"
140
6.0
141
12.0
290
     0
  0
SCALE
  5
68
102
{ACAD_REACTORS
330
47
102
}
330
47
100
AcDbScale
 70
     0
300
1'-0" = 1'-0"
140
12.0
141
12.0
290
     0
  0
ENDSEC
  0
EOF
