  0
SECTION
  2
HEADER
  9
$ACADVER
  1
AC1015
  9
$ACADMAINTVER
 70
     6
  9
$DWGCODEPAGE
  3
ANSI_1257
  9
$INSBASE
 10
0.0
 20
0.0
 30
0.0
  9
$EXTMIN
 10
283.1453085602
 20
178.022203027
 30
0.0
  9
$EXTMAX
 10
2368.947881101501
 20
1545.2897720018
 30
0.0
  9
$LIMMIN
 10
0.0
 20
0.0
  9
$LIMMAX
 10
420.0
 20
297.0
  9
$ORTHOMODE
 70
     0
  9
$REGENMODE
 70
     1
  9
$FILLMODE
 70
     1
  9
$QTEXTMODE
 70
     0
  9
$MIRRTEXT
 70
     1
  9
$LTSCALE
 40
1.0
  9
$ATTMODE
 70
     1
  9
$TEXTSIZE
 40
3.5277777778
  9
$TRACEWID
 40
1.0
  9
$TEXTSTYLE
  7
Standard
  9
$CLAYER
  8
0
  9
$CELTYPE
  6
ByLayer
  9
$CECOLOR
 62
   256
  9
$CELTSCALE
 40
1.0
  9
$DISPSILH
 70
     0
  9
$DIMSCALE
 40
1.0
  9
$DIMASZ
 40
4.0
  9
$DIMEXO
 40
1.0
  9
$DIMDLI
 40
3.75
  9
$DIMRND
 40
0.0
  9
$DIMDLE
 40
0.0
  9
$DIMEXE
 40
1.0
  9
$DIMTP
 40
0.0
  9
$DIMTM
 40
0.0
  9
$DIMTXT
 40
3.5277777778
  9
$DIMCEN
 40
2.5
  9
$DIMTSZ
 40
0.0
  9
$DIMTOL
 70
     0
  9
$DIMLIM
 70
     0
  9
$DIMTIH
 70
     1
  9
$DIMTOH
 70
     1
  9
$DIMSE1
 70
     0
  9
$DIMSE2
 70
     0
  9
$DIMTAD
 70
     1
  9
$DIMZIN
 70
     0
  9
$DIMBLK
  1

  9
$DIMASO
 70
     1
  9
$DIMSHO
 70
     1
  9
$DIMPOST
  1

  9
$DIMAPOST
  1

  9
$DIMALT
 70
     0
  9
$DIMALTD
 70
     3
  9
$DIMALTF
 40
0.0393700787
  9
$DIMLFAC
 40
1.0
  9
$DIMTOFL
 70
     1
  9
$DIMTVP
 40
0.0
  9
$DIMTIX
 70
     0
  9
$DIMSOXD
 70
     0
  9
$DIMSAH
 70
     0
  9
$DIMBLK1
  1

  9
$DIMBLK2
  1

  9
$DIMSTYLE
  2
ISO-25
  9
$DIMCLRD
 70
     0
  9
$DIMCLRE
 70
     0
  9
$DIMCLRT
 70
     0
  9
$DIMTFAC
 40
1.0
  9
$DIMGAP
 40
1.524
  9
$DIMJUST
 70
     0
  9
$DIMSD1
 70
     0
  9
$DIMSD2
 70
     0
  9
$DIMTOLJ
 70
     0
  9
$DIMTZIN
 70
     0
  9
$DIMALTZ
 70
     0
  9
$DIMALTTZ
 70
     0
  9
$DIMUPT
 70
     0
  9
$DIMDEC
 70
     2
  9
$DIMTDEC
 70
     2
  9
$DIMALTU
 70
     2
  9
$DIMALTTD
 70
     3
  9
$DIMTXSTY
  7
Standard
  9
$DIMAUNIT
 70
     0
  9
$DIMADEC
 70
     2
  9
$DIMALTRND
 40
0.0
  9
$DIMAZIN
 70
     0
  9
$DIMDSEP
 70
    44
  9
$DIMATFIT
 70
     3
  9
$DIMFRAC
 70
     0
  9
$DIMLDRBLK
  1

  9
$DIMLUNIT
 70
     2
  9
$DIMLWD
 70
    -2
  9
$DIMLWE
 70
    -2
  9
$DIMTMOVE
 70
     0
  9
$LUNITS
 70
     2
  9
$LUPREC
 70
     2
  9
$SKETCHINC
 40
1.0
  9
$FILLETRAD
 40
10.0
  9
$AUNITS
 70
     0
  9
$AUPREC
 70
     2
  9
$MENU
  1
.
  9
$ELEVATION
 40
0.0
  9
$PELEVATION
 40
0.0
  9
$THICKNESS
 40
0.0
  9
$LIMCHECK
 70
     0
  9
$CHAMFERA
 40
0.0
  9
$CHAMFERB
 40
0.0
  9
$CHAMFERC
 40
0.0
  9
$CHAMFERD
 40
0.0
  9
$SKPOLY
 70
     0
  9
$TDCREATE
 40
2457974.351461621
  9
$TDUCREATE
 40
2457974.226461621
  9
$TDUPDATE
 40
2457974.375299259
  9
$TDUUPDATE
 40
2457974.250299259
  9
$TDINDWG
 40
0.0000930903
  9
$TDUSRTIMER
 40
2457974.250206204
  9
$USRTIMER
 70
     1
  9
$ANGBASE
 50
0.0
  9
$ANGDIR
 70
     0
  9
$PDMODE
 70
     0
  9
$PDSIZE
 40
-1.0
  9
$PLINEWID
 40
0.0
  9
$SPLFRAME
 70
     0
  9
$SPLINETYPE
 70
     6
  9
$SPLINESEGS
 70
     8
  9
$HANDSEED
  5
554
  9
$SURFTAB1
 70
     6
  9
$SURFTAB2
 70
     6
  9
$SURFTYPE
 70
     6
  9
$SURFU
 70
     6
  9
$SURFV
 70
     6
  9
$UCSBASE
  2

  9
$UCSNAME
  2

  9
$UCSORG
 10
0.0
 20
0.0
 30
0.0
  9
$UCSXDIR
 10
1.0
 20
0.0
 30
0.0
  9
$UCSYDIR
 10
0.0
 20
1.0
 30
0.0
  9
$UCSORTHOREF
  2

  9
$UCSORTHOVIEW
 70
     0
  9
$UCSORGTOP
 10
0.0
 20
0.0
 30
0.0
  9
$UCSORGBOTTOM
 10
0.0
 20
0.0
 30
0.0
  9
$UCSORGLEFT
 10
0.0
 20
0.0
 30
0.0
  9
$UCSORGRIGHT
 10
0.0
 20
0.0
 30
0.0
  9
$UCSORGFRONT
 10
0.0
 20
0.0
 30
0.0
  9
$UCSORGBACK
 10
0.0
 20
0.0
 30
0.0
  9
$PUCSBASE
  2

  9
$PUCSNAME
  2

  9
$PUCSORG
 10
0.0
 20
0.0
 30
0.0
  9
$PUCSXDIR
 10
1.0
 20
0.0
 30
0.0
  9
$PUCSYDIR
 10
0.0
 20
1.0
 30
0.0
  9
$PUCSORTHOREF
  2

  9
$PUCSORTHOVIEW
 70
     0
  9
$PUCSORGTOP
 10
0.0
 20
0.0
 30
0.0
  9
$PUCSORGBOTTOM
 10
0.0
 20
0.0
 30
0.0
  9
$PUCSORGLEFT
 10
0.0
 20
0.0
 30
0.0
  9
$PUCSORGRIGHT
 10
0.0
 20
0.0
 30
0.0
  9
$PUCSORGFRONT
 10
0.0
 20
0.0
 30
0.0
  9
$PUCSORGBACK
 10
0.0
 20
0.0
 30
0.0
  9
$USERI1
 70
     0
  9
$USERI2
 70
     0
  9
$USERI3
 70
     0
  9
$USERI4
 70
     0
  9
$USERI5
 70
     0
  9
$USERR1
 40
0.0
  9
$USERR2
 40
0.0
  9
$USERR3
 40
0.0
  9
$USERR4
 40
0.0
  9
$USERR5
 40
0.0
  9
$WORLDVIEW
 70
     1
  9
$SHADEDGE
 70
     3
  9
$SHADEDIF
 70
    70
  9
$TILEMODE
 70
     1
  9
$MAXACTVP
 70
    64
  9
$PINSBASE
 10
0.0
 20
0.0
 30
0.0
  9
$PLIMCHECK
 70
     0
  9
$PEXTMIN
 10
1.000000000000000E+20
 20
1.000000000000000E+20
 30
1.000000000000000E+20
  9
$PEXTMAX
 10
-1.000000000000000E+20
 20
-1.000000000000000E+20
 30
-1.000000000000000E+20
  9
$PLIMMIN
 10
0.0
 20
0.0
  9
$PLIMMAX
 10
0.0
 20
0.0
  9
$UNITMODE
 70
     0
  9
$VISRETAIN
 70
     1
  9
$PLINEGEN
 70
     0
  9
$PSLTSCALE
 70
     1
  9
$TREEDEPTH
 70
  3020
  9
$CMLSTYLE
  2
Standard
  9
$CMLJUST
 70
     0
  9
$CMLSCALE
 40
20.0
  9
$PROXYGRAPHICS
 70
     1
  9
$MEASUREMENT
 70
     1
  9
$CELWEIGHT
370
    -1
  9
$ENDCAPS
280
     0
  9
$JOINSTYLE
280
     0
  9
$LWDISPLAY
290
     1
  9
$INSUNITS
 70
     4
  9
$HYPERLINKBASE
  1

  9
$STYLESHEET
  1

  9
$XEDIT
290
     1
  9
$CEPSNTYPE
380
     0
  9
$PSTYLEMODE
290
     1
  9
$FINGERPRINTGUID
  2
{B778518D-537D-4C4D-B58E-2A9C25FFC3FF}
  9
$VERSIONGUID
  2
{FAEB1C32-E019-11D5-929B-00C0DF256EC4}
  9
$EXTNAMES
290
     1
  9
$PSVPSCALE
 40
0.0
  9
$OLESTARTUP
290
     0
  0
ENDSEC
  0
SECTION
  2
CLASSES
  0
CLASS
  1
ACDBDICTIONARYWDFLT
  2
AcDbDictionaryWithDefault
  3
ObjectDBX Classes
 90
        0
280
     0
281
     0
  0
CLASS
  1
VISUALSTYLE
  2
AcDbVisualStyle
  3
ObjectDBX Classes
 90
     4095
280
     0
281
     0
  0
CLASS
  1
MATERIAL
  2
AcDbMaterial
  3
ObjectDBX Classes
 90
     1153
280
     0
281
     0
  0
CLASS
  1
SCALE
  2
AcDbScale
  3
ObjectDBX Classes
 90
     1153
280
     0
281
     0
  0
CLASS
  1
TABLESTYLE
  2
AcDbTableStyle
  3
ObjectDBX Classes
 90
     4095
280
     0
281
     0
  0
CLASS
  1
MLEADERSTYLE
  2
AcDbMLeaderStyle
  3
ACDB_MLEADERSTYLE_CLASS
 90
     4095
280
     0
281
     0
  0
CLASS
  1
SUN
  2
AcDbSun
  3
SCENEOE
 90
     1153
280
     0
281
     0
  0
CLASS
  1
ACDBPLACEHOLDER
  2
AcDbPlaceHolder
  3
ObjectDBX Classes
 90
        0
280
     0
281
     0
  0
CLASS
  1
LAYOUT
  2
AcDbLayout
  3
ObjectDBX Classes
 90
        0
280
     0
281
     0
  0
CLASS
  1
RASTERVARIABLES
  2
AcDbRasterVariables
  3
ISM
 90
        0
280
     0
281
     0
  0
ENDSEC
  0
SECTION
  2
TABLES
  0
TABLE
  2
VPORT
  5
8
330
0
100
AcDbSymbolTable
 70
     1
  0
VPORT
  5
29
330
8
100
AcDbSymbolTableRecord
100
AcDbViewportTableRecord
  2
*Active
 70
     0
 10
0.0
 20
0.0
 11
1.0
 21
1.0
 12
1163.945212778837
 22
887.017424521239
 13
0.0
 23
0.0
 14
10.0
 24
10.0
 15
10.0
 25
10.0
 16
0.0
 26
0.0
 36
1.0
 17
0.0
 27
0.0
 37
0.0
 40
1770.257949829102
 41
2.608695652173913
 42
50.0
 43
0.0
 44
0.0
 50
0.0
 51
0.0
 71
    16
 72
  2000
 73
     1
 74
     3
 75
     0
 76
     0
 77
     0
 78
     0
281
     0
 65
     1
110
0.0
120
0.0
130
0.0
111
1.0
121
0.0
131
0.0
112
0.0
122
1.0
132
0.0
 79
     0
146
0.0
  0
ENDTAB
  0
TABLE
  2
LTYPE
  5
5
330
0
100
AcDbSymbolTable
 70
     6
  0
LTYPE
  5
14
330
5
100
AcDbSymbolTableRecord
100
AcDbLinetypeTableRecord
  2
ByBlock
 70
     0
  3

 72
    65
 73
     0
 40
0.0
  0
LTYPE
  5
15
330
5
100
AcDbSymbolTableRecord
100
AcDbLinetypeTableRecord
  2
ByLayer
 70
     0
  3

 72
    65
 73
     0
 40
0.0
  0
LTYPE
  5
16
330
5
100
AcDbSymbolTableRecord
100
AcDbLinetypeTableRecord
  2
Continuous
 70
     0
  3
Solid line
 72
    65
 73
     0
 40
0.0
  0
LTYPE
  5
6E
330
5
100
AcDbSymbolTableRecord
100
AcDbLinetypeTableRecord
  2
HIDDEN
 70
     0
  3
Hidden __ __ __ __ __ __ __ __ __ __ __ __ __ __
 72
    65
 73
     2
 40
1.905
 49
1.27
 74
     0
 49
-0.635
 74
     0
  0
LTYPE
  5
6F
330
5
100
AcDbSymbolTableRecord
100
AcDbLinetypeTableRecord
  2
PHANTOM
 70
     0
  3
Phantom ______  __  __  ______  __  __  ______
 72
    65
 73
     6
 40
12.7
 49
6.35
 74
     0
 49
-1.27
 74
     0
 49
1.27
 74
     0
 49
-1.27
 74
     0
 49
1.27
 74
     0
 49
-1.27
 74
     0
  0
LTYPE
  5
70
330
5
100
AcDbSymbolTableRecord
100
AcDbLinetypeTableRecord
  2
CENTER
 70
     0
  3
Center ____ _ ____ _ ____ _ ____ _ ____ _ ____
 72
    65
 73
     4
 40
10.16
 49
6.35
 74
     0
 49
-1.27
 74
     0
 49
1.27
 74
     0
 49
-1.27
 74
     0
  0
LTYPE
  5
71
330
5
100
AcDbSymbolTableRecord
100
AcDbLinetypeTableRecord
  2
CENTERX2
 70
     0
  3
Center (2x) ________  __  ________  __  _____
 72
    65
 73
     4
 40
20.32
 49
12.7
 74
     0
 49
-2.54
 74
     0
 49
2.54
 74
     0
 49
-2.54
 74
     0
  0
LTYPE
  5
72
330
5
100
AcDbSymbolTableRecord
100
AcDbLinetypeTableRecord
  2
DOT2
 70
     0
  3
Dot (.5x) ........................................
 72
    65
 73
     2
 40
0.635
 49
0.0
 74
     0
 49
-0.635
 74
     0
  0
ENDTAB
  0
TABLE
  2
LAYER
  5
2
330
0
100
AcDbSymbolTable
 70
     2
  0
LAYER
  5
10
330
2
100
AcDbSymbolTableRecord
100
AcDbLayerTableRecord
  2
0
 70
     0
 62
     7
  6
Continuous
370
    -3
390
F
  0
LAYER
  5
73
330
2
100
AcDbSymbolTableRecord
100
AcDbLayerTableRecord
  2
LENKIMO
 70
     0
 62
     1
  6
CENTERX2
370
    -3
390
F
  0
ENDTAB
  0
TABLE
  2
STYLE
  5
3
330
0
100
AcDbSymbolTable
 70
     1
  0
STYLE
  5
11
330
3
100
AcDbSymbolTableRecord
100
AcDbTextStyleTableRecord
  2
Standard
 70
     0
 40
0.0
 41
1.0
 50
0.0
 71
     0
 42
3.5277777778
  3
txt
  4

  0
ENDTAB
  0
TABLE
  2
VIEW
  5
6
330
0
100
AcDbSymbolTable
 70
     0
  0
ENDTAB
  0
TABLE
  2
UCS
  5
7
330
0
100
AcDbSymbolTable
 70
     0
  0
ENDTAB
  0
TABLE
  2
APPID
  5
9
330
0
100
AcDbSymbolTable
 70
     1
  0
APPID
  5
12
330
9
100
AcDbSymbolTableRecord
100
AcDbRegAppTableRecord
  2
ACAD
 70
     0
  0
ENDTAB
  0
TABLE
  2
DIMSTYLE
  5
A
330
0
100
AcDbSymbolTable
 70
     1
100
AcDbDimStyleTable
  0
DIMSTYLE
105
27
330
A
100
AcDbSymbolTableRecord
100
AcDbDimStyleTableRecord
  2
ISO-25
 70
     0
 41
2.5
 42
0.625
 43
3.75
 44
1.25
 73
     0
 74
     0
 77
     1
 78
     8
140
2.5
141
2.5
143
0.0393700787
147
0.625
171
     3
172
     1
178
     0
271
     2
272
     2
274
     3
278
    44
283
     0
284
     8
340
11
  0
ENDTAB
  0
TABLE
  2
BLOCK_RECORD
  5
1
330
0
100
AcDbSymbolTable
 70
     5
  0
BLOCK_RECORD
  5
1F
330
1
100
AcDbSymbolTableRecord
100
AcDbBlockTableRecord
  2
*Model_Space
340
22
  0
BLOCK_RECORD
  5
1B
330
1
100
AcDbSymbolTableRecord
100
AcDbBlockTableRecord
  2
*Paper_Space
340
1E
  0
BLOCK_RECORD
  5
23
330
1
100
AcDbSymbolTableRecord
100
AcDbBlockTableRecord
  2
*Paper_Space0
340
26
  0
BLOCK_RECORD
  5
74
330
1
100
AcDbSymbolTableRecord
100
AcDbBlockTableRecord
  2
Block1
340
0
  0
BLOCK_RECORD
  5
12B
330
1
100
AcDbSymbolTableRecord
100
AcDbBlockTableRecord
  2
Block-Projekciju vaizdavimas
340
0
  0
BLOCK_RECORD
  5
136
330
1
100
AcDbSymbolTableRecord
100
AcDbBlockTableRecord
  2
Block1_1
340
0
  0
BLOCK_RECORD
  5
1ED
330
1
100
AcDbSymbolTableRecord
100
AcDbBlockTableRecord
  2
Block-Projekciju vaizdavimas_1
340
0
  0
ENDTAB
  0
ENDSEC
  0
SECTION
  2
BLOCKS
  0
BLOCK
  5
20
330
1F
100
AcDbEntity
  8
0
100
AcDbBlockBegin
  2
*Model_Space
 70
     0
 10
0.0
 20
0.0
 30
0.0
  3
*Model_Space
  1

  0
ENDBLK
  5
21
330
1F
100
AcDbEntity
  8
0
100
AcDbBlockEnd
  0
BLOCK
  5
1C
330
1B
100
AcDbEntity
 67
     1
  8
0
100
AcDbBlockBegin
  2
*Paper_Space
 70
     0
 10
0.0
 20
0.0
 30
0.0
  3
*Paper_Space
  1

  0
ENDBLK
  5
1D
330
1B
100
AcDbEntity
 67
     1
  8
0
100
AcDbBlockEnd
  0
BLOCK
  5
24
330
23
100
AcDbEntity
  8
0
100
AcDbBlockBegin
  2
*Paper_Space0
 70
     0
 10
0.0
 20
0.0
 30
0.0
  3
*Paper_Space0
  1

  0
ENDBLK
  5
25
330
23
100
AcDbEntity
  8
0
100
AcDbBlockEnd
  0
BLOCK
  5
75
330
74
100
AcDbEntity
  8
0
100
AcDbBlockBegin
  2
Block1
 70
     0
 10
0.0
 20
0.0
 30
0.0
  3
Block1
  1

  0
ARC
  5
77
330
74
100
AcDbEntity
  8
0
  6
Continuous
 62
   179
100
AcDbCircle
 10
7867.6649029635
 20
2430.1355419087
 30
0.0
 40
931.6078627493895
100
AcDbArc
 50
232.1189098069
 51
101.3462704492
  0
ARC
  5
78
330
74
100
AcDbEntity
  8
0
  6
Continuous
 62
   179
100
AcDbCircle
 10
7943.5514462269
 20
2435.9613946537
 30
0.0
 40
1140.079096555486
100
AcDbArc
 50
297.434182935
 51
62.17203318890002
  0
ARC
  5
79
330
74
100
AcDbEntity
  8
0
  6
Continuous
 62
   179
100
AcDbCircle
 10
20001.4103066854
 20
6936.2583481763
 30
0.0
 40
1270.831290716854
100
AcDbArc
 50
3.4391112699
 51
76.4197578922
  0
ARC
  5
7A
330
74
100
AcDbEntity
  8
0
  6
Continuous
 62
   179
100
AcDbCircle
 10
19239.4822949422
 20
3782.0667000728
 30
0.0
 40
4515.74411667143
100
AcDbArc
 50
76.4197578923
 51
91.6754644339
  0
ARC
  5
7B
330
74
100
AcDbEntity
  8
0
  6
Continuous
 62
   179
100
AcDbCircle
 10
18683.9539720184
 20
2160.1911622497
 30
0.0
 40
2139.476369555804
100
AcDbArc
 50
270.3210228954001
 51
307.7127911617
  0
ARC
  5
7C
330
74
100
AcDbEntity
  8
0
  6
Continuous
 62
   179
100
AcDbCircle
 10
18746.0422061702
 20
1962.8216117468
 30
0.0
 40
1946.678009873842
100
AcDbArc
 50
309.8210667380999
 51
331.7017265911999
  0
ARC
  5
7D
330
74
100
AcDbEntity
  8
0
  6
Continuous
 62
   179
100
AcDbCircle
 10
17863.1917469523
 20
2438.1532894658
 30
0.0
 40
2949.35698999881
100
AcDbArc
 50
331.7017265911999
 51
356.0927915539
  0
ARC
  5
7E
330
74
100
AcDbEntity
  8
0
  6
Continuous
 62
   179
100
AcDbCircle
 10
16755.7856245826
 20
6709.226497343
 30
0.0
 40
4524.342739831098
100
AcDbArc
 50
353.5830630921
 51
3.8434115591
  0
ARC
  5
7F
330
74
100
AcDbEntity
  8
0
  6
Continuous
 62
   179
100
AcDbCircle
 10
19039.3213693035
 20
6348.9928357667
 30
0.0
 40
506.1072723730909
100
AcDbArc
 50
52.45518083769999
 51
82.2716960779
  0
ARC
  5
80
330
74
100
AcDbEntity
  8
0
  6
Continuous
 62
   179
100
AcDbCircle
 10
19108.0528552878
 20
6495.6270812425
 30
0.0
 40
349.7025539282703
100
AcDbArc
 50
10.4012874263
 51
46.7340603611
  0
ARC
  5
81
330
74
100
AcDbEntity
  8
0
  6
Continuous
 62
   179
100
AcDbCircle
 10
17417.0070420698
 20
6262.2496105517
 30
0.0
 40
2056.490362340239
100
AcDbArc
 50
355.475249592
 51
8.290034904
  0
ARC
  5
82
330
74
100
AcDbEntity
  8
0
  6
Continuous
 62
   179
100
AcDbCircle
 10
16921.0810184775
 20
2478.8840573259
 30
0.0
 40
2122.330793892779
100
AcDbArc
 50
339.2065439429
 51
352.3366543813
  0
ARC
  5
83
330
74
100
AcDbEntity
  8
0
  6
Continuous
 62
   179
100
AcDbCircle
 10
18500.143747488
 20
1898.8589115903
 30
0.0
 40
440.5904503964751
100
AcDbArc
 50
293.838270217
 51
336.8232513296001
  0
ARC
  5
84
330
74
100
AcDbEntity
  8
0
  6
Continuous
 62
   179
100
AcDbCircle
 10
18201.1477532386
 20
2813.3138324813
 30
0.0
 40
1401.173285533761
100
AcDbArc
 50
267.1686990927
 51
289.9057704419
  0
ARC
  5
85
330
74
100
AcDbEntity
  8
0
  6
Continuous
 62
   179
100
AcDbCircle
 10
18751.2701169541
 20
4514.9970927066
 30
0.0
 40
2362.499275286643
100
AcDbArc
 50
81.3304997955
 51
90.0
  0
ARC
  5
86
330
74
100
AcDbEntity
  8
0
  6
Continuous
 62
   179
100
AcDbCircle
 10
6720.6044375296
 20
9296.0579653158
 30
0.0
 40
7520.148763137153
100
AcDbArc
 50
220.017667739
 51
227.0143029097
  0
ARC
  5
87
330
74
100
AcDbEntity
  8
0
  6
Continuous
 62
   179
100
AcDbCircle
 10
2021.3892535935
 20
2163.6755564521
 30
0.0
 40
795.0570373035339
100
AcDbArc
 50
316.8708555891
 51
354.9781479006
  0
ARC
  5
88
330
74
100
AcDbEntity
  8
0
  6
Continuous
 62
   179
100
AcDbCircle
 10
2182.9124170468
 20
2011.9889486322
 30
0.0
 40
573.4753329004777
100
AcDbArc
 50
268.8486412909
 51
316.8986890901
  0
ARC
  5
89
330
74
100
AcDbEntity
  8
0
  6
Continuous
 62
   179
100
AcDbCircle
 10
10525.696072633
 20
12531.6259047731
 30
0.0
 40
10618.65239809051
100
AcDbArc
 50
220.6325257886
 51
226.7030345034
  0
ARC
  5
8A
330
74
100
AcDbEntity
  8
0
  6
Continuous
 62
   179
100
AcDbCircle
 10
2962.700769446
 20
6223.5867799529
 30
0.0
 40
723.1072200381735
100
AcDbArc
 50
137.8203941731
 51
175.3475443105
  0
ARC
  5
8B
330
74
100
AcDbEntity
  8
0
  6
Continuous
 62
   179
100
AcDbCircle
 10
2808.3239355685
 20
6360.2864243508
 30
0.0
 40
516.9247077280753
100
AcDbArc
 50
89.4379852016
 51
137.5591461504
  0
ARC
  5
8C
330
74
100
AcDbEntity
  8
0
  6
Continuous
 62
   179
100
AcDbCircle
 10
24439.2811878643
 20
2435.9613946539
 30
0.0
 40
1140.079096554877
100
AcDbArc
 50
297.4341829348999
 51
62.17203318890002
  0
ARC
  5
8D
330
74
100
AcDbEntity
  8
0
  6
Continuous
 62
   179
100
AcDbCircle
 10
24363.3946446009
 20
2430.1355419089
 30
0.0
 40
931.6078627500976
100
AcDbArc
 50
232.118909807
 51
101.3462704493
  0
LINE
  5
8E
330
74
100
AcDbEntity
  8
0
  6
Continuous
 62
   179
100
AcDbLine
 10
10088.0321784074
 20
0.0000125144
 30
0.0
 11
9858.2217949557
 21
8289.6552921115
 31
0.0
  0
LINE
  5
8F
330
74
100
AcDbEntity
  8
0
  6
Continuous
 62
   179
100
AcDbLine
 10
9858.2217949557
 20
8289.6552921115
 30
0.0
 11
7491.0265293557
 21
8289.6552921115
 31
0.0
  0
LINE
  5
90
330
74
100
AcDbEntity
  8
0
  6
Continuous
 62
   179
100
AcDbLine
 10
7491.0265293557
 20
8289.6552921115
 30
0.0
 11
5122.8131677553
 21
0.0000125144
 31
0.0
  0
LINE
  5
91
330
74
100
AcDbEntity
  8
0
  6
Continuous
 62
   179
100
AcDbLine
 10
5122.8131677553
 20
0.0000125144
 30
0.0
 11
6903.4160581553
 21
0.0000125144
 31
0.0
  0
LINE
  5
92
330
74
100
AcDbEntity
  8
0
  6
Continuous
 62
   179
100
AcDbLine
 10
6903.4160581553
 20
0.0000125144
 30
0.0
 11
7295.6346285553
 21
1694.8297721115
 31
0.0
  0
LINE
  5
93
330
74
100
AcDbEntity
  8
0
  6
Continuous
 62
   179
100
AcDbLine
 10
7684.3822381561
 20
3343.5361521108
 30
0.0
 11
8520.8837909553
 21
7008.8707569115
 31
0.0
  0
LINE
  5
94
330
74
100
AcDbEntity
  8
0
  6
Continuous
 62
   179
100
AcDbLine
 10
8520.8837909553
 20
7008.8707569115
 30
0.0
 11
8475.7613005553
 21
3444.1940153115
 31
0.0
  0
LINE
  5
95
330
74
100
AcDbEntity
  8
0
  6
Continuous
 62
   179
100
AcDbLine
 10
8468.8193789565
 20
1424.0948297112
 30
0.0
 11
8468.8193789565
 21
0.0000125144
 31
0.0
  0
LINE
  5
96
330
74
100
AcDbEntity
  8
0
  6
Continuous
 62
   179
100
AcDbLine
 10
8468.8193789565
 20
0.0000125144
 30
0.0
 11
10088.0321784074
 21
0.0000125144
 31
0.0
  0
LINE
  5
97
330
74
100
AcDbEntity
  8
0
  6
Continuous
 62
   179
100
AcDbLine
 10
19107.4500497519
 20
8295.8802112275
 30
0.0
 11
16935.7898769541
 21
8295.8802112275
 31
0.0
  0
LINE
  5
98
330
74
100
AcDbEntity
  8
0
  6
Continuous
 62
   179
100
AcDbLine
 10
16935.7898769541
 20
8295.8802112275
 30
0.0
 11
15991.7401521541
 21
0.0000288275
 31
0.0
  0
LINE
  5
99
330
74
100
AcDbEntity
  8
0
  6
Continuous
 62
   179
100
AcDbLine
 10
15991.7401521541
 20
0.0000288275
 30
0.0
 11
17855.6331985541
 21
0.0000288275
 31
0.0
  0
LINE
  5
9A
330
74
100
AcDbEntity
  8
0
  6
Continuous
 62
   179
100
AcDbLine
 10
17855.6331985541
 20
0.0000288275
 30
0.0
 11
18695.9411953541
 21
20.7483744275
 31
0.0
  0
LINE
  5
9B
330
74
100
AcDbEntity
  8
0
  6
Continuous
 62
   179
100
AcDbLine
 10
20805.6935873772
 20
2237.1817154785
 30
0.0
 11
21251.7830177772
 21
6203.5737826763
 31
0.0
  0
LINE
  5
9C
330
74
100
AcDbEntity
  8
0
  6
Continuous
 62
   179
100
AcDbLine
 10
19024.4566673541
 20
2195.8666048275
 30
0.0
 11
19467.0880401544
 21
6100.0136352237
 31
0.0
  0
LINE
  5
9D
330
74
100
AcDbEntity
  8
0
  6
Continuous
 62
   179
100
AcDbLine
 10
17907.5040625541
 20
1417.8036448275
 30
0.0
 11
18131.936218492
 21
1413.8509571068
 31
0.0
  0
LINE
  5
9E
330
74
100
AcDbEntity
  8
0
  6
Continuous
 62
   179
100
AcDbLine
 10
18529.9544305541
 20
6877.4963679933
 30
0.0
 11
17907.5040625541
 21
1417.8036448275
 31
0.0
  0
LINE
  5
9F
330
74
100
AcDbEntity
  8
0
  6
Continuous
 62
   179
100
AcDbLine
 10
18751.2701169541
 20
6877.4963679933
 30
0.0
 11
18529.9544305541
 21
6877.4963679933
 31
0.0
  0
LINE
  5
A0
330
74
100
AcDbEntity
  8
0
  6
Continuous
 62
   179
100
AcDbLine
 10
11134.6446741053
 20
0.0
 30
0.0
 11
14807.1018453053
 21
0.0
 31
0.0
  0
LINE
  5
A1
330
74
100
AcDbEntity
  8
0
  6
Continuous
 62
   179
100
AcDbLine
 10
14807.1018453053
 20
0.0
 30
0.0
 11
14990.3788981053
 21
1625.287072
 31
0.0
  0
LINE
  5
A2
330
74
100
AcDbEntity
  8
0
  6
Continuous
 62
   179
100
AcDbLine
 10
14990.3788981053
 20
1625.287072
 30
0.0
 11
13071.1569301053
 21
1625.287072
 31
0.0
  0
LINE
  5
A3
330
74
100
AcDbEntity
  8
0
  6
Continuous
 62
   179
100
AcDbLine
 10
13071.1569301053
 20
1625.287072
 30
0.0
 11
13828.4715445053
 21
8295.8801824
 31
0.0
  0
LINE
  5
A4
330
74
100
AcDbEntity
  8
0
  6
Continuous
 62
   179
100
AcDbLine
 10
13828.4715445053
 20
8295.8801824
 30
0.0
 11
12075.2363413053
 21
8295.8801824
 31
0.0
  0
LINE
  5
A5
330
74
100
AcDbEntity
  8
0
  6
Continuous
 62
   179
100
AcDbLine
 10
12075.2363413053
 20
8295.8801824
 30
0.0
 11
11134.6446741053
 21
0.0
 31
0.0
  0
LINE
  5
A6
330
74
100
AcDbEntity
  8
0
  6
Continuous
 62
   179
100
AcDbLine
 10
4907.4740560005
 20
6857.0185622947
 30
0.0
 11
4882.7391856278
 21
7041.1497513646
 31
0.0
  0
LINE
  5
A7
330
74
100
AcDbEntity
  8
0
  6
Continuous
 62
   179
100
AcDbLine
 10
4882.7391856278
 20
7041.1497513646
 30
0.0
 11
4840.84097804
 21
7222.1279289072
 31
0.0
  0
LINE
  5
A8
330
74
100
AcDbEntity
  8
0
  6
Continuous
 62
   179
100
AcDbLine
 10
4840.84097804
 20
7222.1279289072
 30
0.0
 11
4779.230404759
 21
7397.3516386623
 31
0.0
  0
LINE
  5
A9
330
74
100
AcDbEntity
  8
0
  6
Continuous
 62
   179
100
AcDbLine
 10
4779.230404759
 20
7397.3516386623
 30
0.0
 11
4695.8753846469
 21
7563.306056288
 31
0.0
  0
LINE
  5
AA
330
74
100
AcDbEntity
  8
0
  6
Continuous
 62
   179
100
AcDbLine
 10
4695.8753846469
 20
7563.306056288
 30
0.0
 11
4590.0094760133
 21
7715.8622667097
 31
0.0
  0
LINE
  5
AB
330
74
100
AcDbEntity
  8
0
  6
Continuous
 62
   179
100
AcDbLine
 10
4590.0094760133
 20
7715.8622667097
 30
0.0
 11
4462.7758841487
 21
7851.1049960358
 31
0.0
  0
LINE
  5
AC
330
74
100
AcDbEntity
  8
0
  6
Continuous
 62
   179
100
AcDbLine
 10
4462.7758841487
 20
7851.1049960358
 30
0.0
 11
4317.19779369
 21
7966.3918164371
 31
0.0
  0
LINE
  5
AD
330
74
100
AcDbEntity
  8
0
  6
Continuous
 62
   179
100
AcDbLine
 10
4317.19779369
 20
7966.3918164371
 30
0.0
 11
4157.3549470669
 21
8060.9636993174
 31
0.0
  0
LINE
  5
AE
330
74
100
AcDbEntity
  8
0
  6
Continuous
 62
   179
100
AcDbLine
 10
4157.3549470669
 20
8060.9636993174
 30
0.0
 11
3942.3832434805
 21
8152.0001345594
 31
0.0
  0
LINE
  5
AF
330
74
100
AcDbEntity
  8
0
  6
Continuous
 62
   179
100
AcDbLine
 10
3942.3832434805
 20
8152.0001345594
 30
0.0
 11
3717.7379879586
 21
8215.7306159908
 31
0.0
  0
LINE
  5
B0
330
74
100
AcDbEntity
  8
0
  6
Continuous
 62
   179
100
AcDbLine
 10
3717.7379879586
 20
8215.7306159908
 30
0.0
 11
3487.8010416052
 21
8256.6415379559
 31
0.0
  0
LINE
  5
B1
330
74
100
AcDbEntity
  8
0
  6
Continuous
 62
   179
100
AcDbLine
 10
3487.8010416052
 20
8256.6415379559
 30
0.0
 11
3255.2826646592
 21
8278.7971759128
 31
0.0
  0
LINE
  5
B2
330
74
100
AcDbEntity
  8
0
  6
Continuous
 62
   179
100
AcDbLine
 10
3255.2826646592
 20
8278.7971759128
 30
0.0
 11
3021.7939564
 21
8285.5640922951
 31
0.0
  0
LINE
  5
B3
330
74
100
AcDbEntity
  8
0
  6
Continuous
 62
   179
100
AcDbLine
 10
3021.7939564
 20
8285.5640922951
 30
0.0
 11
2764.7286656624
 21
8276.8167344558
 31
0.0
  0
LINE
  5
B4
330
74
100
AcDbEntity
  8
0
  6
Continuous
 62
   179
100
AcDbLine
 10
2764.7286656624
 20
8276.8167344558
 30
0.0
 11
2509.0566231212
 21
8248.8448730413
 31
0.0
  0
LINE
  5
B5
330
74
100
AcDbEntity
  8
0
  6
Continuous
 62
   179
100
AcDbLine
 10
2509.0566231212
 20
8248.8448730413
 30
0.0
 11
2256.7624741697
 21
8198.9693632548
 31
0.0
  0
LINE
  5
B6
330
74
100
AcDbEntity
  8
0
  6
Continuous
 62
   179
100
AcDbLine
 10
2256.7624741697
 20
8198.9693632548
 30
0.0
 11
2010.5862549102
 21
8124.6401609584
 31
0.0
  0
LINE
  5
B7
330
74
100
AcDbEntity
  8
0
  6
Continuous
 62
   179
100
AcDbLine
 10
2010.5862549102
 20
8124.6401609584
 30
0.0
 11
1823.7042907144
 21
8047.7718170144
 31
0.0
  0
LINE
  5
B8
330
74
100
AcDbEntity
  8
0
  6
Continuous
 62
   179
100
AcDbLine
 10
1823.7042907144
 20
8047.7718170144
 30
0.0
 11
1644.6605427625
 21
7954.1022052786
 31
0.0
  0
LINE
  5
B9
330
74
100
AcDbEntity
  8
0
  6
Continuous
 62
   179
100
AcDbLine
 10
1644.6605427625
 20
7954.1022052786
 30
0.0
 11
1475.390327491
 21
7843.7545704421
 31
0.0
  0
LINE
  5
BA
330
74
100
AcDbEntity
  8
0
  6
Continuous
 62
   179
100
AcDbLine
 10
1475.390327491
 20
7843.7545704421
 30
0.0
 11
1317.6231711996
 21
7717.507163895
 31
0.0
  0
LINE
  5
BB
330
74
100
AcDbEntity
  8
0
  6
Continuous
 62
   179
100
AcDbLine
 10
1317.6231711996
 20
7717.507163895
 30
0.0
 11
1139.538084005
 21
7540.9583629978
 31
0.0
  0
LINE
  5
BC
330
74
100
AcDbEntity
  8
0
  6
Continuous
 62
   179
100
AcDbLine
 10
1139.538084005
 20
7540.9583629978
 30
0.0
 11
983.4661868123
 21
7344.6865403276
 31
0.0
  0
LINE
  5
BD
330
74
100
AcDbEntity
  8
0
  6
Continuous
 62
   179
100
AcDbLine
 10
983.4661868123
 20
7344.6865403276
 30
0.0
 11
851.5325681984
 21
7131.4315088069
 31
0.0
  0
LINE
  5
BE
330
74
100
AcDbEntity
  8
0
  6
Continuous
 62
   179
100
AcDbLine
 10
851.5325681984
 20
7131.4315088069
 30
0.0
 11
744.4774564036
 21
6904.647070365
 31
0.0
  0
LINE
  5
BF
330
74
100
AcDbEntity
  8
0
  6
Continuous
 62
   179
100
AcDbLine
 10
744.4774564036
 20
6904.647070365
 30
0.0
 11
658.3392621499
 21
6656.4327422403
 31
0.0
  0
LINE
  5
C0
330
74
100
AcDbEntity
  8
0
  6
Continuous
 62
   179
100
AcDbLine
 10
658.3392621499
 20
6656.4327422403
 30
0.0
 11
596.9943576213
 21
6400.9335325463
 31
0.0
  0
LINE
  5
C1
330
74
100
AcDbEntity
  8
0
  6
Continuous
 62
   179
100
AcDbLine
 10
596.9943576213
 20
6400.9335325463
 30
0.0
 11
557.9730775995
 21
6141.0651554946
 31
0.0
  0
LINE
  5
C2
330
74
100
AcDbEntity
  8
0
  6
Continuous
 62
   179
100
AcDbLine
 10
557.9730775995
 20
6141.0651554946
 30
0.0
 11
538.0293793386
 21
5893.0807139359
 31
0.0
  0
LINE
  5
C3
330
74
100
AcDbEntity
  8
0
  6
Continuous
 62
   179
100
AcDbLine
 10
538.0293793386
 20
5893.0807139359
 30
0.0
 11
537.9155556826
 21
5644.3161034396
 31
0.0
  0
LINE
  5
C4
330
74
100
AcDbEntity
  8
0
  6
Continuous
 62
   179
100
AcDbLine
 10
537.9155556826
 20
5644.3161034396
 30
0.0
 11
561.0465619986
 21
5396.6565041751
 31
0.0
  0
LINE
  5
C5
330
74
100
AcDbEntity
  8
0
  6
Continuous
 62
   179
100
AcDbLine
 10
561.0465619986
 20
5396.6565041751
 30
0.0
 11
610.8365836731
 21
5152.9862283491
 31
0.0
  0
LINE
  5
C6
330
74
100
AcDbEntity
  8
0
  6
Continuous
 62
   179
100
AcDbLine
 10
610.8365836731
 20
5152.9862283491
 30
0.0
 11
670.4957765389
 21
4966.8752015955
 31
0.0
  0
LINE
  5
C7
330
74
100
AcDbEntity
  8
0
  6
Continuous
 62
   179
100
AcDbLine
 10
670.4957765389
 20
4966.8752015955
 30
0.0
 11
749.0385092576
 21
4787.922755338
 31
0.0
  0
LINE
  5
C8
330
74
100
AcDbEntity
  8
0
  6
Continuous
 62
   179
100
AcDbLine
 10
749.0385092576
 20
4787.922755338
 30
0.0
 11
846.3298658912
 21
4618.4358151253
 31
0.0
  0
LINE
  5
C9
330
74
100
AcDbEntity
  8
0
  6
Continuous
 62
   179
100
AcDbLine
 10
846.3298658912
 20
4618.4358151253
 30
0.0
 11
961.3271095996
 21
4460.4233554942
 31
0.0
  0
LINE
  5
CA
330
74
100
AcDbEntity
  8
0
  6
Continuous
 62
   179
100
AcDbLine
 10
1593.2484263997
 20
3794.8892026942
 30
0.0
 11
2342.8146692
 21
3099.1034974946
 31
0.0
  0
LINE
  5
CB
330
74
100
AcDbEntity
  8
0
  6
Continuous
 62
   179
100
AcDbLine
 10
2342.8146692
 20
3099.1034974946
 30
0.0
 11
2457.4150864402
 21
2985.4804965343
 31
0.0
  0
LINE
  5
CC
330
74
100
AcDbEntity
  8
0
  6
Continuous
 62
   179
100
AcDbLine
 10
2457.4150864402
 20
2985.4804965343
 30
0.0
 11
2562.4777930784
 21
2863.0062246075
 31
0.0
  0
LINE
  5
CD
330
74
100
AcDbEntity
  8
0
  6
Continuous
 62
   179
100
AcDbLine
 10
2562.4777930784
 20
2863.0062246075
 30
0.0
 11
2654.9628244148
 21
2730.8077708033
 31
0.0
  0
LINE
  5
CE
330
74
100
AcDbEntity
  8
0
  6
Continuous
 62
   179
100
AcDbLine
 10
2654.9628244148
 20
2730.8077708033
 30
0.0
 11
2730.9070108725
 21
2588.5028322591
 31
0.0
  0
LINE
  5
CF
330
74
100
AcDbEntity
  8
0
  6
Continuous
 62
   179
100
AcDbLine
 10
2730.9070108725
 20
2588.5028322591
 30
0.0
 11
2787.6392767372
 21
2429.3959416825
 31
0.0
  0
LINE
  5
D0
330
74
100
AcDbEntity
  8
0
  6
Continuous
 62
   179
100
AcDbLine
 10
2787.6392767372
 20
2429.3959416825
 30
0.0
 11
2816.0412804487
 21
2262.9265767885
 31
0.0
  0
LINE
  5
D1
330
74
100
AcDbEntity
  8
0
  6
Continuous
 62
   179
100
AcDbLine
 10
2816.0412804487
 20
2262.9265767885
 30
0.0
 11
2813.3943732
 21
2094.0797010946
 31
0.0
  0
LINE
  5
D2
330
74
100
AcDbEntity
  8
0
  6
Continuous
 62
   179
100
AcDbLine
 10
2171.3892056002
 20
1438.629399097
 30
0.0
 11
2081.3271648151
 21
1444.5220285234
 31
0.0
  0
LINE
  5
D3
330
74
100
AcDbEntity
  8
0
  6
Continuous
 62
   179
100
AcDbLine
 10
2081.3271648151
 20
1444.5220285234
 30
0.0
 11
1993.3677378413
 21
1464.5260106363
 31
0.0
  0
LINE
  5
D4
330
74
100
AcDbEntity
  8
0
  6
Continuous
 62
   179
100
AcDbLine
 10
1993.3677378413
 20
1464.5260106363
 30
0.0
 11
1911.3435803354
 21
1501.9115152047
 31
0.0
  0
LINE
  5
D5
330
74
100
AcDbEntity
  8
0
  6
Continuous
 62
   179
100
AcDbLine
 10
1911.3435803354
 20
1501.9115152047
 30
0.0
 11
1840.5450992733
 21
1557.6494251181
 31
0.0
  0
LINE
  5
D6
330
74
100
AcDbEntity
  8
0
  6
Continuous
 62
   179
100
AcDbLine
 10
1840.5450992733
 20
1557.6494251181
 30
0.0
 11
1785.0445168711
 21
1628.6751044787
 31
0.0
  0
LINE
  5
D7
330
74
100
AcDbEntity
  8
0
  6
Continuous
 62
   179
100
AcDbLine
 10
1785.0445168711
 20
1628.6751044787
 30
0.0
 11
1745.2817682865
 21
1709.6405469696
 31
0.0
  0
LINE
  5
D8
330
74
100
AcDbEntity
  8
0
  6
Continuous
 62
   179
100
AcDbLine
 10
1745.2817682865
 20
1709.6405469696
 30
0.0
 11
1710.0353127013
 21
1840.2386565146
 31
0.0
  0
LINE
  5
D9
330
74
100
AcDbEntity
  8
0
  6
Continuous
 62
   179
100
AcDbLine
 10
1710.0353127013
 20
1840.2386565146
 30
0.0
 11
1696.0216688059
 21
1974.8977537186
 31
0.0
  0
LINE
  5
DA
330
74
100
AcDbEntity
  8
0
  6
Continuous
 62
   179
100
AcDbLine
 10
1696.0216688059
 20
1974.8977537186
 30
0.0
 11
1696.5924840549
 21
2110.3283975811
 31
0.0
  0
LINE
  5
DB
330
74
100
AcDbEntity
  8
0
  6
Continuous
 62
   179
100
AcDbLine
 10
1696.5924840549
 20
2110.3283975811
 30
0.0
 11
1707.5320688
 21
2245.3374630946
 31
0.0
  0
LINE
  5
DC
330
74
100
AcDbEntity
  8
0
  6
Continuous
 62
   179
100
AcDbLine
 10
1707.5320688
 20
2245.3374630946
 30
0.0
 11
1781.480308
 21
2897.4264814946
 31
0.0
  0
LINE
  5
DD
330
74
100
AcDbEntity
  8
0
  6
Continuous
 62
   179
100
AcDbLine
 10
1781.480308
 20
2897.4264814946
 30
0.0
 11
94.1159408
 21
2897.4264814946
 31
0.0
  0
LINE
  5
DE
330
74
100
AcDbEntity
  8
0
  6
Continuous
 62
   179
100
AcDbLine
 10
94.1159408
 20
2897.4264814946
 30
0.0
 11
26.8902688
 21
2295.7567170946
 31
0.0
  0
LINE
  5
DF
330
74
100
AcDbEntity
  8
0
  6
Continuous
 62
   179
100
AcDbLine
 10
26.8902688
 20
2295.7567170946
 30
0.0
 11
5.8201226117
 21
2068.3689705604
 31
0.0
  0
LINE
  5
E0
330
74
100
AcDbEntity
  8
0
  6
Continuous
 62
   179
100
AcDbLine
 10
5.8201226117
 20
2068.3689705604
 30
0.0
 11
0.0
 21
1889.0414014946
 31
0.0
  0
LINE
  5
E1
330
74
100
AcDbEntity
  8
0
  6
Continuous
 62
   179
100
AcDbLine
 10
0.0
 20
1889.0414014946
 30
0.0
 11
0.0
 21
1788.2028934946
 31
0.0
  0
LINE
  5
E2
330
74
100
AcDbEntity
  8
0
  6
Continuous
 62
   179
100
AcDbLine
 10
0.0
 20
1788.2028934946
 30
0.0
 11
8.4741181851
 21
1597.5992610857
 31
0.0
  0
LINE
  5
E3
330
74
100
AcDbEntity
  8
0
  6
Continuous
 62
   179
100
AcDbLine
 10
8.4741181851
 20
1597.5992610857
 30
0.0
 11
29.9475321698
 21
1408.0255515191
 31
0.0
  0
LINE
  5
E4
330
74
100
AcDbEntity
  8
0
  6
Continuous
 62
   179
100
AcDbLine
 10
29.9475321698
 20
1408.0255515191
 30
0.0
 11
66.5196177454
 21
1220.7936775914
 31
0.0
  0
LINE
  5
E5
330
74
100
AcDbEntity
  8
0
  6
Continuous
 62
   179
100
AcDbLine
 10
66.5196177454
 20
1220.7936775914
 30
0.0
 11
120.5660601196
 21
1037.8592313249
 31
0.0
  0
LINE
  5
E6
330
74
100
AcDbEntity
  8
0
  6
Continuous
 62
   179
100
AcDbLine
 10
120.5660601196
 20
1037.8592313249
 30
0.0
 11
194.3311383855
 21
861.9730900702
 31
0.0
  0
LINE
  5
E7
330
74
100
AcDbEntity
  8
0
  6
Continuous
 62
   179
100
AcDbLine
 10
194.3311383855
 20
861.9730900702
 30
0.0
 11
287.5295606573
 21
699.5021482411
 31
0.0
  0
LINE
  5
E8
330
74
100
AcDbEntity
  8
0
  6
Continuous
 62
   179
100
AcDbLine
 10
287.5295606573
 20
699.5021482411
 30
0.0
 11
401.5974373649
 21
550.9580491856
 31
0.0
  0
LINE
  5
E9
330
74
100
AcDbEntity
  8
0
  6
Continuous
 62
   179
100
AcDbLine
 10
401.5974373649
 20
550.9580491856
 30
0.0
 11
535.1901037299
 21
419.6995230367
 31
0.0
  0
LINE
  5
EA
330
74
100
AcDbEntity
  8
0
  6
Continuous
 62
   179
100
AcDbLine
 10
535.1901037299
 20
419.6995230367
 30
0.0
 11
685.4525519751
 21
307.8901613371
 31
0.0
  0
LINE
  5
EB
330
74
100
AcDbEntity
  8
0
  6
Continuous
 62
   179
100
AcDbLine
 10
685.4525519751
 20
307.8901613371
 30
0.0
 11
880.9909831936
 21
200.7980430706
 31
0.0
  0
LINE
  5
EC
330
74
100
AcDbEntity
  8
0
  6
Continuous
 62
   179
100
AcDbLine
 10
880.9909831936
 20
200.7980430706
 30
0.0
 11
1088.9648544967
 21
120.3523112471
 31
0.0
  0
LINE
  5
ED
330
74
100
AcDbEntity
  8
0
  6
Continuous
 62
   179
100
AcDbLine
 10
1088.9648544967
 20
120.3523112471
 30
0.0
 11
1304.5983771836
 21
63.4027511638
 31
0.0
  0
LINE
  5
EE
330
74
100
AcDbEntity
  8
0
  6
Continuous
 62
   179
100
AcDbLine
 10
1304.5983771836
 20
63.4027511638
 30
0.0
 11
1524.5667113278
 21
26.4353113751
 31
0.0
  0
LINE
  5
EF
330
74
100
AcDbEntity
  8
0
  6
Continuous
 62
   179
100
AcDbLine
 10
1524.5667113278
 20
26.4353113751
 30
0.0
 11
1746.7181907984
 21
6.2021311101
 31
0.0
  0
LINE
  5
F0
330
74
100
AcDbEntity
  8
0
  6
Continuous
 62
   179
100
AcDbLine
 10
1746.7181907984
 20
6.2021311101
 30
0.0
 11
1969.7121896
 21
0.0000182946
 31
0.0
  0
LINE
  5
F1
330
74
100
AcDbEntity
  8
0
  6
Continuous
 62
   179
100
AcDbLine
 10
1969.7121896
 20
0.0000182946
 30
0.0
 11
2235.4163107967
 21
9.0474941519
 31
0.0
  0
LINE
  5
F2
330
74
100
AcDbEntity
  8
0
  6
Continuous
 62
   179
100
AcDbLine
 10
2235.4163107967
 20
9.0474941519
 30
0.0
 11
2499.6874650753
 21
37.9033605802
 31
0.0
  0
LINE
  5
F3
330
74
100
AcDbEntity
  8
0
  6
Continuous
 62
   179
100
AcDbLine
 10
2499.6874650753
 20
37.9033605802
 30
0.0
 11
2760.5117042792
 21
89.204615755
 31
0.0
  0
LINE
  5
F4
330
74
100
AcDbEntity
  8
0
  6
Continuous
 62
   179
100
AcDbLine
 10
2760.5117042792
 20
89.204615755
 30
0.0
 11
3015.1415277313
 21
165.4438899665
 31
0.0
  0
LINE
  5
F5
330
74
100
AcDbEntity
  8
0
  6
Continuous
 62
   179
100
AcDbLine
 10
3015.1415277313
 20
165.4438899665
 30
0.0
 11
3208.6236023082
 21
244.1201341123
 31
0.0
  0
LINE
  5
F6
330
74
100
AcDbEntity
  8
0
  6
Continuous
 62
   179
100
AcDbLine
 10
3208.6236023082
 20
244.1201341123
 30
0.0
 11
3394.246790929
 21
339.8610540042
 31
0.0
  0
LINE
  5
F7
330
74
100
AcDbEntity
  8
0
  6
Continuous
 62
   179
100
AcDbLine
 10
3394.246790929
 20
339.8610540042
 30
0.0
 11
3570.08287903
 21
452.5651803685
 31
0.0
  0
LINE
  5
F8
330
74
100
AcDbEntity
  8
0
  6
Continuous
 62
   179
100
AcDbLine
 10
3570.08287903
 20
452.5651803685
 30
0.0
 11
3734.3860796
 21
581.5020810946
 31
0.0
  0
LINE
  5
F9
330
74
100
AcDbEntity
  8
0
  6
Continuous
 62
   179
100
AcDbLine
 10
3734.3860796
 20
581.5020810946
 30
0.0
 11
3918.9619613187
 21
762.6068684982
 31
0.0
  0
LINE
  5
FA
330
74
100
AcDbEntity
  8
0
  6
Continuous
 62
   179
100
AcDbLine
 10
3918.9619613187
 20
762.6068684982
 30
0.0
 11
4080.6115034165
 21
964.4332031658
 31
0.0
  0
LINE
  5
FB
330
74
100
AcDbEntity
  8
0
  6
Continuous
 62
   179
100
AcDbLine
 10
4080.6115034165
 20
964.4332031658
 30
0.0
 11
4217.129324297
 21
1184.0491590435
 31
0.0
  0
LINE
  5
FC
330
74
100
AcDbEntity
  8
0
  6
Continuous
 62
   179
100
AcDbLine
 10
4217.129324297
 20
1184.0491590435
 30
0.0
 11
4327.807798901
 21
1417.7744861233
 31
0.0
  0
LINE
  5
FD
330
74
100
AcDbEntity
  8
0
  6
Continuous
 62
   179
100
AcDbLine
 10
4327.807798901
 20
1417.7744861233
 30
0.0
 11
4416.8403522579
 21
1673.6616360853
 31
0.0
  0
LINE
  5
FE
330
74
100
AcDbEntity
  8
0
  6
Continuous
 62
   179
100
AcDbLine
 10
4416.8403522579
 20
1673.6616360853
 30
0.0
 11
4480.332478423
 21
1937.0776350384
 31
0.0
  0
LINE
  5
FF
330
74
100
AcDbEntity
  8
0
  6
Continuous
 62
   179
100
AcDbLine
 10
4480.332478423
 20
1937.0776350384
 30
0.0
 11
4520.926442
 21
2205.0020598946
 31
0.0
  0
LINE
  5
100
330
74
100
AcDbEntity
  8
0
  6
Continuous
 62
   179
100
AcDbLine
 10
4520.926442
 20
2205.0020598946
 30
0.0
 11
4539.8604791128
 21
2434.751251137
 31
0.0
  0
LINE
  5
101
330
74
100
AcDbEntity
  8
0
  6
Continuous
 62
   179
100
AcDbLine
 10
4539.8604791128
 20
2434.751251137
 30
0.0
 11
4542.0136171636
 21
2665.2555763504
 31
0.0
  0
LINE
  5
102
330
74
100
AcDbEntity
  8
0
  6
Continuous
 62
   179
100
AcDbLine
 10
4542.0136171636
 20
2665.2555763504
 30
0.0
 11
4524.9874932226
 21
2895.1234497405
 31
0.0
  0
LINE
  5
103
330
74
100
AcDbEntity
  8
0
  6
Continuous
 62
   179
100
AcDbLine
 10
4524.9874932226
 20
2895.1234497405
 30
0.0
 11
4496.6310776622
 21
3074.0098021703
 31
0.0
  0
LINE
  5
104
330
74
100
AcDbEntity
  8
0
  6
Continuous
 62
   179
100
AcDbLine
 10
4496.6310776622
 20
3074.0098021703
 30
0.0
 11
4454.0379981851
 21
3250.0430485054
 31
0.0
  0
LINE
  5
105
330
74
100
AcDbEntity
  8
0
  6
Continuous
 62
   179
100
AcDbLine
 10
4454.0379981851
 20
3250.0430485054
 30
0.0
 11
4396.5589488
 21
3421.7867230946
 31
0.0
  0
LINE
  5
106
330
74
100
AcDbEntity
  8
0
  6
Continuous
 62
   179
100
AcDbLine
 10
4396.5589488
 20
3421.7867230946
 30
0.0
 11
4335.0775798529
 21
3551.3591107413
 31
0.0
  0
LINE
  5
107
330
74
100
AcDbEntity
  8
0
  6
Continuous
 62
   179
100
AcDbLine
 10
4335.0775798529
 20
3551.3591107413
 30
0.0
 11
4262.2002057756
 21
3674.9188547719
 31
0.0
  0
LINE
  5
108
330
74
100
AcDbEntity
  8
0
  6
Continuous
 62
   179
100
AcDbLine
 10
4262.2002057756
 20
3674.9188547719
 30
0.0
 11
4181.3183894369
 21
3793.4113089372
 31
0.0
  0
LINE
  5
109
330
74
100
AcDbEntity
  8
0
  6
Continuous
 62
   179
100
AcDbLine
 10
4181.3183894369
 20
3793.4113089372
 30
0.0
 11
4078.5227471571
 21
3927.6643628842
 31
0.0
  0
LINE
  5
10A
330
74
100
AcDbEntity
  8
0
  6
Continuous
 62
   179
100
AcDbLine
 10
4078.5227471571
 20
3927.6643628842
 30
0.0
 11
3969.6759316
 21
4057.0693234946
 31
0.0
  0
LINE
  5
10B
330
74
100
AcDbEntity
  8
0
  6
Continuous
 62
   179
100
AcDbLine
 10
3969.6759316
 20
4057.0693234946
 30
0.0
 11
3243.638674
 21
4803.2742826946
 31
0.0
  0
LINE
  5
10C
330
74
100
AcDbEntity
  8
0
  6
Continuous
 62
   179
100
AcDbLine
 10
2467.1821623981
 20
5616.7049138995
 30
0.0
 11
2391.5759134121
 21
5727.7039441288
 31
0.0
  0
LINE
  5
10D
330
74
100
AcDbEntity
  8
0
  6
Continuous
 62
   179
100
AcDbLine
 10
2391.5759134121
 20
5727.7039441288
 30
0.0
 11
2326.9023872324
 21
5845.3828817498
 31
0.0
  0
LINE
  5
10E
330
74
100
AcDbEntity
  8
0
  6
Continuous
 62
   179
100
AcDbLine
 10
2326.9023872324
 20
5845.3828817498
 30
0.0
 11
2276.7855321171
 21
5969.9206549293
 31
0.0
  0
LINE
  5
10F
330
74
100
AcDbEntity
  8
0
  6
Continuous
 62
   179
100
AcDbLine
 10
2276.7855321171
 20
5969.9206549293
 30
0.0
 11
2250.5432565423
 21
6072.0904771882
 31
0.0
  0
LINE
  5
110
330
74
100
AcDbEntity
  8
0
  6
Continuous
 62
   179
100
AcDbLine
 10
2250.5432565423
 20
6072.0904771882
 30
0.0
 11
2238.3532498759
 21
6176.8496579539
 31
0.0
  0
LINE
  5
111
330
74
100
AcDbEntity
  8
0
  6
Continuous
 62
   179
100
AcDbLine
 10
2238.3532498759
 20
6176.8496579539
 30
0.0
 11
2241.9761612
 21
6282.2390666946
 31
0.0
  0
LINE
  5
112
330
74
100
AcDbEntity
  8
0
  6
Continuous
 62
   179
100
AcDbLine
 10
2813.394373201
 20
6877.1862638961
 30
0.0
 11
2899.1450330725
 21
6871.9159884789
 31
0.0
  0
LINE
  5
113
330
74
100
AcDbEntity
  8
0
  6
Continuous
 62
   179
100
AcDbLine
 10
2899.1450330725
 20
6871.9159884789
 30
0.0
 11
2983.1458702521
 21
6854.0846279821
 31
0.0
  0
LINE
  5
114
330
74
100
AcDbEntity
  8
0
  6
Continuous
 62
   179
100
AcDbLine
 10
2983.1458702521
 20
6854.0846279821
 30
0.0
 11
3062.202014936
 21
6820.6931120196
 31
0.0
  0
LINE
  5
115
330
74
100
AcDbEntity
  8
0
  6
Continuous
 62
   179
100
AcDbLine
 10
3062.202014936
 20
6820.6931120196
 30
0.0
 11
3131.6623634801
 21
6770.3629356214
 31
0.0
  0
LINE
  5
116
330
74
100
AcDbEntity
  8
0
  6
Continuous
 62
   179
100
AcDbLine
 10
3131.6623634801
 20
6770.3629356214
 30
0.0
 11
3187.37124796
 21
6705.1184696235
 31
0.0
  0
LINE
  5
117
330
74
100
AcDbEntity
  8
0
  6
Continuous
 62
   179
100
AcDbLine
 10
3187.37124796
 20
6705.1184696235
 30
0.0
 11
3228.1274776793
 21
6629.5646068072
 31
0.0
  0
LINE
  5
118
330
74
100
AcDbEntity
  8
0
  6
Continuous
 62
   179
100
AcDbLine
 10
3228.1274776793
 20
6629.5646068072
 30
0.0
 11
3265.0334180049
 21
6506.2441361359
 31
0.0
  0
LINE
  5
119
330
74
100
AcDbEntity
  8
0
  6
Continuous
 62
   179
100
AcDbLine
 10
3265.0334180049
 20
6506.2441361359
 30
0.0
 11
3280.3602104272
 21
6378.3104742822
 31
0.0
  0
LINE
  5
11A
330
74
100
AcDbEntity
  8
0
  6
Continuous
 62
   179
100
AcDbLine
 10
3280.3602104272
 20
6378.3104742822
 30
0.0
 11
3280.7520241623
 21
6249.4122034737
 31
0.0
  0
LINE
  5
11B
330
74
100
AcDbEntity
  8
0
  6
Continuous
 62
   179
100
AcDbLine
 10
3280.7520241623
 20
6249.4122034737
 30
0.0
 11
3270.5289428
 21
6120.8974538946
 31
0.0
  0
LINE
  5
11C
330
74
100
AcDbEntity
  8
0
  6
Continuous
 62
   179
100
AcDbLine
 10
3270.5289428
 20
6120.8974538946
 30
0.0
 11
3206.6645544
 21
5566.2856598946
 31
0.0
  0
LINE
  5
11D
330
74
100
AcDbEntity
  8
0
  6
Continuous
 62
   179
100
AcDbLine
 10
3206.6645544
 20
5566.2856598946
 30
0.0
 11
4820.0806824005
 21
5566.2856598945
 31
0.0
  0
LINE
  5
11E
330
74
100
AcDbEntity
  8
0
  6
Continuous
 62
   179
100
AcDbLine
 10
4820.0806824005
 20
5566.2856598945
 30
0.0
 11
4894.0289216005
 21
6231.8198126945
 31
0.0
  0
LINE
  5
11F
330
74
100
AcDbEntity
  8
0
  6
Continuous
 62
   179
100
AcDbLine
 10
4894.0289216005
 20
6231.8198126945
 30
0.0
 11
4907.4740560005
 21
6366.2711566946
 31
0.0
  0
LINE
  5
120
330
74
100
AcDbEntity
  8
0
  6
Continuous
 62
   179
100
AcDbLine
 10
4907.4740560005
 20
6366.2711566946
 30
0.0
 11
4917.4861623745
 21
6641.1377165616
 31
0.0
  0
LINE
  5
121
330
74
100
AcDbEntity
  8
0
  6
Continuous
 62
   179
100
AcDbLine
 10
4917.4861623745
 20
6641.1377165616
 30
0.0
 11
4907.4740560005
 21
6857.0185622947
 31
0.0
  0
LINE
  5
122
330
74
100
AcDbEntity
  8
0
  6
Continuous
 62
   179
100
AcDbLine
 10
24964.5491205926
 20
0.0000125144
 30
0.0
 11
26583.7619200447
 21
0.0000125144
 31
0.0
  0
LINE
  5
123
330
74
100
AcDbEntity
  8
0
  6
Continuous
 62
   179
100
AcDbLine
 10
24964.5491205926
 20
1424.0948297115
 30
0.0
 11
24964.5491205926
 21
0.0000125144
 31
0.0
  0
LINE
  5
124
330
74
100
AcDbEntity
  8
0
  6
Continuous
 62
   179
100
AcDbLine
 10
25016.6135325926
 20
7008.8707569115
 30
0.0
 11
24971.491042193
 21
3444.1940153109
 31
0.0
  0
LINE
  5
125
330
74
100
AcDbEntity
  8
0
  6
Continuous
 62
   179
100
AcDbLine
 10
24180.1119797926
 20
3343.5361521115
 30
0.0
 11
25016.6135325926
 21
7008.8707569115
 31
0.0
  0
LINE
  5
126
330
74
100
AcDbEntity
  8
0
  6
Continuous
 62
   179
100
AcDbLine
 10
23399.1457997926
 20
0.0000125144
 30
0.0
 11
23791.3643701938
 21
1694.8297721102
 31
0.0
  0
LINE
  5
127
330
74
100
AcDbEntity
  8
0
  6
Continuous
 62
   179
100
AcDbLine
 10
21618.5429093926
 20
0.0000125144
 30
0.0
 11
23399.1457997926
 21
0.0000125144
 31
0.0
  0
LINE
  5
128
330
74
100
AcDbEntity
  8
0
  6
Continuous
 62
   179
100
AcDbLine
 10
23986.756270993
 20
8289.6552921115
 30
0.0
 11
21618.5429093926
 21
0.0000125144
 31
0.0
  0
LINE
  5
129
330
74
100
AcDbEntity
  8
0
  6
Continuous
 62
   179
100
AcDbLine
 10
26353.951536593
 20
8289.6552921115
 30
0.0
 11
23986.756270993
 21
8289.6552921115
 31
0.0
  0
LINE
  5
12A
330
74
100
AcDbEntity
  8
0
  6
Continuous
 62
   179
100
AcDbLine
 10
26583.7619200447
 20
0.0000125144
 30
0.0
 11
26353.951536593
 21
8289.6552921115
 31
0.0
  0
ENDBLK
  5
76
330
74
100
AcDbEntity
  8
0
100
AcDbBlockEnd
  0
BLOCK
  5
12C
330
12B
100
AcDbEntity
  8
0
100
AcDbBlockBegin
  2
Block-Projekciju vaizdavimas
 70
     0
 10
0.0
 20
0.0
 30
0.0
  3
Block-Projekciju vaizdavimas
  1

  0
CIRCLE
  5
12E
330
12B
100
AcDbEntity
  8
0
  6
Continuous
 62
     7
370
    35
100
AcDbCircle
 10
0.0
 20
0.0
 30
0.0
 40
3.5
  0
CIRCLE
  5
12F
330
12B
100
AcDbEntity
  8
0
  6
Continuous
 62
     7
370
    35
100
AcDbCircle
 10
0.0
 20
0.0
 30
0.0
 40
1.5
  0
LINE
  5
130
330
12B
100
AcDbEntity
  8
0
  6
CENTERX2
 62
     7
370
    18
100
AcDbLine
 10
4.5
 20
0.0
 30
0.0
 11
-14.5
 21
0.0
 31
0.0
  0
LINE
  5
131
330
12B
100
AcDbEntity
  8
0
  6
Continuous
 62
     7
370
    35
100
AcDbLine
 10
-13.5
 20
1.5
 30
0.0
 11
-13.5
 21
-1.5
 31
0.0
  0
LINE
  5
132
330
12B
100
AcDbEntity
  8
0
  6
Continuous
 62
     7
370
    35
100
AcDbLine
 10
-13.5
 20
-1.5
 30
0.0
 11
-6.5
 21
-3.5
 31
0.0
  0
LINE
  5
133
330
12B
100
AcDbEntity
  8
0
  6
Continuous
 62
     7
370
    35
100
AcDbLine
 10
-6.5
 20
-3.5
 30
0.0
 11
-6.5
 21
3.5
 31
0.0
  0
LINE
  5
134
330
12B
100
AcDbEntity
  8
0
  6
Continuous
 62
     7
370
    35
100
AcDbLine
 10
-6.5
 20
3.5
 30
0.0
 11
-13.5
 21
1.5
 31
0.0
  0
LINE
  5
135
330
12B
100
AcDbEntity
  8
0
  6
CENTERX2
 62
     7
370
    18
100
AcDbLine
 10
0.0
 20
4.5
 30
0.0
 11
0.0
 21
-4.5
 31
0.0
  0
ENDBLK
  5
12D
330
12B
100
AcDbEntity
  8
0
100
AcDbBlockEnd
  0
BLOCK
  5
137
330
136
100
AcDbEntity
  8
0
100
AcDbBlockBegin
  2
Block1_1
 70
     0
 10
0.0
 20
0.0
 30
0.0
  3
Block1_1
  1

  0
ARC
  5
139
330
136
100
AcDbEntity
  8
0
  6
Continuous
 62
   179
100
AcDbCircle
 10
7867.6649029635
 20
2430.1355419087
 30
0.0
 40
931.6078627493895
100
AcDbArc
 50
232.1189098069
 51
101.3462704492
  0
ARC
  5
13A
330
136
100
AcDbEntity
  8
0
  6
Continuous
 62
   179
100
AcDbCircle
 10
7943.5514462269
 20
2435.9613946537
 30
0.0
 40
1140.079096555486
100
AcDbArc
 50
297.434182935
 51
62.17203318890002
  0
ARC
  5
13B
330
136
100
AcDbEntity
  8
0
  6
Continuous
 62
   179
100
AcDbCircle
 10
20001.4103066854
 20
6936.2583481763
 30
0.0
 40
1270.831290716854
100
AcDbArc
 50
3.4391112699
 51
76.4197578922
  0
ARC
  5
13C
330
136
100
AcDbEntity
  8
0
  6
Continuous
 62
   179
100
AcDbCircle
 10
19239.4822949422
 20
3782.0667000728
 30
0.0
 40
4515.74411667143
100
AcDbArc
 50
76.4197578923
 51
91.6754644339
  0
ARC
  5
13D
330
136
100
AcDbEntity
  8
0
  6
Continuous
 62
   179
100
AcDbCircle
 10
18683.9539720184
 20
2160.1911622497
 30
0.0
 40
2139.476369555804
100
AcDbArc
 50
270.3210228954001
 51
307.7127911617
  0
ARC
  5
13E
330
136
100
AcDbEntity
  8
0
  6
Continuous
 62
   179
100
AcDbCircle
 10
18746.0422061702
 20
1962.8216117468
 30
0.0
 40
1946.678009873842
100
AcDbArc
 50
309.8210667380999
 51
331.7017265911999
  0
ARC
  5
13F
330
136
100
AcDbEntity
  8
0
  6
Continuous
 62
   179
100
AcDbCircle
 10
17863.1917469523
 20
2438.1532894658
 30
0.0
 40
2949.35698999881
100
AcDbArc
 50
331.7017265911999
 51
356.0927915539
  0
ARC
  5
140
330
136
100
AcDbEntity
  8
0
  6
Continuous
 62
   179
100
AcDbCircle
 10
16755.7856245826
 20
6709.226497343
 30
0.0
 40
4524.342739831098
100
AcDbArc
 50
353.5830630921
 51
3.8434115591
  0
ARC
  5
141
330
136
100
AcDbEntity
  8
0
  6
Continuous
 62
   179
100
AcDbCircle
 10
19039.3213693035
 20
6348.9928357667
 30
0.0
 40
506.1072723730909
100
AcDbArc
 50
52.45518083769999
 51
82.2716960779
  0
ARC
  5
142
330
136
100
AcDbEntity
  8
0
  6
Continuous
 62
   179
100
AcDbCircle
 10
19108.0528552878
 20
6495.6270812425
 30
0.0
 40
349.7025539282703
100
AcDbArc
 50
10.4012874263
 51
46.7340603611
  0
ARC
  5
143
330
136
100
AcDbEntity
  8
0
  6
Continuous
 62
   179
100
AcDbCircle
 10
17417.0070420698
 20
6262.2496105517
 30
0.0
 40
2056.490362340239
100
AcDbArc
 50
355.475249592
 51
8.290034904
  0
ARC
  5
144
330
136
100
AcDbEntity
  8
0
  6
Continuous
 62
   179
100
AcDbCircle
 10
16921.0810184775
 20
2478.8840573259
 30
0.0
 40
2122.330793892779
100
AcDbArc
 50
339.2065439429
 51
352.3366543813
  0
ARC
  5
145
330
136
100
AcDbEntity
  8
0
  6
Continuous
 62
   179
100
AcDbCircle
 10
18500.143747488
 20
1898.8589115903
 30
0.0
 40
440.5904503964751
100
AcDbArc
 50
293.838270217
 51
336.8232513296001
  0
ARC
  5
146
330
136
100
AcDbEntity
  8
0
  6
Continuous
 62
   179
100
AcDbCircle
 10
18201.1477532386
 20
2813.3138324813
 30
0.0
 40
1401.173285533761
100
AcDbArc
 50
267.1686990927
 51
289.9057704419
  0
ARC
  5
147
330
136
100
AcDbEntity
  8
0
  6
Continuous
 62
   179
100
AcDbCircle
 10
18751.2701169541
 20
4514.9970927066
 30
0.0
 40
2362.499275286643
100
AcDbArc
 50
81.3304997955
 51
90.0
  0
ARC
  5
148
330
136
100
AcDbEntity
  8
0
  6
Continuous
 62
   179
100
AcDbCircle
 10
6720.6044375296
 20
9296.0579653158
 30
0.0
 40
7520.148763137153
100
AcDbArc
 50
220.017667739
 51
227.0143029097
  0
ARC
  5
149
330
136
100
AcDbEntity
  8
0
  6
Continuous
 62
   179
100
AcDbCircle
 10
2021.3892535935
 20
2163.6755564521
 30
0.0
 40
795.0570373035339
100
AcDbArc
 50
316.8708555891
 51
354.9781479006
  0
ARC
  5
14A
330
136
100
AcDbEntity
  8
0
  6
Continuous
 62
   179
100
AcDbCircle
 10
2182.9124170468
 20
2011.9889486322
 30
0.0
 40
573.4753329004777
100
AcDbArc
 50
268.8486412909
 51
316.8986890901
  0
ARC
  5
14B
330
136
100
AcDbEntity
  8
0
  6
Continuous
 62
   179
100
AcDbCircle
 10
10525.696072633
 20
12531.6259047731
 30
0.0
 40
10618.65239809051
100
AcDbArc
 50
220.6325257886
 51
226.7030345034
  0
ARC
  5
14C
330
136
100
AcDbEntity
  8
0
  6
Continuous
 62
   179
100
AcDbCircle
 10
2962.700769446
 20
6223.5867799529
 30
0.0
 40
723.1072200381735
100
AcDbArc
 50
137.8203941731
 51
175.3475443105
  0
ARC
  5
14D
330
136
100
AcDbEntity
  8
0
  6
Continuous
 62
   179
100
AcDbCircle
 10
2808.3239355685
 20
6360.2864243508
 30
0.0
 40
516.9247077280753
100
AcDbArc
 50
89.4379852016
 51
137.5591461504
  0
ARC
  5
14E
330
136
100
AcDbEntity
  8
0
  6
Continuous
 62
   179
100
AcDbCircle
 10
24439.2811878643
 20
2435.9613946539
 30
0.0
 40
1140.079096554877
100
AcDbArc
 50
297.4341829348999
 51
62.17203318890002
  0
ARC
  5
14F
330
136
100
AcDbEntity
  8
0
  6
Continuous
 62
   179
100
AcDbCircle
 10
24363.3946446009
 20
2430.1355419089
 30
0.0
 40
931.6078627500976
100
AcDbArc
 50
232.118909807
 51
101.3462704493
  0
LINE
  5
150
330
136
100
AcDbEntity
  8
0
  6
Continuous
 62
   179
100
AcDbLine
 10
10088.0321784074
 20
0.0000125144
 30
0.0
 11
9858.2217949557
 21
8289.6552921115
 31
0.0
  0
LINE
  5
151
330
136
100
AcDbEntity
  8
0
  6
Continuous
 62
   179
100
AcDbLine
 10
9858.2217949557
 20
8289.6552921115
 30
0.0
 11
7491.0265293557
 21
8289.6552921115
 31
0.0
  0
LINE
  5
152
330
136
100
AcDbEntity
  8
0
  6
Continuous
 62
   179
100
AcDbLine
 10
7491.0265293557
 20
8289.6552921115
 30
0.0
 11
5122.8131677553
 21
0.0000125144
 31
0.0
  0
LINE
  5
153
330
136
100
AcDbEntity
  8
0
  6
Continuous
 62
   179
100
AcDbLine
 10
5122.8131677553
 20
0.0000125144
 30
0.0
 11
6903.4160581553
 21
0.0000125144
 31
0.0
  0
LINE
  5
154
330
136
100
AcDbEntity
  8
0
  6
Continuous
 62
   179
100
AcDbLine
 10
6903.4160581553
 20
0.0000125144
 30
0.0
 11
7295.6346285553
 21
1694.8297721115
 31
0.0
  0
LINE
  5
155
330
136
100
AcDbEntity
  8
0
  6
Continuous
 62
   179
100
AcDbLine
 10
7684.3822381561
 20
3343.5361521108
 30
0.0
 11
8520.8837909553
 21
7008.8707569115
 31
0.0
  0
LINE
  5
156
330
136
100
AcDbEntity
  8
0
  6
Continuous
 62
   179
100
AcDbLine
 10
8520.8837909553
 20
7008.8707569115
 30
0.0
 11
8475.7613005553
 21
3444.1940153115
 31
0.0
  0
LINE
  5
157
330
136
100
AcDbEntity
  8
0
  6
Continuous
 62
   179
100
AcDbLine
 10
8468.8193789565
 20
1424.0948297112
 30
0.0
 11
8468.8193789565
 21
0.0000125144
 31
0.0
  0
LINE
  5
158
330
136
100
AcDbEntity
  8
0
  6
Continuous
 62
   179
100
AcDbLine
 10
8468.8193789565
 20
0.0000125144
 30
0.0
 11
10088.0321784074
 21
0.0000125144
 31
0.0
  0
LINE
  5
159
330
136
100
AcDbEntity
  8
0
  6
Continuous
 62
   179
100
AcDbLine
 10
19107.4500497519
 20
8295.8802112275
 30
0.0
 11
16935.7898769541
 21
8295.8802112275
 31
0.0
  0
LINE
  5
15A
330
136
100
AcDbEntity
  8
0
  6
Continuous
 62
   179
100
AcDbLine
 10
16935.7898769541
 20
8295.8802112275
 30
0.0
 11
15991.7401521541
 21
0.0000288275
 31
0.0
  0
LINE
  5
15B
330
136
100
AcDbEntity
  8
0
  6
Continuous
 62
   179
100
AcDbLine
 10
15991.7401521541
 20
0.0000288275
 30
0.0
 11
17855.6331985541
 21
0.0000288275
 31
0.0
  0
LINE
  5
15C
330
136
100
AcDbEntity
  8
0
  6
Continuous
 62
   179
100
AcDbLine
 10
17855.6331985541
 20
0.0000288275
 30
0.0
 11
18695.9411953541
 21
20.7483744275
 31
0.0
  0
LINE
  5
15D
330
136
100
AcDbEntity
  8
0
  6
Continuous
 62
   179
100
AcDbLine
 10
20805.6935873772
 20
2237.1817154785
 30
0.0
 11
21251.7830177772
 21
6203.5737826763
 31
0.0
  0
LINE
  5
15E
330
136
100
AcDbEntity
  8
0
  6
Continuous
 62
   179
100
AcDbLine
 10
19024.4566673541
 20
2195.8666048275
 30
0.0
 11
19467.0880401544
 21
6100.0136352237
 31
0.0
  0
LINE
  5
15F
330
136
100
AcDbEntity
  8
0
  6
Continuous
 62
   179
100
AcDbLine
 10
17907.5040625541
 20
1417.8036448275
 30
0.0
 11
18131.936218492
 21
1413.8509571068
 31
0.0
  0
LINE
  5
160
330
136
100
AcDbEntity
  8
0
  6
Continuous
 62
   179
100
AcDbLine
 10
18529.9544305541
 20
6877.4963679933
 30
0.0
 11
17907.5040625541
 21
1417.8036448275
 31
0.0
  0
LINE
  5
161
330
136
100
AcDbEntity
  8
0
  6
Continuous
 62
   179
100
AcDbLine
 10
18751.2701169541
 20
6877.4963679933
 30
0.0
 11
18529.9544305541
 21
6877.4963679933
 31
0.0
  0
LINE
  5
162
330
136
100
AcDbEntity
  8
0
  6
Continuous
 62
   179
100
AcDbLine
 10
11134.6446741053
 20
0.0
 30
0.0
 11
14807.1018453053
 21
0.0
 31
0.0
  0
LINE
  5
163
330
136
100
AcDbEntity
  8
0
  6
Continuous
 62
   179
100
AcDbLine
 10
14807.1018453053
 20
0.0
 30
0.0
 11
14990.3788981053
 21
1625.287072
 31
0.0
  0
LINE
  5
164
330
136
100
AcDbEntity
  8
0
  6
Continuous
 62
   179
100
AcDbLine
 10
14990.3788981053
 20
1625.287072
 30
0.0
 11
13071.1569301053
 21
1625.287072
 31
0.0
  0
LINE
  5
165
330
136
100
AcDbEntity
  8
0
  6
Continuous
 62
   179
100
AcDbLine
 10
13071.1569301053
 20
1625.287072
 30
0.0
 11
13828.4715445053
 21
8295.8801824
 31
0.0
  0
LINE
  5
166
330
136
100
AcDbEntity
  8
0
  6
Continuous
 62
   179
100
AcDbLine
 10
13828.4715445053
 20
8295.8801824
 30
0.0
 11
12075.2363413053
 21
8295.8801824
 31
0.0
  0
LINE
  5
167
330
136
100
AcDbEntity
  8
0
  6
Continuous
 62
   179
100
AcDbLine
 10
12075.2363413053
 20
8295.8801824
 30
0.0
 11
11134.6446741053
 21
0.0
 31
0.0
  0
LINE
  5
168
330
136
100
AcDbEntity
  8
0
  6
Continuous
 62
   179
100
AcDbLine
 10
4907.4740560005
 20
6857.0185622947
 30
0.0
 11
4882.7391856278
 21
7041.1497513646
 31
0.0
  0
LINE
  5
169
330
136
100
AcDbEntity
  8
0
  6
Continuous
 62
   179
100
AcDbLine
 10
4882.7391856278
 20
7041.1497513646
 30
0.0
 11
4840.84097804
 21
7222.1279289072
 31
0.0
  0
LINE
  5
16A
330
136
100
AcDbEntity
  8
0
  6
Continuous
 62
   179
100
AcDbLine
 10
4840.84097804
 20
7222.1279289072
 30
0.0
 11
4779.230404759
 21
7397.3516386623
 31
0.0
  0
LINE
  5
16B
330
136
100
AcDbEntity
  8
0
  6
Continuous
 62
   179
100
AcDbLine
 10
4779.230404759
 20
7397.3516386623
 30
0.0
 11
4695.8753846469
 21
7563.306056288
 31
0.0
  0
LINE
  5
16C
330
136
100
AcDbEntity
  8
0
  6
Continuous
 62
   179
100
AcDbLine
 10
4695.8753846469
 20
7563.306056288
 30
0.0
 11
4590.0094760133
 21
7715.8622667097
 31
0.0
  0
LINE
  5
16D
330
136
100
AcDbEntity
  8
0
  6
Continuous
 62
   179
100
AcDbLine
 10
4590.0094760133
 20
7715.8622667097
 30
0.0
 11
4462.7758841487
 21
7851.1049960358
 31
0.0
  0
LINE
  5
16E
330
136
100
AcDbEntity
  8
0
  6
Continuous
 62
   179
100
AcDbLine
 10
4462.7758841487
 20
7851.1049960358
 30
0.0
 11
4317.19779369
 21
7966.3918164371
 31
0.0
  0
LINE
  5
16F
330
136
100
AcDbEntity
  8
0
  6
Continuous
 62
   179
100
AcDbLine
 10
4317.19779369
 20
7966.3918164371
 30
0.0
 11
4157.3549470669
 21
8060.9636993174
 31
0.0
  0
LINE
  5
170
330
136
100
AcDbEntity
  8
0
  6
Continuous
 62
   179
100
AcDbLine
 10
4157.3549470669
 20
8060.9636993174
 30
0.0
 11
3942.3832434805
 21
8152.0001345594
 31
0.0
  0
LINE
  5
171
330
136
100
AcDbEntity
  8
0
  6
Continuous
 62
   179
100
AcDbLine
 10
3942.3832434805
 20
8152.0001345594
 30
0.0
 11
3717.7379879586
 21
8215.7306159908
 31
0.0
  0
LINE
  5
172
330
136
100
AcDbEntity
  8
0
  6
Continuous
 62
   179
100
AcDbLine
 10
3717.7379879586
 20
8215.7306159908
 30
0.0
 11
3487.8010416052
 21
8256.6415379559
 31
0.0
  0
LINE
  5
173
330
136
100
AcDbEntity
  8
0
  6
Continuous
 62
   179
100
AcDbLine
 10
3487.8010416052
 20
8256.6415379559
 30
0.0
 11
3255.2826646592
 21
8278.7971759128
 31
0.0
  0
LINE
  5
174
330
136
100
AcDbEntity
  8
0
  6
Continuous
 62
   179
100
AcDbLine
 10
3255.2826646592
 20
8278.7971759128
 30
0.0
 11
3021.7939564
 21
8285.5640922951
 31
0.0
  0
LINE
  5
175
330
136
100
AcDbEntity
  8
0
  6
Continuous
 62
   179
100
AcDbLine
 10
3021.7939564
 20
8285.5640922951
 30
0.0
 11
2764.7286656624
 21
8276.8167344558
 31
0.0
  0
LINE
  5
176
330
136
100
AcDbEntity
  8
0
  6
Continuous
 62
   179
100
AcDbLine
 10
2764.7286656624
 20
8276.8167344558
 30
0.0
 11
2509.0566231212
 21
8248.8448730413
 31
0.0
  0
LINE
  5
177
330
136
100
AcDbEntity
  8
0
  6
Continuous
 62
   179
100
AcDbLine
 10
2509.0566231212
 20
8248.8448730413
 30
0.0
 11
2256.7624741697
 21
8198.9693632548
 31
0.0
  0
LINE
  5
178
330
136
100
AcDbEntity
  8
0
  6
Continuous
 62
   179
100
AcDbLine
 10
2256.7624741697
 20
8198.9693632548
 30
0.0
 11
2010.5862549102
 21
8124.6401609584
 31
0.0
  0
LINE
  5
179
330
136
100
AcDbEntity
  8
0
  6
Continuous
 62
   179
100
AcDbLine
 10
2010.5862549102
 20
8124.6401609584
 30
0.0
 11
1823.7042907144
 21
8047.7718170144
 31
0.0
  0
LINE
  5
17A
330
136
100
AcDbEntity
  8
0
  6
Continuous
 62
   179
100
AcDbLine
 10
1823.7042907144
 20
8047.7718170144
 30
0.0
 11
1644.6605427625
 21
7954.1022052786
 31
0.0
  0
LINE
  5
17B
330
136
100
AcDbEntity
  8
0
  6
Continuous
 62
   179
100
AcDbLine
 10
1644.6605427625
 20
7954.1022052786
 30
0.0
 11
1475.390327491
 21
7843.7545704421
 31
0.0
  0
LINE
  5
17C
330
136
100
AcDbEntity
  8
0
  6
Continuous
 62
   179
100
AcDbLine
 10
1475.390327491
 20
7843.7545704421
 30
0.0
 11
1317.6231711996
 21
7717.507163895
 31
0.0
  0
LINE
  5
17D
330
136
100
AcDbEntity
  8
0
  6
Continuous
 62
   179
100
AcDbLine
 10
1317.6231711996
 20
7717.507163895
 30
0.0
 11
1139.538084005
 21
7540.9583629978
 31
0.0
  0
LINE
  5
17E
330
136
100
AcDbEntity
  8
0
  6
Continuous
 62
   179
100
AcDbLine
 10
1139.538084005
 20
7540.9583629978
 30
0.0
 11
983.4661868123
 21
7344.6865403276
 31
0.0
  0
LINE
  5
17F
330
136
100
AcDbEntity
  8
0
  6
Continuous
 62
   179
100
AcDbLine
 10
983.4661868123
 20
7344.6865403276
 30
0.0
 11
851.5325681984
 21
7131.4315088069
 31
0.0
  0
LINE
  5
180
330
136
100
AcDbEntity
  8
0
  6
Continuous
 62
   179
100
AcDbLine
 10
851.5325681984
 20
7131.4315088069
 30
0.0
 11
744.4774564036
 21
6904.647070365
 31
0.0
  0
LINE
  5
181
330
136
100
AcDbEntity
  8
0
  6
Continuous
 62
   179
100
AcDbLine
 10
744.4774564036
 20
6904.647070365
 30
0.0
 11
658.3392621499
 21
6656.4327422403
 31
0.0
  0
LINE
  5
182
330
136
100
AcDbEntity
  8
0
  6
Continuous
 62
   179
100
AcDbLine
 10
658.3392621499
 20
6656.4327422403
 30
0.0
 11
596.9943576213
 21
6400.9335325463
 31
0.0
  0
LINE
  5
183
330
136
100
AcDbEntity
  8
0
  6
Continuous
 62
   179
100
AcDbLine
 10
596.9943576213
 20
6400.9335325463
 30
0.0
 11
557.9730775995
 21
6141.0651554946
 31
0.0
  0
LINE
  5
184
330
136
100
AcDbEntity
  8
0
  6
Continuous
 62
   179
100
AcDbLine
 10
557.9730775995
 20
6141.0651554946
 30
0.0
 11
538.0293793386
 21
5893.0807139359
 31
0.0
  0
LINE
  5
185
330
136
100
AcDbEntity
  8
0
  6
Continuous
 62
   179
100
AcDbLine
 10
538.0293793386
 20
5893.0807139359
 30
0.0
 11
537.9155556826
 21
5644.3161034396
 31
0.0
  0
LINE
  5
186
330
136
100
AcDbEntity
  8
0
  6
Continuous
 62
   179
100
AcDbLine
 10
537.9155556826
 20
5644.3161034396
 30
0.0
 11
561.0465619986
 21
5396.6565041751
 31
0.0
  0
LINE
  5
187
330
136
100
AcDbEntity
  8
0
  6
Continuous
 62
   179
100
AcDbLine
 10
561.0465619986
 20
5396.6565041751
 30
0.0
 11
610.8365836731
 21
5152.9862283491
 31
0.0
  0
LINE
  5
188
330
136
100
AcDbEntity
  8
0
  6
Continuous
 62
   179
100
AcDbLine
 10
610.8365836731
 20
5152.9862283491
 30
0.0
 11
670.4957765389
 21
4966.8752015955
 31
0.0
  0
LINE
  5
189
330
136
100
AcDbEntity
  8
0
  6
Continuous
 62
   179
100
AcDbLine
 10
670.4957765389
 20
4966.8752015955
 30
0.0
 11
749.0385092576
 21
4787.922755338
 31
0.0
  0
LINE
  5
18A
330
136
100
AcDbEntity
  8
0
  6
Continuous
 62
   179
100
AcDbLine
 10
749.0385092576
 20
4787.922755338
 30
0.0
 11
846.3298658912
 21
4618.4358151253
 31
0.0
  0
LINE
  5
18B
330
136
100
AcDbEntity
  8
0
  6
Continuous
 62
   179
100
AcDbLine
 10
846.3298658912
 20
4618.4358151253
 30
0.0
 11
961.3271095996
 21
4460.4233554942
 31
0.0
  0
LINE
  5
18C
330
136
100
AcDbEntity
  8
0
  6
Continuous
 62
   179
100
AcDbLine
 10
1593.2484263997
 20
3794.8892026942
 30
0.0
 11
2342.8146692
 21
3099.1034974946
 31
0.0
  0
LINE
  5
18D
330
136
100
AcDbEntity
  8
0
  6
Continuous
 62
   179
100
AcDbLine
 10
2342.8146692
 20
3099.1034974946
 30
0.0
 11
2457.4150864402
 21
2985.4804965343
 31
0.0
  0
LINE
  5
18E
330
136
100
AcDbEntity
  8
0
  6
Continuous
 62
   179
100
AcDbLine
 10
2457.4150864402
 20
2985.4804965343
 30
0.0
 11
2562.4777930784
 21
2863.0062246075
 31
0.0
  0
LINE
  5
18F
330
136
100
AcDbEntity
  8
0
  6
Continuous
 62
   179
100
AcDbLine
 10
2562.4777930784
 20
2863.0062246075
 30
0.0
 11
2654.9628244148
 21
2730.8077708033
 31
0.0
  0
LINE
  5
190
330
136
100
AcDbEntity
  8
0
  6
Continuous
 62
   179
100
AcDbLine
 10
2654.9628244148
 20
2730.8077708033
 30
0.0
 11
2730.9070108725
 21
2588.5028322591
 31
0.0
  0
LINE
  5
191
330
136
100
AcDbEntity
  8
0
  6
Continuous
 62
   179
100
AcDbLine
 10
2730.9070108725
 20
2588.5028322591
 30
0.0
 11
2787.6392767372
 21
2429.3959416825
 31
0.0
  0
LINE
  5
192
330
136
100
AcDbEntity
  8
0
  6
Continuous
 62
   179
100
AcDbLine
 10
2787.6392767372
 20
2429.3959416825
 30
0.0
 11
2816.0412804487
 21
2262.9265767885
 31
0.0
  0
LINE
  5
193
330
136
100
AcDbEntity
  8
0
  6
Continuous
 62
   179
100
AcDbLine
 10
2816.0412804487
 20
2262.9265767885
 30
0.0
 11
2813.3943732
 21
2094.0797010946
 31
0.0
  0
LINE
  5
194
330
136
100
AcDbEntity
  8
0
  6
Continuous
 62
   179
100
AcDbLine
 10
2171.3892056002
 20
1438.629399097
 30
0.0
 11
2081.3271648151
 21
1444.5220285234
 31
0.0
  0
LINE
  5
195
330
136
100
AcDbEntity
  8
0
  6
Continuous
 62
   179
100
AcDbLine
 10
2081.3271648151
 20
1444.5220285234
 30
0.0
 11
1993.3677378413
 21
1464.5260106363
 31
0.0
  0
LINE
  5
196
330
136
100
AcDbEntity
  8
0
  6
Continuous
 62
   179
100
AcDbLine
 10
1993.3677378413
 20
1464.5260106363
 30
0.0
 11
1911.3435803354
 21
1501.9115152047
 31
0.0
  0
LINE
  5
197
330
136
100
AcDbEntity
  8
0
  6
Continuous
 62
   179
100
AcDbLine
 10
1911.3435803354
 20
1501.9115152047
 30
0.0
 11
1840.5450992733
 21
1557.6494251181
 31
0.0
  0
LINE
  5
198
330
136
100
AcDbEntity
  8
0
  6
Continuous
 62
   179
100
AcDbLine
 10
1840.5450992733
 20
1557.6494251181
 30
0.0
 11
1785.0445168711
 21
1628.6751044787
 31
0.0
  0
LINE
  5
199
330
136
100
AcDbEntity
  8
0
  6
Continuous
 62
   179
100
AcDbLine
 10
1785.0445168711
 20
1628.6751044787
 30
0.0
 11
1745.2817682865
 21
1709.6405469696
 31
0.0
  0
LINE
  5
19A
330
136
100
AcDbEntity
  8
0
  6
Continuous
 62
   179
100
AcDbLine
 10
1745.2817682865
 20
1709.6405469696
 30
0.0
 11
1710.0353127013
 21
1840.2386565146
 31
0.0
  0
LINE
  5
19B
330
136
100
AcDbEntity
  8
0
  6
Continuous
 62
   179
100
AcDbLine
 10
1710.0353127013
 20
1840.2386565146
 30
0.0
 11
1696.0216688059
 21
1974.8977537186
 31
0.0
  0
LINE
  5
19C
330
136
100
AcDbEntity
  8
0
  6
Continuous
 62
   179
100
AcDbLine
 10
1696.0216688059
 20
1974.8977537186
 30
0.0
 11
1696.5924840549
 21
2110.3283975811
 31
0.0
  0
LINE
  5
19D
330
136
100
AcDbEntity
  8
0
  6
Continuous
 62
   179
100
AcDbLine
 10
1696.5924840549
 20
2110.3283975811
 30
0.0
 11
1707.5320688
 21
2245.3374630946
 31
0.0
  0
LINE
  5
19E
330
136
100
AcDbEntity
  8
0
  6
Continuous
 62
   179
100
AcDbLine
 10
1707.5320688
 20
2245.3374630946
 30
0.0
 11
1781.480308
 21
2897.4264814946
 31
0.0
  0
LINE
  5
19F
330
136
100
AcDbEntity
  8
0
  6
Continuous
 62
   179
100
AcDbLine
 10
1781.480308
 20
2897.4264814946
 30
0.0
 11
94.1159408
 21
2897.4264814946
 31
0.0
  0
LINE
  5
1A0
330
136
100
AcDbEntity
  8
0
  6
Continuous
 62
   179
100
AcDbLine
 10
94.1159408
 20
2897.4264814946
 30
0.0
 11
26.8902688
 21
2295.7567170946
 31
0.0
  0
LINE
  5
1A1
330
136
100
AcDbEntity
  8
0
  6
Continuous
 62
   179
100
AcDbLine
 10
26.8902688
 20
2295.7567170946
 30
0.0
 11
5.8201226117
 21
2068.3689705604
 31
0.0
  0
LINE
  5
1A2
330
136
100
AcDbEntity
  8
0
  6
Continuous
 62
   179
100
AcDbLine
 10
5.8201226117
 20
2068.3689705604
 30
0.0
 11
0.0
 21
1889.0414014946
 31
0.0
  0
LINE
  5
1A3
330
136
100
AcDbEntity
  8
0
  6
Continuous
 62
   179
100
AcDbLine
 10
0.0
 20
1889.0414014946
 30
0.0
 11
0.0
 21
1788.2028934946
 31
0.0
  0
LINE
  5
1A4
330
136
100
AcDbEntity
  8
0
  6
Continuous
 62
   179
100
AcDbLine
 10
0.0
 20
1788.2028934946
 30
0.0
 11
8.4741181851
 21
1597.5992610857
 31
0.0
  0
LINE
  5
1A5
330
136
100
AcDbEntity
  8
0
  6
Continuous
 62
   179
100
AcDbLine
 10
8.4741181851
 20
1597.5992610857
 30
0.0
 11
29.9475321698
 21
1408.0255515191
 31
0.0
  0
LINE
  5
1A6
330
136
100
AcDbEntity
  8
0
  6
Continuous
 62
   179
100
AcDbLine
 10
29.9475321698
 20
1408.0255515191
 30
0.0
 11
66.5196177454
 21
1220.7936775914
 31
0.0
  0
LINE
  5
1A7
330
136
100
AcDbEntity
  8
0
  6
Continuous
 62
   179
100
AcDbLine
 10
66.5196177454
 20
1220.7936775914
 30
0.0
 11
120.5660601196
 21
1037.8592313249
 31
0.0
  0
LINE
  5
1A8
330
136
100
AcDbEntity
  8
0
  6
Continuous
 62
   179
100
AcDbLine
 10
120.5660601196
 20
1037.8592313249
 30
0.0
 11
194.3311383855
 21
861.9730900702
 31
0.0
  0
LINE
  5
1A9
330
136
100
AcDbEntity
  8
0
  6
Continuous
 62
   179
100
AcDbLine
 10
194.3311383855
 20
861.9730900702
 30
0.0
 11
287.5295606573
 21
699.5021482411
 31
0.0
  0
LINE
  5
1AA
330
136
100
AcDbEntity
  8
0
  6
Continuous
 62
   179
100
AcDbLine
 10
287.5295606573
 20
699.5021482411
 30
0.0
 11
401.5974373649
 21
550.9580491856
 31
0.0
  0
LINE
  5
1AB
330
136
100
AcDbEntity
  8
0
  6
Continuous
 62
   179
100
AcDbLine
 10
401.5974373649
 20
550.9580491856
 30
0.0
 11
535.1901037299
 21
419.6995230367
 31
0.0
  0
LINE
  5
1AC
330
136
100
AcDbEntity
  8
0
  6
Continuous
 62
   179
100
AcDbLine
 10
535.1901037299
 20
419.6995230367
 30
0.0
 11
685.4525519751
 21
307.8901613371
 31
0.0
  0
LINE
  5
1AD
330
136
100
AcDbEntity
  8
0
  6
Continuous
 62
   179
100
AcDbLine
 10
685.4525519751
 20
307.8901613371
 30
0.0
 11
880.9909831936
 21
200.7980430706
 31
0.0
  0
LINE
  5
1AE
330
136
100
AcDbEntity
  8
0
  6
Continuous
 62
   179
100
AcDbLine
 10
880.9909831936
 20
200.7980430706
 30
0.0
 11
1088.9648544967
 21
120.3523112471
 31
0.0
  0
LINE
  5
1AF
330
136
100
AcDbEntity
  8
0
  6
Continuous
 62
   179
100
AcDbLine
 10
1088.9648544967
 20
120.3523112471
 30
0.0
 11
1304.5983771836
 21
63.4027511638
 31
0.0
  0
LINE
  5
1B0
330
136
100
AcDbEntity
  8
0
  6
Continuous
 62
   179
100
AcDbLine
 10
1304.5983771836
 20
63.4027511638
 30
0.0
 11
1524.5667113278
 21
26.4353113751
 31
0.0
  0
LINE
  5
1B1
330
136
100
AcDbEntity
  8
0
  6
Continuous
 62
   179
100
AcDbLine
 10
1524.5667113278
 20
26.4353113751
 30
0.0
 11
1746.7181907984
 21
6.2021311101
 31
0.0
  0
LINE
  5
1B2
330
136
100
AcDbEntity
  8
0
  6
Continuous
 62
   179
100
AcDbLine
 10
1746.7181907984
 20
6.2021311101
 30
0.0
 11
1969.7121896
 21
0.0000182946
 31
0.0
  0
LINE
  5
1B3
330
136
100
AcDbEntity
  8
0
  6
Continuous
 62
   179
100
AcDbLine
 10
1969.7121896
 20
0.0000182946
 30
0.0
 11
2235.4163107967
 21
9.0474941519
 31
0.0
  0
LINE
  5
1B4
330
136
100
AcDbEntity
  8
0
  6
Continuous
 62
   179
100
AcDbLine
 10
2235.4163107967
 20
9.0474941519
 30
0.0
 11
2499.6874650753
 21
37.9033605802
 31
0.0
  0
LINE
  5
1B5
330
136
100
AcDbEntity
  8
0
  6
Continuous
 62
   179
100
AcDbLine
 10
2499.6874650753
 20
37.9033605802
 30
0.0
 11
2760.5117042792
 21
89.204615755
 31
0.0
  0
LINE
  5
1B6
330
136
100
AcDbEntity
  8
0
  6
Continuous
 62
   179
100
AcDbLine
 10
2760.5117042792
 20
89.204615755
 30
0.0
 11
3015.1415277313
 21
165.4438899665
 31
0.0
  0
LINE
  5
1B7
330
136
100
AcDbEntity
  8
0
  6
Continuous
 62
   179
100
AcDbLine
 10
3015.1415277313
 20
165.4438899665
 30
0.0
 11
3208.6236023082
 21
244.1201341123
 31
0.0
  0
LINE
  5
1B8
330
136
100
AcDbEntity
  8
0
  6
Continuous
 62
   179
100
AcDbLine
 10
3208.6236023082
 20
244.1201341123
 30
0.0
 11
3394.246790929
 21
339.8610540042
 31
0.0
  0
LINE
  5
1B9
330
136
100
AcDbEntity
  8
0
  6
Continuous
 62
   179
100
AcDbLine
 10
3394.246790929
 20
339.8610540042
 30
0.0
 11
3570.08287903
 21
452.5651803685
 31
0.0
  0
LINE
  5
1BA
330
136
100
AcDbEntity
  8
0
  6
Continuous
 62
   179
100
AcDbLine
 10
3570.08287903
 20
452.5651803685
 30
0.0
 11
3734.3860796
 21
581.5020810946
 31
0.0
  0
LINE
  5
1BB
330
136
100
AcDbEntity
  8
0
  6
Continuous
 62
   179
100
AcDbLine
 10
3734.3860796
 20
581.5020810946
 30
0.0
 11
3918.9619613187
 21
762.6068684982
 31
0.0
  0
LINE
  5
1BC
330
136
100
AcDbEntity
  8
0
  6
Continuous
 62
   179
100
AcDbLine
 10
3918.9619613187
 20
762.6068684982
 30
0.0
 11
4080.6115034165
 21
964.4332031658
 31
0.0
  0
LINE
  5
1BD
330
136
100
AcDbEntity
  8
0
  6
Continuous
 62
   179
100
AcDbLine
 10
4080.6115034165
 20
964.4332031658
 30
0.0
 11
4217.129324297
 21
1184.0491590435
 31
0.0
  0
LINE
  5
1BE
330
136
100
AcDbEntity
  8
0
  6
Continuous
 62
   179
100
AcDbLine
 10
4217.129324297
 20
1184.0491590435
 30
0.0
 11
4327.807798901
 21
1417.7744861233
 31
0.0
  0
LINE
  5
1BF
330
136
100
AcDbEntity
  8
0
  6
Continuous
 62
   179
100
AcDbLine
 10
4327.807798901
 20
1417.7744861233
 30
0.0
 11
4416.8403522579
 21
1673.6616360853
 31
0.0
  0
LINE
  5
1C0
330
136
100
AcDbEntity
  8
0
  6
Continuous
 62
   179
100
AcDbLine
 10
4416.8403522579
 20
1673.6616360853
 30
0.0
 11
4480.332478423
 21
1937.0776350384
 31
0.0
  0
LINE
  5
1C1
330
136
100
AcDbEntity
  8
0
  6
Continuous
 62
   179
100
AcDbLine
 10
4480.332478423
 20
1937.0776350384
 30
0.0
 11
4520.926442
 21
2205.0020598946
 31
0.0
  0
LINE
  5
1C2
330
136
100
AcDbEntity
  8
0
  6
Continuous
 62
   179
100
AcDbLine
 10
4520.926442
 20
2205.0020598946
 30
0.0
 11
4539.8604791128
 21
2434.751251137
 31
0.0
  0
LINE
  5
1C3
330
136
100
AcDbEntity
  8
0
  6
Continuous
 62
   179
100
AcDbLine
 10
4539.8604791128
 20
2434.751251137
 30
0.0
 11
4542.0136171636
 21
2665.2555763504
 31
0.0
  0
LINE
  5
1C4
330
136
100
AcDbEntity
  8
0
  6
Continuous
 62
   179
100
AcDbLine
 10
4542.0136171636
 20
2665.2555763504
 30
0.0
 11
4524.9874932226
 21
2895.1234497405
 31
0.0
  0
LINE
  5
1C5
330
136
100
AcDbEntity
  8
0
  6
Continuous
 62
   179
100
AcDbLine
 10
4524.9874932226
 20
2895.1234497405
 30
0.0
 11
4496.6310776622
 21
3074.0098021703
 31
0.0
  0
LINE
  5
1C6
330
136
100
AcDbEntity
  8
0
  6
Continuous
 62
   179
100
AcDbLine
 10
4496.6310776622
 20
3074.0098021703
 30
0.0
 11
4454.0379981851
 21
3250.0430485054
 31
0.0
  0
LINE
  5
1C7
330
136
100
AcDbEntity
  8
0
  6
Continuous
 62
   179
100
AcDbLine
 10
4454.0379981851
 20
3250.0430485054
 30
0.0
 11
4396.5589488
 21
3421.7867230946
 31
0.0
  0
LINE
  5
1C8
330
136
100
AcDbEntity
  8
0
  6
Continuous
 62
   179
100
AcDbLine
 10
4396.5589488
 20
3421.7867230946
 30
0.0
 11
4335.0775798529
 21
3551.3591107413
 31
0.0
  0
LINE
  5
1C9
330
136
100
AcDbEntity
  8
0
  6
Continuous
 62
   179
100
AcDbLine
 10
4335.0775798529
 20
3551.3591107413
 30
0.0
 11
4262.2002057756
 21
3674.9188547719
 31
0.0
  0
LINE
  5
1CA
330
136
100
AcDbEntity
  8
0
  6
Continuous
 62
   179
100
AcDbLine
 10
4262.2002057756
 20
3674.9188547719
 30
0.0
 11
4181.3183894369
 21
3793.4113089372
 31
0.0
  0
LINE
  5
1CB
330
136
100
AcDbEntity
  8
0
  6
Continuous
 62
   179
100
AcDbLine
 10
4181.3183894369
 20
3793.4113089372
 30
0.0
 11
4078.5227471571
 21
3927.6643628842
 31
0.0
  0
LINE
  5
1CC
330
136
100
AcDbEntity
  8
0
  6
Continuous
 62
   179
100
AcDbLine
 10
4078.5227471571
 20
3927.6643628842
 30
0.0
 11
3969.6759316
 21
4057.0693234946
 31
0.0
  0
LINE
  5
1CD
330
136
100
AcDbEntity
  8
0
  6
Continuous
 62
   179
100
AcDbLine
 10
3969.6759316
 20
4057.0693234946
 30
0.0
 11
3243.638674
 21
4803.2742826946
 31
0.0
  0
LINE
  5
1CE
330
136
100
AcDbEntity
  8
0
  6
Continuous
 62
   179
100
AcDbLine
 10
2467.1821623981
 20
5616.7049138995
 30
0.0
 11
2391.5759134121
 21
5727.7039441288
 31
0.0
  0
LINE
  5
1CF
330
136
100
AcDbEntity
  8
0
  6
Continuous
 62
   179
100
AcDbLine
 10
2391.5759134121
 20
5727.7039441288
 30
0.0
 11
2326.9023872324
 21
5845.3828817498
 31
0.0
  0
LINE
  5
1D0
330
136
100
AcDbEntity
  8
0
  6
Continuous
 62
   179
100
AcDbLine
 10
2326.9023872324
 20
5845.3828817498
 30
0.0
 11
2276.7855321171
 21
5969.9206549293
 31
0.0
  0
LINE
  5
1D1
330
136
100
AcDbEntity
  8
0
  6
Continuous
 62
   179
100
AcDbLine
 10
2276.7855321171
 20
5969.9206549293
 30
0.0
 11
2250.5432565423
 21
6072.0904771882
 31
0.0
  0
LINE
  5
1D2
330
136
100
AcDbEntity
  8
0
  6
Continuous
 62
   179
100
AcDbLine
 10
2250.5432565423
 20
6072.0904771882
 30
0.0
 11
2238.3532498759
 21
6176.8496579539
 31
0.0
  0
LINE
  5
1D3
330
136
100
AcDbEntity
  8
0
  6
Continuous
 62
   179
100
AcDbLine
 10
2238.3532498759
 20
6176.8496579539
 30
0.0
 11
2241.9761612
 21
6282.2390666946
 31
0.0
  0
LINE
  5
1D4
330
136
100
AcDbEntity
  8
0
  6
Continuous
 62
   179
100
AcDbLine
 10
2813.394373201
 20
6877.1862638961
 30
0.0
 11
2899.1450330725
 21
6871.9159884789
 31
0.0
  0
LINE
  5
1D5
330
136
100
AcDbEntity
  8
0
  6
Continuous
 62
   179
100
AcDbLine
 10
2899.1450330725
 20
6871.9159884789
 30
0.0
 11
2983.1458702521
 21
6854.0846279821
 31
0.0
  0
LINE
  5
1D6
330
136
100
AcDbEntity
  8
0
  6
Continuous
 62
   179
100
AcDbLine
 10
2983.1458702521
 20
6854.0846279821
 30
0.0
 11
3062.202014936
 21
6820.6931120196
 31
0.0
  0
LINE
  5
1D7
330
136
100
AcDbEntity
  8
0
  6
Continuous
 62
   179
100
AcDbLine
 10
3062.202014936
 20
6820.6931120196
 30
0.0
 11
3131.6623634801
 21
6770.3629356214
 31
0.0
  0
LINE
  5
1D8
330
136
100
AcDbEntity
  8
0
  6
Continuous
 62
   179
100
AcDbLine
 10
3131.6623634801
 20
6770.3629356214
 30
0.0
 11
3187.37124796
 21
6705.1184696235
 31
0.0
  0
LINE
  5
1D9
330
136
100
AcDbEntity
  8
0
  6
Continuous
 62
   179
100
AcDbLine
 10
3187.37124796
 20
6705.1184696235
 30
0.0
 11
3228.1274776793
 21
6629.5646068072
 31
0.0
  0
LINE
  5
1DA
330
136
100
AcDbEntity
  8
0
  6
Continuous
 62
   179
100
AcDbLine
 10
3228.1274776793
 20
6629.5646068072
 30
0.0
 11
3265.0334180049
 21
6506.2441361359
 31
0.0
  0
LINE
  5
1DB
330
136
100
AcDbEntity
  8
0
  6
Continuous
 62
   179
100
AcDbLine
 10
3265.0334180049
 20
6506.2441361359
 30
0.0
 11
3280.3602104272
 21
6378.3104742822
 31
0.0
  0
LINE
  5
1DC
330
136
100
AcDbEntity
  8
0
  6
Continuous
 62
   179
100
AcDbLine
 10
3280.3602104272
 20
6378.3104742822
 30
0.0
 11
3280.7520241623
 21
6249.4122034737
 31
0.0
  0
LINE
  5
1DD
330
136
100
AcDbEntity
  8
0
  6
Continuous
 62
   179
100
AcDbLine
 10
3280.7520241623
 20
6249.4122034737
 30
0.0
 11
3270.5289428
 21
6120.8974538946
 31
0.0
  0
LINE
  5
1DE
330
136
100
AcDbEntity
  8
0
  6
Continuous
 62
   179
100
AcDbLine
 10
3270.5289428
 20
6120.8974538946
 30
0.0
 11
3206.6645544
 21
5566.2856598946
 31
0.0
  0
LINE
  5
1DF
330
136
100
AcDbEntity
  8
0
  6
Continuous
 62
   179
100
AcDbLine
 10
3206.6645544
 20
5566.2856598946
 30
0.0
 11
4820.0806824005
 21
5566.2856598945
 31
0.0
  0
LINE
  5
1E0
330
136
100
AcDbEntity
  8
0
  6
Continuous
 62
   179
100
AcDbLine
 10
4820.0806824005
 20
5566.2856598945
 30
0.0
 11
4894.0289216005
 21
6231.8198126945
 31
0.0
  0
LINE
  5
1E1
330
136
100
AcDbEntity
  8
0
  6
Continuous
 62
   179
100
AcDbLine
 10
4894.0289216005
 20
6231.8198126945
 30
0.0
 11
4907.4740560005
 21
6366.2711566946
 31
0.0
  0
LINE
  5
1E2
330
136
100
AcDbEntity
  8
0
  6
Continuous
 62
   179
100
AcDbLine
 10
4907.4740560005
 20
6366.2711566946
 30
0.0
 11
4917.4861623745
 21
6641.1377165616
 31
0.0
  0
LINE
  5
1E3
330
136
100
AcDbEntity
  8
0
  6
Continuous
 62
   179
100
AcDbLine
 10
4917.4861623745
 20
6641.1377165616
 30
0.0
 11
4907.4740560005
 21
6857.0185622947
 31
0.0
  0
LINE
  5
1E4
330
136
100
AcDbEntity
  8
0
  6
Continuous
 62
   179
100
AcDbLine
 10
24964.5491205926
 20
0.0000125144
 30
0.0
 11
26583.7619200447
 21
0.0000125144
 31
0.0
  0
LINE
  5
1E5
330
136
100
AcDbEntity
  8
0
  6
Continuous
 62
   179
100
AcDbLine
 10
24964.5491205926
 20
1424.0948297115
 30
0.0
 11
24964.5491205926
 21
0.0000125144
 31
0.0
  0
LINE
  5
1E6
330
136
100
AcDbEntity
  8
0
  6
Continuous
 62
   179
100
AcDbLine
 10
25016.6135325926
 20
7008.8707569115
 30
0.0
 11
24971.491042193
 21
3444.1940153109
 31
0.0
  0
LINE
  5
1E7
330
136
100
AcDbEntity
  8
0
  6
Continuous
 62
   179
100
AcDbLine
 10
24180.1119797926
 20
3343.5361521115
 30
0.0
 11
25016.6135325926
 21
7008.8707569115
 31
0.0
  0
LINE
  5
1E8
330
136
100
AcDbEntity
  8
0
  6
Continuous
 62
   179
100
AcDbLine
 10
23399.1457997926
 20
0.0000125144
 30
0.0
 11
23791.3643701938
 21
1694.8297721102
 31
0.0
  0
LINE
  5
1E9
330
136
100
AcDbEntity
  8
0
  6
Continuous
 62
   179
100
AcDbLine
 10
21618.5429093926
 20
0.0000125144
 30
0.0
 11
23399.1457997926
 21
0.0000125144
 31
0.0
  0
LINE
  5
1EA
330
136
100
AcDbEntity
  8
0
  6
Continuous
 62
   179
100
AcDbLine
 10
23986.756270993
 20
8289.6552921115
 30
0.0
 11
21618.5429093926
 21
0.0000125144
 31
0.0
  0
LINE
  5
1EB
330
136
100
AcDbEntity
  8
0
  6
Continuous
 62
   179
100
AcDbLine
 10
26353.951536593
 20
8289.6552921115
 30
0.0
 11
23986.756270993
 21
8289.6552921115
 31
0.0
  0
LINE
  5
1EC
330
136
100
AcDbEntity
  8
0
  6
Continuous
 62
   179
100
AcDbLine
 10
26583.7619200447
 20
0.0000125144
 30
0.0
 11
26353.951536593
 21
8289.6552921115
 31
0.0
  0
ENDBLK
  5
138
330
136
100
AcDbEntity
  8
0
100
AcDbBlockEnd
  0
BLOCK
  5
1EE
330
1ED
100
AcDbEntity
  8
0
100
AcDbBlockBegin
  2
Block-Projekciju vaizdavimas_1
 70
     0
 10
0.0
 20
0.0
 30
0.0
  3
Block-Projekciju vaizdavimas_1
  1

  0
CIRCLE
  5
1F0
330
1ED
100
AcDbEntity
  8
0
  6
Continuous
 62
     7
370
    35
100
AcDbCircle
 10
0.0
 20
0.0
 30
0.0
 40
3.5
  0
CIRCLE
  5
1F1
330
1ED
100
AcDbEntity
  8
0
  6
Continuous
 62
     7
370
    35
100
AcDbCircle
 10
0.0
 20
0.0
 30
0.0
 40
1.5
  0
LINE
  5
1F2
330
1ED
100
AcDbEntity
  8
0
  6
CENTERX2
 62
     7
370
    18
100
AcDbLine
 10
4.5
 20
0.0
 30
0.0
 11
-14.5
 21
0.0
 31
0.0
  0
LINE
  5
1F3
330
1ED
100
AcDbEntity
  8
0
  6
Continuous
 62
     7
370
    35
100
AcDbLine
 10
-13.5
 20
1.5
 30
0.0
 11
-13.5
 21
-1.5
 31
0.0
  0
LINE
  5
1F4
330
1ED
100
AcDbEntity
  8
0
  6
Continuous
 62
     7
370
    35
100
AcDbLine
 10
-13.5
 20
-1.5
 30
0.0
 11
-6.5
 21
-3.5
 31
0.0
  0
LINE
  5
1F5
330
1ED
100
AcDbEntity
  8
0
  6
Continuous
 62
     7
370
    35
100
AcDbLine
 10
-6.5
 20
-3.5
 30
0.0
 11
-6.5
 21
3.5
 31
0.0
  0
LINE
  5
1F6
330
1ED
100
AcDbEntity
  8
0
  6
Continuous
 62
     7
370
    35
100
AcDbLine
 10
-6.5
 20
3.5
 30
0.0
 11
-13.5
 21
1.5
 31
0.0
  0
LINE
  5
1F7
330
1ED
100
AcDbEntity
  8
0
  6
CENTERX2
 62
     7
370
    18
100
AcDbLine
 10
0.0
 20
4.5
 30
0.0
 11
0.0
 21
-4.5
 31
0.0
  0
ENDBLK
  5
1EF
330
1ED
100
AcDbEntity
  8
0
100
AcDbBlockEnd
  0
ENDSEC
  0
SECTION
  2
ENTITIES
  0
ARC
  5
1F8
330
1F
100
AcDbEntity
  8
0
100
AcDbCircle
 10
2220.3044473307
 20
994.1381387269
 30
0.0
 40
5.000000000000099
100
AcDbArc
 50
163.3006884733
 51
200.3421313068
  0
ARC
  5
1F9
330
1F
100
AcDbEntity
  8
0
100
AcDbCircle
 10
2220.565624747
 20
993.6857661719
 30
0.0
 40
5.000000000000337
100
AcDbArc
 50
219.6578686932
 51
256.6993115266999
  0
ARC
  5
1FA
330
1F
100
AcDbEntity
  8
0
100
AcDbCircle
 10
2211.5544473307
 20
1009.2935832931
 30
0.0
 40
5.000000000000099
100
AcDbArc
 50
163.3006884733
 51
200.3421313068
  0
ARC
  5
1FB
330
1F
100
AcDbEntity
  8
0
100
AcDbCircle
 10
2211.815624747
 20
1008.8412107381
 30
0.0
 40
4.999999999999954
100
AcDbArc
 50
219.6578686932
 51
256.6993115266999
  0
ARC
  5
1FC
330
1F
100
AcDbEntity
  8
0
100
AcDbCircle
 10
2124.2090585178
 20
1523.8606279292
 30
0.0
 40
5.000000000000247
100
AcDbArc
 50
43.30068847330001
 51
80.3421313068
  0
ARC
  5
1FD
330
1F
100
AcDbEntity
  8
0
100
AcDbCircle
 10
2123.686703685
 20
1523.8606279292
 30
0.0
 40
5.000000000000247
100
AcDbArc
 50
99.65786869320002
 51
136.6993115267
  0
ARC
  5
1FE
330
1F
100
AcDbEntity
  8
0
100
AcDbCircle
 10
2162.7615237935
 20
1093.8054059093
 30
0.0
 40
5.000000000000525
100
AcDbArc
 50
163.3006884733
 51
200.3421313068
  0
ARC
  5
1FF
330
1F
100
AcDbEntity
  8
0
100
AcDbCircle
 10
2163.0227012099
 20
1093.3530333543
 30
0.0
 40
4.999999999999915
100
AcDbArc
 50
219.6578686932
 51
256.6993115266999
  0
ARC
  5
200
330
1F
100
AcDbEntity
  8
0
100
AcDbCircle
 10
2232.7090585178
 20
1523.8606279292
 30
0.0
 40
4.999999999999639
100
AcDbArc
 50
43.30068847330001
 51
80.3421313068
  0
ARC
  5
201
330
1F
100
AcDbEntity
  8
0
100
AcDbCircle
 10
2232.1867036851
 20
1523.8606279292
 30
0.0
 40
4.999999999999916
100
AcDbArc
 50
99.65786869320002
 51
136.6993115267
  0
ARC
  5
202
330
1F
100
AcDbEntity
  8
0
100
AcDbCircle
 10
2341.2090585178
 20
1523.8606279293
 30
0.0
 40
5.000000000000239
100
AcDbArc
 50
43.30068847330001
 51
80.3421313068
  0
ARC
  5
203
330
1F
100
AcDbEntity
  8
0
100
AcDbCircle
 10
2340.6867036851
 20
1523.8606279293
 30
0.0
 40
5.000000000000247
100
AcDbArc
 50
99.65786869320002
 51
136.6993115267
  0
ARC
  5
204
330
1F
100
AcDbEntity
  8
0
100
AcDbCircle
 10
2223.9090585178
 20
1005.7188989081
 30
0.0
 40
5.000000000000324
100
AcDbArc
 50
279.6578686932
 51
316.6993115267
  0
ARC
  5
205
330
1F
100
AcDbEntity
  8
0
100
AcDbCircle
 10
2278.7867036851
 20
1005.7188989081
 30
0.0
 40
5.000000000000051
100
AcDbArc
 50
223.3006884733
 51
260.3421313068
  0
ARC
  5
206
330
1F
100
AcDbEntity
  8
0
100
AcDbCircle
 10
2279.3090585178
 20
1005.7188989081
 30
0.0
 40
5.000000000000324
100
AcDbArc
 50
279.6578686932
 51
316.6993115267
  0
ARC
  5
207
330
1F
100
AcDbEntity
  8
0
100
AcDbCircle
 10
2334.1867036851
 20
1005.7188989081
 30
0.0
 40
4.999999999999994
100
AcDbArc
 50
223.3006884733
 51
260.3421313068
  0
ARC
  5
208
330
1F
100
AcDbEntity
  8
0
100
AcDbCircle
 10
2334.7090585178
 20
1005.7188989081
 30
0.0
 40
5.000000000000324
100
AcDbArc
 50
279.6578686932
 51
316.6993115267
  0
ARC
  5
209
330
1F
100
AcDbEntity
  8
0
100
AcDbCircle
 10
1976.4133730908
 20
1444.2339546768
 30
0.0
 40
5.000000000000222
100
AcDbArc
 50
73.3006884733
 51
110.3421313068
  0
ARC
  5
20A
330
1F
100
AcDbEntity
  8
0
100
AcDbCircle
 10
1975.9610005358
 20
1443.9727772604
 30
0.0
 40
5.00000000000009
100
AcDbArc
 50
129.6578686932
 51
166.6993115267
  0
ARC
  5
20B
330
1F
100
AcDbEntity
  8
0
100
AcDbCircle
 10
1967.5898296448
 20
1431.8526963741
 30
0.0
 40
4.999999999999853
100
AcDbArc
 50
163.3006884733
 51
200.3421313068
  0
ARC
  5
20C
330
1F
100
AcDbEntity
  8
0
100
AcDbCircle
 10
1967.8510070612
 20
1431.4003238191
 30
0.0
 40
4.999999999999948
100
AcDbArc
 50
219.6578686932
 51
256.6993115266999
  0
ARC
  5
20D
330
1F
100
AcDbEntity
  8
0
100
AcDbCircle
 10
2113.9686002563
 20
1178.3172285255
 30
0.0
 40
5.000000000000288
100
AcDbArc
 50
163.3006884733
 51
200.3421313068
  0
ARC
  5
20E
330
1F
100
AcDbEntity
  8
0
100
AcDbCircle
 10
2114.2297776727
 20
1177.8648559705
 30
0.0
 40
5.000000000000265
100
AcDbArc
 50
219.6578686932
 51
256.6993115266999
  0
ARC
  5
20F
330
1F
100
AcDbEntity
  8
0
100
AcDbCircle
 10
2016.382753182
 20
1347.3408737579
 30
0.0
 40
5.00000000000007
100
AcDbArc
 50
163.3006884733
 51
200.3421313068
  0
ARC
  5
210
330
1F
100
AcDbEntity
  8
0
100
AcDbCircle
 10
2016.6439305984
 20
1346.8885012029
 30
0.0
 40
5.000000000000409
100
AcDbArc
 50
219.6578686932
 51
256.6993115266999
  0
ARC
  5
211
330
1F
100
AcDbEntity
  8
0
100
AcDbCircle
 10
2065.1756767192
 20
1262.8290511417
 30
0.0
 40
5.000000000000353
100
AcDbArc
 50
163.3006884733
 51
200.3421313068
  0
ARC
  5
212
330
1F
100
AcDbEntity
  8
0
100
AcDbCircle
 10
2065.4368541355
 20
1262.3766785867
 30
0.0
 40
4.999999999999915
100
AcDbArc
 50
219.6578686932
 51
256.6993115266999
  0
ARC
  5
213
330
1F
100
AcDbEntity
  8
0
100
AcDbCircle
 10
1958.8398296448
 20
1447.0081409403
 30
0.0
 40
5.000000000000099
100
AcDbArc
 50
163.3006884733
 51
200.3421313068
  0
ARC
  5
214
330
1F
100
AcDbEntity
  8
0
100
AcDbCircle
 10
1959.1010070612
 20
1446.5557683854
 30
0.0
 40
5.000000000000117
100
AcDbArc
 50
219.6578686932
 51
256.6993115266999
  0
ARC
  5
215
330
1F
100
AcDbEntity
  8
0
100
AcDbCircle
 10
2106.2283810858
 20
1519.1826844876
 30
0.0
 40
5.000000000000135
100
AcDbArc
 50
73.3006884733
 51
110.3421313068
  0
ARC
  5
216
330
1F
100
AcDbEntity
  8
0
100
AcDbCircle
 10
2105.7760085308
 20
1518.9215070712
 30
0.0
 40
4.999999999999769
100
AcDbArc
 50
129.6578686932
 51
166.6993115267
  0
LWPOLYLINE
  5
217
330
1F
100
AcDbEntity
  8
0
100
AcDbPolyline
 90
       10
 70
   128
 43
0.0
 10
2215.6162735213
 20
992.4000123494
 10
2215.6581457842
 20
992.3274977111
 10
2215.7773699749
 20
992.1209946253
 10
2215.9557964791
 20
991.8119398856
 10
2216.1662753809
 20
991.4473848396
 10
2216.3767542828
 20
991.0828297936
 10
2216.5551807869
 20
990.7737750539
 10
2216.6744198788
 20
990.5672710368
 10
2216.7162772406
 20
990.4947563984
 10
2216.7162772406
 20
990.4947563984
  0
LWPOLYLINE
  5
218
330
1F
100
AcDbEntity
  8
0
100
AcDbPolyline
 90
       10
 70
   128
 43
0.0
 10
2206.8662818659
 20
1007.5554572024
 10
2206.9081392277
 20
1007.482942797
 10
2207.0273634184
 20
1007.2764390127
 10
2207.2058048237
 20
1006.9673842729
 10
2207.4162837256
 20
1006.6028292269
 10
2207.6267626274
 20
1006.2382742974
 10
2207.8051891316
 20
1005.9292195576
 10
2207.9244133223
 20
1005.7227157733
 10
2207.9662855852
 20
1005.6502013679
 10
2207.9662855852
 20
1005.6502013679
  0
LINE
  5
219
330
1F
100
AcDbEntity
  8
0
100
AcDbLine
 10
2125.0478800524
 20
1528.7897758164
 30
0.0
 11
2122.8478875149
 21
1528.7897758164
 31
0.0
  0
LWPOLYLINE
  5
21A
330
1F
100
AcDbEntity
  8
0
100
AcDbPolyline
 90
       10
 70
   128
 43
0.0
 10
2158.0733534086
 20
1092.0672811546
 10
2158.1152256716
 20
1091.9947646537
 10
2158.2344498623
 20
1091.7882643619
 10
2158.4128763664
 20
1091.4792068281
 10
2158.6233552683
 20
1091.1146499195
 10
2158.8338341702
 20
1090.7501004615
 10
2159.0122606743
 20
1090.4410429278
 10
2159.131484865
 20
1090.2345351853
 10
2159.173357128
 20
1090.162026135
 10
2159.173357128
 20
1090.162026135
  0
LINE
  5
21B
330
1F
100
AcDbEntity
  8
0
100
AcDbLine
 10
2233.5478838671
 20
1528.7897758164
 30
0.0
 11
2231.3478764284
 21
1528.7897758164
 31
0.0
  0
LINE
  5
21C
330
1F
100
AcDbEntity
  8
0
100
AcDbLine
 10
2342.0478802312
 20
1528.7897758164
 30
0.0
 11
2339.8478802431
 21
1528.7897758164
 31
0.0
  0
LINE
  5
21D
330
1F
100
AcDbEntity
  8
0
100
AcDbLine
 10
2224.0515079487
 20
1000.7897633106
 30
0.0
 11
2224.7478839148
 21
1000.7897633106
 31
0.0
  0
LINE
  5
21E
330
1F
100
AcDbEntity
  8
0
100
AcDbLine
 10
2277.9478829492
 20
1000.7897633106
 30
0.0
 11
2280.1478829373
 21
1000.7897633106
 31
0.0
  0
LINE
  5
21F
330
1F
100
AcDbEntity
  8
0
100
AcDbLine
 10
2333.3478819717
 20
1000.7897633106
 30
0.0
 11
2335.5478819597
 21
1000.7897633106
 31
0.0
  0
LWPOLYLINE
  5
220
330
1F
100
AcDbEntity
  8
0
100
AcDbPolyline
 90
       10
 70
   128
 43
0.0
 10
1974.6752556551
 20
1448.9221148172
 10
1974.6027466047
 20
1448.8802425542
 10
1974.3962165106
 20
1448.7610332646
 10
1974.0871664274
 20
1448.5826067605
 10
1973.72262442
 20
1448.3721129575
 10
1973.3580526102
 20
1448.1616489568
 10
1973.0490025271
 20
1447.9832224526
 10
1972.8425022352
 20
1447.8639833608
 10
1972.7699931849
 20
1447.8221110978
 10
1972.7699931849
 20
1447.8221110978
  0
LWPOLYLINE
  5
221
330
1F
100
AcDbEntity
  8
0
100
AcDbPolyline
 90
       10
 70
   128
 43
0.0
 10
1962.9016693819
 20
1430.114584414
 10
1962.9435416449
 20
1430.0420455613
 10
1963.0627509344
 20
1429.8355452695
 10
1963.2411774386
 20
1429.5264951863
 10
1963.4516712416
 20
1429.1619531789
 10
1963.6621352423
 20
1428.7973813691
 10
1963.8405617464
 20
1428.488331286
 10
1963.9598008383
 20
1428.2818309941
 10
1964.0016731013
 20
1428.2093219438
 10
1964.0016731013
 20
1428.2093219438
  0
LWPOLYLINE
  5
222
330
1F
100
AcDbEntity
  8
0
100
AcDbPolyline
 90
       10
 70
   128
 43
0.0
 10
2109.2804249514
 20
1176.5791051068
 10
2109.3222972143
 20
1176.5065811553
 10
2109.4415363062
 20
1176.3000808635
 10
2109.6199628103
 20
1175.9910307803
 10
2109.830426811
 20
1175.6264738717
 10
2110.0409206141
 20
1175.2619169631
 10
2110.2193471182
 20
1174.9528668799
 10
2110.3385564078
 20
1174.7463665881
 10
2110.3804286707
 20
1174.6738426366
 10
2110.3804286707
 20
1174.6738426366
  0
LWPOLYLINE
  5
223
330
1F
100
AcDbEntity
  8
0
100
AcDbPolyline
 90
       10
 70
   128
 43
0.0
 10
2011.6945978392
 20
1345.6027381101
 10
2011.7364402998
 20
1345.5302290597
 10
2011.8556793917
 20
1345.3237287679
 10
2012.0341058958
 20
1345.0146786847
 10
2012.2445996988
 20
1344.650106875
 10
2012.4550636996
 20
1344.2855648675
 10
2012.6334902037
 20
1343.9765147843
 10
2012.7527292956
 20
1343.7700144925
 10
2012.7945717562
 20
1343.6975054422
 10
2012.7945717562
 20
1343.6975054422
  0
LWPOLYLINE
  5
224
330
1F
100
AcDbEntity
  8
0
100
AcDbPolyline
 90
       10
 70
   128
 43
0.0
 10
2060.4874964941
 20
1261.0909216085
 10
2060.5293687571
 20
1261.0184125581
 10
2060.648607849
 20
1260.8119122663
 10
2060.8270343531
 20
1260.5028621831
 10
2061.0374983538
 20
1260.1382903733
 10
2061.2479921568
 20
1259.7737483659
 10
2061.4264186609
 20
1259.4646982827
 10
2061.5456279505
 20
1259.2581979909
 10
2061.5875002135
 20
1259.1856591382
 10
2061.5875002135
 20
1259.1856591382
  0
LWPOLYLINE
  5
225
330
1F
100
AcDbEntity
  8
0
100
AcDbPolyline
 90
       10
 70
   128
 43
0.0
 10
1954.1516479243
 20
1445.2700190225
 10
1954.1935201872
 20
1445.1975099721
 10
1954.3127592791
 20
1444.9910096803
 10
1954.4911857832
 20
1444.6819297948
 10
1954.7016497839
 20
1444.3173877874
 10
1954.9121435869
 20
1443.9528457799
 10
1955.0905700911
 20
1443.6437658944
 10
1955.209809183
 20
1443.4372656026
 10
1955.2516516436
 20
1443.3647565522
 10
1955.2516516436
 20
1443.3647565522
  0
LWPOLYLINE
  5
226
330
1F
100
AcDbEntity
  8
0
100
AcDbPolyline
 90
       10
 70
   128
 43
0.0
 10
2104.4902678717
 20
1523.8708429017
 10
2104.417729019
 20
1523.8290004411
 10
2104.2112287272
 20
1523.7097315469
 10
2103.902178644
 20
1523.5313348451
 10
2103.5376366366
 20
1523.3208708444
 10
2103.1730648268
 20
1523.110347239
 10
2102.8640147436
 20
1522.9319505372
 10
2102.6575144518
 20
1522.8127412477
 10
2102.5850054014
 20
1522.7708391824
 10
2102.5850054014
 20
1522.7708391824
  0
LINE
  5
227
330
1F
100
AcDbEntity
  8
0
100
AcDbLine
 10
2368.9478811015
 20
984.7897630164
 30
0.0
 11
2367.4478810884
 21
984.7897630164
 31
0.0
  0
LINE
  5
228
330
1F
100
AcDbEntity
  8
0
100
AcDbLine
 10
2367.4478810884
 20
984.7897630164
 30
0.0
 11
2367.4478810884
 21
989.7897638359
 31
0.0
  0
LINE
  5
229
330
1F
100
AcDbEntity
  8
0
100
AcDbLine
 10
2367.4478810884
 20
989.7897638359
 30
0.0
 11
2368.9478811015
 21
989.7897638359
 31
0.0
  0
LINE
  5
22A
330
1F
100
AcDbEntity
  8
0
100
AcDbLine
 10
2368.9478811015
 20
989.7897638359
 30
0.0
 11
2368.9478811015
 21
984.7897630164
 31
0.0
  0
ARC
  5
22B
330
1F
100
AcDbEntity
  8
0
100
AcDbCircle
 10
2366.9478811015
 20
1003.2897634187
 30
0.0
 40
0.5000000000002274
100
AcDbArc
 50
0.0
 51
90.0
  0
LINE
  5
22C
330
1F
100
AcDbEntity
  8
0
100
AcDbLine
 10
2366.9478810064
 20
1003.7897633949
 30
0.0
 11
2366.4478811573
 21
1003.7897633949
 31
0.0
  0
ARC
  5
22D
330
1F
100
AcDbEntity
  8
0
100
AcDbCircle
 10
2366.4478811015
 20
1004.2897634187
 30
0.0
 40
0.5000000000004547
100
AcDbArc
 50
180.0
 51
270.0
  0
ARC
  5
22E
330
1F
100
AcDbEntity
  8
0
100
AcDbCircle
 10
2368.4478811015
 20
1003.7897634187
 30
0.0
 40
0.5000000000004547
100
AcDbArc
 50
0.0
 51
89.9999999999
  0
LINE
  5
22F
330
1F
100
AcDbEntity
  8
0
100
AcDbLine
 10
2367.4478810884
 20
989.7897638359
 30
0.0
 11
2367.4478810884
 21
1003.2897633712
 31
0.0
  0
LINE
  5
230
330
1F
100
AcDbEntity
  8
0
100
AcDbLine
 10
2368.9478811015
 20
1003.7897633949
 30
0.0
 11
2368.9478811015
 21
989.7897638359
 31
0.0
  0
LINE
  5
231
330
1F
100
AcDbEntity
  8
0
100
AcDbLine
 10
2366.9478810064
 20
984.7897630164
 30
0.0
 11
2366.9478810064
 21
1002.7897634056
 31
0.0
  0
LINE
  5
232
330
1F
100
AcDbEntity
  8
0
100
AcDbLine
 10
2366.9478810064
 20
1002.7897634056
 30
0.0
 11
2367.4478810884
 21
1002.7897634056
 31
0.0
  0
LINE
  5
233
330
1F
100
AcDbEntity
  8
0
100
AcDbLine
 10
2367.4478810884
 20
984.7897630164
 30
0.0
 11
2366.9478810064
 21
984.7897630164
 31
0.0
  0
LINE
  5
234
330
1F
100
AcDbEntity
  8
0
100
AcDbLine
 10
2366.4478811573
 20
1002.7897634056
 30
0.0
 11
2366.4478811573
 21
984.7897630164
 31
0.0
  0
LINE
  5
235
330
1F
100
AcDbEntity
  8
0
100
AcDbLine
 10
2365.9478810754
 20
984.7897630164
 30
0.0
 11
2365.9478810754
 21
986.2897641935
 31
0.0
  0
LINE
  5
236
330
1F
100
AcDbEntity
  8
0
100
AcDbLine
 10
2365.9478810754
 20
986.2897641935
 30
0.0
 11
2365.9478810754
 21
1002.7897634056
 31
0.0
  0
LINE
  5
237
330
1F
100
AcDbEntity
  8
0
100
AcDbLine
 10
2365.9478810754
 20
1002.7897634056
 30
0.0
 11
2366.4478811573
 21
1002.7897634056
 31
0.0
  0
LINE
  5
238
330
1F
100
AcDbEntity
  8
0
100
AcDbLine
 10
2366.4478811573
 20
984.7897630164
 30
0.0
 11
2365.9478810754
 21
984.7897630164
 31
0.0
  0
LINE
  5
239
330
1F
100
AcDbEntity
  8
0
100
AcDbLine
 10
2366.4478811573
 20
1002.7897634056
 30
0.0
 11
2366.9478810064
 21
1002.7897634056
 31
0.0
  0
LINE
  5
23A
330
1F
100
AcDbEntity
  8
0
100
AcDbLine
 10
2366.9478810064
 20
984.7897630164
 30
0.0
 11
2366.4478811573
 21
984.7897630164
 31
0.0
  0
LINE
  5
23B
330
1F
100
AcDbEntity
  8
0
100
AcDbLine
 10
2368.9478811015
 20
1539.7897534051
 30
0.0
 11
2367.4478810884
 21
1539.7897534051
 31
0.0
  0
LINE
  5
23C
330
1F
100
AcDbEntity
  8
0
100
AcDbLine
 10
2367.4478810884
 20
1544.7897486367
 30
0.0
 11
2368.9478811015
 21
1544.7897486367
 31
0.0
  0
LINE
  5
23D
330
1F
100
AcDbEntity
  8
0
100
AcDbLine
 10
2368.9478811015
 20
1544.7897486367
 30
0.0
 11
2368.9478811015
 21
1539.7897534051
 31
0.0
  0
LINE
  5
23E
330
1F
100
AcDbEntity
  8
0
100
AcDbLine
 10
2367.4478810884
 20
1539.7897534051
 30
0.0
 11
2367.4478810884
 21
1544.7897486367
 31
0.0
  0
ARC
  5
23F
330
1F
100
AcDbEntity
  8
0
100
AcDbCircle
 10
2366.9478811015
 20
1526.2897634187
 30
0.0
 40
0.5
100
AcDbArc
 50
270.0
 51
0.0
  0
ARC
  5
240
330
1F
100
AcDbEntity
  8
0
100
AcDbCircle
 10
2368.4478811015
 20
1525.7897634187
 30
0.0
 40
0.5000000000004547
100
AcDbArc
 50
270.0
 51
0.0
  0
ARC
  5
241
330
1F
100
AcDbEntity
  8
0
100
AcDbCircle
 10
2366.4478811015
 20
1525.2897634187
 30
0.0
 40
0.5000000000004547
100
AcDbArc
 50
90.0
 51
180.0
  0
LINE
  5
242
330
1F
100
AcDbEntity
  8
0
100
AcDbLine
 10
2366.9478810064
 20
1525.7897548356
 30
0.0
 11
2366.4478811573
 21
1525.7897548356
 31
0.0
  0
LINE
  5
243
330
1F
100
AcDbEntity
  8
0
100
AcDbLine
 10
2368.9478811015
 20
1539.7897534051
 30
0.0
 11
2368.9478811015
 21
1525.7897548356
 31
0.0
  0
LINE
  5
244
330
1F
100
AcDbEntity
  8
0
100
AcDbLine
 10
2367.4478810884
 20
1526.2897782006
 30
0.0
 11
2367.4478810884
 21
1539.7897534051
 31
0.0
  0
LINE
  5
245
330
1F
100
AcDbEntity
  8
0
100
AcDbLine
 10
2366.9478810064
 20
1526.789741961
 30
0.0
 11
2366.9478810064
 21
1544.7897486367
 31
0.0
  0
LINE
  5
246
330
1F
100
AcDbEntity
  8
0
100
AcDbLine
 10
2367.4478810884
 20
1526.789741961
 30
0.0
 11
2366.9478810064
 21
1526.789741961
 31
0.0
  0
LINE
  5
247
330
1F
100
AcDbEntity
  8
0
100
AcDbLine
 10
2366.9478810064
 20
1544.7897486367
 30
0.0
 11
2367.4478810884
 21
1544.7897486367
 31
0.0
  0
LINE
  5
248
330
1F
100
AcDbEntity
  8
0
100
AcDbLine
 10
2366.4478811573
 20
1544.7897486367
 30
0.0
 11
2366.4478811573
 21
1526.789741961
 31
0.0
  0
LINE
  5
249
330
1F
100
AcDbEntity
  8
0
100
AcDbLine
 10
2365.9478810754
 20
1526.789741961
 30
0.0
 11
2365.9478810754
 21
1543.2897381463
 31
0.0
  0
LINE
  5
24A
330
1F
100
AcDbEntity
  8
0
100
AcDbLine
 10
2365.9478810754
 20
1543.2897381463
 30
0.0
 11
2365.9478810754
 21
1544.7897486367
 31
0.0
  0
LINE
  5
24B
330
1F
100
AcDbEntity
  8
0
100
AcDbLine
 10
2366.4478811573
 20
1526.789741961
 30
0.0
 11
2365.9478810754
 21
1526.789741961
 31
0.0
  0
LINE
  5
24C
330
1F
100
AcDbEntity
  8
0
100
AcDbLine
 10
2365.9478810754
 20
1544.7897486367
 30
0.0
 11
2366.4478811573
 21
1544.7897486367
 31
0.0
  0
LINE
  5
24D
330
1F
100
AcDbEntity
  8
0
100
AcDbLine
 10
2366.9478810064
 20
1526.789741961
 30
0.0
 11
2366.4478811573
 21
1526.789741961
 31
0.0
  0
LINE
  5
24E
330
1F
100
AcDbEntity
  8
0
100
AcDbLine
 10
2366.9478810064
 20
1544.7897486367
 30
0.0
 11
2366.4478811573
 21
1544.7897486367
 31
0.0
  0
LINE
  5
24F
330
1F
100
AcDbEntity
  8
0
100
AcDbLine
 10
2345.9478810567
 20
1528.2897524514
 30
0.0
 11
2345.9478810567
 21
1527.289765326
 31
0.0
  0
LINE
  5
250
330
1F
100
AcDbEntity
  8
0
100
AcDbLine
 10
2357.947881161
 20
1528.2897524514
 30
0.0
 11
2345.9478810567
 21
1528.2897524514
 31
0.0
  0
ARC
  5
251
330
1F
100
AcDbEntity
  8
0
100
AcDbCircle
 10
2357.9478811015
 20
1535.2897634187
 30
0.0
 40
7.000000000000455
100
AcDbArc
 50
270.0
 51
0.0
  0
LINE
  5
252
330
1F
100
AcDbEntity
  8
0
100
AcDbLine
 10
2364.9478809114
 20
1540.2897767701
 30
0.0
 11
2364.9478809114
 21
1535.2897815385
 31
0.0
  0
ARC
  5
253
330
1F
100
AcDbEntity
  8
0
100
AcDbCircle
 10
2362.9478811015
 20
1540.2897634187
 30
0.0
 40
2.000000000000455
100
AcDbArc
 50
0.0
 51
90.0
  0
LINE
  5
254
330
1F
100
AcDbEntity
  8
0
100
AcDbLine
 10
2361.9478808854
 20
1542.2897510209
 30
0.0
 11
2362.9478810493
 21
1542.2897510209
 31
0.0
  0
ARC
  5
255
330
1F
100
AcDbEntity
  8
0
100
AcDbCircle
 10
2361.9478811015
 20
1544.2897634187
 30
0.0
 40
2.000000000000227
100
AcDbArc
 50
180.0
 51
270.0
  0
LINE
  5
256
330
1F
100
AcDbEntity
  8
0
100
AcDbLine
 10
2359.9478814889
 20
1545.2897720018
 30
0.0
 11
2359.9478814889
 21
1544.2897848764
 31
0.0
  0
LINE
  5
257
330
1F
100
AcDbEntity
  8
0
100
AcDbLine
 10
2368.9478811015
 20
1545.2897720018
 30
0.0
 11
2359.9478814889
 21
1545.2897720018
 31
0.0
  0
LINE
  5
258
330
1F
100
AcDbEntity
  8
0
100
AcDbLine
 10
2368.9478811015
 20
1525.2897910752
 30
0.0
 11
2368.9478811015
 21
1525.7897548356
 31
0.0
  0
LINE
  5
259
330
1F
100
AcDbEntity
  8
0
100
AcDbLine
 10
2368.9478811015
 20
1544.7897486367
 30
0.0
 11
2368.9478811015
 21
1545.2897720018
 31
0.0
  0
LINE
  5
25A
330
1F
100
AcDbEntity
  8
0
100
AcDbLine
 10
2343.9478807289
 20
1526.2897782006
 30
0.0
 11
2363.9478812132
 21
1526.2897782006
 31
0.0
  0
LINE
  5
25B
330
1F
100
AcDbEntity
  8
0
100
AcDbLine
 10
2363.9478812132
 20
1527.7897886911
 30
0.0
 11
2363.9478812132
 21
1526.2897782006
 31
0.0
  0
LINE
  5
25C
330
1F
100
AcDbEntity
  8
0
100
AcDbLine
 10
2364.9478809114
 20
1527.7897886911
 30
0.0
 11
2363.9478812132
 21
1527.7897886911
 31
0.0
  0
LINE
  5
25D
330
1F
100
AcDbEntity
  8
0
100
AcDbLine
 10
2364.9478809114
 20
1526.2897782006
 30
0.0
 11
2364.9478809114
 21
1527.7897886911
 31
0.0
  0
LINE
  5
25E
330
1F
100
AcDbEntity
  8
0
100
AcDbLine
 10
2364.9478809114
 20
1526.2897782006
 30
0.0
 11
2367.4478810884
 21
1526.2897782006
 31
0.0
  0
LINE
  5
25F
330
1F
100
AcDbEntity
  8
0
100
AcDbLine
 10
2365.9478810754
 20
1544.2897848764
 30
0.0
 11
2360.9478807215
 21
1544.2897848764
 31
0.0
  0
ARC
  5
260
330
1F
100
AcDbEntity
  8
0
100
AcDbCircle
 10
2361.9478811015
 20
1544.2897634187
 30
0.0
 40
1.0
100
AcDbArc
 50
180.0
 51
270.0
  0
LINE
  5
261
330
1F
100
AcDbEntity
  8
0
100
AcDbLine
 10
2361.9478808854
 20
1543.2897381463
 30
0.0
 11
2362.9478810493
 21
1543.2897381463
 31
0.0
  0
ARC
  5
262
330
1F
100
AcDbEntity
  8
0
100
AcDbCircle
 10
2362.9478811015
 20
1540.2897634187
 30
0.0
 40
3.0
100
AcDbArc
 50
0.0
 51
90.0
  0
LINE
  5
263
330
1F
100
AcDbEntity
  8
0
100
AcDbLine
 10
2365.9478810754
 20
1540.2897767701
 30
0.0
 11
2365.9478810754
 21
1535.2897815385
 31
0.0
  0
ARC
  5
264
330
1F
100
AcDbEntity
  8
0
100
AcDbCircle
 10
2357.9478811015
 20
1535.2897634187
 30
0.0
 40
8.0
100
AcDbArc
 50
270.0
 51
0.0
  0
LINE
  5
265
330
1F
100
AcDbEntity
  8
0
100
AcDbLine
 10
2357.947881161
 20
1527.289765326
 30
0.0
 11
2345.9478810567
 21
1527.289765326
 31
0.0
  0
ARC
  5
266
330
1F
100
AcDbEntity
  8
0
100
AcDbCircle
 10
2357.9478811015
 20
994.2897634187
 30
0.0
 40
8.0
100
AcDbArc
 50
0.0
 51
90.0
  0
LINE
  5
267
330
1F
100
AcDbEntity
  8
0
100
AcDbLine
 10
2365.9478810754
 20
989.289763754
 30
0.0
 11
2365.9478810754
 21
994.2897636422
 31
0.0
  0
ARC
  5
268
330
1F
100
AcDbEntity
  8
0
100
AcDbCircle
 10
2361.9478811015
 20
985.2897634187
 30
0.0
 40
1.0
100
AcDbArc
 50
90.0
 51
180.0
  0
LINE
  5
269
330
1F
100
AcDbEntity
  8
0
100
AcDbLine
 10
2365.9478810754
 20
985.2897640296
 30
0.0
 11
2360.9478807215
 21
985.2897640296
 31
0.0
  0
LINE
  5
26A
330
1F
100
AcDbEntity
  8
0
100
AcDbLine
 10
2364.9478809114
 20
1003.2897633712
 30
0.0
 11
2367.4478810884
 21
1003.2897633712
 31
0.0
  0
LINE
  5
26B
330
1F
100
AcDbEntity
  8
0
100
AcDbLine
 10
2364.9478809114
 20
1001.7897634746
 30
0.0
 11
2364.9478809114
 21
1003.2897633712
 31
0.0
  0
LINE
  5
26C
330
1F
100
AcDbEntity
  8
0
100
AcDbLine
 10
2363.9478812132
 20
1001.7897634746
 30
0.0
 11
2364.9478809114
 21
1001.7897634746
 31
0.0
  0
LINE
  5
26D
330
1F
100
AcDbEntity
  8
0
100
AcDbLine
 10
2363.9478812132
 20
1003.2897633712
 30
0.0
 11
2363.9478812132
 21
1001.7897634746
 31
0.0
  0
LINE
  5
26E
330
1F
100
AcDbEntity
  8
0
100
AcDbLine
 10
2343.9478807289
 20
1003.2897633712
 30
0.0
 11
2363.9478812132
 21
1003.2897633712
 31
0.0
  0
LINE
  5
26F
330
1F
100
AcDbEntity
  8
0
100
AcDbLine
 10
2368.9478811015
 20
1004.2897634187
 30
0.0
 11
2368.9478811015
 21
1003.7897633949
 31
0.0
  0
LINE
  5
270
330
1F
100
AcDbEntity
  8
0
100
AcDbLine
 10
2368.9478811015
 20
984.7897630164
 30
0.0
 11
2368.9478811015
 21
984.2897638657
 31
0.0
  0
LINE
  5
271
330
1F
100
AcDbEntity
  8
0
100
AcDbLine
 10
2368.9478811015
 20
984.2897638657
 30
0.0
 11
2359.9478814889
 21
984.2897638657
 31
0.0
  0
LINE
  5
272
330
1F
100
AcDbEntity
  8
0
100
AcDbLine
 10
2359.9478814889
 20
984.2897638657
 30
0.0
 11
2359.9478814889
 21
985.2897640296
 31
0.0
  0
ARC
  5
273
330
1F
100
AcDbEntity
  8
0
100
AcDbCircle
 10
2361.9478811015
 20
985.2897634187
 30
0.0
 40
2.0
100
AcDbArc
 50
90.0
 51
180.0
  0
LINE
  5
274
330
1F
100
AcDbEntity
  8
0
100
AcDbLine
 10
2361.9478808854
 20
987.2897624948
 30
0.0
 11
2362.9478810493
 21
987.2897624948
 31
0.0
  0
ARC
  5
275
330
1F
100
AcDbEntity
  8
0
100
AcDbCircle
 10
2362.9478811015
 20
989.2897634187
 30
0.0
 40
2.0
100
AcDbArc
 50
270.0
 51
0.0
  0
LINE
  5
276
330
1F
100
AcDbEntity
  8
0
100
AcDbLine
 10
2364.9478809114
 20
989.289763754
 30
0.0
 11
2364.9478809114
 21
994.2897636422
 31
0.0
  0
ARC
  5
277
330
1F
100
AcDbEntity
  8
0
100
AcDbCircle
 10
2357.9478811015
 20
994.2897634187
 30
0.0
 40
7.000000000000455
100
AcDbArc
 50
0.0
 51
90.0
  0
LINE
  5
278
330
1F
100
AcDbEntity
  8
0
100
AcDbLine
 10
2357.947881161
 20
1001.2897633926
 30
0.0
 11
2345.9478810567
 21
1001.2897633926
 31
0.0
  0
LINE
  5
279
330
1F
100
AcDbEntity
  8
0
100
AcDbLine
 10
2345.9478810567
 20
1001.2897633926
 30
0.0
 11
2345.9478810567
 21
1002.2897633237
 31
0.0
  0
LINE
  5
27A
330
1F
100
AcDbEntity
  8
0
100
AcDbLine
 10
2357.947881161
 20
1002.2897633237
 30
0.0
 11
2345.9478810567
 21
1002.2897633237
 31
0.0
  0
ARC
  5
27B
330
1F
100
AcDbEntity
  8
0
100
AcDbCircle
 10
2362.9478811015
 20
989.2897634187
 30
0.0
 40
3.0
100
AcDbArc
 50
270.0
 51
0.0
  0
LINE
  5
27C
330
1F
100
AcDbEntity
  8
0
100
AcDbLine
 10
2361.9478808854
 20
986.2897641935
 30
0.0
 11
2362.9478810493
 21
986.2897641935
 31
0.0
  0
LINE
  5
27D
330
1F
100
AcDbEntity
  8
0
100
AcDbLine
 10
2359.9478814889
 20
1525.2897910752
 30
0.0
 11
2359.9478814889
 21
1004.2897634187
 31
0.0
  0
LINE
  5
27E
330
1F
100
AcDbEntity
  8
0
100
AcDbLine
 10
2368.9478811015
 20
1525.2897910752
 30
0.0
 11
2359.9478814889
 21
1525.2897910752
 31
0.0
  0
LINE
  5
27F
330
1F
100
AcDbEntity
  8
0
100
AcDbLine
 10
2368.9478811015
 20
1525.2897910752
 30
0.0
 11
2368.9478811015
 21
1004.2897634187
 31
0.0
  0
LINE
  5
280
330
1F
100
AcDbEntity
  8
0
100
AcDbLine
 10
2368.9478811015
 20
1004.2897634187
 30
0.0
 11
2359.9478814889
 21
1004.2897634187
 31
0.0
  0
LINE
  5
281
330
1F
100
AcDbEntity
  8
0
100
AcDbLine
 10
2357.947881161
 20
1525.2897910752
 30
0.0
 11
2357.947881161
 21
1004.2897634187
 31
0.0
  0
LINE
  5
282
330
1F
100
AcDbEntity
  8
0
100
AcDbLine
 10
2359.9478814889
 20
1004.2897634187
 30
0.0
 11
2357.947881161
 21
1004.2897634187
 31
0.0
  0
LINE
  5
283
330
1F
100
AcDbEntity
  8
0
100
AcDbLine
 10
2359.9478814889
 20
1525.2897910752
 30
0.0
 11
2357.947881161
 21
1525.2897910752
 31
0.0
  0
LINE
  5
284
330
1F
100
AcDbEntity
  8
0
100
AcDbLine
 10
2345.9478810567
 20
1525.2897910752
 30
0.0
 11
2345.9478810567
 21
1004.2897634187
 31
0.0
  0
LINE
  5
285
330
1F
100
AcDbEntity
  8
0
100
AcDbLine
 10
2357.947881161
 20
1004.2897634187
 30
0.0
 11
2345.9478810567
 21
1004.2897634187
 31
0.0
  0
LINE
  5
286
330
1F
100
AcDbEntity
  8
0
100
AcDbLine
 10
2357.947881161
 20
1525.2897910752
 30
0.0
 11
2345.9478810567
 21
1525.2897910752
 31
0.0
  0
LWPOLYLINE
  5
287
330
1F
100
AcDbEntity
  8
0
100
AcDbPolyline
 90
        9
 70
   128
 43
0.0
 10
1949.2506858099
 20
1456.758724896
 10
1949.283975004
 20
1456.7779473939
 10
1949.3825312842
 20
1456.8348400273
 10
1949.5425995577
 20
1456.9272570291
 10
1949.7580107439
 20
1457.0516221204
 10
1950.0204797972
 20
1457.2031669297
 10
1950.3199335325
 20
1457.3760502019
 10
1950.6448384512
 20
1457.563626019
 10
1950.9827371824
 20
1457.7587418237
  0
LINE
  5
288
330
1F
100
AcDbEntity
  8
0
100
AcDbLine
 10
2225.9473677862
 20
981.5060425528
 30
0.0
 11
1950.9827371824
 21
1457.7587418237
 31
0.0
  0
LINE
  5
289
330
1F
100
AcDbEntity
  8
0
100
AcDbLine
 10
1949.2506858099
 20
1456.758724896
 30
0.0
 11
2224.2153164137
 21
980.5060423889
 31
0.0
  0
LWPOLYLINE
  5
28A
330
1F
100
AcDbEntity
  8
0
100
AcDbPolyline
 90
        9
 70
   128
 43
0.0
 10
2225.9473677862
 20
981.5060425528
 10
2225.609469055
 20
981.3109509626
 10
2225.284534334
 20
981.1233583816
 10
2224.9850954998
 20
980.9504713842
 10
2224.7226264466
 20
980.7989358881
 10
2224.5072152603
 20
980.6745726594
 10
2224.347161888
 20
980.5821631082
 10
2224.2486056078
 20
980.5252555736
 10
2224.2153164137
 20
980.5060423889
  0
LINE
  5
28B
330
1F
100
AcDbEntity
  8
0
100
AcDbLine
 10
1950.4827436197
 20
1458.6247675099
 30
0.0
 11
1950.9827371824
 21
1457.7587418237
 31
0.0
  0
LINE
  5
28C
330
1F
100
AcDbEntity
  8
0
100
AcDbLine
 10
1957.4109491099
 20
1462.6247458139
 30
0.0
 11
1950.4827436197
 21
1458.6247675099
 31
0.0
  0
LINE
  5
28D
330
1F
100
AcDbEntity
  8
0
100
AcDbLine
 10
2233.375566839
 20
984.6400156596
 30
0.0
 11
1957.4109491099
 21
1462.6247458139
 31
0.0
  0
LINE
  5
28E
330
1F
100
AcDbEntity
  8
0
100
AcDbLine
 10
2226.4473613489
 20
980.6400168666
 30
0.0
 11
2233.375566839
 21
984.6400156596
 31
0.0
  0
LINE
  5
28F
330
1F
100
AcDbEntity
  8
0
100
AcDbLine
 10
2225.9473677862
 20
981.5060425528
 30
0.0
 11
2226.4473613489
 21
980.6400168666
 31
0.0
  0
LINE
  5
290
330
1F
100
AcDbEntity
  8
0
100
AcDbLine
 10
1949.982750057
 20
1459.4907931962
 30
0.0
 11
1956.9109555472
 21
1463.4907715001
 31
0.0
  0
LINE
  5
291
330
1F
100
AcDbEntity
  8
0
100
AcDbLine
 10
1950.4827436197
 20
1458.6247675099
 30
0.0
 11
1949.982750057
 21
1459.4907931962
 31
0.0
  0
LINE
  5
292
330
1F
100
AcDbEntity
  8
0
100
AcDbLine
 10
1957.4109491099
 20
1462.6247458139
 30
0.0
 11
1956.9109555472
 21
1463.4907715001
 31
0.0
  0
ARC
  5
293
330
1F
100
AcDbEntity
  8
0
100
AcDbCircle
 10
1950.9827507137
 20
1457.7587298692
 30
0.0
 40
1.999999999999967
100
AcDbArc
 50
120.0
 51
210.0
  0
ARC
  5
294
330
1F
100
AcDbEntity
  8
0
100
AcDbCircle
 10
1950.9827507137
 20
1457.7587298692
 30
0.0
 40
0.9999999999999684
100
AcDbArc
 50
120.0
 51
210.0
  0
LINE
  5
295
330
1F
100
AcDbEntity
  8
0
100
AcDbLine
 10
2233.375566839
 20
984.6400156596
 30
0.0
 11
2233.8755753029
 21
983.773991836
 31
0.0
  0
LINE
  5
296
330
1F
100
AcDbEntity
  8
0
100
AcDbLine
 10
2233.8755753029
 20
983.773991836
 30
0.0
 11
2226.9473698128
 21
979.7739911803
 31
0.0
  0
LINE
  5
297
330
1F
100
AcDbEntity
  8
0
100
AcDbLine
 10
2226.4473613489
 20
980.6400168666
 30
0.0
 11
2226.9473698128
 21
979.7739911803
 31
0.0
  0
ARC
  5
298
330
1F
100
AcDbEntity
  8
0
100
AcDbCircle
 10
2225.9473683996
 20
981.5060417536
 30
0.0
 40
1.000000000000533
100
AcDbArc
 50
210.0
 51
300.0
  0
ARC
  5
299
330
1F
100
AcDbEntity
  8
0
100
AcDbCircle
 10
2225.9473683996
 20
981.5060417536
 30
0.0
 40
2.000000000000164
100
AcDbArc
 50
210.0
 51
300.0
  0
LINE
  5
29A
330
1F
100
AcDbEntity
  8
0
100
AcDbLine
 10
2112.9996057738
 20
1525.8969835916
 30
0.0
 11
1968.9104434241
 21
1442.7070490995
 31
0.0
  0
SPLINE
  5
29B
330
1F
100
AcDbEntity
  8
0
100
AcDbSpline
210
0.0
220
0.0
230
1.0
 70
     8
 71
     3
 72
    11
 73
     7
 74
     0
 42
0.000000001
 43
0.00000001
 40
0.0
 40
0.0
 40
0.0
 40
0.0
 40
0.2500055676287898
 40
0.5000003785855218
 40
0.7499960820997036
 40
1.0
 40
1.0
 40
1.0
 40
1.0
 10
2112.999605773755
 20
1525.896983591565
 30
0.0
 10
2113.032656872954
 20
1525.881332772409
 30
0.0
 10
2113.098757649305
 20
1525.850031807485
 30
0.0
 10
2113.384038578397
 20
1525.480777711134
 30
0.0
 10
2113.768667077461
 20
1524.939420059463
 30
0.0
 10
2114.066779760209
 20
1524.506305288468
 30
0.0
 10
2114.215838550397
 20
1524.289744345196
 30
0.0
  0
SPLINE
  5
29C
330
1F
100
AcDbEntity
  8
0
100
AcDbSpline
210
0.0
220
0.0
230
1.0
 70
     8
 71
     3
 72
    11
 73
     7
 74
     0
 42
0.000000001
 43
0.00000001
 40
0.0
 40
0.0
 40
0.0
 40
0.0
 40
0.2500015764913852
 40
0.4999947295639907
 40
0.7499976646739459
 40
0.9999999999999999
 40
0.9999999999999999
 40
0.9999999999999999
 40
0.9999999999999999
 10
2114.215838550397
 20
1524.289744345196
 30
0.0
 10
2114.236636776601
 20
1524.551822528405
 30
0.0
 10
2114.278232528244
 20
1525.075970064501
 30
0.0
 10
2114.340694924133
 20
1525.737092657775
 30
0.0
 10
2114.403075596121
 20
1526.199605313583
 30
0.0
 10
2114.444706820261
 20
1526.259720595654
 30
0.0
 10
2114.465522407361
 20
1526.289778200635
 30
0.0
  0
LINE
  5
29D
330
1F
100
AcDbEntity
  8
0
100
AcDbLine
 10
2363.9478812132
 20
1526.2897782006
 30
0.0
 11
2114.4655224074
 21
1526.2897782006
 31
0.0
  0
LINE
  5
29E
330
1F
100
AcDbEntity
  8
0
100
AcDbLine
 10
2363.9478812132
 20
1526.2897782006
 30
0.0
 11
2363.9478812132
 21
1525.2897910752
 31
0.0
  0
LINE
  5
29F
330
1F
100
AcDbEntity
  8
0
100
AcDbLine
 10
2363.9478812132
 20
1003.2897633712
 30
0.0
 11
2222.608136772
 21
1003.2897633712
 31
0.0
  0
LINE
  5
2A0
330
1F
100
AcDbEntity
  8
0
100
AcDbLine
 10
2363.9478812132
 20
1004.2897634187
 30
0.0
 11
2363.9478812132
 21
1003.2897633712
 31
0.0
  0
LINE
  5
2A1
330
1F
100
AcDbEntity
  8
0
100
AcDbLine
 10
2361.9478808854
 20
1003.2897633712
 30
0.0
 11
2222.608136772
 21
1003.2897633712
 31
0.0
  0
LINE
  5
2A2
330
1F
100
AcDbEntity
  8
0
100
AcDbLine
 10
2361.9478808854
 20
1002.2897633237
 30
0.0
 11
2361.9478808854
 21
1003.2897633712
 31
0.0
  0
LINE
  5
2A3
330
1F
100
AcDbEntity
  8
0
100
AcDbLine
 10
2361.9478808854
 20
1002.2897633237
 30
0.0
 11
2223.1854822624
 21
1002.2897633237
 31
0.0
  0
LINE
  5
2A4
330
1F
100
AcDbEntity
  8
0
100
AcDbLine
 10
2363.9478812132
 20
1002.2897633237
 30
0.0
 11
2361.9478808854
 21
1002.2897633237
 31
0.0
  0
LINE
  5
2A5
330
1F
100
AcDbEntity
  8
0
100
AcDbLine
 10
2112.9478689421
 20
1527.0218424478
 30
0.0
 11
1968.4104498614
 21
1443.5730747857
 31
0.0
  0
LINE
  5
2A6
330
1F
100
AcDbEntity
  8
0
100
AcDbLine
 10
2113.4478923071
 20
1526.1557869592
 30
0.0
 11
2112.9478689421
 21
1527.0218424478
 31
0.0
  0
LINE
  5
2A7
330
1F
100
AcDbEntity
  8
0
100
AcDbLine
 10
2113.4478923071
 20
1526.1557869592
 30
0.0
 11
1968.9104434241
 21
1442.7070490995
 31
0.0
  0
LINE
  5
2A8
330
1F
100
AcDbEntity
  8
0
100
AcDbLine
 10
2113.9478858698
 20
1527.289765326
 30
0.0
 11
2113.9478858698
 21
1526.2897782006
 31
0.0
  0
ARC
  5
2A9
330
1F
100
AcDbEntity
  8
0
100
AcDbCircle
 10
2113.9478811014
 20
1525.2897634187
 30
0.0
 40
1.000000000000309
100
AcDbArc
 50
90.0
 51
120.0
  0
ARC
  5
2AA
330
1F
100
AcDbEntity
  8
0
100
AcDbCircle
 10
2113.9478811014
 20
1525.2897634187
 30
0.0
 40
2.0
100
AcDbArc
 50
90.0
 51
120.0
  0
LINE
  5
2AB
330
1F
100
AcDbEntity
  8
0
100
AcDbLine
 10
2361.9478808854
 20
1526.2897782006
 30
0.0
 11
2361.9478808854
 21
1527.289765326
 31
0.0
  0
LINE
  5
2AC
330
1F
100
AcDbEntity
  8
0
100
AcDbLine
 10
2361.9478808854
 20
1527.289765326
 30
0.0
 11
2363.9478812132
 21
1527.289765326
 31
0.0
  0
LINE
  5
2AD
330
1F
100
AcDbEntity
  8
0
100
AcDbLine
 10
2361.9478808854
 20
1527.289765326
 30
0.0
 11
2113.9478858698
 21
1527.289765326
 31
0.0
  0
LINE
  5
2AE
330
1F
100
AcDbEntity
  8
0
100
AcDbLine
 10
2361.9478808854
 20
1526.2897782006
 30
0.0
 11
2113.9478858698
 21
1526.2897782006
 31
0.0
  0
LINE
  5
2AF
330
1F
100
AcDbEntity
  8
0
100
AcDbLine
 10
2114.2158385504
 20
1524.2897443452
 30
0.0
 11
1969.9104305495
 21
1440.9749977269
 31
0.0
  0
LINE
  5
2B0
330
1F
100
AcDbEntity
  8
0
100
AcDbLine
 10
2345.9478810567
 20
1524.2897443452
 30
0.0
 11
2114.2158385504
 21
1524.2897443452
 31
0.0
  0
LINE
  5
2B1
330
1F
100
AcDbEntity
  8
0
100
AcDbLine
 10
2221.4534308899
 20
1005.2897634662
 30
0.0
 11
2345.9478810567
 21
1005.2897634662
 31
0.0
  0
LINE
  5
2B2
330
1F
100
AcDbEntity
  8
0
100
AcDbLine
 10
310.6481433571
 20
1523.7897805848
 30
0.0
 11
311.9481206597
 21
1522.4897436776
 31
0.0
  0
LINE
  5
2B3
330
1F
100
AcDbEntity
  8
0
100
AcDbLine
 10
314.3481612862
 20
1522.4897436776
 30
0.0
 11
315.6481385887
 21
1523.7897805848
 31
0.0
  0
LINE
  5
2B4
330
1F
100
AcDbEntity
  8
0
100
AcDbLine
 10
315.2481318176
 20
1523.7897805848
 30
0.0
 11
315.2481318176
 21
1525.2897910752
 31
0.0
  0
LINE
  5
2B5
330
1F
100
AcDbEntity
  8
0
100
AcDbLine
 10
311.0481501282
 20
1525.2897910752
 30
0.0
 11
311.0481501282
 21
1523.7897805848
 31
0.0
  0
LINE
  5
2B6
330
1F
100
AcDbEntity
  8
0
100
AcDbLine
 10
1363.1481528938
 20
1523.7897805848
 30
0.0
 11
1364.4481301964
 21
1522.4897436776
 31
0.0
  0
LINE
  5
2B7
330
1F
100
AcDbEntity
  8
0
100
AcDbLine
 10
1366.8481708229
 20
1522.4897436776
 30
0.0
 11
1368.1481481255
 21
1523.7897805848
 31
0.0
  0
LINE
  5
2B8
330
1F
100
AcDbEntity
  8
0
100
AcDbLine
 10
1367.7481413544
 20
1523.7897805848
 30
0.0
 11
1367.7481413544
 21
1525.2897910752
 31
0.0
  0
LINE
  5
2B9
330
1F
100
AcDbEntity
  8
0
100
AcDbLine
 10
1363.5481596649
 20
1525.2897910752
 30
0.0
 11
1363.5481596649
 21
1523.7897805848
 31
0.0
  0
LINE
  5
2BA
330
1F
100
AcDbEntity
  8
0
100
AcDbLine
 10
318.1481362045
 20
1005.7897634317
 30
0.0
 11
316.848158902
 21
1007.0897633188
 31
0.0
  0
LINE
  5
2BB
330
1F
100
AcDbEntity
  8
0
100
AcDbLine
 10
314.4481182755
 20
1007.0897633188
 30
0.0
 11
313.1481409729
 21
1005.7897634317
 31
0.0
  0
LINE
  5
2BC
330
1F
100
AcDbEntity
  8
0
100
AcDbLine
 10
313.548147744
 20
1005.7897634317
 30
0.0
 11
313.548147744
 21
1004.2897634187
 31
0.0
  0
LINE
  5
2BD
330
1F
100
AcDbEntity
  8
0
100
AcDbLine
 10
317.7481294335
 20
1004.2897634187
 30
0.0
 11
317.7481294335
 21
1005.7897634317
 31
0.0
  0
LINE
  5
2BE
330
1F
100
AcDbEntity
  8
0
100
AcDbLine
 10
1363.6069298447
 20
1443.3203212895
 30
0.0
 11
1364.6683693588
 21
1442.5697498002
 31
0.0
  0
LINE
  5
2BF
330
1F
100
AcDbEntity
  8
0
100
AcDbLine
 10
1366.6279316605
 20
1442.5697498002
 30
0.0
 11
1367.6893711746
 21
1443.3203212895
 31
0.0
  0
LINE
  5
2C0
330
1F
100
AcDbEntity
  8
0
100
AcDbLine
 10
1367.7481413544
 20
1444.7202257791
 30
0.0
 11
1367.7481413544
 21
1445.3410379567
 31
0.0
  0
LINE
  5
2C1
330
1F
100
AcDbEntity
  8
0
100
AcDbLine
 10
1363.5481596649
 20
1445.3410379567
 30
0.0
 11
1363.5481596649
 21
1444.7202257791
 31
0.0
  0
LINE
  5
2C2
330
1F
100
AcDbEntity
  8
0
100
AcDbLine
 10
311.1069203079
 20
1443.3203212895
 30
0.0
 11
312.1683598221
 21
1442.5697498002
 31
0.0
  0
LINE
  5
2C3
330
1F
100
AcDbEntity
  8
0
100
AcDbLine
 10
314.1279221237
 20
1442.5697498002
 30
0.0
 11
315.1893616379
 21
1443.3203212895
 31
0.0
  0
LINE
  5
2C4
330
1F
100
AcDbEntity
  8
0
100
AcDbLine
 10
315.2481318176
 20
1444.7202257791
 30
0.0
 11
315.2481318176
 21
1445.3410379567
 31
0.0
  0
LINE
  5
2C5
330
1F
100
AcDbEntity
  8
0
100
AcDbLine
 10
311.0481501282
 20
1445.3410379567
 30
0.0
 11
311.0481501282
 21
1444.7202257791
 31
0.0
  0
LINE
  5
2C6
330
1F
100
AcDbEntity
  8
0
100
AcDbLine
 10
1365.6481505097
 20
1005.7897634317
 30
0.0
 11
1364.3481732071
 21
1007.0897633188
 31
0.0
  0
LINE
  5
2C7
330
1F
100
AcDbEntity
  8
0
100
AcDbLine
 10
1361.9481325806
 20
1007.0897633188
 30
0.0
 11
1360.648155278
 21
1005.7897634317
 31
0.0
  0
LINE
  5
2C8
330
1F
100
AcDbEntity
  8
0
100
AcDbLine
 10
1361.0481620491
 20
1005.7897634317
 30
0.0
 11
1361.0481620491
 21
1004.2897634187
 31
0.0
  0
LINE
  5
2C9
330
1F
100
AcDbEntity
  8
0
100
AcDbLine
 10
1365.2481437386
 20
1004.2897634187
 30
0.0
 11
1365.2481437386
 21
1005.7897634317
 31
0.0
  0
LINE
  5
2CA
330
1F
100
AcDbEntity
  8
0
100
AcDbLine
 10
1363.6069298447
 20
1518.2690195718
 30
0.0
 11
1364.6683693588
 21
1517.5184778848
 31
0.0
  0
LINE
  5
2CB
330
1F
100
AcDbEntity
  8
0
100
AcDbLine
 10
1366.6279316605
 20
1517.5184778848
 30
0.0
 11
1367.6893711746
 21
1518.2690195718
 31
0.0
  0
LINE
  5
2CC
330
1F
100
AcDbEntity
  8
0
100
AcDbLine
 10
1367.7481413544
 20
1519.6689538636
 30
0.0
 11
1367.7481413544
 21
1520.289736239
 31
0.0
  0
LINE
  5
2CD
330
1F
100
AcDbEntity
  8
0
100
AcDbLine
 10
1363.5481596649
 20
1520.289736239
 30
0.0
 11
1363.5481596649
 21
1519.6689538636
 31
0.0
  0
LINE
  5
2CE
330
1F
100
AcDbEntity
  8
0
100
AcDbLine
 10
311.1069203079
 20
1518.2690195718
 30
0.0
 11
312.1683598221
 21
1517.5184778848
 31
0.0
  0
LINE
  5
2CF
330
1F
100
AcDbEntity
  8
0
100
AcDbLine
 10
314.1279221237
 20
1517.5184778848
 30
0.0
 11
315.1893616379
 21
1518.2690195718
 31
0.0
  0
LINE
  5
2D0
330
1F
100
AcDbEntity
  8
0
100
AcDbLine
 10
315.2481318176
 20
1519.6689538636
 30
0.0
 11
315.2481318176
 21
1520.289736239
 31
0.0
  0
LINE
  5
2D1
330
1F
100
AcDbEntity
  8
0
100
AcDbLine
 10
311.0481501282
 20
1520.289736239
 30
0.0
 11
311.0481501282
 21
1519.6689538636
 31
0.0
  0
LINE
  5
2D2
330
1F
100
AcDbEntity
  8
0
100
AcDbLine
 10
285.4281664551
 20
979.506042225
 30
0.0
 11
1393.3681250275
 21
979.506042225
 31
0.0
  0
LINE
  5
2D3
330
1F
100
AcDbEntity
  8
0
100
AcDbLine
 10
317.3443079651
 20
1438.9391116777
 30
0.0
 11
1361.4519835175
 21
1438.9391116777
 31
0.0
  0
ARC
  5
2D4
330
1F
100
AcDbEntity
  8
0
100
AcDbCircle
 10
1370.6481457413
 20
1524.2897634187
 30
0.0
 40
1.999999999999773
100
AcDbArc
 50
41.4096221092
 51
90.0
  0
ARC
  5
2D5
330
1F
100
AcDbEntity
  8
0
100
AcDbCircle
 10
1370.6481457413
 20
1005.2897634187
 30
0.0
 40
2.000000000000041
100
AcDbArc
 50
270.0
 51
318.5903778906999
  0
LWPOLYLINE
  5
2D6
330
1F
100
AcDbEntity
  8
0
100
AcDbPolyline
 90
        3
 70
   128
 43
0.0
 10
1372.1481562317
 20
1003.6283256115
 10
1371.9851971329
 20
1003.7341931813
 10
1371.9440103234
 20
1003.7663493051
  0
LINE
  5
2D7
330
1F
100
AcDbEntity
  8
0
100
AcDbLine
 10
1391.6481733978
 20
1005.5218142436
 30
0.0
 11
1390.6481266678
 21
1004.6557888193
 31
0.0
  0
LINE
  5
2D8
330
1F
100
AcDbEntity
  8
0
100
AcDbLine
 10
1390.2254701317
 20
1004.2897634187
 30
0.0
 11
1390.1481629074
 21
1004.2227761217
 31
0.0
  0
LINE
  5
2D9
330
1F
100
AcDbEntity
  8
0
100
AcDbLine
 10
1390.6481266678
 20
1436.1089937368
 30
0.0
 11
1391.6481733978
 21
1435.2429680505
 31
0.0
  0
LINE
  5
2DA
330
1F
100
AcDbEntity
  8
0
100
AcDbLine
 10
1391.6481733978
 20
1005.5218142436
 30
0.0
 11
1391.6481733978
 21
1435.2429680505
 31
0.0
  0
LINE
  5
2DB
330
1F
100
AcDbEntity
  8
0
100
AcDbLine
 10
1391.6481733978
 20
1005.1218142246
 30
0.0
 11
1391.6481733978
 21
1005.5218142436
 31
0.0
  0
LINE
  5
2DC
330
1F
100
AcDbEntity
  8
0
100
AcDbLine
 10
1360.648155278
 20
1525.030928103
 30
0.0
 11
1360.648155278
 21
1525.2897910752
 31
0.0
  0
LINE
  5
2DD
330
1F
100
AcDbEntity
  8
0
100
AcDbLine
 10
1370.6481457413
 20
1525.030928103
 30
0.0
 11
1367.7481413544
 21
1525.030928103
 31
0.0
  0
LINE
  5
2DE
330
1F
100
AcDbEntity
  8
0
100
AcDbLine
 10
1363.5481596649
 20
1525.030928103
 30
0.0
 11
1360.648155278
 21
1525.030928103
 31
0.0
  0
LINE
  5
2DF
330
1F
100
AcDbEntity
  8
0
100
AcDbLine
 10
1362.6481295288
 20
1438.341038672
 30
0.0
 11
1360.648155278
 21
1439.3410257974
 31
0.0
  0
LINE
  5
2E0
330
1F
100
AcDbEntity
  8
0
100
AcDbLine
 10
1360.648155278
 20
1439.3410257974
 30
0.0
 11
1360.648155278
 21
1525.030928103
 31
0.0
  0
LINE
  5
2E1
330
1F
100
AcDbEntity
  8
0
100
AcDbLine
 10
1370.6481457413
 20
1438.341038672
 30
0.0
 11
1362.6481295288
 21
1438.341038672
 31
0.0
  0
LWPOLYLINE
  5
2E2
330
1F
100
AcDbEntity
  8
0
100
AcDbPolyline
 90
        9
 70
   128
 43
0.0
 10
1367.7481413544
 20
1520.289736239
 10
1367.5882816971
 20
1520.691590754
 10
1367.133081025
 20
1521.0322312989
 10
1366.4517999352
 20
1521.2598614373
 10
1365.6481505097
 20
1521.339791266
 10
1364.8445010842
 20
1521.2598614373
 10
1364.1632199944
 20
1521.0322312989
 10
1363.7080193222
 20
1520.691590754
 10
1363.5481596649
 20
1520.289736239
  0
LWPOLYLINE
  5
2E3
330
1F
100
AcDbEntity
  8
0
100
AcDbPolyline
 90
        9
 70
   128
 43
0.0
 10
1367.7481413544
 20
1445.3410379567
 10
1367.5882816971
 20
1445.7428626695
 10
1367.133081025
 20
1446.0835032144
 10
1366.4517999352
 20
1446.3111035504
 10
1365.6481505097
 20
1446.3910333791
 10
1364.8445010842
 20
1446.3111035504
 10
1364.1632199944
 20
1446.0835032144
 10
1363.7080193222
 20
1445.7428626695
 10
1363.5481596649
 20
1445.3410379567
  0
LINE
  5
2E4
330
1F
100
AcDbEntity
  8
0
100
AcDbLine
 10
314.2141700447
 20
1522.4897436776
 30
0.0
 11
311.9481206597
 21
1522.4897436776
 31
0.0
  0
LINE
  5
2E5
330
1F
100
AcDbEntity
  8
0
100
AcDbLine
 10
314.3481612862
 20
1522.4897436776
 30
0.0
 11
314.2141700447
 21
1522.4897436776
 31
0.0
  0
LINE
  5
2E6
330
1F
100
AcDbEntity
  8
0
100
AcDbLine
 10
315.3689504326
 20
1523.7897805848
 30
0.0
 11
310.6481433571
 21
1523.7897805848
 31
0.0
  0
LINE
  5
2E7
330
1F
100
AcDbEntity
  8
0
100
AcDbLine
 10
315.6481385887
 20
1523.7897805848
 30
0.0
 11
315.3689504326
 21
1523.7897805848
 31
0.0
  0
LINE
  5
2E8
330
1F
100
AcDbEntity
  8
0
100
AcDbLine
 10
1364.6331430138
 20
1522.4897436776
 30
0.0
 11
1364.4481301964
 21
1522.4897436776
 31
0.0
  0
LINE
  5
2E9
330
1F
100
AcDbEntity
  8
0
100
AcDbLine
 10
1366.8481708229
 20
1522.4897436776
 30
0.0
 11
1364.6331430138
 21
1522.4897436776
 31
0.0
  0
LINE
  5
2EA
330
1F
100
AcDbEntity
  8
0
100
AcDbLine
 10
1363.533556527
 20
1523.7897805848
 30
0.0
 11
1363.1481528938
 21
1523.7897805848
 31
0.0
  0
LINE
  5
2EB
330
1F
100
AcDbEntity
  8
0
100
AcDbLine
 10
1368.1481481255
 20
1523.7897805848
 30
0.0
 11
1363.533556527
 21
1523.7897805848
 31
0.0
  0
LINE
  5
2EC
330
1F
100
AcDbEntity
  8
0
100
AcDbLine
 10
314.4481182755
 20
1007.0897633188
 30
0.0
 11
316.848158902
 21
1007.0897633188
 31
0.0
  0
LINE
  5
2ED
330
1F
100
AcDbEntity
  8
0
100
AcDbLine
 10
313.1481409729
 20
1005.7897634317
 30
0.0
 11
318.1481362045
 21
1005.7897634317
 31
0.0
  0
LWPOLYLINE
  5
2EE
330
1F
100
AcDbEntity
  8
0
100
AcDbPolyline
 90
       17
 70
   128
 43
0.0
 10
1365.6481505097
 20
1443.51615235
 10
1365.1888967217
 20
1443.4704951921
 10
1364.7996187866
 20
1443.3404378572
 10
1364.5395041168
 20
1443.1457690873
 10
1364.4481301964
 20
1442.9161719956
 10
1364.5395041168
 20
1442.6865451017
 10
1364.7996187866
 20
1442.4919061341
 10
1365.1888967217
 20
1442.3618487992
 10
1365.6481505097
 20
1442.316161839
 10
1366.107344693
 20
1442.3618487992
 10
1366.4966822327
 20
1442.4919061341
 10
1366.7567969025
 20
1442.6865451017
 10
1366.8481708229
 20
1442.9161719956
 10
1366.7567969025
 20
1443.1457690873
 10
1366.4966822327
 20
1443.3404378572
 10
1366.107344693
 20
1443.4704951921
 10
1365.6481505097
 20
1443.51615235
  0
LWPOLYLINE
  5
2EF
330
1F
100
AcDbEntity
  8
0
100
AcDbPolyline
 90
        7
 70
   128
 43
0.0
 10
1365.6481505097
 20
1445.2919833341
 10
1364.6914363564
 20
1445.196854321
 10
1363.8803959549
 20
1444.9258916059
 10
1363.3384705246
 20
1444.5203416028
 10
1363.1481528938
 20
1444.0419845262
 10
1363.3384705246
 20
1443.5636274495
 10
1363.6069298447
 20
1443.3203212895
  0
LWPOLYLINE
  5
2F0
330
1F
100
AcDbEntity
  8
0
100
AcDbPolyline
 90
        7
 70
   128
 43
0.0
 10
1367.6893711746
 20
1443.3203212895
 10
1367.9578304947
 20
1443.5636274495
 10
1368.1481481255
 20
1444.0419845262
 10
1367.9578304947
 20
1444.5203416028
 10
1367.4159050644
 20
1444.9258916059
 10
1366.604864663
 20
1445.196854321
 10
1365.6481505097
 20
1445.2919833341
  0
LWPOLYLINE
  5
2F1
330
1F
100
AcDbEntity
  8
0
100
AcDbPolyline
 90
       17
 70
   128
 43
0.0
 10
313.1481409729
 20
1443.51615235
 10
312.6889467896
 20
1443.4704951921
 10
312.2996092499
 20
1443.3404378572
 10
312.0394945801
 20
1443.1457690873
 10
311.9481206597
 20
1442.9161719956
 10
312.0394945801
 20
1442.6865451017
 10
312.2996092499
 20
1442.4919061341
 10
312.6889467896
 20
1442.3618487992
 10
313.1481409729
 20
1442.316161839
 10
313.6073947609
 20
1442.3618487992
 10
313.9966726959
 20
1442.4919061341
 10
314.2567873657
 20
1442.6865451017
 10
314.3481612862
 20
1442.9161719956
 10
314.2567873657
 20
1443.1457690873
 10
313.9966726959
 20
1443.3404378572
 10
313.6073947609
 20
1443.4704951921
 10
313.1481409729
 20
1443.51615235
  0
LWPOLYLINE
  5
2F2
330
1F
100
AcDbEntity
  8
0
100
AcDbPolyline
 90
        7
 70
   128
 43
0.0
 10
313.1481409729
 20
1445.2919833341
 10
312.1914268196
 20
1445.196854321
 10
311.3803864182
 20
1444.9258916059
 10
310.8384609879
 20
1444.5203416028
 10
310.6481433571
 20
1444.0419845262
 10
310.8384609879
 20
1443.5636274495
 10
311.1069203079
 20
1443.3203212895
  0
LWPOLYLINE
  5
2F3
330
1F
100
AcDbEntity
  8
0
100
AcDbPolyline
 90
        7
 70
   128
 43
0.0
 10
315.1893616379
 20
1443.3203212895
 10
315.457820958
 20
1443.5636274495
 10
315.6481385887
 20
1444.0419845262
 10
315.457820958
 20
1444.5203416028
 10
314.9158955277
 20
1444.9258916059
 10
314.1048551262
 20
1445.196854321
 10
313.1481409729
 20
1445.2919833341
  0
LINE
  5
2F4
330
1F
100
AcDbEntity
  8
0
100
AcDbLine
 10
1361.9481325806
 20
1007.0897633188
 30
0.0
 11
1364.3481732071
 21
1007.0897633188
 31
0.0
  0
LINE
  5
2F5
330
1F
100
AcDbEntity
  8
0
100
AcDbLine
 10
1360.648155278
 20
1005.7897634317
 30
0.0
 11
1365.6481505097
 21
1005.7897634317
 31
0.0
  0
LWPOLYLINE
  5
2F6
330
1F
100
AcDbEntity
  8
0
100
AcDbPolyline
 90
       17
 70
   128
 43
0.0
 10
1365.6481505097
 20
1518.4648804345
 10
1365.1888967217
 20
1518.4192232766
 10
1364.7996187866
 20
1518.2891659417
 10
1364.5395041168
 20
1518.0944971719
 10
1364.4481301964
 20
1517.8649000802
 10
1364.5395041168
 20
1517.6353029885
 10
1364.7996187866
 20
1517.4406342187
 10
1365.1888967217
 20
1517.3105768838
 10
1365.6481505097
 20
1517.2649197259
 10
1366.107344693
 20
1517.3105768838
 10
1366.4966822327
 20
1517.4406342187
 10
1366.7567969025
 20
1517.6353029885
 10
1366.8481708229
 20
1517.8649000802
 10
1366.7567969025
 20
1518.0944971719
 10
1366.4966822327
 20
1518.2891659417
 10
1366.107344693
 20
1518.4192232766
 10
1365.6481505097
 20
1518.4648804345
  0
LWPOLYLINE
  5
2F7
330
1F
100
AcDbEntity
  8
0
100
AcDbPolyline
 90
        7
 70
   128
 43
0.0
 10
1365.6481505097
 20
1520.240741221
 10
1364.6914363564
 20
1520.1455526033
 10
1363.8803959549
 20
1519.8745898881
 10
1363.3384705246
 20
1519.4690994897
 10
1363.1481528938
 20
1518.9907126107
 10
1363.3384705246
 20
1518.5123853364
 10
1363.6069298447
 20
1518.2690195718
  0
LWPOLYLINE
  5
2F8
330
1F
100
AcDbEntity
  8
0
100
AcDbPolyline
 90
        7
 70
   128
 43
0.0
 10
1367.6893711746
 20
1518.2690195718
 10
1367.9578304947
 20
1518.5123853364
 10
1368.1481481255
 20
1518.9907126107
 10
1367.9578304947
 20
1519.4690994897
 10
1367.4159050644
 20
1519.8745898881
 10
1366.604864663
 20
1520.1455526033
 10
1365.6481505097
 20
1520.240741221
  0
LWPOLYLINE
  5
2F9
330
1F
100
AcDbEntity
  8
0
100
AcDbPolyline
 90
       17
 70
   128
 43
0.0
 10
313.1481409729
 20
1518.4648804345
 10
312.6889467896
 20
1518.4192232766
 10
312.2996092499
 20
1518.2891659417
 10
312.0394945801
 20
1518.0944971719
 10
311.9481206597
 20
1517.8649000802
 10
312.0394945801
 20
1517.6353029885
 10
312.2996092499
 20
1517.4406342187
 10
312.6889467896
 20
1517.3105768838
 10
313.1481409729
 20
1517.2649197259
 10
313.6073947609
 20
1517.3105768838
 10
313.9966726959
 20
1517.4406342187
 10
314.2567873657
 20
1517.6353029885
 10
314.3481612862
 20
1517.8649000802
 10
314.2567873657
 20
1518.0944971719
 10
313.9966726959
 20
1518.2891659417
 10
313.6073947609
 20
1518.4192232766
 10
313.1481409729
 20
1518.4648804345
  0
LWPOLYLINE
  5
2FA
330
1F
100
AcDbEntity
  8
0
100
AcDbPolyline
 90
        7
 70
   128
 43
0.0
 10
313.1481409729
 20
1520.240741221
 10
312.1914268196
 20
1520.1455526033
 10
311.3803864182
 20
1519.8745898881
 10
310.8384609879
 20
1519.4690994897
 10
310.6481433571
 20
1518.9907126107
 10
310.8384609879
 20
1518.5123853364
 10
311.1069203079
 20
1518.2690195718
  0
LWPOLYLINE
  5
2FB
330
1F
100
AcDbEntity
  8
0
100
AcDbPolyline
 90
        7
 70
   128
 43
0.0
 10
315.1893616379
 20
1518.2690195718
 10
315.457820958
 20
1518.5123853364
 10
315.6481385887
 20
1518.9907126107
 10
315.457820958
 20
1519.4690994897
 10
314.9158955277
 20
1519.8745898881
 10
314.1048551262
 20
1520.1455526033
 10
313.1481409729
 20
1520.240741221
  0
LINE
  5
2FC
330
1F
100
AcDbEntity
  8
0
100
AcDbLine
 10
308.1481457413
 20
984.7897630164
 30
0.0
 11
307.6481223763
 21
984.7897630164
 31
0.0
  0
LINE
  5
2FD
330
1F
100
AcDbEntity
  8
0
100
AcDbLine
 10
307.6481223763
 20
984.7897630164
 30
0.0
 11
307.6481223763
 21
1002.7897634056
 31
0.0
  0
LINE
  5
2FE
330
1F
100
AcDbEntity
  8
0
100
AcDbLine
 10
307.6481223763
 20
1002.7897634056
 30
0.0
 11
308.1481457413
 21
1002.7897634056
 31
0.0
  0
ARC
  5
2FF
330
1F
100
AcDbEntity
  8
0
100
AcDbCircle
 10
293.6481457413
 20
989.7897634187
 30
0.0
 40
4.999999999999886
100
AcDbArc
 50
180.0
 51
270.0
  0
LINE
  5
300
330
1F
100
AcDbEntity
  8
0
100
AcDbLine
 10
288.6481285752
 20
1003.7897633949
 30
0.0
 11
288.6481285752
 21
989.7897638359
 31
0.0
  0
LINE
  5
301
330
1F
100
AcDbEntity
  8
0
100
AcDbLine
 10
306.6481352509
 20
1003.7897633949
 30
0.0
 11
288.6481285752
 21
1003.7897633949
 31
0.0
  0
LINE
  5
302
330
1F
100
AcDbEntity
  8
0
100
AcDbLine
 10
293.6481238068
 20
984.7897630164
 30
0.0
 11
307.6481223763
 21
984.7897630164
 31
0.0
  0
CIRCLE
  5
303
330
1F
100
AcDbEntity
  8
0
100
AcDbCircle
 10
298.3981457413
 20
994.5397634187
 30
0.0
 40
4.550000000000068
  0
LINE
  5
304
330
1F
100
AcDbEntity
  8
0
100
AcDbLine
 10
306.6481352509
 20
1003.7897633949
 30
0.0
 11
306.6481352509
 21
1002.7897634056
 31
0.0
  0
LINE
  5
305
330
1F
100
AcDbEntity
  8
0
100
AcDbLine
 10
306.6481352509
 20
1002.7897634056
 30
0.0
 11
307.6481223763
 21
1002.7897634056
 31
0.0
  0
LINE
  5
306
330
1F
100
AcDbEntity
  8
0
100
AcDbLine
 10
288.6481285752
 20
1003.7897633949
 30
0.0
 11
288.6481285752
 21
1004.2897634187
 31
0.0
  0
LINE
  5
307
330
1F
100
AcDbEntity
  8
0
100
AcDbLine
 10
306.6481352509
 20
1004.2897634187
 30
0.0
 11
306.6481352509
 21
1003.7897633949
 31
0.0
  0
ARC
  5
308
330
1F
100
AcDbEntity
  8
0
100
AcDbCircle
 10
1385.1481457413
 20
989.7897634187
 30
0.0
 40
4.999999999999886
100
AcDbArc
 50
270.0
 51
0.0
  0
LINE
  5
309
330
1F
100
AcDbEntity
  8
0
100
AcDbLine
 10
1371.1481691063
 20
984.7897630164
 30
0.0
 11
1385.1481676758
 21
984.7897630164
 31
0.0
  0
LINE
  5
30A
330
1F
100
AcDbEntity
  8
0
100
AcDbLine
 10
1371.1481691063
 20
1002.7897634056
 30
0.0
 11
1371.1481691063
 21
984.7897630164
 31
0.0
  0
LINE
  5
30B
330
1F
100
AcDbEntity
  8
0
100
AcDbLine
 10
1371.1481691063
 20
1002.7897634056
 30
0.0
 11
1372.1481562317
 21
1002.7897634056
 31
0.0
  0
LINE
  5
30C
330
1F
100
AcDbEntity
  8
0
100
AcDbLine
 10
1372.1481562317
 20
1002.7897634056
 30
0.0
 11
1372.1481562317
 21
1003.7897633949
 31
0.0
  0
LINE
  5
30D
330
1F
100
AcDbEntity
  8
0
100
AcDbLine
 10
1390.1481629074
 20
1003.7897633949
 30
0.0
 11
1372.1481562317
 21
1003.7897633949
 31
0.0
  0
LINE
  5
30E
330
1F
100
AcDbEntity
  8
0
100
AcDbLine
 10
1390.1481629074
 20
989.7897638359
 30
0.0
 11
1390.1481629074
 21
1003.7897633949
 31
0.0
  0
CIRCLE
  5
30F
330
1F
100
AcDbEntity
  8
0
100
AcDbCircle
 10
1380.3981457413
 20
994.5397634187
 30
0.0
 40
4.550000000000182
  0
LINE
  5
310
330
1F
100
AcDbEntity
  8
0
100
AcDbLine
 10
1372.1481562317
 20
1003.7897633949
 30
0.0
 11
1372.1481562317
 21
1004.2897634187
 31
0.0
  0
LINE
  5
311
330
1F
100
AcDbEntity
  8
0
100
AcDbLine
 10
1390.1481629074
 20
1004.2897634187
 30
0.0
 11
1390.1481629074
 21
1003.7897633949
 31
0.0
  0
LINE
  5
312
330
1F
100
AcDbEntity
  8
0
100
AcDbLine
 10
1370.6481457413
 20
1002.7897634056
 30
0.0
 11
1371.1481691063
 21
1002.7897634056
 31
0.0
  0
LINE
  5
313
330
1F
100
AcDbEntity
  8
0
100
AcDbLine
 10
1371.1481691063
 20
984.7897630164
 30
0.0
 11
1370.6481457413
 21
984.7897630164
 31
0.0
  0
ARC
  5
314
330
1F
100
AcDbEntity
  8
0
100
AcDbCircle
 10
1385.1481457413
 20
1539.7897634187
 30
0.0
 40
5.0
100
AcDbArc
 50
0.0
 51
90.0
  0
LINE
  5
315
330
1F
100
AcDbEntity
  8
0
100
AcDbLine
 10
1390.1481629074
 20
1525.7897548356
 30
0.0
 11
1390.1481629074
 21
1539.7897534051
 31
0.0
  0
LINE
  5
316
330
1F
100
AcDbEntity
  8
0
100
AcDbLine
 10
1372.1481562317
 20
1525.7897548356
 30
0.0
 11
1390.1481629074
 21
1525.7897548356
 31
0.0
  0
LINE
  5
317
330
1F
100
AcDbEntity
  8
0
100
AcDbLine
 10
1372.1481562317
 20
1525.7897548356
 30
0.0
 11
1372.1481562317
 21
1526.789741961
 31
0.0
  0
LINE
  5
318
330
1F
100
AcDbEntity
  8
0
100
AcDbLine
 10
1372.1481562317
 20
1526.789741961
 30
0.0
 11
1371.1481691063
 21
1526.789741961
 31
0.0
  0
LINE
  5
319
330
1F
100
AcDbEntity
  8
0
100
AcDbLine
 10
1371.1481691063
 20
1544.7897486367
 30
0.0
 11
1371.1481691063
 21
1526.789741961
 31
0.0
  0
LINE
  5
31A
330
1F
100
AcDbEntity
  8
0
100
AcDbLine
 10
1385.1481676758
 20
1544.7897486367
 30
0.0
 11
1371.1481691063
 21
1544.7897486367
 31
0.0
  0
CIRCLE
  5
31B
330
1F
100
AcDbEntity
  8
0
100
AcDbCircle
 10
1380.3981457413
 20
1535.0397634187
 30
0.0
 40
4.550000000000182
  0
LINE
  5
31C
330
1F
100
AcDbEntity
  8
0
100
AcDbLine
 10
1372.1481562317
 20
1525.2897910752
 30
0.0
 11
1372.1481562317
 21
1525.7897548356
 31
0.0
  0
LINE
  5
31D
330
1F
100
AcDbEntity
  8
0
100
AcDbLine
 10
1390.1481629074
 20
1525.7897548356
 30
0.0
 11
1390.1481629074
 21
1525.2897910752
 31
0.0
  0
LINE
  5
31E
330
1F
100
AcDbEntity
  8
0
100
AcDbLine
 10
1371.1481691063
 20
1526.789741961
 30
0.0
 11
1370.6481457413
 21
1526.789741961
 31
0.0
  0
LINE
  5
31F
330
1F
100
AcDbEntity
  8
0
100
AcDbLine
 10
1370.6481457413
 20
1544.7897486367
 30
0.0
 11
1371.1481691063
 21
1544.7897486367
 31
0.0
  0
ARC
  5
320
330
1F
100
AcDbEntity
  8
0
100
AcDbCircle
 10
293.6481457413
 20
1539.7897634187
 30
0.0
 40
5.0
100
AcDbArc
 50
90.0
 51
180.0
  0
LINE
  5
321
330
1F
100
AcDbEntity
  8
0
100
AcDbLine
 10
307.6481223763
 20
1544.7897486367
 30
0.0
 11
293.6481238068
 21
1544.7897486367
 31
0.0
  0
LINE
  5
322
330
1F
100
AcDbEntity
  8
0
100
AcDbLine
 10
307.6481223763
 20
1526.789741961
 30
0.0
 11
307.6481223763
 21
1544.7897486367
 31
0.0
  0
LINE
  5
323
330
1F
100
AcDbEntity
  8
0
100
AcDbLine
 10
288.6481285752
 20
1525.7897548356
 30
0.0
 11
306.6481352509
 21
1525.7897548356
 31
0.0
  0
LINE
  5
324
330
1F
100
AcDbEntity
  8
0
100
AcDbLine
 10
288.6481285752
 20
1539.7897534051
 30
0.0
 11
288.6481285752
 21
1525.7897548356
 31
0.0
  0
CIRCLE
  5
325
330
1F
100
AcDbEntity
  8
0
100
AcDbCircle
 10
298.3981457413
 20
1535.0397634187
 30
0.0
 40
4.550000000000068
  0
LINE
  5
326
330
1F
100
AcDbEntity
  8
0
100
AcDbLine
 10
306.6481352509
 20
1526.789741961
 30
0.0
 11
306.6481352509
 21
1525.7897548356
 31
0.0
  0
LINE
  5
327
330
1F
100
AcDbEntity
  8
0
100
AcDbLine
 10
307.6481223763
 20
1526.789741961
 30
0.0
 11
306.6481352509
 21
1526.789741961
 31
0.0
  0
LINE
  5
328
330
1F
100
AcDbEntity
  8
0
100
AcDbLine
 10
307.6481223763
 20
1544.7897486367
 30
0.0
 11
308.1481457413
 21
1544.7897486367
 31
0.0
  0
LINE
  5
329
330
1F
100
AcDbEntity
  8
0
100
AcDbLine
 10
308.1481457413
 20
1526.789741961
 30
0.0
 11
307.6481223763
 21
1526.789741961
 31
0.0
  0
LINE
  5
32A
330
1F
100
AcDbEntity
  8
0
100
AcDbLine
 10
288.6481285752
 20
1525.2897910752
 30
0.0
 11
288.6481285752
 21
1525.7897548356
 31
0.0
  0
LINE
  5
32B
330
1F
100
AcDbEntity
  8
0
100
AcDbLine
 10
306.6481352509
 20
1525.7897548356
 30
0.0
 11
306.6481352509
 21
1525.2897910752
 31
0.0
  0
LINE
  5
32C
330
1F
100
AcDbEntity
  8
0
100
AcDbLine
 10
1370.6481457413
 20
1545.2897720018
 30
0.0
 11
308.1481457413
 21
1545.2897720018
 31
0.0
  0
LINE
  5
32D
330
1F
100
AcDbEntity
  8
0
100
AcDbLine
 10
1370.6481457413
 20
1525.2897910752
 30
0.0
 11
1370.6481457413
 21
1545.2897720018
 31
0.0
  0
LINE
  5
32E
330
1F
100
AcDbEntity
  8
0
100
AcDbLine
 10
1370.6481457413
 20
1525.2897910752
 30
0.0
 11
308.1481457413
 21
1525.2897910752
 31
0.0
  0
LINE
  5
32F
330
1F
100
AcDbEntity
  8
0
100
AcDbLine
 10
308.1481457413
 20
1525.2897910752
 30
0.0
 11
308.1481457413
 21
1545.2897720018
 31
0.0
  0
LINE
  5
330
330
1F
100
AcDbEntity
  8
0
100
AcDbLine
 10
308.1481457413
 20
984.2897638657
 30
0.0
 11
1370.6481457413
 21
984.2897638657
 31
0.0
  0
LINE
  5
331
330
1F
100
AcDbEntity
  8
0
100
AcDbLine
 10
308.1481457413
 20
1004.2897634187
 30
0.0
 11
308.1481457413
 21
984.2897638657
 31
0.0
  0
LINE
  5
332
330
1F
100
AcDbEntity
  8
0
100
AcDbLine
 10
1370.6481457413
 20
1004.2897634187
 30
0.0
 11
1370.6481457413
 21
984.2897638657
 31
0.0
  0
LINE
  5
333
330
1F
100
AcDbEntity
  8
0
100
AcDbLine
 10
308.1481457413
 20
1004.2897634187
 30
0.0
 11
1370.6481457413
 21
1004.2897634187
 31
0.0
  0
LINE
  5
334
330
1F
100
AcDbEntity
  8
0
100
AcDbLine
 10
1390.6481266678
 20
1004.2897634187
 30
0.0
 11
1390.6481266678
 21
1525.2897910752
 31
0.0
  0
LINE
  5
335
330
1F
100
AcDbEntity
  8
0
100
AcDbLine
 10
1370.6481457413
 20
1004.2897634187
 30
0.0
 11
1370.6481457413
 21
1525.2897910752
 31
0.0
  0
LINE
  5
336
330
1F
100
AcDbEntity
  8
0
100
AcDbLine
 10
1370.6481457413
 20
1525.2897910752
 30
0.0
 11
1390.6481266678
 21
1525.2897910752
 31
0.0
  0
LINE
  5
337
330
1F
100
AcDbEntity
  8
0
100
AcDbLine
 10
1370.6481457413
 20
1004.2897634187
 30
0.0
 11
1390.6481266678
 21
1004.2897634187
 31
0.0
  0
LINE
  5
338
330
1F
100
AcDbEntity
  8
0
100
AcDbLine
 10
288.1481648148
 20
1525.2897910752
 30
0.0
 11
288.1481648148
 21
1004.2897634187
 31
0.0
  0
LINE
  5
339
330
1F
100
AcDbEntity
  8
0
100
AcDbLine
 10
308.1481457413
 20
1525.2897910752
 30
0.0
 11
288.1481648148
 21
1525.2897910752
 31
0.0
  0
LINE
  5
33A
330
1F
100
AcDbEntity
  8
0
100
AcDbLine
 10
308.1481457413
 20
1004.2897634187
 30
0.0
 11
288.1481648148
 21
1004.2897634187
 31
0.0
  0
LINE
  5
33B
330
1F
100
AcDbEntity
  8
0
100
AcDbLine
 10
308.1481457413
 20
1525.2897910752
 30
0.0
 11
308.1481457413
 21
1004.2897634187
 31
0.0
  0
LINE
  5
33C
330
1F
100
AcDbEntity
  8
0
100
AcDbLine
 10
285.648167199
 20
1457.3587350526
 30
0.0
 11
285.648167199
 21
984.6400156596
 31
0.0
  0
LINE
  5
33D
330
1F
100
AcDbEntity
  8
0
100
AcDbLine
 10
1393.1481242836
 20
1457.3587350526
 30
0.0
 11
1390.6481266678
 21
1457.3587350526
 31
0.0
  0
LINE
  5
33E
330
1F
100
AcDbEntity
  8
0
100
AcDbLine
 10
288.1481648148
 20
1457.3587350526
 30
0.0
 11
285.648167199
 21
1457.3587350526
 31
0.0
  0
LINE
  5
33F
330
1F
100
AcDbEntity
  8
0
100
AcDbLine
 10
1393.1481242836
 20
984.6400156596
 30
0.0
 11
1393.1481242836
 21
1457.3587350526
 31
0.0
  0
LINE
  5
340
330
1F
100
AcDbEntity
  8
0
100
AcDbLine
 10
284.1452956856
 20
984.6400156596
 30
0.0
 11
283.1453085602
 21
984.6400156596
 31
0.0
  0
LINE
  5
341
330
1F
100
AcDbEntity
  8
0
100
AcDbLine
 10
284.1452956856
 20
980.6400168666
 30
0.0
 11
284.1452956856
 21
984.6400156596
 31
0.0
  0
LINE
  5
342
330
1F
100
AcDbEntity
  8
0
100
AcDbLine
 10
284.1452956856
 20
980.6400168666
 30
0.0
 11
283.1453085602
 21
980.6400168666
 31
0.0
  0
LINE
  5
343
330
1F
100
AcDbEntity
  8
0
100
AcDbLine
 10
283.1453085602
 20
980.6400168666
 30
0.0
 11
283.1453085602
 21
984.6400156596
 31
0.0
  0
LINE
  5
344
330
1F
100
AcDbEntity
  8
0
100
AcDbLine
 10
283.1453085602
 20
984.6400156596
 30
0.0
 11
283.1453085602
 21
1462.6247458139
 31
0.0
  0
LINE
  5
345
330
1F
100
AcDbEntity
  8
0
100
AcDbLine
 10
284.1452956856
 20
1462.6247458139
 30
0.0
 11
283.1453085602
 21
1462.6247458139
 31
0.0
  0
LINE
  5
346
330
1F
100
AcDbEntity
  8
0
100
AcDbLine
 10
284.1452956856
 20
984.6400156596
 30
0.0
 11
284.1452956856
 21
1462.6247458139
 31
0.0
  0
LWPOLYLINE
  5
347
330
1F
100
AcDbEntity
  8
0
100
AcDbPolyline
 90
        3
 70
   128
 43
0.0
 10
284.1452956856
 20
980.6400168666
 10
284.3799591721
 20
980.5821631082
 10
284.4281197251
 20
980.572542546
  0
ARC
  5
348
330
1F
100
AcDbEntity
  8
0
100
AcDbCircle
 10
284.5790767134
 20
981.5691153884
 30
0.0
 40
0.4383425175169222
100
AcDbArc
 50
188.272971264
 51
249.8559642913
  0
LWPOLYLINE
  5
349
330
1F
100
AcDbEntity
  8
0
100
AcDbPolyline
 90
        9
 70
   128
 43
0.0
 10
285.145282811
 20
1457.2587184587
 10
284.9501968086
 20
1457.2683446088
 10
284.7626209915
 20
1457.2967760244
 10
284.589707917
 20
1457.3429994264
 10
284.43819291
 20
1457.4051670709
 10
284.313857621
 20
1457.4809543767
 10
284.221410817
 20
1457.5673811116
 10
284.1644883812
 20
1457.6611988225
 10
284.1452956856
 20
1457.7587418237
  0
LINE
  5
34A
330
1F
100
AcDbEntity
  8
0
100
AcDbLine
 10
285.648167199
 20
1456.8232469239
 30
0.0
 11
285.145282811
 21
1457.2587184587
 31
0.0
  0
LINE
  5
34B
330
1F
100
AcDbEntity
  8
0
100
AcDbLine
 10
1394.650995797
 20
980.6400168666
 30
0.0
 11
1395.6509829224
 21
980.6400168666
 31
0.0
  0
LINE
  5
34C
330
1F
100
AcDbEntity
  8
0
100
AcDbLine
 10
1394.650995797
 20
984.6400156596
 30
0.0
 11
1395.6509829224
 21
984.6400156596
 31
0.0
  0
LINE
  5
34D
330
1F
100
AcDbEntity
  8
0
100
AcDbLine
 10
1394.650995797
 20
984.6400156596
 30
0.0
 11
1394.650995797
 21
980.6400168666
 31
0.0
  0
LINE
  5
34E
330
1F
100
AcDbEntity
  8
0
100
AcDbLine
 10
1395.6509829224
 20
984.6400156596
 30
0.0
 11
1395.6509829224
 21
980.6400168666
 31
0.0
  0
LINE
  5
34F
330
1F
100
AcDbEntity
  8
0
100
AcDbLine
 10
1394.650995797
 20
1462.6247458139
 30
0.0
 11
1395.6509829224
 21
1462.6247458139
 31
0.0
  0
LINE
  5
350
330
1F
100
AcDbEntity
  8
0
100
AcDbLine
 10
1394.650995797
 20
1462.6247458139
 30
0.0
 11
1394.650995797
 21
984.6400156596
 31
0.0
  0
LINE
  5
351
330
1F
100
AcDbEntity
  8
0
100
AcDbLine
 10
1395.6509829224
 20
1462.6247458139
 30
0.0
 11
1395.6509829224
 21
984.6400156596
 31
0.0
  0
LWPOLYLINE
  5
352
330
1F
100
AcDbEntity
  8
0
100
AcDbPolyline
 90
        3
 70
   128
 43
0.0
 10
1394.3681717575
 20
980.572542546
 10
1394.4163323105
 20
980.5821631082
 10
1394.650995797
 20
980.6400168666
  0
ARC
  5
353
330
1F
100
AcDbEntity
  8
0
100
AcDbCircle
 10
1394.2172147692
 20
981.5691153884
 30
0.0
 40
0.4383425175170346
100
AcDbArc
 50
290.1440357087
 51
351.727028736
  0
LWPOLYLINE
  5
354
330
1F
100
AcDbEntity
  8
0
100
AcDbPolyline
 90
        9
 70
   128
 43
0.0
 10
1394.650995797
 20
1457.7587418237
 10
1394.6318031014
 20
1457.6611988225
 10
1394.5748806656
 20
1457.5673811116
 10
1394.4824338616
 20
1457.4809543767
 10
1394.3580985726
 20
1457.4051670709
 10
1394.2065835655
 20
1457.3429994264
 10
1394.033670491
 20
1457.2967760244
 10
1393.8460946739
 20
1457.2683446088
 10
1393.6510086716
 20
1457.2587184587
  0
LINE
  5
355
330
1F
100
AcDbEntity
  8
0
100
AcDbLine
 10
1393.6510086716
 20
1457.2587184587
 30
0.0
 11
1393.1481242836
 21
1456.8232469239
 31
0.0
  0
LINE
  5
356
330
1F
100
AcDbEntity
  8
0
100
AcDbLine
 10
1393.1481242836
 20
1457.0681922116
 30
0.0
 11
1393.3681250275
 21
1457.2587184587
 31
0.0
  0
LINE
  5
357
330
1F
100
AcDbEntity
  8
0
100
AcDbLine
 10
1393.3681250275
 20
1457.013773171
 30
0.0
 11
1393.3681250275
 21
1457.2587184587
 31
0.0
  0
LINE
  5
358
330
1F
100
AcDbEntity
  8
0
100
AcDbLine
 10
285.4281664551
 20
1457.2587184587
 30
0.0
 11
285.648167199
 21
1457.0681922116
 31
0.0
  0
LINE
  5
359
330
1F
100
AcDbEntity
  8
0
100
AcDbLine
 10
285.4281664551
 20
1457.013773171
 30
0.0
 11
285.4281664551
 21
1457.2587184587
 31
0.0
  0
LINE
  5
35A
330
1F
100
AcDbEntity
  8
0
100
AcDbLine
 10
284.4281197251
 20
1462.6247458139
 30
0.0
 11
284.4281197251
 21
1463.4907715001
 31
0.0
  0
LINE
  5
35B
330
1F
100
AcDbEntity
  8
0
100
AcDbLine
 10
284.4281197251
 20
1463.4907715001
 30
0.0
 11
288.1481648148
 21
1463.4907715001
 31
0.0
  0
LINE
  5
35C
330
1F
100
AcDbEntity
  8
0
100
AcDbLine
 10
1390.6481266678
 20
1463.4907715001
 30
0.0
 11
1394.3681717575
 21
1463.4907715001
 31
0.0
  0
LINE
  5
35D
330
1F
100
AcDbEntity
  8
0
100
AcDbLine
 10
1394.3681717575
 20
1462.6247458139
 30
0.0
 11
1394.3681717575
 21
1463.4907715001
 31
0.0
  0
LINE
  5
35E
330
1F
100
AcDbEntity
  8
0
100
AcDbLine
 10
284.4281197251
 20
1462.6247458139
 30
0.0
 11
288.1481648148
 21
1462.6247458139
 31
0.0
  0
LINE
  5
35F
330
1F
100
AcDbEntity
  8
0
100
AcDbLine
 10
1390.6481266678
 20
1462.6247458139
 30
0.0
 11
1394.3681717575
 21
1462.6247458139
 31
0.0
  0
LINE
  5
360
330
1F
100
AcDbEntity
  8
0
100
AcDbLine
 10
1394.3681717575
 20
1462.6247458139
 30
0.0
 11
1394.3681717575
 21
1458.6247675099
 31
0.0
  0
LINE
  5
361
330
1F
100
AcDbEntity
  8
0
100
AcDbLine
 10
1394.3681717575
 20
1458.6247675099
 30
0.0
 11
1393.3681250275
 21
1458.6247675099
 31
0.0
  0
LINE
  5
362
330
1F
100
AcDbEntity
  8
0
100
AcDbLine
 10
285.4281664551
 20
1458.6247675099
 30
0.0
 11
284.4281197251
 21
1458.6247675099
 31
0.0
  0
LINE
  5
363
330
1F
100
AcDbEntity
  8
0
100
AcDbLine
 10
284.4281197251
 20
1458.6247675099
 30
0.0
 11
284.4281197251
 21
1462.6247458139
 31
0.0
  0
LINE
  5
364
330
1F
100
AcDbEntity
  8
0
100
AcDbLine
 10
285.4281664551
 20
1458.6247675099
 30
0.0
 11
285.4281664551
 21
1457.2587184587
 31
0.0
  0
LINE
  5
365
330
1F
100
AcDbEntity
  8
0
100
AcDbLine
 10
1393.3681250275
 20
1457.2587184587
 30
0.0
 11
1393.3681250275
 21
1458.6247675099
 31
0.0
  0
LINE
  5
366
330
1F
100
AcDbEntity
  8
0
100
AcDbLine
 10
1394.3681717575
 20
983.773991836
 30
0.0
 11
284.4281197251
 21
983.773991836
 31
0.0
  0
LINE
  5
367
330
1F
100
AcDbEntity
  8
0
100
AcDbLine
 10
284.4281197251
 20
984.6400156596
 30
0.0
 11
284.4281197251
 21
983.773991836
 31
0.0
  0
LINE
  5
368
330
1F
100
AcDbEntity
  8
0
100
AcDbLine
 10
1394.3681717575
 20
984.6400156596
 30
0.0
 11
1370.6481457413
 21
984.6400156596
 31
0.0
  0
LINE
  5
369
330
1F
100
AcDbEntity
  8
0
100
AcDbLine
 10
308.1481457413
 20
984.6400156596
 30
0.0
 11
284.4281197251
 21
984.6400156596
 31
0.0
  0
LINE
  5
36A
330
1F
100
AcDbEntity
  8
0
100
AcDbLine
 10
1394.3681717575
 20
984.6400156596
 30
0.0
 11
1394.3681717575
 21
983.773991836
 31
0.0
  0
LINE
  5
36B
330
1F
100
AcDbEntity
  8
0
100
AcDbLine
 10
284.4281197251
 20
979.7739911803
 30
0.0
 11
285.4281664551
 21
979.7739911803
 31
0.0
  0
LINE
  5
36C
330
1F
100
AcDbEntity
  8
0
100
AcDbLine
 10
284.4281197251
 20
983.773991836
 30
0.0
 11
284.4281197251
 21
979.7739911803
 31
0.0
  0
LINE
  5
36D
330
1F
100
AcDbEntity
  8
0
100
AcDbLine
 10
1393.3681250275
 20
979.7739911803
 30
0.0
 11
1394.3681717575
 21
979.7739911803
 31
0.0
  0
LINE
  5
36E
330
1F
100
AcDbEntity
  8
0
100
AcDbLine
 10
1393.3681250275
 20
979.7739911803
 30
0.0
 11
285.4281664551
 21
979.7739911803
 31
0.0
  0
LINE
  5
36F
330
1F
100
AcDbEntity
  8
0
100
AcDbLine
 10
1394.3681717575
 20
979.7739911803
 30
0.0
 11
1394.3681717575
 21
983.773991836
 31
0.0
  0
LINE
  5
370
330
1F
100
AcDbEntity
  8
0
100
AcDbLine
 10
285.4281664551
 20
979.506042225
 30
0.0
 11
285.4281664551
 21
979.7739911803
 31
0.0
  0
LINE
  5
371
330
1F
100
AcDbEntity
  8
0
100
AcDbLine
 10
1393.3681250275
 20
979.7739911803
 30
0.0
 11
1393.3681250275
 21
979.506042225
 31
0.0
  0
ARC
  5
372
330
1F
100
AcDbEntity
  8
0
100
AcDbCircle
 10
308.1481457413
 20
1524.2897634187
 30
0.0
 40
2.0
100
AcDbArc
 50
90.0
 51
138.5903778906
  0
ARC
  5
373
330
1F
100
AcDbEntity
  8
0
100
AcDbCircle
 10
308.1481457413
 20
1005.2897634187
 30
0.0
 40
2.0
100
AcDbArc
 50
221.4096221093
 51
270.0
  0
LWPOLYLINE
  5
374
330
1F
100
AcDbEntity
  8
0
100
AcDbPolyline
 90
        3
 70
   128
 43
0.0
 10
306.6481352509
 20
1003.6283256115
 10
306.8110943497
 20
1003.7341931813
 10
306.8522811592
 20
1003.7663493051
  0
LINE
  5
375
330
1F
100
AcDbEntity
  8
0
100
AcDbLine
 10
288.1481648148
 20
1436.1089937368
 30
0.0
 11
287.1481180847
 21
1435.2429680505
 31
0.0
  0
LINE
  5
376
330
1F
100
AcDbEntity
  8
0
100
AcDbLine
 10
287.1481180847
 20
1005.5218142436
 30
0.0
 11
288.1481648148
 21
1004.6557888193
 31
0.0
  0
LINE
  5
377
330
1F
100
AcDbEntity
  8
0
100
AcDbLine
 10
288.5708213509
 20
1004.2897634187
 30
0.0
 11
288.6481285752
 21
1004.2227761217
 31
0.0
  0
LINE
  5
378
330
1F
100
AcDbEntity
  8
0
100
AcDbLine
 10
287.1481180847
 20
1005.5218142436
 30
0.0
 11
287.1481180847
 21
1435.2429680505
 31
0.0
  0
LINE
  5
379
330
1F
100
AcDbEntity
  8
0
100
AcDbLine
 10
287.1481180847
 20
1005.1218142246
 30
0.0
 11
287.1481180847
 21
1005.5218142436
 31
0.0
  0
LINE
  5
37A
330
1F
100
AcDbEntity
  8
0
100
AcDbLine
 10
308.1481457413
 20
1525.030928103
 30
0.0
 11
311.0481501282
 21
1525.030928103
 31
0.0
  0
LINE
  5
37B
330
1F
100
AcDbEntity
  8
0
100
AcDbLine
 10
315.2481318176
 20
1525.030928103
 30
0.0
 11
318.1481362045
 21
1525.030928103
 31
0.0
  0
LINE
  5
37C
330
1F
100
AcDbEntity
  8
0
100
AcDbLine
 10
318.1481362045
 20
1439.3410257974
 30
0.0
 11
318.1481362045
 21
1525.030928103
 31
0.0
  0
LINE
  5
37D
330
1F
100
AcDbEntity
  8
0
100
AcDbLine
 10
316.1481619538
 20
1438.341038672
 30
0.0
 11
318.1481362045
 21
1439.3410257974
 31
0.0
  0
LINE
  5
37E
330
1F
100
AcDbEntity
  8
0
100
AcDbLine
 10
308.1481457413
 20
1438.341038672
 30
0.0
 11
316.1481619538
 21
1438.341038672
 31
0.0
  0
LWPOLYLINE
  5
37F
330
1F
100
AcDbEntity
  8
0
100
AcDbPolyline
 90
       10
 70
   128
 43
0.0
 10
311.0481501282
 20
1520.289736239
 10
311.2080097855
 20
1520.691590754
 10
311.6632104576
 20
1521.0322312989
 10
312.3444915474
 20
1521.2598614373
 10
313.1481409729
 20
1521.339791266
 10
313.9517903984
 20
1521.2598614373
 10
314.6330714882
 20
1521.0322312989
 10
315.0882721604
 20
1520.691590754
 10
315.2481318176
 20
1520.289736239
 10
315.2481318176
 20
1520.289736239
  0
LWPOLYLINE
  5
380
330
1F
100
AcDbEntity
  8
0
100
AcDbPolyline
 90
        9
 70
   128
 43
0.0
 10
311.0481501282
 20
1445.3410379567
 10
311.2080097855
 20
1445.7428626695
 10
311.6632104576
 20
1446.0835032144
 10
312.3444915474
 20
1446.3111035504
 10
313.1481409729
 20
1446.3910333791
 10
313.9517903984
 20
1446.3111035504
 10
314.6330714882
 20
1446.0835032144
 10
315.0882721604
 20
1445.7428626695
 10
315.2481318176
 20
1445.3410379567
  0
LINE
  5
381
330
1F
100
AcDbEntity
  8
0
100
AcDbLine
 10
318.1481362045
 20
1525.030928103
 30
0.0
 11
318.1481362045
 21
1525.2897910752
 31
0.0
  0
LINE
  5
382
330
1F
100
AcDbEntity
  8
0
100
AcDbLine
 10
285.145282811
 20
1457.2587184587
 30
0.0
 11
285.145282811
 21
984.6400156596
 31
0.0
  0
LINE
  5
383
330
1F
100
AcDbEntity
  8
0
100
AcDbLine
 10
1393.6510086716
 20
984.6400156596
 30
0.0
 11
1393.6510086716
 21
1457.2587184587
 31
0.0
  0
LINE
  5
384
330
1F
100
AcDbEntity
  8
0
100
AcDbLine
 10
1393.3681250275
 20
1457.2587184587
 30
0.0
 11
1393.1481242836
 21
1457.2587184587
 31
0.0
  0
LINE
  5
385
330
1F
100
AcDbEntity
  8
0
100
AcDbLine
 10
285.648167199
 20
1457.2587184587
 30
0.0
 11
285.4281664551
 21
1457.2587184587
 31
0.0
  0
LINE
  5
386
330
1F
100
AcDbEntity
  8
0
100
AcDbLine
 10
1393.3681250275
 20
1458.6247675099
 30
0.0
 11
1390.6481266678
 21
1458.6247675099
 31
0.0
  0
LINE
  5
387
330
1F
100
AcDbEntity
  8
0
100
AcDbLine
 10
288.1481648148
 20
1458.6247675099
 30
0.0
 11
285.4281664551
 21
1458.6247675099
 31
0.0
  0
LINE
  5
388
330
1F
100
AcDbEntity
  8
0
100
AcDbLine
 10
1360.9160781563
 20
1439.2070643582
 30
0.0
 11
317.8802133263
 21
1439.2070643582
 31
0.0
  0
LINE
  5
389
330
1F
100
AcDbEntity
  8
0
100
AcDbLine
 10
1362.3269200981
 20
587.2166128743
 30
0.0
 11
1363.3883596123
 21
586.466041385
 31
0.0
  0
LINE
  5
38A
330
1F
100
AcDbEntity
  8
0
100
AcDbLine
 10
1365.3479219139
 20
586.466041385
 30
0.0
 11
1366.4093614281
 21
587.2166128743
 31
0.0
  0
LINE
  5
38B
330
1F
100
AcDbEntity
  8
0
100
AcDbLine
 10
1366.4681316078
 20
588.6165173638
 30
0.0
 11
1366.4681316078
 21
589.2373295415
 31
0.0
  0
LINE
  5
38C
330
1F
100
AcDbEntity
  8
0
100
AcDbLine
 10
1362.2681499184
 20
589.2373295415
 30
0.0
 11
1362.2681499184
 21
588.6165173638
 31
0.0
  0
LINE
  5
38D
330
1F
100
AcDbEntity
  8
0
100
AcDbLine
 10
1212.3354674042
 20
587.2166128743
 30
0.0
 11
1213.3969069184
 21
586.466041385
 31
0.0
  0
LINE
  5
38E
330
1F
100
AcDbEntity
  8
0
100
AcDbLine
 10
1215.3564990223
 20
586.466041385
 30
0.0
 11
1216.4179683388
 21
587.2166128743
 31
0.0
  0
LINE
  5
38F
330
1F
100
AcDbEntity
  8
0
100
AcDbLine
 10
1216.4767087162
 20
588.6165173638
 30
0.0
 11
1216.4767087162
 21
589.2373295415
 31
0.0
  0
LINE
  5
390
330
1F
100
AcDbEntity
  8
0
100
AcDbLine
 10
1212.2767270268
 20
589.2373295415
 30
0.0
 11
1212.2767270268
 21
588.6165173638
 31
0.0
  0
LINE
  5
391
330
1F
100
AcDbEntity
  8
0
100
AcDbLine
 10
1378.1097531975
 20
578.4666212189
 30
0.0
 11
1379.1711927117
 21
577.7160497296
 31
0.0
  0
LINE
  5
392
330
1F
100
AcDbEntity
  8
0
100
AcDbLine
 10
1381.1307550133
 20
577.7160497296
 30
0.0
 11
1382.1922541321
 21
578.4666212189
 31
0.0
  0
LINE
  5
393
330
1F
100
AcDbEntity
  8
0
100
AcDbLine
 10
1382.2509647072
 20
579.8665257085
 30
0.0
 11
1382.2509647072
 21
580.4873378861
 31
0.0
  0
LINE
  5
394
330
1F
100
AcDbEntity
  8
0
100
AcDbLine
 10
1378.0509830177
 20
580.4873378861
 30
0.0
 11
1378.0509830177
 21
579.8665257085
 31
0.0
  0
LINE
  5
395
330
1F
100
AcDbEntity
  8
0
100
AcDbLine
 10
296.6040373505
 20
334.5019938338
 30
0.0
 11
297.6655364693
 21
333.7514372456
 31
0.0
  0
LINE
  5
396
330
1F
100
AcDbEntity
  8
0
100
AcDbLine
 10
299.6250987709
 20
333.7514372456
 30
0.0
 11
300.6865382851
 21
334.5019938338
 31
0.0
  0
LINE
  5
397
330
1F
100
AcDbEntity
  8
0
100
AcDbLine
 10
300.7453084648
 20
335.9019132245
 30
0.0
 11
300.7453084648
 21
336.522710501
 31
0.0
  0
LINE
  5
398
330
1F
100
AcDbEntity
  8
0
100
AcDbLine
 10
296.5453267754
 20
336.522710501
 30
0.0
 11
296.5453267754
 21
335.9019132245
 31
0.0
  0
LINE
  5
399
330
1F
100
AcDbEntity
  8
0
100
AcDbLine
 10
1378.1097531975
 20
529.6736927617
 30
0.0
 11
1379.1711927117
 21
528.9231212723
 31
0.0
  0
LINE
  5
39A
330
1F
100
AcDbEntity
  8
0
100
AcDbLine
 10
1381.1307550133
 20
528.9231212723
 30
0.0
 11
1382.1922541321
 21
529.6736927617
 31
0.0
  0
LINE
  5
39B
330
1F
100
AcDbEntity
  8
0
100
AcDbLine
 10
1382.2509647072
 20
531.0735972512
 30
0.0
 11
1382.2509647072
 21
531.6944094289
 31
0.0
  0
LINE
  5
39C
330
1F
100
AcDbEntity
  8
0
100
AcDbLine
 10
1378.0509830177
 20
531.6944094289
 30
0.0
 11
1378.0509830177
 21
531.0735972512
 31
0.0
  0
LINE
  5
39D
330
1F
100
AcDbEntity
  8
0
100
AcDbLine
 10
296.6040373505
 20
383.2949073899
 30
0.0
 11
297.6655364693
 21
382.5443508017
 31
0.0
  0
LINE
  5
39E
330
1F
100
AcDbEntity
  8
0
100
AcDbLine
 10
299.6250987709
 20
382.5443508017
 30
0.0
 11
300.6865382851
 21
383.2949073899
 31
0.0
  0
LINE
  5
39F
330
1F
100
AcDbEntity
  8
0
100
AcDbLine
 10
300.7453084648
 20
384.6948267806
 30
0.0
 11
300.7453084648
 21
385.3156389582
 31
0.0
  0
LINE
  5
3A0
330
1F
100
AcDbEntity
  8
0
100
AcDbLine
 10
296.5453267754
 20
385.3156389582
 30
0.0
 11
296.5453267754
 21
384.6948267806
 31
0.0
  0
LINE
  5
3A1
330
1F
100
AcDbEntity
  8
0
100
AcDbLine
 10
1062.3440445126
 20
587.2166128743
 30
0.0
 11
1063.4054989279
 21
586.466041385
 31
0.0
  0
LINE
  5
3A2
330
1F
100
AcDbEntity
  8
0
100
AcDbLine
 10
1065.3650910319
 20
586.466041385
 30
0.0
 11
1066.426530546
 21
587.2166128743
 31
0.0
  0
LINE
  5
3A3
330
1F
100
AcDbEntity
  8
0
100
AcDbLine
 10
1066.4852858246
 20
588.6165173638
 30
0.0
 11
1066.4852858246
 21
589.2373295415
 31
0.0
  0
LINE
  5
3A4
330
1F
100
AcDbEntity
  8
0
100
AcDbLine
 10
1062.285289234
 20
589.2373295415
 30
0.0
 11
1062.285289234
 21
588.6165173638
 31
0.0
  0
LINE
  5
3A5
330
1F
100
AcDbEntity
  8
0
100
AcDbLine
 10
462.3783231438
 20
587.2166128743
 30
0.0
 11
463.4397924603
 21
586.466041385
 31
0.0
  0
LINE
  5
3A6
330
1F
100
AcDbEntity
  8
0
100
AcDbLine
 10
465.3993845642
 20
586.466041385
 30
0.0
 11
466.4608240784
 21
587.2166128743
 31
0.0
  0
LINE
  5
3A7
330
1F
100
AcDbEntity
  8
0
100
AcDbLine
 10
466.5195644558
 20
588.6165173638
 30
0.0
 11
466.5195644558
 21
589.2373295415
 31
0.0
  0
LINE
  5
3A8
330
1F
100
AcDbEntity
  8
0
100
AcDbLine
 10
462.3195827664
 20
589.2373295415
 30
0.0
 11
462.3195827664
 21
588.6165173638
 31
0.0
  0
LINE
  5
3A9
330
1F
100
AcDbEntity
  8
0
100
AcDbLine
 10
1378.1097531975
 20
334.5019938338
 30
0.0
 11
1379.1711927117
 21
333.7514372456
 31
0.0
  0
LINE
  5
3AA
330
1F
100
AcDbEntity
  8
0
100
AcDbLine
 10
1381.1307550133
 20
333.7514372456
 30
0.0
 11
1382.1922541321
 21
334.5019938338
 31
0.0
  0
LINE
  5
3AB
330
1F
100
AcDbEntity
  8
0
100
AcDbLine
 10
1382.2509647072
 20
335.9019132245
 30
0.0
 11
1382.2509647072
 21
336.522710501
 31
0.0
  0
LINE
  5
3AC
330
1F
100
AcDbEntity
  8
0
100
AcDbLine
 10
1378.0509830177
 20
336.522710501
 30
0.0
 11
1378.0509830177
 21
335.9019132245
 31
0.0
  0
LINE
  5
3AD
330
1F
100
AcDbEntity
  8
0
100
AcDbLine
 10
1378.1097531975
 20
383.2949073899
 30
0.0
 11
1379.1711927117
 21
382.5443508017
 31
0.0
  0
LINE
  5
3AE
330
1F
100
AcDbEntity
  8
0
100
AcDbLine
 10
1381.1307550133
 20
382.5443508017
 30
0.0
 11
1382.1922541321
 21
383.2949073899
 31
0.0
  0
LINE
  5
3AF
330
1F
100
AcDbEntity
  8
0
100
AcDbLine
 10
1382.2509647072
 20
384.6948267806
 30
0.0
 11
1382.2509647072
 21
385.3156389582
 31
0.0
  0
LINE
  5
3B0
330
1F
100
AcDbEntity
  8
0
100
AcDbLine
 10
1378.0509830177
 20
385.3156389582
 30
0.0
 11
1378.0509830177
 21
384.6948267806
 31
0.0
  0
LINE
  5
3B1
330
1F
100
AcDbEntity
  8
0
100
AcDbLine
 10
1378.1097531975
 20
480.8807643044
 30
0.0
 11
1379.1711927117
 21
480.1301928151
 31
0.0
  0
LINE
  5
3B2
330
1F
100
AcDbEntity
  8
0
100
AcDbLine
 10
1381.1307550133
 20
480.1301928151
 30
0.0
 11
1382.1922541321
 21
480.8807643044
 31
0.0
  0
LINE
  5
3B3
330
1F
100
AcDbEntity
  8
0
100
AcDbLine
 10
1382.2509647072
 20
482.2806687939
 30
0.0
 11
1382.2509647072
 21
482.9014809716
 31
0.0
  0
LINE
  5
3B4
330
1F
100
AcDbEntity
  8
0
100
AcDbLine
 10
1378.0509830177
 20
482.9014809716
 30
0.0
 11
1378.0509830177
 21
482.2806687939
 31
0.0
  0
LINE
  5
3B5
330
1F
100
AcDbEntity
  8
0
100
AcDbLine
 10
296.6040373505
 20
578.4666212189
 30
0.0
 11
297.6655364693
 21
577.7160497296
 31
0.0
  0
LINE
  5
3B6
330
1F
100
AcDbEntity
  8
0
100
AcDbLine
 10
299.6250987709
 20
577.7160497296
 30
0.0
 11
300.6865382851
 21
578.4666212189
 31
0.0
  0
LINE
  5
3B7
330
1F
100
AcDbEntity
  8
0
100
AcDbLine
 10
300.7453084648
 20
579.8665257085
 30
0.0
 11
300.7453084648
 21
580.4873378861
 31
0.0
  0
LINE
  5
3B8
330
1F
100
AcDbEntity
  8
0
100
AcDbLine
 10
296.5453267754
 20
580.4873378861
 30
0.0
 11
296.5453267754
 21
579.8665257085
 31
0.0
  0
LINE
  5
3B9
330
1F
100
AcDbEntity
  8
0
100
AcDbLine
 10
1378.1097531975
 20
432.0878358472
 30
0.0
 11
1379.1711927117
 21
431.3372941601
 31
0.0
  0
LINE
  5
3BA
330
1F
100
AcDbEntity
  8
0
100
AcDbLine
 10
1381.1307550133
 20
431.3372941601
 30
0.0
 11
1382.1922541321
 21
432.0878358472
 31
0.0
  0
LINE
  5
3BB
330
1F
100
AcDbEntity
  8
0
100
AcDbLine
 10
1382.2509647072
 20
433.487770139
 30
0.0
 11
1382.2509647072
 21
434.1085525143
 31
0.0
  0
LINE
  5
3BC
330
1F
100
AcDbEntity
  8
0
100
AcDbLine
 10
1378.0509830177
 20
434.1085525143
 30
0.0
 11
1378.0509830177
 21
433.487770139
 31
0.0
  0
LINE
  5
3BD
330
1F
100
AcDbEntity
  8
0
100
AcDbLine
 10
296.6040373505
 20
432.0878358472
 30
0.0
 11
297.6655364693
 21
431.3372941601
 31
0.0
  0
LINE
  5
3BE
330
1F
100
AcDbEntity
  8
0
100
AcDbLine
 10
299.6250987709
 20
431.3372941601
 30
0.0
 11
300.6865382851
 21
432.0878358472
 31
0.0
  0
LINE
  5
3BF
330
1F
100
AcDbEntity
  8
0
100
AcDbLine
 10
300.7453084648
 20
433.487770139
 30
0.0
 11
300.7453084648
 21
434.1085525143
 31
0.0
  0
LINE
  5
3C0
330
1F
100
AcDbEntity
  8
0
100
AcDbLine
 10
296.5453267754
 20
434.1085525143
 30
0.0
 11
296.5453267754
 21
433.487770139
 31
0.0
  0
LINE
  5
3C1
330
1F
100
AcDbEntity
  8
0
100
AcDbLine
 10
296.6040373505
 20
529.6736927617
 30
0.0
 11
297.6655364693
 21
528.9231212723
 31
0.0
  0
LINE
  5
3C2
330
1F
100
AcDbEntity
  8
0
100
AcDbLine
 10
299.6250987709
 20
528.9231212723
 30
0.0
 11
300.6865382851
 21
529.6736927617
 31
0.0
  0
LINE
  5
3C3
330
1F
100
AcDbEntity
  8
0
100
AcDbLine
 10
300.7453084648
 20
531.0735972512
 30
0.0
 11
300.7453084648
 21
531.6944094289
 31
0.0
  0
LINE
  5
3C4
330
1F
100
AcDbEntity
  8
0
100
AcDbLine
 10
296.5453267754
 20
531.6944094289
 30
0.0
 11
296.5453267754
 21
531.0735972512
 31
0.0
  0
LINE
  5
3C5
330
1F
100
AcDbEntity
  8
0
100
AcDbLine
 10
912.352621621
 20
587.2166128743
 30
0.0
 11
913.4140611351
 21
586.466041385
 31
0.0
  0
LINE
  5
3C6
330
1F
100
AcDbEntity
  8
0
100
AcDbLine
 10
915.3736532391
 20
586.466041385
 30
0.0
 11
916.4351002038
 21
587.2166128743
 31
0.0
  0
LINE
  5
3C7
330
1F
100
AcDbEntity
  8
0
100
AcDbLine
 10
916.493862933
 20
588.6165173638
 30
0.0
 11
916.493862933
 21
589.2373295415
 31
0.0
  0
LINE
  5
3C8
330
1F
100
AcDbEntity
  8
0
100
AcDbLine
 10
912.2938588918
 20
589.2373295415
 30
0.0
 11
912.2938588918
 21
588.6165173638
 31
0.0
  0
LINE
  5
3C9
330
1F
100
AcDbEntity
  8
0
100
AcDbLine
 10
762.3611912788
 20
587.2166128743
 30
0.0
 11
763.4226382435
 21
586.466041385
 31
0.0
  0
LINE
  5
3CA
330
1F
100
AcDbEntity
  8
0
100
AcDbLine
 10
765.3822303475
 20
586.466041385
 30
0.0
 11
766.4436698616
 21
587.2166128743
 31
0.0
  0
LINE
  5
3CB
330
1F
100
AcDbEntity
  8
0
100
AcDbLine
 10
766.5024325908
 20
588.6165173638
 30
0.0
 11
766.5024325908
 21
589.2373295415
 31
0.0
  0
LINE
  5
3CC
330
1F
100
AcDbEntity
  8
0
100
AcDbLine
 10
762.3024285496
 20
589.2373295415
 30
0.0
 11
762.3024285496
 21
588.6165173638
 31
0.0
  0
LINE
  5
3CD
330
1F
100
AcDbEntity
  8
0
100
AcDbLine
 10
612.3697609366
 20
587.2166128743
 30
0.0
 11
613.4312004507
 21
586.466041385
 31
0.0
  0
LINE
  5
3CE
330
1F
100
AcDbEntity
  8
0
100
AcDbLine
 10
615.3907925547
 20
586.466041385
 30
0.0
 11
616.45224697
 21
587.2166128743
 31
0.0
  0
LINE
  5
3CF
330
1F
100
AcDbEntity
  8
0
100
AcDbLine
 10
616.5110022486
 20
588.6165173638
 30
0.0
 11
616.5110022486
 21
589.2373295415
 31
0.0
  0
LINE
  5
3D0
330
1F
100
AcDbEntity
  8
0
100
AcDbLine
 10
612.311005658
 20
589.2373295415
 30
0.0
 11
612.311005658
 21
588.6165173638
 31
0.0
  0
LINE
  5
3D1
330
1F
100
AcDbEntity
  8
0
100
AcDbLine
 10
296.6040373505
 20
480.8807643044
 30
0.0
 11
297.6655364693
 21
480.1301928151
 31
0.0
  0
LINE
  5
3D2
330
1F
100
AcDbEntity
  8
0
100
AcDbLine
 10
299.6250987709
 20
480.1301928151
 30
0.0
 11
300.6865382851
 21
480.8807643044
 31
0.0
  0
LINE
  5
3D3
330
1F
100
AcDbEntity
  8
0
100
AcDbLine
 10
300.7453084648
 20
482.2806687939
 30
0.0
 11
300.7453084648
 21
482.9014809716
 31
0.0
  0
LINE
  5
3D4
330
1F
100
AcDbEntity
  8
0
100
AcDbLine
 10
296.5453267754
 20
482.9014809716
 30
0.0
 11
296.5453267754
 21
482.2806687939
 31
0.0
  0
LINE
  5
3D5
330
1F
100
AcDbEntity
  8
0
100
AcDbLine
 10
312.3869300545
 20
587.2166128743
 30
0.0
 11
313.4483695687
 21
586.466041385
 31
0.0
  0
LINE
  5
3D6
330
1F
100
AcDbEntity
  8
0
100
AcDbLine
 10
315.4079318703
 20
586.466041385
 30
0.0
 11
316.4693713844
 21
587.2166128743
 31
0.0
  0
LINE
  5
3D7
330
1F
100
AcDbEntity
  8
0
100
AcDbLine
 10
316.5281415642
 20
588.6165173638
 30
0.0
 11
316.5281415642
 21
589.2373295415
 31
0.0
  0
LINE
  5
3D8
330
1F
100
AcDbEntity
  8
0
100
AcDbLine
 10
312.3281598747
 20
589.2373295415
 30
0.0
 11
312.3281598747
 21
588.6165173638
 31
0.0
  0
LINE
  5
3D9
330
1F
100
AcDbEntity
  8
0
100
AcDbLine
 10
1393.3681250275
 20
597.9873211968
 30
0.0
 11
285.4281664551
 21
597.9873211968
 31
0.0
  0
LINE
  5
3DA
330
1F
100
AcDbEntity
  8
0
100
AcDbLine
 10
1370.6481457413
 20
183.0222029153
 30
0.0
 11
1372.3801971138
 21
183.0222029153
 31
0.0
  0
SPLINE
  5
3DB
330
1F
100
AcDbEntity
  8
0
100
AcDbSpline
210
0.0
220
0.0
230
1.0
 70
     8
 71
     3
 72
    11
 73
     7
 74
     0
 42
0.000000001
 43
0.00000001
 40
0.0
 40
0.0
 40
0.0
 40
0.0
 40
0.2500015764913852
 40
0.4999947295639907
 40
0.7499976646739459
 40
0.9999999999999999
 40
0.9999999999999999
 40
0.9999999999999999
 40
0.9999999999999999
 10
1372.648119992083
 20
432.7542455780684
 30
0.0
 10
1372.618058665769
 20
432.7334473518645
 30
0.0
 10
1372.557937026012
 20
432.6918516002208
 30
0.0
 10
1372.095485972023
 20
432.6293892043331
 30
0.0
 10
1371.434384406071
 20
432.5670085323441
 30
0.0
 10
1370.910225086631
 20
432.5253773082046
 30
0.0
 10
1370.648145741289
 20
432.5045617211043
 30
0.0
  0
LINE
  5
3DC
330
1F
100
AcDbEntity
  8
0
100
AcDbLine
 10
1372.6481199921
 20
183.0222029153
 30
0.0
 11
1372.6481199921
 21
189.0222029674
 31
0.0
  0
LINE
  5
3DD
330
1F
100
AcDbEntity
  8
0
100
AcDbLine
 10
1372.6481199921
 20
201.0222030717
 30
0.0
 11
1372.6481199921
 21
432.7542455781
 31
0.0
  0
SPLINE
  5
3DE
330
1F
100
AcDbEntity
  8
0
100
AcDbSpline
210
0.0
220
0.0
230
1.0
 70
     8
 71
     3
 72
    11
 73
     7
 74
     0
 42
0.000000001
 43
0.00000001
 40
0.0
 40
0.0
 40
0.0
 40
0.0
 40
0.250019459897567
 40
0.500024970480342
 40
0.750006816142832
 40
1.0
 40
1.0
 40
1.0
 40
1.0
 10
1371.648132866686
 20
432.7542455780684
 30
0.0
 10
1371.633104687544
 20
432.7334472586536
 30
0.0
 10
1371.603049167727
 20
432.6918517802227
 30
0.0
 10
1371.371802158857
 20
432.6293944888124
 30
0.0
 10
1371.04121740113
 20
432.5670061681007
 30
0.0
 10
1370.779171608753
 20
432.5253768514531
 30
0.0
 10
1370.648145741289
 20
432.5045617211043
 30
0.0
  0
LINE
  5
3DF
330
1F
100
AcDbEntity
  8
0
100
AcDbLine
 10
1371.6481328667
 20
432.7542455781
 30
0.0
 11
1372.6481199921
 21
432.7542455781
 31
0.0
  0
SPLINE
  5
3E0
330
1F
100
AcDbEntity
  8
0
100
AcDbSpline
210
0.0
220
0.0
230
1.0
 70
     8
 71
     3
 72
    11
 73
     7
 74
     0
 42
0.000000001
 43
0.00000001
 40
0.0
 40
0.0
 40
0.0
 40
0.0
 40
0.2500055676287898
 40
0.5000003785855218
 40
0.7499960820997036
 40
1.0
 40
1.0
 40
1.0
 40
1.0
 10
1370.648145741289
 20
433.9704783547103
 30
0.0
 10
1370.910221991133
 20
433.9374272555111
 30
0.0
 10
1371.434363214799
 20
433.8713264791605
 30
0.0
 10
1372.095503441445
 20
433.5860455500685
 30
0.0
 10
1372.557934169218
 20
433.2014170510039
 30
0.0
 10
1372.618057721875
 20
432.9033043682566
 30
0.0
 10
1372.648119992083
 20
432.7542455780684
 30
0.0
  0
LWPOLYLINE
  5
3E1
330
1F
100
AcDbEntity
  8
0
100
AcDbPolyline
 90
        9
 70
   128
 43
0.0
 10
1372.6481199921
 20
583.1218333829
 10
1372.6097346008
 20
583.3169193852
 10
1372.4958897293
 20
583.5044952023
 10
1372.3110557259
 20
583.6773784745
 10
1372.0623851479
 20
583.8289232838
 10
1371.7592955292
 20
583.9532883752
 10
1371.4135289849
 20
584.0457053769
 10
1371.038317746
 20
584.1025980103
 10
1370.6481457413
 20
584.1218205083
  0
LINE
  5
3E2
330
1F
100
AcDbEntity
  8
0
100
AcDbLine
 10
1372.6481199921
 20
432.7542455781
 30
0.0
 11
1372.6481199921
 21
583.1218333829
 31
0.0
  0
SPLINE
  5
3E3
330
1F
100
AcDbEntity
  8
0
100
AcDbSpline
210
0.0
220
0.0
230
1.0
 70
     8
 71
     3
 72
    11
 73
     7
 74
     0
 42
0.000000001
 43
0.00000001
 40
0.0
 40
0.0
 40
0.0
 40
0.0
 40
0.2499846769238271
 40
0.4999886408094497
 40
0.7499805956714648
 40
0.9999999999999999
 40
0.9999999999999999
 40
0.9999999999999999
 40
0.9999999999999999
 10
1370.648145741289
 20
433.4704847920119
 30
0.0
 10
1370.779175933129
 20
433.444949478595
 30
0.0
 10
1371.041246426125
 20
433.3938768816462
 30
0.0
 10
1371.371773758999
 20
433.2241831105977
 30
0.0
 10
1371.603057870885
 20
433.0048802111227
 30
0.0
 10
1371.633107318204
 20
432.8377935133109
 30
0.0
 10
1371.648132866686
 20
432.7542455780684
 30
0.0
  0
ARC
  5
3E4
330
1F
100
AcDbEntity
  8
0
100
AcDbCircle
 10
1373.5856978257
 20
583.0495784003
 30
0.0
 40
0.9403578981385587
100
AcDbArc
 50
86.1909801423
 51
175.5931777511
  0
LINE
  5
3E5
330
1F
100
AcDbEntity
  8
0
100
AcDbLine
 10
1373.6481667221
 20
583.9878590691
 30
0.0
 11
1373.6481667221
 21
333.8882299054
 31
0.0
  0
ARC
  5
3E6
330
1F
100
AcDbEntity
  8
0
100
AcDbCircle
 10
1373.5856754988
 20
332.9499750186
 30
0.0
 40
0.9403336565456224
100
AcDbArc
 50
86.1895183827
 51
175.5946395106
  0
ARC
  5
3E7
330
1F
100
AcDbEntity
  8
0
100
AcDbCircle
 10
1373.4844428914
 20
582.9236331334
 30
0.0
 40
1.894341957348937
100
AcDbArc
 50
111.9484914025
 51
148.4887683409
  0
LINE
  5
3E8
330
1F
100
AcDbEntity
  8
0
100
AcDbLine
 10
1389.6481395424
 20
584.6806736577
 30
0.0
 11
1389.6481395424
 21
583.9878590691
 31
0.0
  0
LINE
  5
3E9
330
1F
100
AcDbEntity
  8
0
100
AcDbLine
 10
1389.6481395424
 20
583.9878590691
 30
0.0
 11
1373.6481667221
 21
583.9878590691
 31
0.0
  0
LINE
  5
3EA
330
1F
100
AcDbEntity
  8
0
100
AcDbLine
 10
1391.6481733978
 20
582.9878421414
 30
0.0
 11
1391.6481733978
 21
583.68065673
 31
0.0
  0
LINE
  5
3EB
330
1F
100
AcDbEntity
  8
0
100
AcDbLine
 10
1389.6481395424
 20
583.9878590691
 30
0.0
 11
1391.6481733978
 21
582.9878421414
 31
0.0
  0
LINE
  5
3EC
330
1F
100
AcDbEntity
  8
0
100
AcDbLine
 10
1391.6481733978
 20
334.8882319319
 30
0.0
 11
1389.6481395424
 21
333.8882299054
 31
0.0
  0
LINE
  5
3ED
330
1F
100
AcDbEntity
  8
0
100
AcDbLine
 10
1373.6481667221
 20
333.8882299054
 30
0.0
 11
1378.9777160347
 21
333.8882299054
 31
0.0
  0
LINE
  5
3EE
330
1F
100
AcDbEntity
  8
0
100
AcDbLine
 10
1381.3242316902
 20
333.8882299054
 30
0.0
 11
1389.6481395424
 21
333.8882299054
 31
0.0
  0
LINE
  5
3EF
330
1F
100
AcDbEntity
  8
0
100
AcDbLine
 10
1391.6481733978
 20
334.8882319319
 30
0.0
 11
1391.6481733978
 21
582.9878421414
 31
0.0
  0
LWPOLYLINE
  5
3F0
330
1F
100
AcDbEntity
  8
0
100
AcDbPolyline
 90
        5
 70
   128
 43
0.0
 10
1380.1509738625
 20
337.5727208245
 10
1380.954623288
 20
337.4927909959
 10
1381.6359043778
 20
337.2651757586
 10
1382.0911646546
 20
336.9245352137
 10
1382.2509647072
 20
336.522710501
  0
LWPOLYLINE
  5
3F1
330
1F
100
AcDbEntity
  8
0
100
AcDbPolyline
 90
        5
 70
   128
 43
0.0
 10
1378.0509830177
 20
336.522710501
 10
1378.210842675
 20
336.9245352137
 10
1378.6660433472
 20
337.2651757586
 10
1379.347324437
 20
337.4927909959
 10
1380.1509738625
 20
337.5727208245
  0
LWPOLYLINE
  5
3F2
330
1F
100
AcDbEntity
  8
0
100
AcDbPolyline
 90
        5
 70
   128
 43
0.0
 10
1380.1509738625
 20
386.3656343806
 10
1380.954623288
 20
386.2857194531
 10
1381.6359043778
 20
386.0581042159
 10
1382.0911646546
 20
385.717463671
 10
1382.2509647072
 20
385.3156389582
  0
LWPOLYLINE
  5
3F3
330
1F
100
AcDbEntity
  8
0
100
AcDbPolyline
 90
        5
 70
   128
 43
0.0
 10
1378.0509830177
 20
385.3156389582
 10
1378.210842675
 20
385.717463671
 10
1378.6660433472
 20
386.0581042159
 10
1379.347324437
 20
386.2857194531
 10
1380.1509738625
 20
386.3656343806
  0
LWPOLYLINE
  5
3F4
330
1F
100
AcDbEntity
  8
0
100
AcDbPolyline
 90
        5
 70
   128
 43
0.0
 10
1380.1509738625
 20
435.1585479367
 10
1380.954623288
 20
435.0786479104
 10
1381.6359043778
 20
434.851017772
 10
1382.0911646546
 20
434.5103772271
 10
1382.2509647072
 20
434.1085525143
  0
LWPOLYLINE
  5
3F5
330
1F
100
AcDbEntity
  8
0
100
AcDbPolyline
 90
        5
 70
   128
 43
0.0
 10
1378.0509830177
 20
434.1085525143
 10
1378.210842675
 20
434.5103772271
 10
1378.6660433472
 20
434.851017772
 10
1379.347324437
 20
435.0786479104
 10
1380.1509738625
 20
435.1585479367
  0
LWPOLYLINE
  5
3F6
330
1F
100
AcDbEntity
  8
0
100
AcDbPolyline
 90
        5
 70
   128
 43
0.0
 10
1380.1509738625
 20
483.951476394
 10
1380.954623288
 20
483.8715465653
 10
1381.6359043778
 20
483.6439462292
 10
1382.0911646546
 20
483.3033056843
 10
1382.2509647072
 20
482.9014809716
  0
LWPOLYLINE
  5
3F7
330
1F
100
AcDbEntity
  8
0
100
AcDbPolyline
 90
        5
 70
   128
 43
0.0
 10
1378.0509830177
 20
482.9014809716
 10
1378.210842675
 20
483.3033056843
 10
1378.6660433472
 20
483.6439462292
 10
1379.347324437
 20
483.8715465653
 10
1380.1509738625
 20
483.951476394
  0
LWPOLYLINE
  5
3F8
330
1F
100
AcDbEntity
  8
0
100
AcDbPolyline
 90
        5
 70
   128
 43
0.0
 10
1380.1509738625
 20
532.7444048512
 10
1380.954623288
 20
532.6644750226
 10
1381.6359043778
 20
532.4368746865
 10
1382.0911646546
 20
532.0962341416
 10
1382.2509647072
 20
531.6944094289
  0
LWPOLYLINE
  5
3F9
330
1F
100
AcDbEntity
  8
0
100
AcDbPolyline
 90
        5
 70
   128
 43
0.0
 10
1378.0509830177
 20
531.6944094289
 10
1378.210842675
 20
532.0962341416
 10
1378.6660433472
 20
532.4368746865
 10
1379.347324437
 20
532.6644750226
 10
1380.1509738625
 20
532.7444048512
  0
LWPOLYLINE
  5
3FA
330
1F
100
AcDbEntity
  8
0
100
AcDbPolyline
 90
        5
 70
   128
 43
0.0
 10
1380.1509738625
 20
581.5373333085
 10
1380.954623288
 20
581.4574034798
 10
1381.6359043778
 20
581.2298031438
 10
1382.0911646546
 20
580.8891625989
 10
1382.2509647072
 20
580.4873378861
  0
LWPOLYLINE
  5
3FB
330
1F
100
AcDbEntity
  8
0
100
AcDbPolyline
 90
        5
 70
   128
 43
0.0
 10
1378.0509830177
 20
580.4873378861
 10
1378.210842675
 20
580.8891625989
 10
1378.6660433472
 20
581.2298031438
 10
1379.347324437
 20
581.4574034798
 10
1380.1509738625
 20
581.5373333085
  0
LWPOLYLINE
  5
3FC
330
1F
100
AcDbEntity
  8
0
100
AcDbPolyline
 90
       17
 70
   128
 43
0.0
 10
1364.3681407631
 20
587.412473737
 10
1363.9089465798
 20
587.3667867768
 10
1363.5196090401
 20
587.2367294419
 10
1363.2594943703
 20
587.0420606721
 10
1363.1681204498
 20
586.8124635804
 10
1363.2594943703
 20
586.5828664887
 10
1363.5196090401
 20
586.3881977189
 10
1363.9089465798
 20
586.258140384
 10
1364.3681407631
 20
586.2124534238
 10
1364.8273945511
 20
586.258140384
 10
1365.2166724861
 20
586.3881977189
 10
1365.4767871559
 20
586.5828664887
 10
1365.5681610764
 20
586.8124635804
 10
1365.4767871559
 20
587.0420606721
 10
1365.2166724861
 20
587.2367294419
 10
1364.8273945511
 20
587.3667867768
 10
1364.3681407631
 20
587.412473737
  0
LWPOLYLINE
  5
3FD
330
1F
100
AcDbEntity
  8
0
100
AcDbPolyline
 90
        7
 70
   128
 43
0.0
 10
1364.3681407631
 20
589.1883047211
 10
1363.4114266098
 20
589.0931459058
 10
1362.6003862084
 20
588.8221831906
 10
1362.0584607781
 20
588.4166629899
 10
1361.8681431473
 20
587.9383059132
 10
1362.0584607781
 20
587.4599488366
 10
1362.3269200981
 20
587.2166128743
  0
LWPOLYLINE
  5
3FE
330
1F
100
AcDbEntity
  8
0
100
AcDbPolyline
 90
        7
 70
   128
 43
0.0
 10
1366.4093614281
 20
587.2166128743
 10
1366.6778207482
 20
587.4599488366
 10
1366.8681383789
 20
587.9383059132
 10
1366.6778207482
 20
588.4166629899
 10
1366.1358953179
 20
588.8221831906
 10
1365.3248549164
 20
589.0931459058
 10
1364.3681407631
 20
589.1883047211
  0
LWPOLYLINE
  5
3FF
330
1F
100
AcDbEntity
  8
0
100
AcDbPolyline
 90
       17
 70
   128
 43
0.0
 10
1214.3767178715
 20
587.412473737
 10
1213.9174938858
 20
587.3667867768
 10
1213.5281861485
 20
587.2367294419
 10
1213.2680714787
 20
587.0420606721
 10
1213.1767273606
 20
586.8124635804
 10
1213.2680714787
 20
586.5828664887
 10
1213.5281861485
 20
586.3881977189
 10
1213.9174938858
 20
586.258140384
 10
1214.3767178715
 20
586.2124534238
 10
1214.8359418572
 20
586.258140384
 10
1215.2252495945
 20
586.3881977189
 10
1215.4853642643
 20
586.5828664887
 10
1215.5767083824
 20
586.8124635804
 10
1215.4853642643
 20
587.0420606721
 10
1215.2252495945
 20
587.2367294419
 10
1214.8359418572
 20
587.3667867768
 10
1214.3767178715
 20
587.412473737
  0
LWPOLYLINE
  5
400
330
1F
100
AcDbEntity
  8
0
100
AcDbPolyline
 90
        7
 70
   128
 43
0.0
 10
1214.3767178715
 20
589.1883047211
 10
1213.4200037182
 20
589.0931459058
 10
1212.6089633167
 20
588.8221831906
 10
1212.0670080841
 20
588.4166629899
 10
1211.8767202557
 20
587.9383059132
 10
1212.0670080841
 20
587.4599488366
 10
1212.3354674042
 20
587.2166128743
  0
LWPOLYLINE
  5
401
330
1F
100
AcDbEntity
  8
0
100
AcDbPolyline
 90
        7
 70
   128
 43
0.0
 10
1216.4179683388
 20
587.2166128743
 10
1216.6864276589
 20
587.4599488366
 10
1216.8767154873
 20
587.9383059132
 10
1216.6864276589
 20
588.4166629899
 10
1216.1444724262
 20
588.8221831906
 10
1215.3334320248
 20
589.0931459058
 10
1214.3767178715
 20
589.1883047211
  0
LWPOLYLINE
  5
402
330
1F
100
AcDbEntity
  8
0
100
AcDbPolyline
 90
       17
 70
   128
 43
0.0
 10
1380.1509738625
 20
578.6624522793
 10
1379.6917796791
 20
578.6167951214
 10
1379.3024421395
 20
578.4867377865
 10
1379.0423274697
 20
578.2920690167
 10
1378.9510131539
 20
578.062471925
 10
1379.0423274697
 20
577.832845031
 10
1379.3024421395
 20
577.6382060635
 10
1379.6917796791
 20
577.5081487286
 10
1380.1509738625
 20
577.4624617684
 10
1380.6102276505
 20
577.5081487286
 10
1380.9995055855
 20
577.6382060635
 10
1381.2596202553
 20
577.832845031
 10
1381.3509941757
 20
578.062471925
 10
1381.2596202553
 20
578.2920690167
 10
1380.9995055855
 20
578.4867377865
 10
1380.6102276505
 20
578.6167951214
 10
1380.1509738625
 20
578.6624522793
  0
LWPOLYLINE
  5
403
330
1F
100
AcDbEntity
  8
0
100
AcDbPolyline
 90
        7
 70
   128
 43
0.0
 10
1380.1509738625
 20
580.4382832635
 10
1379.1942597092
 20
580.3431542504
 10
1378.3832193077
 20
580.0721915353
 10
1377.8412938774
 20
579.6666415322
 10
1377.6509762467
 20
579.1882844556
 10
1377.8412938774
 20
578.7099273789
 10
1378.1097531975
 20
578.4666212189
  0
LWPOLYLINE
  5
404
330
1F
100
AcDbEntity
  8
0
100
AcDbPolyline
 90
        7
 70
   128
 43
0.0
 10
1382.1922541321
 20
578.4666212189
 10
1382.4607134522
 20
578.7099273789
 10
1382.6509714783
 20
579.1882844556
 10
1382.4607134522
 20
579.6666415322
 10
1381.9187284172
 20
580.0721915353
 10
1381.1076880158
 20
580.3431542504
 10
1380.1509738625
 20
580.4382832635
  0
LWPOLYLINE
  5
405
330
1F
100
AcDbEntity
  8
0
100
AcDbPolyline
 90
       17
 70
   128
 43
0.0
 10
298.6453176201
 20
334.6978397954
 10
298.1860638321
 20
334.6521677363
 10
297.7967858971
 20
334.5221104014
 10
297.5366712273
 20
334.3274565327
 10
297.4452973068
 20
334.0978445399
 10
297.5366712273
 20
333.8682325471
 10
297.7967858971
 20
333.6735786784
 10
298.1860638321
 20
333.5435213435
 10
298.6453176201
 20
333.4978492844
 10
299.1045118035
 20
333.5435213435
 10
299.4938493431
 20
333.6735786784
 10
299.7539640129
 20
333.8682325471
 10
299.8452783287
 20
334.0978445399
 10
299.7539640129
 20
334.3274565327
 10
299.4938493431
 20
334.5221104014
 10
299.1045118035
 20
334.6521677363
 10
298.6453176201
 20
334.6978397954
  0
LWPOLYLINE
  5
406
330
1F
100
AcDbEntity
  8
0
100
AcDbPolyline
 90
        7
 70
   128
 43
0.0
 10
298.6453176201
 20
336.4736707795
 10
297.6886034668
 20
336.3785268653
 10
296.8775630654
 20
336.1075641501
 10
296.3355780304
 20
335.7020290482
 10
296.1453200043
 20
335.2236719716
 10
296.3355780304
 20
334.7453297961
 10
296.6040373505
 20
334.5019938338
  0
LWPOLYLINE
  5
407
330
1F
100
AcDbEntity
  8
0
100
AcDbPolyline
 90
        7
 70
   128
 43
0.0
 10
300.6865382851
 20
334.5019938338
 10
300.9549976052
 20
334.7453297961
 10
301.1453152359
 20
335.2236719716
 10
300.9549976052
 20
335.7020290482
 10
300.4130721749
 20
336.1075641501
 10
299.6020317734
 20
336.3785268653
 10
298.6453176201
 20
336.4736707795
  0
CIRCLE
  5
408
330
1F
100
AcDbEntity
  8
0
100
AcDbCircle
 10
1365.6481457413
 20
423.022203027
 30
0.0
 40
3.89999999999992
  0
CIRCLE
  5
409
330
1F
100
AcDbEntity
  8
0
100
AcDbCircle
 10
1365.6481457413
 20
423.022203027
 30
0.0
 40
1.10000000000004
  0
CIRCLE
  5
40A
330
1F
100
AcDbEntity
  8
0
100
AcDbCircle
 10
313.1481457413
 20
423.022203027
 30
0.0
 40
3.900000000000012
  0
CIRCLE
  5
40B
330
1F
100
AcDbEntity
  8
0
100
AcDbCircle
 10
313.1481457413
 20
423.022203027
 30
0.0
 40
1.099999999999979
  0
LWPOLYLINE
  5
40C
330
1F
100
AcDbEntity
  8
0
100
AcDbPolyline
 90
       17
 70
   128
 43
0.0
 10
1380.1509738625
 20
529.8695536244
 10
1379.6917796791
 20
529.8238666642
 10
1379.3024421395
 20
529.6938093293
 10
1379.0423274697
 20
529.4991405595
 10
1378.9510131539
 20
529.2695434678
 10
1379.0423274697
 20
529.0399165738
 10
1379.3024421395
 20
528.8452776063
 10
1379.6917796791
 20
528.7152202714
 10
1380.1509738625
 20
528.6695333111
 10
1380.6102276505
 20
528.7152202714
 10
1380.9995055855
 20
528.8452776063
 10
1381.2596202553
 20
529.0399165738
 10
1381.3509941757
 20
529.2695434678
 10
1381.2596202553
 20
529.4991405595
 10
1380.9995055855
 20
529.6938093293
 10
1380.6102276505
 20
529.8238666642
 10
1380.1509738625
 20
529.8695536244
  0
LWPOLYLINE
  5
40D
330
1F
100
AcDbEntity
  8
0
100
AcDbPolyline
 90
        7
 70
   128
 43
0.0
 10
1380.1509738625
 20
531.6453846085
 10
1379.1942597092
 20
531.5502257931
 10
1378.3832193077
 20
531.279263078
 10
1377.8412938774
 20
530.8737130749
 10
1377.6509762467
 20
530.3953858006
 10
1377.8412938774
 20
529.917028724
 10
1378.1097531975
 20
529.6736927617
  0
LWPOLYLINE
  5
40E
330
1F
100
AcDbEntity
  8
0
100
AcDbPolyline
 90
        7
 70
   128
 43
0.0
 10
1382.1922541321
 20
529.6736927617
 10
1382.4607134522
 20
529.917028724
 10
1382.6509714783
 20
530.3953858006
 10
1382.4607134522
 20
530.8737130749
 10
1381.9187284172
 20
531.279263078
 10
1381.1076880158
 20
531.5502257931
 10
1380.1509738625
 20
531.6453846085
  0
LWPOLYLINE
  5
40F
330
1F
100
AcDbEntity
  8
0
100
AcDbPolyline
 90
       17
 70
   128
 43
0.0
 10
298.6453176201
 20
383.4907682526
 10
298.1860638321
 20
383.4450961936
 10
297.7967858971
 20
383.3150388587
 10
297.5366712273
 20
383.12038499
 10
297.4452973068
 20
382.8907729972
 10
297.5366712273
 20
382.6611610043
 10
297.7967858971
 20
382.4665071356
 10
298.1860638321
 20
382.3364348996
 10
298.6453176201
 20
382.2907628405
 10
299.1045118035
 20
382.3364348996
 10
299.4938493431
 20
382.4665071356
 10
299.7539640129
 20
382.6611610043
 10
299.8452783287
 20
382.8907729972
 10
299.7539640129
 20
383.12038499
 10
299.4938493431
 20
383.3150388587
 10
299.1045118035
 20
383.4450961936
 10
298.6453176201
 20
383.4907682526
  0
LWPOLYLINE
  5
410
330
1F
100
AcDbEntity
  8
0
100
AcDbPolyline
 90
        7
 70
   128
 43
0.0
 10
298.6453176201
 20
385.2665992367
 10
297.6886034668
 20
385.1714553225
 10
296.8775630654
 20
384.9004777062
 10
296.3355780304
 20
384.4949575055
 10
296.1453200043
 20
384.0166004288
 10
296.3355780304
 20
383.5382433522
 10
296.6040373505
 20
383.2949073899
  0
LWPOLYLINE
  5
411
330
1F
100
AcDbEntity
  8
0
100
AcDbPolyline
 90
        7
 70
   128
 43
0.0
 10
300.6865382851
 20
383.2949073899
 10
300.9549976052
 20
383.5382433522
 10
301.1453152359
 20
384.0166004288
 10
300.9549976052
 20
384.4949575055
 10
300.4130721749
 20
384.9004777062
 10
299.6020317734
 20
385.1714553225
 10
298.6453176201
 20
385.2665992367
  0
CIRCLE
  5
412
330
1F
100
AcDbEntity
  8
0
100
AcDbCircle
 10
1365.6481457413
 20
314.522203027
 30
0.0
 40
3.89999999999998
  0
CIRCLE
  5
413
330
1F
100
AcDbEntity
  8
0
100
AcDbCircle
 10
1365.6481457413
 20
314.522203027
 30
0.0
 40
1.100000000000071
  0
LWPOLYLINE
  5
414
330
1F
100
AcDbEntity
  8
0
100
AcDbPolyline
 90
       17
 70
   128
 43
0.0
 10
1064.3852949799
 20
587.412473737
 10
1063.9260709942
 20
587.3667867768
 10
1063.5367632569
 20
587.2367294419
 10
1063.2766336859
 20
587.0420606721
 10
1063.1852895678
 20
586.8124635804
 10
1063.2766336859
 20
586.5828664887
 10
1063.5367632569
 20
586.3881977189
 10
1063.9260709942
 20
586.258140384
 10
1064.3852949799
 20
586.2124534238
 10
1064.8445040644
 20
586.258140384
 10
1065.2338118017
 20
586.3881977189
 10
1065.4939413727
 20
586.5828664887
 10
1065.5852854908
 20
586.8124635804
 10
1065.4939413727
 20
587.0420606721
 10
1065.2338118017
 20
587.2367294419
 10
1064.8445040644
 20
587.3667867768
 10
1064.3852949799
 20
587.412473737
  0
LWPOLYLINE
  5
415
330
1F
100
AcDbEntity
  8
0
100
AcDbPolyline
 90
        7
 70
   128
 43
0.0
 10
1064.3852949799
 20
589.1883047211
 10
1063.4285808266
 20
589.0931459058
 10
1062.617525524
 20
588.8221831906
 10
1062.0755851925
 20
588.4166629899
 10
1061.8852824629
 20
587.9383059132
 10
1062.0755851925
 20
587.4599488366
 10
1062.3440445126
 20
587.2166128743
  0
LWPOLYLINE
  5
416
330
1F
100
AcDbEntity
  8
0
100
AcDbPolyline
 90
        7
 70
   128
 43
0.0
 10
1066.426530546
 20
587.2166128743
 10
1066.6949898661
 20
587.4599488366
 10
1066.8852925957
 20
587.9383059132
 10
1066.6949898661
 20
588.4166629899
 10
1066.1530495346
 20
588.8221831906
 10
1065.341994232
 20
589.0931459058
 10
1064.3852949799
 20
589.1883047211
  0
CIRCLE
  5
417
330
1F
100
AcDbEntity
  8
0
100
AcDbCircle
 10
313.1481457413
 20
314.522203027
 30
0.0
 40
3.900000000000039
  0
CIRCLE
  5
418
330
1F
100
AcDbEntity
  8
0
100
AcDbCircle
 10
313.1481457413
 20
314.522203027
 30
0.0
 40
1.100000000000005
  0
LWPOLYLINE
  5
419
330
1F
100
AcDbEntity
  8
0
100
AcDbPolyline
 90
       17
 70
   128
 43
0.0
 10
464.4195736111
 20
587.412473737
 10
463.9603496254
 20
587.3667867768
 10
463.5710418881
 20
587.2367294419
 10
463.3109272183
 20
587.0420606721
 10
463.2195831001
 20
586.8124635804
 10
463.3109272183
 20
586.5828664887
 10
463.5710418881
 20
586.3881977189
 10
463.9603496254
 20
586.258140384
 10
464.4195736111
 20
586.2124534238
 10
464.8787975968
 20
586.258140384
 10
465.2681053341
 20
586.3881977189
 10
465.5282200039
 20
586.5828664887
 10
465.619564122
 20
586.8124635804
 10
465.5282200039
 20
587.0420606721
 10
465.2681053341
 20
587.2367294419
 10
464.8787975968
 20
587.3667867768
 10
464.4195736111
 20
587.412473737
  0
LWPOLYLINE
  5
41A
330
1F
100
AcDbEntity
  8
0
100
AcDbPolyline
 90
        7
 70
   128
 43
0.0
 10
464.4195736111
 20
589.1883047211
 10
463.4628594578
 20
589.0931459058
 10
462.6518190563
 20
588.8221831906
 10
462.1098638237
 20
588.4166629899
 10
461.9195759953
 20
587.9383059132
 10
462.1098638237
 20
587.4599488366
 10
462.3783231438
 20
587.2166128743
  0
LWPOLYLINE
  5
41B
330
1F
100
AcDbEntity
  8
0
100
AcDbPolyline
 90
        7
 70
   128
 43
0.0
 10
466.4608240784
 20
587.2166128743
 10
466.7292833985
 20
587.4599488366
 10
466.9195712269
 20
587.9383059132
 10
466.7292833985
 20
588.4166629899
 10
466.1873281658
 20
588.8221831906
 10
465.3762877644
 20
589.0931459058
 10
464.4195736111
 20
589.1883047211
  0
CIRCLE
  5
41C
330
1F
100
AcDbEntity
  8
0
100
AcDbCircle
 10
313.1481457413
 20
206.022203027
 30
0.0
 40
3.900000000000012
  0
CIRCLE
  5
41D
330
1F
100
AcDbEntity
  8
0
100
AcDbCircle
 10
313.1481457413
 20
206.022203027
 30
0.0
 40
1.099999999999992
  0
CIRCLE
  5
41E
330
1F
100
AcDbEntity
  8
0
100
AcDbCircle
 10
1365.6481457413
 20
206.022203027
 30
0.0
 40
3.899999999999758
  0
CIRCLE
  5
41F
330
1F
100
AcDbEntity
  8
0
100
AcDbCircle
 10
1365.6481457413
 20
206.022203027
 30
0.0
 40
1.099999999999863
  0
LWPOLYLINE
  5
420
330
1F
100
AcDbEntity
  8
0
100
AcDbPolyline
 90
       17
 70
   128
 43
0.0
 10
1380.1509738625
 20
334.6978397954
 10
1379.6917796791
 20
334.6521677363
 10
1379.3024421395
 20
334.5221104014
 10
1379.0423274697
 20
334.3274565327
 10
1378.9510131539
 20
334.0978445399
 10
1379.0423274697
 20
333.8682325471
 10
1379.3024421395
 20
333.6735786784
 10
1379.6917796791
 20
333.5435213435
 10
1380.1509738625
 20
333.4978492844
 10
1380.6102276505
 20
333.5435213435
 10
1380.9995055855
 20
333.6735786784
 10
1381.2596202553
 20
333.8682325471
 10
1381.3509941757
 20
334.0978445399
 10
1381.2596202553
 20
334.3274565327
 10
1380.9995055855
 20
334.5221104014
 10
1380.6102276505
 20
334.6521677363
 10
1380.1509738625
 20
334.6978397954
  0
LWPOLYLINE
  5
421
330
1F
100
AcDbEntity
  8
0
100
AcDbPolyline
 90
        7
 70
   128
 43
0.0
 10
1380.1509738625
 20
336.4736707795
 10
1379.1942597092
 20
336.3785268653
 10
1378.3832193077
 20
336.1075641501
 10
1377.8412938774
 20
335.7020290482
 10
1377.6509762467
 20
335.2236719716
 10
1377.8412938774
 20
334.7453297961
 10
1378.1097531975
 20
334.5019938338
  0
LWPOLYLINE
  5
422
330
1F
100
AcDbEntity
  8
0
100
AcDbPolyline
 90
        7
 70
   128
 43
0.0
 10
1382.1922541321
 20
334.5019938338
 10
1382.4607134522
 20
334.7453297961
 10
1382.6509714783
 20
335.2236719716
 10
1382.4607134522
 20
335.7020290482
 10
1381.9187284172
 20
336.1075641501
 10
1381.1076880158
 20
336.3785268653
 10
1380.1509738625
 20
336.4736707795
  0
LWPOLYLINE
  5
423
330
1F
100
AcDbEntity
  8
0
100
AcDbPolyline
 90
       17
 70
   128
 43
0.0
 10
1380.1509738625
 20
383.4907682526
 10
1379.6917796791
 20
383.4450961936
 10
1379.3024421395
 20
383.3150388587
 10
1379.0423274697
 20
383.12038499
 10
1378.9510131539
 20
382.8907729972
 10
1379.0423274697
 20
382.6611610043
 10
1379.3024421395
 20
382.4665071356
 10
1379.6917796791
 20
382.3364348996
 10
1380.1509738625
 20
382.2907628405
 10
1380.6102276505
 20
382.3364348996
 10
1380.9995055855
 20
382.4665071356
 10
1381.2596202553
 20
382.6611610043
 10
1381.3509941757
 20
382.8907729972
 10
1381.2596202553
 20
383.12038499
 10
1380.9995055855
 20
383.3150388587
 10
1380.6102276505
 20
383.4450961936
 10
1380.1509738625
 20
383.4907682526
  0
LWPOLYLINE
  5
424
330
1F
100
AcDbEntity
  8
0
100
AcDbPolyline
 90
        7
 70
   128
 43
0.0
 10
1380.1509738625
 20
385.2665992367
 10
1379.1942597092
 20
385.1714553225
 10
1378.3832193077
 20
384.9004777062
 10
1377.8412938774
 20
384.4949575055
 10
1377.6509762467
 20
384.0166004288
 10
1377.8412938774
 20
383.5382433522
 10
1378.1097531975
 20
383.2949073899
  0
LWPOLYLINE
  5
425
330
1F
100
AcDbEntity
  8
0
100
AcDbPolyline
 90
        7
 70
   128
 43
0.0
 10
1382.1922541321
 20
383.2949073899
 10
1382.4607134522
 20
383.5382433522
 10
1382.6509714783
 20
384.0166004288
 10
1382.4607134522
 20
384.4949575055
 10
1381.9187284172
 20
384.9004777062
 10
1381.1076880158
 20
385.1714553225
 10
1380.1509738625
 20
385.2665992367
  0
LWPOLYLINE
  5
426
330
1F
100
AcDbEntity
  8
0
100
AcDbPolyline
 90
       21
 70
   128
 43
0.0
 10
1365.6481505097
 20
569.1199572671
 10
1364.4430041969
 20
569.2852707493
 10
1363.3557558716
 20
569.7649987328
 10
1362.4929786385
 20
570.512232362
 10
1361.9390130699
 20
571.4537473309
 10
1361.7481589974
 20
572.4974544633
 10
1361.9390130699
 20
573.5411615956
 10
1362.4929786385
 20
574.4827063668
 10
1363.3557558716
 20
575.2299101937
 10
1364.4430041969
 20
575.7096679795
 10
1365.6481505097
 20
575.8749516595
 10
1366.8532968224
 20
575.7096679795
 10
1367.9404855431
 20
575.2299101937
 10
1368.8033223808
 20
574.4827063668
 10
1369.3572879494
 20
573.5411615956
 10
1369.548142022
 20
572.4974544633
 10
1369.3572879494
 20
571.4537473309
 10
1368.8033223808
 20
570.512232362
 10
1367.9404855431
 20
569.7649987328
 10
1366.8532968224
 20
569.2852707493
 10
1365.6481505097
 20
569.1199572671
  0
LWPOLYLINE
  5
427
330
1F
100
AcDbEntity
  8
0
100
AcDbPolyline
 90
       17
 70
   128
 43
0.0
 10
1365.6481505097
 20
572.2948284733
 10
1365.2272225083
 20
572.3673375237
 10
1364.8703098953
 20
572.5738676179
 10
1364.6318913162
 20
572.882917701
 10
1364.5481467903
 20
573.2474597085
 10
1364.6318913162
 20
573.6120315182
 10
1364.8703098953
 20
573.9210816014
 10
1365.2272225083
 20
574.1275818932
 10
1365.6481505097
 20
574.2000909436
 10
1366.0690785111
 20
574.1275818932
 10
1366.425991124
 20
573.9210816014
 10
1366.6644097031
 20
573.6120315182
 10
1366.748154229
 20
573.2474597085
 10
1366.6644097031
 20
572.882917701
 10
1366.425991124
 20
572.5738676179
 10
1366.0690785111
 20
572.3673375237
 10
1365.6481505097
 20
572.2948284733
  0
ARC
  5
428
330
1F
100
AcDbEntity
  8
0
100
AcDbCircle
 10
1365.6429626658
 20
572.962100472
 30
0.0
 40
1.113450422778422
100
AcDbArc
 50
6.982823050400001
 51
168.0529283932
  0
LWPOLYLINE
  5
429
330
1F
100
AcDbEntity
  8
0
100
AcDbPolyline
 90
       21
 70
   128
 43
0.0
 10
313.1481409729
 20
569.1199572671
 10
311.9429946602
 20
569.2852707493
 10
310.8558059395
 20
569.7649987328
 10
309.9929691017
 20
570.512232362
 10
309.4390035332
 20
571.4537473309
 10
309.2481494606
 20
572.4974544633
 10
309.4390035332
 20
573.5411615956
 10
309.9929691017
 20
574.4827063668
 10
310.8558059395
 20
575.2299101937
 10
311.9429946602
 20
575.7096679795
 10
313.1481409729
 20
575.8749516595
 10
314.3532872856
 20
575.7096679795
 10
315.440535611
 20
575.2299101937
 10
316.3033128441
 20
574.4827063668
 10
316.8572784126
 20
573.5411615956
 10
317.0481324852
 20
572.4974544633
 10
316.8572784126
 20
571.4537473309
 10
316.3033128441
 20
570.512232362
 10
315.440535611
 20
569.7649987328
 10
314.3532872856
 20
569.2852707493
 10
313.1481409729
 20
569.1199572671
  0
LWPOLYLINE
  5
42A
330
1F
100
AcDbEntity
  8
0
100
AcDbPolyline
 90
       17
 70
   128
 43
0.0
 10
313.1481409729
 20
572.2948284733
 10
312.7272129715
 20
572.3673375237
 10
312.3703003586
 20
572.5738676179
 10
312.1318817795
 20
572.882917701
 10
312.0481372536
 20
573.2474597085
 10
312.1318817795
 20
573.6120315182
 10
312.3703003586
 20
573.9210816014
 10
312.7272129715
 20
574.1275818932
 10
313.1481409729
 20
574.2000909436
 10
313.5690689743
 20
574.1275818932
 10
313.9259815872
 20
573.9210816014
 10
314.1644001663
 20
573.6120315182
 10
314.2481446922
 20
573.2474597085
 10
314.1644001663
 20
572.882917701
 10
313.9259815872
 20
572.5738676179
 10
313.5690689743
 20
572.3673375237
 10
313.1481409729
 20
572.2948284733
  0
ARC
  5
42B
330
1F
100
AcDbEntity
  8
0
100
AcDbCircle
 10
313.142953129
 20
572.962100472
 30
0.0
 40
1.113450422778365
100
AcDbArc
 50
6.982823050400001
 51
168.0529283932
  0
LWPOLYLINE
  5
42C
330
1F
100
AcDbEntity
  8
0
100
AcDbPolyline
 90
       17
 70
   128
 43
0.0
 10
1380.1509738625
 20
481.0766251671
 10
1379.6917796791
 20
481.0309382069
 10
1379.3024421395
 20
480.900880872
 10
1379.0423274697
 20
480.7062121022
 10
1378.9510131539
 20
480.4766150105
 10
1379.0423274697
 20
480.2470179188
 10
1379.3024421395
 20
480.052349149
 10
1379.6917796791
 20
479.9222918141
 10
1380.1509738625
 20
479.8766048539
 10
1380.6102276505
 20
479.9222918141
 10
1380.9995055855
 20
480.052349149
 10
1381.2596202553
 20
480.2470179188
 10
1381.3509941757
 20
480.4766150105
 10
1381.2596202553
 20
480.7062121022
 10
1380.9995055855
 20
480.900880872
 10
1380.6102276505
 20
481.0309382069
 10
1380.1509738625
 20
481.0766251671
  0
LWPOLYLINE
  5
42D
330
1F
100
AcDbEntity
  8
0
100
AcDbPolyline
 90
        7
 70
   128
 43
0.0
 10
1380.1509738625
 20
482.8524561513
 10
1379.1942597092
 20
482.7572973359
 10
1378.3832193077
 20
482.4863346207
 10
1377.8412938774
 20
482.08081442
 10
1377.6509762467
 20
481.6024573434
 10
1377.8412938774
 20
481.1241002667
 10
1378.1097531975
 20
480.8807643044
  0
LWPOLYLINE
  5
42E
330
1F
100
AcDbEntity
  8
0
100
AcDbPolyline
 90
        7
 70
   128
 43
0.0
 10
1382.1922541321
 20
480.8807643044
 10
1382.4607134522
 20
481.1241002667
 10
1382.6509714783
 20
481.6024573434
 10
1382.4607134522
 20
482.08081442
 10
1381.9187284172
 20
482.4863346207
 10
1381.1076880158
 20
482.7572973359
 10
1380.1509738625
 20
482.8524561513
  0
LWPOLYLINE
  5
42F
330
1F
100
AcDbEntity
  8
0
100
AcDbPolyline
 90
       17
 70
   128
 43
0.0
 10
298.6453176201
 20
578.6624522793
 10
298.1860638321
 20
578.6167951214
 10
297.7967858971
 20
578.4867377865
 10
297.5366712273
 20
578.2920690167
 10
297.4452973068
 20
578.062471925
 10
297.5366712273
 20
577.832845031
 10
297.7967858971
 20
577.6382060635
 10
298.1860638321
 20
577.5081487286
 10
298.6453176201
 20
577.4624617684
 10
299.1045118035
 20
577.5081487286
 10
299.4938493431
 20
577.6382060635
 10
299.7539640129
 20
577.832845031
 10
299.8452783287
 20
578.062471925
 10
299.7539640129
 20
578.2920690167
 10
299.4938493431
 20
578.4867377865
 10
299.1045118035
 20
578.6167951214
 10
298.6453176201
 20
578.6624522793
  0
LWPOLYLINE
  5
430
330
1F
100
AcDbEntity
  8
0
100
AcDbPolyline
 90
        7
 70
   128
 43
0.0
 10
298.6453176201
 20
580.4382832635
 10
297.6886034668
 20
580.3431542504
 10
296.8775630654
 20
580.0721915353
 10
296.3355780304
 20
579.6666415322
 10
296.1453200043
 20
579.1882844556
 10
296.3355780304
 20
578.7099273789
 10
296.6040373505
 20
578.4666212189
  0
LWPOLYLINE
  5
431
330
1F
100
AcDbEntity
  8
0
100
AcDbPolyline
 90
        7
 70
   128
 43
0.0
 10
300.6865382851
 20
578.4666212189
 10
300.9549976052
 20
578.7099273789
 10
301.1453152359
 20
579.1882844556
 10
300.9549976052
 20
579.6666415322
 10
300.4130721749
 20
580.0721915353
 10
299.6020317734
 20
580.3431542504
 10
298.6453176201
 20
580.4382832635
  0
LWPOLYLINE
  5
432
330
1F
100
AcDbEntity
  8
0
100
AcDbPolyline
 90
       17
 70
   128
 43
0.0
 10
1380.1509738625
 20
432.2836967099
 10
1379.6917796791
 20
432.2380097497
 10
1379.3024421395
 20
432.1079524148
 10
1379.0423274697
 20
431.9133134473
 10
1378.9510131539
 20
431.6836865533
 10
1379.0423274697
 20
431.4540894616
 10
1379.3024421395
 20
431.2594206917
 10
1379.6917796791
 20
431.1293633568
 10
1380.1509738625
 20
431.0837061989
 10
1380.6102276505
 20
431.1293633568
 10
1380.9995055855
 20
431.2594206917
 10
1381.2596202553
 20
431.4540894616
 10
1381.3509941757
 20
431.6836865533
 10
1381.2596202553
 20
431.9133134473
 10
1380.9995055855
 20
432.1079524148
 10
1380.6102276505
 20
432.2380097497
 10
1380.1509738625
 20
432.2836967099
  0
LWPOLYLINE
  5
433
330
1F
100
AcDbEntity
  8
0
100
AcDbPolyline
 90
        7
 70
   128
 43
0.0
 10
1380.1509738625
 20
434.059527694
 10
1379.1942597092
 20
433.9643688786
 10
1378.3832193077
 20
433.6934061635
 10
1377.8412938774
 20
433.2878859627
 10
1377.6509762467
 20
432.8095288861
 10
1377.8412938774
 20
432.3311718095
 10
1378.1097531975
 20
432.0878358472
  0
LWPOLYLINE
  5
434
330
1F
100
AcDbEntity
  8
0
100
AcDbPolyline
 90
        7
 70
   128
 43
0.0
 10
1382.1922541321
 20
432.0878358472
 10
1382.4607134522
 20
432.3311718095
 10
1382.6509714783
 20
432.8095288861
 10
1382.4607134522
 20
433.2878859627
 10
1381.9187284172
 20
433.6934061635
 10
1381.1076880158
 20
433.9643688786
 10
1380.1509738625
 20
434.059527694
  0
LWPOLYLINE
  5
435
330
1F
100
AcDbEntity
  8
0
100
AcDbPolyline
 90
       17
 70
   128
 43
0.0
 10
298.6453176201
 20
432.2836967099
 10
298.1860638321
 20
432.2380097497
 10
297.7967858971
 20
432.1079524148
 10
297.5366712273
 20
431.9133134473
 10
297.4452973068
 20
431.6836865533
 10
297.5366712273
 20
431.4540894616
 10
297.7967858971
 20
431.2594206917
 10
298.1860638321
 20
431.1293633568
 10
298.6453176201
 20
431.0837061989
 10
299.1045118035
 20
431.1293633568
 10
299.4938493431
 20
431.2594206917
 10
299.7539640129
 20
431.4540894616
 10
299.8452783287
 20
431.6836865533
 10
299.7539640129
 20
431.9133134473
 10
299.4938493431
 20
432.1079524148
 10
299.1045118035
 20
432.2380097497
 10
298.6453176201
 20
432.2836967099
  0
LWPOLYLINE
  5
436
330
1F
100
AcDbEntity
  8
0
100
AcDbPolyline
 90
        7
 70
   128
 43
0.0
 10
298.6453176201
 20
434.059527694
 10
297.6886034668
 20
433.9643688786
 10
296.8775630654
 20
433.6934061635
 10
296.3355780304
 20
433.2878859627
 10
296.1453200043
 20
432.8095288861
 10
296.3355780304
 20
432.3311718095
 10
296.6040373505
 20
432.0878358472
  0
LWPOLYLINE
  5
437
330
1F
100
AcDbEntity
  8
0
100
AcDbPolyline
 90
        7
 70
   128
 43
0.0
 10
300.6865382851
 20
432.0878358472
 10
300.9549976052
 20
432.3311718095
 10
301.1453152359
 20
432.8095288861
 10
300.9549976052
 20
433.2878859627
 10
300.4130721749
 20
433.6934061635
 10
299.6020317734
 20
433.9643688786
 10
298.6453176201
 20
434.059527694
  0
LWPOLYLINE
  5
438
330
1F
100
AcDbEntity
  8
0
100
AcDbPolyline
 90
       17
 70
   128
 43
0.0
 10
298.6453176201
 20
529.8695536244
 10
298.1860638321
 20
529.8238666642
 10
297.7967858971
 20
529.6938093293
 10
297.5366712273
 20
529.4991405595
 10
297.4452973068
 20
529.2695434678
 10
297.5366712273
 20
529.0399165738
 10
297.7967858971
 20
528.8452776063
 10
298.1860638321
 20
528.7152202714
 10
298.6453176201
 20
528.6695333111
 10
299.1045118035
 20
528.7152202714
 10
299.4938493431
 20
528.8452776063
 10
299.7539640129
 20
529.0399165738
 10
299.8452783287
 20
529.2695434678
 10
299.7539640129
 20
529.4991405595
 10
299.4938493431
 20
529.6938093293
 10
299.1045118035
 20
529.8238666642
 10
298.6453176201
 20
529.8695536244
  0
LWPOLYLINE
  5
439
330
1F
100
AcDbEntity
  8
0
100
AcDbPolyline
 90
        7
 70
   128
 43
0.0
 10
298.6453176201
 20
531.6453846085
 10
297.6886034668
 20
531.5502257931
 10
296.8775630654
 20
531.279263078
 10
296.3355780304
 20
530.8737130749
 10
296.1453200043
 20
530.3953858006
 10
296.3355780304
 20
529.917028724
 10
296.6040373505
 20
529.6736927617
  0
LWPOLYLINE
  5
43A
330
1F
100
AcDbEntity
  8
0
100
AcDbPolyline
 90
        7
 70
   128
 43
0.0
 10
300.6865382851
 20
529.6736927617
 10
300.9549976052
 20
529.917028724
 10
301.1453152359
 20
530.3953858006
 10
300.9549976052
 20
530.8737130749
 10
300.4130721749
 20
531.279263078
 10
299.6020317734
 20
531.5502257931
 10
298.6453176201
 20
531.6453846085
  0
LWPOLYLINE
  5
43B
330
1F
100
AcDbEntity
  8
0
100
AcDbPolyline
 90
       17
 70
   128
 43
0.0
 10
914.3938571871
 20
587.412473737
 10
913.934640652
 20
587.3667867768
 10
913.5453329147
 20
587.2367294419
 10
913.2852033437
 20
587.0420606721
 10
913.1938592256
 20
586.8124635804
 10
913.2852033437
 20
586.5828664887
 10
913.5453329147
 20
586.3881977189
 10
913.934640652
 20
586.258140384
 10
914.3938571871
 20
586.2124534238
 10
914.8530811728
 20
586.258140384
 10
915.2423889101
 20
586.3881977189
 10
915.5025184811
 20
586.5828664887
 10
915.5938625992
 20
586.8124635804
 10
915.5025184811
 20
587.0420606721
 10
915.2423889101
 20
587.2367294419
 10
914.8530811728
 20
587.3667867768
 10
914.3938571871
 20
587.412473737
  0
LWPOLYLINE
  5
43C
330
1F
100
AcDbEntity
  8
0
100
AcDbPolyline
 90
        7
 70
   128
 43
0.0
 10
914.3938571871
 20
589.1883047211
 10
913.4371504844
 20
589.0931459058
 10
912.6260951818
 20
588.8221831906
 10
912.0841623009
 20
588.4166629899
 10
911.8938595713
 20
587.9383059132
 10
912.0841623009
 20
587.4599488366
 10
912.352621621
 20
587.2166128743
  0
LWPOLYLINE
  5
43D
330
1F
100
AcDbEntity
  8
0
100
AcDbPolyline
 90
        7
 70
   128
 43
0.0
 10
916.4351002038
 20
587.2166128743
 10
916.7035595239
 20
587.4599488366
 10
916.8938622535
 20
587.9383059132
 10
916.7035595239
 20
588.4166629899
 10
916.161626643
 20
588.8221831906
 10
915.3505713404
 20
589.0931459058
 10
914.3938571871
 20
589.1883047211
  0
LWPOLYLINE
  5
43E
330
1F
100
AcDbEntity
  8
0
100
AcDbPolyline
 90
       17
 70
   128
 43
0.0
 10
764.4024342955
 20
587.412473737
 10
763.9432103098
 20
587.3667867768
 10
763.5539025725
 20
587.2367294419
 10
763.2937730015
 20
587.0420606721
 10
763.2024288834
 20
586.8124635804
 10
763.2937730015
 20
586.5828664887
 10
763.5539025725
 20
586.3881977189
 10
763.9432103098
 20
586.258140384
 10
764.4024342955
 20
586.2124534238
 10
764.8616508306
 20
586.258140384
 10
765.2509585679
 20
586.3881977189
 10
765.5110881389
 20
586.5828664887
 10
765.602432257
 20
586.8124635804
 10
765.5110881389
 20
587.0420606721
 10
765.2509585679
 20
587.2367294419
 10
764.8616508306
 20
587.3667867768
 10
764.4024342955
 20
587.412473737
  0
LWPOLYLINE
  5
43F
330
1F
100
AcDbEntity
  8
0
100
AcDbPolyline
 90
        7
 70
   128
 43
0.0
 10
764.4024342955
 20
589.1883047211
 10
763.4457201422
 20
589.0931459058
 10
762.6346648396
 20
588.8221831906
 10
762.0927319587
 20
588.4166629899
 10
761.9024292291
 20
587.9383059132
 10
762.0927319587
 20
587.4599488366
 10
762.3611912788
 20
587.2166128743
  0
LWPOLYLINE
  5
440
330
1F
100
AcDbEntity
  8
0
100
AcDbPolyline
 90
        7
 70
   128
 43
0.0
 10
766.4436698616
 20
587.2166128743
 10
766.7121291817
 20
587.4599488366
 10
766.9024319113
 20
587.9383059132
 10
766.7121291817
 20
588.4166629899
 10
766.1701963008
 20
588.8221831906
 10
765.3591409982
 20
589.0931459058
 10
764.4024342955
 20
589.1883047211
  0
LWPOLYLINE
  5
441
330
1F
100
AcDbEntity
  8
0
100
AcDbPolyline
 90
       17
 70
   128
 43
0.0
 10
614.4109965027
 20
587.412473737
 10
613.9517874182
 20
587.3667867768
 10
613.5624796808
 20
587.2367294419
 10
613.3023501099
 20
587.0420606721
 10
613.2110059918
 20
586.8124635804
 10
613.3023501099
 20
586.5828664887
 10
613.5624796808
 20
586.3881977189
 10
613.9517874182
 20
586.258140384
 10
614.4109965027
 20
586.2124534238
 10
614.8702204884
 20
586.258140384
 10
615.2595282257
 20
586.3881977189
 10
615.5196577967
 20
586.5828664887
 10
615.6110019148
 20
586.8124635804
 10
615.5196577967
 20
587.0420606721
 10
615.2595282257
 20
587.2367294419
 10
614.8702204884
 20
587.3667867768
 10
614.4109965027
 20
587.412473737
  0
LWPOLYLINE
  5
442
330
1F
100
AcDbEntity
  8
0
100
AcDbPolyline
 90
        7
 70
   128
 43
0.0
 10
614.4109965027
 20
589.1883047211
 10
613.4542972506
 20
589.0931459058
 10
612.643241948
 20
588.8221831906
 10
612.1013016165
 20
588.4166629899
 10
611.9109988869
 20
587.9383059132
 10
612.1013016165
 20
587.4599488366
 10
612.3697609366
 20
587.2166128743
  0
LWPOLYLINE
  5
443
330
1F
100
AcDbEntity
  8
0
100
AcDbPolyline
 90
        7
 70
   128
 43
0.0
 10
616.45224697
 20
587.2166128743
 10
616.7207062901
 20
587.4599488366
 10
616.9110090197
 20
587.9383059132
 10
616.7207062901
 20
588.4166629899
 10
616.1787659586
 20
588.8221831906
 10
615.367710656
 20
589.0931459058
 10
614.4109965027
 20
589.1883047211
  0
LWPOLYLINE
  5
444
330
1F
100
AcDbEntity
  8
0
100
AcDbPolyline
 90
       17
 70
   128
 43
0.0
 10
298.6453176201
 20
481.0766251671
 10
298.1860638321
 20
481.0309382069
 10
297.7967858971
 20
480.900880872
 10
297.5366712273
 20
480.7062121022
 10
297.4452973068
 20
480.4766150105
 10
297.5366712273
 20
480.2470179188
 10
297.7967858971
 20
480.052349149
 10
298.1860638321
 20
479.9222918141
 10
298.6453176201
 20
479.8766048539
 10
299.1045118035
 20
479.9222918141
 10
299.4938493431
 20
480.052349149
 10
299.7539640129
 20
480.2470179188
 10
299.8452783287
 20
480.4766150105
 10
299.7539640129
 20
480.7062121022
 10
299.4938493431
 20
480.900880872
 10
299.1045118035
 20
481.0309382069
 10
298.6453176201
 20
481.0766251671
  0
LWPOLYLINE
  5
445
330
1F
100
AcDbEntity
  8
0
100
AcDbPolyline
 90
        7
 70
   128
 43
0.0
 10
298.6453176201
 20
482.8524561513
 10
297.6886034668
 20
482.7572973359
 10
296.8775630654
 20
482.4863346207
 10
296.3355780304
 20
482.08081442
 10
296.1453200043
 20
481.6024573434
 10
296.3355780304
 20
481.1241002667
 10
296.6040373505
 20
480.8807643044
  0
LWPOLYLINE
  5
446
330
1F
100
AcDbEntity
  8
0
100
AcDbPolyline
 90
        7
 70
   128
 43
0.0
 10
300.6865382851
 20
480.8807643044
 10
300.9549976052
 20
481.1241002667
 10
301.1453152359
 20
481.6024573434
 10
300.9549976052
 20
482.08081442
 10
300.4130721749
 20
482.4863346207
 10
299.6020317734
 20
482.7572973359
 10
298.6453176201
 20
482.8524561513
  0
LWPOLYLINE
  5
447
330
1F
100
AcDbEntity
  8
0
100
AcDbPolyline
 90
       21
 70
   128
 43
0.0
 10
1365.6481505097
 20
439.3049450505
 10
1364.4430041969
 20
439.4702585328
 10
1363.3557558716
 20
439.9500163186
 10
1362.4929786385
 20
440.6972201455
 10
1361.9390130699
 20
441.6387649167
 10
1361.7481589974
 20
442.6824422467
 10
1361.9390130699
 20
443.726149379
 10
1362.4929786385
 20
444.6676941502
 10
1363.3557558716
 20
445.4148979771
 10
1364.4430041969
 20
445.8946557629
 10
1365.6481505097
 20
446.0599692452
 10
1366.8532968224
 20
445.8946557629
 10
1367.9404855431
 20
445.4148979771
 10
1368.8033223808
 20
444.6676941502
 10
1369.3572879494
 20
443.726149379
 10
1369.548142022
 20
442.6824422467
 10
1369.3572879494
 20
441.6387649167
 10
1368.8033223808
 20
440.6972201455
 10
1367.9404855431
 20
439.9500163186
 10
1366.8532968224
 20
439.4702585328
 10
1365.6481505097
 20
439.3049450505
  0
LWPOLYLINE
  5
448
330
1F
100
AcDbEntity
  8
0
100
AcDbPolyline
 90
       17
 70
   128
 43
0.0
 10
1365.6481505097
 20
442.4798162568
 10
1365.2272225083
 20
442.5523551095
 10
1364.8703098953
 20
442.7588554013
 10
1364.6318913162
 20
443.0679054845
 10
1364.5481467903
 20
443.4324474919
 10
1364.6318913162
 20
443.7970193017
 10
1364.8703098953
 20
444.1060693848
 10
1365.2272225083
 20
444.3125696767
 10
1365.6481505097
 20
444.385078727
 10
1366.0690785111
 20
444.3125696767
 10
1366.425991124
 20
444.1060693848
 10
1366.6644097031
 20
443.7970193017
 10
1366.748154229
 20
443.4324474919
 10
1366.6644097031
 20
443.0679054845
 10
1366.425991124
 20
442.7588554013
 10
1366.0690785111
 20
442.5523551095
 10
1365.6481505097
 20
442.4798162568
  0
ARC
  5
449
330
1F
100
AcDbEntity
  8
0
100
AcDbCircle
 10
1365.6481505097
 20
443.1421776874
 30
0.0
 40
1.117539189217357
100
AcDbArc
 50
11.1071223455
 51
168.8928776545
  0
LWPOLYLINE
  5
44A
330
1F
100
AcDbEntity
  8
0
100
AcDbPolyline
 90
       17
 70
   128
 43
0.0
 10
314.4281507195
 20
587.412473737
 10
313.9688969315
 20
587.3667867768
 10
313.5796189964
 20
587.2367294419
 10
313.3195043266
 20
587.0420606721
 10
313.2281304062
 20
586.8124635804
 10
313.3195043266
 20
586.5828664887
 10
313.5796189964
 20
586.3881977189
 10
313.9688969315
 20
586.258140384
 10
314.4281507195
 20
586.2124534238
 10
314.8873449028
 20
586.258140384
 10
315.2766824425
 20
586.3881977189
 10
315.5367971123
 20
586.5828664887
 10
315.6281710327
 20
586.8124635804
 10
315.5367971123
 20
587.0420606721
 10
315.2766824425
 20
587.2367294419
 10
314.8873449028
 20
587.3667867768
 10
314.4281507195
 20
587.412473737
  0
LWPOLYLINE
  5
44B
330
1F
100
AcDbEntity
  8
0
100
AcDbPolyline
 90
        7
 70
   128
 43
0.0
 10
314.4281507195
 20
589.1883047211
 10
313.4714365662
 20
589.0931459058
 10
312.6603961647
 20
588.8221831906
 10
312.1184707344
 20
588.4166629899
 10
311.9281531037
 20
587.9383059132
 10
312.1184707344
 20
587.4599488366
 10
312.3869300545
 20
587.2166128743
  0
LWPOLYLINE
  5
44C
330
1F
100
AcDbEntity
  8
0
100
AcDbPolyline
 90
        7
 70
   128
 43
0.0
 10
316.4693713844
 20
587.2166128743
 10
316.7378307045
 20
587.4599488366
 10
316.9281483353
 20
587.9383059132
 10
316.7378307045
 20
588.4166629899
 10
316.1959052742
 20
588.8221831906
 10
315.3848648728
 20
589.0931459058
 10
314.4281507195
 20
589.1883047211
  0
LWPOLYLINE
  5
44D
330
1F
100
AcDbEntity
  8
0
100
AcDbPolyline
 90
       21
 70
   128
 43
0.0
 10
313.1481409729
 20
439.3049450505
 10
311.9429946602
 20
439.4702585328
 10
310.8558059395
 20
439.9500163186
 10
309.9929691017
 20
440.6972201455
 10
309.4390035332
 20
441.6387649167
 10
309.2481494606
 20
442.6824422467
 10
309.4390035332
 20
443.726149379
 10
309.9929691017
 20
444.6676941502
 10
310.8558059395
 20
445.4148979771
 10
311.9429946602
 20
445.8946557629
 10
313.1481409729
 20
446.0599692452
 10
314.3532872856
 20
445.8946557629
 10
315.440535611
 20
445.4148979771
 10
316.3033128441
 20
444.6676941502
 10
316.8572784126
 20
443.726149379
 10
317.0481324852
 20
442.6824422467
 10
316.8572784126
 20
441.6387649167
 10
316.3033128441
 20
440.6972201455
 10
315.440535611
 20
439.9500163186
 10
314.3532872856
 20
439.4702585328
 10
313.1481409729
 20
439.3049450505
  0
LWPOLYLINE
  5
44E
330
1F
100
AcDbEntity
  8
0
100
AcDbPolyline
 90
       17
 70
   128
 43
0.0
 10
313.1481409729
 20
442.4798162568
 10
312.7272129715
 20
442.5523551095
 10
312.3703003586
 20
442.7588554013
 10
312.1318817795
 20
443.0679054845
 10
312.0481372536
 20
443.4324474919
 10
312.1318817795
 20
443.7970193017
 10
312.3703003586
 20
444.1060693848
 10
312.7272129715
 20
444.3125696767
 10
313.1481409729
 20
444.385078727
 10
313.5690689743
 20
444.3125696767
 10
313.9259815872
 20
444.1060693848
 10
314.1644001663
 20
443.7970193017
 10
314.2481446922
 20
443.4324474919
 10
314.1644001663
 20
443.0679054845
 10
313.9259815872
 20
442.7588554013
 10
313.5690689743
 20
442.5523551095
 10
313.1481409729
 20
442.4798162568
  0
ARC
  5
44F
330
1F
100
AcDbEntity
  8
0
100
AcDbCircle
 10
313.1481409729
 20
443.1421776874
 30
0.0
 40
1.117539189217357
100
AcDbArc
 50
11.1071223455
 51
168.8928776545
  0
LINE
  5
450
330
1F
100
AcDbEntity
  8
0
100
AcDbLine
 10
1385.1481676758
 20
178.022203027
 30
0.0
 11
1385.1481676758
 21
179.5222030401
 31
0.0
  0
LINE
  5
451
330
1F
100
AcDbEntity
  8
0
100
AcDbLine
 10
1390.1481629074
 20
179.5222030401
 30
0.0
 11
1390.1481629074
 21
178.022203027
 31
0.0
  0
LINE
  5
452
330
1F
100
AcDbEntity
  8
0
100
AcDbLine
 10
1385.1481676758
 20
179.5222030401
 30
0.0
 11
1390.1481629074
 21
179.5222030401
 31
0.0
  0
LINE
  5
453
330
1F
100
AcDbEntity
  8
0
100
AcDbLine
 10
1390.1481629074
 20
178.022203027
 30
0.0
 11
1385.1481676758
 21
178.022203027
 31
0.0
  0
ARC
  5
454
330
1F
100
AcDbEntity
  8
0
100
AcDbCircle
 10
1370.6481457413
 20
180.522203027
 30
0.0
 40
0.5
100
AcDbArc
 50
360.0
 51
90.0
  0
LINE
  5
455
330
1F
100
AcDbEntity
  8
0
100
AcDbLine
 10
1371.1481691063
 20
180.022203122
 30
0.0
 11
1371.1481691063
 21
180.5222029711
 31
0.0
  0
ARC
  5
456
330
1F
100
AcDbEntity
  8
0
100
AcDbCircle
 10
1371.6481457413
 20
180.022203027
 30
0.0
 40
0.5
100
AcDbArc
 50
180.0
 51
270.0
  0
ARC
  5
457
330
1F
100
AcDbEntity
  8
0
100
AcDbCircle
 10
1371.1481457413
 20
178.522203027
 30
0.0
 40
0.5000000000000284
100
AcDbArc
 50
180.0
 51
270.0
  0
LINE
  5
458
330
1F
100
AcDbEntity
  8
0
100
AcDbLine
 10
1371.6481328667
 20
179.5222030401
 30
0.0
 11
1385.1481676758
 21
179.5222030401
 31
0.0
  0
LINE
  5
459
330
1F
100
AcDbEntity
  8
0
100
AcDbLine
 10
1385.1481676758
 20
178.022203027
 30
0.0
 11
1371.1481691063
 21
178.022203027
 31
0.0
  0
LINE
  5
45A
330
1F
100
AcDbEntity
  8
0
100
AcDbLine
 10
1372.1481562317
 20
180.022203122
 30
0.0
 11
1390.1481629074
 21
180.022203122
 31
0.0
  0
LINE
  5
45B
330
1F
100
AcDbEntity
  8
0
100
AcDbLine
 10
1372.1481562317
 20
179.5222030401
 30
0.0
 11
1372.1481562317
 21
180.022203122
 31
0.0
  0
LINE
  5
45C
330
1F
100
AcDbEntity
  8
0
100
AcDbLine
 10
1390.1481629074
 20
180.022203122
 30
0.0
 11
1390.1481629074
 21
179.5222030401
 31
0.0
  0
LINE
  5
45D
330
1F
100
AcDbEntity
  8
0
100
AcDbLine
 10
1390.1481629074
 20
180.5222029711
 30
0.0
 11
1372.1481562317
 21
180.5222029711
 31
0.0
  0
LINE
  5
45E
330
1F
100
AcDbEntity
  8
0
100
AcDbLine
 10
1372.1481562317
 20
181.0222030531
 30
0.0
 11
1388.648152417
 21
181.0222030531
 31
0.0
  0
LINE
  5
45F
330
1F
100
AcDbEntity
  8
0
100
AcDbLine
 10
1388.648152417
 20
181.0222030531
 30
0.0
 11
1390.1481629074
 21
181.0222030531
 31
0.0
  0
LINE
  5
460
330
1F
100
AcDbEntity
  8
0
100
AcDbLine
 10
1372.1481562317
 20
180.5222029711
 30
0.0
 11
1372.1481562317
 21
181.0222030531
 31
0.0
  0
LINE
  5
461
330
1F
100
AcDbEntity
  8
0
100
AcDbLine
 10
1390.1481629074
 20
181.0222030531
 30
0.0
 11
1390.1481629074
 21
180.5222029711
 31
0.0
  0
LINE
  5
462
330
1F
100
AcDbEntity
  8
0
100
AcDbLine
 10
1372.1481562317
 20
180.022203122
 30
0.0
 11
1372.1481562317
 21
180.5222029711
 31
0.0
  0
LINE
  5
463
330
1F
100
AcDbEntity
  8
0
100
AcDbLine
 10
1390.1481629074
 20
180.022203122
 30
0.0
 11
1390.1481629074
 21
180.5222029711
 31
0.0
  0
LINE
  5
464
330
1F
100
AcDbEntity
  8
0
100
AcDbLine
 10
288.6481285752
 20
178.022203027
 30
0.0
 11
288.6481285752
 21
179.5222030401
 31
0.0
  0
LINE
  5
465
330
1F
100
AcDbEntity
  8
0
100
AcDbLine
 10
293.6481238068
 20
179.5222030401
 30
0.0
 11
293.6481238068
 21
178.022203027
 31
0.0
  0
LINE
  5
466
330
1F
100
AcDbEntity
  8
0
100
AcDbLine
 10
293.6481238068
 20
178.022203027
 30
0.0
 11
288.6481285752
 21
178.022203027
 31
0.0
  0
LINE
  5
467
330
1F
100
AcDbEntity
  8
0
100
AcDbLine
 10
288.6481285752
 20
179.5222030401
 30
0.0
 11
293.6481238068
 21
179.5222030401
 31
0.0
  0
LINE
  5
468
330
1F
100
AcDbEntity
  8
0
100
AcDbLine
 10
307.6481223763
 20
180.022203122
 30
0.0
 11
307.6481223763
 21
180.5222029711
 31
0.0
  0
ARC
  5
469
330
1F
100
AcDbEntity
  8
0
100
AcDbCircle
 10
308.1481457413
 20
180.522203027
 30
0.0
 40
0.5000000000000284
100
AcDbArc
 50
90.0
 51
180.0
  0
ARC
  5
46A
330
1F
100
AcDbEntity
  8
0
100
AcDbCircle
 10
307.1481457413
 20
180.022203027
 30
0.0
 40
0.5000000000001705
100
AcDbArc
 50
270.0
 51
0.0
  0
ARC
  5
46B
330
1F
100
AcDbEntity
  8
0
100
AcDbCircle
 10
307.6481457413
 20
178.522203027
 30
0.0
 40
0.5
100
AcDbArc
 50
270.0
 51
0.0
  0
LINE
  5
46C
330
1F
100
AcDbEntity
  8
0
100
AcDbLine
 10
307.6481223763
 20
178.022203027
 30
0.0
 11
293.6481238068
 21
178.022203027
 31
0.0
  0
LINE
  5
46D
330
1F
100
AcDbEntity
  8
0
100
AcDbLine
 10
293.6481238068
 20
179.5222030401
 30
0.0
 11
307.1481586159
 21
179.5222030401
 31
0.0
  0
LINE
  5
46E
330
1F
100
AcDbEntity
  8
0
100
AcDbLine
 10
288.6481285752
 20
180.022203122
 30
0.0
 11
306.6481352509
 21
180.022203122
 31
0.0
  0
LINE
  5
46F
330
1F
100
AcDbEntity
  8
0
100
AcDbLine
 10
306.6481352509
 20
180.022203122
 30
0.0
 11
306.6481352509
 21
179.5222030401
 31
0.0
  0
LINE
  5
470
330
1F
100
AcDbEntity
  8
0
100
AcDbLine
 10
288.6481285752
 20
179.5222030401
 30
0.0
 11
288.6481285752
 21
180.022203122
 31
0.0
  0
LINE
  5
471
330
1F
100
AcDbEntity
  8
0
100
AcDbLine
 10
306.6481352509
 20
180.5222029711
 30
0.0
 11
288.6481285752
 21
180.5222029711
 31
0.0
  0
LINE
  5
472
330
1F
100
AcDbEntity
  8
0
100
AcDbLine
 10
306.6481352509
 20
180.5222029711
 30
0.0
 11
306.6481352509
 21
180.022203122
 31
0.0
  0
LINE
  5
473
330
1F
100
AcDbEntity
  8
0
100
AcDbLine
 10
288.6481285752
 20
180.022203122
 30
0.0
 11
288.6481285752
 21
180.5222029711
 31
0.0
  0
LINE
  5
474
330
1F
100
AcDbEntity
  8
0
100
AcDbLine
 10
288.6481285752
 20
181.0222030531
 30
0.0
 11
290.1481390656
 21
181.0222030531
 31
0.0
  0
LINE
  5
475
330
1F
100
AcDbEntity
  8
0
100
AcDbLine
 10
290.1481390656
 20
181.0222030531
 30
0.0
 11
306.6481352509
 21
181.0222030531
 31
0.0
  0
LINE
  5
476
330
1F
100
AcDbEntity
  8
0
100
AcDbLine
 10
306.6481352509
 20
181.0222030531
 30
0.0
 11
306.6481352509
 21
180.5222029711
 31
0.0
  0
LINE
  5
477
330
1F
100
AcDbEntity
  8
0
100
AcDbLine
 10
288.6481285752
 20
180.5222029711
 30
0.0
 11
288.6481285752
 21
181.0222030531
 31
0.0
  0
LINE
  5
478
330
1F
100
AcDbEntity
  8
0
100
AcDbLine
 10
1370.6481457413
 20
187.0222026396
 30
0.0
 11
308.1481457413
 21
187.0222026396
 31
0.0
  0
LINE
  5
479
330
1F
100
AcDbEntity
  8
0
100
AcDbLine
 10
1370.6481457413
 20
178.022203027
 30
0.0
 11
308.1481457413
 21
178.022203027
 31
0.0
  0
LINE
  5
47A
330
1F
100
AcDbEntity
  8
0
100
AcDbLine
 10
308.1481457413
 20
178.022203027
 30
0.0
 11
308.1481457413
 21
187.0222026396
 31
0.0
  0
LINE
  5
47B
330
1F
100
AcDbEntity
  8
0
100
AcDbLine
 10
1370.6481457413
 20
178.022203027
 30
0.0
 11
1370.6481457413
 21
187.0222026396
 31
0.0
  0
LINE
  5
47C
330
1F
100
AcDbEntity
  8
0
100
AcDbLine
 10
1370.6481457413
 20
189.0222029674
 30
0.0
 11
308.1481457413
 21
189.0222029674
 31
0.0
  0
LINE
  5
47D
330
1F
100
AcDbEntity
  8
0
100
AcDbLine
 10
308.1481457413
 20
187.0222026396
 30
0.0
 11
308.1481457413
 21
189.0222029674
 31
0.0
  0
LINE
  5
47E
330
1F
100
AcDbEntity
  8
0
100
AcDbLine
 10
1370.6481457413
 20
187.0222026396
 30
0.0
 11
1370.6481457413
 21
189.0222029674
 31
0.0
  0
LINE
  5
47F
330
1F
100
AcDbEntity
  8
0
100
AcDbLine
 10
1370.6481457413
 20
201.0222030717
 30
0.0
 11
308.1481457413
 21
201.0222030717
 31
0.0
  0
LINE
  5
480
330
1F
100
AcDbEntity
  8
0
100
AcDbLine
 10
308.1481457413
 20
189.0222029674
 30
0.0
 11
308.1481457413
 21
201.0222030717
 31
0.0
  0
LINE
  5
481
330
1F
100
AcDbEntity
  8
0
100
AcDbLine
 10
1370.6481457413
 20
189.0222029674
 30
0.0
 11
1370.6481457413
 21
201.0222030717
 31
0.0
  0
ARC
  5
482
330
1F
100
AcDbEntity
  8
0
100
AcDbCircle
 10
1380.6481457413
 20
189.022203027
 30
0.0
 40
7.0
100
AcDbArc
 50
180.0
 51
270.0
  0
LINE
  5
483
330
1F
100
AcDbEntity
  8
0
100
AcDbLine
 10
1385.6481314362
 20
182.022203217
 30
0.0
 11
1380.6481362045
 21
182.022203217
 31
0.0
  0
ARC
  5
484
330
1F
100
AcDbEntity
  8
0
100
AcDbCircle
 10
1385.6481457413
 20
184.022203027
 30
0.0
 40
2.0
100
AcDbArc
 50
270.0
 51
0.0
  0
LINE
  5
485
330
1F
100
AcDbEntity
  8
0
100
AcDbLine
 10
1387.6481652916
 20
185.0222032431
 30
0.0
 11
1387.6481652916
 21
184.0222030792
 31
0.0
  0
ARC
  5
486
330
1F
100
AcDbEntity
  8
0
100
AcDbCircle
 10
1389.6481457413
 20
185.022203027
 30
0.0
 40
2.000000000000227
100
AcDbArc
 50
90.0
 51
180.0
  0
LINE
  5
487
330
1F
100
AcDbEntity
  8
0
100
AcDbLine
 10
1390.6481266678
 20
187.0222026396
 30
0.0
 11
1389.6481395424
 21
187.0222026396
 31
0.0
  0
LINE
  5
488
330
1F
100
AcDbEntity
  8
0
100
AcDbLine
 10
1390.6481266678
 20
178.022203027
 30
0.0
 11
1390.6481266678
 21
187.0222026396
 31
0.0
  0
LINE
  5
489
330
1F
100
AcDbEntity
  8
0
100
AcDbLine
 10
1370.6481457413
 20
178.022203027
 30
0.0
 11
1371.1481691063
 21
178.022203027
 31
0.0
  0
LINE
  5
48A
330
1F
100
AcDbEntity
  8
0
100
AcDbLine
 10
1390.1481629074
 20
178.022203027
 30
0.0
 11
1390.6481266678
 21
178.022203027
 31
0.0
  0
LINE
  5
48B
330
1F
100
AcDbEntity
  8
0
100
AcDbLine
 10
1373.1481433571
 20
183.0222029153
 30
0.0
 11
1372.3801971138
 21
183.0222029153
 31
0.0
  0
LINE
  5
48C
330
1F
100
AcDbEntity
  8
0
100
AcDbLine
 10
1373.1481433571
 20
182.022203217
 30
0.0
 11
1373.1481433571
 21
183.0222029153
 31
0.0
  0
LINE
  5
48D
330
1F
100
AcDbEntity
  8
0
100
AcDbLine
 10
1371.6481328667
 20
182.022203217
 30
0.0
 11
1373.1481433571
 21
182.022203217
 31
0.0
  0
LINE
  5
48E
330
1F
100
AcDbEntity
  8
0
100
AcDbLine
 10
1371.6481328667
 20
182.022203217
 30
0.0
 11
1371.6481328667
 21
179.5222030401
 31
0.0
  0
LINE
  5
48F
330
1F
100
AcDbEntity
  8
0
100
AcDbLine
 10
1389.6481395424
 20
181.0222030531
 30
0.0
 11
1389.6481395424
 21
186.022203407
 31
0.0
  0
ARC
  5
490
330
1F
100
AcDbEntity
  8
0
100
AcDbCircle
 10
1389.6481457413
 20
185.022203027
 30
0.0
 40
1.0
100
AcDbArc
 50
90.0
 51
180.0
  0
LINE
  5
491
330
1F
100
AcDbEntity
  8
0
100
AcDbLine
 10
1388.648152417
 20
185.0222032431
 30
0.0
 11
1388.648152417
 21
184.0222030792
 31
0.0
  0
ARC
  5
492
330
1F
100
AcDbEntity
  8
0
100
AcDbCircle
 10
1385.6481457413
 20
184.022203027
 30
0.0
 40
3.0
100
AcDbArc
 50
270.0
 51
0.0
  0
LINE
  5
493
330
1F
100
AcDbEntity
  8
0
100
AcDbLine
 10
1385.6481314362
 20
181.0222030531
 30
0.0
 11
1380.6481362045
 21
181.0222030531
 31
0.0
  0
ARC
  5
494
330
1F
100
AcDbEntity
  8
0
100
AcDbCircle
 10
1380.6481457413
 20
189.022203027
 30
0.0
 40
8.0
100
AcDbArc
 50
180.0
 51
270.0
  0
LINE
  5
495
330
1F
100
AcDbEntity
  8
0
100
AcDbLine
 10
1372.6481199921
 20
189.0222029674
 30
0.0
 11
1372.6481199921
 21
201.0222030717
 31
0.0
  0
LINE
  5
496
330
1F
100
AcDbEntity
  8
0
100
AcDbLine
 10
1373.6481667221
 20
201.0222030717
 30
0.0
 11
1372.6481199921
 21
201.0222030717
 31
0.0
  0
LINE
  5
497
330
1F
100
AcDbEntity
  8
0
100
AcDbLine
 10
1373.6481667221
 20
189.0222029674
 30
0.0
 11
1373.6481667221
 21
201.0222030717
 31
0.0
  0
ARC
  5
498
330
1F
100
AcDbEntity
  8
0
100
AcDbCircle
 10
298.1481457413
 20
189.022203027
 30
0.0
 40
8.000000000000028
100
AcDbArc
 50
270.0
 51
0.0
  0
LINE
  5
499
330
1F
100
AcDbEntity
  8
0
100
AcDbLine
 10
293.1481600464
 20
181.0222030531
 30
0.0
 11
298.148155278
 21
181.0222030531
 31
0.0
  0
ARC
  5
49A
330
1F
100
AcDbEntity
  8
0
100
AcDbCircle
 10
293.1481457413
 20
184.022203027
 30
0.0
 40
3.000000000000028
100
AcDbArc
 50
180.0
 51
270.0
  0
LINE
  5
49B
330
1F
100
AcDbEntity
  8
0
100
AcDbLine
 10
290.1481390656
 20
185.0222032431
 30
0.0
 11
290.1481390656
 21
184.0222030792
 31
0.0
  0
ARC
  5
49C
330
1F
100
AcDbEntity
  8
0
100
AcDbCircle
 10
289.1481457413
 20
185.022203027
 30
0.0
 40
1.0
100
AcDbArc
 50
0.0
 51
90.0
  0
LINE
  5
49D
330
1F
100
AcDbEntity
  8
0
100
AcDbLine
 10
289.1481519402
 20
181.0222030531
 30
0.0
 11
289.1481519402
 21
186.022203407
 31
0.0
  0
LINE
  5
49E
330
1F
100
AcDbEntity
  8
0
100
AcDbLine
 10
307.1481586159
 20
182.022203217
 30
0.0
 11
307.1481586159
 21
179.5222030401
 31
0.0
  0
LINE
  5
49F
330
1F
100
AcDbEntity
  8
0
100
AcDbLine
 10
305.6481481255
 20
182.022203217
 30
0.0
 11
307.1481586159
 21
182.022203217
 31
0.0
  0
LINE
  5
4A0
330
1F
100
AcDbEntity
  8
0
100
AcDbLine
 10
305.6481481255
 20
183.0222029153
 30
0.0
 11
305.6481481255
 21
182.022203217
 31
0.0
  0
LINE
  5
4A1
330
1F
100
AcDbEntity
  8
0
100
AcDbLine
 10
306.4160943688
 20
183.0222029153
 30
0.0
 11
305.6481481255
 21
183.0222029153
 31
0.0
  0
LINE
  5
4A2
330
1F
100
AcDbEntity
  8
0
100
AcDbLine
 10
308.1481457413
 20
178.022203027
 30
0.0
 11
307.6481223763
 21
178.022203027
 31
0.0
  0
LINE
  5
4A3
330
1F
100
AcDbEntity
  8
0
100
AcDbLine
 10
288.6481285752
 20
178.022203027
 30
0.0
 11
288.1481648148
 21
178.022203027
 31
0.0
  0
LINE
  5
4A4
330
1F
100
AcDbEntity
  8
0
100
AcDbLine
 10
288.1481648148
 20
178.022203027
 30
0.0
 11
288.1481648148
 21
187.0222026396
 31
0.0
  0
LINE
  5
4A5
330
1F
100
AcDbEntity
  8
0
100
AcDbLine
 10
288.1481648148
 20
187.0222026396
 30
0.0
 11
289.1481519402
 21
187.0222026396
 31
0.0
  0
ARC
  5
4A6
330
1F
100
AcDbEntity
  8
0
100
AcDbCircle
 10
289.1481457413
 20
185.022203027
 30
0.0
 40
2.0
100
AcDbArc
 50
0.0
 51
90.0
  0
LINE
  5
4A7
330
1F
100
AcDbEntity
  8
0
100
AcDbLine
 10
291.148126191
 20
185.0222032431
 30
0.0
 11
291.148126191
 21
184.0222030792
 31
0.0
  0
ARC
  5
4A8
330
1F
100
AcDbEntity
  8
0
100
AcDbCircle
 10
293.1481457413
 20
184.022203027
 30
0.0
 40
2.0
100
AcDbArc
 50
180.0
 51
270.0
  0
LINE
  5
4A9
330
1F
100
AcDbEntity
  8
0
100
AcDbLine
 10
293.1481600464
 20
182.022203217
 30
0.0
 11
298.148155278
 21
182.022203217
 31
0.0
  0
ARC
  5
4AA
330
1F
100
AcDbEntity
  8
0
100
AcDbCircle
 10
298.1481457413
 20
189.022203027
 30
0.0
 40
7.0
100
AcDbArc
 50
270.0
 51
0.0
  0
LINE
  5
4AB
330
1F
100
AcDbEntity
  8
0
100
AcDbLine
 10
305.1481247605
 20
201.0222030717
 30
0.0
 11
306.1481714905
 21
201.0222030717
 31
0.0
  0
LINE
  5
4AC
330
1F
100
AcDbEntity
  8
0
100
AcDbLine
 10
305.1481247605
 20
189.0222029674
 30
0.0
 11
305.1481247605
 21
201.0222030717
 31
0.0
  0
LINE
  5
4AD
330
1F
100
AcDbEntity
  8
0
100
AcDbLine
 10
306.1481714905
 20
189.0222029674
 30
0.0
 11
306.1481714905
 21
201.0222030717
 31
0.0
  0
LINE
  5
4AE
330
1F
100
AcDbEntity
  8
0
100
AcDbLine
 10
1393.1481242836
 20
321.7155309308
 30
0.0
 11
1393.1481242836
 21
589.5591350186
 31
0.0
  0
LINE
  5
4AF
330
1F
100
AcDbEntity
  8
0
100
AcDbLine
 10
285.648167199
 20
321.7155309308
 30
0.0
 11
306.1481714905
 21
321.7155309308
 31
0.0
  0
LINE
  5
4B0
330
1F
100
AcDbEntity
  8
0
100
AcDbLine
 10
1372.6481199921
 20
321.7155309308
 30
0.0
 11
1393.1481242836
 21
321.7155309308
 31
0.0
  0
LINE
  5
4B1
330
1F
100
AcDbEntity
  8
0
100
AcDbLine
 10
285.648167199
 20
589.5591350186
 30
0.0
 11
285.648167199
 21
321.7155309308
 31
0.0
  0
LINE
  5
4B2
330
1F
100
AcDbEntity
  8
0
100
AcDbLine
 10
284.1452956856
 20
313.5945172894
 30
0.0
 11
283.1453085602
 21
313.5945172894
 31
0.0
  0
LINE
  5
4B3
330
1F
100
AcDbEntity
  8
0
100
AcDbLine
 10
284.1452956856
 20
589.5591350186
 30
0.0
 11
283.1453085602
 21
589.5591350186
 31
0.0
  0
LINE
  5
4B4
330
1F
100
AcDbEntity
  8
0
100
AcDbLine
 10
283.1453085602
 20
313.5945172894
 30
0.0
 11
283.1453085602
 21
589.5591350186
 31
0.0
  0
LINE
  5
4B5
330
1F
100
AcDbEntity
  8
0
100
AcDbLine
 10
284.1452956856
 20
313.5945172894
 30
0.0
 11
284.1452956856
 21
589.5591350186
 31
0.0
  0
LINE
  5
4B6
330
1F
100
AcDbEntity
  8
0
100
AcDbLine
 10
284.1452956856
 20
596.4873405087
 30
0.0
 11
283.1453085602
 21
596.4873405087
 31
0.0
  0
LINE
  5
4B7
330
1F
100
AcDbEntity
  8
0
100
AcDbLine
 10
283.1453085602
 20
589.5591350186
 30
0.0
 11
283.1453085602
 21
596.4873405087
 31
0.0
  0
LINE
  5
4B8
330
1F
100
AcDbEntity
  8
0
100
AcDbLine
 10
284.1452956856
 20
589.5591350186
 30
0.0
 11
284.1452956856
 21
596.4873405087
 31
0.0
  0
ARC
  5
4B9
330
1F
100
AcDbEntity
  8
0
100
AcDbCircle
 10
285.0463976288
 20
595.76902376
 30
0.0
 40
1.952879719224063
100
AcDbArc
 50
87.0975542208
 51
158.4184971459
  0
LINE
  5
4BA
330
1F
100
AcDbEntity
  8
0
100
AcDbLine
 10
285.145282811
 20
597.7193983185
 30
0.0
 11
285.145282811
 21
596.9873340714
 31
0.0
  0
ARC
  5
4BB
330
1F
100
AcDbEntity
  8
0
100
AcDbCircle
 10
284.9566037787
 20
595.9751844448
 30
0.0
 40
0.8113992533422316
100
AcDbArc
 50
130.641523259
 51
179.1411304812
  0
ARC
  5
4BC
330
1F
100
AcDbEntity
  8
0
100
AcDbCircle
 10
285.0827913282
 20
320.9505519669
 30
0.0
 40
0.9402689918459342
100
AcDbArc
 50
86.1892400939
 51
175.5982978013
  0
LINE
  5
4BD
330
1F
100
AcDbEntity
  8
0
100
AcDbLine
 10
285.4281664551
 20
597.5779564965
 30
0.0
 11
285.145282811
 21
597.7193983185
 31
0.0
  0
LINE
  5
4BE
330
1F
100
AcDbEntity
  8
0
100
AcDbLine
 10
285.145282811
 20
321.8887420285
 30
0.0
 11
285.648167199
 21
322.1401693213
 31
0.0
  0
LINE
  5
4BF
330
1F
100
AcDbEntity
  8
0
100
AcDbLine
 10
1394.650995797
 20
589.5591350186
 30
0.0
 11
1395.6509829224
 21
589.5591350186
 31
0.0
  0
LINE
  5
4C0
330
1F
100
AcDbEntity
  8
0
100
AcDbLine
 10
1394.650995797
 20
313.5945172894
 30
0.0
 11
1395.6509829224
 21
313.5945172894
 31
0.0
  0
LINE
  5
4C1
330
1F
100
AcDbEntity
  8
0
100
AcDbLine
 10
1394.650995797
 20
589.5591350186
 30
0.0
 11
1394.650995797
 21
313.5945172894
 31
0.0
  0
LINE
  5
4C2
330
1F
100
AcDbEntity
  8
0
100
AcDbLine
 10
1395.6509829224
 20
589.5591350186
 30
0.0
 11
1395.6509829224
 21
313.5945172894
 31
0.0
  0
LINE
  5
4C3
330
1F
100
AcDbEntity
  8
0
100
AcDbLine
 10
1394.650995797
 20
596.4873405087
 30
0.0
 11
1395.6509829224
 21
596.4873405087
 31
0.0
  0
LINE
  5
4C4
330
1F
100
AcDbEntity
  8
0
100
AcDbLine
 10
1394.650995797
 20
596.4873405087
 30
0.0
 11
1394.650995797
 21
589.5591350186
 31
0.0
  0
LINE
  5
4C5
330
1F
100
AcDbEntity
  8
0
100
AcDbLine
 10
1395.6509829224
 20
596.4873405087
 30
0.0
 11
1395.6509829224
 21
589.5591350186
 31
0.0
  0
ARC
  5
4C6
330
1F
100
AcDbEntity
  8
0
100
AcDbCircle
 10
1393.7230462638
 20
595.7272973541
 30
0.0
 40
1.99340303687448
100
AcDbArc
 50
22.4129430071
 51
92.0710056262
  0
ARC
  5
4C7
330
1F
100
AcDbEntity
  8
0
100
AcDbCircle
 10
1393.8396877039
 20
595.9751844448
 30
0.0
 40
0.8113992533425017
100
AcDbArc
 50
0.8588695188
 51
49.3584767409
  0
ARC
  5
4C8
330
1F
100
AcDbEntity
  8
0
100
AcDbCircle
 10
1393.7135001543
 20
320.9505519669
 30
0.0
 40
0.940268991846379
100
AcDbArc
 50
4.4017021987
 51
93.8107599061
  0
LINE
  5
4C9
330
1F
100
AcDbEntity
  8
0
100
AcDbLine
 10
1393.6510086716
 20
597.7193983185
 30
0.0
 11
1393.6510086716
 21
596.9873340714
 31
0.0
  0
LINE
  5
4CA
330
1F
100
AcDbEntity
  8
0
100
AcDbLine
 10
1393.6510086716
 20
597.7193983185
 30
0.0
 11
1393.3681250275
 21
597.5779564965
 31
0.0
  0
LINE
  5
4CB
330
1F
100
AcDbEntity
  8
0
100
AcDbLine
 10
1393.1481242836
 20
322.1401693213
 30
0.0
 11
1393.6510086716
 21
321.8887420285
 31
0.0
  0
LINE
  5
4CC
330
1F
100
AcDbEntity
  8
0
100
AcDbLine
 10
1394.3681717575
 20
596.9873340714
 30
0.0
 11
1393.3681250275
 21
596.9873340714
 31
0.0
  0
LINE
  5
4CD
330
1F
100
AcDbEntity
  8
0
100
AcDbLine
 10
1394.3681717575
 20
590.0591285813
 30
0.0
 11
1394.3681717575
 21
596.9873340714
 31
0.0
  0
LINE
  5
4CE
330
1F
100
AcDbEntity
  8
0
100
AcDbLine
 10
284.4281197251
 20
590.0591285813
 30
0.0
 11
1394.3681717575
 21
590.0591285813
 31
0.0
  0
LINE
  5
4CF
330
1F
100
AcDbEntity
  8
0
100
AcDbLine
 10
284.4281197251
 20
596.9873340714
 30
0.0
 11
284.4281197251
 21
590.0591285813
 31
0.0
  0
LINE
  5
4D0
330
1F
100
AcDbEntity
  8
0
100
AcDbLine
 10
285.4281664551
 20
596.9873340714
 30
0.0
 11
284.4281197251
 21
596.9873340714
 31
0.0
  0
LINE
  5
4D1
330
1F
100
AcDbEntity
  8
0
100
AcDbLine
 10
285.4281664551
 20
596.9873340714
 30
0.0
 11
1393.3681250275
 21
596.9873340714
 31
0.0
  0
LINE
  5
4D2
330
1F
100
AcDbEntity
  8
0
100
AcDbLine
 10
1394.3681717575
 20
589.5591350186
 30
0.0
 11
1394.3681717575
 21
590.0591285813
 31
0.0
  0
LINE
  5
4D3
330
1F
100
AcDbEntity
  8
0
100
AcDbLine
 10
284.4281197251
 20
589.5591350186
 30
0.0
 11
1394.3681717575
 21
589.5591350186
 31
0.0
  0
LINE
  5
4D4
330
1F
100
AcDbEntity
  8
0
100
AcDbLine
 10
284.4281197251
 20
589.5591350186
 30
0.0
 11
284.4281197251
 21
590.0591285813
 31
0.0
  0
LINE
  5
4D5
330
1F
100
AcDbEntity
  8
0
100
AcDbLine
 10
1393.3681250275
 20
597.9873211968
 30
0.0
 11
1393.3681250275
 21
596.9873340714
 31
0.0
  0
LINE
  5
4D6
330
1F
100
AcDbEntity
  8
0
100
AcDbLine
 10
285.4281664551
 20
596.9873340714
 30
0.0
 11
285.4281664551
 21
597.9873211968
 31
0.0
  0
LINE
  5
4D7
330
1F
100
AcDbEntity
  8
0
100
AcDbLine
 10
1393.3681250275
 20
321.8887420285
 30
0.0
 11
1393.1481242836
 21
321.9987424004
 31
0.0
  0
LINE
  5
4D8
330
1F
100
AcDbEntity
  8
0
100
AcDbLine
 10
285.648167199
 20
321.9987424004
 30
0.0
 11
285.4281664551
 21
321.8887420285
 31
0.0
  0
LINE
  5
4D9
330
1F
100
AcDbEntity
  8
0
100
AcDbLine
 10
285.4281664551
 20
322.0301689494
 30
0.0
 11
285.4281664551
 21
321.8887420285
 31
0.0
  0
LINE
  5
4DA
330
1F
100
AcDbEntity
  8
0
100
AcDbLine
 10
1393.3681250275
 20
322.0301689494
 30
0.0
 11
1393.3681250275
 21
321.8887420285
 31
0.0
  0
LINE
  5
4DB
330
1F
100
AcDbEntity
  8
0
100
AcDbLine
 10
284.4281197251
 20
313.5945172894
 30
0.0
 11
284.4281197251
 21
320.5227227795
 31
0.0
  0
LINE
  5
4DC
330
1F
100
AcDbEntity
  8
0
100
AcDbLine
 10
284.4281197251
 20
320.5227227795
 30
0.0
 11
285.4281664551
 21
320.5227227795
 31
0.0
  0
LINE
  5
4DD
330
1F
100
AcDbEntity
  8
0
100
AcDbLine
 10
1393.3681250275
 20
320.5227227795
 30
0.0
 11
1394.3681717575
 21
320.5227227795
 31
0.0
  0
LINE
  5
4DE
330
1F
100
AcDbEntity
  8
0
100
AcDbLine
 10
1394.3681717575
 20
320.5227227795
 30
0.0
 11
1394.3681717575
 21
313.5945172894
 31
0.0
  0
LINE
  5
4DF
330
1F
100
AcDbEntity
  8
0
100
AcDbLine
 10
1394.3681717575
 20
313.5945172894
 30
0.0
 11
1372.6481199921
 21
313.5945172894
 31
0.0
  0
LINE
  5
4E0
330
1F
100
AcDbEntity
  8
0
100
AcDbLine
 10
306.1481714905
 20
313.5945172894
 30
0.0
 11
284.4281197251
 21
313.5945172894
 31
0.0
  0
LINE
  5
4E1
330
1F
100
AcDbEntity
  8
0
100
AcDbLine
 10
1394.3681717575
 20
313.5945172894
 30
0.0
 11
1394.3681717575
 21
313.0945088256
 31
0.0
  0
LINE
  5
4E2
330
1F
100
AcDbEntity
  8
0
100
AcDbLine
 10
1394.3681717575
 20
313.0945088256
 30
0.0
 11
1372.6481199921
 21
313.0945088256
 31
0.0
  0
LINE
  5
4E3
330
1F
100
AcDbEntity
  8
0
100
AcDbLine
 10
306.1481714905
 20
313.0945088256
 30
0.0
 11
284.4281197251
 21
313.0945088256
 31
0.0
  0
LINE
  5
4E4
330
1F
100
AcDbEntity
  8
0
100
AcDbLine
 10
284.4281197251
 20
313.5945172894
 30
0.0
 11
284.4281197251
 21
313.0945088256
 31
0.0
  0
LINE
  5
4E5
330
1F
100
AcDbEntity
  8
0
100
AcDbLine
 10
1393.3681250275
 20
320.5227227795
 30
0.0
 11
1393.3681250275
 21
321.8887420285
 31
0.0
  0
LINE
  5
4E6
330
1F
100
AcDbEntity
  8
0
100
AcDbLine
 10
285.4281664551
 20
321.8887420285
 30
0.0
 11
285.4281664551
 21
320.5227227795
 31
0.0
  0
SPLINE
  5
4E7
330
1F
100
AcDbEntity
  8
0
100
AcDbSpline
210
0.0
220
0.0
230
1.0
 70
     8
 71
     3
 72
    11
 73
     7
 74
     0
 42
0.000000001
 43
0.00000001
 40
0.0
 40
0.0
 40
0.0
 40
0.0
 40
0.2500015764913852
 40
0.4999947295639907
 40
0.7499976646739459
 40
0.9999999999999999
 40
0.9999999999999999
 40
0.9999999999999999
 40
0.9999999999999999
 10
306.1481714904958
 20
432.7542455780684
 30
0.0
 10
306.1782328168096
 20
432.7334473518645
 30
0.0
 10
306.2383544565671
 20
432.6918516002208
 30
0.0
 10
306.7008055105559
 20
432.6293892043331
 30
0.0
 10
307.3619070765074
 20
432.5670085323441
 30
0.0
 10
307.886066395948
 20
432.5253773082046
 30
0.0
 10
308.1481457412892
 20
432.5045617211043
 30
0.0
  0
LINE
  5
4E8
330
1F
100
AcDbEntity
  8
0
100
AcDbLine
 10
308.1481457413
 20
183.0222029153
 30
0.0
 11
306.4160943688
 21
183.0222029153
 31
0.0
  0
LINE
  5
4E9
330
1F
100
AcDbEntity
  8
0
100
AcDbLine
 10
306.1481714905
 20
183.0222029153
 30
0.0
 11
306.1481714905
 21
189.0222029674
 31
0.0
  0
LINE
  5
4EA
330
1F
100
AcDbEntity
  8
0
100
AcDbLine
 10
306.1481714905
 20
201.0222030717
 30
0.0
 11
306.1481714905
 21
432.7542455781
 31
0.0
  0
LINE
  5
4EB
330
1F
100
AcDbEntity
  8
0
100
AcDbLine
 10
307.1481586159
 20
432.7542455781
 30
0.0
 11
306.1481714905
 21
432.7542455781
 31
0.0
  0
SPLINE
  5
4EC
330
1F
100
AcDbEntity
  8
0
100
AcDbSpline
210
0.0
220
0.0
230
1.0
 70
     8
 71
     3
 72
    11
 73
     7
 74
     0
 42
0.000000001
 43
0.00000001
 40
0.0
 40
0.0
 40
0.0
 40
0.0
 40
0.250019459897567
 40
0.500024970480342
 40
0.750006816142832
 40
1.0
 40
1.0
 40
1.0
 40
1.0
 10
307.1481586158925
 20
432.7542455780684
 30
0.0
 10
307.1631867950342
 20
432.7334472586536
 30
0.0
 10
307.1932423148517
 20
432.6918517802227
 30
0.0
 10
307.424489323722
 20
432.6293944888124
 30
0.0
 10
307.7550740814481
 20
432.5670061681007
 30
0.0
 10
308.0171198738258
 20
432.5253768514531
 30
0.0
 10
308.1481457412892
 20
432.5045617211043
 30
0.0
  0
LWPOLYLINE
  5
4ED
330
1F
100
AcDbEntity
  8
0
100
AcDbPolyline
 90
        9
 70
   128
 43
0.0
 10
306.1481714905
 20
583.1218333829
 10
306.1865568817
 20
583.3169193852
 10
306.3004017533
 20
583.5044952023
 10
306.4852357567
 20
583.6773784745
 10
306.7339063347
 20
583.8289232838
 10
307.0369959534
 20
583.9532883752
 10
307.3827624977
 20
584.0457053769
 10
307.7579737366
 20
584.1025980103
 10
308.1481457413
 20
584.1218205083
  0
SPLINE
  5
4EE
330
1F
100
AcDbEntity
  8
0
100
AcDbSpline
210
0.0
220
0.0
230
1.0
 70
     8
 71
     3
 72
    11
 73
     7
 74
     0
 42
0.000000001
 43
0.00000001
 40
0.0
 40
0.0
 40
0.0
 40
0.0
 40
0.2500055676287898
 40
0.5000003785855218
 40
0.7499960820997036
 40
1.0
 40
1.0
 40
1.0
 40
1.0
 10
308.1481457412892
 20
433.9704783547103
 30
0.0
 10
307.8860694914453
 20
433.9374272555111
 30
0.0
 10
307.361928267779
 20
433.8713264791605
 30
0.0
 10
306.7007880411338
 20
433.5860455500685
 30
0.0
 10
306.2383573133606
 20
433.2014170510039
 30
0.0
 10
306.178233760703
 20
432.9033043682566
 30
0.0
 10
306.1481714904958
 20
432.7542455780684
 30
0.0
  0
LINE
  5
4EF
330
1F
100
AcDbEntity
  8
0
100
AcDbLine
 10
306.1481714905
 20
432.7542455781
 30
0.0
 11
306.1481714905
 21
583.1218333829
 31
0.0
  0
SPLINE
  5
4F0
330
1F
100
AcDbEntity
  8
0
100
AcDbSpline
210
0.0
220
0.0
230
1.0
 70
     8
 71
     3
 72
    11
 73
     7
 74
     0
 42
0.000000001
 43
0.00000001
 40
0.0
 40
0.0
 40
0.0
 40
0.0
 40
0.2499846769238271
 40
0.4999886408094497
 40
0.7499805956714648
 40
0.9999999999999999
 40
0.9999999999999999
 40
0.9999999999999999
 40
0.9999999999999999
 10
308.1481457412892
 20
433.4704847920119
 30
0.0
 10
308.0171155494497
 20
433.444949478595
 30
0.0
 10
307.7550450564535
 20
433.3938768816462
 30
0.0
 10
307.4245177235792
 20
433.2241831105977
 30
0.0
 10
307.1932336116931
 20
433.0048802111227
 30
0.0
 10
307.1631841643744
 20
432.8377935133109
 30
0.0
 10
307.1481586158925
 20
432.7542455780684
 30
0.0
  0
ARC
  5
4F1
330
1F
100
AcDbEntity
  8
0
100
AcDbCircle
 10
305.2106159838
 20
332.9499750186
 30
0.0
 40
0.9403336565456224
100
AcDbArc
 50
4.4053604894
 51
93.8104816173
  0
LINE
  5
4F2
330
1F
100
AcDbEntity
  8
0
100
AcDbLine
 10
305.1481247605
 20
583.9878590691
 30
0.0
 11
305.1481247605
 21
333.8882299054
 31
0.0
  0
ARC
  5
4F3
330
1F
100
AcDbEntity
  8
0
100
AcDbCircle
 10
305.2105936569
 20
583.0495784003
 30
0.0
 40
0.940357898138555
100
AcDbArc
 50
4.4068222489
 51
93.80901985769998
  0
ARC
  5
4F4
330
1F
100
AcDbEntity
  8
0
100
AcDbCircle
 10
305.3118485912
 20
582.9236331334
 30
0.0
 40
1.894341957349022
100
AcDbArc
 50
31.5112316591
 51
68.0515085975
  0
LINE
  5
4F5
330
1F
100
AcDbEntity
  8
0
100
AcDbLine
 10
289.1481519402
 20
584.6806736577
 30
0.0
 11
289.1481519402
 21
583.9878590691
 31
0.0
  0
LINE
  5
4F6
330
1F
100
AcDbEntity
  8
0
100
AcDbLine
 10
289.1481519402
 20
583.9878590691
 30
0.0
 11
287.1481180847
 21
582.9878421414
 31
0.0
  0
LINE
  5
4F7
330
1F
100
AcDbEntity
  8
0
100
AcDbLine
 10
287.1481180847
 20
582.9878421414
 30
0.0
 11
287.1481180847
 21
583.68065673
 31
0.0
  0
LINE
  5
4F8
330
1F
100
AcDbEntity
  8
0
100
AcDbLine
 10
289.1481519402
 20
583.9878590691
 30
0.0
 11
305.1481247605
 21
583.9878590691
 31
0.0
  0
LINE
  5
4F9
330
1F
100
AcDbEntity
  8
0
100
AcDbLine
 10
305.1481247605
 20
333.8882299054
 30
0.0
 11
299.8185754479
 21
333.8882299054
 31
0.0
  0
LINE
  5
4FA
330
1F
100
AcDbEntity
  8
0
100
AcDbLine
 10
297.4720597923
 20
333.8882299054
 30
0.0
 11
289.1481519402
 21
333.8882299054
 31
0.0
  0
LINE
  5
4FB
330
1F
100
AcDbEntity
  8
0
100
AcDbLine
 10
287.1481180847
 20
334.8882319319
 30
0.0
 11
289.1481519402
 21
333.8882299054
 31
0.0
  0
LINE
  5
4FC
330
1F
100
AcDbEntity
  8
0
100
AcDbLine
 10
287.1481180847
 20
334.8882319319
 30
0.0
 11
287.1481180847
 21
582.9878421414
 31
0.0
  0
LWPOLYLINE
  5
4FD
330
1F
100
AcDbEntity
  8
0
100
AcDbPolyline
 90
        5
 70
   128
 43
0.0
 10
298.6453176201
 20
337.5727208245
 10
297.8416681946
 20
337.4927909959
 10
297.1603871048
 20
337.2651757586
 10
296.705126828
 20
336.9245352137
 10
296.5453267754
 20
336.522710501
  0
LWPOLYLINE
  5
4FE
330
1F
100
AcDbEntity
  8
0
100
AcDbPolyline
 90
        5
 70
   128
 43
0.0
 10
300.7453084648
 20
336.522710501
 10
300.5854488075
 20
336.9245352137
 10
300.1302481354
 20
337.2651757586
 10
299.4489670456
 20
337.4927909959
 10
298.6453176201
 20
337.5727208245
  0
LWPOLYLINE
  5
4FF
330
1F
100
AcDbEntity
  8
0
100
AcDbPolyline
 90
        5
 70
   128
 43
0.0
 10
298.6453176201
 20
386.3656343806
 10
297.8416681946
 20
386.2857194531
 10
297.1603871048
 20
386.0581042159
 10
296.705126828
 20
385.717463671
 10
296.5453267754
 20
385.3156389582
  0
LWPOLYLINE
  5
500
330
1F
100
AcDbEntity
  8
0
100
AcDbPolyline
 90
        5
 70
   128
 43
0.0
 10
300.7453084648
 20
385.3156389582
 10
300.5854488075
 20
385.717463671
 10
300.1302481354
 20
386.0581042159
 10
299.4489670456
 20
386.2857194531
 10
298.6453176201
 20
386.3656343806
  0
LWPOLYLINE
  5
501
330
1F
100
AcDbEntity
  8
0
100
AcDbPolyline
 90
        5
 70
   128
 43
0.0
 10
298.6453176201
 20
435.1585479367
 10
297.8416681946
 20
435.0786479104
 10
297.1603871048
 20
434.851017772
 10
296.705126828
 20
434.5103772271
 10
296.5453267754
 20
434.1085525143
  0
LWPOLYLINE
  5
502
330
1F
100
AcDbEntity
  8
0
100
AcDbPolyline
 90
        5
 70
   128
 43
0.0
 10
300.7453084648
 20
434.1085525143
 10
300.5854488075
 20
434.5103772271
 10
300.1302481354
 20
434.851017772
 10
299.4489670456
 20
435.0786479104
 10
298.6453176201
 20
435.1585479367
  0
LWPOLYLINE
  5
503
330
1F
100
AcDbEntity
  8
0
100
AcDbPolyline
 90
        5
 70
   128
 43
0.0
 10
298.6453176201
 20
483.951476394
 10
297.8416681946
 20
483.8715465653
 10
297.1603871048
 20
483.6439462292
 10
296.705126828
 20
483.3033056843
 10
296.5453267754
 20
482.9014809716
  0
LWPOLYLINE
  5
504
330
1F
100
AcDbEntity
  8
0
100
AcDbPolyline
 90
        5
 70
   128
 43
0.0
 10
300.7453084648
 20
482.9014809716
 10
300.5854488075
 20
483.3033056843
 10
300.1302481354
 20
483.6439462292
 10
299.4489670456
 20
483.8715465653
 10
298.6453176201
 20
483.951476394
  0
LWPOLYLINE
  5
505
330
1F
100
AcDbEntity
  8
0
100
AcDbPolyline
 90
        5
 70
   128
 43
0.0
 10
298.6453176201
 20
532.7444048512
 10
297.8416681946
 20
532.6644750226
 10
297.1603871048
 20
532.4368746865
 10
296.705126828
 20
532.0962341416
 10
296.5453267754
 20
531.6944094289
  0
LWPOLYLINE
  5
506
330
1F
100
AcDbEntity
  8
0
100
AcDbPolyline
 90
        5
 70
   128
 43
0.0
 10
300.7453084648
 20
531.6944094289
 10
300.5854488075
 20
532.0962341416
 10
300.1302481354
 20
532.4368746865
 10
299.4489670456
 20
532.6644750226
 10
298.6453176201
 20
532.7444048512
  0
LWPOLYLINE
  5
507
330
1F
100
AcDbEntity
  8
0
100
AcDbPolyline
 90
        5
 70
   128
 43
0.0
 10
298.6453176201
 20
581.5373333085
 10
297.8416681946
 20
581.4574034798
 10
297.1603871048
 20
581.2298031438
 10
296.705126828
 20
580.8891625989
 10
296.5453267754
 20
580.4873378861
  0
LWPOLYLINE
  5
508
330
1F
100
AcDbEntity
  8
0
100
AcDbPolyline
 90
        5
 70
   128
 43
0.0
 10
300.7453084648
 20
580.4873378861
 10
300.5854488075
 20
580.8891625989
 10
300.1302481354
 20
581.2298031438
 10
299.4489670456
 20
581.4574034798
 10
298.6453176201
 20
581.5373333085
  0
LINE
  5
509
330
1F
100
AcDbEntity
  8
0
100
AcDbLine
 10
308.1481457413
 20
201.0222030717
 30
0.0
 11
308.1481457413
 21
433.0221982587
 31
0.0
  0
LINE
  5
50A
330
1F
100
AcDbEntity
  8
0
100
AcDbLine
 10
1370.6481457413
 20
433.0221982587
 30
0.0
 11
308.1481457413
 21
433.0221982587
 31
0.0
  0
LINE
  5
50B
330
1F
100
AcDbEntity
  8
0
100
AcDbLine
 10
1370.6481457413
 20
201.0222030717
 30
0.0
 11
1370.6481457413
 21
433.0221982587
 31
0.0
  0
LINE
  5
50C
330
1F
100
AcDbEntity
  8
0
100
AcDbLine
 10
1370.6481457413
 20
584.621814071
 30
0.0
 11
308.1481457413
 21
584.621814071
 31
0.0
  0
LINE
  5
50D
330
1F
100
AcDbEntity
  8
0
100
AcDbLine
 10
1370.6481457413
 20
434.0222151864
 30
0.0
 11
1370.6481457413
 21
584.621814071
 31
0.0
  0
LINE
  5
50E
330
1F
100
AcDbEntity
  8
0
100
AcDbLine
 10
1370.6481457413
 20
434.0222151864
 30
0.0
 11
308.1481457413
 21
434.0222151864
 31
0.0
  0
LINE
  5
50F
330
1F
100
AcDbEntity
  8
0
100
AcDbLine
 10
308.1481457413
 20
434.0222151864
 30
0.0
 11
308.1481457413
 21
584.621814071
 31
0.0
  0
LINE
  5
510
330
1F
100
AcDbEntity
  8
0
100
AcDbLine
 10
1370.6481457413
 20
433.0221982587
 30
0.0
 11
1370.6481457413
 21
434.0222151864
 31
0.0
  0
LINE
  5
511
330
1F
100
AcDbEntity
  8
0
100
AcDbLine
 10
308.1481457413
 20
433.0221982587
 30
0.0
 11
308.1481457413
 21
434.0222151864
 31
0.0
  0
LINE
  5
512
330
1F
100
AcDbEntity
  8
0
100
AcDbLine
 10
1370.6481457413
 20
585.9878333199
 30
0.0
 11
1370.6481457413
 21
589.5591350186
 31
0.0
  0
LINE
  5
513
330
1F
100
AcDbEntity
  8
0
100
AcDbLine
 10
1370.6481457413
 20
585.9878333199
 30
0.0
 11
308.1481457413
 21
585.9878333199
 31
0.0
  0
LINE
  5
514
330
1F
100
AcDbEntity
  8
0
100
AcDbLine
 10
308.1481457413
 20
585.9878333199
 30
0.0
 11
308.1481457413
 21
589.5591350186
 31
0.0
  0
LINE
  5
515
330
1F
100
AcDbEntity
  8
0
100
AcDbLine
 10
316.5281415642
 20
589.2373295415
 30
0.0
 11
316.4271116913
 21
589.5591350186
 31
0.0
  0
LINE
  5
516
330
1F
100
AcDbEntity
  8
0
100
AcDbLine
 10
312.4291897476
 20
589.5591350186
 30
0.0
 11
312.3281598747
 21
589.2373295415
 31
0.0
  0
LINE
  5
517
330
1F
100
AcDbEntity
  8
0
100
AcDbLine
 10
466.5195644558
 20
589.2373295415
 30
0.0
 11
466.4185345829
 21
589.5591350186
 31
0.0
  0
LINE
  5
518
330
1F
100
AcDbEntity
  8
0
100
AcDbLine
 10
462.4206424416
 20
589.5591350186
 30
0.0
 11
462.3195827664
 21
589.2373295415
 31
0.0
  0
LINE
  5
519
330
1F
100
AcDbEntity
  8
0
100
AcDbLine
 10
616.5110022486
 20
589.2373295415
 30
0.0
 11
616.4099425734
 21
589.5591350186
 31
0.0
  0
LINE
  5
51A
330
1F
100
AcDbEntity
  8
0
100
AcDbLine
 10
612.412050432
 20
589.5591350186
 30
0.0
 11
612.311005658
 21
589.2373295415
 31
0.0
  0
LINE
  5
51B
330
1F
100
AcDbEntity
  8
0
100
AcDbLine
 10
766.5024325908
 20
589.2373295415
 30
0.0
 11
766.4013803662
 21
589.5591350186
 31
0.0
  0
LINE
  5
51C
330
1F
100
AcDbEntity
  8
0
100
AcDbLine
 10
762.4034882248
 20
589.5591350186
 30
0.0
 11
762.3024285496
 21
589.2373295415
 31
0.0
  0
LINE
  5
51D
330
1F
100
AcDbEntity
  8
0
100
AcDbLine
 10
916.493862933
 20
589.2373295415
 30
0.0
 11
916.3928032578
 21
589.5591350186
 31
0.0
  0
LINE
  5
51E
330
1F
100
AcDbEntity
  8
0
100
AcDbLine
 10
912.3949111164
 20
589.5591350186
 30
0.0
 11
912.2938588918
 21
589.2373295415
 31
0.0
  0
LINE
  5
51F
330
1F
100
AcDbEntity
  8
0
100
AcDbLine
 10
1066.4852858246
 20
589.2373295415
 30
0.0
 11
1066.3842410505
 21
589.5591350186
 31
0.0
  0
LINE
  5
520
330
1F
100
AcDbEntity
  8
0
100
AcDbLine
 10
1062.3863489092
 20
589.5591350186
 30
0.0
 11
1062.285289234
 21
589.2373295415
 31
0.0
  0
LINE
  5
521
330
1F
100
AcDbEntity
  8
0
100
AcDbLine
 10
1216.4767087162
 20
589.2373295415
 30
0.0
 11
1216.375649041
 21
589.5591350186
 31
0.0
  0
LINE
  5
522
330
1F
100
AcDbEntity
  8
0
100
AcDbLine
 10
1212.3777568997
 20
589.5591350186
 30
0.0
 11
1212.2767270268
 21
589.2373295415
 31
0.0
  0
LINE
  5
523
330
1F
100
AcDbEntity
  8
0
100
AcDbLine
 10
1366.4681316078
 20
589.2373295415
 30
0.0
 11
1366.3671017349
 21
589.5591350186
 31
0.0
  0
LINE
  5
524
330
1F
100
AcDbEntity
  8
0
100
AcDbLine
 10
1362.3691797913
 20
589.5591350186
 30
0.0
 11
1362.2681499184
 21
589.2373295415
 31
0.0
  0
LINE
  5
525
330
1F
100
AcDbEntity
  8
0
100
AcDbLine
 10
308.1481457413
 20
584.621814071
 30
0.0
 11
308.1481457413
 21
585.9878333199
 31
0.0
  0
LINE
  5
526
330
1F
100
AcDbEntity
  8
0
100
AcDbLine
 10
1370.6481457413
 20
584.621814071
 30
0.0
 11
1370.6481457413
 21
585.9878333199
 31
0.0
  0
LINE
  5
527
330
1F
100
AcDbEntity
  8
0
100
AcDbLine
 10
1373.6481667221
 20
583.9878590691
 30
0.0
 11
1373.6481667221
 21
584.6806736577
 31
0.0
  0
LINE
  5
528
330
1F
100
AcDbEntity
  8
0
100
AcDbLine
 10
285.145282811
 20
589.5591350186
 30
0.0
 11
285.145282811
 21
321.8887420285
 31
0.0
  0
LINE
  5
529
330
1F
100
AcDbEntity
  8
0
100
AcDbLine
 10
1393.6510086716
 20
321.8887420285
 30
0.0
 11
1393.6510086716
 21
589.5591350186
 31
0.0
  0
LINE
  5
52A
330
1F
100
AcDbEntity
  8
0
100
AcDbLine
 10
285.4281664551
 20
321.8887420285
 30
0.0
 11
285.648167199
 21
321.8887420285
 31
0.0
  0
LINE
  5
52B
330
1F
100
AcDbEntity
  8
0
100
AcDbLine
 10
1393.1481242836
 20
321.8887420285
 30
0.0
 11
1393.3681250275
 21
321.8887420285
 31
0.0
  0
LINE
  5
52C
330
1F
100
AcDbEntity
  8
0
100
AcDbLine
 10
285.4281664551
 20
320.5227227795
 30
0.0
 11
306.1481714905
 21
320.5227227795
 31
0.0
  0
LINE
  5
52D
330
1F
100
AcDbEntity
  8
0
100
AcDbLine
 10
1372.6481199921
 20
320.5227227795
 30
0.0
 11
1393.3681250275
 21
320.5227227795
 31
0.0
  0
LINE
  5
52E
330
1F
100
AcDbEntity
  8
0
100
AcDbLine
 10
305.1481247605
 20
583.9878590691
 30
0.0
 11
305.1481247605
 21
584.6806736577
 31
0.0
  0
ENDSEC
  0
SECTION
  2
OBJECTS
  0
DICTIONARY
  5
C
330
0
100
AcDbDictionary
281
     1
  3
ACAD_GROUP
350
D
  3
ACAD_IMAGE_VARS
350
552
  3
ACAD_LAYOUT
350
1A
  3
ACAD_MLINESTYLE
350
17
  3
ACAD_PLOTSETTINGS
350
19
  3
ACAD_PLOTSTYLENAME
350
E
  3
ACAD_SCALELIST
350
47
  3
APPDATA
350
550
  3
DWGPROPS
350
553
  0
DICTIONARY
  5
D
102
{ACAD_REACTORS
330
C
102
}
330
C
100
AcDbDictionary
281
     1
  0
RASTERVARIABLES
  5
552
102
{ACAD_REACTORS
330
C
102
}
330
C
100
AcDbRasterVariables
 90
        0
 70
     1
 71
     1
 72
     1
  0
DICTIONARY
  5
1A
102
{ACAD_REACTORS
330
C
102
}
330
C
100
AcDbDictionary
281
     1
  3
Layout1
350
1E
  3
Layout2
350
26
  3
Model
350
22
  0
DICTIONARY
  5
17
102
{ACAD_REACTORS
330
C
102
}
330
C
100
AcDbDictionary
281
     1
  3
Standard
350
18
  0
DICTIONARY
  5
19
102
{ACAD_REACTORS
330
C
102
}
330
C
100
AcDbDictionary
281
     1
  0
ACDBDICTIONARYWDFLT
  5
E
102
{ACAD_REACTORS
330
C
102
}
330
C
100
AcDbDictionary
281
     1
  3
Normal
350
F
100
AcDbDictionaryWithDefault
340
F
  0
DICTIONARY
  5
47
102
{ACAD_REACTORS
330
C
102
}
330
C
100
AcDbDictionary
281
     1
  3
A0
350
48
  3
A1
350
49
  3
A2
350
4A
  3
A3
350
4B
  3
A4
350
4C
  3
A5
350
4D
  3
A6
350
4E
  3
A7
350
4F
  3
A8
350
50
  3
A9
350
51
  3
B0
350
52
  3
B1
350
53
  3
B2
350
54
  3
B3
350
55
  3
B4
350
56
  3
B5
350
57
  3
B6
350
58
  3
B7
350
59
  3
B8
350
5A
  3
B9
350
5B
  3
C0
350
5C
  3
C1
350
5D
  3
C2
350
5E
  3
C3
350
5F
  3
C4
350
60
  3
C5
350
61
  3
C6
350
62
  3
C7
350
63
  3
C8
350
64
  3
C9
350
65
  3
D0
350
66
  3
D1
350
67
  3
D2
350
68
  0
DICTIONARY
  5
550
102
{ACAD_REACTORS
330
C
102
}
330
C
100
AcDbDictionary
281
     1
  0
XRECORD
  5
553
102
{ACAD_REACTORS
330
C
102
}
330
C
100
AcDbXrecord
280
     1
  1
DWGPROPS COOKIE
  2

  3

  4

  6

  7

  8
harithreddy
  9

300
=
301
=
302
=
303
=
304
=
305
=
306
=
307
=
308
=
309
=
 40
0.0
 41
2457974.226461621
 42
2457974.250299259
  1

 90
        0
  0
LAYOUT
  5
1E
102
{ACAD_REACTORS
330
1A
102
}
330
1A
100
AcDbPlotSettings
  1

  2
none_device
  4

  6

 40
0.0
 41
0.0
 42
0.0
 43
0.0
 44
0.0
 45
0.0
 46
0.0
 47
0.0
 48
0.0
 49
0.0
140
0.0
141
0.0
142
1.0
143
1.0
 70
   688
 72
     1
 73
     0
 74
     5
  7

 75
    16
147
1.0
148
0.0
149
0.0
100
AcDbLayout
  1
Layout1
 70
     1
 71
     1
 10
0.0
 20
0.0
 11
420.0
 21
297.0
 12
0.0
 22
0.0
 32
0.0
 14
1.000000000000000E+20
 24
1.000000000000000E+20
 34
1.000000000000000E+20
 15
-1.000000000000000E+20
 25
-1.000000000000000E+20
 35
-1.000000000000000E+20
146
0.0
 13
0.0
 23
0.0
 33
0.0
 16
1.0
 26
0.0
 36
0.0
 17
0.0
 27
1.0
 37
0.0
 76
     0
330
1B
  0
LAYOUT
  5
26
102
{ACAD_REACTORS
330
1A
102
}
330
1A
100
AcDbPlotSettings
  1

  2
none_device
  4

  6

 40
0.0
 41
0.0
 42
0.0
 43
0.0
 44
0.0
 45
0.0
 46
0.0
 47
0.0
 48
0.0
 49
0.0
140
0.0
141
0.0
142
1.0
143
1.0
 70
   688
 72
     1
 73
     0
 74
     5
  7

 75
    16
147
1.0
148
0.0
149
0.0
100
AcDbLayout
  1
Layout2
 70
     1
 71
     2
 10
0.0
 20
0.0
 11
0.0
 21
0.0
 12
0.0
 22
0.0
 32
0.0
 14
0.0
 24
0.0
 34
0.0
 15
0.0
 25
0.0
 35
0.0
146
0.0
 13
0.0
 23
0.0
 33
0.0
 16
1.0
 26
0.0
 36
0.0
 17
0.0
 27
1.0
 37
0.0
 76
     0
330
23
  0
LAYOUT
  5
22
102
{ACAD_REACTORS
330
1A
102
}
330
1A
100
AcDbPlotSettings
  1

  2
none_device
  4
Letter_(8.50_x_11.00_Inches)
  6

 40
6.35
 41
6.35
 42
6.35000508
 43
6.35000508
 44
215.9
 45
279.4
 46
0.0
 47
0.0
 48
0.0
 49
0.0
140
0.0
141
0.0
142
1.0
143
1.0
 70
  1712
 72
     1
 73
     0
 74
     0
  7

 75
     0
147
1.0
148
0.0
149
0.0
100
AcDbLayout
  1
Model
 70
     1
 71
     0
 10
0.0
 20
0.0
 11
420.0
 21
297.0
 12
0.0
 22
0.0
 32
0.0
 14
283.1453085602
 24
178.022203027
 34
0.0
 15
2368.947881101501
 25
1545.2897720018
 35
0.0
146
0.0
 13
0.0
 23
0.0
 33
0.0
 16
1.0
 26
0.0
 36
0.0
 17
0.0
 27
1.0
 37
0.0
 76
     0
330
1F
331
29
  0
MLINESTYLE
  5
18
102
{ACAD_REACTORS
330
17
102
}
330
17
100
AcDbMlineStyle
  2
Standard
 70
     0
  3

 62
   256
 51
90.0
 52
90.0
 71
     2
 49
0.5
 62
   256
  6
BYLAYER
 49
-0.5
 62
   256
  6
BYLAYER
  0
ACDBPLACEHOLDER
  5
F
102
{ACAD_REACTORS
330
E
102
}
330
E
  0
SCALE
  5
48
102
{ACAD_REACTORS
330
47
102
}
330
47
100
AcDbScale
 70
     0
300
1:1
140
1.0
141
1.0
290
     1
  0
SCALE
  5
49
102
{ACAD_REACTORS
330
47
102
}
330
47
100
AcDbScale
 70
     0
300
1:2
140
1.0
141
2.0
290
     0
  0
SCALE
  5
4A
102
{ACAD_REACTORS
330
47
102
}
330
47
100
AcDbScale
 70
     0
300
1:4
140
1.0
141
4.0
290
     0
  0
SCALE
  5
4B
102
{ACAD_REACTORS
330
47
102
}
330
47
100
AcDbScale
 70
     0
300
1:5
140
1.0
141
5.0
290
     0
  0
SCALE
  5
4C
102
{ACAD_REACTORS
330
47
102
}
330
47
100
AcDbScale
 70
     0
300
1:8
140
1.0
141
8.0
290
     0
  0
SCALE
  5
4D
102
{ACAD_REACTORS
330
47
102
}
330
47
100
AcDbScale
 70
     0
300
1:10
140
1.0
141
10.0
290
     0
  0
SCALE
  5
4E
102
{ACAD_REACTORS
330
47
102
}
330
47
100
AcDbScale
 70
     0
300
1:16
140
1.0
141
16.0
290
     0
  0
SCALE
  5
4F
102
{ACAD_REACTORS
330
47
102
}
330
47
100
AcDbScale
 70
     0
300
1:20
140
1.0
141
20.0
290
     0
  0
SCALE
  5
50
102
{ACAD_REACTORS
330
47
102
}
330
47
100
AcDbScale
 70
     0
300
1:30
140
1.0
141
30.0
290
     0
  0
SCALE
  5
51
102
{ACAD_REACTORS
330
47
102
}
330
47
100
AcDbScale
 70
     0
300
1:40
140
1.0
141
40.0
290
     0
  0
SCALE
  5
52
102
{ACAD_REACTORS
330
47
102
}
330
47
100
AcDbScale
 70
     0
300
1:50
140
1.0
141
50.0
290
     0
  0
SCALE
  5
53
102
{ACAD_REACTORS
330
47
102
}
330
47
100
AcDbScale
 70
     0
300
1:100
140
1.0
141
100.0
290
     0
  0
SCALE
  5
54
102
{ACAD_REACTORS
330
47
102
}
330
47
100
AcDbScale
 70
     0
300
2:1
140
2.0
141
1.0
290
     0
  0
SCALE
  5
55
102
{ACAD_REACTORS
330
47
102
}
330
47
100
AcDbScale
 70
     0
300
4:1
140
4.0
141
1.0
290
     0
  0
SCALE
  5
56
102
{ACAD_REACTORS
330
47
102
}
330
47
100
AcDbScale
 70
     0
300
8:1
140
8.0
141
1.0
290
     0
  0
SCALE
  5
57
102
{ACAD_REACTORS
330
47
102
}
330
47
100
AcDbScale
 70
     0
300
10:1
140
10.0
141
1.0
290
     0
  0
SCALE
  5
58
102
{ACAD_REACTORS
330
47
102
}
330
47
100
AcDbScale
 70
     0
300
100:1
140
100.0
141
1.0
290
     0
  0
SCALE
  5
59
102
{ACAD_REACTORS
330
47
102
}
330
47
100
AcDbScale
 70
     0
300
1/128" = 1'-0"
140
0.0078125
141
12.0
290
     0
  0
SCALE
  5
5A
102
{ACAD_REACTORS
330
47
102
}
330
47
100
AcDbScale
 70
     0
300
1/64" = 1'-0"
140
0.015625
141
12.0
290
     0
  0
SCALE
  5
5B
102
{ACAD_REACTORS
330
47
102
}
330
47
100
AcDbScale
 70
     0
300
1/32" = 1'-0"
140
0.03125
141
12.0
290
     0
  0
SCALE
  5
5C
102
{ACAD_REACTORS
330
47
102
}
330
47
100
AcDbScale
 70
     0
300
1/16" = 1'-0"
140
0.0625
141
12.0
290
     0
  0
SCALE
  5
5D
102
{ACAD_REACTORS
330
47
102
}
330
47
100
AcDbScale
 70
     0
300
3/32" = 1'-0"
140
0.09375
141
12.0
290
     0
  0
SCALE
  5
5E
102
{ACAD_REACTORS
330
47
102
}
330
47
100
AcDbScale
 70
     0
300
1/8" = 1'-0"
140
0.125
141
12.0
290
     0
  0
SCALE
  5
5F
102
{ACAD_REACTORS
330
47
102
}
330
47
100
AcDbScale
 70
     0
300
3/16" = 1'-0"
140
0.1875
141
12.0
290
     0
  0
SCALE
  5
60
102
{ACAD_REACTORS
330
47
102
}
330
47
100
AcDbScale
 70
     0
300
1/4" = 1'-0"
140
0.25
141
12.0
290
     0
  0
SCALE
  5
61
102
{ACAD_REACTORS
330
47
102
}
330
47
100
AcDbScale
 70
     0
300
3/8" = 1'-0"
140
0.375
141
12.0
290
     0
  0
SCALE
  5
62
102
{ACAD_REACTORS
330
47
102
}
330
47
100
AcDbScale
 70
     0
300
1/2" = 1'-0"
140
0.5
141
12.0
290
     0
  0
SCALE
  5
63
102
{ACAD_REACTORS
330
47
102
}
330
47
100
AcDbScale
 70
     0
300
3/4" = 1'-0"
140
0.75
141
12.0
290
     0
  0
SCALE
  5
64
102
{ACAD_REACTORS
330
47
102
}
330
47
100
AcDbScale
 70
     0
300
1" = 1'-0"
140
1.0
141
12.0
290
     0
  0
SCALE
  5
65
102
{ACAD_REACTORS
330
47
102
}
330
47
100
AcDbScale
 70
     0
300
1-1/2" = 1'-0"
140
1.5
141
12.0
290
     0
  0
SCALE
  5
66
102
{ACAD_REACTORS
330
47
102
}
330
47
100
AcDbScale
 70
     0
300
3" = 1'-0"
140
3.0
141
12.0
290
     0
  0
SCALE
  5
67
102
{ACAD_REACTORS
330
47
102
}
330
47
100
AcDbScale
 70
     0
300
6" = 1'-0"
140
6.0
141
12.0
290
     0
  0
SCALE
  5
68
102
{ACAD_REACTORS
330
47
102
}
330
47
100
AcDbScale
 70
     0
300
1'-0" = 1'-0"
140
12.0
141
12.0
290
     0
  0
ENDSEC
  0
EOF
