  0
SECTION
  2
HEADER
  9
$ACADVER
  1
AC1015
  9
$ACADMAINTVER
 70
    20
  9
$DWGCODEPAGE
  3
ANSI_1257
  9
$INSBASE
 10
0.0
 20
0.0
 30
0.0
  9
$EXTMIN
 10
-208.6934328705
 20
-658.9457774466999
 30
0.0
  9
$EXTMAX
 10
391.3065909714052
 20
273.5126657043614
 30
0.0
  9
$LIMMIN
 10
0.0
 20
0.0
  9
$LIMMAX
 10
0.0
 20
0.0
  9
$ORTHOMODE
 70
     1
  9
$REGENMODE
 70
     1
  9
$FILLMODE
 70
     1
  9
$QTEXTMODE
 70
     0
  9
$MIRRTEXT
 70
     1
  9
$LTSCALE
 40
1.0
  9
$ATTMODE
 70
     1
  9
$TEXTSIZE
 40
2.5
  9
$TRACEWID
 40
1.0
  9
$TEXTSTYLE
  7
Standard
  9
$CLAYER
  8
0
  9
$CELTYPE
  6
ByLayer
  9
$CECOLOR
 62
   256
  9
$CELTSCALE
 40
1.0
  9
$DISPSILH
 70
     0
  9
$DIMSCALE
 40
1.0
  9
$DIMASZ
 40
4.0
  9
$DIMEXO
 40
1.0
  9
$DIMDLI
 40
3.75
  9
$DIMRND
 40
0.0
  9
$DIMDLE
 40
0.0
  9
$DIMEXE
 40
1.0
  9
$DIMTP
 40
0.0
  9
$DIMTM
 40
0.0
  9
$DIMTXT
 40
3.527777777799998
  9
$DIMCEN
 40
2.5
  9
$DIMTSZ
 40
0.0
  9
$DIMTOL
 70
     0
  9
$DIMLIM
 70
     0
  9
$DIMTIH
 70
     1
  9
$DIMTOH
 70
     1
  9
$DIMSE1
 70
     0
  9
$DIMSE2
 70
     0
  9
$DIMTAD
 70
     1
  9
$DIMZIN
 70
     0
  9
$DIMBLK
  1

  9
$DIMASO
 70
     1
  9
$DIMSHO
 70
     1
  9
$DIMPOST
  1

  9
$DIMAPOST
  1

  9
$DIMALT
 70
     0
  9
$DIMALTD
 70
     3
  9
$DIMALTF
 40
0.0393700787
  9
$DIMLFAC
 40
1.0
  9
$DIMTOFL
 70
     1
  9
$DIMTVP
 40
0.0
  9
$DIMTIX
 70
     0
  9
$DIMSOXD
 70
     0
  9
$DIMSAH
 70
     0
  9
$DIMBLK1
  1

  9
$DIMBLK2
  1

  9
$DIMSTYLE
  2
ISO-25
  9
$DIMCLRD
 70
     0
  9
$DIMCLRE
 70
     0
  9
$DIMCLRT
 70
     0
  9
$DIMTFAC
 40
1.0
  9
$DIMGAP
 40
1.524
  9
$DIMJUST
 70
     0
  9
$DIMSD1
 70
     0
  9
$DIMSD2
 70
     0
  9
$DIMTOLJ
 70
     0
  9
$DIMTZIN
 70
     0
  9
$DIMALTZ
 70
     0
  9
$DIMALTTZ
 70
     0
  9
$DIMUPT
 70
     0
  9
$DIMDEC
 70
     2
  9
$DIMTDEC
 70
     2
  9
$DIMALTU
 70
     2
  9
$DIMALTTD
 70
     3
  9
$DIMTXSTY
  7
Standard
  9
$DIMAUNIT
 70
     0
  9
$DIMADEC
 70
     0
  9
$DIMALTRND
 40
0.0
  9
$DIMAZIN
 70
     0
  9
$DIMDSEP
 70
    44
  9
$DIMATFIT
 70
     3
  9
$DIMFRAC
 70
     0
  9
$DIMLDRBLK
  1

  9
$DIMLUNIT
 70
     2
  9
$DIMLWD
 70
    -2
  9
$DIMLWE
 70
    -2
  9
$DIMTMOVE
 70
     0
  9
$LUNITS
 70
     2
  9
$LUPREC
 70
     2
  9
$SKETCHINC
 40
1.0
  9
$FILLETRAD
 40
10.0
  9
$AUNITS
 70
     0
  9
$AUPREC
 70
     0
  9
$MENU
  1
.
  9
$ELEVATION
 40
0.0
  9
$PELEVATION
 40
0.0
  9
$THICKNESS
 40
0.0
  9
$LIMCHECK
 70
     0
  9
$CHAMFERA
 40
10.0
  9
$CHAMFERB
 40
10.0
  9
$CHAMFERC
 40
20.0
  9
$CHAMFERD
 40
0.0
  9
$SKPOLY
 70
     0
  9
$TDCREATE
 40
2455679.543950313
  9
$TDUCREATE
 40
2455679.418950313
  9
$TDUPDATE
 40
2455679.611019260
  9
$TDUUPDATE
 40
2455679.486019259
  9
$TDINDWG
 40
0.0342657870
  9
$TDUSRTIMER
 40
0.0342657870
  9
$USRTIMER
 70
     1
  9
$ANGBASE
 50
0.0
  9
$ANGDIR
 70
     0
  9
$PDMODE
 70
     0
  9
$PDSIZE
 40
-1.0
  9
$PLINEWID
 40
0.0
  9
$SPLFRAME
 70
     0
  9
$SPLINETYPE
 70
     6
  9
$SPLINESEGS
 70
     8
  9
$HANDSEED
  5
BAF
  9
$SURFTAB1
 70
     6
  9
$SURFTAB2
 70
     6
  9
$SURFTYPE
 70
     6
  9
$SURFU
 70
     6
  9
$SURFV
 70
     6
  9
$UCSBASE
  2

  9
$UCSNAME
  2

  9
$UCSORG
 10
0.0
 20
0.0
 30
0.0
  9
$UCSXDIR
 10
1.0
 20
0.0
 30
0.0
  9
$UCSYDIR
 10
0.0
 20
1.0
 30
0.0
  9
$UCSORTHOREF
  2

  9
$UCSORTHOVIEW
 70
     0
  9
$UCSORGTOP
 10
0.0
 20
0.0
 30
0.0
  9
$UCSORGBOTTOM
 10
0.0
 20
0.0
 30
0.0
  9
$UCSORGLEFT
 10
0.0
 20
0.0
 30
0.0
  9
$UCSORGRIGHT
 10
0.0
 20
0.0
 30
0.0
  9
$UCSORGFRONT
 10
0.0
 20
0.0
 30
0.0
  9
$UCSORGBACK
 10
0.0
 20
0.0
 30
0.0
  9
$PUCSBASE
  2

  9
$PUCSNAME
  2

  9
$PUCSORG
 10
0.0
 20
0.0
 30
0.0
  9
$PUCSXDIR
 10
1.0
 20
0.0
 30
0.0
  9
$PUCSYDIR
 10
0.0
 20
1.0
 30
0.0
  9
$PUCSORTHOREF
  2

  9
$PUCSORTHOVIEW
 70
     0
  9
$PUCSORGTOP
 10
0.0
 20
0.0
 30
0.0
  9
$PUCSORGBOTTOM
 10
0.0
 20
0.0
 30
0.0
  9
$PUCSORGLEFT
 10
0.0
 20
0.0
 30
0.0
  9
$PUCSORGRIGHT
 10
0.0
 20
0.0
 30
0.0
  9
$PUCSORGFRONT
 10
0.0
 20
0.0
 30
0.0
  9
$PUCSORGBACK
 10
0.0
 20
0.0
 30
0.0
  9
$USERI1
 70
     0
  9
$USERI2
 70
     0
  9
$USERI3
 70
     0
  9
$USERI4
 70
     0
  9
$USERI5
 70
     0
  9
$USERR1
 40
0.0
  9
$USERR2
 40
0.0
  9
$USERR3
 40
0.0
  9
$USERR4
 40
0.0
  9
$USERR5
 40
0.0
  9
$WORLDVIEW
 70
     1
  9
$SHADEDGE
 70
     3
  9
$SHADEDIF
 70
    70
  9
$TILEMODE
 70
     1
  9
$MAXACTVP
 70
    64
  9
$PINSBASE
 10
0.0
 20
0.0
 30
0.0
  9
$PLIMCHECK
 70
     0
  9
$PEXTMIN
 10
1.000000000000000E+20
 20
1.000000000000000E+20
 30
1.000000000000000E+20
  9
$PEXTMAX
 10
-1.000000000000000E+20
 20
-1.000000000000000E+20
 30
-1.000000000000000E+20
  9
$PLIMMIN
 10
0.0
 20
0.0
  9
$PLIMMAX
 10
420.0
 20
297.0
  9
$UNITMODE
 70
     0
  9
$VISRETAIN
 70
     1
  9
$PLINEGEN
 70
     0
  9
$PSLTSCALE
 70
     1
  9
$TREEDEPTH
 70
  3020
  9
$CMLSTYLE
  2
Standard
  9
$CMLJUST
 70
     0
  9
$CMLSCALE
 40
20.0
  9
$PROXYGRAPHICS
 70
     1
  9
$MEASUREMENT
 70
     1
  9
$CELWEIGHT
370
    -1
  9
$ENDCAPS
280
     0
  9
$JOINSTYLE
280
     0
  9
$LWDISPLAY
290
     1
  9
$INSUNITS
 70
     4
  9
$HYPERLINKBASE
  1

  9
$STYLESHEET
  1

  9
$XEDIT
290
     1
  9
$CEPSNTYPE
380
     0
  9
$PSTYLEMODE
290
     1
  9
$FINGERPRINTGUID
  2
{E7B6FE12-7C28-48B8-AC30-86021A7E12EC}
  9
$VERSIONGUID
  2
{0519650F-C371-4B7C-8AAA-04EE11299ADD}
  9
$EXTNAMES
290
     1
  9
$PSVPSCALE
 40
0.0
  9
$OLESTARTUP
290
     0
  0
ENDSEC
  0
SECTION
  2
CLASSES
  0
CLASS
  1
ACDBDICTIONARYWDFLT
  2
AcDbDictionaryWithDefault
  3
ObjectDBX Classes
 90
        0
280
     0
281
     0
  0
CLASS
  1
ACDBPLACEHOLDER
  2
AcDbPlaceHolder
  3
ObjectDBX Classes
 90
        0
280
     0
281
     0
  0
CLASS
  1
LAYOUT
  2
AcDbLayout
  3
ObjectDBX Classes
 90
        0
280
     0
281
     0
  0
CLASS
  1
DICTIONARYVAR
  2
AcDbDictionaryVar
  3
ObjectDBX Classes
 90
        0
280
     0
281
     0
  0
ENDSEC
  0
SECTION
  2
TABLES
  0
TABLE
  2
VPORT
  5
8
330
0
100
AcDbSymbolTable
 70
     2
  0
VPORT
  5
BA5
330
8
100
AcDbSymbolTableRecord
100
AcDbViewportTableRecord
  2
*Active
 70
     0
 10
0.0
 20
0.0
 11
1.0
 21
1.0
 12
506.9964330683715
 22
-318.9948390918703
 13
0.0
 23
0.0
 14
10.0
 24
10.0
 15
10.0
 25
10.0
 16
0.0
 26
0.0
 36
1.0
 17
0.0
 27
0.0
 37
0.0
 40
2737.201552474262
 41
1.948644793152639
 42
50.0
 43
0.0
 44
0.0
 50
0.0
 51
0.0
 71
     0
 72
  2000
 73
     1
 74
     3
 75
     0
 76
     0
 77
     0
 78
     0
281
     0
 65
     1
110
0.0
120
0.0
130
0.0
111
1.0
121
0.0
131
0.0
112
0.0
122
1.0
132
0.0
 79
     0
146
0.0
  0
ENDTAB
  0
TABLE
  2
LTYPE
  5
5
330
0
100
AcDbSymbolTable
 70
     6
  0
LTYPE
  5
14
330
5
100
AcDbSymbolTableRecord
100
AcDbLinetypeTableRecord
  2
ByBlock
 70
     0
  3

 72
    65
 73
     0
 40
0.0
  0
LTYPE
  5
15
330
5
100
AcDbSymbolTableRecord
100
AcDbLinetypeTableRecord
  2
ByLayer
 70
     0
  3

 72
    65
 73
     0
 40
0.0
  0
LTYPE
  5
16
330
5
100
AcDbSymbolTableRecord
100
AcDbLinetypeTableRecord
  2
Continuous
 70
     0
  3
Solid line
 72
    65
 73
     0
 40
0.0
  0
LTYPE
  5
2A
330
5
100
AcDbSymbolTableRecord
100
AcDbLinetypeTableRecord
  2
HIDDEN
 70
     0
  3
Hidden __ __ __ __ __ __ __ __ __ __ __ __ __ __
 72
    65
 73
     2
 40
1.905
 49
1.27
 74
     0
 49
-0.635
 74
     0
  0
LTYPE
  5
2B
330
5
100
AcDbSymbolTableRecord
100
AcDbLinetypeTableRecord
  2
PHANTOM
 70
     0
  3
Phantom ______  __  __  ______  __  __  ______
 72
    65
 73
     6
 40
12.7
 49
6.349999999999997
 74
     0
 49
-1.27
 74
     0
 49
1.27
 74
     0
 49
-1.27
 74
     0
 49
1.27
 74
     0
 49
-1.27
 74
     0
  0
LTYPE
  5
2C
330
5
100
AcDbSymbolTableRecord
100
AcDbLinetypeTableRecord
  2
CENTER
 70
     0
  3
Center ____ _ ____ _ ____ _ ____ _ ____ _ ____
 72
    65
 73
     4
 40
10.16
 49
6.349999999999997
 74
     0
 49
-1.27
 74
     0
 49
1.27
 74
     0
 49
-1.27
 74
     0
  0
LTYPE
  5
2D
330
5
100
AcDbSymbolTableRecord
100
AcDbLinetypeTableRecord
  2
CENTERX2
 70
     0
  3
Center (2x) ________  __  ________  __  _____
 72
    65
 73
     4
 40
20.32
 49
12.7
 74
     0
 49
-2.54
 74
     0
 49
2.54
 74
     0
 49
-2.54
 74
     0
  0
LTYPE
  5
2E
330
5
100
AcDbSymbolTableRecord
100
AcDbLinetypeTableRecord
  2
DOT2
 70
     0
  3
Dot (.5x) ........................................
 72
    65
 73
     2
 40
0.635
 49
0.0
 74
     0
 49
-0.635
 74
     0
  0
ENDTAB
  0
TABLE
  2
LAYER
  5
2
330
0
100
AcDbSymbolTable
 70
     3
  0
LAYER
  5
10
330
2
100
AcDbSymbolTableRecord
100
AcDbLayerTableRecord
  2
0
 70
     0
 62
     7
  6
Continuous
370
    -3
390
F
  0
LAYER
  5
2F
330
2
100
AcDbSymbolTableRecord
100
AcDbLayerTableRecord
  2
SLD-DEFPOINTS
 70
     0
 62
     7
  6
Continuous
370
    -1
390
F
  0
LAYER
  5
30
330
2
100
AcDbSymbolTableRecord
100
AcDbLayerTableRecord
  2
LENKIMO
 70
     0
 62
     1
  6
HIDDEN
370
    -3
390
F
  0
ENDTAB
  0
TABLE
  2
STYLE
  5
3
330
0
100
AcDbSymbolTable
 70
     1
  0
STYLE
  5
11
330
3
100
AcDbSymbolTableRecord
100
AcDbTextStyleTableRecord
  2
Standard
 70
     0
 40
0.0
 41
1.0
 50
0.0
 71
     0
 42
2.5
  3
txt
  4

  0
ENDTAB
  0
TABLE
  2
VIEW
  5
6
330
0
100
AcDbSymbolTable
 70
     0
  0
ENDTAB
  0
TABLE
  2
UCS
  5
7
330
0
100
AcDbSymbolTable
 70
     0
  0
ENDTAB
  0
TABLE
  2
APPID
  5
9
330
0
100
AcDbSymbolTable
 70
     1
  0
APPID
  5
12
330
9
100
AcDbSymbolTableRecord
100
AcDbRegAppTableRecord
  2
ACAD
 70
     0
  0
ENDTAB
  0
TABLE
  2
DIMSTYLE
  5
A
330
0
100
AcDbSymbolTable
 70
     1
100
AcDbDimStyleTable
 71
     1
340
27
  0
DIMSTYLE
105
27
330
A
100
AcDbSymbolTableRecord
100
AcDbDimStyleTableRecord
  2
ISO-25
 70
     0
 41
2.5
 42
0.625
 43
3.75
 44
1.25
 73
     0
 74
     0
 77
     1
 78
     8
140
2.5
141
2.5
143
0.0393700787
147
0.625
171
     3
172
     1
271
     2
272
     2
274
     3
278
    44
283
     0
284
     8
340
11
  0
ENDTAB
  0
TABLE
  2
BLOCK_RECORD
  5
1
330
0
100
AcDbSymbolTable
 70
     2
  0
BLOCK_RECORD
  5
1F
330
1
100
AcDbSymbolTableRecord
100
AcDbBlockTableRecord
  2
*Model_Space
340
22
  0
BLOCK_RECORD
  5
1B
330
1
100
AcDbSymbolTableRecord
100
AcDbBlockTableRecord
  2
*Paper_Space
340
1E
  0
BLOCK_RECORD
  5
23
330
1
100
AcDbSymbolTableRecord
100
AcDbBlockTableRecord
  2
*Paper_Space0
340
26
  0
BLOCK_RECORD
  5
31
330
1
100
AcDbSymbolTableRecord
100
AcDbBlockTableRecord
  2
Block1
340
0
1001
ACAD
1000
DesignCenter Data
1002
{
1070
     1
1070
     0
1002
}
  0
ENDTAB
  0
ENDSEC
  0
SECTION
  2
BLOCKS
  0
BLOCK
  5
20
330
1F
100
AcDbEntity
  8
0
100
AcDbBlockBegin
  2
*Model_Space
 70
     0
 10
0.0
 20
0.0
 30
0.0
  3
*Model_Space
  1

  0
ENDBLK
  5
21
330
1F
100
AcDbEntity
  8
0
100
AcDbBlockEnd
  0
BLOCK
  5
1C
330
1B
100
AcDbEntity
 67
     1
  8
0
100
AcDbBlockBegin
  2
*Paper_Space
 70
     0
 10
0.0
 20
0.0
 30
0.0
  3
*Paper_Space
  1

  0
ENDBLK
  5
1D
330
1B
100
AcDbEntity
 67
     1
  8
0
100
AcDbBlockEnd
  0
BLOCK
  5
24
330
23
100
AcDbEntity
  8
0
100
AcDbBlockBegin
  2
*Paper_Space0
 70
     0
 10
0.0
 20
0.0
 30
0.0
  3
*Paper_Space0
  1

  0
ENDBLK
  5
25
330
23
100
AcDbEntity
  8
0
100
AcDbBlockEnd
  0
BLOCK
  5
32
330
31
100
AcDbEntity
  8
0
100
AcDbBlockBegin
  2
Block1
 70
     0
 10
0.0
 20
0.0
 30
0.0
  3
Block1
  1

  0
ARC
  5
34
330
31
100
AcDbEntity
  8
0
  6
Continuous
 62
   179
100
AcDbCircle
 10
7867.6649029635
 20
2430.1355419087
 30
0.0
 40
931.6078627493896
100
AcDbArc
 50
232.1189098069
 51
101.3462704492
  0
ARC
  5
35
330
31
100
AcDbEntity
  8
0
  6
Continuous
 62
   179
100
AcDbCircle
 10
7943.5514462269
 20
2435.961394653701
 30
0.0
 40
1140.079096555486
100
AcDbArc
 50
297.434182935
 51
62.1720331889
  0
ARC
  5
36
330
31
100
AcDbEntity
  8
0
  6
Continuous
 62
   179
100
AcDbCircle
 10
20001.4103066854
 20
6936.258348176301
 30
0.0
 40
1270.831290716854
100
AcDbArc
 50
3.4391112699
 51
76.41975789219998
  0
ARC
  5
37
330
31
100
AcDbEntity
  8
0
  6
Continuous
 62
   179
100
AcDbCircle
 10
19239.4822949422
 20
3782.0667000728
 30
0.0
 40
4515.74411667143
100
AcDbArc
 50
76.41975789229999
 51
91.6754644339
  0
ARC
  5
38
330
31
100
AcDbEntity
  8
0
  6
Continuous
 62
   179
100
AcDbCircle
 10
18683.9539720184
 20
2160.1911622497
 30
0.0
 40
2139.476369555804
100
AcDbArc
 50
270.3210228954
 51
307.7127911617
  0
ARC
  5
39
330
31
100
AcDbEntity
  8
0
  6
Continuous
 62
   179
100
AcDbCircle
 10
18746.0422061702
 20
1962.8216117468
 30
0.0
 40
1946.678009873842
100
AcDbArc
 50
309.8210667381
 51
331.7017265912
  0
ARC
  5
3A
330
31
100
AcDbEntity
  8
0
  6
Continuous
 62
   179
100
AcDbCircle
 10
17863.1917469523
 20
2438.1532894658
 30
0.0
 40
2949.356989998811
100
AcDbArc
 50
331.7017265912
 51
356.0927915539001
  0
ARC
  5
3B
330
31
100
AcDbEntity
  8
0
  6
Continuous
 62
   179
100
AcDbCircle
 10
16755.7856245826
 20
6709.226497343
 30
0.0
 40
4524.342739831097
100
AcDbArc
 50
353.5830630921
 51
3.8434115591
  0
ARC
  5
3C
330
31
100
AcDbEntity
  8
0
  6
Continuous
 62
   179
100
AcDbCircle
 10
19039.3213693035
 20
6348.992835766701
 30
0.0
 40
506.1072723730909
100
AcDbArc
 50
52.45518083770001
 51
82.27169607790001
  0
ARC
  5
3D
330
31
100
AcDbEntity
  8
0
  6
Continuous
 62
   179
100
AcDbCircle
 10
19108.0528552878
 20
6495.6270812425
 30
0.0
 40
349.7025539282703
100
AcDbArc
 50
10.4012874263
 51
46.7340603611
  0
ARC
  5
3E
330
31
100
AcDbEntity
  8
0
  6
Continuous
 62
   179
100
AcDbCircle
 10
17417.0070420698
 20
6262.2496105517
 30
0.0
 40
2056.490362340239
100
AcDbArc
 50
355.4752495919999
 51
8.290034904
  0
ARC
  5
3F
330
31
100
AcDbEntity
  8
0
  6
Continuous
 62
   179
100
AcDbCircle
 10
16921.0810184775
 20
2478.8840573259
 30
0.0
 40
2122.330793892779
100
AcDbArc
 50
339.2065439429
 51
352.3366543813
  0
ARC
  5
40
330
31
100
AcDbEntity
  8
0
  6
Continuous
 62
   179
100
AcDbCircle
 10
18500.143747488
 20
1898.8589115903
 30
0.0
 40
440.5904503964751
100
AcDbArc
 50
293.838270217
 51
336.8232513296
  0
ARC
  5
41
330
31
100
AcDbEntity
  8
0
  6
Continuous
 62
   179
100
AcDbCircle
 10
18201.1477532386
 20
2813.3138324813
 30
0.0
 40
1401.173285533761
100
AcDbArc
 50
267.1686990927
 51
289.9057704419
  0
ARC
  5
42
330
31
100
AcDbEntity
  8
0
  6
Continuous
 62
   179
100
AcDbCircle
 10
18751.2701169541
 20
4514.997092706598
 30
0.0
 40
2362.499275286643
100
AcDbArc
 50
81.33049979549999
 51
90.0
  0
ARC
  5
43
330
31
100
AcDbEntity
  8
0
  6
Continuous
 62
   179
100
AcDbCircle
 10
6720.6044375296
 20
9296.057965315801
 30
0.0
 40
7520.148763137155
100
AcDbArc
 50
220.017667739
 51
227.0143029097
  0
ARC
  5
44
330
31
100
AcDbEntity
  8
0
  6
Continuous
 62
   179
100
AcDbCircle
 10
2021.3892535935
 20
2163.6755564521
 30
0.0
 40
795.0570373035339
100
AcDbArc
 50
316.8708555891
 51
354.9781479006
  0
ARC
  5
45
330
31
100
AcDbEntity
  8
0
  6
Continuous
 62
   179
100
AcDbCircle
 10
2182.9124170468
 20
2011.9889486322
 30
0.0
 40
573.4753329004777
100
AcDbArc
 50
268.8486412909
 51
316.8986890901
  0
ARC
  5
46
330
31
100
AcDbEntity
  8
0
  6
Continuous
 62
   179
100
AcDbCircle
 10
10525.696072633
 20
12531.6259047731
 30
0.0
 40
10618.65239809051
100
AcDbArc
 50
220.6325257886001
 51
226.7030345034
  0
ARC
  5
47
330
31
100
AcDbEntity
  8
0
  6
Continuous
 62
   179
100
AcDbCircle
 10
2962.700769446
 20
6223.5867799529
 30
0.0
 40
723.1072200381735
100
AcDbArc
 50
137.8203941731
 51
175.3475443105
  0
ARC
  5
48
330
31
100
AcDbEntity
  8
0
  6
Continuous
 62
   179
100
AcDbCircle
 10
2808.3239355685
 20
6360.2864243508
 30
0.0
 40
516.9247077280751
100
AcDbArc
 50
89.43798520159999
 51
137.5591461504
  0
ARC
  5
49
330
31
100
AcDbEntity
  8
0
  6
Continuous
 62
   179
100
AcDbCircle
 10
24439.2811878643
 20
2435.9613946539
 30
0.0
 40
1140.079096554877
100
AcDbArc
 50
297.4341829349
 51
62.1720331889
  0
ARC
  5
4A
330
31
100
AcDbEntity
  8
0
  6
Continuous
 62
   179
100
AcDbCircle
 10
24363.3946446009
 20
2430.1355419089
 30
0.0
 40
931.6078627500976
100
AcDbArc
 50
232.118909807
 51
101.3462704493
  0
LINE
  5
4B
330
31
100
AcDbEntity
  8
0
  6
Continuous
 62
   179
100
AcDbLine
 10
10088.0321784074
 20
0.0000125144
 30
0.0
 11
9858.221794955701
 21
8289.6552921115
 31
0.0
  0
LINE
  5
4C
330
31
100
AcDbEntity
  8
0
  6
Continuous
 62
   179
100
AcDbLine
 10
9858.221794955701
 20
8289.6552921115
 30
0.0
 11
7491.0265293557
 21
8289.6552921115
 31
0.0
  0
LINE
  5
4D
330
31
100
AcDbEntity
  8
0
  6
Continuous
 62
   179
100
AcDbLine
 10
7491.0265293557
 20
8289.6552921115
 30
0.0
 11
5122.8131677553
 21
0.0000125144
 31
0.0
  0
LINE
  5
4E
330
31
100
AcDbEntity
  8
0
  6
Continuous
 62
   179
100
AcDbLine
 10
5122.8131677553
 20
0.0000125144
 30
0.0
 11
6903.416058155301
 21
0.0000125144
 31
0.0
  0
LINE
  5
4F
330
31
100
AcDbEntity
  8
0
  6
Continuous
 62
   179
100
AcDbLine
 10
6903.416058155301
 20
0.0000125144
 30
0.0
 11
7295.634628555299
 21
1694.8297721115
 31
0.0
  0
LINE
  5
50
330
31
100
AcDbEntity
  8
0
  6
Continuous
 62
   179
100
AcDbLine
 10
7684.3822381561
 20
3343.5361521108
 30
0.0
 11
8520.8837909553
 21
7008.8707569115
 31
0.0
  0
LINE
  5
51
330
31
100
AcDbEntity
  8
0
  6
Continuous
 62
   179
100
AcDbLine
 10
8520.8837909553
 20
7008.8707569115
 30
0.0
 11
8475.7613005553
 21
3444.194015311501
 31
0.0
  0
LINE
  5
52
330
31
100
AcDbEntity
  8
0
  6
Continuous
 62
   179
100
AcDbLine
 10
8468.819378956499
 20
1424.0948297112
 30
0.0
 11
8468.819378956499
 21
0.0000125144
 31
0.0
  0
LINE
  5
53
330
31
100
AcDbEntity
  8
0
  6
Continuous
 62
   179
100
AcDbLine
 10
8468.819378956499
 20
0.0000125144
 30
0.0
 11
10088.0321784074
 21
0.0000125144
 31
0.0
  0
LINE
  5
54
330
31
100
AcDbEntity
  8
0
  6
Continuous
 62
   179
100
AcDbLine
 10
19107.4500497519
 20
8295.880211227501
 30
0.0
 11
16935.7898769541
 21
8295.880211227501
 31
0.0
  0
LINE
  5
55
330
31
100
AcDbEntity
  8
0
  6
Continuous
 62
   179
100
AcDbLine
 10
16935.7898769541
 20
8295.880211227501
 30
0.0
 11
15991.7401521541
 21
0.0000288275
 31
0.0
  0
LINE
  5
56
330
31
100
AcDbEntity
  8
0
  6
Continuous
 62
   179
100
AcDbLine
 10
15991.7401521541
 20
0.0000288275
 30
0.0
 11
17855.6331985541
 21
0.0000288275
 31
0.0
  0
LINE
  5
57
330
31
100
AcDbEntity
  8
0
  6
Continuous
 62
   179
100
AcDbLine
 10
17855.6331985541
 20
0.0000288275
 30
0.0
 11
18695.9411953541
 21
20.7483744275
 31
0.0
  0
LINE
  5
58
330
31
100
AcDbEntity
  8
0
  6
Continuous
 62
   179
100
AcDbLine
 10
20805.6935873772
 20
2237.1817154785
 30
0.0
 11
21251.7830177772
 21
6203.5737826763
 31
0.0
  0
LINE
  5
59
330
31
100
AcDbEntity
  8
0
  6
Continuous
 62
   179
100
AcDbLine
 10
19024.4566673541
 20
2195.8666048275
 30
0.0
 11
19467.0880401544
 21
6100.013635223699
 31
0.0
  0
LINE
  5
5A
330
31
100
AcDbEntity
  8
0
  6
Continuous
 62
   179
100
AcDbLine
 10
17907.5040625541
 20
1417.8036448275
 30
0.0
 11
18131.936218492
 21
1413.8509571068
 31
0.0
  0
LINE
  5
5B
330
31
100
AcDbEntity
  8
0
  6
Continuous
 62
   179
100
AcDbLine
 10
18529.9544305541
 20
6877.496367993299
 30
0.0
 11
17907.5040625541
 21
1417.8036448275
 31
0.0
  0
LINE
  5
5C
330
31
100
AcDbEntity
  8
0
  6
Continuous
 62
   179
100
AcDbLine
 10
18751.2701169541
 20
6877.496367993299
 30
0.0
 11
18529.9544305541
 21
6877.496367993299
 31
0.0
  0
LINE
  5
5D
330
31
100
AcDbEntity
  8
0
  6
Continuous
 62
   179
100
AcDbLine
 10
11134.6446741053
 20
0.0
 30
0.0
 11
14807.1018453053
 21
0.0
 31
0.0
  0
LINE
  5
5E
330
31
100
AcDbEntity
  8
0
  6
Continuous
 62
   179
100
AcDbLine
 10
14807.1018453053
 20
0.0
 30
0.0
 11
14990.3788981053
 21
1625.287072
 31
0.0
  0
LINE
  5
5F
330
31
100
AcDbEntity
  8
0
  6
Continuous
 62
   179
100
AcDbLine
 10
14990.3788981053
 20
1625.287072
 30
0.0
 11
13071.1569301053
 21
1625.287072
 31
0.0
  0
LINE
  5
60
330
31
100
AcDbEntity
  8
0
  6
Continuous
 62
   179
100
AcDbLine
 10
13071.1569301053
 20
1625.287072
 30
0.0
 11
13828.4715445053
 21
8295.880182400003
 31
0.0
  0
LINE
  5
61
330
31
100
AcDbEntity
  8
0
  6
Continuous
 62
   179
100
AcDbLine
 10
13828.4715445053
 20
8295.880182400003
 30
0.0
 11
12075.2363413053
 21
8295.880182400003
 31
0.0
  0
LINE
  5
62
330
31
100
AcDbEntity
  8
0
  6
Continuous
 62
   179
100
AcDbLine
 10
12075.2363413053
 20
8295.880182400003
 30
0.0
 11
11134.6446741053
 21
0.0
 31
0.0
  0
LINE
  5
63
330
31
100
AcDbEntity
  8
0
  6
Continuous
 62
   179
100
AcDbLine
 10
4907.4740560005
 20
6857.018562294701
 30
0.0
 11
4882.7391856278
 21
7041.149751364599
 31
0.0
  0
LINE
  5
64
330
31
100
AcDbEntity
  8
0
  6
Continuous
 62
   179
100
AcDbLine
 10
4882.7391856278
 20
7041.149751364599
 30
0.0
 11
4840.84097804
 21
7222.1279289072
 31
0.0
  0
LINE
  5
65
330
31
100
AcDbEntity
  8
0
  6
Continuous
 62
   179
100
AcDbLine
 10
4840.84097804
 20
7222.1279289072
 30
0.0
 11
4779.230404759
 21
7397.3516386623
 31
0.0
  0
LINE
  5
66
330
31
100
AcDbEntity
  8
0
  6
Continuous
 62
   179
100
AcDbLine
 10
4779.230404759
 20
7397.3516386623
 30
0.0
 11
4695.8753846469
 21
7563.306056288
 31
0.0
  0
LINE
  5
67
330
31
100
AcDbEntity
  8
0
  6
Continuous
 62
   179
100
AcDbLine
 10
4695.8753846469
 20
7563.306056288
 30
0.0
 11
4590.0094760133
 21
7715.862266709699
 31
0.0
  0
LINE
  5
68
330
31
100
AcDbEntity
  8
0
  6
Continuous
 62
   179
100
AcDbLine
 10
4590.0094760133
 20
7715.862266709699
 30
0.0
 11
4462.7758841487
 21
7851.104996035799
 31
0.0
  0
LINE
  5
69
330
31
100
AcDbEntity
  8
0
  6
Continuous
 62
   179
100
AcDbLine
 10
4462.7758841487
 20
7851.104996035799
 30
0.0
 11
4317.197793690001
 21
7966.391816437099
 31
0.0
  0
LINE
  5
6A
330
31
100
AcDbEntity
  8
0
  6
Continuous
 62
   179
100
AcDbLine
 10
4317.197793690001
 20
7966.391816437099
 30
0.0
 11
4157.354947066902
 21
8060.963699317401
 31
0.0
  0
LINE
  5
6B
330
31
100
AcDbEntity
  8
0
  6
Continuous
 62
   179
100
AcDbLine
 10
4157.354947066902
 20
8060.963699317401
 30
0.0
 11
3942.3832434805
 21
8152.000134559399
 31
0.0
  0
LINE
  5
6C
330
31
100
AcDbEntity
  8
0
  6
Continuous
 62
   179
100
AcDbLine
 10
3942.3832434805
 20
8152.000134559399
 30
0.0
 11
3717.7379879586
 21
8215.7306159908
 31
0.0
  0
LINE
  5
6D
330
31
100
AcDbEntity
  8
0
  6
Continuous
 62
   179
100
AcDbLine
 10
3717.7379879586
 20
8215.7306159908
 30
0.0
 11
3487.8010416052
 21
8256.6415379559
 31
0.0
  0
LINE
  5
6E
330
31
100
AcDbEntity
  8
0
  6
Continuous
 62
   179
100
AcDbLine
 10
3487.8010416052
 20
8256.6415379559
 30
0.0
 11
3255.2826646592
 21
8278.797175912799
 31
0.0
  0
LINE
  5
6F
330
31
100
AcDbEntity
  8
0
  6
Continuous
 62
   179
100
AcDbLine
 10
3255.2826646592
 20
8278.797175912799
 30
0.0
 11
3021.7939564
 21
8285.564092295102
 31
0.0
  0
LINE
  5
70
330
31
100
AcDbEntity
  8
0
  6
Continuous
 62
   179
100
AcDbLine
 10
3021.7939564
 20
8285.564092295102
 30
0.0
 11
2764.7286656624
 21
8276.816734455799
 31
0.0
  0
LINE
  5
71
330
31
100
AcDbEntity
  8
0
  6
Continuous
 62
   179
100
AcDbLine
 10
2764.7286656624
 20
8276.816734455799
 30
0.0
 11
2509.0566231212
 21
8248.844873041297
 31
0.0
  0
LINE
  5
72
330
31
100
AcDbEntity
  8
0
  6
Continuous
 62
   179
100
AcDbLine
 10
2509.0566231212
 20
8248.844873041297
 30
0.0
 11
2256.7624741697
 21
8198.969363254802
 31
0.0
  0
LINE
  5
73
330
31
100
AcDbEntity
  8
0
  6
Continuous
 62
   179
100
AcDbLine
 10
2256.7624741697
 20
8198.969363254802
 30
0.0
 11
2010.5862549102
 21
8124.640160958398
 31
0.0
  0
LINE
  5
74
330
31
100
AcDbEntity
  8
0
  6
Continuous
 62
   179
100
AcDbLine
 10
2010.5862549102
 20
8124.640160958398
 30
0.0
 11
1823.7042907144
 21
8047.7718170144
 31
0.0
  0
LINE
  5
75
330
31
100
AcDbEntity
  8
0
  6
Continuous
 62
   179
100
AcDbLine
 10
1823.7042907144
 20
8047.7718170144
 30
0.0
 11
1644.6605427625
 21
7954.102205278601
 31
0.0
  0
LINE
  5
76
330
31
100
AcDbEntity
  8
0
  6
Continuous
 62
   179
100
AcDbLine
 10
1644.6605427625
 20
7954.102205278601
 30
0.0
 11
1475.390327491
 21
7843.7545704421
 31
0.0
  0
LINE
  5
77
330
31
100
AcDbEntity
  8
0
  6
Continuous
 62
   179
100
AcDbLine
 10
1475.390327491
 20
7843.7545704421
 30
0.0
 11
1317.6231711996
 21
7717.507163895
 31
0.0
  0
LINE
  5
78
330
31
100
AcDbEntity
  8
0
  6
Continuous
 62
   179
100
AcDbLine
 10
1317.6231711996
 20
7717.507163895
 30
0.0
 11
1139.538084005
 21
7540.9583629978
 31
0.0
  0
LINE
  5
79
330
31
100
AcDbEntity
  8
0
  6
Continuous
 62
   179
100
AcDbLine
 10
1139.538084005
 20
7540.9583629978
 30
0.0
 11
983.4661868122999
 21
7344.686540327599
 31
0.0
  0
LINE
  5
7A
330
31
100
AcDbEntity
  8
0
  6
Continuous
 62
   179
100
AcDbLine
 10
983.4661868122999
 20
7344.686540327599
 30
0.0
 11
851.5325681984
 21
7131.431508806899
 31
0.0
  0
LINE
  5
7B
330
31
100
AcDbEntity
  8
0
  6
Continuous
 62
   179
100
AcDbLine
 10
851.5325681984
 20
7131.431508806899
 30
0.0
 11
744.4774564036
 21
6904.647070365
 31
0.0
  0
LINE
  5
7C
330
31
100
AcDbEntity
  8
0
  6
Continuous
 62
   179
100
AcDbLine
 10
744.4774564036
 20
6904.647070365
 30
0.0
 11
658.3392621498999
 21
6656.432742240301
 31
0.0
  0
LINE
  5
7D
330
31
100
AcDbEntity
  8
0
  6
Continuous
 62
   179
100
AcDbLine
 10
658.3392621498999
 20
6656.432742240301
 30
0.0
 11
596.9943576212997
 21
6400.9335325463
 31
0.0
  0
LINE
  5
7E
330
31
100
AcDbEntity
  8
0
  6
Continuous
 62
   179
100
AcDbLine
 10
596.9943576212997
 20
6400.9335325463
 30
0.0
 11
557.9730775995
 21
6141.0651554946
 31
0.0
  0
LINE
  5
7F
330
31
100
AcDbEntity
  8
0
  6
Continuous
 62
   179
100
AcDbLine
 10
557.9730775995
 20
6141.0651554946
 30
0.0
 11
538.0293793386
 21
5893.0807139359
 31
0.0
  0
LINE
  5
80
330
31
100
AcDbEntity
  8
0
  6
Continuous
 62
   179
100
AcDbLine
 10
538.0293793386
 20
5893.0807139359
 30
0.0
 11
537.9155556826
 21
5644.316103439599
 31
0.0
  0
LINE
  5
81
330
31
100
AcDbEntity
  8
0
  6
Continuous
 62
   179
100
AcDbLine
 10
537.9155556826
 20
5644.316103439599
 30
0.0
 11
561.0465619986
 21
5396.6565041751
 31
0.0
  0
LINE
  5
82
330
31
100
AcDbEntity
  8
0
  6
Continuous
 62
   179
100
AcDbLine
 10
561.0465619986
 20
5396.6565041751
 30
0.0
 11
610.8365836731
 21
5152.986228349099
 31
0.0
  0
LINE
  5
83
330
31
100
AcDbEntity
  8
0
  6
Continuous
 62
   179
100
AcDbLine
 10
610.8365836731
 20
5152.986228349099
 30
0.0
 11
670.4957765389
 21
4966.8752015955
 31
0.0
  0
LINE
  5
84
330
31
100
AcDbEntity
  8
0
  6
Continuous
 62
   179
100
AcDbLine
 10
670.4957765389
 20
4966.8752015955
 30
0.0
 11
749.0385092575999
 21
4787.922755338
 31
0.0
  0
LINE
  5
85
330
31
100
AcDbEntity
  8
0
  6
Continuous
 62
   179
100
AcDbLine
 10
749.0385092575999
 20
4787.922755338
 30
0.0
 11
846.3298658911998
 21
4618.4358151253
 31
0.0
  0
LINE
  5
86
330
31
100
AcDbEntity
  8
0
  6
Continuous
 62
   179
100
AcDbLine
 10
846.3298658911998
 20
4618.4358151253
 30
0.0
 11
961.3271095995999
 21
4460.4233554942
 31
0.0
  0
LINE
  5
87
330
31
100
AcDbEntity
  8
0
  6
Continuous
 62
   179
100
AcDbLine
 10
1593.2484263997
 20
3794.8892026942
 30
0.0
 11
2342.8146692
 21
3099.1034974946
 31
0.0
  0
LINE
  5
88
330
31
100
AcDbEntity
  8
0
  6
Continuous
 62
   179
100
AcDbLine
 10
2342.8146692
 20
3099.1034974946
 30
0.0
 11
2457.4150864402
 21
2985.4804965343
 31
0.0
  0
LINE
  5
89
330
31
100
AcDbEntity
  8
0
  6
Continuous
 62
   179
100
AcDbLine
 10
2457.4150864402
 20
2985.4804965343
 30
0.0
 11
2562.4777930784
 21
2863.0062246075
 31
0.0
  0
LINE
  5
8A
330
31
100
AcDbEntity
  8
0
  6
Continuous
 62
   179
100
AcDbLine
 10
2562.4777930784
 20
2863.0062246075
 30
0.0
 11
2654.962824414801
 21
2730.8077708033
 31
0.0
  0
LINE
  5
8B
330
31
100
AcDbEntity
  8
0
  6
Continuous
 62
   179
100
AcDbLine
 10
2654.962824414801
 20
2730.8077708033
 30
0.0
 11
2730.9070108725
 21
2588.5028322591
 31
0.0
  0
LINE
  5
8C
330
31
100
AcDbEntity
  8
0
  6
Continuous
 62
   179
100
AcDbLine
 10
2730.9070108725
 20
2588.5028322591
 30
0.0
 11
2787.6392767372
 21
2429.3959416825
 31
0.0
  0
LINE
  5
8D
330
31
100
AcDbEntity
  8
0
  6
Continuous
 62
   179
100
AcDbLine
 10
2787.6392767372
 20
2429.3959416825
 30
0.0
 11
2816.0412804487
 21
2262.9265767885
 31
0.0
  0
LINE
  5
8E
330
31
100
AcDbEntity
  8
0
  6
Continuous
 62
   179
100
AcDbLine
 10
2816.0412804487
 20
2262.9265767885
 30
0.0
 11
2813.3943732
 21
2094.0797010946
 31
0.0
  0
LINE
  5
8F
330
31
100
AcDbEntity
  8
0
  6
Continuous
 62
   179
100
AcDbLine
 10
2171.3892056002
 20
1438.629399097
 30
0.0
 11
2081.3271648151
 21
1444.5220285234
 31
0.0
  0
LINE
  5
90
330
31
100
AcDbEntity
  8
0
  6
Continuous
 62
   179
100
AcDbLine
 10
2081.3271648151
 20
1444.5220285234
 30
0.0
 11
1993.3677378413
 21
1464.5260106363
 31
0.0
  0
LINE
  5
91
330
31
100
AcDbEntity
  8
0
  6
Continuous
 62
   179
100
AcDbLine
 10
1993.3677378413
 20
1464.5260106363
 30
0.0
 11
1911.3435803354
 21
1501.9115152047
 31
0.0
  0
LINE
  5
92
330
31
100
AcDbEntity
  8
0
  6
Continuous
 62
   179
100
AcDbLine
 10
1911.3435803354
 20
1501.9115152047
 30
0.0
 11
1840.5450992733
 21
1557.6494251181
 31
0.0
  0
LINE
  5
93
330
31
100
AcDbEntity
  8
0
  6
Continuous
 62
   179
100
AcDbLine
 10
1840.5450992733
 20
1557.6494251181
 30
0.0
 11
1785.044516871099
 21
1628.6751044787
 31
0.0
  0
LINE
  5
94
330
31
100
AcDbEntity
  8
0
  6
Continuous
 62
   179
100
AcDbLine
 10
1785.044516871099
 20
1628.6751044787
 30
0.0
 11
1745.2817682865
 21
1709.6405469696
 31
0.0
  0
LINE
  5
95
330
31
100
AcDbEntity
  8
0
  6
Continuous
 62
   179
100
AcDbLine
 10
1745.2817682865
 20
1709.6405469696
 30
0.0
 11
1710.0353127013
 21
1840.2386565146
 31
0.0
  0
LINE
  5
96
330
31
100
AcDbEntity
  8
0
  6
Continuous
 62
   179
100
AcDbLine
 10
1710.0353127013
 20
1840.2386565146
 30
0.0
 11
1696.0216688059
 21
1974.8977537186
 31
0.0
  0
LINE
  5
97
330
31
100
AcDbEntity
  8
0
  6
Continuous
 62
   179
100
AcDbLine
 10
1696.0216688059
 20
1974.8977537186
 30
0.0
 11
1696.5924840549
 21
2110.3283975811
 31
0.0
  0
LINE
  5
98
330
31
100
AcDbEntity
  8
0
  6
Continuous
 62
   179
100
AcDbLine
 10
1696.5924840549
 20
2110.3283975811
 30
0.0
 11
1707.5320688
 21
2245.3374630946
 31
0.0
  0
LINE
  5
99
330
31
100
AcDbEntity
  8
0
  6
Continuous
 62
   179
100
AcDbLine
 10
1707.5320688
 20
2245.3374630946
 30
0.0
 11
1781.480308
 21
2897.4264814946
 31
0.0
  0
LINE
  5
9A
330
31
100
AcDbEntity
  8
0
  6
Continuous
 62
   179
100
AcDbLine
 10
1781.480308
 20
2897.4264814946
 30
0.0
 11
94.11594079999998
 21
2897.4264814946
 31
0.0
  0
LINE
  5
9B
330
31
100
AcDbEntity
  8
0
  6
Continuous
 62
   179
100
AcDbLine
 10
94.11594079999998
 20
2897.4264814946
 30
0.0
 11
26.8902688
 21
2295.7567170946
 31
0.0
  0
LINE
  5
9C
330
31
100
AcDbEntity
  8
0
  6
Continuous
 62
   179
100
AcDbLine
 10
26.8902688
 20
2295.7567170946
 30
0.0
 11
5.820122611699999
 21
2068.3689705604
 31
0.0
  0
LINE
  5
9D
330
31
100
AcDbEntity
  8
0
  6
Continuous
 62
   179
100
AcDbLine
 10
5.820122611699999
 20
2068.3689705604
 30
0.0
 11
0.0
 21
1889.0414014946
 31
0.0
  0
LINE
  5
9E
330
31
100
AcDbEntity
  8
0
  6
Continuous
 62
   179
100
AcDbLine
 10
0.0
 20
1889.0414014946
 30
0.0
 11
0.0
 21
1788.2028934946
 31
0.0
  0
LINE
  5
9F
330
31
100
AcDbEntity
  8
0
  6
Continuous
 62
   179
100
AcDbLine
 10
0.0
 20
1788.2028934946
 30
0.0
 11
8.4741181851
 21
1597.5992610857
 31
0.0
  0
LINE
  5
A0
330
31
100
AcDbEntity
  8
0
  6
Continuous
 62
   179
100
AcDbLine
 10
8.4741181851
 20
1597.5992610857
 30
0.0
 11
29.9475321698
 21
1408.0255515191
 31
0.0
  0
LINE
  5
A1
330
31
100
AcDbEntity
  8
0
  6
Continuous
 62
   179
100
AcDbLine
 10
29.9475321698
 20
1408.0255515191
 30
0.0
 11
66.5196177454
 21
1220.7936775914
 31
0.0
  0
LINE
  5
A2
330
31
100
AcDbEntity
  8
0
  6
Continuous
 62
   179
100
AcDbLine
 10
66.5196177454
 20
1220.7936775914
 30
0.0
 11
120.5660601196
 21
1037.8592313249
 31
0.0
  0
LINE
  5
A3
330
31
100
AcDbEntity
  8
0
  6
Continuous
 62
   179
100
AcDbLine
 10
120.5660601196
 20
1037.8592313249
 30
0.0
 11
194.3311383855
 21
861.9730900702
 31
0.0
  0
LINE
  5
A4
330
31
100
AcDbEntity
  8
0
  6
Continuous
 62
   179
100
AcDbLine
 10
194.3311383855
 20
861.9730900702
 30
0.0
 11
287.5295606573
 21
699.5021482411
 31
0.0
  0
LINE
  5
A5
330
31
100
AcDbEntity
  8
0
  6
Continuous
 62
   179
100
AcDbLine
 10
287.5295606573
 20
699.5021482411
 30
0.0
 11
401.5974373648999
 21
550.9580491856
 31
0.0
  0
LINE
  5
A6
330
31
100
AcDbEntity
  8
0
  6
Continuous
 62
   179
100
AcDbLine
 10
401.5974373648999
 20
550.9580491856
 30
0.0
 11
535.1901037299
 21
419.6995230366999
 31
0.0
  0
LINE
  5
A7
330
31
100
AcDbEntity
  8
0
  6
Continuous
 62
   179
100
AcDbLine
 10
535.1901037299
 20
419.6995230366999
 30
0.0
 11
685.4525519751
 21
307.8901613371
 31
0.0
  0
LINE
  5
A8
330
31
100
AcDbEntity
  8
0
  6
Continuous
 62
   179
100
AcDbLine
 10
685.4525519751
 20
307.8901613371
 30
0.0
 11
880.9909831936
 21
200.7980430706
 31
0.0
  0
LINE
  5
A9
330
31
100
AcDbEntity
  8
0
  6
Continuous
 62
   179
100
AcDbLine
 10
880.9909831936
 20
200.7980430706
 30
0.0
 11
1088.9648544967
 21
120.3523112471
 31
0.0
  0
LINE
  5
AA
330
31
100
AcDbEntity
  8
0
  6
Continuous
 62
   179
100
AcDbLine
 10
1088.9648544967
 20
120.3523112471
 30
0.0
 11
1304.5983771836
 21
63.40275116379999
 31
0.0
  0
LINE
  5
AB
330
31
100
AcDbEntity
  8
0
  6
Continuous
 62
   179
100
AcDbLine
 10
1304.5983771836
 20
63.40275116379999
 30
0.0
 11
1524.5667113278
 21
26.43531137510001
 31
0.0
  0
LINE
  5
AC
330
31
100
AcDbEntity
  8
0
  6
Continuous
 62
   179
100
AcDbLine
 10
1524.5667113278
 20
26.43531137510001
 30
0.0
 11
1746.7181907984
 21
6.202131110099997
 31
0.0
  0
LINE
  5
AD
330
31
100
AcDbEntity
  8
0
  6
Continuous
 62
   179
100
AcDbLine
 10
1746.7181907984
 20
6.202131110099997
 30
0.0
 11
1969.7121896
 21
0.0000182946
 31
0.0
  0
LINE
  5
AE
330
31
100
AcDbEntity
  8
0
  6
Continuous
 62
   179
100
AcDbLine
 10
1969.7121896
 20
0.0000182946
 30
0.0
 11
2235.4163107967
 21
9.0474941519
 31
0.0
  0
LINE
  5
AF
330
31
100
AcDbEntity
  8
0
  6
Continuous
 62
   179
100
AcDbLine
 10
2235.4163107967
 20
9.0474941519
 30
0.0
 11
2499.6874650753
 21
37.9033605802
 31
0.0
  0
LINE
  5
B0
330
31
100
AcDbEntity
  8
0
  6
Continuous
 62
   179
100
AcDbLine
 10
2499.6874650753
 20
37.9033605802
 30
0.0
 11
2760.5117042792
 21
89.204615755
 31
0.0
  0
LINE
  5
B1
330
31
100
AcDbEntity
  8
0
  6
Continuous
 62
   179
100
AcDbLine
 10
2760.5117042792
 20
89.204615755
 30
0.0
 11
3015.1415277313
 21
165.4438899665
 31
0.0
  0
LINE
  5
B2
330
31
100
AcDbEntity
  8
0
  6
Continuous
 62
   179
100
AcDbLine
 10
3015.1415277313
 20
165.4438899665
 30
0.0
 11
3208.6236023082
 21
244.1201341123
 31
0.0
  0
LINE
  5
B3
330
31
100
AcDbEntity
  8
0
  6
Continuous
 62
   179
100
AcDbLine
 10
3208.6236023082
 20
244.1201341123
 30
0.0
 11
3394.246790929
 21
339.8610540042
 31
0.0
  0
LINE
  5
B4
330
31
100
AcDbEntity
  8
0
  6
Continuous
 62
   179
100
AcDbLine
 10
3394.246790929
 20
339.8610540042
 30
0.0
 11
3570.08287903
 21
452.5651803685
 31
0.0
  0
LINE
  5
B5
330
31
100
AcDbEntity
  8
0
  6
Continuous
 62
   179
100
AcDbLine
 10
3570.08287903
 20
452.5651803685
 30
0.0
 11
3734.3860796
 21
581.5020810946
 31
0.0
  0
LINE
  5
B6
330
31
100
AcDbEntity
  8
0
  6
Continuous
 62
   179
100
AcDbLine
 10
3734.3860796
 20
581.5020810946
 30
0.0
 11
3918.9619613187
 21
762.6068684982001
 31
0.0
  0
LINE
  5
B7
330
31
100
AcDbEntity
  8
0
  6
Continuous
 62
   179
100
AcDbLine
 10
3918.9619613187
 20
762.6068684982001
 30
0.0
 11
4080.6115034165
 21
964.4332031658001
 31
0.0
  0
LINE
  5
B8
330
31
100
AcDbEntity
  8
0
  6
Continuous
 62
   179
100
AcDbLine
 10
4080.6115034165
 20
964.4332031658001
 30
0.0
 11
4217.129324297
 21
1184.0491590435
 31
0.0
  0
LINE
  5
B9
330
31
100
AcDbEntity
  8
0
  6
Continuous
 62
   179
100
AcDbLine
 10
4217.129324297
 20
1184.0491590435
 30
0.0
 11
4327.807798901
 21
1417.7744861233
 31
0.0
  0
LINE
  5
BA
330
31
100
AcDbEntity
  8
0
  6
Continuous
 62
   179
100
AcDbLine
 10
4327.807798901
 20
1417.7744861233
 30
0.0
 11
4416.8403522579
 21
1673.6616360853
 31
0.0
  0
LINE
  5
BB
330
31
100
AcDbEntity
  8
0
  6
Continuous
 62
   179
100
AcDbLine
 10
4416.8403522579
 20
1673.6616360853
 30
0.0
 11
4480.332478423
 21
1937.0776350384
 31
0.0
  0
LINE
  5
BC
330
31
100
AcDbEntity
  8
0
  6
Continuous
 62
   179
100
AcDbLine
 10
4480.332478423
 20
1937.0776350384
 30
0.0
 11
4520.926442
 21
2205.0020598946
 31
0.0
  0
LINE
  5
BD
330
31
100
AcDbEntity
  8
0
  6
Continuous
 62
   179
100
AcDbLine
 10
4520.926442
 20
2205.0020598946
 30
0.0
 11
4539.8604791128
 21
2434.751251137
 31
0.0
  0
LINE
  5
BE
330
31
100
AcDbEntity
  8
0
  6
Continuous
 62
   179
100
AcDbLine
 10
4539.8604791128
 20
2434.751251137
 30
0.0
 11
4542.0136171636
 21
2665.2555763504
 31
0.0
  0
LINE
  5
BF
330
31
100
AcDbEntity
  8
0
  6
Continuous
 62
   179
100
AcDbLine
 10
4542.0136171636
 20
2665.2555763504
 30
0.0
 11
4524.9874932226
 21
2895.1234497405
 31
0.0
  0
LINE
  5
C0
330
31
100
AcDbEntity
  8
0
  6
Continuous
 62
   179
100
AcDbLine
 10
4524.9874932226
 20
2895.1234497405
 30
0.0
 11
4496.6310776622
 21
3074.0098021703
 31
0.0
  0
LINE
  5
C1
330
31
100
AcDbEntity
  8
0
  6
Continuous
 62
   179
100
AcDbLine
 10
4496.6310776622
 20
3074.0098021703
 30
0.0
 11
4454.0379981851
 21
3250.0430485054
 31
0.0
  0
LINE
  5
C2
330
31
100
AcDbEntity
  8
0
  6
Continuous
 62
   179
100
AcDbLine
 10
4454.0379981851
 20
3250.0430485054
 30
0.0
 11
4396.5589488
 21
3421.786723094601
 31
0.0
  0
LINE
  5
C3
330
31
100
AcDbEntity
  8
0
  6
Continuous
 62
   179
100
AcDbLine
 10
4396.5589488
 20
3421.786723094601
 30
0.0
 11
4335.077579852899
 21
3551.3591107413
 31
0.0
  0
LINE
  5
C4
330
31
100
AcDbEntity
  8
0
  6
Continuous
 62
   179
100
AcDbLine
 10
4335.077579852899
 20
3551.3591107413
 30
0.0
 11
4262.2002057756
 21
3674.9188547719
 31
0.0
  0
LINE
  5
C5
330
31
100
AcDbEntity
  8
0
  6
Continuous
 62
   179
100
AcDbLine
 10
4262.2002057756
 20
3674.9188547719
 30
0.0
 11
4181.3183894369
 21
3793.4113089372
 31
0.0
  0
LINE
  5
C6
330
31
100
AcDbEntity
  8
0
  6
Continuous
 62
   179
100
AcDbLine
 10
4181.3183894369
 20
3793.4113089372
 30
0.0
 11
4078.522747157101
 21
3927.6643628842
 31
0.0
  0
LINE
  5
C7
330
31
100
AcDbEntity
  8
0
  6
Continuous
 62
   179
100
AcDbLine
 10
4078.522747157101
 20
3927.6643628842
 30
0.0
 11
3969.6759316
 21
4057.069323494601
 31
0.0
  0
LINE
  5
C8
330
31
100
AcDbEntity
  8
0
  6
Continuous
 62
   179
100
AcDbLine
 10
3969.6759316
 20
4057.069323494601
 30
0.0
 11
3243.638674
 21
4803.274282694601
 31
0.0
  0
LINE
  5
C9
330
31
100
AcDbEntity
  8
0
  6
Continuous
 62
   179
100
AcDbLine
 10
2467.1821623981
 20
5616.7049138995
 30
0.0
 11
2391.5759134121
 21
5727.7039441288
 31
0.0
  0
LINE
  5
CA
330
31
100
AcDbEntity
  8
0
  6
Continuous
 62
   179
100
AcDbLine
 10
2391.5759134121
 20
5727.7039441288
 30
0.0
 11
2326.9023872324
 21
5845.3828817498
 31
0.0
  0
LINE
  5
CB
330
31
100
AcDbEntity
  8
0
  6
Continuous
 62
   179
100
AcDbLine
 10
2326.9023872324
 20
5845.3828817498
 30
0.0
 11
2276.7855321171
 21
5969.9206549293
 31
0.0
  0
LINE
  5
CC
330
31
100
AcDbEntity
  8
0
  6
Continuous
 62
   179
100
AcDbLine
 10
2276.7855321171
 20
5969.9206549293
 30
0.0
 11
2250.5432565423
 21
6072.0904771882
 31
0.0
  0
LINE
  5
CD
330
31
100
AcDbEntity
  8
0
  6
Continuous
 62
   179
100
AcDbLine
 10
2250.5432565423
 20
6072.0904771882
 30
0.0
 11
2238.3532498759
 21
6176.8496579539
 31
0.0
  0
LINE
  5
CE
330
31
100
AcDbEntity
  8
0
  6
Continuous
 62
   179
100
AcDbLine
 10
2238.3532498759
 20
6176.8496579539
 30
0.0
 11
2241.9761612
 21
6282.239066694599
 31
0.0
  0
LINE
  5
CF
330
31
100
AcDbEntity
  8
0
  6
Continuous
 62
   179
100
AcDbLine
 10
2813.394373201
 20
6877.186263896098
 30
0.0
 11
2899.1450330725
 21
6871.9159884789
 31
0.0
  0
LINE
  5
D0
330
31
100
AcDbEntity
  8
0
  6
Continuous
 62
   179
100
AcDbLine
 10
2899.1450330725
 20
6871.9159884789
 30
0.0
 11
2983.1458702521
 21
6854.0846279821
 31
0.0
  0
LINE
  5
D1
330
31
100
AcDbEntity
  8
0
  6
Continuous
 62
   179
100
AcDbLine
 10
2983.1458702521
 20
6854.0846279821
 30
0.0
 11
3062.202014936
 21
6820.693112019601
 31
0.0
  0
LINE
  5
D2
330
31
100
AcDbEntity
  8
0
  6
Continuous
 62
   179
100
AcDbLine
 10
3062.202014936
 20
6820.693112019601
 30
0.0
 11
3131.6623634801
 21
6770.362935621401
 31
0.0
  0
LINE
  5
D3
330
31
100
AcDbEntity
  8
0
  6
Continuous
 62
   179
100
AcDbLine
 10
3131.6623634801
 20
6770.362935621401
 30
0.0
 11
3187.37124796
 21
6705.118469623498
 31
0.0
  0
LINE
  5
D4
330
31
100
AcDbEntity
  8
0
  6
Continuous
 62
   179
100
AcDbLine
 10
3187.37124796
 20
6705.118469623498
 30
0.0
 11
3228.1274776793
 21
6629.5646068072
 31
0.0
  0
LINE
  5
D5
330
31
100
AcDbEntity
  8
0
  6
Continuous
 62
   179
100
AcDbLine
 10
3228.1274776793
 20
6629.5646068072
 30
0.0
 11
3265.0334180049
 21
6506.244136135899
 31
0.0
  0
LINE
  5
D6
330
31
100
AcDbEntity
  8
0
  6
Continuous
 62
   179
100
AcDbLine
 10
3265.0334180049
 20
6506.244136135899
 30
0.0
 11
3280.3602104272
 21
6378.3104742822
 31
0.0
  0
LINE
  5
D7
330
31
100
AcDbEntity
  8
0
  6
Continuous
 62
   179
100
AcDbLine
 10
3280.3602104272
 20
6378.3104742822
 30
0.0
 11
3280.7520241623
 21
6249.4122034737
 31
0.0
  0
LINE
  5
D8
330
31
100
AcDbEntity
  8
0
  6
Continuous
 62
   179
100
AcDbLine
 10
3280.7520241623
 20
6249.4122034737
 30
0.0
 11
3270.5289428
 21
6120.897453894599
 31
0.0
  0
LINE
  5
D9
330
31
100
AcDbEntity
  8
0
  6
Continuous
 62
   179
100
AcDbLine
 10
3270.5289428
 20
6120.897453894599
 30
0.0
 11
3206.6645544
 21
5566.2856598946
 31
0.0
  0
LINE
  5
DA
330
31
100
AcDbEntity
  8
0
  6
Continuous
 62
   179
100
AcDbLine
 10
3206.6645544
 20
5566.2856598946
 30
0.0
 11
4820.080682400499
 21
5566.285659894499
 31
0.0
  0
LINE
  5
DB
330
31
100
AcDbEntity
  8
0
  6
Continuous
 62
   179
100
AcDbLine
 10
4820.080682400499
 20
5566.285659894499
 30
0.0
 11
4894.028921600501
 21
6231.819812694499
 31
0.0
  0
LINE
  5
DC
330
31
100
AcDbEntity
  8
0
  6
Continuous
 62
   179
100
AcDbLine
 10
4894.028921600501
 20
6231.819812694499
 30
0.0
 11
4907.4740560005
 21
6366.2711566946
 31
0.0
  0
LINE
  5
DD
330
31
100
AcDbEntity
  8
0
  6
Continuous
 62
   179
100
AcDbLine
 10
4907.4740560005
 20
6366.2711566946
 30
0.0
 11
4917.4861623745
 21
6641.1377165616
 31
0.0
  0
LINE
  5
DE
330
31
100
AcDbEntity
  8
0
  6
Continuous
 62
   179
100
AcDbLine
 10
4917.4861623745
 20
6641.1377165616
 30
0.0
 11
4907.4740560005
 21
6857.018562294701
 31
0.0
  0
LINE
  5
DF
330
31
100
AcDbEntity
  8
0
  6
Continuous
 62
   179
100
AcDbLine
 10
24964.5491205926
 20
0.0000125144
 30
0.0
 11
26583.7619200447
 21
0.0000125144
 31
0.0
  0
LINE
  5
E0
330
31
100
AcDbEntity
  8
0
  6
Continuous
 62
   179
100
AcDbLine
 10
24964.5491205926
 20
1424.0948297115
 30
0.0
 11
24964.5491205926
 21
0.0000125144
 31
0.0
  0
LINE
  5
E1
330
31
100
AcDbEntity
  8
0
  6
Continuous
 62
   179
100
AcDbLine
 10
25016.6135325926
 20
7008.8707569115
 30
0.0
 11
24971.491042193
 21
3444.1940153109
 31
0.0
  0
LINE
  5
E2
330
31
100
AcDbEntity
  8
0
  6
Continuous
 62
   179
100
AcDbLine
 10
24180.1119797926
 20
3343.5361521115
 30
0.0
 11
25016.6135325926
 21
7008.8707569115
 31
0.0
  0
LINE
  5
E3
330
31
100
AcDbEntity
  8
0
  6
Continuous
 62
   179
100
AcDbLine
 10
23399.1457997926
 20
0.0000125144
 30
0.0
 11
23791.3643701938
 21
1694.8297721102
 31
0.0
  0
LINE
  5
E4
330
31
100
AcDbEntity
  8
0
  6
Continuous
 62
   179
100
AcDbLine
 10
21618.5429093926
 20
0.0000125144
 30
0.0
 11
23399.1457997926
 21
0.0000125144
 31
0.0
  0
LINE
  5
E5
330
31
100
AcDbEntity
  8
0
  6
Continuous
 62
   179
100
AcDbLine
 10
23986.756270993
 20
8289.6552921115
 30
0.0
 11
21618.5429093926
 21
0.0000125144
 31
0.0
  0
LINE
  5
E6
330
31
100
AcDbEntity
  8
0
  6
Continuous
 62
   179
100
AcDbLine
 10
26353.951536593
 20
8289.6552921115
 30
0.0
 11
23986.756270993
 21
8289.6552921115
 31
0.0
  0
LINE
  5
E7
330
31
100
AcDbEntity
  8
0
  6
Continuous
 62
   179
100
AcDbLine
 10
26583.7619200447
 20
0.0000125144
 30
0.0
 11
26353.951536593
 21
8289.6552921115
 31
0.0
  0
ENDBLK
  5
33
330
31
100
AcDbEntity
  8
0
100
AcDbBlockEnd
  0
ENDSEC
  0
SECTION
  2
ENTITIES
  0
LINE
  5
F4
330
1F
100
AcDbEntity
  8
0
  6
Continuous
 62
     7
370
    15
100
AcDbLine
 10
-208.6934328705
 20
-658.9457774466997
 30
0.0
 11
-208.6934328705
 21
-58.945768506
 31
0.0
  0
LINE
  5
101
330
1F
100
AcDbEntity
  8
0
  6
Continuous
 62
     7
370
    15
100
AcDbLine
 10
-208.6934328705
 20
-58.945768506
 30
0.0
 11
391.3065909714
 21
-58.96392171166644
 31
0.0
  0
LINE
  5
108
330
1F
100
AcDbEntity
  8
0
  6
Continuous
 62
     7
370
    15
100
AcDbLine
 10
391.3065909714
 20
-58.96392171166644
 30
0.0
 11
391.3065909714
 21
-658.9457774466999
 31
0.0
  0
LINE
  5
111
330
1F
100
AcDbEntity
  8
0
  6
Continuous
 62
     7
370
    15
100
AcDbLine
 10
391.3065909714
 20
-658.9457774466999
 30
0.0
 11
-208.6934328705
 21
-658.9457774466999
 31
0.0
  0
LINE
  5
21F
330
1F
100
AcDbEntity
  8
0
  6
Continuous
 62
     7
370
    15
100
AcDbLine
 10
-195.2873359758632
 20
-645.5457741326998
 30
0.0
 11
377.7065693707
 21
-645.5457741326998
 31
0.0
  0
LINE
  5
22A
330
1F
100
AcDbEntity
  8
0
  6
Continuous
 62
     7
370
    15
100
AcDbLine
 10
377.7065693707
 20
-645.5457741326998
 30
0.0
 11
377.7065693707
 21
-72.54576030439999
 31
0.0
  0
LINE
  5
231
330
1F
100
AcDbEntity
  8
0
  6
Continuous
 62
     7
370
    15
100
AcDbLine
 10
-195.3171521060449
 20
-72.54576030439999
 30
0.0
 11
-195.2873359758632
 21
-645.5457741326998
 31
0.0
  0
LINE
  5
232
330
1F
100
AcDbEntity
  8
0
  6
Continuous
 62
     7
370
    15
100
AcDbLine
 10
377.7065693707
 20
-72.54576030439999
 30
0.0
 11
-195.3171521060449
 21
-72.54576030439999
 31
0.0
  0
CIRCLE
  5
297
330
1F
100
AcDbEntity
  8
0
  6
Continuous
 62
     7
370
    15
100
AcDbCircle
 10
379.2136859382
 20
97.1922651324
 30
0.0
 40
3.000000000000028
  0
CIRCLE
  5
298
330
1F
100
AcDbEntity
  8
0
  6
Continuous
 62
     7
370
    15
100
AcDbCircle
 10
363.2136859382
 20
97.1922651324
 30
0.0
 40
3.000000000000028
  0
CIRCLE
  5
299
330
1F
100
AcDbEntity
  8
0
  6
Continuous
 62
     7
370
    15
100
AcDbCircle
 10
347.2136859382
 20
97.1922651324
 30
0.0
 40
3.000000000000028
  0
CIRCLE
  5
29A
330
1F
100
AcDbEntity
  8
0
  6
Continuous
 62
     7
370
    15
100
AcDbCircle
 10
331.2136859382
 20
97.1922651324
 30
0.0
 40
3.000000000000028
  0
CIRCLE
  5
29B
330
1F
100
AcDbEntity
  8
0
  6
Continuous
 62
     7
370
    15
100
AcDbCircle
 10
315.2136859382
 20
97.1922651324
 30
0.0
 40
3.000000000000028
  0
CIRCLE
  5
29C
330
1F
100
AcDbEntity
  8
0
  6
Continuous
 62
     7
370
    15
100
AcDbCircle
 10
299.2136859382
 20
97.1922651324
 30
0.0
 40
3.000000000000028
  0
CIRCLE
  5
29D
330
1F
100
AcDbEntity
  8
0
  6
Continuous
 62
     7
370
    15
100
AcDbCircle
 10
283.2136859382
 20
97.1922651324
 30
0.0
 40
3.000000000000028
  0
CIRCLE
  5
29E
330
1F
100
AcDbEntity
  8
0
  6
Continuous
 62
     7
370
    15
100
AcDbCircle
 10
267.2136859382
 20
97.1922651324
 30
0.0
 40
3.000000000000028
  0
CIRCLE
  5
29F
330
1F
100
AcDbEntity
  8
0
  6
Continuous
 62
     7
370
    15
100
AcDbCircle
 10
251.2136859382
 20
97.1922651324
 30
0.0
 40
3.000000000000028
  0
CIRCLE
  5
2A0
330
1F
100
AcDbEntity
  8
0
  6
Continuous
 62
     7
370
    15
100
AcDbCircle
 10
235.2136859382
 20
97.1922651324
 30
0.0
 40
3.000000000000028
  0
CIRCLE
  5
2A1
330
1F
100
AcDbEntity
  8
0
  6
Continuous
 62
     7
370
    15
100
AcDbCircle
 10
219.2136859382
 20
97.1922651324
 30
0.0
 40
3.000000000000028
  0
CIRCLE
  5
2A2
330
1F
100
AcDbEntity
  8
0
  6
Continuous
 62
     7
370
    15
100
AcDbCircle
 10
203.2136859382
 20
97.1922651324
 30
0.0
 40
3.000000000000028
  0
CIRCLE
  5
2A3
330
1F
100
AcDbEntity
  8
0
  6
Continuous
 62
     7
370
    15
100
AcDbCircle
 10
187.2136859382
 20
97.1922651324
 30
0.0
 40
3.000000000000028
  0
CIRCLE
  5
2A4
330
1F
100
AcDbEntity
  8
0
  6
Continuous
 62
     7
370
    15
100
AcDbCircle
 10
171.2136859382
 20
97.1922651324
 30
0.0
 40
3.000000000000028
  0
CIRCLE
  5
2A5
330
1F
100
AcDbEntity
  8
0
  6
Continuous
 62
     7
370
    15
100
AcDbCircle
 10
155.2136859382
 20
97.1922651324
 30
0.0
 40
3.000000000000028
  0
CIRCLE
  5
2A6
330
1F
100
AcDbEntity
  8
0
  6
Continuous
 62
     7
370
    15
100
AcDbCircle
 10
139.2136859382
 20
97.1922651324
 30
0.0
 40
3.000000000000028
  0
CIRCLE
  5
2A7
330
1F
100
AcDbEntity
  8
0
  6
Continuous
 62
     7
370
    15
100
AcDbCircle
 10
123.2136859382
 20
97.1922651324
 30
0.0
 40
3.000000000000028
  0
CIRCLE
  5
2A8
330
1F
100
AcDbEntity
  8
0
  6
Continuous
 62
     7
370
    15
100
AcDbCircle
 10
107.2136859382
 20
97.1922651324
 30
0.0
 40
3.000000000000028
  0
CIRCLE
  5
2A9
330
1F
100
AcDbEntity
  8
0
  6
Continuous
 62
     7
370
    15
100
AcDbCircle
 10
91.21368593819999
 20
97.1922651324
 30
0.0
 40
3.000000000000028
  0
CIRCLE
  5
2AA
330
1F
100
AcDbEntity
  8
0
  6
Continuous
 62
     7
370
    15
100
AcDbCircle
 10
75.2136859382
 20
97.1922651324
 30
0.0
 40
3.000000000000028
  0
CIRCLE
  5
2AB
330
1F
100
AcDbEntity
  8
0
  6
Continuous
 62
     7
370
    15
100
AcDbCircle
 10
59.21368593819999
 20
97.1922651324
 30
0.0
 40
3.000000000000028
  0
CIRCLE
  5
2AC
330
1F
100
AcDbEntity
  8
0
  6
Continuous
 62
     7
370
    15
100
AcDbCircle
 10
43.21368593819999
 20
97.1922651324
 30
0.0
 40
3.000000000000028
  0
CIRCLE
  5
2AD
330
1F
100
AcDbEntity
  8
0
  6
Continuous
 62
     7
370
    15
100
AcDbCircle
 10
27.2136859382
 20
97.1922651324
 30
0.0
 40
3.000000000000028
  0
CIRCLE
  5
2AE
330
1F
100
AcDbEntity
  8
0
  6
Continuous
 62
     7
370
    15
100
AcDbCircle
 10
11.2136859382
 20
97.1922651324
 30
0.0
 40
3.000000000000028
  0
CIRCLE
  5
2AF
330
1F
100
AcDbEntity
  8
0
  6
Continuous
 62
     7
370
    15
100
AcDbCircle
 10
-4.786314061799997
 20
97.1922651324
 30
0.0
 40
3.000000000000028
  0
CIRCLE
  5
2B0
330
1F
100
AcDbEntity
  8
0
  6
Continuous
 62
     7
370
    15
100
AcDbCircle
 10
-20.7863140618
 20
97.1922651324
 30
0.0
 40
3.000000000000028
  0
CIRCLE
  5
2B1
330
1F
100
AcDbEntity
  8
0
  6
Continuous
 62
     7
370
    15
100
AcDbCircle
 10
-36.7863140618
 20
97.1922651324
 30
0.0
 40
3.000000000000028
  0
CIRCLE
  5
2B2
330
1F
100
AcDbEntity
  8
0
  6
Continuous
 62
     7
370
    15
100
AcDbCircle
 10
-52.7863140618
 20
97.1922651324
 30
0.0
 40
3.000000000000028
  0
CIRCLE
  5
2B3
330
1F
100
AcDbEntity
  8
0
  6
Continuous
 62
     7
370
    15
100
AcDbCircle
 10
-68.7863140618
 20
97.1922651324
 30
0.0
 40
3.000000000000028
  0
CIRCLE
  5
2B4
330
1F
100
AcDbEntity
  8
0
  6
Continuous
 62
     7
370
    15
100
AcDbCircle
 10
-84.78631406179998
 20
97.1922651324
 30
0.0
 40
3.000000000000028
  0
CIRCLE
  5
2B5
330
1F
100
AcDbEntity
  8
0
  6
Continuous
 62
     7
370
    15
100
AcDbCircle
 10
-100.7863140618
 20
97.1922651324
 30
0.0
 40
3.000000000000028
  0
CIRCLE
  5
2B6
330
1F
100
AcDbEntity
  8
0
  6
Continuous
 62
     7
370
    15
100
AcDbCircle
 10
-116.7863140618
 20
97.1922651324
 30
0.0
 40
3.000000000000028
  0
CIRCLE
  5
2B7
330
1F
100
AcDbEntity
  8
0
  6
Continuous
 62
     7
370
    15
100
AcDbCircle
 10
-132.7863140618
 20
97.1922651324
 30
0.0
 40
3.000000000000028
  0
CIRCLE
  5
2B8
330
1F
100
AcDbEntity
  8
0
  6
Continuous
 62
     7
370
    15
100
AcDbCircle
 10
-148.7863140618
 20
97.1922651324
 30
0.0
 40
3.000000000000028
  0
CIRCLE
  5
2B9
330
1F
100
AcDbEntity
  8
0
  6
Continuous
 62
     7
370
    15
100
AcDbCircle
 10
-164.7863140618
 20
97.1922651324
 30
0.0
 40
3.000000000000028
  0
CIRCLE
  5
2C0
330
1F
100
AcDbEntity
  8
0
  6
Continuous
 62
     7
370
    15
100
AcDbCircle
 10
-196.7863140618
 20
97.1922651324
 30
0.0
 40
3.000000000000028
  0
CIRCLE
  5
2C1
330
1F
100
AcDbEntity
  8
0
  6
Continuous
 62
     7
370
    15
100
AcDbCircle
 10
-180.7863140618
 20
97.1922651324
 30
0.0
 40
3.000000000000028
  0
LINE
  5
2C3
330
1F
100
AcDbEntity
  8
0
  6
Continuous
 62
     7
370
    15
100
AcDbLine
 10
389.9065672726
 20
84.1922625796
 30
0.0
 11
-207.2934091716
 21
84.1922625796
 31
0.0
  0
LINE
  5
2C6
330
1F
100
AcDbEntity
  8
0
  6
Continuous
 62
     7
370
    15
100
AcDbLine
 10
389.1994773716
 20
110.6922641293
 30
0.0
 11
-206.5863192707
 21
110.6922641293
 31
0.0
  0
SPLINE
  5
2CA
330
1F
100
AcDbEntity
  8
0
  6
Continuous
 62
     7
370
    15
100
AcDbSpline
210
0.0
220
0.0
230
1.0
 70
     8
 71
     3
 72
    12
 73
     8
 74
     0
 42
0.0000000001
 43
0.0000000001
 40
0.0
 40
0.0
 40
0.0
 40
0.0
 40
0.2233357951843364
 40
0.4467000202372688
 40
0.6700742223002127
 40
0.8934400631311422
 40
1.0
 40
1.0
 40
1.0
 40
1.0
 10
389.9065672725983
 20
84.19226257959541
 30
0.0
 10
390.0703005898323
 20
84.20902277782934
 30
0.0
 10
390.3977880669806
 20
84.24254530781208
 30
0.0
 10
390.8296726484723
 20
84.50321542428158
 30
0.0
 10
391.1469414497832
 20
84.88411576743926
 30
0.0
 10
391.2904746645495
 20
85.2736004521901
 30
0.0
 10
391.3026564723282
 20
85.51446811665199
 30
0.0
 10
391.3065909714052
 20
85.5922639266604
 30
0.0
  0
LINE
  5
2CC
330
1F
100
AcDbEntity
  8
0
  6
Continuous
 62
     7
370
    15
100
AcDbLine
 10
-208.6934328705
 20
85.5922639267
 30
0.0
 11
-208.6934328705
 21
109.2922627823
 31
0.0
  0
SPLINE
  5
2CF
330
1F
100
AcDbEntity
  8
0
  6
Continuous
 62
     7
370
    15
100
AcDbSpline
210
0.0
220
0.0
230
1.0
 70
     8
 71
     3
 72
    11
 73
     7
 74
     0
 42
0.0000000001
 43
0.0000000001
 40
0.0
 40
0.0
 40
0.0
 40
0.0
 40
0.2499969504075676
 40
0.4999951661143328
 40
0.7500012359810107
 40
1.0
 40
1.0
 40
1.0
 40
1.0
 10
-208.6934328704527
 20
85.59226392666039
 30
0.0
 10
-208.6723858101076
 20
85.40881270201005
 30
0.0
 10
-208.6302915828929
 20
85.0419093242154
 30
0.0
 10
-208.3065537168796
 20
84.57913341048657
 30
0.0
 10
-207.8437649835747
 20
84.25540697909218
 30
0.0
 10
-207.4768593219349
 20
84.21331050772938
 30
0.0
 10
-207.293409171646
 20
84.19226257959541
 30
0.0
  0
LINE
  5
2D3
330
1F
100
AcDbEntity
  8
0
  6
Continuous
 62
     7
370
    15
100
AcDbLine
 10
391.3065909714
 20
85.5922639267
 30
0.0
 11
391.3065909714
 21
109.2922627823
 31
0.0
  0
SPLINE
  5
2D4
330
1F
100
AcDbEntity
  8
0
  6
Continuous
 62
     7
370
    15
100
AcDbSpline
210
0.0
220
0.0
230
1.0
 70
     8
 71
     3
 72
    12
 73
     8
 74
     0
 42
0.0000000001
 43
0.0000000001
 40
0.0
 40
0.0
 40
0.0
 40
0.0
 40
0.2253433302779139
 40
0.4507222797491341
 40
0.6761051860141923
 40
0.9014856889996087
 40
1.0
 40
1.0
 40
1.0
 40
1.0
 10
-207.2934091716459
 20
110.6922641293162
 30
0.0
 10
-207.4586137832515
 20
110.6751994439141
 30
0.0
 10
-207.7890491197491
 20
110.6410673757577
 30
0.0
 10
-208.2237236459445
 20
110.3758380346557
 30
0.0
 10
-208.5409235183131
 20
109.9888994757563
 30
0.0
 10
-208.6789596354363
 20
109.6005950138782
 30
0.0
 10
-208.6900574207021
 20
109.3641720653637
 30
0.0
 10
-208.6934328704527
 20
109.2922627822512
 30
0.0
  0
SPLINE
  5
2D7
330
1F
100
AcDbEntity
  8
0
  6
Continuous
 62
     7
370
    15
100
AcDbSpline
210
0.0
220
0.0
230
1.0
 70
     8
 71
     3
 72
    12
 73
     8
 74
     0
 42
0.0000000001
 43
0.0000000001
 40
0.0
 40
0.0
 40
0.0
 40
0.0
 40
0.2253411563059955
 40
0.4507187315381578
 40
0.6761046568293525
 40
0.9014801016794887
 40
1.0
 40
1.0
 40
1.0
 40
1.0
 10
391.3065909714052
 20
109.2922627822512
 30
0.0
 10
391.2895177068038
 20
109.457463826226
 30
0.0
 10
391.2553684182743
 20
109.7878926134467
 30
0.0
 10
390.9901756370389
 20
110.2225796982684
 30
0.0
 10
390.6031985557552
 20
110.5397466000095
 30
0.0
 10
390.2149099227058
 20
110.6778195751116
 30
0.0
 10
389.978482022713
 20
110.6888952262281
 30
0.0
 10
389.9065672725983
 20
110.6922641293162
 30
0.0
  0
LINE
  5
2DA
330
1F
100
AcDbEntity
  8
0
  6
Continuous
 62
     7
370
    15
100
AcDbLine
 10
-206.5863192707
 20
110.6922641293
 30
0.0
 11
-207.2934091716
 21
110.6922641293
 31
0.0
  0
LINE
  5
2DD
330
1F
100
AcDbEntity
  8
0
  6
Continuous
 62
     7
370
    15
100
AcDbLine
 10
389.9065672726
 20
110.6922641293
 30
0.0
 11
389.1994773716
 21
110.6922641293
 31
0.0
  0
LINE
  5
2E4
330
1F
100
AcDbEntity
  8
0
  6
Continuous
 62
     7
370
    15
100
AcDbLine
 10
376.9358813137
 20
135.9922639922
 30
0.0
 11
377.0065724224
 21
135.9922639922
 31
0.0
  0
LINE
  5
31D
330
1F
100
AcDbEntity
  8
0
  6
Continuous
 62
     7
370
    15
100
AcDbLine
 10
-193.8934207588
 20
150.792264928
 30
0.0
 11
376.3065754742
 21
150.792264928
 31
0.0
  0
LINE
  5
321
330
1F
100
AcDbEntity
  8
0
  6
Continuous
 62
     7
370
    15
100
AcDbLine
 10
377.7065693707
 20
149.392263581
 30
0.0
 11
377.7065693706999
 21
110.6922641293
 31
0.0
  0
LINE
  5
324
330
1F
100
AcDbEntity
  8
0
  6
Continuous
 62
     7
370
    15
100
AcDbLine
 10
-195.2934146553
 20
149.392263581
 30
0.0
 11
-195.2934146552999
 21
110.6922641293
 31
0.0
  0
SPLINE
  5
328
330
1F
100
AcDbEntity
  8
0
  6
Continuous
 62
     7
370
    15
100
AcDbSpline
210
0.0
220
0.0
230
1.0
 70
     8
 71
     3
 72
    11
 73
     7
 74
     0
 42
0.0000000001
 43
0.0000000001
 40
0.0
 40
0.0
 40
0.0
 40
0.0
 40
0.2500019828632644
 40
0.5000019908495831
 40
0.7500009099608841
 40
1.0
 40
1.0
 40
1.0
 40
1.0
 10
377.7065693706818
 20
149.3922635809534
 30
0.0
 10
377.6855230907991
 20
149.5757156782258
 30
0.0
 10
377.6434306972874
 20
149.9426184236008
 30
0.0
 10
377.319689470646
 20
150.4053834747861
 30
0.0
 10
376.8569314653616
 20
150.7291311816175
 30
0.0
 10
376.4900275130618
 20
150.7712203410886
 30
0.0
 10
376.3065754741975
 20
150.7922649280184
 30
0.0
  0
SPLINE
  5
329
330
1F
100
AcDbEntity
  8
0
  6
Continuous
 62
     7
370
    15
100
AcDbSpline
210
0.0
220
0.0
230
1.0
 70
     8
 71
     3
 72
    11
 73
     7
 74
     0
 42
0.0000000001
 43
0.0000000001
 40
0.0
 40
0.0
 40
0.0
 40
0.0
 40
0.2499990900391159
 40
0.4999980091504172
 40
0.7499980171367358
 40
1.0
 40
1.0
 40
1.0
 40
1.0
 10
-193.8934207587889
 20
150.7922649280184
 30
0.0
 10
-194.0768727976531
 20
150.7712203410886
 30
0.0
 10
-194.4437767499529
 20
150.7291311816175
 30
0.0
 10
-194.9065347552373
 20
150.4053834747861
 30
0.0
 10
-195.2302759818787
 20
149.9426184236008
 30
0.0
 10
-195.2723683753904
 20
149.5757156782258
 30
0.0
 10
-195.2934146552732
 20
149.3922635809534
 30
0.0
  0
MTEXT
  5
353
330
1F
100
AcDbEntity
  8
0
100
AcDbMText
 10
37.52157523000915
 20
270.573682653514
 30
0.0
 40
15.0
 41
158.499264036528
 71
     1
 72
     5
  1
{\fTxt|b0|i0|c186|p2;DSA 250}
 73
     1
 44
1.0
1001
ACAD
1000
MTEXTBEGIN
1070
    73
1070
     1
1070
    44
1040
1.0
1070
    74
1070
     0
1000
MTEXTEND
  0
LINE
  5
358
330
1F
100
AcDbEntity
  8
LENKIMO
  6
CENTER
100
AcDbLine
 10
91.2065792203
 20
217.2726567135883
 30
0.0
 11
91.2065792203
 21
136.3731466094473
 31
0.0
  0
LINE
  5
35A
330
1F
100
AcDbEntity
  8
LENKIMO
  6
CENTER
100
AcDbLine
 10
91.20657915770001
 20
-227.893298398546
 30
0.0
 11
91.20657915770001
 21
-488.7725862630768
 31
0.0
  0
CIRCLE
  5
381
330
1F
100
AcDbEntity
  8
0
100
AcDbCircle
 10
91.20657915770001
 20
-359.0457750989
 30
0.0
 40
121.312092923261
  0
LINE
  5
880
330
1F
100
AcDbEntity
  8
LENKIMO
  6
CENTER
100
AcDbLine
 10
224.1642448791927
 20
-359.0457750989
 30
0.0
 11
-39.20472946939208
 21
-359.0457750989
 31
0.0
  0
LINE
  5
8FF
330
1F
100
AcDbEntity
  8
0
100
AcDbLine
 10
216.2065792203
 20
205.792264928
 30
0.0
 11
216.2065792203
 21
150.792264928
 31
0.0
  0
CIRCLE
  5
900
330
1F
100
AcDbEntity
  8
0
100
AcDbCircle
 10
91.20657915770001
 20
-359.0457750989
 30
0.0
 40
125.0
  0
LINE
  5
9E3
330
1F
100
AcDbEntity
  8
0
100
AcDbLine
 10
-33.7934207797
 20
150.792264928
 30
0.0
 11
-33.7934207797
 21
205.792264928
 31
0.0
  0
LINE
  5
9E4
330
1F
100
AcDbEntity
  8
0
100
AcDbLine
 10
-33.7934207797
 20
205.792264928
 30
0.0
 11
216.2065792203
 21
205.792264928
 31
0.0
  0
CIRCLE
  5
9E5
330
1F
100
AcDbEntity
  8
0
100
AcDbCircle
 10
91.20657915769999
 20
-359.0457750989
 30
0.0
 40
3.0
  0
CIRCLE
  5
9E6
330
1F
100
AcDbEntity
  8
0
100
AcDbCircle
 10
91.20657915769999
 20
-347.0457750989
 30
0.0
 40
3.0
  0
CIRCLE
  5
9E7
330
1F
100
AcDbEntity
  8
0
100
AcDbCircle
 10
91.20657915769999
 20
-335.0457750989
 30
0.0
 40
3.0
  0
CIRCLE
  5
9E8
330
1F
100
AcDbEntity
  8
0
100
AcDbCircle
 10
91.20657915769999
 20
-323.0457750989
 30
0.0
 40
3.0
  0
CIRCLE
  5
9E9
330
1F
100
AcDbEntity
  8
0
100
AcDbCircle
 10
91.20657915769999
 20
-311.0457750989
 30
0.0
 40
3.0
  0
CIRCLE
  5
9EA
330
1F
100
AcDbEntity
  8
0
100
AcDbCircle
 10
91.20657915769999
 20
-299.0457750989
 30
0.0
 40
3.0
  0
CIRCLE
  5
9EB
330
1F
100
AcDbEntity
  8
0
100
AcDbCircle
 10
91.20657915769999
 20
-287.0457750989
 30
0.0
 40
3.0
  0
CIRCLE
  5
9EC
330
1F
100
AcDbEntity
  8
0
100
AcDbCircle
 10
91.20657915769999
 20
-275.0457750989
 30
0.0
 40
3.0
  0
CIRCLE
  5
9ED
330
1F
100
AcDbEntity
  8
0
100
AcDbCircle
 10
91.20657915769999
 20
-263.0457750989
 30
0.0
 40
3.0
  0
CIRCLE
  5
9EE
330
1F
100
AcDbEntity
  8
0
100
AcDbCircle
 10
91.20657915769999
 20
-251.0457750989
 30
0.0
 40
3.0
  0
CIRCLE
  5
9EF
330
1F
100
AcDbEntity
  8
0
100
AcDbCircle
 10
103.2065791577
 20
-359.0457750989
 30
0.0
 40
3.0
  0
CIRCLE
  5
9F0
330
1F
100
AcDbEntity
  8
0
100
AcDbCircle
 10
103.2065791577
 20
-347.0457750989
 30
0.0
 40
3.0
  0
CIRCLE
  5
9F1
330
1F
100
AcDbEntity
  8
0
100
AcDbCircle
 10
103.2065791577
 20
-335.0457750989
 30
0.0
 40
3.0
  0
CIRCLE
  5
9F2
330
1F
100
AcDbEntity
  8
0
100
AcDbCircle
 10
103.2065791577
 20
-323.0457750989
 30
0.0
 40
3.0
  0
CIRCLE
  5
9F3
330
1F
100
AcDbEntity
  8
0
100
AcDbCircle
 10
103.2065791577
 20
-311.0457750989
 30
0.0
 40
3.0
  0
CIRCLE
  5
9F4
330
1F
100
AcDbEntity
  8
0
100
AcDbCircle
 10
103.2065791577
 20
-299.0457750989
 30
0.0
 40
3.0
  0
CIRCLE
  5
9F5
330
1F
100
AcDbEntity
  8
0
100
AcDbCircle
 10
103.2065791577
 20
-287.0457750989
 30
0.0
 40
3.0
  0
CIRCLE
  5
9F6
330
1F
100
AcDbEntity
  8
0
100
AcDbCircle
 10
103.2065791577
 20
-275.0457750989
 30
0.0
 40
3.0
  0
CIRCLE
  5
9F7
330
1F
100
AcDbEntity
  8
0
100
AcDbCircle
 10
103.2065791577
 20
-263.0457750989
 30
0.0
 40
3.0
  0
CIRCLE
  5
9F8
330
1F
100
AcDbEntity
  8
0
100
AcDbCircle
 10
103.2065791577
 20
-251.0457750989
 30
0.0
 40
3.0
  0
CIRCLE
  5
9F9
330
1F
100
AcDbEntity
  8
0
100
AcDbCircle
 10
115.2065791577
 20
-359.0457750989
 30
0.0
 40
3.0
  0
CIRCLE
  5
9FA
330
1F
100
AcDbEntity
  8
0
100
AcDbCircle
 10
115.2065791577
 20
-347.0457750989
 30
0.0
 40
3.0
  0
CIRCLE
  5
9FB
330
1F
100
AcDbEntity
  8
0
100
AcDbCircle
 10
115.2065791577
 20
-335.0457750989
 30
0.0
 40
3.0
  0
CIRCLE
  5
9FC
330
1F
100
AcDbEntity
  8
0
100
AcDbCircle
 10
115.2065791577
 20
-323.0457750989
 30
0.0
 40
3.0
  0
CIRCLE
  5
9FD
330
1F
100
AcDbEntity
  8
0
100
AcDbCircle
 10
115.2065791577
 20
-311.0457750989
 30
0.0
 40
3.0
  0
CIRCLE
  5
9FE
330
1F
100
AcDbEntity
  8
0
100
AcDbCircle
 10
115.2065791577
 20
-299.0457750989
 30
0.0
 40
3.0
  0
CIRCLE
  5
9FF
330
1F
100
AcDbEntity
  8
0
100
AcDbCircle
 10
115.2065791577
 20
-287.0457750989
 30
0.0
 40
3.0
  0
CIRCLE
  5
A00
330
1F
100
AcDbEntity
  8
0
100
AcDbCircle
 10
115.2065791577
 20
-275.0457750989
 30
0.0
 40
3.0
  0
CIRCLE
  5
A01
330
1F
100
AcDbEntity
  8
0
100
AcDbCircle
 10
115.2065791577
 20
-263.0457750989
 30
0.0
 40
3.0
  0
CIRCLE
  5
A02
330
1F
100
AcDbEntity
  8
0
100
AcDbCircle
 10
115.2065791577
 20
-251.0457750989
 30
0.0
 40
3.0
  0
CIRCLE
  5
A03
330
1F
100
AcDbEntity
  8
0
100
AcDbCircle
 10
127.2065791577
 20
-359.0457750989
 30
0.0
 40
3.0
  0
CIRCLE
  5
A04
330
1F
100
AcDbEntity
  8
0
100
AcDbCircle
 10
127.2065791577
 20
-347.0457750989
 30
0.0
 40
3.0
  0
CIRCLE
  5
A05
330
1F
100
AcDbEntity
  8
0
100
AcDbCircle
 10
127.2065791577
 20
-335.0457750989
 30
0.0
 40
3.0
  0
CIRCLE
  5
A06
330
1F
100
AcDbEntity
  8
0
100
AcDbCircle
 10
127.2065791577
 20
-323.0457750989
 30
0.0
 40
3.0
  0
CIRCLE
  5
A07
330
1F
100
AcDbEntity
  8
0
100
AcDbCircle
 10
127.2065791577
 20
-311.0457750989
 30
0.0
 40
3.0
  0
CIRCLE
  5
A08
330
1F
100
AcDbEntity
  8
0
100
AcDbCircle
 10
127.2065791577
 20
-299.0457750989
 30
0.0
 40
3.0
  0
CIRCLE
  5
A09
330
1F
100
AcDbEntity
  8
0
100
AcDbCircle
 10
127.2065791577
 20
-287.0457750989
 30
0.0
 40
3.0
  0
CIRCLE
  5
A0A
330
1F
100
AcDbEntity
  8
0
100
AcDbCircle
 10
127.2065791577
 20
-275.0457750989
 30
0.0
 40
3.0
  0
CIRCLE
  5
A0B
330
1F
100
AcDbEntity
  8
0
100
AcDbCircle
 10
127.2065791577
 20
-263.0457750989
 30
0.0
 40
3.0
  0
CIRCLE
  5
A0C
330
1F
100
AcDbEntity
  8
0
100
AcDbCircle
 10
127.2065791577
 20
-251.0457750989
 30
0.0
 40
3.0
  0
CIRCLE
  5
A0D
330
1F
100
AcDbEntity
  8
0
100
AcDbCircle
 10
139.2065791577
 20
-359.0457750989
 30
0.0
 40
3.0
  0
CIRCLE
  5
A0E
330
1F
100
AcDbEntity
  8
0
100
AcDbCircle
 10
139.2065791577
 20
-347.0457750989
 30
0.0
 40
3.0
  0
CIRCLE
  5
A0F
330
1F
100
AcDbEntity
  8
0
100
AcDbCircle
 10
139.2065791577
 20
-335.0457750989
 30
0.0
 40
3.0
  0
CIRCLE
  5
A10
330
1F
100
AcDbEntity
  8
0
100
AcDbCircle
 10
139.2065791577
 20
-323.0457750989
 30
0.0
 40
3.0
  0
CIRCLE
  5
A11
330
1F
100
AcDbEntity
  8
0
100
AcDbCircle
 10
139.2065791577
 20
-311.0457750989
 30
0.0
 40
3.0
  0
CIRCLE
  5
A12
330
1F
100
AcDbEntity
  8
0
100
AcDbCircle
 10
139.2065791577
 20
-299.0457750989
 30
0.0
 40
3.0
  0
CIRCLE
  5
A13
330
1F
100
AcDbEntity
  8
0
100
AcDbCircle
 10
139.2065791577
 20
-287.0457750989
 30
0.0
 40
3.0
  0
CIRCLE
  5
A14
330
1F
100
AcDbEntity
  8
0
100
AcDbCircle
 10
139.2065791577
 20
-275.0457750989
 30
0.0
 40
3.0
  0
CIRCLE
  5
A15
330
1F
100
AcDbEntity
  8
0
100
AcDbCircle
 10
139.2065791577
 20
-263.0457750989
 30
0.0
 40
3.0
  0
CIRCLE
  5
A16
330
1F
100
AcDbEntity
  8
0
100
AcDbCircle
 10
139.2065791577
 20
-251.0457750989
 30
0.0
 40
3.0
  0
CIRCLE
  5
A17
330
1F
100
AcDbEntity
  8
0
100
AcDbCircle
 10
151.2065791577
 20
-359.0457750989
 30
0.0
 40
3.0
  0
CIRCLE
  5
A18
330
1F
100
AcDbEntity
  8
0
100
AcDbCircle
 10
151.2065791577
 20
-347.0457750989
 30
0.0
 40
3.0
  0
CIRCLE
  5
A19
330
1F
100
AcDbEntity
  8
0
100
AcDbCircle
 10
151.2065791577
 20
-335.0457750989
 30
0.0
 40
3.0
  0
CIRCLE
  5
A1A
330
1F
100
AcDbEntity
  8
0
100
AcDbCircle
 10
151.2065791577
 20
-323.0457750989
 30
0.0
 40
3.0
  0
CIRCLE
  5
A1B
330
1F
100
AcDbEntity
  8
0
100
AcDbCircle
 10
151.2065791577
 20
-311.0457750989
 30
0.0
 40
3.0
  0
CIRCLE
  5
A1C
330
1F
100
AcDbEntity
  8
0
100
AcDbCircle
 10
151.2065791577
 20
-299.0457750989
 30
0.0
 40
3.0
  0
CIRCLE
  5
A1D
330
1F
100
AcDbEntity
  8
0
100
AcDbCircle
 10
151.2065791577
 20
-287.0457750989
 30
0.0
 40
3.0
  0
CIRCLE
  5
A1E
330
1F
100
AcDbEntity
  8
0
100
AcDbCircle
 10
151.2065791577
 20
-275.0457750989
 30
0.0
 40
3.0
  0
CIRCLE
  5
A1F
330
1F
100
AcDbEntity
  8
0
100
AcDbCircle
 10
151.2065791577
 20
-263.0457750989
 30
0.0
 40
3.0
  0
CIRCLE
  5
A21
330
1F
100
AcDbEntity
  8
0
100
AcDbCircle
 10
163.2065791577
 20
-359.0457750989
 30
0.0
 40
3.0
  0
CIRCLE
  5
A22
330
1F
100
AcDbEntity
  8
0
100
AcDbCircle
 10
163.2065791577
 20
-347.0457750989
 30
0.0
 40
3.0
  0
CIRCLE
  5
A23
330
1F
100
AcDbEntity
  8
0
100
AcDbCircle
 10
163.2065791577
 20
-335.0457750989
 30
0.0
 40
3.0
  0
CIRCLE
  5
A24
330
1F
100
AcDbEntity
  8
0
100
AcDbCircle
 10
163.2065791577
 20
-323.0457750989
 30
0.0
 40
3.0
  0
CIRCLE
  5
A25
330
1F
100
AcDbEntity
  8
0
100
AcDbCircle
 10
163.2065791577
 20
-311.0457750989
 30
0.0
 40
3.0
  0
CIRCLE
  5
A26
330
1F
100
AcDbEntity
  8
0
100
AcDbCircle
 10
163.2065791577
 20
-299.0457750989
 30
0.0
 40
3.0
  0
CIRCLE
  5
A27
330
1F
100
AcDbEntity
  8
0
100
AcDbCircle
 10
163.2065791577
 20
-287.0457750989
 30
0.0
 40
3.0
  0
CIRCLE
  5
A28
330
1F
100
AcDbEntity
  8
0
100
AcDbCircle
 10
163.2065791577
 20
-275.0457750989
 30
0.0
 40
3.0
  0
CIRCLE
  5
A29
330
1F
100
AcDbEntity
  8
0
100
AcDbCircle
 10
163.2065791577
 20
-263.0457750989
 30
0.0
 40
3.0
  0
CIRCLE
  5
A2B
330
1F
100
AcDbEntity
  8
0
100
AcDbCircle
 10
175.2065791577
 20
-359.0457750989
 30
0.0
 40
3.0
  0
CIRCLE
  5
A2C
330
1F
100
AcDbEntity
  8
0
100
AcDbCircle
 10
175.2065791577
 20
-347.0457750989
 30
0.0
 40
3.0
  0
CIRCLE
  5
A2D
330
1F
100
AcDbEntity
  8
0
100
AcDbCircle
 10
175.2065791577
 20
-335.0457750989
 30
0.0
 40
3.0
  0
CIRCLE
  5
A2E
330
1F
100
AcDbEntity
  8
0
100
AcDbCircle
 10
175.2065791577
 20
-323.0457750989
 30
0.0
 40
3.0
  0
CIRCLE
  5
A2F
330
1F
100
AcDbEntity
  8
0
100
AcDbCircle
 10
175.2065791577
 20
-311.0457750989
 30
0.0
 40
3.0
  0
CIRCLE
  5
A30
330
1F
100
AcDbEntity
  8
0
100
AcDbCircle
 10
175.2065791577
 20
-299.0457750989
 30
0.0
 40
3.0
  0
CIRCLE
  5
A31
330
1F
100
AcDbEntity
  8
0
100
AcDbCircle
 10
175.2065791577
 20
-287.0457750989
 30
0.0
 40
3.0
  0
CIRCLE
  5
A32
330
1F
100
AcDbEntity
  8
0
100
AcDbCircle
 10
175.2065791577
 20
-275.0457750989
 30
0.0
 40
3.0
  0
CIRCLE
  5
A35
330
1F
100
AcDbEntity
  8
0
100
AcDbCircle
 10
187.2065791577
 20
-359.0457750989
 30
0.0
 40
3.0
  0
CIRCLE
  5
A36
330
1F
100
AcDbEntity
  8
0
100
AcDbCircle
 10
187.2065791577
 20
-347.0457750989
 30
0.0
 40
3.0
  0
CIRCLE
  5
A37
330
1F
100
AcDbEntity
  8
0
100
AcDbCircle
 10
187.2065791577
 20
-335.0457750989
 30
0.0
 40
3.0
  0
CIRCLE
  5
A38
330
1F
100
AcDbEntity
  8
0
100
AcDbCircle
 10
187.2065791577
 20
-323.0457750989
 30
0.0
 40
3.0
  0
CIRCLE
  5
A39
330
1F
100
AcDbEntity
  8
0
100
AcDbCircle
 10
187.2065791577
 20
-311.0457750989
 30
0.0
 40
3.0
  0
CIRCLE
  5
A3A
330
1F
100
AcDbEntity
  8
0
100
AcDbCircle
 10
187.2065791577
 20
-299.0457750989
 30
0.0
 40
3.0
  0
CIRCLE
  5
A3F
330
1F
100
AcDbEntity
  8
0
100
AcDbCircle
 10
199.2065791577
 20
-359.0457750989
 30
0.0
 40
3.0
  0
CIRCLE
  5
A40
330
1F
100
AcDbEntity
  8
0
100
AcDbCircle
 10
199.2065791577
 20
-347.0457750989
 30
0.0
 40
3.0
  0
CIRCLE
  5
A41
330
1F
100
AcDbEntity
  8
0
100
AcDbCircle
 10
199.2065791577
 20
-335.0457750989
 30
0.0
 40
3.0
  0
CIRCLE
  5
A42
330
1F
100
AcDbEntity
  8
0
100
AcDbCircle
 10
199.2065791577
 20
-323.0457750989
 30
0.0
 40
3.0
  0
CIRCLE
  5
A43
330
1F
100
AcDbEntity
  8
0
100
AcDbCircle
 10
199.2065791577
 20
-311.0457750989
 30
0.0
 40
3.0
  0
CIRCLE
  5
AA0
330
1F
100
AcDbEntity
  8
0
100
AcDbCircle
 10
-16.79342084229995
 20
-311.0457750989
 30
0.0
 40
3.0
  0
CIRCLE
  5
AA1
330
1F
100
AcDbEntity
  8
0
100
AcDbCircle
 10
-16.79342084229995
 20
-323.0457750989
 30
0.0
 40
3.0
  0
CIRCLE
  5
AA2
330
1F
100
AcDbEntity
  8
0
100
AcDbCircle
 10
-16.79342084229995
 20
-335.0457750989
 30
0.0
 40
3.0
  0
CIRCLE
  5
AA3
330
1F
100
AcDbEntity
  8
0
100
AcDbCircle
 10
-16.79342084229995
 20
-347.0457750989
 30
0.0
 40
3.0
  0
CIRCLE
  5
AA4
330
1F
100
AcDbEntity
  8
0
100
AcDbCircle
 10
-16.79342084229995
 20
-359.0457750989
 30
0.0
 40
3.0
  0
CIRCLE
  5
AA5
330
1F
100
AcDbEntity
  8
0
100
AcDbCircle
 10
-4.79342084229998
 20
-299.0457750989
 30
0.0
 40
3.0
  0
CIRCLE
  5
AA6
330
1F
100
AcDbEntity
  8
0
100
AcDbCircle
 10
-4.79342084229998
 20
-311.0457750989
 30
0.0
 40
3.0
  0
CIRCLE
  5
AA7
330
1F
100
AcDbEntity
  8
0
100
AcDbCircle
 10
-4.79342084229998
 20
-323.0457750989
 30
0.0
 40
3.0
  0
CIRCLE
  5
AA8
330
1F
100
AcDbEntity
  8
0
100
AcDbCircle
 10
-4.79342084229998
 20
-335.0457750989
 30
0.0
 40
3.0
  0
CIRCLE
  5
AA9
330
1F
100
AcDbEntity
  8
0
100
AcDbCircle
 10
-4.79342084229998
 20
-347.0457750989
 30
0.0
 40
3.0
  0
CIRCLE
  5
AAA
330
1F
100
AcDbEntity
  8
0
100
AcDbCircle
 10
-4.79342084229998
 20
-359.0457750989
 30
0.0
 40
3.0
  0
CIRCLE
  5
AAB
330
1F
100
AcDbEntity
  8
0
100
AcDbCircle
 10
7.206579157700019
 20
-275.0457750989
 30
0.0
 40
3.0
  0
CIRCLE
  5
AAC
330
1F
100
AcDbEntity
  8
0
100
AcDbCircle
 10
7.206579157700019
 20
-287.0457750989
 30
0.0
 40
3.0
  0
CIRCLE
  5
AAD
330
1F
100
AcDbEntity
  8
0
100
AcDbCircle
 10
7.206579157700019
 20
-299.0457750989
 30
0.0
 40
3.0
  0
CIRCLE
  5
AAE
330
1F
100
AcDbEntity
  8
0
100
AcDbCircle
 10
7.206579157700019
 20
-311.0457750989
 30
0.0
 40
3.0
  0
CIRCLE
  5
AAF
330
1F
100
AcDbEntity
  8
0
100
AcDbCircle
 10
7.206579157700019
 20
-323.0457750989
 30
0.0
 40
3.0
  0
CIRCLE
  5
AB0
330
1F
100
AcDbEntity
  8
0
100
AcDbCircle
 10
7.206579157700019
 20
-335.0457750989
 30
0.0
 40
3.0
  0
CIRCLE
  5
AB1
330
1F
100
AcDbEntity
  8
0
100
AcDbCircle
 10
7.206579157700019
 20
-347.0457750989
 30
0.0
 40
3.0
  0
CIRCLE
  5
AB2
330
1F
100
AcDbEntity
  8
0
100
AcDbCircle
 10
7.206579157700019
 20
-359.0457750989
 30
0.0
 40
3.0
  0
CIRCLE
  5
AB3
330
1F
100
AcDbEntity
  8
0
100
AcDbCircle
 10
19.20657915770002
 20
-263.0457750989
 30
0.0
 40
3.0
  0
CIRCLE
  5
AB4
330
1F
100
AcDbEntity
  8
0
100
AcDbCircle
 10
19.20657915770002
 20
-275.0457750989
 30
0.0
 40
3.0
  0
CIRCLE
  5
AB5
330
1F
100
AcDbEntity
  8
0
100
AcDbCircle
 10
19.20657915770002
 20
-287.0457750989
 30
0.0
 40
3.0
  0
CIRCLE
  5
AB6
330
1F
100
AcDbEntity
  8
0
100
AcDbCircle
 10
19.20657915770002
 20
-299.0457750989
 30
0.0
 40
3.0
  0
CIRCLE
  5
AB7
330
1F
100
AcDbEntity
  8
0
100
AcDbCircle
 10
19.20657915770002
 20
-311.0457750989
 30
0.0
 40
3.0
  0
CIRCLE
  5
AB8
330
1F
100
AcDbEntity
  8
0
100
AcDbCircle
 10
19.20657915770002
 20
-323.0457750989
 30
0.0
 40
3.0
  0
CIRCLE
  5
AB9
330
1F
100
AcDbEntity
  8
0
100
AcDbCircle
 10
19.20657915770002
 20
-335.0457750989
 30
0.0
 40
3.0
  0
CIRCLE
  5
ABA
330
1F
100
AcDbEntity
  8
0
100
AcDbCircle
 10
19.20657915770002
 20
-347.0457750989
 30
0.0
 40
3.0
  0
CIRCLE
  5
ABB
330
1F
100
AcDbEntity
  8
0
100
AcDbCircle
 10
19.20657915770002
 20
-359.0457750989
 30
0.0
 40
3.0
  0
CIRCLE
  5
ABC
330
1F
100
AcDbEntity
  8
0
100
AcDbCircle
 10
31.20657915770002
 20
-263.0457750989
 30
0.0
 40
3.0
  0
CIRCLE
  5
ABD
330
1F
100
AcDbEntity
  8
0
100
AcDbCircle
 10
31.20657915770002
 20
-275.0457750989
 30
0.0
 40
3.0
  0
CIRCLE
  5
ABE
330
1F
100
AcDbEntity
  8
0
100
AcDbCircle
 10
31.20657915770002
 20
-287.0457750989
 30
0.0
 40
3.0
  0
CIRCLE
  5
ABF
330
1F
100
AcDbEntity
  8
0
100
AcDbCircle
 10
31.20657915770002
 20
-299.0457750989
 30
0.0
 40
3.0
  0
CIRCLE
  5
AC0
330
1F
100
AcDbEntity
  8
0
100
AcDbCircle
 10
31.20657915770002
 20
-311.0457750989
 30
0.0
 40
3.0
  0
CIRCLE
  5
AC1
330
1F
100
AcDbEntity
  8
0
100
AcDbCircle
 10
31.20657915770002
 20
-323.0457750989
 30
0.0
 40
3.0
  0
CIRCLE
  5
AC2
330
1F
100
AcDbEntity
  8
0
100
AcDbCircle
 10
31.20657915770002
 20
-335.0457750989
 30
0.0
 40
3.0
  0
CIRCLE
  5
AC3
330
1F
100
AcDbEntity
  8
0
100
AcDbCircle
 10
31.20657915770002
 20
-347.0457750989
 30
0.0
 40
3.0
  0
CIRCLE
  5
AC4
330
1F
100
AcDbEntity
  8
0
100
AcDbCircle
 10
31.20657915770002
 20
-359.0457750989
 30
0.0
 40
3.0
  0
CIRCLE
  5
AC5
330
1F
100
AcDbEntity
  8
0
100
AcDbCircle
 10
43.20657915770001
 20
-251.0457750989
 30
0.0
 40
3.0
  0
CIRCLE
  5
AC6
330
1F
100
AcDbEntity
  8
0
100
AcDbCircle
 10
43.20657915770001
 20
-263.0457750989
 30
0.0
 40
3.0
  0
CIRCLE
  5
AC7
330
1F
100
AcDbEntity
  8
0
100
AcDbCircle
 10
43.20657915770001
 20
-275.0457750989
 30
0.0
 40
3.0
  0
CIRCLE
  5
AC8
330
1F
100
AcDbEntity
  8
0
100
AcDbCircle
 10
43.20657915770001
 20
-287.0457750989
 30
0.0
 40
3.0
  0
CIRCLE
  5
AC9
330
1F
100
AcDbEntity
  8
0
100
AcDbCircle
 10
43.20657915770001
 20
-299.0457750989
 30
0.0
 40
3.0
  0
CIRCLE
  5
ACA
330
1F
100
AcDbEntity
  8
0
100
AcDbCircle
 10
43.20657915770001
 20
-311.0457750989
 30
0.0
 40
3.0
  0
CIRCLE
  5
ACB
330
1F
100
AcDbEntity
  8
0
100
AcDbCircle
 10
43.20657915770001
 20
-323.0457750989
 30
0.0
 40
3.0
  0
CIRCLE
  5
ACC
330
1F
100
AcDbEntity
  8
0
100
AcDbCircle
 10
43.20657915770001
 20
-335.0457750989
 30
0.0
 40
3.0
  0
CIRCLE
  5
ACD
330
1F
100
AcDbEntity
  8
0
100
AcDbCircle
 10
43.20657915770001
 20
-347.0457750989
 30
0.0
 40
3.0
  0
CIRCLE
  5
ACE
330
1F
100
AcDbEntity
  8
0
100
AcDbCircle
 10
43.20657915770001
 20
-359.0457750989
 30
0.0
 40
3.0
  0
CIRCLE
  5
ACF
330
1F
100
AcDbEntity
  8
0
100
AcDbCircle
 10
55.20657915770001
 20
-251.0457750989
 30
0.0
 40
3.0
  0
CIRCLE
  5
AD0
330
1F
100
AcDbEntity
  8
0
100
AcDbCircle
 10
55.20657915770001
 20
-263.0457750989
 30
0.0
 40
3.0
  0
CIRCLE
  5
AD1
330
1F
100
AcDbEntity
  8
0
100
AcDbCircle
 10
55.20657915770001
 20
-275.0457750989
 30
0.0
 40
3.0
  0
CIRCLE
  5
AD2
330
1F
100
AcDbEntity
  8
0
100
AcDbCircle
 10
55.20657915770001
 20
-287.0457750989
 30
0.0
 40
3.0
  0
CIRCLE
  5
AD3
330
1F
100
AcDbEntity
  8
0
100
AcDbCircle
 10
55.20657915770001
 20
-299.0457750989
 30
0.0
 40
3.0
  0
CIRCLE
  5
AD4
330
1F
100
AcDbEntity
  8
0
100
AcDbCircle
 10
55.20657915770001
 20
-311.0457750989
 30
0.0
 40
3.0
  0
CIRCLE
  5
AD5
330
1F
100
AcDbEntity
  8
0
100
AcDbCircle
 10
55.20657915770001
 20
-323.0457750989
 30
0.0
 40
3.0
  0
CIRCLE
  5
AD6
330
1F
100
AcDbEntity
  8
0
100
AcDbCircle
 10
55.20657915770001
 20
-335.0457750989
 30
0.0
 40
3.0
  0
CIRCLE
  5
AD7
330
1F
100
AcDbEntity
  8
0
100
AcDbCircle
 10
55.20657915770001
 20
-347.0457750989
 30
0.0
 40
3.0
  0
CIRCLE
  5
AD8
330
1F
100
AcDbEntity
  8
0
100
AcDbCircle
 10
55.20657915770001
 20
-359.0457750989
 30
0.0
 40
3.0
  0
CIRCLE
  5
AD9
330
1F
100
AcDbEntity
  8
0
100
AcDbCircle
 10
67.20657915770002
 20
-251.0457750989
 30
0.0
 40
3.0
  0
CIRCLE
  5
ADA
330
1F
100
AcDbEntity
  8
0
100
AcDbCircle
 10
67.20657915770002
 20
-263.0457750989
 30
0.0
 40
3.0
  0
CIRCLE
  5
ADB
330
1F
100
AcDbEntity
  8
0
100
AcDbCircle
 10
67.20657915770002
 20
-275.0457750989
 30
0.0
 40
3.0
  0
CIRCLE
  5
ADC
330
1F
100
AcDbEntity
  8
0
100
AcDbCircle
 10
67.20657915770002
 20
-287.0457750989
 30
0.0
 40
3.0
  0
CIRCLE
  5
ADD
330
1F
100
AcDbEntity
  8
0
100
AcDbCircle
 10
67.20657915770002
 20
-299.0457750989
 30
0.0
 40
3.0
  0
CIRCLE
  5
ADE
330
1F
100
AcDbEntity
  8
0
100
AcDbCircle
 10
67.20657915770002
 20
-311.0457750989
 30
0.0
 40
3.0
  0
CIRCLE
  5
ADF
330
1F
100
AcDbEntity
  8
0
100
AcDbCircle
 10
67.20657915770002
 20
-323.0457750989
 30
0.0
 40
3.0
  0
CIRCLE
  5
AE0
330
1F
100
AcDbEntity
  8
0
100
AcDbCircle
 10
67.20657915770002
 20
-335.0457750989
 30
0.0
 40
3.0
  0
CIRCLE
  5
AE1
330
1F
100
AcDbEntity
  8
0
100
AcDbCircle
 10
67.20657915770002
 20
-347.0457750989
 30
0.0
 40
3.0
  0
CIRCLE
  5
AE2
330
1F
100
AcDbEntity
  8
0
100
AcDbCircle
 10
67.20657915770002
 20
-359.0457750989
 30
0.0
 40
3.0
  0
CIRCLE
  5
AE3
330
1F
100
AcDbEntity
  8
0
100
AcDbCircle
 10
79.20657915770002
 20
-251.0457750989
 30
0.0
 40
3.0
  0
CIRCLE
  5
AE4
330
1F
100
AcDbEntity
  8
0
100
AcDbCircle
 10
79.20657915770002
 20
-263.0457750989
 30
0.0
 40
3.0
  0
CIRCLE
  5
AE5
330
1F
100
AcDbEntity
  8
0
100
AcDbCircle
 10
79.20657915770002
 20
-275.0457750989
 30
0.0
 40
3.0
  0
CIRCLE
  5
AE6
330
1F
100
AcDbEntity
  8
0
100
AcDbCircle
 10
79.20657915770002
 20
-287.0457750989
 30
0.0
 40
3.0
  0
CIRCLE
  5
AE7
330
1F
100
AcDbEntity
  8
0
100
AcDbCircle
 10
79.20657915770002
 20
-299.0457750989
 30
0.0
 40
3.0
  0
CIRCLE
  5
AE8
330
1F
100
AcDbEntity
  8
0
100
AcDbCircle
 10
79.20657915770002
 20
-311.0457750989
 30
0.0
 40
3.0
  0
CIRCLE
  5
AE9
330
1F
100
AcDbEntity
  8
0
100
AcDbCircle
 10
79.20657915770002
 20
-323.0457750989
 30
0.0
 40
3.0
  0
CIRCLE
  5
AEA
330
1F
100
AcDbEntity
  8
0
100
AcDbCircle
 10
79.20657915770002
 20
-335.0457750989
 30
0.0
 40
3.0
  0
CIRCLE
  5
AEB
330
1F
100
AcDbEntity
  8
0
100
AcDbCircle
 10
79.20657915770002
 20
-347.0457750989
 30
0.0
 40
3.0
  0
CIRCLE
  5
AEC
330
1F
100
AcDbEntity
  8
0
100
AcDbCircle
 10
79.20657915770002
 20
-359.0457750989
 30
0.0
 40
3.0
  0
CIRCLE
  5
AED
330
1F
100
AcDbEntity
  8
0
100
AcDbCircle
 10
91.20657915770001
 20
-251.0457750989
 30
0.0
 40
3.0
  0
CIRCLE
  5
AEE
330
1F
100
AcDbEntity
  8
0
100
AcDbCircle
 10
91.20657915770001
 20
-263.0457750989
 30
0.0
 40
3.0
  0
CIRCLE
  5
AEF
330
1F
100
AcDbEntity
  8
0
100
AcDbCircle
 10
91.20657915770001
 20
-275.0457750989
 30
0.0
 40
3.0
  0
CIRCLE
  5
AF0
330
1F
100
AcDbEntity
  8
0
100
AcDbCircle
 10
91.20657915770001
 20
-287.0457750989
 30
0.0
 40
3.0
  0
CIRCLE
  5
AF1
330
1F
100
AcDbEntity
  8
0
100
AcDbCircle
 10
91.20657915770001
 20
-299.0457750989
 30
0.0
 40
3.0
  0
CIRCLE
  5
AF2
330
1F
100
AcDbEntity
  8
0
100
AcDbCircle
 10
91.20657915770001
 20
-311.0457750989
 30
0.0
 40
3.0
  0
CIRCLE
  5
AF3
330
1F
100
AcDbEntity
  8
0
100
AcDbCircle
 10
91.20657915770001
 20
-323.0457750989
 30
0.0
 40
3.0
  0
CIRCLE
  5
AF4
330
1F
100
AcDbEntity
  8
0
100
AcDbCircle
 10
91.20657915770001
 20
-335.0457750989
 30
0.0
 40
3.0
  0
CIRCLE
  5
AF5
330
1F
100
AcDbEntity
  8
0
100
AcDbCircle
 10
91.20657915770001
 20
-347.0457750989
 30
0.0
 40
3.0
  0
CIRCLE
  5
AF6
330
1F
100
AcDbEntity
  8
0
100
AcDbCircle
 10
91.20657915770001
 20
-359.0457750989
 30
0.0
 40
3.0
  0
CIRCLE
  5
AF7
330
1F
100
AcDbEntity
  8
0
100
AcDbCircle
 10
91.20657915770001
 20
-359.0457750989
 30
0.0
 40
3.0
  0
CIRCLE
  5
AF8
330
1F
100
AcDbEntity
  8
0
100
AcDbCircle
 10
91.20657915770001
 20
-371.0457750989001
 30
0.0
 40
3.0
  0
CIRCLE
  5
AF9
330
1F
100
AcDbEntity
  8
0
100
AcDbCircle
 10
91.20657915770001
 20
-383.0457750989
 30
0.0
 40
3.0
  0
CIRCLE
  5
AFA
330
1F
100
AcDbEntity
  8
0
100
AcDbCircle
 10
91.20657915770001
 20
-395.0457750989
 30
0.0
 40
3.0
  0
CIRCLE
  5
AFB
330
1F
100
AcDbEntity
  8
0
100
AcDbCircle
 10
91.20657915770001
 20
-407.0457750989
 30
0.0
 40
3.0
  0
CIRCLE
  5
AFC
330
1F
100
AcDbEntity
  8
0
100
AcDbCircle
 10
91.20657915770001
 20
-419.0457750989
 30
0.0
 40
3.0
  0
CIRCLE
  5
AFD
330
1F
100
AcDbEntity
  8
0
100
AcDbCircle
 10
91.20657915770001
 20
-431.0457750989
 30
0.0
 40
3.0
  0
CIRCLE
  5
AFE
330
1F
100
AcDbEntity
  8
0
100
AcDbCircle
 10
91.20657915770001
 20
-443.0457750989
 30
0.0
 40
3.0
  0
CIRCLE
  5
AFF
330
1F
100
AcDbEntity
  8
0
100
AcDbCircle
 10
91.20657915770001
 20
-455.0457750989
 30
0.0
 40
3.0
  0
CIRCLE
  5
B00
330
1F
100
AcDbEntity
  8
0
100
AcDbCircle
 10
91.20657915770001
 20
-467.0457750989
 30
0.0
 40
3.0
  0
CIRCLE
  5
B01
330
1F
100
AcDbEntity
  8
0
100
AcDbCircle
 10
79.20657915770002
 20
-359.0457750989
 30
0.0
 40
3.0
  0
CIRCLE
  5
B02
330
1F
100
AcDbEntity
  8
0
100
AcDbCircle
 10
79.20657915770002
 20
-371.0457750989001
 30
0.0
 40
3.0
  0
CIRCLE
  5
B03
330
1F
100
AcDbEntity
  8
0
100
AcDbCircle
 10
79.20657915770002
 20
-383.0457750989
 30
0.0
 40
3.0
  0
CIRCLE
  5
B04
330
1F
100
AcDbEntity
  8
0
100
AcDbCircle
 10
79.20657915770002
 20
-395.0457750989
 30
0.0
 40
3.0
  0
CIRCLE
  5
B05
330
1F
100
AcDbEntity
  8
0
100
AcDbCircle
 10
79.20657915770002
 20
-407.0457750989
 30
0.0
 40
3.0
  0
CIRCLE
  5
B06
330
1F
100
AcDbEntity
  8
0
100
AcDbCircle
 10
79.20657915770002
 20
-419.0457750989
 30
0.0
 40
3.0
  0
CIRCLE
  5
B07
330
1F
100
AcDbEntity
  8
0
100
AcDbCircle
 10
79.20657915770002
 20
-431.0457750989
 30
0.0
 40
3.0
  0
CIRCLE
  5
B08
330
1F
100
AcDbEntity
  8
0
100
AcDbCircle
 10
79.20657915770002
 20
-443.0457750989
 30
0.0
 40
3.0
  0
CIRCLE
  5
B09
330
1F
100
AcDbEntity
  8
0
100
AcDbCircle
 10
79.20657915770002
 20
-455.0457750989
 30
0.0
 40
3.0
  0
CIRCLE
  5
B0A
330
1F
100
AcDbEntity
  8
0
100
AcDbCircle
 10
79.20657915770002
 20
-467.0457750989
 30
0.0
 40
3.0
  0
CIRCLE
  5
B0B
330
1F
100
AcDbEntity
  8
0
100
AcDbCircle
 10
67.20657915770002
 20
-359.0457750989
 30
0.0
 40
3.0
  0
CIRCLE
  5
B0C
330
1F
100
AcDbEntity
  8
0
100
AcDbCircle
 10
67.20657915770002
 20
-371.0457750989001
 30
0.0
 40
3.0
  0
CIRCLE
  5
B0D
330
1F
100
AcDbEntity
  8
0
100
AcDbCircle
 10
67.20657915770002
 20
-383.0457750989
 30
0.0
 40
3.0
  0
CIRCLE
  5
B0E
330
1F
100
AcDbEntity
  8
0
100
AcDbCircle
 10
67.20657915770002
 20
-395.0457750989
 30
0.0
 40
3.0
  0
CIRCLE
  5
B0F
330
1F
100
AcDbEntity
  8
0
100
AcDbCircle
 10
67.20657915770002
 20
-407.0457750989
 30
0.0
 40
3.0
  0
CIRCLE
  5
B10
330
1F
100
AcDbEntity
  8
0
100
AcDbCircle
 10
67.20657915770002
 20
-419.0457750989
 30
0.0
 40
3.0
  0
CIRCLE
  5
B11
330
1F
100
AcDbEntity
  8
0
100
AcDbCircle
 10
67.20657915770002
 20
-431.0457750989
 30
0.0
 40
3.0
  0
CIRCLE
  5
B12
330
1F
100
AcDbEntity
  8
0
100
AcDbCircle
 10
67.20657915770002
 20
-443.0457750989
 30
0.0
 40
3.0
  0
CIRCLE
  5
B13
330
1F
100
AcDbEntity
  8
0
100
AcDbCircle
 10
67.20657915770002
 20
-455.0457750989
 30
0.0
 40
3.0
  0
CIRCLE
  5
B14
330
1F
100
AcDbEntity
  8
0
100
AcDbCircle
 10
67.20657915770002
 20
-467.0457750989
 30
0.0
 40
3.0
  0
CIRCLE
  5
B15
330
1F
100
AcDbEntity
  8
0
100
AcDbCircle
 10
55.20657915770001
 20
-359.0457750989
 30
0.0
 40
3.0
  0
CIRCLE
  5
B16
330
1F
100
AcDbEntity
  8
0
100
AcDbCircle
 10
55.20657915770001
 20
-371.0457750989001
 30
0.0
 40
3.0
  0
CIRCLE
  5
B17
330
1F
100
AcDbEntity
  8
0
100
AcDbCircle
 10
55.20657915770001
 20
-383.0457750989
 30
0.0
 40
3.0
  0
CIRCLE
  5
B18
330
1F
100
AcDbEntity
  8
0
100
AcDbCircle
 10
55.20657915770001
 20
-395.0457750989
 30
0.0
 40
3.0
  0
CIRCLE
  5
B19
330
1F
100
AcDbEntity
  8
0
100
AcDbCircle
 10
55.20657915770001
 20
-407.0457750989
 30
0.0
 40
3.0
  0
CIRCLE
  5
B1A
330
1F
100
AcDbEntity
  8
0
100
AcDbCircle
 10
55.20657915770001
 20
-419.0457750989
 30
0.0
 40
3.0
  0
CIRCLE
  5
B1B
330
1F
100
AcDbEntity
  8
0
100
AcDbCircle
 10
55.20657915770001
 20
-431.0457750989
 30
0.0
 40
3.0
  0
CIRCLE
  5
B1C
330
1F
100
AcDbEntity
  8
0
100
AcDbCircle
 10
55.20657915770001
 20
-443.0457750989
 30
0.0
 40
3.0
  0
CIRCLE
  5
B1D
330
1F
100
AcDbEntity
  8
0
100
AcDbCircle
 10
55.20657915770001
 20
-455.0457750989
 30
0.0
 40
3.0
  0
CIRCLE
  5
B1E
330
1F
100
AcDbEntity
  8
0
100
AcDbCircle
 10
55.20657915770001
 20
-467.0457750989
 30
0.0
 40
3.0
  0
CIRCLE
  5
B1F
330
1F
100
AcDbEntity
  8
0
100
AcDbCircle
 10
43.20657915770001
 20
-359.0457750989
 30
0.0
 40
3.0
  0
CIRCLE
  5
B20
330
1F
100
AcDbEntity
  8
0
100
AcDbCircle
 10
43.20657915770001
 20
-371.0457750989001
 30
0.0
 40
3.0
  0
CIRCLE
  5
B21
330
1F
100
AcDbEntity
  8
0
100
AcDbCircle
 10
43.20657915770001
 20
-383.0457750989
 30
0.0
 40
3.0
  0
CIRCLE
  5
B22
330
1F
100
AcDbEntity
  8
0
100
AcDbCircle
 10
43.20657915770001
 20
-395.0457750989
 30
0.0
 40
3.0
  0
CIRCLE
  5
B23
330
1F
100
AcDbEntity
  8
0
100
AcDbCircle
 10
43.20657915770001
 20
-407.0457750989
 30
0.0
 40
3.0
  0
CIRCLE
  5
B24
330
1F
100
AcDbEntity
  8
0
100
AcDbCircle
 10
43.20657915770001
 20
-419.0457750989
 30
0.0
 40
3.0
  0
CIRCLE
  5
B25
330
1F
100
AcDbEntity
  8
0
100
AcDbCircle
 10
43.20657915770001
 20
-431.0457750989
 30
0.0
 40
3.0
  0
CIRCLE
  5
B26
330
1F
100
AcDbEntity
  8
0
100
AcDbCircle
 10
43.20657915770001
 20
-443.0457750989
 30
0.0
 40
3.0
  0
CIRCLE
  5
B27
330
1F
100
AcDbEntity
  8
0
100
AcDbCircle
 10
43.20657915770001
 20
-455.0457750989
 30
0.0
 40
3.0
  0
CIRCLE
  5
B28
330
1F
100
AcDbEntity
  8
0
100
AcDbCircle
 10
43.20657915770001
 20
-467.0457750989
 30
0.0
 40
3.0
  0
CIRCLE
  5
B29
330
1F
100
AcDbEntity
  8
0
100
AcDbCircle
 10
31.20657915770002
 20
-359.0457750989
 30
0.0
 40
3.0
  0
CIRCLE
  5
B2A
330
1F
100
AcDbEntity
  8
0
100
AcDbCircle
 10
31.20657915770002
 20
-371.0457750989001
 30
0.0
 40
3.0
  0
CIRCLE
  5
B2B
330
1F
100
AcDbEntity
  8
0
100
AcDbCircle
 10
31.20657915770002
 20
-383.0457750989
 30
0.0
 40
3.0
  0
CIRCLE
  5
B2C
330
1F
100
AcDbEntity
  8
0
100
AcDbCircle
 10
31.20657915770002
 20
-395.0457750989
 30
0.0
 40
3.0
  0
CIRCLE
  5
B2D
330
1F
100
AcDbEntity
  8
0
100
AcDbCircle
 10
31.20657915770002
 20
-407.0457750989
 30
0.0
 40
3.0
  0
CIRCLE
  5
B2E
330
1F
100
AcDbEntity
  8
0
100
AcDbCircle
 10
31.20657915770002
 20
-419.0457750989
 30
0.0
 40
3.0
  0
CIRCLE
  5
B2F
330
1F
100
AcDbEntity
  8
0
100
AcDbCircle
 10
31.20657915770002
 20
-431.0457750989
 30
0.0
 40
3.0
  0
CIRCLE
  5
B30
330
1F
100
AcDbEntity
  8
0
100
AcDbCircle
 10
31.20657915770002
 20
-443.0457750989
 30
0.0
 40
3.0
  0
CIRCLE
  5
B31
330
1F
100
AcDbEntity
  8
0
100
AcDbCircle
 10
31.20657915770002
 20
-455.0457750989
 30
0.0
 40
3.0
  0
CIRCLE
  5
B32
330
1F
100
AcDbEntity
  8
0
100
AcDbCircle
 10
19.20657915770002
 20
-359.0457750989
 30
0.0
 40
3.0
  0
CIRCLE
  5
B33
330
1F
100
AcDbEntity
  8
0
100
AcDbCircle
 10
19.20657915770002
 20
-371.0457750989001
 30
0.0
 40
3.0
  0
CIRCLE
  5
B34
330
1F
100
AcDbEntity
  8
0
100
AcDbCircle
 10
19.20657915770002
 20
-383.0457750989
 30
0.0
 40
3.0
  0
CIRCLE
  5
B35
330
1F
100
AcDbEntity
  8
0
100
AcDbCircle
 10
19.20657915770002
 20
-395.0457750989
 30
0.0
 40
3.0
  0
CIRCLE
  5
B36
330
1F
100
AcDbEntity
  8
0
100
AcDbCircle
 10
19.20657915770002
 20
-407.0457750989
 30
0.0
 40
3.0
  0
CIRCLE
  5
B37
330
1F
100
AcDbEntity
  8
0
100
AcDbCircle
 10
19.20657915770002
 20
-419.0457750989
 30
0.0
 40
3.0
  0
CIRCLE
  5
B38
330
1F
100
AcDbEntity
  8
0
100
AcDbCircle
 10
19.20657915770002
 20
-431.0457750989
 30
0.0
 40
3.0
  0
CIRCLE
  5
B39
330
1F
100
AcDbEntity
  8
0
100
AcDbCircle
 10
19.20657915770002
 20
-443.0457750989
 30
0.0
 40
3.0
  0
CIRCLE
  5
B3A
330
1F
100
AcDbEntity
  8
0
100
AcDbCircle
 10
19.20657915770002
 20
-455.0457750989
 30
0.0
 40
3.0
  0
CIRCLE
  5
B3B
330
1F
100
AcDbEntity
  8
0
100
AcDbCircle
 10
7.206579157700019
 20
-359.0457750989
 30
0.0
 40
3.0
  0
CIRCLE
  5
B3C
330
1F
100
AcDbEntity
  8
0
100
AcDbCircle
 10
7.206579157700019
 20
-371.0457750989001
 30
0.0
 40
3.0
  0
CIRCLE
  5
B3D
330
1F
100
AcDbEntity
  8
0
100
AcDbCircle
 10
7.206579157700019
 20
-383.0457750989
 30
0.0
 40
3.0
  0
CIRCLE
  5
B3E
330
1F
100
AcDbEntity
  8
0
100
AcDbCircle
 10
7.206579157700019
 20
-395.0457750989
 30
0.0
 40
3.0
  0
CIRCLE
  5
B3F
330
1F
100
AcDbEntity
  8
0
100
AcDbCircle
 10
7.206579157700019
 20
-407.0457750989
 30
0.0
 40
3.0
  0
CIRCLE
  5
B40
330
1F
100
AcDbEntity
  8
0
100
AcDbCircle
 10
7.206579157700019
 20
-419.0457750989
 30
0.0
 40
3.0
  0
CIRCLE
  5
B41
330
1F
100
AcDbEntity
  8
0
100
AcDbCircle
 10
7.206579157700019
 20
-431.0457750989
 30
0.0
 40
3.0
  0
CIRCLE
  5
B42
330
1F
100
AcDbEntity
  8
0
100
AcDbCircle
 10
7.206579157700019
 20
-443.0457750989
 30
0.0
 40
3.0
  0
CIRCLE
  5
B43
330
1F
100
AcDbEntity
  8
0
100
AcDbCircle
 10
-4.79342084229998
 20
-359.0457750989
 30
0.0
 40
3.0
  0
CIRCLE
  5
B44
330
1F
100
AcDbEntity
  8
0
100
AcDbCircle
 10
-4.79342084229998
 20
-371.0457750989001
 30
0.0
 40
3.0
  0
CIRCLE
  5
B45
330
1F
100
AcDbEntity
  8
0
100
AcDbCircle
 10
-4.79342084229998
 20
-383.0457750989
 30
0.0
 40
3.0
  0
CIRCLE
  5
B46
330
1F
100
AcDbEntity
  8
0
100
AcDbCircle
 10
-4.79342084229998
 20
-395.0457750989
 30
0.0
 40
3.0
  0
CIRCLE
  5
B47
330
1F
100
AcDbEntity
  8
0
100
AcDbCircle
 10
-4.79342084229998
 20
-407.0457750989
 30
0.0
 40
3.0
  0
CIRCLE
  5
B48
330
1F
100
AcDbEntity
  8
0
100
AcDbCircle
 10
-4.79342084229998
 20
-419.0457750989
 30
0.0
 40
3.0
  0
CIRCLE
  5
B49
330
1F
100
AcDbEntity
  8
0
100
AcDbCircle
 10
-16.79342084229995
 20
-359.0457750989
 30
0.0
 40
3.0
  0
CIRCLE
  5
B4A
330
1F
100
AcDbEntity
  8
0
100
AcDbCircle
 10
-16.79342084229995
 20
-371.0457750989001
 30
0.0
 40
3.0
  0
CIRCLE
  5
B4B
330
1F
100
AcDbEntity
  8
0
100
AcDbCircle
 10
-16.79342084229995
 20
-383.0457750989
 30
0.0
 40
3.0
  0
CIRCLE
  5
B4C
330
1F
100
AcDbEntity
  8
0
100
AcDbCircle
 10
-16.79342084229995
 20
-395.0457750989
 30
0.0
 40
3.0
  0
CIRCLE
  5
B4D
330
1F
100
AcDbEntity
  8
0
100
AcDbCircle
 10
-16.79342084229995
 20
-407.0457750989
 30
0.0
 40
3.0
  0
CIRCLE
  5
B4E
330
1F
100
AcDbEntity
  8
0
100
AcDbCircle
 10
199.2065791577
 20
-407.0457750989
 30
0.0
 40
3.0
  0
CIRCLE
  5
B4F
330
1F
100
AcDbEntity
  8
0
100
AcDbCircle
 10
199.2065791577
 20
-395.0457750989
 30
0.0
 40
3.0
  0
CIRCLE
  5
B50
330
1F
100
AcDbEntity
  8
0
100
AcDbCircle
 10
199.2065791577
 20
-383.0457750989
 30
0.0
 40
3.0
  0
CIRCLE
  5
B51
330
1F
100
AcDbEntity
  8
0
100
AcDbCircle
 10
199.2065791577
 20
-371.0457750989001
 30
0.0
 40
3.0
  0
CIRCLE
  5
B52
330
1F
100
AcDbEntity
  8
0
100
AcDbCircle
 10
199.2065791577
 20
-359.0457750989
 30
0.0
 40
3.0
  0
CIRCLE
  5
B53
330
1F
100
AcDbEntity
  8
0
100
AcDbCircle
 10
187.2065791577
 20
-419.0457750989
 30
0.0
 40
3.0
  0
CIRCLE
  5
B54
330
1F
100
AcDbEntity
  8
0
100
AcDbCircle
 10
187.2065791577
 20
-407.0457750989
 30
0.0
 40
3.0
  0
CIRCLE
  5
B55
330
1F
100
AcDbEntity
  8
0
100
AcDbCircle
 10
187.2065791577
 20
-395.0457750989
 30
0.0
 40
3.0
  0
CIRCLE
  5
B56
330
1F
100
AcDbEntity
  8
0
100
AcDbCircle
 10
187.2065791577
 20
-383.0457750989
 30
0.0
 40
3.0
  0
CIRCLE
  5
B57
330
1F
100
AcDbEntity
  8
0
100
AcDbCircle
 10
187.2065791577
 20
-371.0457750989001
 30
0.0
 40
3.0
  0
CIRCLE
  5
B58
330
1F
100
AcDbEntity
  8
0
100
AcDbCircle
 10
187.2065791577
 20
-359.0457750989
 30
0.0
 40
3.0
  0
CIRCLE
  5
B59
330
1F
100
AcDbEntity
  8
0
100
AcDbCircle
 10
175.2065791577
 20
-443.0457750989
 30
0.0
 40
3.0
  0
CIRCLE
  5
B5A
330
1F
100
AcDbEntity
  8
0
100
AcDbCircle
 10
175.2065791577
 20
-431.0457750989
 30
0.0
 40
3.0
  0
CIRCLE
  5
B5B
330
1F
100
AcDbEntity
  8
0
100
AcDbCircle
 10
175.2065791577
 20
-419.0457750989
 30
0.0
 40
3.0
  0
CIRCLE
  5
B5C
330
1F
100
AcDbEntity
  8
0
100
AcDbCircle
 10
175.2065791577
 20
-407.0457750989
 30
0.0
 40
3.0
  0
CIRCLE
  5
B5D
330
1F
100
AcDbEntity
  8
0
100
AcDbCircle
 10
175.2065791577
 20
-395.0457750989
 30
0.0
 40
3.0
  0
CIRCLE
  5
B5E
330
1F
100
AcDbEntity
  8
0
100
AcDbCircle
 10
175.2065791577
 20
-383.0457750989
 30
0.0
 40
3.0
  0
CIRCLE
  5
B5F
330
1F
100
AcDbEntity
  8
0
100
AcDbCircle
 10
175.2065791577
 20
-371.0457750989001
 30
0.0
 40
3.0
  0
CIRCLE
  5
B60
330
1F
100
AcDbEntity
  8
0
100
AcDbCircle
 10
175.2065791577
 20
-359.0457750989
 30
0.0
 40
3.0
  0
CIRCLE
  5
B61
330
1F
100
AcDbEntity
  8
0
100
AcDbCircle
 10
163.2065791577
 20
-455.0457750989
 30
0.0
 40
3.0
  0
CIRCLE
  5
B62
330
1F
100
AcDbEntity
  8
0
100
AcDbCircle
 10
163.2065791577
 20
-443.0457750989
 30
0.0
 40
3.0
  0
CIRCLE
  5
B63
330
1F
100
AcDbEntity
  8
0
100
AcDbCircle
 10
163.2065791577
 20
-431.0457750989
 30
0.0
 40
3.0
  0
CIRCLE
  5
B64
330
1F
100
AcDbEntity
  8
0
100
AcDbCircle
 10
163.2065791577
 20
-419.0457750989
 30
0.0
 40
3.0
  0
CIRCLE
  5
B65
330
1F
100
AcDbEntity
  8
0
100
AcDbCircle
 10
163.2065791577
 20
-407.0457750989
 30
0.0
 40
3.0
  0
CIRCLE
  5
B66
330
1F
100
AcDbEntity
  8
0
100
AcDbCircle
 10
163.2065791577
 20
-395.0457750989
 30
0.0
 40
3.0
  0
CIRCLE
  5
B67
330
1F
100
AcDbEntity
  8
0
100
AcDbCircle
 10
163.2065791577
 20
-383.0457750989
 30
0.0
 40
3.0
  0
CIRCLE
  5
B68
330
1F
100
AcDbEntity
  8
0
100
AcDbCircle
 10
163.2065791577
 20
-371.0457750989001
 30
0.0
 40
3.0
  0
CIRCLE
  5
B69
330
1F
100
AcDbEntity
  8
0
100
AcDbCircle
 10
163.2065791577
 20
-359.0457750989
 30
0.0
 40
3.0
  0
CIRCLE
  5
B6A
330
1F
100
AcDbEntity
  8
0
100
AcDbCircle
 10
151.2065791577
 20
-455.0457750989
 30
0.0
 40
3.0
  0
CIRCLE
  5
B6B
330
1F
100
AcDbEntity
  8
0
100
AcDbCircle
 10
151.2065791577
 20
-443.0457750989
 30
0.0
 40
3.0
  0
CIRCLE
  5
B6C
330
1F
100
AcDbEntity
  8
0
100
AcDbCircle
 10
151.2065791577
 20
-431.0457750989
 30
0.0
 40
3.0
  0
CIRCLE
  5
B6D
330
1F
100
AcDbEntity
  8
0
100
AcDbCircle
 10
151.2065791577
 20
-419.0457750989
 30
0.0
 40
3.0
  0
CIRCLE
  5
B6E
330
1F
100
AcDbEntity
  8
0
100
AcDbCircle
 10
151.2065791577
 20
-407.0457750989
 30
0.0
 40
3.0
  0
CIRCLE
  5
B6F
330
1F
100
AcDbEntity
  8
0
100
AcDbCircle
 10
151.2065791577
 20
-395.0457750989
 30
0.0
 40
3.0
  0
CIRCLE
  5
B70
330
1F
100
AcDbEntity
  8
0
100
AcDbCircle
 10
151.2065791577
 20
-383.0457750989
 30
0.0
 40
3.0
  0
CIRCLE
  5
B71
330
1F
100
AcDbEntity
  8
0
100
AcDbCircle
 10
151.2065791577
 20
-371.0457750989001
 30
0.0
 40
3.0
  0
CIRCLE
  5
B72
330
1F
100
AcDbEntity
  8
0
100
AcDbCircle
 10
151.2065791577
 20
-359.0457750989
 30
0.0
 40
3.0
  0
CIRCLE
  5
B73
330
1F
100
AcDbEntity
  8
0
100
AcDbCircle
 10
139.2065791577
 20
-467.0457750989
 30
0.0
 40
3.0
  0
CIRCLE
  5
B74
330
1F
100
AcDbEntity
  8
0
100
AcDbCircle
 10
139.2065791577
 20
-455.0457750989
 30
0.0
 40
3.0
  0
CIRCLE
  5
B75
330
1F
100
AcDbEntity
  8
0
100
AcDbCircle
 10
139.2065791577
 20
-443.0457750989
 30
0.0
 40
3.0
  0
CIRCLE
  5
B76
330
1F
100
AcDbEntity
  8
0
100
AcDbCircle
 10
139.2065791577
 20
-431.0457750989
 30
0.0
 40
3.0
  0
CIRCLE
  5
B77
330
1F
100
AcDbEntity
  8
0
100
AcDbCircle
 10
139.2065791577
 20
-419.0457750989
 30
0.0
 40
3.0
  0
CIRCLE
  5
B78
330
1F
100
AcDbEntity
  8
0
100
AcDbCircle
 10
139.2065791577
 20
-407.0457750989
 30
0.0
 40
3.0
  0
CIRCLE
  5
B79
330
1F
100
AcDbEntity
  8
0
100
AcDbCircle
 10
139.2065791577
 20
-395.0457750989
 30
0.0
 40
3.0
  0
CIRCLE
  5
B7A
330
1F
100
AcDbEntity
  8
0
100
AcDbCircle
 10
139.2065791577
 20
-383.0457750989
 30
0.0
 40
3.0
  0
CIRCLE
  5
B7B
330
1F
100
AcDbEntity
  8
0
100
AcDbCircle
 10
139.2065791577
 20
-371.0457750989001
 30
0.0
 40
3.0
  0
CIRCLE
  5
B7C
330
1F
100
AcDbEntity
  8
0
100
AcDbCircle
 10
139.2065791577
 20
-359.0457750989
 30
0.0
 40
3.0
  0
CIRCLE
  5
B7D
330
1F
100
AcDbEntity
  8
0
100
AcDbCircle
 10
127.2065791577
 20
-467.0457750989
 30
0.0
 40
3.0
  0
CIRCLE
  5
B7E
330
1F
100
AcDbEntity
  8
0
100
AcDbCircle
 10
127.2065791577
 20
-455.0457750989
 30
0.0
 40
3.0
  0
CIRCLE
  5
B7F
330
1F
100
AcDbEntity
  8
0
100
AcDbCircle
 10
127.2065791577
 20
-443.0457750989
 30
0.0
 40
3.0
  0
CIRCLE
  5
B80
330
1F
100
AcDbEntity
  8
0
100
AcDbCircle
 10
127.2065791577
 20
-431.0457750989
 30
0.0
 40
3.0
  0
CIRCLE
  5
B81
330
1F
100
AcDbEntity
  8
0
100
AcDbCircle
 10
127.2065791577
 20
-419.0457750989
 30
0.0
 40
3.0
  0
CIRCLE
  5
B82
330
1F
100
AcDbEntity
  8
0
100
AcDbCircle
 10
127.2065791577
 20
-407.0457750989
 30
0.0
 40
3.0
  0
CIRCLE
  5
B83
330
1F
100
AcDbEntity
  8
0
100
AcDbCircle
 10
127.2065791577
 20
-395.0457750989
 30
0.0
 40
3.0
  0
CIRCLE
  5
B84
330
1F
100
AcDbEntity
  8
0
100
AcDbCircle
 10
127.2065791577
 20
-383.0457750989
 30
0.0
 40
3.0
  0
CIRCLE
  5
B85
330
1F
100
AcDbEntity
  8
0
100
AcDbCircle
 10
127.2065791577
 20
-371.0457750989001
 30
0.0
 40
3.0
  0
CIRCLE
  5
B86
330
1F
100
AcDbEntity
  8
0
100
AcDbCircle
 10
127.2065791577
 20
-359.0457750989
 30
0.0
 40
3.0
  0
CIRCLE
  5
B87
330
1F
100
AcDbEntity
  8
0
100
AcDbCircle
 10
115.2065791577
 20
-467.0457750989
 30
0.0
 40
3.0
  0
CIRCLE
  5
B88
330
1F
100
AcDbEntity
  8
0
100
AcDbCircle
 10
115.2065791577
 20
-455.0457750989
 30
0.0
 40
3.0
  0
CIRCLE
  5
B89
330
1F
100
AcDbEntity
  8
0
100
AcDbCircle
 10
115.2065791577
 20
-443.0457750989
 30
0.0
 40
3.0
  0
CIRCLE
  5
B8A
330
1F
100
AcDbEntity
  8
0
100
AcDbCircle
 10
115.2065791577
 20
-431.0457750989
 30
0.0
 40
3.0
  0
CIRCLE
  5
B8B
330
1F
100
AcDbEntity
  8
0
100
AcDbCircle
 10
115.2065791577
 20
-419.0457750989
 30
0.0
 40
3.0
  0
CIRCLE
  5
B8C
330
1F
100
AcDbEntity
  8
0
100
AcDbCircle
 10
115.2065791577
 20
-407.0457750989
 30
0.0
 40
3.0
  0
CIRCLE
  5
B8D
330
1F
100
AcDbEntity
  8
0
100
AcDbCircle
 10
115.2065791577
 20
-395.0457750989
 30
0.0
 40
3.0
  0
CIRCLE
  5
B8E
330
1F
100
AcDbEntity
  8
0
100
AcDbCircle
 10
115.2065791577
 20
-383.0457750989
 30
0.0
 40
3.0
  0
CIRCLE
  5
B8F
330
1F
100
AcDbEntity
  8
0
100
AcDbCircle
 10
115.2065791577
 20
-371.0457750989001
 30
0.0
 40
3.0
  0
CIRCLE
  5
B90
330
1F
100
AcDbEntity
  8
0
100
AcDbCircle
 10
115.2065791577
 20
-359.0457750989
 30
0.0
 40
3.0
  0
CIRCLE
  5
B91
330
1F
100
AcDbEntity
  8
0
100
AcDbCircle
 10
103.2065791577
 20
-467.0457750989
 30
0.0
 40
3.0
  0
CIRCLE
  5
B92
330
1F
100
AcDbEntity
  8
0
100
AcDbCircle
 10
103.2065791577
 20
-455.0457750989
 30
0.0
 40
3.0
  0
CIRCLE
  5
B93
330
1F
100
AcDbEntity
  8
0
100
AcDbCircle
 10
103.2065791577
 20
-443.0457750989
 30
0.0
 40
3.0
  0
CIRCLE
  5
B94
330
1F
100
AcDbEntity
  8
0
100
AcDbCircle
 10
103.2065791577
 20
-431.0457750989
 30
0.0
 40
3.0
  0
CIRCLE
  5
B95
330
1F
100
AcDbEntity
  8
0
100
AcDbCircle
 10
103.2065791577
 20
-419.0457750989
 30
0.0
 40
3.0
  0
CIRCLE
  5
B96
330
1F
100
AcDbEntity
  8
0
100
AcDbCircle
 10
103.2065791577
 20
-407.0457750989
 30
0.0
 40
3.0
  0
CIRCLE
  5
B97
330
1F
100
AcDbEntity
  8
0
100
AcDbCircle
 10
103.2065791577
 20
-395.0457750989
 30
0.0
 40
3.0
  0
CIRCLE
  5
B98
330
1F
100
AcDbEntity
  8
0
100
AcDbCircle
 10
103.2065791577
 20
-383.0457750989
 30
0.0
 40
3.0
  0
CIRCLE
  5
B99
330
1F
100
AcDbEntity
  8
0
100
AcDbCircle
 10
103.2065791577
 20
-371.0457750989001
 30
0.0
 40
3.0
  0
CIRCLE
  5
B9A
330
1F
100
AcDbEntity
  8
0
100
AcDbCircle
 10
103.2065791577
 20
-359.0457750989
 30
0.0
 40
3.0
  0
CIRCLE
  5
B9B
330
1F
100
AcDbEntity
  8
0
100
AcDbCircle
 10
91.20657915769999
 20
-467.0457750989
 30
0.0
 40
3.0
  0
CIRCLE
  5
B9C
330
1F
100
AcDbEntity
  8
0
100
AcDbCircle
 10
91.20657915769999
 20
-455.0457750989
 30
0.0
 40
3.0
  0
CIRCLE
  5
B9D
330
1F
100
AcDbEntity
  8
0
100
AcDbCircle
 10
91.20657915769999
 20
-443.0457750989
 30
0.0
 40
3.0
  0
CIRCLE
  5
B9E
330
1F
100
AcDbEntity
  8
0
100
AcDbCircle
 10
91.20657915769999
 20
-431.0457750989
 30
0.0
 40
3.0
  0
CIRCLE
  5
B9F
330
1F
100
AcDbEntity
  8
0
100
AcDbCircle
 10
91.20657915769999
 20
-419.0457750989
 30
0.0
 40
3.0
  0
CIRCLE
  5
BA0
330
1F
100
AcDbEntity
  8
0
100
AcDbCircle
 10
91.20657915769999
 20
-407.0457750989
 30
0.0
 40
3.0
  0
CIRCLE
  5
BA1
330
1F
100
AcDbEntity
  8
0
100
AcDbCircle
 10
91.20657915769999
 20
-395.0457750989
 30
0.0
 40
3.0
  0
CIRCLE
  5
BA2
330
1F
100
AcDbEntity
  8
0
100
AcDbCircle
 10
91.20657915769999
 20
-383.0457750989
 30
0.0
 40
3.0
  0
CIRCLE
  5
BA3
330
1F
100
AcDbEntity
  8
0
100
AcDbCircle
 10
91.20657915769999
 20
-371.0457750989001
 30
0.0
 40
3.0
  0
CIRCLE
  5
BA4
330
1F
100
AcDbEntity
  8
0
100
AcDbCircle
 10
91.20657915769999
 20
-359.0457750989
 30
0.0
 40
3.0
  0
ENDSEC
  0
SECTION
  2
OBJECTS
  0
DICTIONARY
  5
C
330
0
100
AcDbDictionary
281
     1
  3
ACAD_COLOR
350
334
  3
ACAD_GROUP
350
D
  3
ACAD_LAYOUT
350
1A
  3
ACAD_MATERIAL
350
333
  3
ACAD_MLINESTYLE
350
17
  3
ACAD_PLOTSETTINGS
350
19
  3
ACAD_PLOTSTYLENAME
350
E
  3
ACDBHEADERROUNDTRIPXREC
350
BA6
  3
AcDbVariableDictionary
350
35B
  0
DICTIONARY
  5
334
102
{ACAD_REACTORS
330
C
102
}
330
C
100
AcDbDictionary
281
     1
  0
DICTIONARY
  5
D
102
{ACAD_REACTORS
330
C
102
}
330
C
100
AcDbDictionary
281
     1
  0
DICTIONARY
  5
1A
102
{ACAD_REACTORS
330
C
102
}
330
C
100
AcDbDictionary
281
     1
  3
Layout1
350
1E
  3
Layout2
350
26
  3
Model
350
22
  0
DICTIONARY
  5
333
102
{ACAD_REACTORS
330
C
102
}
330
C
100
AcDbDictionary
281
     1
  0
DICTIONARY
  5
17
102
{ACAD_REACTORS
330
C
102
}
330
C
100
AcDbDictionary
281
     1
  3
Standard
350
18
  0
DICTIONARY
  5
19
102
{ACAD_REACTORS
330
C
102
}
330
C
100
AcDbDictionary
281
     1
  0
ACDBDICTIONARYWDFLT
  5
E
102
{ACAD_REACTORS
330
C
102
}
330
C
100
AcDbDictionary
281
     1
  3
Normal
350
F
100
AcDbDictionaryWithDefault
340
F
  0
DICTIONARY
  5
BA6
102
{ACAD_REACTORS
330
C
102
}
330
C
100
AcDbDictionary
281
     1
  3
COLORDICT
350
BA8
  3
MATERIALDICT
350
BA7
  0
DICTIONARY
  5
35B
102
{ACAD_REACTORS
330
C
102
}
330
C
100
AcDbDictionary
281
     1
  3
DIMASSOC
350
35C
  3
PROJECTNAME
350
35D
  0
LAYOUT
  5
1E
102
{ACAD_XDICTIONARY
360
BA9
102
}
102
{ACAD_REACTORS
330
1A
102
}
330
1A
100
AcDbPlotSettings
  1

  2
none_device
  4

  6

 40
0.0
 41
0.0
 42
0.0
 43
0.0
 44
0.0
 45
0.0
 46
0.0
 47
0.0
 48
0.0
 49
0.0
140
0.0
141
0.0
142
1.0
143
1.0
 70
   688
 72
     0
 73
     0
 74
     5
  7

 75
    16
147
1.0
148
0.0
149
0.0
100
AcDbLayout
  1
Layout1
 70
     1
 71
     1
 10
0.0
 20
0.0
 11
420.0
 21
297.0
 12
0.0
 22
0.0
 32
0.0
 14
1.000000000000000E+20
 24
1.000000000000000E+20
 34
1.000000000000000E+20
 15
-1.000000000000000E+20
 25
-1.000000000000000E+20
 35
-1.000000000000000E+20
146
0.0
 13
0.0
 23
0.0
 33
0.0
 16
1.0
 26
0.0
 36
0.0
 17
0.0
 27
1.0
 37
0.0
 76
     0
330
1B
  0
LAYOUT
  5
26
102
{ACAD_XDICTIONARY
360
BAD
102
}
102
{ACAD_REACTORS
330
1A
102
}
330
1A
100
AcDbPlotSettings
  1

  2
none_device
  4

  6

 40
0.0
 41
0.0
 42
0.0
 43
0.0
 44
0.0
 45
0.0
 46
0.0
 47
0.0
 48
0.0
 49
0.0
140
0.0
141
0.0
142
1.0
143
1.0
 70
   688
 72
     0
 73
     0
 74
     5
  7

 75
    16
147
1.0
148
0.0
149
0.0
100
AcDbLayout
  1
Layout2
 70
     1
 71
     2
 10
0.0
 20
0.0
 11
0.0
 21
0.0
 12
0.0
 22
0.0
 32
0.0
 14
0.0
 24
0.0
 34
0.0
 15
0.0
 25
0.0
 35
0.0
146
0.0
 13
0.0
 23
0.0
 33
0.0
 16
1.0
 26
0.0
 36
0.0
 17
0.0
 27
1.0
 37
0.0
 76
     0
330
23
  0
LAYOUT
  5
22
102
{ACAD_XDICTIONARY
360
BAB
102
}
102
{ACAD_REACTORS
330
1A
102
}
330
1A
100
AcDbPlotSettings
  1

  2
none_device
  4

  6

 40
0.0
 41
0.0
 42
0.0
 43
0.0
 44
0.0
 45
0.0
 46
0.0
 47
0.0
 48
0.0
 49
0.0
140
0.0
141
0.0
142
1.0
143
1.0
 70
  1712
 72
     0
 73
     0
 74
     0
  7

 75
     0
147
1.0
148
0.0
149
0.0
100
AcDbLayout
  1
Model
 70
     1
 71
     0
 10
0.0
 20
0.0
 11
0.0
 21
0.0
 12
0.0
 22
0.0
 32
0.0
 14
0.0
 24
0.0
 34
0.0
 15
420.0
 25
297.0
 35
0.0
146
0.0
 13
0.0
 23
0.0
 33
0.0
 16
1.0
 26
0.0
 36
0.0
 17
0.0
 27
1.0
 37
0.0
 76
     0
330
1F
  0
MLINESTYLE
  5
18
102
{ACAD_REACTORS
330
17
102
}
330
17
100
AcDbMlineStyle
  2
STANDARD
 70
     0
  3

 62
   256
 51
90.0
 52
90.0
 71
     2
 49
0.5
 62
   256
  6
BYLAYER
 49
-0.5
 62
   256
  6
BYLAYER
  0
ACDBPLACEHOLDER
  5
F
102
{ACAD_REACTORS
330
E
102
}
330
E
  0
XRECORD
  5
BA8
102
{ACAD_REACTORS
330
BA6
102
}
330
BA6
100
AcDbXrecord
280
     1
340
334
  0
XRECORD
  5
BA7
102
{ACAD_REACTORS
330
BA6
102
}
330
BA6
100
AcDbXrecord
280
     1
340
333
  0
DICTIONARYVAR
  5
35C
102
{ACAD_REACTORS
330
35B
102
}
330
35B
100
DictionaryVariables
280
     0
  1
1
  0
DICTIONARYVAR
  5
35D
102
{ACAD_REACTORS
330
35B
102
}
330
35B
100
DictionaryVariables
280
     0
  1

  0
DICTIONARY
  5
BA9
330
1E
100
AcDbDictionary
280
     1
281
     1
  3
ACAD_XREC_ROUNDTRIP
360
BAA
  0
DICTIONARY
  5
BAD
330
26
100
AcDbDictionary
280
     1
281
     1
  3
ACAD_XREC_ROUNDTRIP
360
BAE
  0
DICTIONARY
  5
BAB
330
22
100
AcDbDictionary
280
     1
281
     1
  3
ACAD_XREC_ROUNDTRIP
360
BAC
  0
XRECORD
  5
BAA
102
{ACAD_REACTORS
330
BA9
102
}
330
BA9
100
AcDbXrecord
280
     1
102
SHADEPLOT
 70
     0
102
SHADEPLOTRESLEVEL
 70
     2
102
SHADEPLOTCUSTOMDPI
 70
   300
  0
XRECORD
  5
BAE
102
{ACAD_REACTORS
330
BAD
102
}
330
BAD
100
AcDbXrecord
280
     1
102
SHADEPLOT
 70
     0
102
SHADEPLOTRESLEVEL
 70
     2
102
SHADEPLOTCUSTOMDPI
 70
   300
  0
XRECORD
  5
BAC
102
{ACAD_REACTORS
330
BAB
102
}
330
BAB
100
AcDbXrecord
280
     1
102
SHADEPLOT
 70
     0
102
SHADEPLOTRESLEVEL
 70
     2
102
SHADEPLOTCUSTOMDPI
 70
   300
  0
ENDSEC
  0
EOF
