  0
SECTION
  2
HEADER
  9
$ACADVER
  1
AC1021
  9
$ACADMAINTVER
 70
    25
  9
$DWGCODEPAGE
  3
ANSI_1257
  9
$LASTSAVEDBY
  1
mariusbitinas
  9
$INSBASE
 10
0.0
 20
0.0
 30
0.0
  9
$EXTMIN
 10
-603.087011472
 20
-406.9943875769
 30
0.0
  9
$EXTMAX
 10
478.5650999042464
 20
560.0650851766
 30
0.0
  9
$LIMMIN
 10
0.0
 20
0.0
  9
$LIMMAX
 10
420.0
 20
297.0
  9
$ORTHOMODE
 70
     0
  9
$REGENMODE
 70
     1
  9
$FILLMODE
 70
     1
  9
$QTEXTMODE
 70
     0
  9
$MIRRTEXT
 70
     1
  9
$LTSCALE
 40
1.0
  9
$ATTMODE
 70
     1
  9
$TEXTSIZE
 40
5.6444444444
  9
$TRACEWID
 40
1.0
  9
$TEXTSTYLE
  7
Standard
  9
$CLAYER
  8
0
  9
$CELTYPE
  6
ByLayer
  9
$CECOLOR
 62
   256
  9
$CELTSCALE
 40
1.0
  9
$DISPSILH
 70
     0
  9
$DIMSCALE
 40
1.0
  9
$DIMASZ
 40
3.175
  9
$DIMEXO
 40
1.0
  9
$DIMDLI
 40
3.75
  9
$DIMRND
 40
0.0
  9
$DIMDLE
 40
0.0
  9
$DIMEXE
 40
1.0
  9
$DIMTP
 40
0.0
  9
$DIMTM
 40
0.0
  9
$DIMTXT
 40
4.9388888889
  9
$DIMCEN
 40
2.5
  9
$DIMTSZ
 40
0.0
  9
$DIMTOL
 70
     0
  9
$DIMLIM
 70
     0
  9
$DIMTIH
 70
     1
  9
$DIMTOH
 70
     1
  9
$DIMSE1
 70
     0
  9
$DIMSE2
 70
     0
  9
$DIMTAD
 70
     1
  9
$DIMZIN
 70
     0
  9
$DIMBLK
  1

  9
$DIMASO
 70
     1
  9
$DIMSHO
 70
     1
  9
$DIMPOST
  1

  9
$DIMAPOST
  1

  9
$DIMALT
 70
     0
  9
$DIMALTD
 70
     3
  9
$DIMALTF
 40
0.0393700787
  9
$DIMLFAC
 40
1.0
  9
$DIMTOFL
 70
     1
  9
$DIMTVP
 40
0.0
  9
$DIMTIX
 70
     0
  9
$DIMSOXD
 70
     0
  9
$DIMSAH
 70
     0
  9
$DIMBLK1
  1

  9
$DIMBLK2
  1

  9
$DIMSTYLE
  2
ISO-25
  9
$DIMCLRD
 70
     0
  9
$DIMCLRE
 70
     0
  9
$DIMCLRT
 70
     0
  9
$DIMTFAC
 40
1.0
  9
$DIMGAP
 40
1.524
  9
$DIMJUST
 70
     0
  9
$DIMSD1
 70
     0
  9
$DIMSD2
 70
     0
  9
$DIMTOLJ
 70
     0
  9
$DIMTZIN
 70
     0
  9
$DIMALTZ
 70
     0
  9
$DIMALTTZ
 70
     0
  9
$DIMUPT
 70
     0
  9
$DIMDEC
 70
     1
  9
$DIMTDEC
 70
     1
  9
$DIMALTU
 70
     2
  9
$DIMALTTD
 70
     3
  9
$DIMTXSTY
  7
Standard
  9
$DIMAUNIT
 70
     0
  9
$DIMADEC
 70
     1
  9
$DIMALTRND
 40
0.0
  9
$DIMAZIN
 70
     0
  9
$DIMDSEP
 70
    44
  9
$DIMATFIT
 70
     3
  9
$DIMFRAC
 70
     0
  9
$DIMLDRBLK
  1

  9
$DIMLUNIT
 70
     2
  9
$DIMLWD
 70
    -2
  9
$DIMLWE
 70
    -2
  9
$DIMTMOVE
 70
     0
  9
$DIMFXL
 40
1.0
  9
$DIMFXLON
 70
     0
  9
$DIMJOGANG
 40
0.7853981633974483
  9
$DIMTFILL
 70
     0
  9
$DIMTFILLCLR
 70
     0
  9
$DIMARCSYM
 70
     0
  9
$DIMLTYPE
  6

  9
$DIMLTEX1
  6

  9
$DIMLTEX2
  6

  9
$LUNITS
 70
     2
  9
$LUPREC
 70
     1
  9
$SKETCHINC
 40
1.0
  9
$FILLETRAD
 40
10.0
  9
$AUNITS
 70
     0
  9
$AUPREC
 70
     1
  9
$MENU
  1
.
  9
$ELEVATION
 40
0.0
  9
$PELEVATION
 40
0.0
  9
$THICKNESS
 40
0.0
  9
$LIMCHECK
 70
     0
  9
$CHAMFERA
 40
0.0
  9
$CHAMFERB
 40
0.0
  9
$CHAMFERC
 40
0.0
  9
$CHAMFERD
 40
0.0
  9
$SKPOLY
 70
     0
  9
$TDCREATE
 40
2459180.39416456
  9
$TDUCREATE
 40
2459180.310831227
  9
$TDUPDATE
 40
2459180.39550257
  9
$TDUUPDATE
 40
2459180.312169236
  9
$TDINDWG
 40
0.0005139583
  9
$TDUSRTIMER
 40
0.0005139468
  9
$USRTIMER
 70
     1
  9
$ANGBASE
 50
0.0
  9
$ANGDIR
 70
     0
  9
$PDMODE
 70
     0
  9
$PDSIZE
 40
-1.0
  9
$PLINEWID
 40
0.0
  9
$SPLFRAME
 70
     0
  9
$SPLINETYPE
 70
     6
  9
$SPLINESEGS
 70
     8
  9
$HANDSEED
  5
1EC
  9
$SURFTAB1
 70
     6
  9
$SURFTAB2
 70
     6
  9
$SURFTYPE
 70
     6
  9
$SURFU
 70
     6
  9
$SURFV
 70
     6
  9
$UCSBASE
  2

  9
$UCSNAME
  2

  9
$UCSORG
 10
0.0
 20
0.0
 30
0.0
  9
$UCSXDIR
 10
1.0
 20
0.0
 30
0.0
  9
$UCSYDIR
 10
0.0
 20
1.0
 30
0.0
  9
$UCSORTHOREF
  2

  9
$UCSORTHOVIEW
 70
     0
  9
$UCSORGTOP
 10
0.0
 20
0.0
 30
0.0
  9
$UCSORGBOTTOM
 10
0.0
 20
0.0
 30
0.0
  9
$UCSORGLEFT
 10
0.0
 20
0.0
 30
0.0
  9
$UCSORGRIGHT
 10
0.0
 20
0.0
 30
0.0
  9
$UCSORGFRONT
 10
0.0
 20
0.0
 30
0.0
  9
$UCSORGBACK
 10
0.0
 20
0.0
 30
0.0
  9
$PUCSBASE
  2

  9
$PUCSNAME
  2

  9
$PUCSORG
 10
0.0
 20
0.0
 30
0.0
  9
$PUCSXDIR
 10
1.0
 20
0.0
 30
0.0
  9
$PUCSYDIR
 10
0.0
 20
1.0
 30
0.0
  9
$PUCSORTHOREF
  2

  9
$PUCSORTHOVIEW
 70
     0
  9
$PUCSORGTOP
 10
0.0
 20
0.0
 30
0.0
  9
$PUCSORGBOTTOM
 10
0.0
 20
0.0
 30
0.0
  9
$PUCSORGLEFT
 10
0.0
 20
0.0
 30
0.0
  9
$PUCSORGRIGHT
 10
0.0
 20
0.0
 30
0.0
  9
$PUCSORGFRONT
 10
0.0
 20
0.0
 30
0.0
  9
$PUCSORGBACK
 10
0.0
 20
0.0
 30
0.0
  9
$USERI1
 70
     0
  9
$USERI2
 70
     0
  9
$USERI3
 70
     0
  9
$USERI4
 70
     0
  9
$USERI5
 70
     0
  9
$USERR1
 40
0.0
  9
$USERR2
 40
0.0
  9
$USERR3
 40
0.0
  9
$USERR4
 40
0.0
  9
$USERR5
 40
0.0
  9
$WORLDVIEW
 70
     1
  9
$SHADEDGE
 70
     3
  9
$SHADEDIF
 70
    70
  9
$TILEMODE
 70
     1
  9
$MAXACTVP
 70
    64
  9
$PINSBASE
 10
0.0
 20
0.0
 30
0.0
  9
$PLIMCHECK
 70
     0
  9
$PEXTMIN
 10
1.000000000000000E+20
 20
1.000000000000000E+20
 30
1.000000000000000E+20
  9
$PEXTMAX
 10
-1.000000000000000E+20
 20
-1.000000000000000E+20
 30
-1.000000000000000E+20
  9
$PLIMMIN
 10
0.0
 20
0.0
  9
$PLIMMAX
 10
0.0
 20
0.0
  9
$UNITMODE
 70
     0
  9
$VISRETAIN
 70
     1
  9
$PLINEGEN
 70
     0
  9
$PSLTSCALE
 70
     1
  9
$TREEDEPTH
 70
  3020
  9
$CMLSTYLE
  2
Standard
  9
$CMLJUST
 70
     0
  9
$CMLSCALE
 40
20.0
  9
$PROXYGRAPHICS
 70
     1
  9
$MEASUREMENT
 70
     1
  9
$CELWEIGHT
370
    -1
  9
$ENDCAPS
280
     0
  9
$JOINSTYLE
280
     0
  9
$LWDISPLAY
290
     1
  9
$INSUNITS
 70
     4
  9
$HYPERLINKBASE
  1

  9
$STYLESHEET
  1

  9
$XEDIT
290
     1
  9
$CEPSNTYPE
380
     0
  9
$PSTYLEMODE
290
     1
  9
$FINGERPRINTGUID
  2
{d0515dfa-41db-481f-b9d5-8ceb28115759}
  9
$VERSIONGUID
  2
{FAEB1C32-E019-11D5-929B-00C0DF256EC4}
  9
$EXTNAMES
290
     1
  9
$PSVPSCALE
 40
0.0
  9
$OLESTARTUP
290
     0
  9
$SORTENTS
280
   127
  9
$INDEXCTL
280
     0
  9
$HIDETEXT
280
     1
  9
$XCLIPFRAME
290
     0
  9
$HALOGAP
280
     0
  9
$OBSCOLOR
 70
   257
  9
$OBSLTYPE
280
     0
  9
$INTERSECTIONDISPLAY
280
     0
  9
$INTERSECTIONCOLOR
 70
   257
  9
$DIMASSOC
280
     2
  9
$PROJECTNAME
  1

  9
$CAMERADISPLAY
290
     0
  9
$LENSLENGTH
 40
50.0
  9
$CAMERAHEIGHT
 40
0.0
  9
$STEPSPERSEC
 40
2.0
  9
$STEPSIZE
 40
6.0
  9
$3DDWFPREC
 40
2.0
  9
$PSOLWIDTH
 40
0.25
  9
$PSOLHEIGHT
 40
4.0
  9
$LOFTANG1
 40
1.570796326794897
  9
$LOFTANG2
 40
1.570796326794897
  9
$LOFTMAG1
 40
0.0
  9
$LOFTMAG2
 40
0.0
  9
$LOFTPARAM
 70
     7
  9
$LOFTNORMALS
280
     1
  9
$LATITUDE
 40
37.795
  9
$LONGITUDE
 40
-122.394
  9
$NORTHDIRECTION
 40
0.0
  9
$TIMEZONE
 70
 -8000
  9
$LIGHTGLYPHDISPLAY
280
     1
  9
$TILEMODELIGHTSYNCH
280
     1
  9
$SOLIDHIST
280
     0
  9
$SHOWHIST
280
     1
  9
$DWFFRAME
280
     2
  9
$DGNFRAME
280
     2
  9
$REALWORLDSCALE
290
     1
  9
$INTERFERECOLOR
 62
   256
  9
$CSHADOW
280
     0
  9
$SHADOWPLANELOCATION
 40
0.0
  0
ENDSEC
  0
SECTION
  2
CLASSES
  0
CLASS
  1
ACDBDICTIONARYWDFLT
  2
AcDbDictionaryWithDefault
  3
ObjectDBX Classes
 90
        0
 91
        3
280
     0
281
     0
  0
CLASS
  1
VISUALSTYLE
  2
AcDbVisualStyle
  3
ObjectDBX Classes
 90
     4095
 91
        3
280
     0
281
     0
  0
CLASS
  1
MATERIAL
  2
AcDbMaterial
  3
ObjectDBX Classes
 90
     1153
 91
        3
280
     0
281
     0
  0
CLASS
  1
SCALE
  2
AcDbScale
  3
ObjectDBX Classes
 90
     1153
 91
        3
280
     0
281
     0
  0
CLASS
  1
TABLESTYLE
  2
AcDbTableStyle
  3
ObjectDBX Classes
 90
     4095
 91
        3
280
     0
281
     0
  0
CLASS
  1
MLEADERSTYLE
  2
AcDbMLeaderStyle
  3
ACDB_MLEADERSTYLE_CLASS
 90
     4095
 91
        3
280
     0
281
     0
  0
CLASS
  1
SUN
  2
AcDbSun
  3
SCENEOE
 90
     1153
 91
        3
280
     0
281
     0
  0
CLASS
  1
ACDBPLACEHOLDER
  2
AcDbPlaceHolder
  3
ObjectDBX Classes
 90
        0
 91
        1
280
     0
281
     0
  0
CLASS
  1
LAYOUT
  2
AcDbLayout
  3
ObjectDBX Classes
 90
        0
 91
        1
280
     0
281
     0
  0
CLASS
  1
DICTIONARYVAR
  2
AcDbDictionaryVar
  3
ObjectDBX Classes
 90
        0
 91
        3
280
     0
281
     0
  0
CLASS
  1
CELLSTYLEMAP
  2
AcDbCellStyleMap
  3
ObjectDBX Classes
 90
     1152
 91
        3
280
     0
281
     0
  0
ENDSEC
  0
SECTION
  2
TABLES
  0
TABLE
  2
VPORT
  5
8
330
0
100
AcDbSymbolTable
 70
     1
  0
VPORT
  5
29
330
8
100
AcDbSymbolTableRecord
100
AcDbViewportTableRecord
  2
*Active
 70
     0
 10
0.0
 20
0.0
 11
1.0
 21
1.0
 12
-380.5371155585277
 22
26.42487717660475
 13
0.0
 23
0.0
 14
10.0
 24
10.0
 15
10.0
 25
10.0
 16
0.0
 26
0.0
 36
1.0
 17
0.0
 27
0.0
 37
0.0
 40
2212.822437286376
 41
1.644036697247707
 42
50.0
 43
0.0
 44
0.0
 50
0.0
 51
0.0
 71
    16
 72
  2000
 73
     1
 74
     3
 75
     0
 76
     0
 77
     0
 78
     0
281
     0
 65
     1
110
0.0
120
0.0
130
0.0
111
1.0
121
0.0
131
0.0
112
0.0
122
1.0
132
0.0
 79
     0
146
0.0
348
186
 60
     3
 61
     5
292
     1
282
     1
141
0.0
142
0.0
 63
   250
  0
ENDTAB
  0
TABLE
  2
LTYPE
  5
5
330
0
100
AcDbSymbolTable
 70
     7
  0
LTYPE
  5
14
330
5
100
AcDbSymbolTableRecord
100
AcDbLinetypeTableRecord
  2
ByBlock
 70
     0
  3

 72
    65
 73
     0
 40
0.0
  0
LTYPE
  5
15
330
5
100
AcDbSymbolTableRecord
100
AcDbLinetypeTableRecord
  2
ByLayer
 70
     0
  3

 72
    65
 73
     0
 40
0.0
  0
LTYPE
  5
16
330
5
100
AcDbSymbolTableRecord
100
AcDbLinetypeTableRecord
  2
Continuous
 70
     0
  3
Solid line
 72
    65
 73
     0
 40
0.0
  0
LTYPE
  5
6E
330
5
100
AcDbSymbolTableRecord
100
AcDbLinetypeTableRecord
  2
HIDDEN
 70
     0
  3
Hidden __ __ __ __ __ __ __ __ __ __ __ __ __ __
 72
    65
 73
     2
 40
1.905
 49
1.27
 74
     0
 49
-0.635
 74
     0
  0
LTYPE
  5
6F
330
5
100
AcDbSymbolTableRecord
100
AcDbLinetypeTableRecord
  2
PHANTOM
 70
     0
  3
Phantom ______  __  __  ______  __  __  ______
 72
    65
 73
     6
 40
12.7
 49
6.35
 74
     0
 49
-1.27
 74
     0
 49
1.27
 74
     0
 49
-1.27
 74
     0
 49
1.27
 74
     0
 49
-1.27
 74
     0
  0
LTYPE
  5
70
330
5
100
AcDbSymbolTableRecord
100
AcDbLinetypeTableRecord
  2
CENTER
 70
     0
  3
Center ____ _ ____ _ ____ _ ____ _ ____ _ ____
 72
    65
 73
     4
 40
10.16
 49
6.35
 74
     0
 49
-1.27
 74
     0
 49
1.27
 74
     0
 49
-1.27
 74
     0
  0
LTYPE
  5
71
330
5
100
AcDbSymbolTableRecord
100
AcDbLinetypeTableRecord
  2
CENTERX2
 70
     0
  3
Center (2x) ________  __  ________  __  _____
 72
    65
 73
     4
 40
20.32
 49
12.7
 74
     0
 49
-2.54
 74
     0
 49
2.54
 74
     0
 49
-2.54
 74
     0
  0
LTYPE
  5
72
330
5
100
AcDbSymbolTableRecord
100
AcDbLinetypeTableRecord
  2
DOT2
 70
     0
  3
Dot (.5x) ........................................
 72
    65
 73
     2
 40
0.635
 49
0.0
 74
     0
 49
-0.635
 74
     0
  0
LTYPE
  5
1A6
330
5
100
AcDbSymbolTableRecord
100
AcDbLinetypeTableRecord
  2
CENTER2
 70
     0
  3
Center (.5x) ___ _ ___ _ ___ _ ___ _ ___ _ ___
 72
    65
 73
     4
 40
28.575
 49
19.05
 74
     0
 49
-3.174999999999998
 74
     0
 49
3.174999999999998
 74
     0
 49
-3.174999999999998
 74
     0
  0
ENDTAB
  0
TABLE
  2
LAYER
  5
2
102
{ACAD_XDICTIONARY
360
1CD
102
}
330
0
100
AcDbSymbolTable
 70
     3
  0
LAYER
  5
10
330
2
100
AcDbSymbolTableRecord
100
AcDbLayerTableRecord
  2
0
 70
     0
 62
     7
  6
Continuous
370
    -3
390
F
347
19D
  0
LAYER
  5
73
330
2
100
AcDbSymbolTableRecord
100
AcDbLayerTableRecord
  2
LENKIMO
 70
     0
 62
     1
  6
CENTERX2
370
    -3
390
F
347
19D
  0
LAYER
  5
1A4
330
2
100
AcDbSymbolTableRecord
100
AcDbLayerTableRecord
  2
Asine
 70
     0
 62
     1
  6
CENTER2
370
    -3
390
F
347
19D
  0
ENDTAB
  0
TABLE
  2
STYLE
  5
3
330
0
100
AcDbSymbolTable
 70
     2
  0
STYLE
  5
11
330
3
100
AcDbSymbolTableRecord
100
AcDbTextStyleTableRecord
  2
Standard
 70
     0
 40
0.0
 41
1.0
 50
0.0
 71
     0
 42
5.6444444444
  3
txt
  4

  0
STYLE
  5
1B7
330
3
100
AcDbSymbolTableRecord
100
AcDbTextStyleTableRecord
  2
Notes
 70
     0
 40
3.0
 41
1.0
 50
0.0
 71
     0
 42
5.6444444444
  3
ARIAL.TTF
  4

1001
AcadAnnotative
1000
AnnotativeData
1002
{
1070
     1
1070
     1
1002
}
1001
AcadAnnoPO
1070
     1
1001
ACAD
1000
Arial
1071
       34
  0
ENDTAB
  0
TABLE
  2
VIEW
  5
6
330
0
100
AcDbSymbolTable
 70
     0
  0
ENDTAB
  0
TABLE
  2
UCS
  5
7
330
0
100
AcDbSymbolTable
 70
     0
  0
ENDTAB
  0
TABLE
  2
APPID
  5
9
330
0
100
AcDbSymbolTable
 70
     8
  0
APPID
  5
12
330
9
100
AcDbSymbolTableRecord
100
AcDbRegAppTableRecord
  2
ACAD
 70
     0
  0
APPID
  5
1A9
330
9
100
AcDbSymbolTableRecord
100
AcDbRegAppTableRecord
  2
AcadAnnotative
 70
     0
  0
APPID
  5
1AA
330
9
100
AcDbSymbolTableRecord
100
AcDbRegAppTableRecord
  2
ACAD_DSTYLE_DIMJAG
 70
     0
  0
APPID
  5
1AB
330
9
100
AcDbSymbolTableRecord
100
AcDbRegAppTableRecord
  2
ACAD_DSTYLE_DIMBREAK
 70
     0
  0
APPID
  5
1AC
330
9
100
AcDbSymbolTableRecord
100
AcDbRegAppTableRecord
  2
ACAD_DSTYLE_DIMTALN
 70
     0
  0
APPID
  5
1B5
330
9
100
AcDbSymbolTableRecord
100
AcDbRegAppTableRecord
  2
AcadAnnoPO
 70
     0
  0
APPID
  5
1B6
330
9
100
AcDbSymbolTableRecord
100
AcDbRegAppTableRecord
  2
ACAD_PSEXT
 70
     0
  0
APPID
  5
1E5
330
9
100
AcDbSymbolTableRecord
100
AcDbRegAppTableRecord
  2
ACAD_MLEADERVER
 70
     0
  0
ENDTAB
  0
TABLE
  2
DIMSTYLE
  5
A
330
0
100
AcDbSymbolTable
 70
     5
100
AcDbDimStyleTable
  0
DIMSTYLE
105
27
330
A
100
AcDbSymbolTableRecord
100
AcDbDimStyleTableRecord
  2
ISO-25
 70
     0
 41
2.5
 42
0.625
 43
3.75
 44
1.25
 73
     0
 74
     0
 77
     1
 78
     8
140
2.5
141
2.5
143
0.0393700787
147
0.625
171
     3
172
     1
178
     0
271
     2
272
     2
274
     3
278
    44
283
     0
284
     8
340
11
  0
DIMSTYLE
105
1A7
330
A
100
AcDbSymbolTableRecord
100
AcDbDimStyleTableRecord
  2
Annotative
 70
     0
 40
0.0
 41
3.0
 42
2.5
 43
10.0
 44
5.0
140
3.0
141
2.0
147
2.0
178
     0
340
11
1001
AcadAnnotative
1000
AnnotativeData
1002
{
1070
     1
1070
     1
1002
}
1001
ACAD_DSTYLE_DIMJAG
1070
   388
1040
38.0
1001
ACAD_DSTYLE_DIMBREAK
1070
   391
1040
90.0
1001
ACAD_DSTYLE_DIMTALN
1070
   392
1070
     0
  0
DIMSTYLE
105
1AD
330
A
100
AcDbSymbolTableRecord
100
AcDbDimStyleTableRecord
  2
Architectural-Metric
 70
     0
 41
3.0
 42
1.5
 43
6.0
 44
3.0
 46
3.0
 73
     0
 74
     0
 77
     1
 78
     3
 79
     2
140
3.0
141
3.0
147
2.0
178
     0
179
     2
271
     2
272
     2
276
     1
340
11
342
1AE
1001
ACAD_DSTYLE_DIMBREAK
1070
   391
1040
3.0
1001
ACAD_DSTYLE_DIMJAG
1070
   388
1040
38.0
1001
ACAD_DSTYLE_DIMTALN
1070
   392
1070
     0
  0
DIMSTYLE
105
1B3
330
A
100
AcDbSymbolTableRecord
100
AcDbDimStyleTableRecord
  2
STANDARD$3
 70
     0
 40
1.5
 41
2.5
 42
0.0
 43
3.75
 44
1.25
 73
     0
 77
     1
 78
     8
140
5.0
141
2.5
143
0.0394
147
0.625
171
     4
172
     1
178
     0
271
     1
272
     1
273
     8
274
     4
340
11
  0
DIMSTYLE
105
1B4
102
{ACAD_REACTORS
102
}
330
A
100
AcDbSymbolTableRecord
100
AcDbDimStyleTableRecord
  2
ISO-25 m
 70
     0
 40
2.0
 41
2.5
 42
0.0
 43
3.75
 44
1.25
 73
     0
 74
     0
 77
     1
 78
     9
140
2.5
141
2.5
143
0.03937007874016
147
0.625
171
     3
172
     1
178
     0
179
     1
271
     1
272
     1
274
     3
278
    44
283
     0
284
     8
340
11
  0
ENDTAB
  0
TABLE
  2
BLOCK_RECORD
  5
1
330
0
100
AcDbSymbolTable
 70
     3
  0
BLOCK_RECORD
  5
1F
102
{ACAD_XDICTIONARY
360
1DF
102
}
330
1
100
AcDbSymbolTableRecord
100
AcDbBlockTableRecord
  2
*Model_Space
340
22
 70
     0
280
     1
281
     0
  0
BLOCK_RECORD
  5
1B
330
1
100
AcDbSymbolTableRecord
100
AcDbBlockTableRecord
  2
*Paper_Space
340
1E
 70
     0
280
     1
281
     0
  0
BLOCK_RECORD
  5
23
330
1
100
AcDbSymbolTableRecord
100
AcDbBlockTableRecord
  2
*Paper_Space0
340
26
 70
     0
280
     1
281
     0
  0
BLOCK_RECORD
  5
74
330
1
100
AcDbSymbolTableRecord
100
AcDbBlockTableRecord
  2
Block11_2
340
0
 70
     0
280
     1
281
     0
  0
BLOCK_RECORD
  5
1AE
330
1
100
AcDbSymbolTableRecord
100
AcDbBlockTableRecord
  2
_ArchTick
340
0
 70
     0
280
     1
281
     0
  0
ENDTAB
  0
ENDSEC
  0
SECTION
  2
BLOCKS
  0
BLOCK
  5
20
330
1F
100
AcDbEntity
  8
0
100
AcDbBlockBegin
  2
*Model_Space
 70
     0
 10
0.0
 20
0.0
 30
0.0
  3
*Model_Space
  1

  0
ENDBLK
  5
21
330
1F
100
AcDbEntity
  8
0
100
AcDbBlockEnd
  0
BLOCK
  5
1C
330
1B
100
AcDbEntity
 67
     1
  8
0
100
AcDbBlockBegin
  2
*Paper_Space
 70
     0
 10
0.0
 20
0.0
 30
0.0
  3
*Paper_Space
  1

  0
ENDBLK
  5
1D
330
1B
100
AcDbEntity
 67
     1
  8
0
100
AcDbBlockEnd
  0
BLOCK
  5
24
330
23
100
AcDbEntity
  8
0
100
AcDbBlockBegin
  2
*Paper_Space0
 70
     0
 10
0.0
 20
0.0
 30
0.0
  3
*Paper_Space0
  1

  0
ENDBLK
  5
25
330
23
100
AcDbEntity
  8
0
100
AcDbBlockEnd
  0
BLOCK
  5
75
330
74
100
AcDbEntity
  8
0
100
AcDbBlockBegin
  2
Block11_2
 70
     0
 10
0.0
 20
0.0
 30
0.0
  3
Block11_2
  1

  0
LINE
  5
77
330
74
100
AcDbEntity
  8
0
  6
Continuous
100
AcDbLine
 10
-15.7956326374
 20
2.3055746011
 30
0.0
 11
-18.0649288667
 21
1.8146036087
 31
0.0
  0
LINE
  5
78
330
74
100
AcDbEntity
  8
0
  6
Continuous
100
AcDbLine
 10
-15.6988785554
 20
-9.1195335787
 30
0.0
 11
-10.2261014967
 21
-7.9354771524
 31
0.0
  0
LINE
  5
79
330
74
100
AcDbEntity
  8
0
  6
Continuous
100
AcDbLine
 10
-10.2261014967
 20
-7.9354771524
 30
0.0
 11
-10.6655808869
 21
-5.9041780766
 31
0.0
  0
LINE
  5
7A
330
74
100
AcDbEntity
  8
0
  6
Continuous
100
AcDbLine
 10
-10.6655808869
 20
-5.9041780766
 30
0.0
 11
-13.8699456036
 21
-6.5974547429
 31
0.0
  0
LINE
  5
7B
330
74
100
AcDbEntity
  8
0
  6
Continuous
100
AcDbLine
 10
-8.296070931
 20
1.802048972
 30
0.0
 11
-6.9198111955
 21
2.0998080743
 31
0.0
  0
LINE
  5
7C
330
74
100
AcDbEntity
  8
0
  6
Continuous
100
AcDbLine
 10
-5.4333831358
 20
-4.7719736412
 30
0.0
 11
-6.8095376466
 21
-5.0697099777
 31
0.0
  0
LINE
  5
7D
330
74
100
AcDbEntity
  8
0
  6
Continuous
100
AcDbLine
 10
-11.0044904538
 20
3.3421566929
 30
0.0
 11
-8.6388294738
 21
-7.5920647278
 31
0.0
  0
LINE
  5
7E
330
74
100
AcDbEntity
  8
0
  6
Continuous
100
AcDbLine
 10
-8.6388294738
 20
-7.5920647278
 30
0.0
 11
-8.6384401425
 21
-7.5919804944
 31
0.0
  0
LINE
  5
7F
330
74
100
AcDbEntity
  8
0
  6
Continuous
100
AcDbLine
 10
-8.6384401425
 20
-7.5919804944
 30
0.0
 11
-4.4940245505
 21
-6.6953201952
 31
0.0
  0
LINE
  5
80
330
74
100
AcDbEntity
  8
0
  6
Continuous
100
AcDbLine
 10
-6.8595855671
 20
4.238922853
 30
0.0
 11
-11.0044904538
 21
3.3421566929
 31
0.0
  0
LINE
  5
81
330
74
100
AcDbEntity
  8
0
  6
Continuous
100
AcDbLine
 10
-32.9933593229
 20
-3.3005605139
 30
0.0
 11
-32.8591663041
 21
-3.2715273367
 31
0.0
  0
LINE
  5
82
330
74
100
AcDbEntity
  8
0
  6
Continuous
100
AcDbLine
 10
-31.5697721187
 20
-3.9678201523
 30
0.0
 11
-29.2969561243
 21
-3.4760876451
 31
0.0
  0
LINE
  5
83
330
74
100
AcDbEntity
  8
0
  6
Continuous
100
AcDbLine
 10
-33.2794920496
 20
-1.2667721217
 30
0.0
 11
-33.3448839193
 21
-1.2809199049
 31
0.0
  0
LINE
  5
84
330
74
100
AcDbEntity
  8
0
  6
Continuous
100
AcDbLine
 10
-31.3289079349
 20
-10.5856399919
 30
0.0
 11
-31.4650581325
 21
-10.6150966123
 31
0.0
  0
LINE
  5
85
330
74
100
AcDbEntity
  8
0
  6
Continuous
100
AcDbLine
 10
-32.8822392925
 20
-9.9377601564
 30
0.0
 11
-35.1888692339
 21
-10.4368084414
 31
0.0
  0
LINE
  5
86
330
74
100
AcDbEntity
  8
0
  6
Continuous
100
AcDbLine
 10
-31.5949683304
 20
-12.7295787952
 30
0.0
 11
-30.2063920476
 21
-12.4291549603
 31
0.0
  0
LINE
  5
87
330
74
100
AcDbEntity
  8
0
  6
Continuous
100
AcDbLine
 10
6.262509235
 20
-4.3681026205
 30
0.0
 11
8.6370616994
 21
-3.8543590356
 31
0.0
  0
LINE
  5
88
330
74
100
AcDbEntity
  8
0
  6
Continuous
100
AcDbLine
 10
8.6370616994
 20
-3.8543590356
 30
0.0
 11
3.9059396663
 21
6.5680857621
 31
0.0
  0
LINE
  5
89
330
74
100
AcDbEntity
  8
0
  6
Continuous
100
AcDbLine
 10
3.9059396663
 20
6.5680857621
 30
0.0
 11
0.0
 21
5.7230206493
 31
0.0
  0
LINE
  5
8A
330
74
100
AcDbEntity
  8
0
  6
Continuous
100
AcDbLine
 10
0.0
 20
5.7230206493
 30
0.0
 11
0.0
 21
-5.7230206493
 31
0.0
  0
LINE
  5
8B
330
74
100
AcDbEntity
  8
0
  6
Continuous
100
AcDbLine
 10
0.0
 20
-5.7230206493
 30
0.0
 11
2.3746576891
 21
-5.2092542987
 31
0.0
  0
LINE
  5
8C
330
74
100
AcDbEntity
  8
0
  6
Continuous
100
AcDbLine
 10
2.3746576891
 20
-5.2092542987
 30
0.0
 11
2.3747844598
 21
-3.0912381741
 31
0.0
  0
LINE
  5
8D
330
74
100
AcDbEntity
  8
0
  6
Continuous
100
AcDbLine
 10
2.3747844598
 20
-3.0912381741
 30
0.0
 11
4.0318309599
 21
-2.7327297722
 31
0.0
  0
LINE
  5
8E
330
74
100
AcDbEntity
  8
0
  6
Continuous
100
AcDbLine
 10
4.0318309599
 20
-2.7327297722
 30
0.0
 11
3.5923515697
 21
-0.7014306964
 31
0.0
  0
LINE
  5
8F
330
74
100
AcDbEntity
  8
0
  6
Continuous
100
AcDbLine
 10
3.5923515697
 20
-0.7014306964
 30
0.0
 11
2.3750284336
 21
-0.9648032524
 31
0.0
  0
LINE
  5
90
330
74
100
AcDbEntity
  8
0
  6
Continuous
100
AcDbLine
 10
2.3750284336
 20
-0.9648032524
 30
0.0
 11
2.3752084601
 21
4.1936873712
 31
0.0
  0
LINE
  5
91
330
74
100
AcDbEntity
  8
0
  6
Continuous
100
AcDbLine
 10
2.3752084601
 20
4.1936873712
 30
0.0
 11
6.262509235
 21
-4.3681026205
 31
0.0
  0
LINE
  5
92
330
74
100
AcDbEntity
  8
0
  6
Continuous
100
AcDbLine
 10
-53.0629352118
 20
-11.4801779454
 30
0.0
 11
-50.7945341276
 21
-8.0228043203
 31
0.0
  0
LINE
  5
93
330
74
100
AcDbEntity
  8
0
  6
Continuous
100
AcDbLine
 10
-50.7945341276
 20
-8.0228043203
 30
0.0
 11
-54.2891069366
 21
-5.8122833411
 31
0.0
  0
LINE
  5
94
330
74
100
AcDbEntity
  8
0
  6
Continuous
100
AcDbLine
 10
-54.2891069366
 20
-5.8122833411
 30
0.0
 11
-51.4073820962
 21
-5.1888110564
 31
0.0
  0
LINE
  5
95
330
74
100
AcDbEntity
  8
0
  6
Continuous
100
AcDbLine
 10
-51.4073820962
 20
-5.1888110564
 30
0.0
 11
-47.9127327975
 21
-7.3992273667
 31
0.0
  0
LINE
  5
96
330
74
100
AcDbEntity
  8
0
  6
Continuous
100
AcDbLine
 10
-47.9127327975
 20
-7.3992273667
 30
0.0
 11
-50.1813587974
 21
-10.8569360435
 31
0.0
  0
LINE
  5
97
330
74
100
AcDbEntity
  8
0
  6
Continuous
100
AcDbLine
 10
-50.1813587974
 20
-10.8569360435
 30
0.0
 11
-53.0628942334
 21
-11.4803673498
 31
0.0
  0
LINE
  5
98
330
74
100
AcDbEntity
  8
0
  6
Continuous
100
AcDbLine
 10
-53.0628942334
 20
-11.4803673498
 30
0.0
 11
-53.0629352118
 21
-11.4801779454
 31
0.0
  0
LINE
  5
99
330
74
100
AcDbEntity
  8
0
  6
Continuous
100
AcDbLine
 10
-42.7624916815
 20
-3.31845567
 30
0.0
 11
-45.0307950789
 21
-6.7757971452
 31
0.0
  0
LINE
  5
9A
330
74
100
AcDbEntity
  8
0
  6
Continuous
100
AcDbLine
 10
-45.0307950789
 20
-6.7757971452
 30
0.0
 11
-48.5254573289
 21
-4.5652955168
 31
0.0
  0
LINE
  5
9B
330
74
100
AcDbEntity
  8
0
  6
Continuous
100
AcDbLine
 10
-48.5254573289
 20
-4.5652955168
 30
0.0
 11
-48.5257466967
 21
-4.5653581227
 31
0.0
  0
LINE
  5
9C
330
74
100
AcDbEntity
  8
0
  6
Continuous
100
AcDbLine
 10
-48.5257466967
 20
-4.5653581227
 30
0.0
 11
-47.9126146215
 21
-7.399289919
 31
0.0
  0
LINE
  5
9D
330
74
100
AcDbEntity
  8
0
  6
Continuous
100
AcDbLine
 10
-47.9126146215
 20
-7.399289919
 30
0.0
 11
-44.4177372167
 21
-9.6098441329
 31
0.0
  0
LINE
  5
9E
330
74
100
AcDbEntity
  8
0
  6
Continuous
100
AcDbLine
 10
-44.4177372167
 20
-9.6098441329
 30
0.0
 11
-42.1490649772
 21
-6.1523237222
 31
0.0
  0
LINE
  5
9F
330
74
100
AcDbEntity
  8
0
  6
Continuous
100
AcDbLine
 10
-42.1490649772
 20
-6.1523237222
 30
0.0
 11
-42.7621970524
 21
-3.3183919259
 31
0.0
  0
LINE
  5
A0
330
74
100
AcDbEntity
  8
0
  6
Continuous
100
AcDbLine
 10
-42.7621970524
 20
-3.3183919259
 30
0.0
 11
-42.7624916815
 21
-3.31845567
 31
0.0
  0
LINE
  5
A1
330
74
100
AcDbEntity
  8
0
  6
Continuous
100
AcDbLine
 10
-41.535889647
 20
-8.9864554454
 30
0.0
 11
-43.8045413973
 21
-12.4440705583
 31
0.0
  0
LINE
  5
A2
330
74
100
AcDbEntity
  8
0
  6
Continuous
100
AcDbLine
 10
-43.8045413973
 20
-12.4440705583
 30
0.0
 11
-40.3564529382
 21
-14.625159785
 31
0.0
  0
LINE
  5
A3
330
74
100
AcDbEntity
  8
0
  6
Continuous
100
AcDbLine
 10
-40.3564529382
 20
-14.625159785
 30
0.0
 11
-43.2382724808
 21
-15.2486525588
 31
0.0
  0
LINE
  5
A4
330
74
100
AcDbEntity
  8
0
  6
Continuous
100
AcDbLine
 10
-43.2382724808
 20
-15.2486525588
 30
0.0
 11
-46.686243472
 21
-13.0676480676
 31
0.0
  0
LINE
  5
A5
330
74
100
AcDbEntity
  8
0
  6
Continuous
100
AcDbLine
 10
-46.686243472
 20
-13.0676480676
 30
0.0
 11
-44.4177144509
 21
-9.6099493576
 31
0.0
  0
LINE
  5
A6
330
74
100
AcDbEntity
  8
0
  6
Continuous
100
AcDbLine
 10
-44.4177144509
 20
-9.6099493576
 30
0.0
 11
-41.535889647
 21
-8.9864554454
 31
0.0
  0
LINE
  5
A7
330
74
100
AcDbEntity
  8
0
  6
Continuous
100
AcDbLine
 10
-51.8063383656
 20
-17.1023866618
 30
0.0
 11
-49.5681857438
 21
-13.6910572443
 31
0.0
  0
LINE
  5
A8
330
74
100
AcDbEntity
  8
0
  6
Continuous
100
AcDbLine
 10
-49.5681857438
 20
-13.6910572443
 30
0.0
 11
-46.1199973213
 21
-15.8721248435
 31
0.0
  0
LINE
  5
A9
330
74
100
AcDbEntity
  8
0
  6
Continuous
100
AcDbLine
 10
-46.1199973213
 20
-15.8721248435
 30
0.0
 11
-46.0813956519
 21
-15.8637732234
 31
0.0
  0
LINE
  5
AA
330
74
100
AcDbEntity
  8
0
  6
Continuous
100
AcDbLine
 10
-46.0813956519
 20
-15.8637732234
 30
0.0
 11
-46.6863662012
 21
-13.0675644704
 31
0.0
  0
LINE
  5
AB
330
74
100
AcDbEntity
  8
0
  6
Continuous
100
AcDbLine
 10
-46.6863662012
 20
-13.0675644704
 30
0.0
 11
-50.1813587974
 21
-10.8569360435
 31
0.0
  0
LINE
  5
AC
330
74
100
AcDbEntity
  8
0
  6
Continuous
100
AcDbLine
 10
-50.1813587974
 20
-10.8569360435
 30
0.0
 11
-52.4497621582
 21
-14.3142991462
 31
0.0
  0
LINE
  5
AD
330
74
100
AcDbEntity
  8
0
  6
Continuous
100
AcDbLine
 10
-52.4497621582
 20
-14.3142991462
 30
0.0
 11
-51.8447506306
 21
-17.1106973035
 31
0.0
  0
LINE
  5
AE
330
74
100
AcDbEntity
  8
0
  6
Continuous
100
AcDbLine
 10
-51.8447506306
 20
-17.1106973035
 30
0.0
 11
-51.8063383656
 21
-17.1023866618
 31
0.0
  0
LINE
  5
AF
330
74
100
AcDbEntity
  8
0
  6
Continuous
100
AcDbLine
 10
-20.0432683672
 20
-10.0594590717
 30
0.0
 11
-17.6687053803
 21
-9.5457132103
 31
0.0
  0
LINE
  5
B0
330
74
100
AcDbEntity
  8
0
  6
Continuous
100
AcDbLine
 10
-17.6687053803
 20
-9.5457132103
 30
0.0
 11
-22.3998379359
 21
0.8767293109
 31
0.0
  0
LINE
  5
B1
330
74
100
AcDbEntity
  8
0
  6
Continuous
100
AcDbLine
 10
-22.3998379359
 20
0.8767293109
 30
0.0
 11
-26.3058670432
 21
0.0316448472
 31
0.0
  0
LINE
  5
B2
330
74
100
AcDbEntity
  8
0
  6
Continuous
100
AcDbLine
 10
-26.3058670432
 20
0.0316448472
 30
0.0
 11
-26.3056723775
 21
-11.4143543348
 31
0.0
  0
LINE
  5
B3
330
74
100
AcDbEntity
  8
0
  6
Continuous
100
AcDbLine
 10
-26.3056723775
 20
-11.4143543348
 30
0.0
 11
-23.9311146519
 21
-10.9006096116
 31
0.0
  0
LINE
  5
B4
330
74
100
AcDbEntity
  8
0
  6
Continuous
100
AcDbLine
 10
-23.9311146519
 20
-10.9006096116
 30
0.0
 11
-23.9309931424
 21
-8.7825946253
 31
0.0
  0
LINE
  5
B5
330
74
100
AcDbEntity
  8
0
  6
Continuous
100
AcDbLine
 10
-23.9309931424
 20
-8.7825946253
 30
0.0
 11
-22.2738308951
 21
-8.4240611811
 31
0.0
  0
LINE
  5
B6
330
74
100
AcDbEntity
  8
0
  6
Continuous
100
AcDbLine
 10
-22.2738308951
 20
-8.4240611811
 30
0.0
 11
-22.7133102854
 21
-6.3927621053
 31
0.0
  0
LINE
  5
B7
330
74
100
AcDbEntity
  8
0
  6
Continuous
100
AcDbLine
 10
-22.7133102854
 20
-6.3927621053
 30
0.0
 11
-23.9308333483
 21
-6.6561779162
 31
0.0
  0
LINE
  5
B8
330
74
100
AcDbEntity
  8
0
  6
Continuous
100
AcDbLine
 10
-23.9308333483
 20
-6.6561779162
 30
0.0
 11
-23.9305586196
 21
-1.4976668035
 31
0.0
  0
LINE
  5
B9
330
74
100
AcDbEntity
  8
0
  6
Continuous
100
AcDbLine
 10
-23.9305586196
 20
-1.4976668035
 30
0.0
 11
-20.0432683672
 21
-10.0594590717
 31
0.0
  0
SPLINE
  5
BA
330
74
100
AcDbEntity
  8
0
100
AcDbSpline
210
0.0
220
0.0
230
1.0
 70
     8
 71
     3
 72
     8
 73
     4
 74
     0
 42
0.000000001
 43
0.00000001
 40
0.0
 40
0.0
 40
0.0
 40
0.0
 40
1.0
 40
1.0
 40
1.0
 40
1.0
 10
-13.86994560355125
 20
-6.597454742918429
 30
0.0
 10
-13.88373254946556
 20
-6.53373068413859
 30
0.0
 10
-15.11365515797402
 20
-0.8489574873494021
 30
0.0
 10
-15.79563263740206
 20
2.305574601061459
 30
0.0
  0
SPLINE
  5
BB
330
74
100
AcDbEntity
  8
0
100
AcDbSpline
210
0.0
220
0.0
230
1.0
 70
     8
 71
     3
 72
     8
 73
     4
 74
     0
 42
0.000000001
 43
0.00000001
 40
2.0
 40
2.0
 40
2.0
 40
2.0
 40
3.0
 40
3.0
 40
3.0
 40
3.0
 10
-18.06492886668426
 20
1.814603608696524
 30
0.0
 10
-17.24003965005502
 20
-1.995739949107536
 30
0.0
 10
-15.71186186991051
 20
-9.059523950669432
 30
0.0
 10
-15.69887855542093
 20
-9.119533578677906
 30
0.0
  0
SPLINE
  5
BC
330
74
100
AcDbEntity
  8
0
100
AcDbSpline
210
0.0
220
0.0
230
1.0
 70
     8
 71
     3
 72
     8
 73
     4
 74
     0
 42
0.000000001
 43
0.00000001
 40
0.0
 40
0.0
 40
0.0
 40
0.0
 40
1.0
 40
1.0
 40
1.0
 40
1.0
 10
-6.809537646582547
 20
-5.069709977697404
 30
0.0
 10
-7.284290309572815
 20
-2.875375801708635
 30
0.0
 10
-7.897830097865885
 20
-0.0390758678013329
 30
0.0
 10
-8.296070930952649
 20
1.80204897196991
 30
0.0
  0
SPLINE
  5
BD
330
74
100
AcDbEntity
  8
0
100
AcDbSpline
210
0.0
220
0.0
230
1.0
 70
     8
 71
     3
 72
     8
 73
     4
 74
     0
 42
0.000000001
 43
0.00000001
 40
2.0
 40
2.0
 40
2.0
 40
2.0
 40
3.0
 40
3.0
 40
3.0
 40
3.0
 10
-6.919811195494074
 20
2.099808074263809
 30
0.0
 10
-6.228016878711183
 20
2.249480443098069
 30
0.0
 10
-5.547633595833446
 20
1.815851349115847
 30
0.0
 10
-5.399398884916104
 20
1.130701970100344
 30
0.0
  0
SPLINE
  5
BE
330
74
100
AcDbEntity
  8
0
100
AcDbSpline
210
0.0
220
0.0
230
1.0
 70
     8
 71
     3
 72
     8
 73
     4
 74
     0
 42
0.000000001
 43
0.00000001
 40
3.0
 40
3.0
 40
3.0
 40
3.0
 40
4.0
 40
4.0
 40
4.0
 40
4.0
 10
-5.399398884916104
 20
1.130701970100344
 30
0.0
 10
-5.107009087764085
 20
-0.2207405274728672
 30
0.0
 10
-4.711497421058354
 20
-2.048334586467611
 30
0.0
 10
-4.449160707297047
 20
-3.260870000165379
 30
0.0
  0
SPLINE
  5
BF
330
74
100
AcDbEntity
  8
0
100
AcDbSpline
210
0.0
220
0.0
230
1.0
 70
     8
 71
     3
 72
     8
 73
     4
 74
     0
 42
0.000000001
 43
0.00000001
 40
4.0
 40
4.0
 40
4.0
 40
4.0
 40
5.0
 40
5.0
 40
5.0
 40
5.0
 10
-4.449160707297047
 20
-3.260870000165379
 30
0.0
 10
-4.300905507193207
 20
-3.946114081381999
 30
0.0
 10
-4.741570606399121
 20
-4.622385452066122
 30
0.0
 10
-5.433383135791953
 20
-4.771973641166296
 30
0.0
  0
SPLINE
  5
C0
330
74
100
AcDbEntity
  8
0
100
AcDbSpline
210
0.0
220
0.0
230
1.0
 70
     8
 71
     3
 72
     8
 73
     4
 74
     0
 42
0.000000001
 43
0.00000001
 40
3.0
 40
3.0
 40
3.0
 40
3.0
 40
4.0
 40
4.0
 40
4.0
 40
4.0
 10
-4.494024550545999
 20
-6.695320195210662
 30
0.0
 10
-2.825524345390513
 20
-6.334333740063992
 30
0.0
 10
-1.762658323115034
 20
-4.702068307882374
 30
0.0
 10
-2.120071189640999
 20
-3.049576315093403
 30
0.0
  0
SPLINE
  5
C1
330
74
100
AcDbEntity
  8
0
100
AcDbSpline
210
0.0
220
0.0
230
1.0
 70
     8
 71
     3
 72
     8
 73
     4
 74
     0
 42
0.000000001
 43
0.00000001
 40
4.0
 40
4.0
 40
4.0
 40
4.0
 40
5.0
 40
5.0
 40
5.0
 40
5.0
 10
-2.120071189640999
 20
-3.049576315093403
 30
0.0
 10
-2.485983017556096
 20
-1.358310753073632
 30
0.0
 10
-2.867352798370483
 20
0.4044023583376265
 30
0.0
 10
-3.190995488197396
 20
1.900704823656681
 30
0.0
  0
SPLINE
  5
C2
330
74
100
AcDbEntity
  8
0
100
AcDbSpline
210
0.0
220
0.0
230
1.0
 70
     8
 71
     3
 72
     8
 73
     4
 74
     0
 42
0.000000001
 43
0.00000001
 40
5.0
 40
5.0
 40
5.0
 40
5.0
 40
6.0
 40
6.0
 40
6.0
 40
6.0
 10
-3.190995488197396
 20
1.900704823656681
 30
0.0
 10
-3.54857504695031
 20
3.553458157285876
 30
0.0
 10
-5.190901218780231
 20
4.599949148191988
 30
0.0
 10
-6.859585567104196
 20
4.238922852960538
 30
0.0
  0
SPLINE
  5
C3
330
74
100
AcDbEntity
  8
0
100
AcDbSpline
210
0.0
220
0.0
230
1.0
 70
     8
 71
     3
 72
     8
 73
     4
 74
     0
 42
0.000000001
 43
0.00000001
 40
0.0
 40
0.0
 40
0.0
 40
0.0
 40
1.0
 40
1.0
 40
1.0
 40
1.0
 10
-30.23703582864644
 20
-6.251438951366732
 30
0.0
 10
-30.9104300186728
 20
-6.015603382360459
 30
0.0
 10
-31.40848551125485
 20
-5.893156856121871
 30
0.0
 10
-32.67210357750635
 20
-5.496689523479785
 30
0.0
  0
SPLINE
  5
C4
330
74
100
AcDbEntity
  8
0
100
AcDbSpline
210
0.0
220
0.0
230
1.0
 70
     8
 71
     3
 72
     8
 73
     4
 74
     0
 42
0.000000001
 43
0.00000001
 40
1.0
 40
1.0
 40
1.0
 40
1.0
 40
2.0
 40
2.0
 40
2.0
 40
2.0
 10
-32.67210357750635
 20
-5.496689523479785
 30
0.0
 10
-33.03332194555517
 20
-5.383421617718132
 30
0.0
 10
-33.81210282496122
 20
-5.206692347750555
 30
0.0
 10
-33.94849250952588
 20
-4.576291363356936
 30
0.0
  0
SPLINE
  5
C5
330
74
100
AcDbEntity
  8
0
100
AcDbSpline
210
0.0
220
0.0
230
1.0
 70
     8
 71
     3
 72
     8
 73
     4
 74
     0
 42
0.000000001
 43
0.00000001
 40
2.0
 40
2.0
 40
2.0
 40
2.0
 40
3.0
 40
3.0
 40
3.0
 40
3.0
 10
-33.94849250952588
 20
-4.576291363356936
 30
0.0
 10
-34.11622381965225
 20
-3.801027578894063
 30
0.0
 10
-33.67528356585564
 20
-3.448097454184924
 30
0.0
 10
-32.99335932290604
 20
-3.30056051389548
 30
0.0
  0
SPLINE
  5
C6
330
74
100
AcDbEntity
  8
0
100
AcDbSpline
210
0.0
220
0.0
230
1.0
 70
     8
 71
     3
 72
     8
 73
     4
 74
     0
 42
0.000000001
 43
0.00000001
 40
4.0
 40
4.0
 40
4.0
 40
4.0
 40
5.0
 40
5.0
 40
5.0
 40
5.0
 10
-32.85916630414497
 20
-3.271527336675416
 30
0.0
 10
-32.2786944245911
 20
-3.14594000653005
 30
0.0
 10
-31.77109773641243
 20
-3.328116480283148
 30
0.0
 10
-31.56977211870437
 20
-3.967820152272103
 30
0.0
  0
SPLINE
  5
C7
330
74
100
AcDbEntity
  8
0
100
AcDbSpline
210
0.0
220
0.0
230
1.0
 70
     8
 71
     3
 72
     8
 73
     4
 74
     0
 42
0.000000001
 43
0.00000001
 40
6.0
 40
6.0
 40
6.0
 40
6.0
 40
7.0
 40
7.0
 40
7.0
 40
7.0
 10
-29.29695612428625
 20
-3.476087645143529
 30
0.0
 10
-29.68810071971012
 20
-1.866802583842748
 30
0.0
 10
-30.87776107222441
 20
-0.7599478056671497
 30
0.0
 10
-33.27949204955325
 20
-1.266772121690862
 30
0.0
  0
SPLINE
  5
C8
330
74
100
AcDbEntity
  8
0
100
AcDbSpline
210
0.0
220
0.0
230
1.0
 70
     8
 71
     3
 72
     8
 73
     4
 74
     0
 42
0.000000001
 43
0.00000001
 40
8.0
 40
8.0
 40
8.0
 40
8.0
 40
9.0
 40
9.0
 40
9.0
 40
9.0
 10
-33.34488391931659
 20
-1.280919904944554
 30
0.0
 10
-35.81152992452102
 20
-1.828202838410209
 30
0.0
 10
-36.33378487826545
 20
-3.54465012997844
 30
0.0
 10
-36.09207577942843
 20
-4.962606301827474
 30
0.0
  0
SPLINE
  5
C9
330
74
100
AcDbEntity
  8
0
100
AcDbSpline
210
0.0
220
0.0
230
1.0
 70
     8
 71
     3
 72
     8
 73
     4
 74
     0
 42
0.000000001
 43
0.00000001
 40
9.0
 40
9.0
 40
9.0
 40
9.0
 40
10.0
 40
10.0
 40
10.0
 40
10.0
 10
-36.09207577942843
 20
-4.962606301827474
 30
0.0
 10
-35.83736690020325
 20
-6.457652824126185
 30
0.0
 10
-34.96800490008025
 20
-7.196828812263726
 30
0.0
 10
-33.99931718292642
 20
-7.502708028683521
 30
0.0
  0
SPLINE
  5
CA
330
74
100
AcDbEntity
  8
0
100
AcDbSpline
210
0.0
220
0.0
230
1.0
 70
     8
 71
     3
 72
     8
 73
     4
 74
     0
 42
0.000000001
 43
0.00000001
 40
10.0
 40
10.0
 40
10.0
 40
10.0
 40
11.0
 40
11.0
 40
11.0
 40
11.0
 10
-33.99931718292642
 20
-7.502708028683521
 30
0.0
 10
-33.40907414696034
 20
-7.689011641945549
 30
0.0
 10
-32.48616403135102
 20
-7.975318844696811
 30
0.0
 10
-31.47547483016511
 20
-8.271505052332133
 30
0.0
  0
SPLINE
  5
CB
330
74
100
AcDbEntity
  8
0
100
AcDbSpline
210
0.0
220
0.0
230
1.0
 70
     8
 71
     3
 72
     8
 73
     4
 74
     0
 42
0.000000001
 43
0.00000001
 40
11.0
 40
11.0
 40
11.0
 40
11.0
 40
12.0
 40
12.0
 40
12.0
 40
12.0
 10
-31.47547483016511
 20
-8.271505052332133
 30
0.0
 10
-31.11213516930565
 20
-8.377980375833697
 30
0.0
 10
-30.40258052645035
 20
-8.55729511966404
 30
0.0
 10
-30.28870163819746
 20
-9.336631754491275
 30
0.0
  0
SPLINE
  5
CC
330
74
100
AcDbEntity
  8
0
100
AcDbSpline
210
0.0
220
0.0
230
1.0
 70
     8
 71
     3
 72
     8
 73
     4
 74
     0
 42
0.000000001
 43
0.00000001
 40
12.0
 40
12.0
 40
12.0
 40
12.0
 40
13.0
 40
13.0
 40
13.0
 40
13.0
 10
-30.28870163819746
 20
-9.336631754491275
 30
0.0
 10
-30.1883718252622
 20
-10.02498578462436
 30
0.0
 10
-30.64014408852681
 20
-10.43662327702193
 30
0.0
 10
-31.32890793487913
 20
-10.58563999188937
 30
0.0
  0
SPLINE
  5
CD
330
74
100
AcDbEntity
  8
0
100
AcDbSpline
210
0.0
220
0.0
230
1.0
 70
     8
 71
     3
 72
     8
 73
     4
 74
     0
 42
0.000000001
 43
0.00000001
 40
14.0
 40
14.0
 40
14.0
 40
14.0
 40
15.0
 40
15.0
 40
15.0
 40
15.0
 10
-31.46505813246006
 20
-10.61509661229636
 30
0.0
 10
-32.05208024758041
 20
-10.74210111117219
 30
0.0
 10
-32.71260096537058
 20
-10.55064660173623
 30
0.0
 10
-32.8822392924921
 20
-9.937760156430087
 30
0.0
  0
SPLINE
  5
CE
330
74
100
AcDbEntity
  8
0
100
AcDbSpline
210
0.0
220
0.0
230
1.0
 70
     8
 71
     3
 72
     8
 73
     4
 74
     0
 42
0.000000001
 43
0.00000001
 40
16.0
 40
16.0
 40
16.0
 40
16.0
 40
17.0
 40
17.0
 40
17.0
 40
17.0
 10
-35.1888692338865
 20
-10.43680844141459
 30
0.0
 10
-34.81471685749703
 20
-11.8843133271045
 30
0.0
 10
-33.72975075395794
 20
-12.95131992706823
 30
0.0
 10
-31.59496833044066
 20
-12.72957879515504
 30
0.0
  0
SPLINE
  5
CF
330
74
100
AcDbEntity
  8
0
100
AcDbSpline
210
0.0
220
0.0
230
1.0
 70
     8
 71
     3
 72
     8
 73
     4
 74
     0
 42
0.000000001
 43
0.00000001
 40
18.0
 40
18.0
 40
18.0
 40
18.0
 40
19.0
 40
19.0
 40
19.0
 40
19.0
 10
-30.20639204762402
 20
-12.42915496033268
 30
0.0
 10
-28.36320980349184
 20
-11.79454394754582
 30
0.0
 10
-27.78707037380765
 20
-10.41512978795686
 30
0.0
 10
-27.91988511866083
 20
-9.073464993912006
 30
0.0
  0
SPLINE
  5
D0
330
74
100
AcDbEntity
  8
0
100
AcDbSpline
210
0.0
220
0.0
230
1.0
 70
     8
 71
     3
 72
     8
 73
     4
 74
     0
 42
0.000000001
 43
0.00000001
 40
19.0
 40
19.0
 40
19.0
 40
19.0
 40
20.0
 40
20.0
 40
20.0
 40
20.0
 10
-27.91988511866083
 20
-9.073464993912006
 30
0.0
 10
-28.12563217330358
 20
-6.994152508733083
 30
0.0
 10
-29.51271678483619
 20
-6.50510505043454
 30
0.0
 10
-30.23703582864644
 20
-6.251438951366732
 30
0.0
  0
HATCH
  5
D1
330
74
100
AcDbEntity
  8
0
100
AcDbHatch
 10
0.0
 20
0.0
 30
0.0
210
0.0
220
0.0
230
1.0
  2
SOLID
 70
     1
 71
     0
 91
        1
 92
        0
 93
        7
 72
     1
 10
-53.06293521179145
 20
-11.48017794540906
 11
-53.0628942334185
 21
-11.48036734981106
 72
     1
 10
-53.0628942334185
 20
-11.48036734981106
 11
-50.18135879739363
 21
-10.85693604353014
 72
     1
 10
-50.18135879739363
 20
-10.85693604353014
 11
-47.91273279754322
 21
-7.399227366744369
 72
     1
 10
-47.91273279754322
 20
-7.399227366744369
 11
-51.40738209617635
 21
-5.188811056417426
 72
     1
 10
-51.40738209617635
 20
-5.188811056417426
 11
-54.28910693660305
 21
-5.812283341071309
 72
     1
 10
-54.28910693660305
 20
-5.812283341071309
 11
-50.79453412756107
 21
-8.022804320319173
 72
     1
 10
-50.79453412756107
 20
-8.022804320319173
 11
-53.06293521179145
 21
-11.48017794540906
 97
        0
 75
     0
 76
     1
 98
        1
 10
0.0
 20
0.0
  0
HATCH
  5
D2
330
74
100
AcDbEntity
  8
0
100
AcDbHatch
 10
0.0
 20
0.0
 30
0.0
210
0.0
220
0.0
230
1.0
  2
SOLID
 70
     1
 71
     0
 91
        1
 92
        0
 93
        6
 72
     1
 10
-41.53588964704281
 20
-8.986455445432597
 11
-44.41771445090438
 21
-9.609949357561213
 72
     1
 10
-44.41771445090438
 20
-9.609949357561213
 11
-46.68624347197728
 21
-13.06764806762683
 72
     1
 10
-46.68624347197728
 20
-13.06764806762683
 11
-43.23827248082917
 21
-15.24865255879992
 72
     1
 10
-43.23827248082917
 20
-15.24865255879992
 11
-40.35645293820115
 21
-14.62515978495947
 72
     1
 10
-40.35645293820115
 20
-14.62515978495947
 11
-43.80454139731328
 21
-12.44407055830516
 72
     1
 10
-43.80454139731328
 20
-12.44407055830516
 11
-41.53588964704281
 21
-8.986455445432597
 97
        0
 75
     0
 76
     1
 98
        1
 10
0.0
 20
0.0
  0
HATCH
  5
D3
330
74
100
AcDbEntity
  8
0
100
AcDbHatch
 10
0.0
 20
0.0
 30
0.0
210
0.0
220
0.0
230
1.0
  2
SOLID
 70
     1
 71
     0
 91
        1
 92
        0
 93
       20
 72
     4
 94
        3
 73
     1
 74
     0
 95
        8
 96
        4
 40
18.0
 40
18.0
 40
18.0
 40
18.0
 40
19.0
 40
19.0
 40
19.0
 40
19.0
 10
-30.20639204762402
 20
-12.42915496033267
 42
1.0
 10
-28.36320980349188
 20
-11.79454394754584
 42
1.0
 10
-27.78707037380775
 20
-10.41512978795687
 42
1.0
 10
-27.91988511866085
 20
-9.073464993912015
 42
1.0
 72
     4
 94
        3
 73
     1
 74
     0
 95
        8
 96
        4
 40
19.0
 40
19.0
 40
19.0
 40
19.0
 40
20.0
 40
20.0
 40
20.0
 40
20.0
 10
-27.91988511866085
 20
-9.073464993912015
 42
1.0
 10
-28.1256321733036
 20
-6.994152508733093
 42
1.0
 10
-29.51271678483624
 20
-6.505105050434554
 42
1.0
 10
-30.23703582864647
 20
-6.251438951366739
 42
1.0
 72
     4
 94
        3
 73
     1
 74
     0
 95
        8
 96
        4
 40
0.0
 40
0.0
 40
0.0
 40
0.0
 40
1.0
 40
1.0
 40
1.0
 40
1.0
 10
-30.23703582864647
 20
-6.251438951366739
 42
1.0
 10
-30.91043001867278
 20
-6.015603382360466
 42
1.0
 10
-31.40848551125484
 20
-5.893156856121866
 42
1.0
 10
-32.67210357750633
 20
-5.496689523479784
 42
1.0
 72
     4
 94
        3
 73
     1
 74
     0
 95
        8
 96
        4
 40
1.0
 40
1.0
 40
1.0
 40
1.0
 40
2.0
 40
2.0
 40
2.0
 40
2.0
 10
-32.67210357750633
 20
-5.496689523479784
 42
1.0
 10
-33.03332194555515
 20
-5.383421617718138
 42
1.0
 10
-33.81210282496121
 20
-5.206692347750558
 42
1.0
 10
-33.94849250952591
 20
-4.576291363356954
 42
1.0
 72
     4
 94
        3
 73
     1
 74
     0
 95
        8
 96
        4
 40
2.0
 40
2.0
 40
2.0
 40
2.0
 40
3.0
 40
3.0
 40
3.0
 40
3.0
 10
-33.94849250952591
 20
-4.576291363356954
 42
1.0
 10
-34.11622381965228
 20
-3.801027578894066
 42
1.0
 10
-33.67528356585566
 20
-3.448097454184939
 42
1.0
 10
-32.99335932290605
 20
-3.300560513895483
 42
1.0
 72
     1
 10
-32.99335932290605
 20
-3.300560513895483
 11
-32.85916630414502
 21
-3.271527336675422
 72
     4
 94
        3
 73
     1
 74
     0
 95
        8
 96
        4
 40
4.0
 40
4.0
 40
4.0
 40
4.0
 40
5.0
 40
5.0
 40
5.0
 40
5.0
 10
-32.85916630414502
 20
-3.271527336675422
 42
1.0
 10
-32.27869442459117
 20
-3.145940006530068
 42
1.0
 10
-31.77109773641243
 20
-3.328116480283154
 42
1.0
 10
-31.5697721187044
 20
-3.967820152272114
 42
1.0
 72
     1
 10
-31.5697721187044
 20
-3.967820152272114
 11
-29.29695612428624
 21
-3.476087645143523
 72
     4
 94
        3
 73
     1
 74
     0
 95
        8
 96
        4
 40
6.0
 40
6.0
 40
6.0
 40
6.0
 40
7.0
 40
7.0
 40
7.0
 40
7.0
 10
-29.2969561242863
 20
-3.476087645143538
 42
1.0
 10
-29.6881007197101
 20
-1.866802583842747
 42
1.0
 10
-30.87776107222446
 20
-0.7599478056671519
 42
1.0
 10
-33.27949204955327
 20
-1.266772121690873
 42
1.0
 72
     1
 10
-33.27949204955321
 20
-1.266772121690857
 11
-33.3448839193166
 21
-1.280919904944549
 72
     4
 94
        3
 73
     1
 74
     0
 95
        8
 96
        4
 40
8.0
 40
8.0
 40
8.0
 40
8.0
 40
9.0
 40
9.0
 40
9.0
 40
9.0
 10
-33.34488391931666
 20
-1.280919904944565
 42
1.0
 10
-35.8115299245211
 20
-1.828202838410234
 42
1.0
 10
-36.3337848782655
 20
-3.544650129978449
 42
1.0
 10
-36.09207577942846
 20
-4.962606301827486
 42
1.0
 72
     4
 94
        3
 73
     1
 74
     0
 95
        8
 96
        4
 40
9.0
 40
9.0
 40
9.0
 40
9.0
 40
10.0
 40
10.0
 40
10.0
 40
10.0
 10
-36.09207577942846
 20
-4.962606301827486
 42
1.0
 10
-35.83736690020323
 20
-6.457652824126184
 42
1.0
 10
-34.96800490008029
 20
-7.196828812263736
 42
1.0
 10
-33.99931718292643
 20
-7.502708028683525
 42
1.0
 72
     4
 94
        3
 73
     1
 74
     0
 95
        8
 96
        4
 40
10.0
 40
10.0
 40
10.0
 40
10.0
 40
11.0
 40
11.0
 40
11.0
 40
11.0
 10
-33.99931718292643
 20
-7.502708028683525
 42
1.0
 10
-33.40907414696031
 20
-7.689011641945555
 42
1.0
 10
-32.48616403135106
 20
-7.975318844696822
 42
1.0
 10
-31.47547483016516
 20
-8.27150505233215
 42
1.0
 72
     4
 94
        3
 73
     1
 74
     0
 95
        8
 96
        4
 40
11.0
 40
11.0
 40
11.0
 40
11.0
 40
12.0
 40
12.0
 40
12.0
 40
12.0
 10
-31.47547483016516
 20
-8.27150505233215
 42
1.0
 10
-31.11213516930568
 20
-8.377980375833708
 42
1.0
 10
-30.40258052645039
 20
-8.557295119664056
 42
1.0
 10
-30.28870163819752
 20
-9.336631754491272
 42
1.0
 72
     4
 94
        3
 73
     1
 74
     0
 95
        8
 96
        4
 40
12.0
 40
12.0
 40
12.0
 40
12.0
 40
13.0
 40
13.0
 40
13.0
 40
13.0
 10
-30.28870163819752
 20
-9.336631754491272
 42
1.0
 10
-30.18837182526216
 20
-10.02498578462435
 42
1.0
 10
-30.64014408852681
 20
-10.43662327702195
 42
1.0
 10
-31.32890793487914
 20
-10.58563999188937
 42
1.0
 72
     1
 10
-31.32890793487914
 20
-10.58563999188937
 11
-31.46505813246008
 21
-10.61509661229637
 72
     4
 94
        3
 73
     1
 74
     0
 95
        8
 96
        4
 40
14.0
 40
14.0
 40
14.0
 40
14.0
 40
15.0
 40
15.0
 40
15.0
 40
15.0
 10
-31.46505813246008
 20
-10.61509661229637
 42
1.0
 10
-32.05208024758041
 20
-10.7421011111722
 42
1.0
 10
-32.71260096537064
 20
-10.55064660173623
 42
1.0
 10
-32.88223929249212
 20
-9.937760156430087
 42
1.0
 72
     1
 10
-32.88223929249212
 20
-9.937760156430087
 11
-35.18886923388655
 21
-10.43680844141459
 72
     4
 94
        3
 73
     1
 74
     0
 95
        8
 96
        4
 40
16.0
 40
16.0
 40
16.0
 40
16.0
 40
17.0
 40
17.0
 40
17.0
 40
17.0
 10
-35.18886923388649
 20
-10.43680844141459
 42
1.0
 10
-34.81471685749708
 20
-11.88431332710451
 42
1.0
 10
-33.72975075395801
 20
-12.95131992706824
 42
1.0
 10
-31.59496833044075
 20
-12.72957879515506
 42
1.0
 72
     1
 10
-31.59496833044068
 20
-12.72957879515504
 11
-30.20639204762409
 21
-12.42915496033269
 97
        0
 75
     0
 76
     1
 98
        1
 10
0.0
 20
0.0
  0
HATCH
  5
D4
330
74
100
AcDbEntity
  8
0
100
AcDbHatch
 10
0.0
 20
0.0
 30
0.0
210
0.0
220
0.0
230
1.0
  2
SOLID
 70
     1
 71
     0
 91
        1
 92
        0
 93
       11
 72
     1
 10
-23.93083334830058
 20
-6.656177916224847
 11
-23.9305586195879
 21
-1.497666803489873
 72
     1
 10
-23.9305586195879
 20
-1.497666803489873
 11
-20.04326836721582
 21
-10.05945907169815
 72
     1
 10
-20.04326836721582
 20
-10.05945907169815
 11
-17.66870538033285
 21
-9.545713210289948
 72
     1
 10
-17.66870538033285
 20
-9.545713210289948
 11
-22.39983793591613
 21
0.8767293108990284
 72
     1
 10
-22.39983793591613
 20
0.8767293108990277
 11
-26.30586704316552
 21
0.0316448471579831
 72
     1
 10
-26.30586704316552
 20
0.0316448471579831
 11
-26.30567237753049
 21
-11.41435433475813
 72
     1
 10
-26.30567237753049
 20
-11.41435433475813
 11
-23.93111465188077
 21
-10.90060961163804
 72
     1
 10
-23.93111465188077
 20
-10.90060961163804
 11
-23.93099314235586
 21
-8.782594625323274
 72
     1
 10
-23.93099314235586
 20
-8.782594625323274
 11
-22.27383089514867
 21
-8.42406118111162
 72
     1
 10
-22.27383089514867
 20
-8.42406118111162
 11
-22.7133102853523
 21
-6.392762105309743
 72
     1
 10
-22.7133102853523
 20
-6.392762105309743
 11
-23.93083334830058
 21
-6.656177916224847
 97
        0
 75
     0
 76
     1
 98
        1
 10
0.0
 20
0.0
  0
HATCH
  5
D5
330
74
100
AcDbEntity
  8
0
100
AcDbHatch
 10
0.0
 20
0.0
 30
0.0
210
0.0
220
0.0
230
1.0
  2
SOLID
 70
     1
 71
     0
 91
        1
 92
        0
 93
        6
 72
     1
 10
-15.79563263740209
 20
2.305574601061446
 11
-18.06492886668423
 21
1.814603608696526
 72
     4
 94
        3
 73
     1
 74
     0
 95
        8
 96
        4
 40
2.0
 40
2.0
 40
2.0
 40
2.0
 40
3.0
 40
3.0
 40
3.0
 40
3.0
 10
-18.06492886668423
 20
1.814603608696526
 42
1.0
 10
-17.240039650055
 20
-1.995739949107533
 42
1.0
 10
-15.71186186991055
 20
-9.059523950669437
 42
1.0
 10
-15.69887855542098
 20
-9.119533578677919
 42
1.0
 72
     1
 10
-15.69887855542092
 20
-9.119533578677903
 11
-10.22610149671526
 21
-7.93547715235816
 72
     1
 10
-10.22610149671526
 20
-7.93547715235816
 11
-10.66558088691882
 21
-5.904178076556605
 72
     1
 10
-10.66558088691882
 20
-5.904178076556605
 11
-13.86994560355126
 21
-6.597454742918437
 72
     4
 94
        3
 73
     1
 74
     0
 95
        8
 96
        4
 40
0.0
 40
0.0
 40
0.0
 40
0.0
 40
1.0
 40
1.0
 40
1.0
 40
1.0
 10
-13.86994560355126
 20
-6.597454742918437
 42
1.0
 10
-13.88373254946556
 20
-6.533730684138598
 42
1.0
 10
-15.1136551579741
 20
-0.8489574873494129
 42
1.0
 10
-15.79563263740209
 20
2.305574601061446
 42
1.0
 97
        0
 75
     0
 76
     1
 98
        1
 10
0.0
 20
0.0
  0
HATCH
  5
D6
330
74
100
AcDbEntity
  8
0
100
AcDbHatch
 10
0.0
 20
0.0
 30
0.0
210
0.0
220
0.0
230
1.0
  2
SOLID
 70
     1
 71
     0
 91
        1
 92
        0
 93
       11
 72
     1
 10
2.375028433631206
 20
-0.9648032523823513
 11
2.375208460142868
 21
4.193687371166118
 72
     1
 10
2.375208460142868
 20
4.193687371166118
 11
6.262509234981617
 21
-4.368102620465918
 72
     1
 10
6.262509234981617
 20
-4.368102620465917
 11
8.637061699398163
 21
-3.854359035633896
 72
     1
 10
8.637061699398163
 20
-3.854359035633896
 11
3.905939666281055
 21
6.568085762131229
 72
     1
 10
3.905939666281055
 20
6.56808576213123
 11
-0.0000000000001235
 21
5.723020649288631
 72
     1
 10
-0.0000000000001234
 20
5.723020649288631
 11
-0.000000000000185
 21
-5.723020649288537
 72
     1
 10
-0.000000000000185
 20
-5.723020649288538
 11
2.37465768908423
 21
-5.20925429869377
 72
     1
 10
2.37465768908423
 20
-5.20925429869377
 11
2.374784459841949
 21
-3.091238174090979
 72
     1
 10
2.374784459841949
 20
-3.091238174090979
 11
4.031830959914354
 21
-2.732729772218408
 72
     1
 10
4.031830959914354
 20
-2.732729772218408
 11
3.592351569710606
 21
-0.701430696416514
 72
     1
 10
3.592351569710606
 20
-0.7014306964165138
 11
2.375028433631206
 21
-0.9648032523823513
 97
        0
 75
     0
 76
     1
 98
        1
 10
0.0
 20
0.0
  0
HATCH
  5
D7
330
74
100
AcDbEntity
  8
0
100
AcDbHatch
 10
0.0
 20
0.0
 30
0.0
210
0.0
220
0.0
230
1.0
  2
SOLID
 70
     1
 71
     0
 91
        1
 92
        0
 93
        8
 72
     1
 10
-42.14906497721024
 20
-6.152323722221632
 11
-42.76219705242848
 21
-3.318391925879333
 72
     1
 10
-42.76219705242848
 20
-3.318391925879333
 11
-42.76249168149826
 21
-3.318455670015027
 72
     1
 10
-42.76249168149826
 20
-3.318455670015027
 11
-45.03079507887072
 21
-6.775797145163721
 72
     1
 10
-45.03079507887072
 20
-6.775797145163721
 11
-48.52545732888054
 21
-4.565295516814268
 72
     1
 10
-48.52545732888054
 20
-4.565295516814268
 11
-48.52574669671678
 21
-4.565358122661792
 72
     1
 10
-48.52574669671678
 20
-4.565358122661792
 11
-47.91261462149855
 21
-7.39928991900409
 72
     1
 10
-47.91261462149855
 20
-7.39928991900409
 11
-44.41773721666716
 21
-9.60984413289331
 72
     1
 10
-44.41773721666716
 20
-9.60984413289331
 11
-42.14906497721024
 21
-6.152323722221632
 97
        0
 75
     0
 76
     1
 98
        1
 10
0.0
 20
0.0
  0
HATCH
  5
D8
330
74
100
AcDbEntity
  8
0
100
AcDbHatch
 10
0.0
 20
0.0
 30
0.0
210
0.0
220
0.0
230
1.0
  2
SOLID
 70
     1
 71
     0
 91
        1
 92
        0
 93
        8
 72
     1
 10
-46.11999732125613
 20
-15.87212484345383
 11
-46.08139565189786
 21
-15.8637732233933
 72
     1
 10
-46.08139565189786
 20
-15.8637732233933
 11
-46.68636620117444
 21
-13.06756447043367
 72
     1
 10
-46.68636620117444
 20
-13.06756447043367
 11
-50.18135879739361
 21
-10.85693604353009
 72
     1
 10
-50.18135879739361
 20
-10.85693604353009
 11
-52.44976215820033
 21
-14.31429914615315
 72
     1
 10
-52.44976215820033
 20
-14.31429914615315
 11
-51.84475063055083
 21
-17.11069730351469
 72
     1
 10
-51.84475063055083
 20
-17.11069730351469
 11
-51.80633836559459
 21
-17.1023866618271
 72
     1
 10
-51.80633836559459
 20
-17.1023866618271
 11
-49.56818574380249
 21
-13.69105724427409
 72
     1
 10
-49.56818574380249
 20
-13.69105724427409
 11
-46.11999732125613
 21
-15.87212484345383
 97
        0
 75
     0
 76
     1
 98
        1
 10
0.0
 20
0.0
  0
HATCH
  5
D9
330
74
100
AcDbEntity
  8
0
100
AcDbHatch
 10
0.0
 20
0.0
 30
0.0
210
0.0
220
0.0
230
1.0
  2
SOLID
 70
     1
 71
     0
 91
        2
 92
        0
 93
        7
 72
     1
 10
-6.859585567104196
 20
4.238922852960538
 11
-11.00449045380928
 21
3.342156692939393
 72
     1
 10
-11.00449045380928
 20
3.342156692939393
 11
-8.638829473816639
 21
-7.592064727757184
 72
     1
 10
-8.638829473816639
 20
-7.592064727757185
 11
-8.63844014254617
 21
-7.591980494435086
 72
     1
 10
-8.63844014254617
 20
-7.591980494435086
 11
-4.494024550545999
 21
-6.695320195210662
 72
     4
 94
        3
 73
     1
 74
     0
 95
        8
 96
        4
 40
3.0
 40
3.0
 40
3.0
 40
3.0
 40
4.0
 40
4.0
 40
4.0
 40
4.0
 10
-4.494024550545999
 20
-6.695320195210662
 42
1.0
 10
-2.825524345390513
 20
-6.334333740063992
 42
1.0
 10
-1.762658323115034
 20
-4.702068307882374
 42
1.0
 10
-2.120071189640999
 20
-3.049576315093403
 42
1.0
 72
     4
 94
        3
 73
     1
 74
     0
 95
        8
 96
        4
 40
4.0
 40
4.0
 40
4.0
 40
4.0
 40
5.0
 40
5.0
 40
5.0
 40
5.0
 10
-2.120071189640999
 20
-3.049576315093403
 42
1.0
 10
-2.485983017556096
 20
-1.358310753073632
 42
1.0
 10
-2.867352798370483
 20
0.4044023583376265
 42
1.0
 10
-3.190995488197396
 20
1.900704823656681
 42
1.0
 72
     4
 94
        3
 73
     1
 74
     0
 95
        8
 96
        4
 40
5.0
 40
5.0
 40
5.0
 40
5.0
 40
6.0
 40
6.0
 40
6.0
 40
6.0
 10
-3.190995488197396
 20
1.900704823656681
 42
1.0
 10
-3.54857504695031
 20
3.553458157285876
 42
1.0
 10
-5.190901218780231
 20
4.599949148191988
 42
1.0
 10
-6.859585567104196
 20
4.238922852960538
 42
1.0
 97
        0
 92
        0
 93
        6
 72
     4
 94
        3
 73
     1
 74
     0
 95
        8
 96
        4
 40
2.0
 40
2.0
 40
2.0
 40
2.0
 40
3.0
 40
3.0
 40
3.0
 40
3.0
 10
-6.919811195494074
 20
2.099808074263809
 42
1.0
 10
-6.228016878711183
 20
2.249480443098069
 42
1.0
 10
-5.547633595833446
 20
1.815851349115847
 42
1.0
 10
-5.399398884916104
 20
1.130701970100344
 42
1.0
 72
     4
 94
        3
 73
     1
 74
     0
 95
        8
 96
        4
 40
3.0
 40
3.0
 40
3.0
 40
3.0
 40
4.0
 40
4.0
 40
4.0
 40
4.0
 10
-5.399398884916104
 20
1.130701970100344
 42
1.0
 10
-5.107009087764085
 20
-0.2207405274728672
 42
1.0
 10
-4.711497421058354
 20
-2.048334586467611
 42
1.0
 10
-4.449160707297047
 20
-3.260870000165379
 42
1.0
 72
     4
 94
        3
 73
     1
 74
     0
 95
        8
 96
        4
 40
4.0
 40
4.0
 40
4.0
 40
4.0
 40
5.0
 40
5.0
 40
5.0
 40
5.0
 10
-4.449160707297047
 20
-3.260870000165379
 42
1.0
 10
-4.300905507193207
 20
-3.946114081381999
 42
1.0
 10
-4.741570606399121
 20
-4.622385452066122
 42
1.0
 10
-5.433383135791953
 20
-4.771973641166296
 42
1.0
 72
     1
 10
-5.433383135791953
 20
-4.771973641166296
 11
-6.809537646582547
 21
-5.069709977697404
 72
     4
 94
        3
 73
     1
 74
     0
 95
        8
 96
        4
 40
0.0
 40
0.0
 40
0.0
 40
0.0
 40
1.0
 40
1.0
 40
1.0
 40
1.0
 10
-6.809537646582547
 20
-5.069709977697404
 42
1.0
 10
-7.284290309572815
 20
-2.875375801708635
 42
1.0
 10
-7.897830097865885
 20
-0.0390758678013329
 42
1.0
 10
-8.296070930952649
 20
1.80204897196991
 42
1.0
 72
     1
 10
-8.296070930952649
 20
1.80204897196991
 11
-6.919811195494074
 21
2.099808074263809
 97
        0
 75
     0
 76
     1
 98
        1
 10
0.0
 20
0.0
  0
ENDBLK
  5
76
330
74
100
AcDbEntity
  8
0
100
AcDbBlockEnd
  0
BLOCK
  5
1AF
330
1AE
100
AcDbEntity
  8
0
100
AcDbBlockBegin
  2
_ArchTick
 70
     0
 10
0.0
 20
0.0
 30
0.0
  3
_ArchTick
  1

  0
LWPOLYLINE
  5
1B0
330
1AE
100
AcDbEntity
  8
0
  6
ByBlock
 62
     0
100
AcDbPolyline
 90
        2
 70
     0
 43
0.15
 10
-0.5
 20
-0.5
 10
0.5
 20
0.5
  0
ENDBLK
  5
1B1
330
1AE
100
AcDbEntity
  8
0
100
AcDbBlockEnd
  0
ENDSEC
  0
SECTION
  2
ENTITIES
  0
ARC
  5
DA
330
1F
100
AcDbEntity
  8
0
100
AcDbCircle
 10
420.5381582091
 20
488.4838842967
 30
0.0
 40
5.499999999999942
100
AcDbArc
 50
10.4756816964
 51
169.5243183036
  0
ARC
  5
DB
330
1F
100
AcDbEntity
  8
0
100
AcDbCircle
 10
420.5381582091
 20
135.4838842967
 30
0.0
 40
5.499999999999942
100
AcDbArc
 50
190.4756816964
 51
349.5243183036
  0
ARC
  5
DC
330
1F
100
AcDbEntity
  8
0
100
AcDbCircle
 10
11.7144586721
 20
488.4838842967
 30
0.0
 40
5.499999999999942
100
AcDbArc
 50
10.4756816964
 51
169.5243183036
  0
ARC
  5
DD
330
1F
100
AcDbEntity
  8
0
100
AcDbCircle
 10
11.7144586721
 20
135.4838842967
 30
0.0
 40
5.499999999999942
100
AcDbArc
 50
190.4756816964
 51
349.5243183036
  0
LINE
  5
DE
330
1F
100
AcDbEntity
  8
0
100
AcDbLine
 10
465.1263084406
 20
489.4838842967
 30
0.0
 11
459.6277268325
 21
489.4838842967
 31
0.0
  0
LINE
  5
DF
330
1F
100
AcDbEntity
  8
0
100
AcDbLine
 10
459.6277268325
 20
134.4838842967
 30
0.0
 11
465.1263084406
 21
134.4838842967
 31
0.0
  0
LINE
  5
E0
330
1F
100
AcDbEntity
  8
0
100
AcDbLine
 10
459.6277268325
 20
489.4838842967
 30
0.0
 11
456.6186517168
 21
485.4907067465
 31
0.0
  0
LINE
  5
E1
330
1F
100
AcDbEntity
  8
0
100
AcDbLine
 10
456.6186517168
 20
138.4770618469
 30
0.0
 11
459.6277268325
 21
134.4838842967
 31
0.0
  0
LINE
  5
E2
330
1F
100
AcDbEntity
  8
0
100
AcDbLine
 10
441.6067398171
 20
134.4838842967
 30
0.0
 11
444.6158149329
 21
138.4770618469
 31
0.0
  0
LINE
  5
E3
330
1F
100
AcDbEntity
  8
0
100
AcDbLine
 10
444.6158149329
 20
485.4907067465
 30
0.0
 11
441.6067398171
 21
489.4838842967
 31
0.0
  0
LINE
  5
E4
330
1F
100
AcDbEntity
  8
0
100
AcDbLine
 10
17.1263084406
 20
489.4838842967
 30
0.0
 11
17.1227855853
 21
489.4838842967
 31
0.0
  0
LINE
  5
E5
330
1F
100
AcDbEntity
  8
0
100
AcDbLine
 10
415.1298312959
 20
489.4838842967
 30
0.0
 11
415.1263084406
 21
489.4838842967
 31
0.0
  0
LINE
  5
E6
330
1F
100
AcDbEntity
  8
0
100
AcDbLine
 10
17.1227855853
 20
134.4838842967
 30
0.0
 11
415.1298312959
 21
134.4838842967
 31
0.0
  0
LINE
  5
E7
330
1F
100
AcDbEntity
  8
0
100
AcDbLine
 10
441.6067398171
 20
489.4838842967
 30
0.0
 11
425.9464851223
 21
489.4838842967
 31
0.0
  0
LINE
  5
E8
330
1F
100
AcDbEntity
  8
0
100
AcDbLine
 10
425.9464851223
 20
134.4838842967
 30
0.0
 11
441.6067398171
 21
134.4838842967
 31
0.0
  0
LINE
  5
E9
330
1F
100
AcDbEntity
  8
0
100
AcDbLine
 10
6.3061317589
 20
489.4838842967
 30
0.0
 11
-9.3541229359
 21
489.4838842967
 31
0.0
  0
LINE
  5
EA
330
1F
100
AcDbEntity
  8
0
100
AcDbLine
 10
-9.3541229359
 20
134.4838842967
 30
0.0
 11
6.3061317589
 21
134.4838842967
 31
0.0
  0
LINE
  5
EB
330
1F
100
AcDbEntity
  8
0
100
AcDbLine
 10
-9.3541229359
 20
489.4838842967
 30
0.0
 11
-12.3631980517
 21
485.4907067465
 31
0.0
  0
LINE
  5
EC
330
1F
100
AcDbEntity
  8
0
100
AcDbLine
 10
-12.3631980517
 20
138.4770618469
 30
0.0
 11
-9.3541229359
 21
134.4838842967
 31
0.0
  0
LINE
  5
ED
330
1F
100
AcDbEntity
  8
0
100
AcDbLine
 10
-27.3751099514
 20
134.4838842967
 30
0.0
 11
-24.3660348356
 21
138.4770618469
 31
0.0
  0
LINE
  5
EE
330
1F
100
AcDbEntity
  8
0
100
AcDbLine
 10
-24.3660348356
 20
485.4907067465
 30
0.0
 11
-27.3751099514
 21
489.4838842967
 31
0.0
  0
LINE
  5
EF
330
1F
100
AcDbEntity
  8
0
100
AcDbLine
 10
-27.3751099514
 20
489.4838842967
 30
0.0
 11
-32.8736915594
 21
489.4838842967
 31
0.0
  0
LINE
  5
F0
330
1F
100
AcDbEntity
  8
0
100
AcDbLine
 10
-32.8736915594
 20
134.4838842967
 30
0.0
 11
-27.3751099514
 21
134.4838842967
 31
0.0
  0
LINE
  5
F1
330
1F
100
AcDbEntity
  8
0
100
AcDbLine
 10
456.6186517168
 20
485.4907067465
 30
0.0
 11
444.6158149329
 21
485.4907067465
 31
0.0
  0
LINE
  5
F2
330
1F
100
AcDbEntity
  8
0
100
AcDbLine
 10
444.6158149329
 20
138.4770618469
 30
0.0
 11
456.6186517168
 21
138.4770618469
 31
0.0
  0
LINE
  5
F3
330
1F
100
AcDbEntity
  8
0
100
AcDbLine
 10
-12.3631980517
 20
485.4907067465
 30
0.0
 11
-24.3660348356
 21
485.4907067465
 31
0.0
  0
LINE
  5
F4
330
1F
100
AcDbEntity
  8
0
100
AcDbLine
 10
-24.3660348356
 20
138.4770618469
 30
0.0
 11
-12.3631980517
 21
138.4770618469
 31
0.0
  0
LINE
  5
F5
330
1F
100
AcDbEntity
  8
0
100
AcDbLine
 10
416.3055977625
 20
558.0650851766
 30
0.0
 11
416.3055977625
 21
550.0650851766
 31
0.0
  0
LINE
  5
F6
330
1F
100
AcDbEntity
  8
0
100
AcDbLine
 10
15.9470191187
 20
550.0650851766
 30
0.0
 11
416.3055977625
 21
550.0650851766
 31
0.0
  0
LINE
  5
F7
330
1F
100
AcDbEntity
  8
0
100
AcDbLine
 10
15.9470191187
 20
558.0650851766
 30
0.0
 11
15.9470191187
 21
550.0650851766
 31
0.0
  0
SPLINE
  5
F8
330
1F
100
AcDbEntity
  8
0
100
AcDbSpline
210
0.0
220
0.0
230
1.0
 70
     8
 71
     3
 72
    13
 73
     9
 74
     0
 42
0.000000001
 43
0.00000001
 40
0.0
 40
0.0
 40
0.0
 40
0.0
 40
0.2573477005720068
 40
0.4687587782566316
 40
0.5993037099155393
 40
0.7308512418985635
 40
0.8641703966668663
 40
1.0
 40
1.0
 40
1.0
 40
1.0
 10
415.3763084405873
 20
560.0650851765519
 30
0.0
 10
415.5020860317676
 20
560.037328391502
 30
0.0
 10
415.7311898855916
 20
559.9867694138256
 30
0.0
 10
415.9885576458243
 20
559.6557421705888
 30
0.0
 10
416.1349720779018
 20
559.2929009344372
 30
0.0
 10
416.2251241305863
 20
558.9269558332336
 30
0.0
 10
416.2854186519853
 20
558.5109925959841
 30
0.0
 10
416.2988296957432
 20
558.2146423718801
 30
0.0
 10
416.3055977624687
 20
558.0650851765517
 30
0.0
  0
SPLINE
  5
F9
330
1F
100
AcDbEntity
  8
0
100
AcDbSpline
210
0.0
220
0.0
230
1.0
 70
     8
 71
     3
 72
    12
 73
     8
 74
     0
 42
0.000000001
 43
0.00000001
 40
0.0
 40
0.0
 40
0.0
 40
0.0
 40
0.1752903340237263
 40
0.3214142848520989
 40
0.5258527695588158
 40
0.7177682170538697
 40
1.0
 40
1.0
 40
1.0
 40
1.0
 10
15.94701911870636
 20
558.0650851765505
 30
0.0
 10
15.97481005517668
 20
558.2553796593004
 30
0.0
 10
16.02576782201928
 20
558.6043057163189
 30
0.0
 10
16.12510043609358
 20
559.1301746774678
 30
0.0
 10
16.25812869405643
 20
559.5827370342388
 30
0.0
 10
16.5442299380176
 20
559.9714394594421
 30
0.0
 10
16.75239819691396
 20
560.0301426447821
 30
0.0
 10
16.87630844058743
 20
560.0650851765517
 30
0.0
  0
LINE
  5
FA
330
1F
100
AcDbEntity
  8
0
100
AcDbLine
 10
16.8763084406
 20
560.0650851766
 30
0.0
 11
415.3763084406
 21
560.0650851766
 31
0.0
  0
SPLINE
  5
FB
330
1F
100
AcDbEntity
  8
0
100
AcDbSpline
210
0.0
220
0.0
230
1.0
 70
     8
 71
     3
 72
    10
 73
     6
 74
     0
 42
0.000000001
 43
0.00000001
 40
0.0
 40
0.0
 40
0.0
 40
0.0
 40
0.1222916473610413
 40
0.7291633599443442
 40
1.0
 40
1.0
 40
1.0
 40
1.0
 10
16.02536715663974
 20
558.5760887365642
 30
0.0
 10
16.01297437239316
 20
558.5599922569015
 30
0.0
 10
15.93908245585332
 20
558.4640170742355
 30
0.0
 10
15.88730236383804
 20
558.2766657276065
 30
0.0
 10
15.87890090083308
 20
558.1149776630573
 30
0.0
 10
15.87630844058699
 20
558.065085176552
 30
0.0
  0
LINE
  5
FC
330
1F
100
AcDbEntity
  8
0
100
AcDbLine
 10
14.8763084406
 20
558.0650851766
 30
0.0
 11
15.8763084406
 21
558.0650851766
 31
0.0
  0
SPLINE
  5
FD
330
1F
100
AcDbEntity
  8
0
100
AcDbSpline
210
0.0
220
0.0
230
1.0
 70
     8
 71
     3
 72
    12
 73
     8
 74
     0
 42
0.000000001
 43
0.00000001
 40
0.0
 40
0.0
 40
0.0
 40
0.0
 40
0.2519211223520807
 40
0.5025339707913327
 40
0.7260984128489213
 40
0.9289498881546461
 40
1.0
 40
1.0
 40
1.0
 40
1.0
 10
16.87630844058654
 20
560.0650851765521
 30
0.0
 10
16.62735732624235
 20
560.0382893534402
 30
0.0
 10
16.13074794765476
 20
559.9848368629806
 30
0.0
 10
15.4890019469188
 20
559.5681478640779
 30
0.0
 10
15.05097670096714
 20
558.9763358367369
 30
0.0
 10
14.88992487156807
 20
558.4433916361724
 30
0.0
 10
14.87911303307613
 20
558.1430054081266
 30
0.0
 10
14.87630844058699
 20
558.065085176552
 30
0.0
  0
SPLINE
  5
FE
330
1F
100
AcDbEntity
  8
0
100
AcDbSpline
210
0.0
220
0.0
230
1.0
 70
     8
 71
     3
 72
    11
 73
     7
 74
     0
 42
0.000000001
 43
0.00000001
 40
0.0
 40
0.0
 40
0.0
 40
0.0
 40
0.3241395507472968
 40
0.6582522443833901
 40
0.9822854925489459
 40
1.0
 40
1.0
 40
1.0
 40
1.0
 10
416.3763084405869
 20
558.0650851765516
 30
0.0
 10
416.3743149952348
 20
558.1139661004797
 30
0.0
 10
416.3702667700983
 20
558.2132319191957
 30
0.0
 10
416.3354929605233
 20
558.3546419096646
 30
0.0
 10
416.303940149251
 20
558.4494076244717
 30
0.0
 10
416.2805849373485
 20
558.4912645227282
 30
0.0
 10
416.2793743190826
 20
558.4934341765852
 30
0.0
  0
SPLINE
  5
FF
330
1F
100
AcDbEntity
  8
0
100
AcDbSpline
210
0.0
220
0.0
230
1.0
 70
     8
 71
     3
 72
    17
 73
    13
 74
     0
 42
0.000000001
 43
0.00000001
 40
0.0
 40
0.0
 40
0.0
 40
0.0
 40
0.0961121301545115
 40
0.1950107973155898
 40
0.2912004070071668
 40
0.3900910419593501
 40
0.4880270280691446
 40
0.5885698797272189
 40
0.691078336186862
 40
0.7959809231726203
 40
0.8970229223033844
 40
1.0
 40
1.0
 40
1.0
 40
1.0
 10
417.3763084405869
 20
558.0650851765516
 30
0.0
 10
417.3714207757274
 20
558.1710401332742
 30
0.0
 10
417.361503740076
 20
558.3860219524975
 30
0.0
 10
417.2820855802414
 20
558.6975463165406
 30
0.0
 10
417.1574269329734
 20
558.9935122585541
 30
0.0
 10
416.9888148122256
 20
559.262235569296
 30
0.0
 10
416.780206863809
 20
559.5011098176179
 30
0.0
 10
416.5380734939748
 20
559.7031381535577
 30
0.0
 10
416.2678941093825
 20
559.8646859450669
 30
0.0
 10
415.980118972339
 20
559.9795219928492
 30
0.0
 10
415.6797580986006
 20
560.0517419326126
 30
0.0
 10
415.478095901276
 20
560.0606093932312
 30
0.0
 10
415.376308440587
 20
560.0650851765516
 30
0.0
  0
LINE
  5
100
330
1F
100
AcDbEntity
  8
0
100
AcDbLine
 10
417.3763084406
 20
558.0650851766
 30
0.0
 11
416.3763084406
 21
558.0650851766
 31
0.0
  0
LINE
  5
101
330
1F
100
AcDbEntity
  8
0
100
AcDbLine
 10
417.3763084406
 20
550.0650851766
 30
0.0
 11
416.3763084406
 21
550.0650851766
 31
0.0
  0
LINE
  5
102
330
1F
100
AcDbEntity
  8
0
100
AcDbLine
 10
416.3763084406
 20
558.0650851766
 30
0.0
 11
416.3763084406
 21
550.0650851766
 31
0.0
  0
LINE
  5
103
330
1F
100
AcDbEntity
  8
0
100
AcDbLine
 10
417.3763084406
 20
558.0650851766
 30
0.0
 11
417.3763084406
 21
550.0650851766
 31
0.0
  0
LINE
  5
104
330
1F
100
AcDbEntity
  8
0
100
AcDbLine
 10
14.8763084406
 20
550.0650851766
 30
0.0
 11
15.8763084406
 21
550.0650851766
 31
0.0
  0
LINE
  5
105
330
1F
100
AcDbEntity
  8
0
100
AcDbLine
 10
14.8763084406
 20
558.0650851766
 30
0.0
 11
14.8763084406
 21
550.0650851766
 31
0.0
  0
LINE
  5
106
330
1F
100
AcDbEntity
  8
0
100
AcDbLine
 10
15.8763084406
 20
558.0650851766
 30
0.0
 11
15.8763084406
 21
550.0650851766
 31
0.0
  0
LINE
  5
107
330
1F
100
AcDbEntity
  8
0
100
AcDbLine
 10
415.1298312959
 20
489.4838842967
 30
0.0
 11
415.1298312959
 21
134.4838842967
 31
0.0
  0
LINE
  5
108
330
1F
100
AcDbEntity
  8
0
100
AcDbLine
 10
425.9464851223
 20
489.4838842967
 30
0.0
 11
425.9464851223
 21
134.4838842967
 31
0.0
  0
LINE
  5
109
330
1F
100
AcDbEntity
  8
0
100
AcDbLine
 10
6.3061317589
 20
489.4838842967
 30
0.0
 11
6.3061317589
 21
134.4838842967
 31
0.0
  0
LINE
  5
10A
330
1F
100
AcDbEntity
  8
0
100
AcDbLine
 10
17.1227855853
 20
489.4838842967
 30
0.0
 11
17.1227855853
 21
134.4838842967
 31
0.0
  0
LINE
  5
10B
330
1F
100
AcDbEntity
  8
0
100
AcDbLine
 10
459.6277268325
 20
489.4838842967
 30
0.0
 11
459.6277268325
 21
134.4838842967
 31
0.0
  0
LINE
  5
10C
330
1F
100
AcDbEntity
  8
0
100
AcDbLine
 10
465.1263084406
 20
489.4838842967
 30
0.0
 11
465.1263084406
 21
134.4838842967
 31
0.0
  0
LINE
  5
10D
330
1F
100
AcDbEntity
  8
0
100
AcDbLine
 10
456.6186517168
 20
485.4907067465
 30
0.0
 11
456.6186517168
 21
138.4770618469
 31
0.0
  0
LINE
  5
10E
330
1F
100
AcDbEntity
  8
0
100
AcDbLine
 10
441.6067398171
 20
489.4838842967
 30
0.0
 11
441.6067398171
 21
134.4838842967
 31
0.0
  0
LINE
  5
10F
330
1F
100
AcDbEntity
  8
0
100
AcDbLine
 10
444.6158149329
 20
485.4907067465
 30
0.0
 11
444.6158149329
 21
138.4770618469
 31
0.0
  0
LINE
  5
110
330
1F
100
AcDbEntity
  8
0
100
AcDbLine
 10
-9.3541229359
 20
489.4838842967
 30
0.0
 11
-9.3541229359
 21
134.4838842967
 31
0.0
  0
LINE
  5
111
330
1F
100
AcDbEntity
  8
0
100
AcDbLine
 10
-12.3631980517
 20
485.4907067465
 30
0.0
 11
-12.3631980517
 21
138.4770618469
 31
0.0
  0
LINE
  5
112
330
1F
100
AcDbEntity
  8
0
100
AcDbLine
 10
-27.3751099514
 20
489.4838842967
 30
0.0
 11
-27.3751099514
 21
134.4838842967
 31
0.0
  0
LINE
  5
113
330
1F
100
AcDbEntity
  8
0
100
AcDbLine
 10
-24.3660348356
 20
485.4907067465
 30
0.0
 11
-24.3660348356
 21
138.4770618469
 31
0.0
  0
LINE
  5
114
330
1F
100
AcDbEntity
  8
0
100
AcDbLine
 10
-32.8736915594
 20
489.4838842967
 30
0.0
 11
-32.8736915594
 21
134.4838842967
 31
0.0
  0
LINE
  5
115
330
1F
100
AcDbEntity
  8
0
100
AcDbLine
 10
415.1263084406
 20
550.0650851766
 30
0.0
 11
415.1263084406
 21
335.0165779082
 31
0.0
  0
LINE
  5
116
330
1F
100
AcDbEntity
  8
0
100
AcDbLine
 10
415.1263084406
 20
335.0165779082
 30
0.0
 11
415.1263084406
 21
330.8456173825
 31
0.0
  0
LINE
  5
117
330
1F
100
AcDbEntity
  8
0
100
AcDbLine
 10
415.0536327852
 20
299.0650851766
 30
0.0
 11
413.1263084406
 21
299.0650851766
 31
0.0
  0
LINE
  5
119
330
1F
100
AcDbEntity
  8
0
100
AcDbLine
 10
17.1263084406
 20
335.0165779082
 30
0.0
 11
17.1263084406
 21
550.0650851766
 31
0.0
  0
LINE
  5
11A
330
1F
100
AcDbEntity
  8
0
100
AcDbLine
 10
17.1263084406
 20
330.8456173825
 30
0.0
 11
17.1263084406
 21
335.0165779082
 31
0.0
  0
LINE
  5
11B
330
1F
100
AcDbEntity
  8
0
100
AcDbLine
 10
19.1263084406
 20
299.0650851766
 30
0.0
 11
17.198984096
 21
299.0650851766
 31
0.0
  0
CIRCLE
  5
11C
330
1F
100
AcDbEntity
  8
0
100
AcDbCircle
 10
-421.087011472
 20
306.404453513
 30
0.0
 40
182.0
  0
LINE
  5
11D
330
1F
100
AcDbEntity
  8
0
100
AcDbLine
 10
-242.4027221501
 20
552.4856543928
 30
0.0
 11
-242.4027221501
 21
544.4856543928
 31
0.0
  0
LINE
  5
11E
330
1F
100
AcDbEntity
  8
0
100
AcDbLine
 10
-600.7613007939
 20
544.4856543928
 30
0.0
 11
-242.4027221501
 21
544.4856543928
 31
0.0
  0
LINE
  5
11F
330
1F
100
AcDbEntity
  8
0
100
AcDbLine
 10
-600.7613007939
 20
552.4856543928
 30
0.0
 11
-600.7613007939
 21
544.4856543928
 31
0.0
  0
SPLINE
  5
120
330
1F
100
AcDbEntity
  8
0
100
AcDbSpline
210
0.0
220
0.0
230
1.0
 70
     8
 71
     3
 72
    17
 73
    13
 74
     0
 42
0.000000001
 43
0.00000001
 40
0.0
 40
0.0
 40
0.0
 40
0.0
 40
0.0961121301545119
 40
0.1950107973155907
 40
0.2912004070071663
 40
0.3900910419593501
 40
0.4880270280691451
 40
0.5885698797272197
 40
0.6910783361868613
 40
0.7959809231726201
 40
0.8970229223033838
 40
1.0
 40
1.0
 40
1.0
 40
1.0
 10
-600.7613007939112
 20
552.4856543928427
 30
0.0
 10
-600.7571238738318
 20
552.5916093495653
 30
0.0
 10
-600.7486489340539
 20
552.8065911687885
 30
0.0
 10
-600.715018708295
 20
553.1181155328318
 30
0.0
 10
-600.6647549611155
 20
553.4140814748451
 30
0.0
 10
-600.5964382249898
 20
553.682804785587
 30
0.0
 10
-600.5087219922314
 20
553.921679033909
 30
0.0
 10
-600.4013952272484
 20
554.1237073698488
 30
0.0
 10
-600.2708902508083
 20
554.285255161358
 30
0.0
 10
-600.1288638210845
 20
554.4000912091402
 30
0.0
 10
-599.9821432128808
 20
554.4723111489036
 30
0.0
 10
-599.8823708257694
 20
554.4811786095223
 30
0.0
 10
-599.8320114720296
 20
554.4856543928427
 30
0.0
  0
LINE
  5
121
330
1F
100
AcDbEntity
  8
0
100
AcDbLine
 10
-599.832011472
 20
554.4856543928
 30
0.0
 11
-243.332011472
 21
554.4856543928
 31
0.0
  0
SPLINE
  5
122
330
1F
100
AcDbEntity
  8
0
100
AcDbSpline
210
0.0
220
0.0
230
1.0
 70
     8
 71
     3
 72
    11
 73
     7
 74
     0
 42
0.000000001
 43
0.00000001
 40
0.0
 40
0.0
 40
0.0
 40
0.0
 40
0.2784597413435796
 40
0.5367337602595412
 40
0.776533556549997
 40
0.9999999999999999
 40
0.9999999999999999
 40
0.9999999999999999
 40
0.9999999999999999
 10
-243.33201147203
 20
554.4856543928448
 30
0.0
 10
-243.2069671855384
 20
554.4521835073064
 30
0.0
 10
-242.9659431518171
 20
554.3876680618505
 30
0.0
 10
-242.6914871992699
 20
553.8935693959796
 30
0.0
 10
-242.4925710835698
 20
553.2345962929774
 30
0.0
 10
-242.4319594677991
 20
552.7293640441691
 30
0.0
 10
-242.4027221501487
 20
552.4856543928449
 30
0.0
  0
SPLINE
  5
123
330
1F
100
AcDbEntity
  8
0
100
AcDbSpline
210
0.0
220
0.0
230
1.0
 70
     8
 71
     3
 72
    11
 73
     7
 74
     0
 42
0.000000001
 43
0.00000001
 40
0.0
 40
0.0
 40
0.0
 40
0.0
 40
0.315457723961713
 40
0.6401801560892202
 40
0.9556027179875118
 40
0.9999999999999999
 40
0.9999999999999999
 40
0.9999999999999999
 40
0.9999999999999999
 10
-242.3320114720301
 20
552.485654392845
 30
0.0
 10
-242.3348312088079
 20
552.5436554913924
 30
0.0
 10
-242.3405534954836
 20
552.6613611283162
 30
0.0
 10
-242.3893347265735
 20
552.8283259801775
 30
0.0
 10
-242.4368241783833
 20
552.9442727941097
 30
0.0
 10
-242.4731722900607
 20
552.995688043898
 30
0.0
 10
-242.4776571938037
 20
553.002032044606
 30
0.0
  0
LINE
  5
124
330
1F
100
AcDbEntity
  8
0
100
AcDbLine
 10
-241.332011472
 20
552.4856543928
 30
0.0
 11
-242.332011472
 21
552.4856543928
 31
0.0
  0
SPLINE
  5
125
330
1F
100
AcDbEntity
  8
0
100
AcDbSpline
210
0.0
220
0.0
230
1.0
 70
     8
 71
     3
 72
    17
 73
    13
 74
     0
 42
0.000000001
 43
0.00000001
 40
0.0
 40
0.0
 40
0.0
 40
0.0
 40
0.102916167661887
 40
0.2088149593801829
 40
0.3117914827488483
 40
0.4177416249584343
 40
0.5207761242494916
 40
0.6271305107041719
 40
0.7282926525510509
 40
0.8316130608932455
 40
0.9152326404229661
 40
1.0
 40
1.0
 40
1.0
 40
1.0
 10
-241.3320114720301
 20
552.4856543928448
 30
0.0
 10
-241.3374590207241
 20
552.5975330891551
 30
0.0
 10
-241.3485119940818
 20
552.8245328497982
 30
0.0
 10
-241.4371463132728
 20
553.1530874602664
 30
0.0
 10
-241.5767503167348
 20
553.4644258066027
 30
0.0
 10
-241.765193426656
 20
553.7437519818413
 30
0.0
 10
-241.9971032178117
 20
553.9869989952257
 30
0.0
 10
-242.2522169785229
 20
554.1790105198922
 30
0.0
 10
-242.532430885718
 20
554.3278415159906
 30
0.0
 10
-242.8088730671236
 20
554.4224840109375
 30
0.0
 10
-243.0779720547415
 20
554.4762946228248
 30
0.0
 10
-243.246947735234
 20
554.4825203240381
 30
0.0
 10
-243.33201147203
 20
554.4856543928452
 30
0.0
  0
LINE
  5
126
330
1F
100
AcDbEntity
  8
0
100
AcDbLine
 10
-241.332011472
 20
544.4856543928
 30
0.0
 11
-242.332011472
 21
544.4856543928
 31
0.0
  0
LINE
  5
127
330
1F
100
AcDbEntity
  8
0
100
AcDbLine
 10
-242.332011472
 20
552.4856543928
 30
0.0
 11
-242.332011472
 21
544.4856543928
 31
0.0
  0
LINE
  5
128
330
1F
100
AcDbEntity
  8
0
100
AcDbLine
 10
-241.332011472
 20
552.4856543928
 30
0.0
 11
-241.332011472
 21
544.4856543928
 31
0.0
  0
LINE
  5
129
330
1F
100
AcDbEntity
  8
0
100
AcDbLine
 10
-601.832011472
 20
544.4856543928
 30
0.0
 11
-600.832011472
 21
544.4856543928
 31
0.0
  0
LINE
  5
12A
330
1F
100
AcDbEntity
  8
0
100
AcDbLine
 10
-601.832011472
 20
552.4856543928
 30
0.0
 11
-601.832011472
 21
544.4856543928
 31
0.0
  0
LINE
  5
12B
330
1F
100
AcDbEntity
  8
0
100
AcDbLine
 10
-601.832011472
 20
552.4856543928
 30
0.0
 11
-600.832011472
 21
552.4856543928
 31
0.0
  0
LINE
  5
12C
330
1F
100
AcDbEntity
  8
0
100
AcDbLine
 10
-600.832011472
 20
552.4856543928
 30
0.0
 11
-600.832011472
 21
544.4856543928
 31
0.0
  0
SPLINE
  5
12D
330
1F
100
AcDbEntity
  8
0
100
AcDbSpline
210
0.0
220
0.0
230
1.0
 70
     8
 71
     3
 72
    13
 73
     9
 74
     0
 42
0.000000001
 43
0.00000001
 40
0.0
 40
0.0
 40
0.0
 40
0.0
 40
0.2573477005720005
 40
0.4687587782566269
 40
0.5993037099155355
 40
0.7308512418985607
 40
0.8641703966668646
 40
1.0
 40
1.0
 40
1.0
 40
1.0
 10
-599.8320114720296
 20
554.4856543928429
 30
0.0
 10
-600.0870990074792
 20
554.457897607793
 30
0.0
 10
-600.5517408954772
 20
554.4073386301167
 30
0.0
 10
-601.0822962180908
 20
554.07631138688
 30
0.0
 10
-601.430020309804
 20
553.7134701507283
 30
0.0
 10
-601.65282803739
 20
553.3475250495246
 30
0.0
 10
-601.8029750912392
 20
552.9315618122752
 30
0.0
 10
-601.8222726798854
 20
552.6352115881712
 30
0.0
 10
-601.8320114720299
 20
552.4856543928429
 30
0.0
  0
SPLINE
  5
12E
330
1F
100
AcDbEntity
  8
0
100
AcDbSpline
210
0.0
220
0.0
230
1.0
 70
     8
 71
     3
 72
    10
 73
     6
 74
     0
 42
0.000000001
 43
0.00000001
 40
0.0
 40
0.0
 40
0.0
 40
0.0
 40
0.012282902094277
 40
0.5066156390000215
 40
0.9999999999999999
 40
0.9999999999999999
 40
0.9999999999999999
 40
0.9999999999999999
 10
-600.7330632546737
 20
552.9181327601674
 30
0.0
 10
-600.7339631353759
 20
552.9166681482607
 30
0.0
 10
-600.7710792528418
 20
552.8562593546942
 30
0.0
 10
-600.8150009314368
 20
552.7087391886739
 30
0.0
 10
-600.8263449225506
 20
552.559968376384
 30
0.0
 10
-600.8320114720299
 20
552.4856543928429
 30
0.0
  0
CIRCLE
  5
12F
330
1F
100
AcDbEntity
  8
0
100
AcDbCircle
 10
-421.087011472
 20
306.404453513
 30
0.0
 40
177.5000000000001
  0
CIRCLE
  5
130
330
1F
100
AcDbEntity
  8
0
100
AcDbCircle
 10
-421.087011472
 20
306.404453513
 30
0.0
 40
176.5000000000001
  0
CIRCLE
  5
131
330
1F
100
AcDbEntity
  8
0
100
AcDbCircle
 10
-421.087011472
 20
306.404453513
 30
0.0
 40
172.5068224497636
  0
LINE
  5
135
330
1F
100
AcDbEntity
  8
0
100
AcDbLine
 10
-244.592011472
 20
544.4856543928
 30
0.0
 11
-244.592011472
 21
350.8287146211
 31
0.0
  0
LINE
  5
136
330
1F
100
AcDbEntity
  8
0
100
AcDbLine
 10
-244.582011472
 20
350.7889662962
 30
0.0
 11
-244.582011472
 21
544.4856543928
 31
0.0
  0
LINE
  5
137
330
1F
100
AcDbEntity
  8
0
100
AcDbLine
 10
-243.582011472
 20
346.6036447362
 30
0.0
 11
-243.582011472
 21
544.4856543928
 31
0.0
  0
LINE
  5
138
330
1F
100
AcDbEntity
  8
0
100
AcDbLine
 10
-599.582011472
 20
341.9506906556
 30
0.0
 11
-599.582011472
 21
544.4856543928
 31
0.0
  0
ARC
  5
139
330
1F
100
AcDbEntity
  8
0
100
AcDbCircle
 10
11.7144586721
 20
-48.4943875769
 30
0.0
 40
5.499999999999971
100
AcDbArc
 50
36.2861383305
 51
169.5243183036
  0
ARC
  5
13A
330
1F
100
AcDbEntity
  8
0
100
AcDbCircle
 10
11.7144586721
 20
-401.4943875769
 30
0.0
 40
5.499999999999996
100
AcDbArc
 50
190.4756816964
 51
321.2429608445
  0
LINE
  5
13B
330
1F
100
AcDbEntity
  8
0
100
AcDbLine
 10
16.2731073379
 20
-404.571516489
 30
0.0
 11
16.4341537541
 21
-404.3182994617
 31
0.0
  0
ARC
  5
13C
330
1F
100
AcDbEntity
  8
0
100
AcDbCircle
 10
420.5381582091
 20
-48.4943875769
 30
0.0
 40
5.499999999999959
100
AcDbArc
 50
10.4756816964
 51
143.7138616695
  0
ARC
  5
13D
330
1F
100
AcDbEntity
  8
0
100
AcDbCircle
 10
420.5381582091
 20
-401.4943875769
 30
0.0
 40
5.499999999999966
100
AcDbArc
 50
218.8871921748
 51
349.5243183036
  0
LINE
  5
13E
330
1F
100
AcDbEntity
  8
0
100
AcDbLine
 10
459.6277268325
 20
-47.4943875769
 30
0.0
 11
456.6186517168
 21
-51.4875651271
 31
0.0
  0
LINE
  5
13F
330
1F
100
AcDbEntity
  8
0
100
AcDbLine
 10
456.6186517168
 20
-398.5012100266
 30
0.0
 11
459.6277268325
 21
-402.4943875769
 31
0.0
  0
LINE
  5
140
330
1F
100
AcDbEntity
  8
0
100
AcDbLine
 10
441.6067398171
 20
-402.4943875769
 30
0.0
 11
444.6158149329
 21
-398.5012100266
 31
0.0
  0
LINE
  5
141
330
1F
100
AcDbEntity
  8
0
100
AcDbLine
 10
444.6158149329
 20
-51.4875651271
 30
0.0
 11
441.6067398171
 21
-47.4943875769
 31
0.0
  0
LINE
  5
142
330
1F
100
AcDbEntity
  8
0
100
AcDbLine
 10
441.6067398171
 20
-47.4943875769
 30
0.0
 11
425.9464851223
 21
-47.4943875769
 31
0.0
  0
LINE
  5
143
330
1F
100
AcDbEntity
  8
0
100
AcDbLine
 10
425.9464851223
 20
-402.4943875769
 30
0.0
 11
441.6067398171
 21
-402.4943875769
 31
0.0
  0
LINE
  5
144
330
1F
100
AcDbEntity
  8
0
100
AcDbLine
 10
465.1263084406
 20
-47.4943875769
 30
0.0
 11
459.6277268325
 21
-47.4943875769
 31
0.0
  0
LINE
  5
145
330
1F
100
AcDbEntity
  8
0
100
AcDbLine
 10
459.6277268325
 20
-402.4943875769
 30
0.0
 11
465.1263084406
 21
-402.4943875769
 31
0.0
  0
LINE
  5
146
330
1F
100
AcDbEntity
  8
0
100
AcDbLine
 10
6.3061317589
 20
-47.4943875769
 30
0.0
 11
-9.3541229359
 21
-47.4943875769
 31
0.0
  0
LINE
  5
147
330
1F
100
AcDbEntity
  8
0
100
AcDbLine
 10
-9.3541229359
 20
-402.4943875769
 30
0.0
 11
6.3061317589
 21
-402.4943875769
 31
0.0
  0
LINE
  5
148
330
1F
100
AcDbEntity
  8
0
100
AcDbLine
 10
-27.3751099514
 20
-402.4943875769
 30
0.0
 11
-24.3660348356
 21
-398.5012100266
 31
0.0
  0
LINE
  5
149
330
1F
100
AcDbEntity
  8
0
100
AcDbLine
 10
-24.3660348356
 20
-51.4875651271
 30
0.0
 11
-27.3751099514
 21
-47.4943875769
 31
0.0
  0
LINE
  5
14A
330
1F
100
AcDbEntity
  8
0
100
AcDbLine
 10
-27.3751099514
 20
-47.4943875769
 30
0.0
 11
-32.8736915594
 21
-47.4943875769
 31
0.0
  0
LINE
  5
14B
330
1F
100
AcDbEntity
  8
0
100
AcDbLine
 10
-32.8736915594
 20
-402.4943875769
 30
0.0
 11
-27.3751099514
 21
-402.4943875769
 31
0.0
  0
LINE
  5
14C
330
1F
100
AcDbEntity
  8
0
100
AcDbLine
 10
-9.3541229359
 20
-47.4943875769
 30
0.0
 11
-12.3631980517
 21
-51.4875651271
 31
0.0
  0
LINE
  5
14D
330
1F
100
AcDbEntity
  8
0
100
AcDbLine
 10
-12.3631980517
 20
-398.5012100266
 30
0.0
 11
-9.3541229359
 21
-402.4943875769
 31
0.0
  0
LINE
  5
14E
330
1F
100
AcDbEntity
  8
0
100
AcDbLine
 10
-12.3631980517
 20
-51.4875651271
 30
0.0
 11
-24.3660348356
 21
-51.4875651271
 31
0.0
  0
LINE
  5
14F
330
1F
100
AcDbEntity
  8
0
100
AcDbLine
 10
-24.3660348356
 20
-398.5012100266
 30
0.0
 11
-12.3631980517
 21
-398.5012100266
 31
0.0
  0
LINE
  5
150
330
1F
100
AcDbEntity
  8
0
100
AcDbLine
 10
456.6186517168
 20
-51.4875651271
 30
0.0
 11
444.6158149329
 21
-51.4875651271
 31
0.0
  0
LINE
  5
151
330
1F
100
AcDbEntity
  8
0
100
AcDbLine
 10
444.6158149329
 20
-398.5012100266
 30
0.0
 11
456.6186517168
 21
-398.5012100266
 31
0.0
  0
SPLINE
  5
152
330
1F
100
AcDbEntity
  8
0
100
AcDbSpline
210
0.0
220
0.0
230
1.0
 70
     8
 71
     3
 72
    12
 73
     8
 74
     0
 42
0.000000001
 43
0.00000001
 40
0.0
 40
0.0
 40
0.0
 40
0.0
 40
0.1610097619672572
 40
0.2967945195699577
 40
0.4938478027865331
 40
0.695172846548362
 40
1.0
 40
1.0
 40
1.0
 40
1.0
 10
15.8763084405909
 20
-46.31009825500071
 30
0.0
 10
15.88425695539847
 20
-46.33799538935396
 30
0.0
 10
15.8989087107006
 20
-46.38941908246785
 30
0.0
 10
16.01687047881001
 20
-46.48962135900814
 30
0.0
 10
16.21287726557463
 20
-46.63090528849811
 30
0.0
 10
16.4987750035191
 20
-46.91143768393466
 30
0.0
 10
16.73440292491885
 20
-47.11611929358963
 30
0.0
 10
16.87630844059051
 20
-47.23938757688168
 30
0.0
  0
SPLINE
  5
153
330
1F
100
AcDbEntity
  8
0
100
AcDbSpline
210
0.0
220
0.0
230
1.0
 70
     8
 71
     3
 72
    12
 73
     8
 74
     0
 42
0.000000001
 43
0.00000001
 40
0.0
 40
0.0
 40
0.0
 40
0.0
 40
0.1752951834467458
 40
0.3214207699661041
 40
0.5258527576712745
 40
0.7177681864910925
 40
1.0
 40
1.0
 40
1.0
 40
1.0
 10
14.87630844059085
 20
-46.31009825500068
 30
0.0
 10
14.89203174650017
 20
-46.33789108280317
 30
0.0
 10
14.92086195730458
 20
-46.3888519360118
 30
0.0
 10
15.15298160707096
 20
-46.4881857090475
 30
0.0
 10
15.52699560884152
 20
-46.6212096940267
 30
0.0
 10
16.11332424907086
 20
-46.90730953325842
 30
0.0
 10
16.5916120170323
 20
-47.11547749799341
 30
0.0
 10
16.87630844059018
 20
-47.23938757688168
 30
0.0
  0
LINE
  5
154
330
1F
100
AcDbEntity
  8
0
100
AcDbLine
 10
14.8763084406
 20
-46.310098255
 30
0.0
 11
15.8763084406
 21
-46.310098255
 31
0.0
  0
SPLINE
  5
155
330
1F
100
AcDbEntity
  8
0
100
AcDbSpline
210
0.0
220
0.0
230
1.0
 70
     8
 71
     3
 72
    17
 73
    13
 74
     0
 42
0.000000001
 43
0.00000001
 40
0.0
 40
0.0
 40
0.0
 40
0.0
 40
0.1688039623481278
 40
0.3425417908329383
 40
0.4485079804360493
 40
0.5569311468994916
 40
0.6460190190391545
 40
0.7375278984887275
 40
0.8267208141649438
 40
0.919210470326872
 40
0.9594468292677383
 40
1.0
 40
1.0
 40
1.0
 40
1.0
 10
16.87630844059101
 20
-47.2393875768819
 30
0.0
 10
16.80229107909342
 20
-47.16430468591104
 30
0.0
 10
16.65209294862635
 20
-47.01194435279854
 30
0.0
 10
16.46066346309899
 20
-46.8174445726697
 30
0.0
 10
16.30545350472779
 20
-46.65702190707518
 30
0.0
 10
16.19859175538818
 20
-46.53626766557034
 30
0.0
 10
16.11132726930819
 20
-46.43241428348988
 30
0.0
 10
16.04420835202031
 20
-46.34966013667716
 30
0.0
 10
15.99259644449841
 20
-46.28552093290095
 30
0.0
 10
15.96516988436292
 20
-46.25360792171129
 30
0.0
 10
15.95185691528811
 20
-46.24105346017182
 30
0.0
 10
15.94863592787865
 20
-46.23994432112185
 30
0.0
 10
15.94701911870966
 20
-46.23938757688234
 30
0.0
  0
LINE
  5
156
330
1F
100
AcDbEntity
  8
0
100
AcDbLine
 10
15.9470191187
 20
-45.2393875769
 30
0.0
 11
15.9470191187
 21
-46.2393875769
 31
0.0
  0
SPLINE
  5
157
330
1F
100
AcDbEntity
  8
0
100
AcDbSpline
210
0.0
220
0.0
230
1.0
 70
     8
 71
     3
 72
    17
 73
    13
 74
     0
 42
0.000000001
 43
0.00000001
 40
0.0
 40
0.0
 40
0.0
 40
0.0
 40
0.1241163183982545
 40
0.2518653380942312
 40
0.3750448834054768
 40
0.5026621380179481
 40
0.6125659795378685
 40
0.7263414372367298
 40
0.8262160101834802
 40
0.9291887821623583
 40
0.9645279791889289
 40
0.9999999999999999
 40
0.9999999999999999
 40
0.9999999999999999
 40
0.9999999999999999
 10
16.87630844059101
 20
-47.23938757688156
 30
0.0
 10
16.81564404457531
 20
-47.11667343158771
 30
0.0
 10
16.69253969528462
 20
-46.8676534792378
 30
0.0
 10
16.51626694627556
 20
-46.50624449839383
 30
0.0
 10
16.34654930374235
 20
-46.16401831563513
 30
0.0
 10
16.21230381637373
 20
-45.86594812672298
 30
0.0
 10
16.10805708687219
 20
-45.6178445926399
 30
0.0
 10
16.0347446845952
 20
-45.43630137332341
 30
0.0
 10
15.98415890615029
 20
-45.3111160006818
 30
0.0
 10
15.96082418327455
 20
-45.25868846599959
 30
0.0
 10
15.95058353524625
 20
-45.24138021115515
 30
0.0
 10
15.94820874239045
 20
-45.24005261838177
 30
0.0
 10
15.94701911870966
 20
-45.23938757688234
 30
0.0
  0
LINE
  5
158
330
1F
100
AcDbEntity
  8
0
100
AcDbLine
 10
416.3055977625
 20
-45.2393875769
 30
0.0
 11
15.9470191187
 21
-45.2393875769
 31
0.0
  0
SPLINE
  5
159
330
1F
100
AcDbEntity
  8
0
100
AcDbSpline
210
0.0
220
0.0
230
1.0
 70
     8
 71
     3
 72
    17
 73
    13
 74
     0
 42
0.000000001
 43
0.00000001
 40
0.0
 40
0.0
 40
0.0
 40
0.0
 40
0.1029161676618872
 40
0.2088149593801812
 40
0.3117914827488467
 40
0.4177416249584329
 40
0.5207761242494918
 40
0.6271305107041699
 40
0.7282926525510509
 40
0.8316130608932458
 40
0.9152326404229659
 40
1.0
 40
1.0
 40
1.0
 40
1.0
 10
416.3055977624722
 20
-45.23938757688656
 30
0.0
 10
416.2894832772894
 20
-45.24483512558047
 30
0.0
 10
416.2567872913688
 20
-45.25588809893824
 30
0.0
 10
416.2026537175369
 20
-45.34452241812919
 30
0.0
 10
416.1417312058862
 20
-45.48412642159125
 30
0.0
 10
416.0722542550445
 20
-45.67256953151247
 30
0.0
 10
415.9825044428309
 20
-45.90447932266809
 30
0.0
 10
415.8588762818868
 20
-46.15959308337936
 30
0.0
 10
415.7308909405864
 20
-46.43980699057443
 30
0.0
 10
415.6077822513684
 20
-46.71624917198014
 30
0.0
 10
415.4889541041532
 20
-46.98534815959795
 30
0.0
 10
415.4140272370626
 20
-47.15432384009036
 30
0.0
 10
415.376308440591
 20
-47.23938757688645
 30
0.0
  0
SPLINE
  5
15D
330
1F
100
AcDbEntity
  8
0
100
AcDbSpline
210
0.0
220
0.0
230
1.0
 70
     8
 71
     3
 72
    17
 73
    13
 74
     0
 42
0.000000001
 43
0.00000001
 40
0.0
 40
0.0
 40
0.0
 40
0.0
 40
0.0976097536701021
 40
0.1980862175622092
 40
0.2956850912947209
 40
0.3960878237616782
 40
0.493660197000959
 40
0.5945389833976064
 40
0.742043509690122
 40
0.8937313826851506
 40
0.9467839155163558
 40
0.9999999999999999
 40
0.9999999999999999
 40
0.9999999999999999
 40
0.9999999999999999
 10
416.3055977624722
 20
-46.23938757688656
 30
0.0
 10
416.2889048676968
 20
-46.24231385507627
 30
0.0
 10
416.2550288229174
 20
-46.24825235360061
 30
0.0
 10
416.1991101046195
 20
-46.29539144189676
 30
0.0
 10
416.1364201236685
 20
-46.36847415890124
 30
0.0
 10
416.0657769010823
 20
-46.46520214667135
 30
0.0
 10
415.9756651418132
 20
-46.57880558441024
 30
0.0
 10
415.8445448966253
 20
-46.71437383158877
 30
0.0
 10
415.6885845957656
 20
-46.88638110401877
 30
0.0
 10
415.5466602020742
 20
-47.04705134188403
 30
0.0
 10
415.4415990852565
 20
-47.16582045905238
 30
0.0
 10
415.3980943073439
 20
-47.21484005656801
 30
0.0
 10
415.376308440591
 20
-47.23938757688642
 30
0.0
  0
LINE
  5
15E
330
1F
100
AcDbEntity
  8
0
100
AcDbLine
 10
416.3055977625
 20
-45.2393875769
 30
0.0
 11
416.3055977625
 21
-46.2393875769
 31
0.0
  0
SPLINE
  5
15F
330
1F
100
AcDbEntity
  8
0
100
AcDbSpline
210
0.0
220
0.0
230
1.0
 70
     8
 71
     3
 72
    11
 73
     7
 74
     0
 42
0.000000001
 43
0.00000001
 40
0.0
 40
0.0
 40
0.0
 40
0.0
 40
0.2784597413435894
 40
0.5367337602595482
 40
0.7765335565500018
 40
1.0
 40
1.0
 40
1.0
 40
1.0
 10
415.3763084405908
 20
-47.23938757688645
 30
0.0
 10
415.6559756082775
 20
-47.11434329039479
 30
0.0
 10
416.1950366941253
 20
-46.87331925667338
 30
0.0
 10
416.8625126559487
 20
-46.59886330412638
 30
0.0
 10
417.2952812212629
 20
-46.3999471884261
 30
0.0
 10
417.3499417553156
 20
-46.33933557265549
 30
0.0
 10
417.3763084405908
 20
-46.31009825500501
 30
0.0
  0
LINE
  5
160
330
1F
100
AcDbEntity
  8
0
100
AcDbLine
 10
417.3763084406
 20
-404.6686768988
 30
0.0
 11
417.3763084406
 21
-46.310098255
 31
0.0
  0
SPLINE
  5
161
330
1F
100
AcDbEntity
  8
0
100
AcDbSpline
210
0.0
220
0.0
230
1.0
 70
     8
 71
     3
 72
    17
 73
    13
 74
     0
 42
0.000000001
 43
0.00000001
 40
0.0
 40
0.0
 40
0.0
 40
0.0
 40
0.0961121301545124
 40
0.1950107973155917
 40
0.2912004070071658
 40
0.39009104195935
 40
0.4880270280691454
 40
0.5885698797272206
 40
0.6910783361868604
 40
0.7959809231726198
 40
0.8970229223033831
 40
0.9999999999999999
 40
0.9999999999999999
 40
0.9999999999999999
 40
0.9999999999999999
 10
417.376308440587
 20
-404.6686768987675
 30
0.0
 10
417.3714207757275
 20
-404.6644999786882
 30
0.0
 10
417.361503740076
 20
-404.6560250389103
 30
0.0
 10
417.2820855802415
 20
-404.6223948131511
 30
0.0
 10
417.1574269329735
 20
-404.5721310659717
 30
0.0
 10
416.9888148122257
 20
-404.5038143298461
 30
0.0
 10
416.7802068638091
 20
-404.4160980970877
 30
0.0
 10
416.5380734939748
 20
-404.3087713321046
 30
0.0
 10
416.2678941093826
 20
-404.1782663556647
 30
0.0
 10
415.980118972339
 20
-404.0362399259408
 30
0.0
 10
415.6797580986007
 20
-403.8895193177372
 30
0.0
 10
415.4780959012761
 20
-403.7897469306256
 30
0.0
 10
415.3763084405871
 20
-403.7393875768861
 30
0.0
  0
SPLINE
  5
162
330
1F
100
AcDbEntity
  8
0
100
AcDbSpline
210
0.0
220
0.0
230
1.0
 70
     8
 71
     3
 72
    12
 73
     8
 74
     0
 42
0.000000001
 43
0.00000001
 40
0.0
 40
0.0
 40
0.0
 40
0.0
 40
0.300137861841611
 40
0.5636193402043094
 40
0.7945352495236073
 40
0.9001041952903261
 40
0.9999999999999999
 40
0.9999999999999999
 40
0.9999999999999999
 40
0.9999999999999999
 10
415.3763084405908
 20
-47.23938757688645
 30
0.0
 10
415.5143447696792
 20
-47.11573558409862
 30
0.0
 10
415.7735587996841
 20
-46.88353344151513
 30
0.0
 10
416.1137895892174
 20
-46.60410424901259
 30
0.0
 10
416.2947364016795
 20
-46.43623986323292
 30
0.0
 10
416.3664547351493
 20
-46.34789154839386
 30
0.0
 10
416.3730848944656
 20
-46.32246197190168
 30
0.0
 10
416.3763084405908
 20
-46.31009825500515
 30
0.0
  0
LINE
  5
163
330
1F
100
AcDbEntity
  8
0
100
AcDbLine
 10
417.3763084406
 20
-46.310098255
 30
0.0
 11
416.3763084406
 21
-46.310098255
 31
0.0
  0
SPLINE
  5
164
330
1F
100
AcDbEntity
  8
0
100
AcDbSpline
210
0.0
220
0.0
230
1.0
 70
     8
 71
     3
 72
    12
 73
     8
 74
     0
 42
0.000000001
 43
0.00000001
 40
0.0
 40
0.0
 40
0.0
 40
0.0
 40
0.2519211223520742
 40
0.5025339707913304
 40
0.726098412848921
 40
0.9289498881546454
 40
1.0
 40
1.0
 40
1.0
 40
1.0
 10
16.87630844058663
 20
-403.7393875768806
 30
0.0
 10
16.62735732624238
 20
-403.8623459491439
 30
0.0
 10
16.13074794765496
 20
-404.1076241476473
 30
0.0
 10
15.48900194691888
 20
-404.4154786070641
 30
0.0
 10
15.05097670096722
 20
-404.5893917372109
 30
0.0
 10
14.88992487156809
 20
-404.6549599491634
 30
0.0
 10
14.87911303307621
 20
-404.6658516023343
 30
0.0
 10
14.87630844058707
 20
-404.6686768987628
 30
0.0
  0
LINE
  5
165
330
1F
100
AcDbEntity
  8
0
100
AcDbLine
 10
14.8763084406
 20
-46.310098255
 30
0.0
 11
14.8763084406
 21
-404.6686768988
 31
0.0
  0
LWPOLYLINE
  5
166
330
1F
100
AcDbEntity
  8
0
100
AcDbPolyline
 90
        2
 70
   128
 43
0.0
 10
415.3763084406
 20
-403.7393875769
 10
415.3763084406
 20
-403.7393875769
  0
SPLINE
  5
167
330
1F
100
AcDbEntity
  8
0
100
AcDbSpline
210
0.0
220
0.0
230
1.0
 70
     8
 71
     3
 72
    13
 73
     9
 74
     0
 42
0.000000001
 43
0.00000001
 40
0.0
 40
0.0
 40
0.0
 40
0.0
 40
0.2842973950030994
 40
0.5069896129351297
 40
0.6352897936971923
 40
0.7586952793942991
 40
0.8794634864226206
 40
0.9999999999999999
 40
0.9999999999999999
 40
0.9999999999999999
 40
0.9999999999999999
 10
415.3763084405874
 20
-403.739387576886
 30
0.0
 10
415.5009859184324
 20
-403.8658802470875
 30
0.0
 10
415.7233241717732
 20
-404.0914555461642
 30
0.0
 10
415.9816925787592
 20
-404.356861139784
 30
0.0
 10
416.1326221659538
 20
-404.5354639422176
 30
0.0
 10
416.2237947661375
 20
-404.6481365790744
 30
0.0
 10
416.2850871147569
 20
-404.7245207267202
 30
0.0
 10
416.2987652576771
 20
-404.7344351333347
 30
0.0
 10
416.3055977624688
 20
-404.7393875768862
 30
0.0
  0
LINE
  5
168
330
1F
100
AcDbEntity
  8
0
100
AcDbLine
 10
416.3055977625
 20
-405.7393875769
 30
0.0
 11
416.3055977625
 21
-404.7393875769
 31
0.0
  0
SPLINE
  5
169
330
1F
100
AcDbEntity
  8
0
100
AcDbSpline
210
0.0
220
0.0
230
1.0
 70
     8
 71
     3
 72
    13
 73
     9
 74
     0
 42
0.000000001
 43
0.00000001
 40
0.0
 40
0.0
 40
0.0
 40
0.0
 40
0.2573477005719942
 40
0.4687587782566221
 40
0.5993037099155316
 40
0.7308512418985578
 40
0.8641703966668626
 40
1.0
 40
1.0
 40
1.0
 40
1.0
 10
415.3763084405874
 20
-403.739387576886
 30
0.0
 10
415.5020860317678
 20
-403.9944751123355
 30
0.0
 10
415.7311898855917
 20
-404.4591170003335
 30
0.0
 10
415.9885576458244
 20
-404.9896723229472
 30
0.0
 10
416.1349720779019
 20
-405.3373964146604
 30
0.0
 10
416.2251241305864
 20
-405.5602041422463
 30
0.0
 10
416.2854186519854
 20
-405.7103511960955
 30
0.0
 10
416.2988296957433
 20
-405.7296487847417
 30
0.0
 10
416.3055977624688
 20
-405.7393875768862
 30
0.0
  0
LINE
  5
16A
330
1F
100
AcDbEntity
  8
0
100
AcDbLine
 10
15.9470191187
 20
-405.7393875769
 30
0.0
 11
416.3055977625
 21
-405.7393875769
 31
0.0
  0
SPLINE
  5
16B
330
1F
100
AcDbEntity
  8
0
100
AcDbSpline
210
0.0
220
0.0
230
1.0
 70
     8
 71
     3
 72
    12
 73
     8
 74
     0
 42
0.000000001
 43
0.00000001
 40
0.0
 40
0.0
 40
0.0
 40
0.0
 40
0.1752903340237328
 40
0.3214142848521055
 40
0.5258527695588269
 40
0.71776821705389
 40
0.9999999999999999
 40
0.9999999999999999
 40
0.9999999999999999
 40
0.9999999999999999
 10
15.94701911870644
 20
-405.7393875768819
 30
0.0
 10
15.97481005517665
 20
-405.7236651014239
 30
0.0
 10
16.02576782201942
 20
-405.6948361974596
 30
0.0
 10
16.12510043609344
 20
-405.4627213468839
 30
0.0
 10
16.25812869405652
 20
-405.0887061541545
 30
0.0
 10
16.54422993801774
 20
-404.5023716859348
 30
0.0
 10
16.75239819691404
 20
-404.0240839548171
 30
0.0
 10
16.87630844058752
 20
-403.739387576882
 30
0.0
  0
SPLINE
  5
16C
330
1F
100
AcDbEntity
  8
0
100
AcDbSpline
210
0.0
220
0.0
230
1.0
 70
     8
 71
     3
 72
    17
 73
    13
 74
     0
 42
0.000000001
 43
0.00000001
 40
0.0
 40
0.0
 40
0.0
 40
0.0
 40
0.0783106946668018
 40
0.1590308569404796
 40
0.2373158693694866
 40
0.317700105197995
 40
0.3996908647299992
 40
0.483484635418884
 40
0.6039801461566319
 40
0.7279011553322188
 40
0.8627062477950155
 40
0.9999999999999999
 40
0.9999999999999999
 40
0.9999999999999999
 40
0.9999999999999999
 10
416.376308440587
 20
-404.6686768987676
 30
0.0
 10
416.3742267082745
 20
-404.6649332638519
 30
0.0
 10
416.3699991927992
 20
-404.6573308096627
 30
0.0
 10
416.3365878207755
 20
-404.6285397982521
 30
0.0
 10
416.2852253851048
 20
-404.586868078964
 30
0.0
 10
416.2168327882287
 20
-404.5317177914461
 30
0.0
 10
416.1336070092688
 20
-404.4629892824466
 30
0.0
 10
416.0254178044445
 20
-404.3700933481899
 30
0.0
 10
415.8914531577724
 20
-404.2471056692485
 30
0.0
 10
415.7321343148826
 20
-404.0888273045506
 30
0.0
 10
415.5581184575669
 20
-403.9191844503312
 30
0.0
 10
415.4372801816744
 20
-403.7996841908907
 30
0.0
 10
415.3763084405871
 20
-403.739387576886
 30
0.0
  0
LINE
  5
16D
330
1F
100
AcDbEntity
  8
0
100
AcDbLine
 10
417.3763084406
 20
-404.6686768988
 30
0.0
 11
416.3763084406
 21
-404.6686768988
 31
0.0
  0
SPLINE
  5
16E
330
1F
100
AcDbEntity
  8
0
100
AcDbSpline
210
0.0
220
0.0
230
1.0
 70
     8
 71
     3
 72
    12
 73
     8
 74
     0
 42
0.000000001
 43
0.00000001
 40
0.0
 40
0.0
 40
0.0
 40
0.0
 40
0.3424670398779918
 40
0.556939399433356
 40
0.7375364512824806
 40
0.9190109727701553
 40
1.0
 40
1.0
 40
1.0
 40
1.0
 10
16.87630844058685
 20
-403.7393875768806
 30
0.0
 10
16.7243399567204
 20
-403.890532431136
 30
0.0
 10
16.47720015556597
 20
-404.1363327989214
 30
0.0
 10
16.17362143689327
 20
-404.4206203109085
 30
0.0
 10
15.97648265543233
 20
-404.579704245731
 30
0.0
 10
15.88608691433185
 20
-404.651922874515
 30
0.0
 10
15.87861428754184
 20
-404.6647261579006
 30
0.0
 10
15.87630844058707
 20
-404.6686768987628
 30
0.0
  0
LINE
  5
16F
330
1F
100
AcDbEntity
  8
0
100
AcDbLine
 10
14.8763084406
 20
-404.6686768988
 30
0.0
 11
15.8763084406
 21
-404.6686768988
 31
0.0
  0
SPLINE
  5
170
330
1F
100
AcDbEntity
  8
0
100
AcDbSpline
210
0.0
220
0.0
230
1.0
 70
     8
 71
     3
 72
    12
 73
     8
 74
     0
 42
0.000000001
 43
0.00000001
 40
0.0
 40
0.0
 40
0.0
 40
0.0
 40
0.1610049262749027
 40
0.2967880205657976
 40
0.4938478747863836
 40
0.6951729121271318
 40
1.0
 40
1.0
 40
1.0
 40
1.0
 10
15.94701911870644
 20
-404.7393875768819
 30
0.0
 10
15.97491435854653
 20
-404.7314394763111
 30
0.0
 10
16.02633497782136
 20
-404.7167883653776
 30
0.0
 10
16.12653633140798
 20
-404.5988287640803
 30
0.0
 10
16.26782431377821
 20
-404.4028217188339
 30
0.0
 10
16.54835810132121
 20
-404.1169208766081
 30
0.0
 10
16.75303999514233
 20
-403.8812930344739
 30
0.0
 10
16.87630844058752
 20
-403.739387576882
 30
0.0
  0
LINE
  5
171
330
1F
100
AcDbEntity
  8
0
100
AcDbLine
 10
15.9470191187
 20
-405.7393875769
 30
0.0
 11
15.9470191187
 21
-404.7393875769
 31
0.0
  0
LINE
  5
172
330
1F
100
AcDbEntity
  8
0
100
AcDbLine
 10
6.3061317589
 20
-47.4943875769
 30
0.0
 11
6.3061317589
 21
-402.4943875769
 31
0.0
  0
LINE
  5
173
330
1F
100
AcDbEntity
  8
0
100
AcDbLine
 10
425.9464851223
 20
-47.4943875769
 30
0.0
 11
425.9464851223
 21
-402.4943875769
 31
0.0
  0
LINE
  5
174
330
1F
100
AcDbEntity
  8
0
100
AcDbLine
 10
456.6186517168
 20
-51.4875651271
 30
0.0
 11
456.6186517168
 21
-398.5012100266
 31
0.0
  0
LINE
  5
175
330
1F
100
AcDbEntity
  8
0
100
AcDbLine
 10
459.6277268325
 20
-47.4943875769
 30
0.0
 11
459.6277268325
 21
-402.4943875769
 31
0.0
  0
LINE
  5
176
330
1F
100
AcDbEntity
  8
0
100
AcDbLine
 10
441.6067398171
 20
-47.4943875769
 30
0.0
 11
441.6067398171
 21
-402.4943875769
 31
0.0
  0
LINE
  5
177
330
1F
100
AcDbEntity
  8
0
100
AcDbLine
 10
444.6158149329
 20
-51.4875651271
 30
0.0
 11
444.6158149329
 21
-398.5012100266
 31
0.0
  0
LINE
  5
178
330
1F
100
AcDbEntity
  8
0
100
AcDbLine
 10
465.1263084406
 20
-47.4943875769
 30
0.0
 11
465.1263084406
 21
-402.4943875769
 31
0.0
  0
LINE
  5
179
330
1F
100
AcDbEntity
  8
0
100
AcDbLine
 10
-9.3541229359
 20
-47.4943875769
 30
0.0
 11
-9.3541229359
 21
-402.4943875769
 31
0.0
  0
LINE
  5
17A
330
1F
100
AcDbEntity
  8
0
100
AcDbLine
 10
-27.3751099514
 20
-47.4943875769
 30
0.0
 11
-27.3751099514
 21
-402.4943875769
 31
0.0
  0
LINE
  5
17B
330
1F
100
AcDbEntity
  8
0
100
AcDbLine
 10
-24.3660348356
 20
-51.4875651271
 30
0.0
 11
-24.3660348356
 21
-398.5012100266
 31
0.0
  0
LINE
  5
17C
330
1F
100
AcDbEntity
  8
0
100
AcDbLine
 10
-32.8736915594
 20
-47.4943875769
 30
0.0
 11
-32.8736915594
 21
-402.4943875769
 31
0.0
  0
LINE
  5
17D
330
1F
100
AcDbEntity
  8
0
100
AcDbLine
 10
-12.3631980517
 20
-51.4875651271
 30
0.0
 11
-12.3631980517
 21
-398.5012100266
 31
0.0
  0
LINE
  5
1D2
330
1F
100
AcDbEntity
  8
Asine
 62
     1
100
AcDbLine
 10
-19.81731279937844
 20
307.7613022358284
 30
0.0
 11
423.291417721842
 21
307.7822714486744
 31
0.0
  0
LINE
  5
1D3
330
1F
100
AcDbEntity
  8
Asine
 62
     1
100
AcDbLine
 10
-40.02489002062885
 20
-231.4190088055235
 30
0.0
 11
478.5650999042464
 21
-231.4190088055235
 31
0.0
  0
LINE
  5
1D4
330
1F
100
AcDbEntity
  8
Asine
 62
     1
100
AcDbLine
 10
-588.1984819773708
 20
304.2707913519358
 30
0.0
 11
-414.4371360533379
 21
304.2707913519358
 31
0.0
  0
LINE
  5
1D5
330
1F
100
AcDbEntity
  8
Asine
 62
     1
100
AcDbLine
 10
-406.937136053337
 20
304.2707913519358
 30
0.0
 11
-253.8200794843925
 21
304.2707913519358
 31
0.0
  0
LINE
  5
1D6
330
1F
100
AcDbEntity
  8
0
 62
     7
100
AcDbLine
 10
-424.5242044606957
 20
478.8770295825674
 30
0.0
 11
-424.5242044606968
 21
347.1212206137867
 31
0.0
  0
ARC
  5
1D7
330
1F
100
AcDbEntity
  8
0
 62
     7
100
AcDbCircle
 10
-427.4603344396384
 20
303.2414838089436
 30
0.0
 40
43.97785989922142
100
AcDbArc
 50
86.17186729130562
 51
0.6558520116744222
  0
LINE
  5
1D8
330
1F
100
AcDbEntity
  8
0
 62
     7
100
AcDbLine
 10
-420.1119706842957
 20
478.908520384412
 30
0.0
 11
-420.1119706842957
 21
343.4949227166118
 31
0.0
  0
ARC
  5
1D9
330
1F
100
AcDbEntity
  8
0
 62
     7
100
AcDbCircle
 10
-427.4307808304985
 20
303.1720623965026
 30
0.0
 40
36.17643474380624
100
AcDbArc
 50
87.22797129959072
 51
0.0
  0
ARC
  5
1DA
330
1F
100
AcDbEntity
  8
0
 62
     7
100
AcDbCircle
 10
-418.9581690064871
 20
301.3128468484957
 30
0.0
 40
27.76613921353205
100
AcDbArc
 50
3.839387512911586
 51
110.7216303267807
  0
ARC
  5
1DB
330
1F
100
AcDbEntity
  8
0
 62
     7
100
AcDbCircle
 10
-418.6048611655343
 20
299.1591130518779
 30
0.0
 40
35.41763545292872
100
AcDbArc
 50
7.439363589250031
 51
109.5469660008367
  0
ARC
  5
1DC
330
1F
100
AcDbEntity
  8
0
 62
     7
100
AcDbCircle
 10
-429.4683591547283
 20
329.9570515443758
 30
0.0
 40
2.76076643551009
100
AcDbArc
 50
107.922481891072
 51
295.9159947525096
  0
ARC
  5
1DD
330
1F
100
AcDbEntity
  8
0
 62
     7
100
AcDbCircle
 10
-426.6340629689995
 20
346.4746076168759
 30
0.0
 40
7.170509736068928
100
AcDbArc
 50
263.6206735507424
 51
335.446222015492
  0
LINE
  5
1DE
330
1F
100
AcDbEntity
  8
Asine
 62
     1
100
AcDbLine
 10
-421.9371360533379
 20
131.7441371656879
 30
0.0
 11
-421.9371360533379
 21
478.9091812160705
 31
0.0
  0
ENDSEC
  0
SECTION
  2
OBJECTS
  0
DICTIONARY
  5
C
330
0
100
AcDbDictionary
281
     1
  3
ACAD_COLOR
350
1B9
  3
ACAD_DETAILVIEWSTYLE
350
1EA
  3
ACAD_GROUP
350
D
  3
ACAD_LAYOUT
350
1A
  3
ACAD_MATERIAL
350
19A
  3
ACAD_MLEADERSTYLE
350
1A0
  3
ACAD_MLINESTYLE
350
17
  3
ACAD_PLOTSETTINGS
350
19
  3
ACAD_PLOTSTYLENAME
350
E
  3
ACAD_SCALELIST
350
47
  3
ACAD_SECTIONVIEWSTYLE
350
1EB
  3
ACAD_TABLESTYLE
350
19E
  3
ACAD_VISUALSTYLE
350
181
  3
ACDB_RECOMPOSE_DATA
350
1E6
  3
AcDbVariableDictionary
350
1E1
  3
APPDATA
350
1A2
  0
DICTIONARY
  5
1CD
330
2
100
AcDbDictionary
280
     1
281
     1
  3
ACAD_LAYERSTATES
360
1CE
  0
DICTIONARY
  5
1DF
330
1F
100
AcDbDictionary
280
     1
281
     1
  3
DIM_BOUNDING_BOXES_V1
360
1E0
  0
DICTIONARY
  5
1B9
102
{ACAD_REACTORS
330
C
102
}
330
C
100
AcDbDictionary
281
     1
  0
DICTIONARY
  5
1EA
102
{ACAD_REACTORS
330
C
102
}
330
C
100
AcDbDictionary
281
     1
  0
DICTIONARY
  5
D
102
{ACAD_REACTORS
330
C
102
}
330
C
100
AcDbDictionary
281
     1
  0
DICTIONARY
  5
1A
102
{ACAD_REACTORS
330
C
102
}
330
C
100
AcDbDictionary
281
     1
  3
Layout1
350
1E
  3
Layout2
350
26
  3
Model
350
22
  0
DICTIONARY
  5
19A
102
{ACAD_REACTORS
330
C
102
}
330
C
100
AcDbDictionary
281
     1
  3
ByBlock
350
19C
  3
ByLayer
350
19B
  3
Global
350
19D
  0
DICTIONARY
  5
1A0
102
{ACAD_REACTORS
330
C
102
}
330
C
100
AcDbDictionary
281
     1
  3
Standard
350
1A1
  0
DICTIONARY
  5
17
102
{ACAD_REACTORS
330
C
102
}
330
C
100
AcDbDictionary
281
     1
  3
Standard
350
18
  0
DICTIONARY
  5
19
102
{ACAD_REACTORS
330
C
102
}
330
C
100
AcDbDictionary
281
     1
  0
ACDBDICTIONARYWDFLT
  5
E
102
{ACAD_REACTORS
330
C
102
}
330
C
100
AcDbDictionary
281
     1
  3
Normal
350
F
100
AcDbDictionaryWithDefault
340
F
  0
DICTIONARY
  5
47
102
{ACAD_REACTORS
330
C
102
}
330
C
100
AcDbDictionary
281
     1
  3
A0
350
48
  3
A1
350
49
  3
A2
350
4A
  3
A3
350
4B
  3
A4
350
4C
  3
A5
350
4D
  3
A6
350
4E
  3
A7
350
4F
  3
A8
350
50
  3
A9
350
51
  3
B0
350
52
  3
B1
350
53
  3
B2
350
54
  3
B3
350
55
  3
B4
350
56
  3
B5
350
57
  3
B6
350
58
  3
B7
350
59
  3
B8
350
5A
  3
B9
350
5B
  3
C0
350
5C
  3
C1
350
5D
  3
C2
350
5E
  3
C3
350
5F
  3
C4
350
60
  3
C5
350
61
  3
C6
350
62
  3
C7
350
63
  3
C8
350
64
  3
C9
350
65
  3
D0
350
66
  3
D1
350
67
  3
D2
350
68
  0
DICTIONARY
  5
1EB
102
{ACAD_REACTORS
330
C
102
}
330
C
100
AcDbDictionary
281
     1
  0
DICTIONARY
  5
19E
102
{ACAD_REACTORS
330
C
102
}
330
C
100
AcDbDictionary
281
     1
  3
Standard
350
19F
  0
DICTIONARY
  5
181
102
{ACAD_REACTORS
330
C
102
}
330
C
100
AcDbDictionary
281
     1
  3
2dWireframe
350
186
  3
Basic
350
189
  3
Brighten
350
18D
  3
ColorChange
350
191
  3
Conceptual
350
18B
  3
Dim
350
18C
  3
EdgeColorOff
350
194
  3
Facepattern
350
190
  3
Flat
350
182
  3
FlatWithEdges
350
183
  3
Gouraud
350
184
  3
GouraudWithEdges
350
185
  3
Hidden
350
188
  3
JitterOff
350
192
  3
Linepattern
350
18F
  3
OverhangOff
350
193
  3
Realistic
350
18A
  3
Shaded
350
199
  3
Shaded with edges
350
198
  3
Shades of Gray
350
195
  3
Sketchy
350
196
  3
Thicken
350
18E
  3
Wireframe
350
187
  3
X-Ray
350
197
  0
XRECORD
  5
1E6
102
{ACAD_REACTORS
330
C
102
}
330
C
100
AcDbXrecord
280
     1
 90
        1
330
19F
  0
DICTIONARY
  5
1E1
102
{ACAD_REACTORS
330
C
102
}
330
C
100
AcDbDictionary
281
     1
  3
CANNOSCALE
350
1E2
  3
CMLEADERSTYLE
350
1E8
  3
CTABLESTYLE
350
1E7
  3
MSLTSCALE
350
1E9
  0
DICTIONARY
  5
1A2
102
{ACAD_REACTORS
330
C
102
}
330
C
100
AcDbDictionary
281
     1
  0
DICTIONARY
  5
1CE
102
{ACAD_REACTORS
330
1CD
102
}
330
1CD
100
AcDbDictionary
281
     1
  0
DICTIONARY
  5
1E0
102
{ACAD_REACTORS
330
1DF
102
}
330
1DF
100
AcDbDictionary
281
     1
  0
LAYOUT
  5
1E
102
{ACAD_REACTORS
330
1A
102
}
330
1A
100
AcDbPlotSettings
  1

  2
none_device
  4

  6

 40
0.0
 41
0.0
 42
0.0
 43
0.0
 44
0.0
 45
0.0
 46
0.0
 47
0.0
 48
0.0
 49
0.0
140
0.0
141
0.0
142
1.0
143
1.0
 70
   688
 72
     1
 73
     0
 74
     5
  7

 75
    16
 76
     0
 77
     2
 78
   300
147
1.0
148
0.0
149
0.0
100
AcDbLayout
  1
Layout1
 70
     1
 71
     1
 10
0.0
 20
0.0
 11
420.0
 21
297.0
 12
0.0
 22
0.0
 32
0.0
 14
1.000000000000000E+20
 24
1.000000000000000E+20
 34
1.000000000000000E+20
 15
-1.000000000000000E+20
 25
-1.000000000000000E+20
 35
-1.000000000000000E+20
146
0.0
 13
0.0
 23
0.0
 33
0.0
 16
1.0
 26
0.0
 36
0.0
 17
0.0
 27
1.0
 37
0.0
 76
     0
330
1B
  0
LAYOUT
  5
26
102
{ACAD_REACTORS
330
1A
102
}
330
1A
100
AcDbPlotSettings
  1

  2
none_device
  4

  6

 40
0.0
 41
0.0
 42
0.0
 43
0.0
 44
0.0
 45
0.0
 46
0.0
 47
0.0
 48
0.0
 49
0.0
140
0.0
141
0.0
142
1.0
143
1.0
 70
   688
 72
     1
 73
     0
 74
     5
  7

 75
    16
 76
     0
 77
     2
 78
   300
147
1.0
148
0.0
149
0.0
100
AcDbLayout
  1
Layout2
 70
     1
 71
     2
 10
0.0
 20
0.0
 11
0.0
 21
0.0
 12
0.0
 22
0.0
 32
0.0
 14
0.0
 24
0.0
 34
0.0
 15
0.0
 25
0.0
 35
0.0
146
0.0
 13
0.0
 23
0.0
 33
0.0
 16
1.0
 26
0.0
 36
0.0
 17
0.0
 27
1.0
 37
0.0
 76
     0
330
23
  0
LAYOUT
  5
22
102
{ACAD_REACTORS
330
1A
102
}
330
1A
100
AcDbPlotSettings
  1

  2
none_device
  4
Letter_(8.50_x_11.00_Inches)
  6

 40
6.35
 41
6.35
 42
6.35000508
 43
6.35000508
 44
215.9
 45
279.4
 46
0.0
 47
0.0
 48
0.0
 49
0.0
140
0.0
141
0.0
142
1.0
143
1.0
 70
  1712
 72
     1
 73
     0
 74
     0
  7

 75
     0
 76
     0
 77
     2
 78
   300
147
1.0
148
0.0
149
0.0
100
AcDbLayout
  1
Model
 70
     1
 71
     0
 10
0.0
 20
0.0
 11
420.0
 21
297.0
 12
0.0
 22
0.0
 32
0.0
 14
-603.087011472
 24
-406.9943875769
 34
0.0
 15
478.5650999042464
 25
560.0650851766
 35
0.0
146
0.0
 13
0.0
 23
0.0
 33
0.0
 16
1.0
 26
0.0
 36
0.0
 17
0.0
 27
1.0
 37
0.0
 76
     0
330
1F
331
29
  0
MATERIAL
  5
19C
102
{ACAD_REACTORS
330
19A
102
}
330
19A
100
AcDbMaterial
  1
ByBlock
 72
     1
 94
      127
  0
MATERIAL
  5
19B
102
{ACAD_REACTORS
330
19A
102
}
330
19A
100
AcDbMaterial
  1
ByLayer
 72
     1
 94
      127
  0
MATERIAL
  5
19D
102
{ACAD_REACTORS
330
19A
102
}
330
19A
100
AcDbMaterial
  1
Global
 72
     1
 94
      127
  0
MLEADERSTYLE
  5
1A1
102
{ACAD_REACTORS
330
1A0
102
}
330
1A0
100
AcDbMLeaderStyle
170
     2
171
     1
172
     0
 90
        2
 40
0.0
 41
0.0
173
     1
 91
-1056964608
340
14
 92
       -2
290
     1
 42
2.0
291
     1
 43
8.0
  3
Standard
341
0
 44
4.0
300

342
11
174
     1
178
     1
175
     1
176
     0
 93
-1056964608
 45
4.0
292
     0
297
     0
 46
4.0
343
0
 94
-1056964608
 47
1.0
 49
1.0
140
1.0
293
     1
141
0.0
294
     1
177
     0
142
1.0
295
     0
296
     0
143
3.75
1001
ACAD_MLEADERVER
1070
     2
  0
MLINESTYLE
  5
18
102
{ACAD_REACTORS
330
17
102
}
330
17
100
AcDbMlineStyle
  2
Standard
 70
     0
  3

 62
   256
 51
90.0
 52
90.0
 71
     2
 49
0.5
 62
   256
  6
BYLAYER
 49
-0.5
 62
   256
  6
BYLAYER
  0
ACDBPLACEHOLDER
  5
F
102
{ACAD_REACTORS
330
E
102
}
330
E
  0
SCALE
  5
48
102
{ACAD_REACTORS
330
47
102
}
330
47
100
AcDbScale
 70
     0
300
1:1
140
1.0
141
1.0
290
     1
  0
SCALE
  5
49
102
{ACAD_REACTORS
330
47
102
}
330
47
100
AcDbScale
 70
     0
300
1:2
140
1.0
141
2.0
290
     0
  0
SCALE
  5
4A
102
{ACAD_REACTORS
330
47
102
}
330
47
100
AcDbScale
 70
     0
300
1:4
140
1.0
141
4.0
290
     0
  0
SCALE
  5
4B
102
{ACAD_REACTORS
330
47
102
}
330
47
100
AcDbScale
 70
     0
300
1:5
140
1.0
141
5.0
290
     0
  0
SCALE
  5
4C
102
{ACAD_REACTORS
330
47
102
}
330
47
100
AcDbScale
 70
     0
300
1:8
140
1.0
141
8.0
290
     0
  0
SCALE
  5
4D
102
{ACAD_REACTORS
330
47
102
}
330
47
100
AcDbScale
 70
     0
300
1:10
140
1.0
141
10.0
290
     0
  0
SCALE
  5
4E
102
{ACAD_REACTORS
330
47
102
}
330
47
100
AcDbScale
 70
     0
300
1:16
140
1.0
141
16.0
290
     0
  0
SCALE
  5
4F
102
{ACAD_REACTORS
330
47
102
}
330
47
100
AcDbScale
 70
     0
300
1:20
140
1.0
141
20.0
290
     0
  0
SCALE
  5
50
102
{ACAD_REACTORS
330
47
102
}
330
47
100
AcDbScale
 70
     0
300
1:30
140
1.0
141
30.0
290
     0
  0
SCALE
  5
51
102
{ACAD_REACTORS
330
47
102
}
330
47
100
AcDbScale
 70
     0
300
1:40
140
1.0
141
40.0
290
     0
  0
SCALE
  5
52
102
{ACAD_REACTORS
330
47
102
}
330
47
100
AcDbScale
 70
     0
300
1:50
140
1.0
141
50.0
290
     0
  0
SCALE
  5
53
102
{ACAD_REACTORS
330
47
102
}
330
47
100
AcDbScale
 70
     0
300
1:100
140
1.0
141
100.0
290
     0
  0
SCALE
  5
54
102
{ACAD_REACTORS
330
47
102
}
330
47
100
AcDbScale
 70
     0
300
2:1
140
2.0
141
1.0
290
     0
  0
SCALE
  5
55
102
{ACAD_REACTORS
330
47
102
}
330
47
100
AcDbScale
 70
     0
300
4:1
140
4.0
141
1.0
290
     0
  0
SCALE
  5
56
102
{ACAD_REACTORS
330
47
102
}
330
47
100
AcDbScale
 70
     0
300
8:1
140
8.0
141
1.0
290
     0
  0
SCALE
  5
57
102
{ACAD_REACTORS
330
47
102
}
330
47
100
AcDbScale
 70
     0
300
10:1
140
10.0
141
1.0
290
     0
  0
SCALE
  5
58
102
{ACAD_REACTORS
330
47
102
}
330
47
100
AcDbScale
 70
     0
300
100:1
140
100.0
141
1.0
290
     0
  0
SCALE
  5
59
102
{ACAD_REACTORS
330
47
102
}
330
47
100
AcDbScale
 70
     0
300
1/128" = 1'-0"
140
0.0078125
141
12.0
290
     0
  0
SCALE
  5
5A
102
{ACAD_REACTORS
330
47
102
}
330
47
100
AcDbScale
 70
     0
300
1/64" = 1'-0"
140
0.015625
141
12.0
290
     0
  0
SCALE
  5
5B
102
{ACAD_REACTORS
330
47
102
}
330
47
100
AcDbScale
 70
     0
300
1/32" = 1'-0"
140
0.03125
141
12.0
290
     0
  0
SCALE
  5
5C
102
{ACAD_REACTORS
330
47
102
}
330
47
100
AcDbScale
 70
     0
300
1/16" = 1'-0"
140
0.0625
141
12.0
290
     0
  0
SCALE
  5
5D
102
{ACAD_REACTORS
330
47
102
}
330
47
100
AcDbScale
 70
     0
300
3/32" = 1'-0"
140
0.09375
141
12.0
290
     0
  0
SCALE
  5
5E
102
{ACAD_REACTORS
330
47
102
}
330
47
100
AcDbScale
 70
     0
300
1/8" = 1'-0"
140
0.125
141
12.0
290
     0
  0
SCALE
  5
5F
102
{ACAD_REACTORS
330
47
102
}
330
47
100
AcDbScale
 70
     0
300
3/16" = 1'-0"
140
0.1875
141
12.0
290
     0
  0
SCALE
  5
60
102
{ACAD_REACTORS
330
47
102
}
330
47
100
AcDbScale
 70
     0
300
1/4" = 1'-0"
140
0.25
141
12.0
290
     0
  0
SCALE
  5
61
102
{ACAD_REACTORS
330
47
102
}
330
47
100
AcDbScale
 70
     0
300
3/8" = 1'-0"
140
0.375
141
12.0
290
     0
  0
SCALE
  5
62
102
{ACAD_REACTORS
330
47
102
}
330
47
100
AcDbScale
 70
     0
300
1/2" = 1'-0"
140
0.5
141
12.0
290
     0
  0
SCALE
  5
63
102
{ACAD_REACTORS
330
47
102
}
330
47
100
AcDbScale
 70
     0
300
3/4" = 1'-0"
140
0.75
141
12.0
290
     0
  0
SCALE
  5
64
102
{ACAD_REACTORS
330
47
102
}
330
47
100
AcDbScale
 70
     0
300
1" = 1'-0"
140
1.0
141
12.0
290
     0
  0
SCALE
  5
65
102
{ACAD_REACTORS
330
47
102
}
330
47
100
AcDbScale
 70
     0
300
1-1/2" = 1'-0"
140
1.5
141
12.0
290
     0
  0
SCALE
  5
66
102
{ACAD_REACTORS
330
47
102
}
330
47
100
AcDbScale
 70
     0
300
3" = 1'-0"
140
3.0
141
12.0
290
     0
  0
SCALE
  5
67
102
{ACAD_REACTORS
330
47
102
}
330
47
100
AcDbScale
 70
     0
300
6" = 1'-0"
140
6.0
141
12.0
290
     0
  0
SCALE
  5
68
102
{ACAD_REACTORS
330
47
102
}
330
47
100
AcDbScale
 70
     0
300
1'-0" = 1'-0"
140
12.0
141
12.0
290
     0
  0
TABLESTYLE
  5
19F
102
{ACAD_REACTORS
330
19E
102
}
102
{ACAD_XDICTIONARY
360
1E3
102
}
330
19E
100
AcDbTableStyle
  3
Standard
 70
     0
 71
     0
 40
0.06
 41
0.06
280
     0
281
     0
  7
Standard
140
4.5
170
     2
 62
     0
 63
   257
283
     0
 90
        4
 91
        0
  1

274
    -2
284
     1
 64
     0
275
    -2
285
     1
 65
     0
276
    -2
286
     1
 66
     0
277
    -2
287
     1
 67
     0
278
    -2
288
     1
 68
     0
279
    -2
289
     1
 69
     0
  7
Standard
140
6.0
170
     5
 62
     0
 63
   257
283
     0
 90
        4
 91
        0
  1

274
    -2
284
     1
 64
     0
275
    -2
285
     1
 65
     0
276
    -2
286
     1
 66
     0
277
    -2
287
     1
 67
     0
278
    -2
288
     1
 68
     0
279
    -2
289
     1
 69
     0
  7
Standard
140
4.5
170
     5
 62
     0
 63
   257
283
     0
 90
        4
 91
        0
  1

274
    -2
284
     1
 64
     0
275
    -2
285
     1
 65
     0
276
    -2
286
     1
 66
     0
277
    -2
287
     1
 67
     0
278
    -2
288
     1
 68
     0
279
    -2
289
     1
 69
     0
  0
VISUALSTYLE
  5
186
102
{ACAD_REACTORS
330
181
102
}
330
181
100
AcDbVisualStyle
  2
2dWireframe
 70
     4
 71
     0
 72
     2
 73
     0
 90
        0
 40
0.6
 41
30.0
 62
     5
 63
     7
421
 16777215
 74
     1
 91
        4
 64
     7
 65
   257
 75
     1
175
     1
 42
1.0
 92
        0
 66
   257
 43
1.0
 76
     1
 77
     6
 78
     2
 67
     7
 79
     5
170
     0
171
     0
290
     0
174
     0
 93
        1
 44
0.0
173
     0
291
     0
 45
0.0
  0
VISUALSTYLE
  5
189
102
{ACAD_REACTORS
330
181
102
}
330
181
100
AcDbVisualStyle
  2
Basic
 70
     7
 71
     1
 72
     0
 73
     1
 90
        0
 40
0.6
 41
30.0
 62
     5
 63
     7
421
 16777215
 74
     0
 91
        4
 64
     7
 65
   257
 75
     1
175
     1
 42
1.0
 92
        8
 66
     7
 43
1.0
 76
     1
 77
     6
 78
     2
 67
     7
 79
     5
170
     0
171
     0
290
     0
174
     0
 93
        1
 44
0.0
173
     0
291
     1
 45
0.0
  0
VISUALSTYLE
  5
18D
102
{ACAD_REACTORS
330
181
102
}
330
181
100
AcDbVisualStyle
  2
Brighten
 70
    12
 71
     2
 72
     2
 73
     0
 90
        0
 40
0.6
 41
30.0
 62
     5
 63
     7
421
 16777215
 74
     1
 91
        4
 64
     7
 65
   257
 75
     1
175
     1
 42
1.0
 92
        8
 66
     7
 43
1.0
 76
     1
 77
     6
 78
     2
 67
     7
 79
     5
170
     0
171
     0
290
     0
174
     0
 93
        1
 44
50.0
173
     0
291
     1
 45
0.0
  0
VISUALSTYLE
  5
191
102
{ACAD_REACTORS
330
181
102
}
330
181
100
AcDbVisualStyle
  2
ColorChange
 70
    16
 71
     2
 72
     2
 73
     3
 90
        0
 40
0.6
 41
30.0
 62
     5
 63
     8
421
  8421504
 74
     1
 91
        4
 64
     7
 65
   257
 75
     1
175
     1
 42
1.0
 92
        8
 66
     8
424
  8421504
 43
1.0
 76
     1
 77
     6
 78
     2
 67
     7
 79
     5
170
     0
171
     0
290
     0
174
     0
 93
        1
 44
0.0
173
     0
291
     1
 45
0.0
  0
VISUALSTYLE
  5
18B
102
{ACAD_REACTORS
330
181
102
}
330
181
100
AcDbVisualStyle
  2
Conceptual
 70
     9
 71
     3
 72
     2
 73
     0
 90
        0
 40
0.6
 41
30.0
 62
     5
 63
     7
421
 16777215
 74
     2
 91
        2
 64
     7
 65
   257
 75
     1
175
     1
 42
179.0
 92
        8
 66
     7
 43
1.0
 76
     1
 77
     6
 78
     2
 67
     7
 79
     3
170
     0
171
     0
290
     0
174
     0
 93
        1
 44
0.0
173
     0
291
     0
 45
0.0
  0
VISUALSTYLE
  5
18C
102
{ACAD_REACTORS
330
181
102
}
330
181
100
AcDbVisualStyle
  2
Dim
 70
    11
 71
     2
 72
     2
 73
     0
 90
        0
 40
0.6
 41
30.0
 62
     5
 63
     7
421
 16777215
 74
     1
 91
        4
 64
     7
 65
   257
 75
     1
175
     1
 42
1.0
 92
        8
 66
     7
 43
1.0
 76
     1
 77
     6
 78
     2
 67
     7
 79
     5
170
     0
171
     0
290
     0
174
     0
 93
        1
 44
-50.0
173
     0
291
     1
 45
0.0
  0
VISUALSTYLE
  5
194
102
{ACAD_REACTORS
330
181
102
}
330
181
100
AcDbVisualStyle
  2
EdgeColorOff
 70
    22
 71
     2
 72
     2
 73
     0
 90
        0
 40
0.6
 41
30.0
 62
     5
 63
     7
421
 16777215
 74
     1
 91
        4
 64
     7
 65
   257
 75
     1
175
     1
 42
1.0
 92
        8
 66
     7
 43
1.0
 76
     1
 77
     6
 78
     2
 67
     7
 79
     5
170
     0
171
     0
290
     0
174
     0
 93
        1
 44
0.0
173
     0
291
     1
 45
0.0
  0
VISUALSTYLE
  5
190
102
{ACAD_REACTORS
330
181
102
}
330
181
100
AcDbVisualStyle
  2
Facepattern
 70
    15
 71
     2
 72
     2
 73
     0
 90
        0
 40
0.6
 41
30.0
 62
     5
 63
     7
421
 16777215
 74
     1
 91
        4
 64
     7
 65
   257
 75
     1
175
     1
 42
1.0
 92
        8
 66
     7
 43
1.0
 76
     1
 77
     6
 78
     2
 67
     7
 79
     5
170
     0
171
     0
290
     0
174
     0
 93
        1
 44
0.0
173
     0
291
     1
 45
0.0
  0
VISUALSTYLE
  5
182
102
{ACAD_REACTORS
330
181
102
}
330
181
100
AcDbVisualStyle
  2
Flat
 70
     0
 71
     2
 72
     1
 73
     1
 90
        2
 40
0.6
 41
30.0
 62
     5
 63
     7
421
 16777215
 74
     0
 91
        0
 64
     7
 65
   257
 75
     1
175
     1
 42
1.0
 92
        8
 66
     7
 43
1.0
 76
     1
 77
     6
 78
     2
 67
     7
 79
     5
170
     0
171
     0
290
     0
174
     0
 93
       13
 44
0.0
173
     0
291
     1
 45
0.0
  0
VISUALSTYLE
  5
183
102
{ACAD_REACTORS
330
181
102
}
330
181
100
AcDbVisualStyle
  2
FlatWithEdges
 70
     1
 71
     2
 72
     1
 73
     1
 90
        2
 40
0.6
 41
30.0
 62
     5
 63
     7
421
 16777215
 74
     1
 91
        0
 64
     7
 65
   257
 75
     1
175
     1
 42
1.0
 92
        0
 66
   257
 43
1.0
 76
     1
 77
     6
 78
     2
 67
     7
 79
     5
170
     0
171
     0
290
     0
174
     0
 93
       13
 44
0.0
173
     0
291
     1
 45
0.0
  0
VISUALSTYLE
  5
184
102
{ACAD_REACTORS
330
181
102
}
330
181
100
AcDbVisualStyle
  2
Gouraud
 70
     2
 71
     2
 72
     2
 73
     1
 90
        2
 40
0.6
 41
30.0
 62
     5
 63
     7
421
 16777215
 74
     0
 91
        0
 64
     7
 65
   257
 75
     1
175
     1
 42
1.0
 92
        0
 66
     7
 43
1.0
 76
     1
 77
     6
 78
     2
 67
     7
 79
     5
170
     0
171
     0
290
     0
174
     0
 93
       13
 44
0.0
173
     0
291
     1
 45
0.0
  0
VISUALSTYLE
  5
185
102
{ACAD_REACTORS
330
181
102
}
330
181
100
AcDbVisualStyle
  2
GouraudWithEdges
 70
     3
 71
     2
 72
     2
 73
     1
 90
        2
 40
0.6
 41
30.0
 62
     5
 63
     7
421
 16777215
 74
     1
 91
        0
 64
     7
 65
   257
 75
     1
175
     1
 42
1.0
 92
        0
 66
   257
 43
1.0
 76
     1
 77
     6
 78
     2
 67
     7
 79
     5
170
     0
171
     0
290
     0
174
     0
 93
       13
 44
0.0
173
     0
291
     1
 45
0.0
  0
VISUALSTYLE
  5
188
102
{ACAD_REACTORS
330
181
102
}
330
181
100
AcDbVisualStyle
  2
Hidden
 70
     6
 71
     1
 72
     2
 73
     2
 90
        0
 40
0.6
 41
30.0
 62
     5
 63
     7
421
 16777215
 74
     2
 91
        2
 64
     7
 65
   257
 75
     2
175
     1
 42
40.0
 92
        0
 66
   257
 43
1.0
 76
     1
 77
     6
 78
     2
 67
     7
 79
     3
170
     0
171
     0
290
     0
174
     0
 93
        1
 44
0.0
173
     0
291
     0
 45
0.0
  0
VISUALSTYLE
  5
192
102
{ACAD_REACTORS
330
181
102
}
330
181
100
AcDbVisualStyle
  2
JitterOff
 70
    20
 71
     2
 72
     2
 73
     0
 90
        0
 40
0.6
 41
30.0
 62
     5
 63
     7
421
 16777215
 74
     1
 91
        4
 64
     7
 65
   257
 75
     1
175
     1
 42
1.0
 92
       10
 66
     7
 43
1.0
 76
     1
 77
     6
 78
     2
 67
     7
 79
     5
170
     0
171
     0
290
     0
174
     0
 93
        1
 44
0.0
173
     0
291
     1
 45
0.0
  0
VISUALSTYLE
  5
18F
102
{ACAD_REACTORS
330
181
102
}
330
181
100
AcDbVisualStyle
  2
Linepattern
 70
    14
 71
     2
 72
     2
 73
     0
 90
        0
 40
0.6
 41
30.0
 62
     5
 63
     7
421
 16777215
 74
     1
 91
        4
 64
     7
 65
   257
 75
     7
175
     7
 42
1.0
 92
        8
 66
     7
 43
1.0
 76
     1
 77
     6
 78
     2
 67
     7
 79
     5
170
     0
171
     0
290
     0
174
     0
 93
        1
 44
0.0
173
     0
291
     1
 45
0.0
  0
VISUALSTYLE
  5
193
102
{ACAD_REACTORS
330
181
102
}
330
181
100
AcDbVisualStyle
  2
OverhangOff
 70
    21
 71
     2
 72
     2
 73
     0
 90
        0
 40
0.6
 41
30.0
 62
     5
 63
     7
421
 16777215
 74
     1
 91
        4
 64
     7
 65
   257
 75
     1
175
     1
 42
1.0
 92
        9
 66
     7
 43
1.0
 76
     1
 77
     6
 78
     2
 67
     7
 79
     5
170
     0
171
     0
290
     0
174
     0
 93
        1
 44
0.0
173
     0
291
     1
 45
0.0
  0
VISUALSTYLE
  5
18A
102
{ACAD_REACTORS
330
181
102
}
330
181
100
AcDbVisualStyle
  2
Realistic
 70
     8
 71
     2
 72
     3
 73
     0
 90
        2
 40
0.6
 41
30.0
 62
     5
 63
     7
421
 16777215
 74
     0
 91
        0
 64
     7
 65
   257
 75
     1
175
     1
 42
1.0
 92
        8
 66
   257
 43
1.0
 76
     1
 77
     6
 78
     2
 67
     7
 79
     3
170
     0
171
     0
290
     0
174
     0
 93
       13
 44
0.0
173
     0
291
     0
 45
0.0
  0
VISUALSTYLE
  5
199
102
{ACAD_REACTORS
330
181
102
}
330
181
100
AcDbVisualStyle
  2
Shaded
 70
    27
 71
     2
 72
     2
 73
     1
 90
        2
 40
0.6
 41
30.0
 62
     5
 63
     7
421
 16777215
 74
     0
 91
        4
 64
     7
 65
   257
 75
     1
175
     1
 42
1.0
 92
        8
 66
   257
 43
1.0
 76
     1
 77
     6
 78
     2
 67
     8
425
  7895160
 79
     3
170
     0
171
     0
290
     0
174
     0
 93
        5
 44
0.0
173
     0
291
     0
 45
0.0
  0
VISUALSTYLE
  5
198
102
{ACAD_REACTORS
330
181
102
}
330
181
100
AcDbVisualStyle
  2
Shaded with edges
 70
    26
 71
     2
 72
     2
 73
     1
 90
        2
 40
0.6
 41
30.0
 62
     5
 63
     7
421
 16777215
 74
     1
 91
       10
 64
     7
 65
   257
 75
     2
175
     1
 42
1.0
 92
        8
 66
   257
 43
1.0
 76
     1
 77
     6
 78
     2
 67
     7
 79
     3
170
     0
171
     0
290
     0
174
     0
 93
        5
 44
0.0
173
     0
291
     0
 45
0.0
  0
VISUALSTYLE
  5
195
102
{ACAD_REACTORS
330
181
102
}
330
181
100
AcDbVisualStyle
  2
Shades of Gray
 70
    23
 71
     2
 72
     2
 73
     3
 90
        0
 40
0.6
 41
30.0
 62
     5
 63
     7
421
 16777215
 74
     2
 91
        2
 64
     7
 65
     7
 75
     1
175
     1
 42
40.0
 92
        8
 66
     7
 43
1.0
 76
     1
 77
     6
 78
     2
 67
     7
 79
     3
170
     0
171
     0
290
     0
174
     0
 93
        1
 44
0.0
173
     0
291
     0
 45
0.0
  0
VISUALSTYLE
  5
196
102
{ACAD_REACTORS
330
181
102
}
330
181
100
AcDbVisualStyle
  2
Sketchy
 70
    24
 71
     1
 72
     2
 73
     2
 90
        0
 40
0.6
 41
30.0
 62
     5
 63
     7
421
 16777215
 74
     2
 91
        2
 64
     7
 65
     7
 75
     1
175
     1
 42
40.0
 92
       11
 66
     7
 43
1.0
 76
     1
 77
     6
 78
     2
 67
     7
 79
     6
170
     0
171
     0
290
     0
174
     0
 93
        1
 44
0.0
173
     0
291
     0
 45
0.0
  0
VISUALSTYLE
  5
18E
102
{ACAD_REACTORS
330
181
102
}
330
181
100
AcDbVisualStyle
  2
Thicken
 70
    13
 71
     2
 72
     2
 73
     0
 90
        0
 40
0.6
 41
30.0
 62
     5
 63
     7
421
 16777215
 74
     1
 91
        4
 64
     7
 65
   257
 75
     1
175
     1
 42
1.0
 92
       12
 66
     7
 43
1.0
 76
     1
 77
     6
 78
     2
 67
     7
 79
     5
170
     0
171
     0
290
     0
174
     0
 93
        1
 44
0.0
173
     0
291
     1
 45
0.0
  0
VISUALSTYLE
  5
187
102
{ACAD_REACTORS
330
181
102
}
330
181
100
AcDbVisualStyle
  2
Wireframe
 70
     5
 71
     0
 72
     2
 73
     0
 90
        0
 40
0.6
 41
30.0
 62
     5
 63
     7
421
 16777215
 74
     1
 91
        4
 64
     7
 65
   257
 75
     1
175
     1
 42
1.0
 92
        0
 66
   257
 43
1.0
 76
     1
 77
     6
 78
     2
 67
     7
 79
     3
170
     0
171
     0
290
     0
174
     0
 93
        1
 44
0.0
173
     0
291
     0
 45
0.0
  0
VISUALSTYLE
  5
197
102
{ACAD_REACTORS
330
181
102
}
330
181
100
AcDbVisualStyle
  2
X-Ray
 70
    25
 71
     2
 72
     2
 73
     1
 90
        1
 40
0.5
 41
30.0
 62
     5
 63
     7
421
 16777215
 74
     1
 91
        0
 64
     7
 65
   257
 75
     1
175
     1
 42
1.0
 92
        8
 66
     7
 43
1.0
 76
     1
 77
     6
 78
     2
 67
     7
 79
     3
170
     0
171
     0
290
     0
174
     0
 93
       13
 44
0.0
173
     0
291
     0
 45
0.0
  0
DICTIONARYVAR
  5
1E2
102
{ACAD_REACTORS
330
1E1
102
}
330
1E1
100
DictionaryVariables
280
     0
  1
1:1
  0
DICTIONARYVAR
  5
1E8
102
{ACAD_REACTORS
330
1E1
102
}
330
1E1
100
DictionaryVariables
280
     0
  1
Standard
  0
DICTIONARYVAR
  5
1E7
102
{ACAD_REACTORS
330
1E1
102
}
330
1E1
100
DictionaryVariables
280
     0
  1
Standard
  0
DICTIONARYVAR
  5
1E9
102
{ACAD_REACTORS
330
1E1
102
}
330
1E1
100
DictionaryVariables
280
     0
  1
0
  0
DICTIONARY
  5
1E3
330
19F
100
AcDbDictionary
280
     1
281
     1
  3
ACAD_ROUNDTRIP_2008_TABLESTYLE_CELLSTYLEMAP
360
1E4
  0
CELLSTYLEMAP
  5
1E4
102
{ACAD_REACTORS
330
1E3
102
}
330
1E3
100
AcDbCellStyleMap
 90
        3
300
CELLSTYLE
  1
TABLEFORMAT_BEGIN
 90
        5
170
     1
 91
        0
 92
    32768
 62
   257
 93
        1
300
CONTENTFORMAT
  1
CONTENTFORMAT_BEGIN
 90
        0
 91
        0
 92
        4
 93
        0
300

 40
0.0
140
1.0
 94
        5
 62
     0
340
11
144
6.0
309
CONTENTFORMAT_END
171
     1
301
MARGIN
  1
CELLMARGIN_BEGIN
 40
1.5
 40
1.5
 40
1.5
 40
1.5
 40
1.5
 40
1.5
309
CELLMARGIN_END
 94
        6
 95
        1
302
GRIDFORMAT
  1
GRIDFORMAT_BEGIN
 90
        0
 91
        1
 62
     0
 92
       -2
340
14
 93
        0
 40
0.045
309
GRIDFORMAT_END
 95
        2
302
GRIDFORMAT
  1
GRIDFORMAT_BEGIN
 90
        0
 91
        1
 62
     0
 92
       -2
340
14
 93
        0
 40
0.045
309
GRIDFORMAT_END
 95
        4
302
GRIDFORMAT
  1
GRIDFORMAT_BEGIN
 90
        0
 91
        1
 62
     0
 92
       -2
340
14
 93
        0
 40
0.045
309
GRIDFORMAT_END
 95
        8
302
GRIDFORMAT
  1
GRIDFORMAT_BEGIN
 90
        0
 91
        1
 62
     0
 92
       -2
340
14
 93
        0
 40
0.045
309
GRIDFORMAT_END
 95
       16
302
GRIDFORMAT
  1
GRIDFORMAT_BEGIN
 90
        0
 91
        1
 62
     0
 92
       -2
340
14
 93
        0
 40
0.045
309
GRIDFORMAT_END
 95
       32
302
GRIDFORMAT
  1
GRIDFORMAT_BEGIN
 90
        0
 91
        1
 62
     0
 92
       -2
340
14
 93
        0
 40
0.045
309
GRIDFORMAT_END
309
TABLEFORMAT_END
  1
CELLSTYLE_BEGIN
 90
        1
 91
        1
300
_TITLE
309
CELLSTYLE_END
300
CELLSTYLE
  1
TABLEFORMAT_BEGIN
 90
        5
170
     1
 91
        0
 92
        0
 62
   257
 93
        1
300
CONTENTFORMAT
  1
CONTENTFORMAT_BEGIN
 90
        0
 91
        0
 92
        4
 93
        0
300

 40
0.0
140
1.0
 94
        5
 62
     0
340
11
144
4.5
309
CONTENTFORMAT_END
171
     1
301
MARGIN
  1
CELLMARGIN_BEGIN
 40
1.5
 40
1.5
 40
1.5
 40
1.5
 40
1.5
 40
1.5
309
CELLMARGIN_END
 94
        6
 95
        1
302
GRIDFORMAT
  1
GRIDFORMAT_BEGIN
 90
        0
 91
        1
 62
     0
 92
       -2
340
14
 93
        0
 40
0.045
309
GRIDFORMAT_END
 95
        2
302
GRIDFORMAT
  1
GRIDFORMAT_BEGIN
 90
        0
 91
        1
 62
     0
 92
       -2
340
14
 93
        0
 40
0.045
309
GRIDFORMAT_END
 95
        4
302
GRIDFORMAT
  1
GRIDFORMAT_BEGIN
 90
        0
 91
        1
 62
     0
 92
       -2
340
14
 93
        0
 40
0.045
309
GRIDFORMAT_END
 95
        8
302
GRIDFORMAT
  1
GRIDFORMAT_BEGIN
 90
        0
 91
        1
 62
     0
 92
       -2
340
14
 93
        0
 40
0.045
309
GRIDFORMAT_END
 95
       16
302
GRIDFORMAT
  1
GRIDFORMAT_BEGIN
 90
        0
 91
        1
 62
     0
 92
       -2
340
14
 93
        0
 40
0.045
309
GRIDFORMAT_END
 95
       32
302
GRIDFORMAT
  1
GRIDFORMAT_BEGIN
 90
        0
 91
        1
 62
     0
 92
       -2
340
14
 93
        0
 40
0.045
309
GRIDFORMAT_END
309
TABLEFORMAT_END
  1
CELLSTYLE_BEGIN
 90
        2
 91
        1
300
_HEADER
309
CELLSTYLE_END
300
CELLSTYLE
  1
TABLEFORMAT_BEGIN
 90
        5
170
     1
 91
        0
 92
        0
 62
   257
 93
        1
300
CONTENTFORMAT
  1
CONTENTFORMAT_BEGIN
 90
        0
 91
        0
 92
        4
 93
        0
300

 40
0.0
140
1.0
 94
        2
 62
     0
340
11
144
4.5
309
CONTENTFORMAT_END
171
     1
301
MARGIN
  1
CELLMARGIN_BEGIN
 40
1.5
 40
1.5
 40
1.5
 40
1.5
 40
1.5
 40
1.5
309
CELLMARGIN_END
 94
        6
 95
        1
302
GRIDFORMAT
  1
GRIDFORMAT_BEGIN
 90
        0
 91
        1
 62
     0
 92
       -2
340
14
 93
        0
 40
0.045
309
GRIDFORMAT_END
 95
        2
302
GRIDFORMAT
  1
GRIDFORMAT_BEGIN
 90
        0
 91
        1
 62
     0
 92
       -2
340
14
 93
        0
 40
0.045
309
GRIDFORMAT_END
 95
        4
302
GRIDFORMAT
  1
GRIDFORMAT_BEGIN
 90
        0
 91
        1
 62
     0
 92
       -2
340
14
 93
        0
 40
0.045
309
GRIDFORMAT_END
 95
        8
302
GRIDFORMAT
  1
GRIDFORMAT_BEGIN
 90
        0
 91
        1
 62
     0
 92
       -2
340
14
 93
        0
 40
0.045
309
GRIDFORMAT_END
 95
       16
302
GRIDFORMAT
  1
GRIDFORMAT_BEGIN
 90
        0
 91
        1
 62
     0
 92
       -2
340
14
 93
        0
 40
0.045
309
GRIDFORMAT_END
 95
       32
302
GRIDFORMAT
  1
GRIDFORMAT_BEGIN
 90
        0
 91
        1
 62
     0
 92
       -2
340
14
 93
        0
 40
0.045
309
GRIDFORMAT_END
309
TABLEFORMAT_END
  1
CELLSTYLE_BEGIN
 90
        3
 91
        2
300
_DATA
309
CELLSTYLE_END
  0
ENDSEC
  0
EOF
