  0
SECTION
  2
HEADER
  9
$ACADVER
  1
AC1015
  9
$ACADMAINTVER
 70
     6
  9
$DWGCODEPAGE
  3
ANSI_1257
  9
$INSBASE
 10
0.0
 20
0.0
 30
0.0
  9
$EXTMIN
 10
0.0
 20
0.0
 30
0.0
  9
$EXTMAX
 10
420.0
 20
297.0
 30
0.0
  9
$LIMMIN
 10
0.0
 20
0.0
  9
$LIMMAX
 10
420.0
 20
297.0
  9
$ORTHOMODE
 70
     0
  9
$REGENMODE
 70
     1
  9
$FILLMODE
 70
     1
  9
$QTEXTMODE
 70
     0
  9
$MIRRTEXT
 70
     1
  9
$LTSCALE
 40
1.0
  9
$ATTMODE
 70
     1
  9
$TEXTSIZE
 40
5.6444444444
  9
$TRACEWID
 40
1.0
  9
$TEXTSTYLE
  7
Standard
  9
$CLAYER
  8
0
  9
$CELTYPE
  6
ByLayer
  9
$CECOLOR
 62
   256
  9
$CELTSCALE
 40
1.0
  9
$DISPSILH
 70
     0
  9
$DIMSCALE
 40
1.0
  9
$DIMASZ
 40
3.175
  9
$DIMEXO
 40
1.0
  9
$DIMDLI
 40
3.75
  9
$DIMRND
 40
0.0
  9
$DIMDLE
 40
0.0
  9
$DIMEXE
 40
1.0
  9
$DIMTP
 40
0.0
  9
$DIMTM
 40
0.0
  9
$DIMTXT
 40
5.6444444444
  9
$DIMCEN
 40
2.5
  9
$DIMTSZ
 40
0.0
  9
$DIMTOL
 70
     0
  9
$DIMLIM
 70
     0
  9
$DIMTIH
 70
     1
  9
$DIMTOH
 70
     1
  9
$DIMSE1
 70
     0
  9
$DIMSE2
 70
     0
  9
$DIMTAD
 70
     1
  9
$DIMZIN
 70
     0
  9
$DIMBLK
  1

  9
$DIMASO
 70
     1
  9
$DIMSHO
 70
     1
  9
$DIMPOST
  1

  9
$DIMAPOST
  1

  9
$DIMALT
 70
     0
  9
$DIMALTD
 70
     3
  9
$DIMALTF
 40
0.0393700787
  9
$DIMLFAC
 40
1.0
  9
$DIMTOFL
 70
     1
  9
$DIMTVP
 40
0.0
  9
$DIMTIX
 70
     0
  9
$DIMSOXD
 70
     0
  9
$DIMSAH
 70
     0
  9
$DIMBLK1
  1

  9
$DIMBLK2
  1

  9
$DIMSTYLE
  2
ISO-25
  9
$DIMCLRD
 70
     0
  9
$DIMCLRE
 70
     0
  9
$DIMCLRT
 70
     0
  9
$DIMTFAC
 40
1.0
  9
$DIMGAP
 40
1.524
  9
$DIMJUST
 70
     0
  9
$DIMSD1
 70
     0
  9
$DIMSD2
 70
     0
  9
$DIMTOLJ
 70
     0
  9
$DIMTZIN
 70
     0
  9
$DIMALTZ
 70
     0
  9
$DIMALTTZ
 70
     0
  9
$DIMUPT
 70
     0
  9
$DIMDEC
 70
     1
  9
$DIMTDEC
 70
     1
  9
$DIMALTU
 70
     2
  9
$DIMALTTD
 70
     3
  9
$DIMTXSTY
  7
Standard
  9
$DIMAUNIT
 70
     0
  9
$DIMADEC
 70
     1
  9
$DIMALTRND
 40
0.0
  9
$DIMAZIN
 70
     0
  9
$DIMDSEP
 70
    44
  9
$DIMATFIT
 70
     3
  9
$DIMFRAC
 70
     0
  9
$DIMLDRBLK
  1

  9
$DIMLUNIT
 70
     2
  9
$DIMLWD
 70
    -2
  9
$DIMLWE
 70
    -2
  9
$DIMTMOVE
 70
     0
  9
$LUNITS
 70
     2
  9
$LUPREC
 70
     1
  9
$SKETCHINC
 40
1.0
  9
$FILLETRAD
 40
10.0
  9
$AUNITS
 70
     0
  9
$AUPREC
 70
     1
  9
$MENU
  1
.
  9
$ELEVATION
 40
0.0
  9
$PELEVATION
 40
0.0
  9
$THICKNESS
 40
0.0
  9
$LIMCHECK
 70
     0
  9
$CHAMFERA
 40
0.0
  9
$CHAMFERB
 40
0.0
  9
$CHAMFERC
 40
0.0
  9
$CHAMFERD
 40
0.0
  9
$SKPOLY
 70
     0
  9
$TDCREATE
 40
2459604.378026007
  9
$TDUCREATE
 40
2459604.294692674
  9
$TDUPDATE
 40
2459604.378026551
  9
$TDUUPDATE
 40
2459604.294693218
  9
$TDINDWG
 40
0.0000000116
  9
$TDUSRTIMER
 40
0.0000000116
  9
$USRTIMER
 70
     1
  9
$ANGBASE
 50
0.0
  9
$ANGDIR
 70
     0
  9
$PDMODE
 70
     0
  9
$PDSIZE
 40
-1.0
  9
$PLINEWID
 40
0.0
  9
$SPLFRAME
 70
     0
  9
$SPLINETYPE
 70
     6
  9
$SPLINESEGS
 70
     8
  9
$HANDSEED
  5
2BE
  9
$SURFTAB1
 70
     6
  9
$SURFTAB2
 70
     6
  9
$SURFTYPE
 70
     6
  9
$SURFU
 70
     6
  9
$SURFV
 70
     6
  9
$UCSBASE
  2

  9
$UCSNAME
  2

  9
$UCSORG
 10
0.0
 20
0.0
 30
0.0
  9
$UCSXDIR
 10
1.0
 20
0.0
 30
0.0
  9
$UCSYDIR
 10
0.0
 20
1.0
 30
0.0
  9
$UCSORTHOREF
  2

  9
$UCSORTHOVIEW
 70
     0
  9
$UCSORGTOP
 10
0.0
 20
0.0
 30
0.0
  9
$UCSORGBOTTOM
 10
0.0
 20
0.0
 30
0.0
  9
$UCSORGLEFT
 10
0.0
 20
0.0
 30
0.0
  9
$UCSORGRIGHT
 10
0.0
 20
0.0
 30
0.0
  9
$UCSORGFRONT
 10
0.0
 20
0.0
 30
0.0
  9
$UCSORGBACK
 10
0.0
 20
0.0
 30
0.0
  9
$PUCSBASE
  2

  9
$PUCSNAME
  2

  9
$PUCSORG
 10
0.0
 20
0.0
 30
0.0
  9
$PUCSXDIR
 10
1.0
 20
0.0
 30
0.0
  9
$PUCSYDIR
 10
0.0
 20
1.0
 30
0.0
  9
$PUCSORTHOREF
  2

  9
$PUCSORTHOVIEW
 70
     0
  9
$PUCSORGTOP
 10
0.0
 20
0.0
 30
0.0
  9
$PUCSORGBOTTOM
 10
0.0
 20
0.0
 30
0.0
  9
$PUCSORGLEFT
 10
0.0
 20
0.0
 30
0.0
  9
$PUCSORGRIGHT
 10
0.0
 20
0.0
 30
0.0
  9
$PUCSORGFRONT
 10
0.0
 20
0.0
 30
0.0
  9
$PUCSORGBACK
 10
0.0
 20
0.0
 30
0.0
  9
$USERI1
 70
     0
  9
$USERI2
 70
     0
  9
$USERI3
 70
     0
  9
$USERI4
 70
     0
  9
$USERI5
 70
     0
  9
$USERR1
 40
0.0
  9
$USERR2
 40
0.0
  9
$USERR3
 40
0.0
  9
$USERR4
 40
0.0
  9
$USERR5
 40
0.0
  9
$WORLDVIEW
 70
     1
  9
$SHADEDGE
 70
     3
  9
$SHADEDIF
 70
    70
  9
$TILEMODE
 70
     1
  9
$MAXACTVP
 70
    64
  9
$PINSBASE
 10
0.0
 20
0.0
 30
0.0
  9
$PLIMCHECK
 70
     0
  9
$PEXTMIN
 10
1.0000000000E+20
 20
1.0000000000E+20
 30
1.0000000000E+20
  9
$PEXTMAX
 10
-1.0000000000E+20
 20
-1.0000000000E+20
 30
-1.0000000000E+20
  9
$PLIMMIN
 10
0.0
 20
0.0
  9
$PLIMMAX
 10
420.0
 20
297.0
  9
$UNITMODE
 70
     0
  9
$VISRETAIN
 70
     1
  9
$PLINEGEN
 70
     0
  9
$PSLTSCALE
 70
     1
  9
$TREEDEPTH
 70
  3020
  9
$CMLSTYLE
  2
Standard
  9
$CMLJUST
 70
     0
  9
$CMLSCALE
 40
20.0
  9
$PROXYGRAPHICS
 70
     1
  9
$MEASUREMENT
 70
     1
  9
$CELWEIGHT
370
    -1
  9
$ENDCAPS
280
     0
  9
$JOINSTYLE
280
     0
  9
$LWDISPLAY
290
     1
  9
$INSUNITS
 70
     4
  9
$HYPERLINKBASE
  1

  9
$STYLESHEET
  1

  9
$XEDIT
290
     1
  9
$CEPSNTYPE
380
     0
  9
$PSTYLEMODE
290
     1
  9
$FINGERPRINTGUID
  2
{bbddf1a6-50ae-4175-9fa1-186293fbd2f7}
  9
$VERSIONGUID
  2
{FAEB1C32-E019-11D5-929B-00C0DF256EC4}
  9
$EXTNAMES
290
     1
  9
$PSVPSCALE
 40
0.0
  9
$OLESTARTUP
290
     0
  0
ENDSEC
  0
SECTION
  2
CLASSES
  0
CLASS
  1
ACDBDICTIONARYWDFLT
  2
AcDbDictionaryWithDefault
  3
ObjectDBX Classes
 90
        0
280
     0
281
     0
  0
CLASS
  1
VISUALSTYLE
  2
AcDbVisualStyle
  3
ObjectDBX Classes
 90
     4095
280
     0
281
     0
  0
CLASS
  1
MATERIAL
  2
AcDbMaterial
  3
ObjectDBX Classes
 90
     1153
280
     0
281
     0
  0
CLASS
  1
SCALE
  2
AcDbScale
  3
ObjectDBX Classes
 90
     1153
280
     0
281
     0
  0
CLASS
  1
TABLESTYLE
  2
AcDbTableStyle
  3
ObjectDBX Classes
 90
     4095
280
     0
281
     0
  0
CLASS
  1
MLEADERSTYLE
  2
AcDbMLeaderStyle
  3
ACDB_MLEADERSTYLE_CLASS
 90
     4095
280
     0
281
     0
  0
CLASS
  1
SUN
  2
AcDbSun
  3
SCENEOE
 90
     1153
280
     0
281
     0
  0
CLASS
  1
ACDBPLACEHOLDER
  2
AcDbPlaceHolder
  3
ObjectDBX Classes
 90
        0
280
     0
281
     0
  0
CLASS
  1
LAYOUT
  2
AcDbLayout
  3
ObjectDBX Classes
 90
        0
280
     0
281
     0
  0
ENDSEC
  0
SECTION
  2
TABLES
  0
TABLE
  2
VPORT
  5
8
330
0
100
AcDbSymbolTable
 70
     1
  0
VPORT
  5
29
330
8
100
AcDbSymbolTableRecord
100
AcDbViewportTableRecord
  2
*Active
 70
     0
 10
0.0
 20
0.0
 11
1.0
 21
1.0
 12
210.0
 22
148.5
 13
0.0
 23
0.0
 14
10.0
 24
10.0
 15
10.0
 25
10.0
 16
0.0
 26
0.0
 36
1.0
 17
0.0
 27
0.0
 37
0.0
 40
297.0
 41
1.4141414141
 42
50.0
 43
0.0
 44
0.0
 50
0.0
 51
0.0
 71
     0
 72
  2000
 73
     1
 74
     3
 75
     0
 76
     0
 77
     0
 78
     0
281
     0
 65
     1
110
0.0
120
0.0
130
0.0
111
1.0
121
0.0
131
0.0
112
0.0
122
1.0
132
0.0
 79
     0
146
0.0
  0
ENDTAB
  0
TABLE
  2
LTYPE
  5
5
330
0
100
AcDbSymbolTable
 70
     6
  0
LTYPE
  5
14
330
5
100
AcDbSymbolTableRecord
100
AcDbLinetypeTableRecord
  2
ByBlock
 70
     0
  3

 72
    65
 73
     0
 40
0.0
  0
LTYPE
  5
15
330
5
100
AcDbSymbolTableRecord
100
AcDbLinetypeTableRecord
  2
ByLayer
 70
     0
  3

 72
    65
 73
     0
 40
0.0
  0
LTYPE
  5
16
330
5
100
AcDbSymbolTableRecord
100
AcDbLinetypeTableRecord
  2
Continuous
 70
     0
  3
Solid line
 72
    65
 73
     0
 40
0.0
  0
LTYPE
  5
6E
330
5
100
AcDbSymbolTableRecord
100
AcDbLinetypeTableRecord
  2
HIDDEN
 70
     0
  3
Hidden __ __ __ __ __ __ __ __ __ __ __ __ __ __
 72
    65
 73
     2
 40
1.905
 49
1.27
 74
     0
 49
-0.635
 74
     0
  0
LTYPE
  5
6F
330
5
100
AcDbSymbolTableRecord
100
AcDbLinetypeTableRecord
  2
PHANTOM
 70
     0
  3
Phantom ______  __  __  ______  __  __  ______
 72
    65
 73
     6
 40
12.7
 49
6.35
 74
     0
 49
-1.27
 74
     0
 49
1.27
 74
     0
 49
-1.27
 74
     0
 49
1.27
 74
     0
 49
-1.27
 74
     0
  0
LTYPE
  5
70
330
5
100
AcDbSymbolTableRecord
100
AcDbLinetypeTableRecord
  2
CENTER
 70
     0
  3
Center ____ _ ____ _ ____ _ ____ _ ____ _ ____
 72
    65
 73
     4
 40
10.16
 49
6.35
 74
     0
 49
-1.27
 74
     0
 49
1.27
 74
     0
 49
-1.27
 74
     0
  0
LTYPE
  5
71
330
5
100
AcDbSymbolTableRecord
100
AcDbLinetypeTableRecord
  2
CENTERX2
 70
     0
  3
Center (2x) ________  __  ________  __  _____
 72
    65
 73
     4
 40
20.32
 49
12.7
 74
     0
 49
-2.54
 74
     0
 49
2.54
 74
     0
 49
-2.54
 74
     0
  0
LTYPE
  5
72
330
5
100
AcDbSymbolTableRecord
100
AcDbLinetypeTableRecord
  2
DOT2
 70
     0
  3
Dot (.5x) ........................................
 72
    65
 73
     2
 40
0.635
 49
0.0
 74
     0
 49
-0.635
 74
     0
  0
ENDTAB
  0
TABLE
  2
LAYER
  5
2
330
0
100
AcDbSymbolTable
 70
     2
  0
LAYER
  5
10
330
2
100
AcDbSymbolTableRecord
100
AcDbLayerTableRecord
  2
0
 70
     0
 62
     7
  6
Continuous
370
    -3
390
F
  0
LAYER
  5
73
330
2
100
AcDbSymbolTableRecord
100
AcDbLayerTableRecord
  2
LENKIMO
 70
     0
 62
     1
  6
CENTERX2
370
    -3
390
F
  0
ENDTAB
  0
TABLE
  2
STYLE
  5
3
330
0
100
AcDbSymbolTable
 70
     1
  0
STYLE
  5
11
330
3
100
AcDbSymbolTableRecord
100
AcDbTextStyleTableRecord
  2
Standard
 70
     0
 40
0.0
 41
1.0
 50
0.0
 71
     0
 42
5.6444444444
  3
txt
  4

  0
ENDTAB
  0
TABLE
  2
VIEW
  5
6
330
0
100
AcDbSymbolTable
 70
     0
  0
ENDTAB
  0
TABLE
  2
UCS
  5
7
330
0
100
AcDbSymbolTable
 70
     0
  0
ENDTAB
  0
TABLE
  2
APPID
  5
9
330
0
100
AcDbSymbolTable
 70
     1
  0
APPID
  5
12
330
9
100
AcDbSymbolTableRecord
100
AcDbRegAppTableRecord
  2
ACAD
 70
     0
  0
ENDTAB
  0
TABLE
  2
DIMSTYLE
  5
A
330
0
100
AcDbSymbolTable
 70
     1
100
AcDbDimStyleTable
  0
DIMSTYLE
105
27
330
A
100
AcDbSymbolTableRecord
100
AcDbDimStyleTableRecord
  2
ISO-25
 70
     0
 41
2.5
 42
0.625
 43
3.75
 44
1.25
 73
     0
 74
     0
 77
     1
 78
     8
140
2.5
141
2.5
143
0.0393700787
147
0.625
171
     3
172
     1
178
     0
271
     2
272
     2
274
     3
278
    44
283
     0
284
     8
340
11
  0
ENDTAB
  0
TABLE
  2
BLOCK_RECORD
  5
1
330
0
100
AcDbSymbolTable
 70
     2
  0
BLOCK_RECORD
  5
1F
330
1
100
AcDbSymbolTableRecord
100
AcDbBlockTableRecord
  2
*Model_Space
340
22
  0
BLOCK_RECORD
  5
1B
330
1
100
AcDbSymbolTableRecord
100
AcDbBlockTableRecord
  2
*Paper_Space
340
1E
  0
BLOCK_RECORD
  5
23
330
1
100
AcDbSymbolTableRecord
100
AcDbBlockTableRecord
  2
*Paper_Space0
340
26
  0
BLOCK_RECORD
  5
74
330
1
100
AcDbSymbolTableRecord
100
AcDbBlockTableRecord
  2
Block11_2
340
0
  0
ENDTAB
  0
ENDSEC
  0
SECTION
  2
BLOCKS
  0
BLOCK
  5
20
330
1F
100
AcDbEntity
  8
0
100
AcDbBlockBegin
  2
*Model_Space
 70
     0
 10
0.0
 20
0.0
 30
0.0
  3
*Model_Space
  1

  0
ENDBLK
  5
21
330
1F
100
AcDbEntity
  8
0
100
AcDbBlockEnd
  0
BLOCK
  5
1C
330
1B
100
AcDbEntity
 67
     1
  8
0
100
AcDbBlockBegin
  2
*Paper_Space
 70
     0
 10
0.0
 20
0.0
 30
0.0
  3
*Paper_Space
  1

  0
ENDBLK
  5
1D
330
1B
100
AcDbEntity
 67
     1
  8
0
100
AcDbBlockEnd
  0
BLOCK
  5
24
330
23
100
AcDbEntity
  8
0
100
AcDbBlockBegin
  2
*Paper_Space0
 70
     0
 10
0.0
 20
0.0
 30
0.0
  3
*Paper_Space0
  1

  0
ENDBLK
  5
25
330
23
100
AcDbEntity
  8
0
100
AcDbBlockEnd
  0
BLOCK
  5
75
330
74
100
AcDbEntity
  8
0
100
AcDbBlockBegin
  2
Block11_2
 70
     0
 10
0.0
 20
0.0
 30
0.0
  3
Block11_2
  1

  0
LINE
  5
77
330
74
100
AcDbEntity
  8
0
  6
Continuous
100
AcDbLine
 10
-15.7956326374
 20
2.3055746011
 30
0.0
 11
-18.0649288667
 21
1.8146036087
 31
0.0
  0
LINE
  5
78
330
74
100
AcDbEntity
  8
0
  6
Continuous
100
AcDbLine
 10
-15.6988785554
 20
-9.1195335787
 30
0.0
 11
-10.2261014967
 21
-7.9354771524
 31
0.0
  0
LINE
  5
79
330
74
100
AcDbEntity
  8
0
  6
Continuous
100
AcDbLine
 10
-10.2261014967
 20
-7.9354771524
 30
0.0
 11
-10.6655808869
 21
-5.9041780766
 31
0.0
  0
LINE
  5
7A
330
74
100
AcDbEntity
  8
0
  6
Continuous
100
AcDbLine
 10
-10.6655808869
 20
-5.9041780766
 30
0.0
 11
-13.8699456036
 21
-6.5974547429
 31
0.0
  0
LINE
  5
7B
330
74
100
AcDbEntity
  8
0
  6
Continuous
100
AcDbLine
 10
-8.296070931
 20
1.802048972
 30
0.0
 11
-6.9198111955
 21
2.0998080743
 31
0.0
  0
LINE
  5
7C
330
74
100
AcDbEntity
  8
0
  6
Continuous
100
AcDbLine
 10
-5.4333831358
 20
-4.7719736412
 30
0.0
 11
-6.8095376466
 21
-5.0697099777
 31
0.0
  0
LINE
  5
7D
330
74
100
AcDbEntity
  8
0
  6
Continuous
100
AcDbLine
 10
-11.0044904538
 20
3.3421566929
 30
0.0
 11
-8.6388294738
 21
-7.5920647278
 31
0.0
  0
LINE
  5
7E
330
74
100
AcDbEntity
  8
0
  6
Continuous
100
AcDbLine
 10
-8.6388294738
 20
-7.5920647278
 30
0.0
 11
-8.6384401425
 21
-7.5919804944
 31
0.0
  0
LINE
  5
7F
330
74
100
AcDbEntity
  8
0
  6
Continuous
100
AcDbLine
 10
-8.6384401425
 20
-7.5919804944
 30
0.0
 11
-4.4940245505
 21
-6.6953201952
 31
0.0
  0
LINE
  5
80
330
74
100
AcDbEntity
  8
0
  6
Continuous
100
AcDbLine
 10
-6.8595855671
 20
4.238922853
 30
0.0
 11
-11.0044904538
 21
3.3421566929
 31
0.0
  0
LINE
  5
81
330
74
100
AcDbEntity
  8
0
  6
Continuous
100
AcDbLine
 10
-32.9933593229
 20
-3.3005605139
 30
0.0
 11
-32.8591663041
 21
-3.2715273367
 31
0.0
  0
LINE
  5
82
330
74
100
AcDbEntity
  8
0
  6
Continuous
100
AcDbLine
 10
-31.5697721187
 20
-3.9678201523
 30
0.0
 11
-29.2969561243
 21
-3.4760876451
 31
0.0
  0
LINE
  5
83
330
74
100
AcDbEntity
  8
0
  6
Continuous
100
AcDbLine
 10
-33.2794920496
 20
-1.2667721217
 30
0.0
 11
-33.3448839193
 21
-1.2809199049
 31
0.0
  0
LINE
  5
84
330
74
100
AcDbEntity
  8
0
  6
Continuous
100
AcDbLine
 10
-31.3289079349
 20
-10.5856399919
 30
0.0
 11
-31.4650581325
 21
-10.6150966123
 31
0.0
  0
LINE
  5
85
330
74
100
AcDbEntity
  8
0
  6
Continuous
100
AcDbLine
 10
-32.8822392925
 20
-9.9377601564
 30
0.0
 11
-35.1888692339
 21
-10.4368084414
 31
0.0
  0
LINE
  5
86
330
74
100
AcDbEntity
  8
0
  6
Continuous
100
AcDbLine
 10
-31.5949683304
 20
-12.7295787952
 30
0.0
 11
-30.2063920476
 21
-12.4291549603
 31
0.0
  0
LINE
  5
87
330
74
100
AcDbEntity
  8
0
  6
Continuous
100
AcDbLine
 10
6.262509235
 20
-4.3681026205
 30
0.0
 11
8.6370616994
 21
-3.8543590356
 31
0.0
  0
LINE
  5
88
330
74
100
AcDbEntity
  8
0
  6
Continuous
100
AcDbLine
 10
8.6370616994
 20
-3.8543590356
 30
0.0
 11
3.9059396663
 21
6.5680857621
 31
0.0
  0
LINE
  5
89
330
74
100
AcDbEntity
  8
0
  6
Continuous
100
AcDbLine
 10
3.9059396663
 20
6.5680857621
 30
0.0
 11
0.0
 21
5.7230206493
 31
0.0
  0
LINE
  5
8A
330
74
100
AcDbEntity
  8
0
  6
Continuous
100
AcDbLine
 10
0.0
 20
5.7230206493
 30
0.0
 11
0.0
 21
-5.7230206493
 31
0.0
  0
LINE
  5
8B
330
74
100
AcDbEntity
  8
0
  6
Continuous
100
AcDbLine
 10
0.0
 20
-5.7230206493
 30
0.0
 11
2.3746576891
 21
-5.2092542987
 31
0.0
  0
LINE
  5
8C
330
74
100
AcDbEntity
  8
0
  6
Continuous
100
AcDbLine
 10
2.3746576891
 20
-5.2092542987
 30
0.0
 11
2.3747844598
 21
-3.0912381741
 31
0.0
  0
LINE
  5
8D
330
74
100
AcDbEntity
  8
0
  6
Continuous
100
AcDbLine
 10
2.3747844598
 20
-3.0912381741
 30
0.0
 11
4.0318309599
 21
-2.7327297722
 31
0.0
  0
LINE
  5
8E
330
74
100
AcDbEntity
  8
0
  6
Continuous
100
AcDbLine
 10
4.0318309599
 20
-2.7327297722
 30
0.0
 11
3.5923515697
 21
-0.7014306964
 31
0.0
  0
LINE
  5
8F
330
74
100
AcDbEntity
  8
0
  6
Continuous
100
AcDbLine
 10
3.5923515697
 20
-0.7014306964
 30
0.0
 11
2.3750284336
 21
-0.9648032524
 31
0.0
  0
LINE
  5
90
330
74
100
AcDbEntity
  8
0
  6
Continuous
100
AcDbLine
 10
2.3750284336
 20
-0.9648032524
 30
0.0
 11
2.3752084601
 21
4.1936873712
 31
0.0
  0
LINE
  5
91
330
74
100
AcDbEntity
  8
0
  6
Continuous
100
AcDbLine
 10
2.3752084601
 20
4.1936873712
 30
0.0
 11
6.262509235
 21
-4.3681026205
 31
0.0
  0
LINE
  5
92
330
74
100
AcDbEntity
  8
0
  6
Continuous
100
AcDbLine
 10
-53.0629352118
 20
-11.4801779454
 30
0.0
 11
-50.7945341276
 21
-8.0228043203
 31
0.0
  0
LINE
  5
93
330
74
100
AcDbEntity
  8
0
  6
Continuous
100
AcDbLine
 10
-50.7945341276
 20
-8.0228043203
 30
0.0
 11
-54.2891069366
 21
-5.8122833411
 31
0.0
  0
LINE
  5
94
330
74
100
AcDbEntity
  8
0
  6
Continuous
100
AcDbLine
 10
-54.2891069366
 20
-5.8122833411
 30
0.0
 11
-51.4073820962
 21
-5.1888110564
 31
0.0
  0
LINE
  5
95
330
74
100
AcDbEntity
  8
0
  6
Continuous
100
AcDbLine
 10
-51.4073820962
 20
-5.1888110564
 30
0.0
 11
-47.9127327975
 21
-7.3992273667
 31
0.0
  0
LINE
  5
96
330
74
100
AcDbEntity
  8
0
  6
Continuous
100
AcDbLine
 10
-47.9127327975
 20
-7.3992273667
 30
0.0
 11
-50.1813587974
 21
-10.8569360435
 31
0.0
  0
LINE
  5
97
330
74
100
AcDbEntity
  8
0
  6
Continuous
100
AcDbLine
 10
-50.1813587974
 20
-10.8569360435
 30
0.0
 11
-53.0628942334
 21
-11.4803673498
 31
0.0
  0
LINE
  5
98
330
74
100
AcDbEntity
  8
0
  6
Continuous
100
AcDbLine
 10
-53.0628942334
 20
-11.4803673498
 30
0.0
 11
-53.0629352118
 21
-11.4801779454
 31
0.0
  0
LINE
  5
99
330
74
100
AcDbEntity
  8
0
  6
Continuous
100
AcDbLine
 10
-42.7624916815
 20
-3.31845567
 30
0.0
 11
-45.0307950789
 21
-6.7757971452
 31
0.0
  0
LINE
  5
9A
330
74
100
AcDbEntity
  8
0
  6
Continuous
100
AcDbLine
 10
-45.0307950789
 20
-6.7757971452
 30
0.0
 11
-48.5254573289
 21
-4.5652955168
 31
0.0
  0
LINE
  5
9B
330
74
100
AcDbEntity
  8
0
  6
Continuous
100
AcDbLine
 10
-48.5254573289
 20
-4.5652955168
 30
0.0
 11
-48.5257466967
 21
-4.5653581227
 31
0.0
  0
LINE
  5
9C
330
74
100
AcDbEntity
  8
0
  6
Continuous
100
AcDbLine
 10
-48.5257466967
 20
-4.5653581227
 30
0.0
 11
-47.9126146215
 21
-7.399289919
 31
0.0
  0
LINE
  5
9D
330
74
100
AcDbEntity
  8
0
  6
Continuous
100
AcDbLine
 10
-47.9126146215
 20
-7.399289919
 30
0.0
 11
-44.4177372167
 21
-9.6098441329
 31
0.0
  0
LINE
  5
9E
330
74
100
AcDbEntity
  8
0
  6
Continuous
100
AcDbLine
 10
-44.4177372167
 20
-9.6098441329
 30
0.0
 11
-42.1490649772
 21
-6.1523237222
 31
0.0
  0
LINE
  5
9F
330
74
100
AcDbEntity
  8
0
  6
Continuous
100
AcDbLine
 10
-42.1490649772
 20
-6.1523237222
 30
0.0
 11
-42.7621970524
 21
-3.3183919259
 31
0.0
  0
LINE
  5
A0
330
74
100
AcDbEntity
  8
0
  6
Continuous
100
AcDbLine
 10
-42.7621970524
 20
-3.3183919259
 30
0.0
 11
-42.7624916815
 21
-3.31845567
 31
0.0
  0
LINE
  5
A1
330
74
100
AcDbEntity
  8
0
  6
Continuous
100
AcDbLine
 10
-41.535889647
 20
-8.9864554454
 30
0.0
 11
-43.8045413973
 21
-12.4440705583
 31
0.0
  0
LINE
  5
A2
330
74
100
AcDbEntity
  8
0
  6
Continuous
100
AcDbLine
 10
-43.8045413973
 20
-12.4440705583
 30
0.0
 11
-40.3564529382
 21
-14.625159785
 31
0.0
  0
LINE
  5
A3
330
74
100
AcDbEntity
  8
0
  6
Continuous
100
AcDbLine
 10
-40.3564529382
 20
-14.625159785
 30
0.0
 11
-43.2382724808
 21
-15.2486525588
 31
0.0
  0
LINE
  5
A4
330
74
100
AcDbEntity
  8
0
  6
Continuous
100
AcDbLine
 10
-43.2382724808
 20
-15.2486525588
 30
0.0
 11
-46.686243472
 21
-13.0676480676
 31
0.0
  0
LINE
  5
A5
330
74
100
AcDbEntity
  8
0
  6
Continuous
100
AcDbLine
 10
-46.686243472
 20
-13.0676480676
 30
0.0
 11
-44.4177144509
 21
-9.6099493576
 31
0.0
  0
LINE
  5
A6
330
74
100
AcDbEntity
  8
0
  6
Continuous
100
AcDbLine
 10
-44.4177144509
 20
-9.6099493576
 30
0.0
 11
-41.535889647
 21
-8.9864554454
 31
0.0
  0
LINE
  5
A7
330
74
100
AcDbEntity
  8
0
  6
Continuous
100
AcDbLine
 10
-51.8063383656
 20
-17.1023866618
 30
0.0
 11
-49.5681857438
 21
-13.6910572443
 31
0.0
  0
LINE
  5
A8
330
74
100
AcDbEntity
  8
0
  6
Continuous
100
AcDbLine
 10
-49.5681857438
 20
-13.6910572443
 30
0.0
 11
-46.1199973213
 21
-15.8721248435
 31
0.0
  0
LINE
  5
A9
330
74
100
AcDbEntity
  8
0
  6
Continuous
100
AcDbLine
 10
-46.1199973213
 20
-15.8721248435
 30
0.0
 11
-46.0813956519
 21
-15.8637732234
 31
0.0
  0
LINE
  5
AA
330
74
100
AcDbEntity
  8
0
  6
Continuous
100
AcDbLine
 10
-46.0813956519
 20
-15.8637732234
 30
0.0
 11
-46.6863662012
 21
-13.0675644704
 31
0.0
  0
LINE
  5
AB
330
74
100
AcDbEntity
  8
0
  6
Continuous
100
AcDbLine
 10
-46.6863662012
 20
-13.0675644704
 30
0.0
 11
-50.1813587974
 21
-10.8569360435
 31
0.0
  0
LINE
  5
AC
330
74
100
AcDbEntity
  8
0
  6
Continuous
100
AcDbLine
 10
-50.1813587974
 20
-10.8569360435
 30
0.0
 11
-52.4497621582
 21
-14.3142991462
 31
0.0
  0
LINE
  5
AD
330
74
100
AcDbEntity
  8
0
  6
Continuous
100
AcDbLine
 10
-52.4497621582
 20
-14.3142991462
 30
0.0
 11
-51.8447506306
 21
-17.1106973035
 31
0.0
  0
LINE
  5
AE
330
74
100
AcDbEntity
  8
0
  6
Continuous
100
AcDbLine
 10
-51.8447506306
 20
-17.1106973035
 30
0.0
 11
-51.8063383656
 21
-17.1023866618
 31
0.0
  0
LINE
  5
AF
330
74
100
AcDbEntity
  8
0
  6
Continuous
100
AcDbLine
 10
-20.0432683672
 20
-10.0594590717
 30
0.0
 11
-17.6687053803
 21
-9.5457132103
 31
0.0
  0
LINE
  5
B0
330
74
100
AcDbEntity
  8
0
  6
Continuous
100
AcDbLine
 10
-17.6687053803
 20
-9.5457132103
 30
0.0
 11
-22.3998379359
 21
0.8767293109
 31
0.0
  0
LINE
  5
B1
330
74
100
AcDbEntity
  8
0
  6
Continuous
100
AcDbLine
 10
-22.3998379359
 20
0.8767293109
 30
0.0
 11
-26.3058670432
 21
0.0316448472
 31
0.0
  0
LINE
  5
B2
330
74
100
AcDbEntity
  8
0
  6
Continuous
100
AcDbLine
 10
-26.3058670432
 20
0.0316448472
 30
0.0
 11
-26.3056723775
 21
-11.4143543348
 31
0.0
  0
LINE
  5
B3
330
74
100
AcDbEntity
  8
0
  6
Continuous
100
AcDbLine
 10
-26.3056723775
 20
-11.4143543348
 30
0.0
 11
-23.9311146519
 21
-10.9006096116
 31
0.0
  0
LINE
  5
B4
330
74
100
AcDbEntity
  8
0
  6
Continuous
100
AcDbLine
 10
-23.9311146519
 20
-10.9006096116
 30
0.0
 11
-23.9309931424
 21
-8.7825946253
 31
0.0
  0
LINE
  5
B5
330
74
100
AcDbEntity
  8
0
  6
Continuous
100
AcDbLine
 10
-23.9309931424
 20
-8.7825946253
 30
0.0
 11
-22.2738308951
 21
-8.4240611811
 31
0.0
  0
LINE
  5
B6
330
74
100
AcDbEntity
  8
0
  6
Continuous
100
AcDbLine
 10
-22.2738308951
 20
-8.4240611811
 30
0.0
 11
-22.7133102854
 21
-6.3927621053
 31
0.0
  0
LINE
  5
B7
330
74
100
AcDbEntity
  8
0
  6
Continuous
100
AcDbLine
 10
-22.7133102854
 20
-6.3927621053
 30
0.0
 11
-23.9308333483
 21
-6.6561779162
 31
0.0
  0
LINE
  5
B8
330
74
100
AcDbEntity
  8
0
  6
Continuous
100
AcDbLine
 10
-23.9308333483
 20
-6.6561779162
 30
0.0
 11
-23.9305586196
 21
-1.4976668035
 31
0.0
  0
LINE
  5
B9
330
74
100
AcDbEntity
  8
0
  6
Continuous
100
AcDbLine
 10
-23.9305586196
 20
-1.4976668035
 30
0.0
 11
-20.0432683672
 21
-10.0594590717
 31
0.0
  0
SPLINE
  5
BA
330
74
100
AcDbEntity
  8
0
100
AcDbSpline
210
0.0
220
0.0
230
1.0
 70
     8
 71
     3
 72
     8
 73
     4
 74
     0
 42
0.00000001
 43
0.00000001
 40
0.0
 40
0.0
 40
0.0
 40
0.0
 40
1.0
 40
1.0
 40
1.0
 40
1.0
 10
-13.86994560355125
 20
-6.597454742918429
 30
0.0
 10
-13.88373254946556
 20
-6.53373068413859
 30
0.0
 10
-15.11365515797402
 20
-0.8489574873494021
 30
0.0
 10
-15.79563263740206
 20
2.305574601061459
 30
0.0
  0
SPLINE
  5
BB
330
74
100
AcDbEntity
  8
0
100
AcDbSpline
210
0.0
220
0.0
230
1.0
 70
     8
 71
     3
 72
     8
 73
     4
 74
     0
 42
0.00000001
 43
0.00000001
 40
2.0
 40
2.0
 40
2.0
 40
2.0
 40
3.0
 40
3.0
 40
3.0
 40
3.0
 10
-18.06492886668426
 20
1.814603608696524
 30
0.0
 10
-17.24003965005502
 20
-1.995739949107536
 30
0.0
 10
-15.71186186991051
 20
-9.059523950669432
 30
0.0
 10
-15.69887855542093
 20
-9.119533578677906
 30
0.0
  0
SPLINE
  5
BC
330
74
100
AcDbEntity
  8
0
100
AcDbSpline
210
0.0
220
0.0
230
1.0
 70
     8
 71
     3
 72
     8
 73
     4
 74
     0
 42
0.00000001
 43
0.00000001
 40
0.0
 40
0.0
 40
0.0
 40
0.0
 40
1.0
 40
1.0
 40
1.0
 40
1.0
 10
-6.809537646582547
 20
-5.069709977697404
 30
0.0
 10
-7.284290309572815
 20
-2.875375801708635
 30
0.0
 10
-7.897830097865885
 20
-0.0390758678013329
 30
0.0
 10
-8.296070930952649
 20
1.80204897196991
 30
0.0
  0
SPLINE
  5
BD
330
74
100
AcDbEntity
  8
0
100
AcDbSpline
210
0.0
220
0.0
230
1.0
 70
     8
 71
     3
 72
     8
 73
     4
 74
     0
 42
0.00000001
 43
0.00000001
 40
2.0
 40
2.0
 40
2.0
 40
2.0
 40
3.0
 40
3.0
 40
3.0
 40
3.0
 10
-6.919811195494074
 20
2.099808074263809
 30
0.0
 10
-6.228016878711183
 20
2.249480443098069
 30
0.0
 10
-5.547633595833446
 20
1.815851349115847
 30
0.0
 10
-5.399398884916104
 20
1.130701970100344
 30
0.0
  0
SPLINE
  5
BE
330
74
100
AcDbEntity
  8
0
100
AcDbSpline
210
0.0
220
0.0
230
1.0
 70
     8
 71
     3
 72
     8
 73
     4
 74
     0
 42
0.00000001
 43
0.00000001
 40
3.0
 40
3.0
 40
3.0
 40
3.0
 40
4.0
 40
4.0
 40
4.0
 40
4.0
 10
-5.399398884916104
 20
1.130701970100344
 30
0.0
 10
-5.107009087764085
 20
-0.2207405274728672
 30
0.0
 10
-4.711497421058354
 20
-2.048334586467611
 30
0.0
 10
-4.449160707297047
 20
-3.260870000165379
 30
0.0
  0
SPLINE
  5
BF
330
74
100
AcDbEntity
  8
0
100
AcDbSpline
210
0.0
220
0.0
230
1.0
 70
     8
 71
     3
 72
     8
 73
     4
 74
     0
 42
0.00000001
 43
0.00000001
 40
4.0
 40
4.0
 40
4.0
 40
4.0
 40
5.0
 40
5.0
 40
5.0
 40
5.0
 10
-4.449160707297047
 20
-3.260870000165379
 30
0.0
 10
-4.300905507193207
 20
-3.946114081381999
 30
0.0
 10
-4.741570606399121
 20
-4.622385452066122
 30
0.0
 10
-5.433383135791953
 20
-4.771973641166296
 30
0.0
  0
SPLINE
  5
C0
330
74
100
AcDbEntity
  8
0
100
AcDbSpline
210
0.0
220
0.0
230
1.0
 70
     8
 71
     3
 72
     8
 73
     4
 74
     0
 42
0.00000001
 43
0.00000001
 40
3.0
 40
3.0
 40
3.0
 40
3.0
 40
4.0
 40
4.0
 40
4.0
 40
4.0
 10
-4.494024550545999
 20
-6.695320195210662
 30
0.0
 10
-2.825524345390513
 20
-6.334333740063992
 30
0.0
 10
-1.762658323115034
 20
-4.702068307882374
 30
0.0
 10
-2.120071189640999
 20
-3.049576315093403
 30
0.0
  0
SPLINE
  5
C1
330
74
100
AcDbEntity
  8
0
100
AcDbSpline
210
0.0
220
0.0
230
1.0
 70
     8
 71
     3
 72
     8
 73
     4
 74
     0
 42
0.00000001
 43
0.00000001
 40
4.0
 40
4.0
 40
4.0
 40
4.0
 40
5.0
 40
5.0
 40
5.0
 40
5.0
 10
-2.120071189640999
 20
-3.049576315093403
 30
0.0
 10
-2.485983017556096
 20
-1.358310753073632
 30
0.0
 10
-2.867352798370483
 20
0.4044023583376265
 30
0.0
 10
-3.190995488197396
 20
1.900704823656681
 30
0.0
  0
SPLINE
  5
C2
330
74
100
AcDbEntity
  8
0
100
AcDbSpline
210
0.0
220
0.0
230
1.0
 70
     8
 71
     3
 72
     8
 73
     4
 74
     0
 42
0.00000001
 43
0.00000001
 40
5.0
 40
5.0
 40
5.0
 40
5.0
 40
6.0
 40
6.0
 40
6.0
 40
6.0
 10
-3.190995488197396
 20
1.900704823656681
 30
0.0
 10
-3.54857504695031
 20
3.553458157285876
 30
0.0
 10
-5.190901218780231
 20
4.599949148191988
 30
0.0
 10
-6.859585567104196
 20
4.238922852960538
 30
0.0
  0
SPLINE
  5
C3
330
74
100
AcDbEntity
  8
0
100
AcDbSpline
210
0.0
220
0.0
230
1.0
 70
     8
 71
     3
 72
     8
 73
     4
 74
     0
 42
0.00000001
 43
0.00000001
 40
0.0
 40
0.0
 40
0.0
 40
0.0
 40
1.0
 40
1.0
 40
1.0
 40
1.0
 10
-30.23703582864644
 20
-6.251438951366732
 30
0.0
 10
-30.9104300186728
 20
-6.015603382360459
 30
0.0
 10
-31.40848551125485
 20
-5.893156856121871
 30
0.0
 10
-32.67210357750635
 20
-5.496689523479785
 30
0.0
  0
SPLINE
  5
C4
330
74
100
AcDbEntity
  8
0
100
AcDbSpline
210
0.0
220
0.0
230
1.0
 70
     8
 71
     3
 72
     8
 73
     4
 74
     0
 42
0.00000001
 43
0.00000001
 40
1.0
 40
1.0
 40
1.0
 40
1.0
 40
2.0
 40
2.0
 40
2.0
 40
2.0
 10
-32.67210357750635
 20
-5.496689523479785
 30
0.0
 10
-33.03332194555517
 20
-5.383421617718132
 30
0.0
 10
-33.81210282496122
 20
-5.206692347750555
 30
0.0
 10
-33.94849250952588
 20
-4.576291363356936
 30
0.0
  0
SPLINE
  5
C5
330
74
100
AcDbEntity
  8
0
100
AcDbSpline
210
0.0
220
0.0
230
1.0
 70
     8
 71
     3
 72
     8
 73
     4
 74
     0
 42
0.00000001
 43
0.00000001
 40
2.0
 40
2.0
 40
2.0
 40
2.0
 40
3.0
 40
3.0
 40
3.0
 40
3.0
 10
-33.94849250952588
 20
-4.576291363356936
 30
0.0
 10
-34.11622381965225
 20
-3.801027578894063
 30
0.0
 10
-33.67528356585564
 20
-3.448097454184924
 30
0.0
 10
-32.99335932290604
 20
-3.30056051389548
 30
0.0
  0
SPLINE
  5
C6
330
74
100
AcDbEntity
  8
0
100
AcDbSpline
210
0.0
220
0.0
230
1.0
 70
     8
 71
     3
 72
     8
 73
     4
 74
     0
 42
0.00000001
 43
0.00000001
 40
4.0
 40
4.0
 40
4.0
 40
4.0
 40
5.0
 40
5.0
 40
5.0
 40
5.0
 10
-32.85916630414497
 20
-3.271527336675416
 30
0.0
 10
-32.2786944245911
 20
-3.14594000653005
 30
0.0
 10
-31.77109773641243
 20
-3.328116480283148
 30
0.0
 10
-31.56977211870437
 20
-3.967820152272103
 30
0.0
  0
SPLINE
  5
C7
330
74
100
AcDbEntity
  8
0
100
AcDbSpline
210
0.0
220
0.0
230
1.0
 70
     8
 71
     3
 72
     8
 73
     4
 74
     0
 42
0.00000001
 43
0.00000001
 40
6.0
 40
6.0
 40
6.0
 40
6.0
 40
7.0
 40
7.0
 40
7.0
 40
7.0
 10
-29.29695612428625
 20
-3.476087645143529
 30
0.0
 10
-29.68810071971012
 20
-1.866802583842748
 30
0.0
 10
-30.87776107222441
 20
-0.7599478056671497
 30
0.0
 10
-33.27949204955325
 20
-1.266772121690862
 30
0.0
  0
SPLINE
  5
C8
330
74
100
AcDbEntity
  8
0
100
AcDbSpline
210
0.0
220
0.0
230
1.0
 70
     8
 71
     3
 72
     8
 73
     4
 74
     0
 42
0.00000001
 43
0.00000001
 40
8.0
 40
8.0
 40
8.0
 40
8.0
 40
9.0
 40
9.0
 40
9.0
 40
9.0
 10
-33.34488391931659
 20
-1.280919904944554
 30
0.0
 10
-35.81152992452102
 20
-1.828202838410209
 30
0.0
 10
-36.33378487826545
 20
-3.54465012997844
 30
0.0
 10
-36.09207577942843
 20
-4.962606301827474
 30
0.0
  0
SPLINE
  5
C9
330
74
100
AcDbEntity
  8
0
100
AcDbSpline
210
0.0
220
0.0
230
1.0
 70
     8
 71
     3
 72
     8
 73
     4
 74
     0
 42
0.00000001
 43
0.00000001
 40
9.0
 40
9.0
 40
9.0
 40
9.0
 40
10.0
 40
10.0
 40
10.0
 40
10.0
 10
-36.09207577942843
 20
-4.962606301827474
 30
0.0
 10
-35.83736690020325
 20
-6.457652824126185
 30
0.0
 10
-34.96800490008025
 20
-7.196828812263726
 30
0.0
 10
-33.99931718292642
 20
-7.502708028683521
 30
0.0
  0
SPLINE
  5
CA
330
74
100
AcDbEntity
  8
0
100
AcDbSpline
210
0.0
220
0.0
230
1.0
 70
     8
 71
     3
 72
     8
 73
     4
 74
     0
 42
0.00000001
 43
0.00000001
 40
10.0
 40
10.0
 40
10.0
 40
10.0
 40
11.0
 40
11.0
 40
11.0
 40
11.0
 10
-33.99931718292642
 20
-7.502708028683521
 30
0.0
 10
-33.40907414696034
 20
-7.689011641945549
 30
0.0
 10
-32.48616403135102
 20
-7.975318844696811
 30
0.0
 10
-31.47547483016511
 20
-8.271505052332133
 30
0.0
  0
SPLINE
  5
CB
330
74
100
AcDbEntity
  8
0
100
AcDbSpline
210
0.0
220
0.0
230
1.0
 70
     8
 71
     3
 72
     8
 73
     4
 74
     0
 42
0.00000001
 43
0.00000001
 40
11.0
 40
11.0
 40
11.0
 40
11.0
 40
12.0
 40
12.0
 40
12.0
 40
12.0
 10
-31.47547483016511
 20
-8.271505052332133
 30
0.0
 10
-31.11213516930565
 20
-8.377980375833697
 30
0.0
 10
-30.40258052645035
 20
-8.55729511966404
 30
0.0
 10
-30.28870163819746
 20
-9.336631754491275
 30
0.0
  0
SPLINE
  5
CC
330
74
100
AcDbEntity
  8
0
100
AcDbSpline
210
0.0
220
0.0
230
1.0
 70
     8
 71
     3
 72
     8
 73
     4
 74
     0
 42
0.00000001
 43
0.00000001
 40
12.0
 40
12.0
 40
12.0
 40
12.0
 40
13.0
 40
13.0
 40
13.0
 40
13.0
 10
-30.28870163819746
 20
-9.336631754491275
 30
0.0
 10
-30.1883718252622
 20
-10.02498578462436
 30
0.0
 10
-30.64014408852681
 20
-10.43662327702193
 30
0.0
 10
-31.32890793487913
 20
-10.58563999188937
 30
0.0
  0
SPLINE
  5
CD
330
74
100
AcDbEntity
  8
0
100
AcDbSpline
210
0.0
220
0.0
230
1.0
 70
     8
 71
     3
 72
     8
 73
     4
 74
     0
 42
0.00000001
 43
0.00000001
 40
14.0
 40
14.0
 40
14.0
 40
14.0
 40
15.0
 40
15.0
 40
15.0
 40
15.0
 10
-31.46505813246006
 20
-10.61509661229636
 30
0.0
 10
-32.05208024758041
 20
-10.74210111117219
 30
0.0
 10
-32.71260096537058
 20
-10.55064660173623
 30
0.0
 10
-32.8822392924921
 20
-9.937760156430087
 30
0.0
  0
SPLINE
  5
CE
330
74
100
AcDbEntity
  8
0
100
AcDbSpline
210
0.0
220
0.0
230
1.0
 70
     8
 71
     3
 72
     8
 73
     4
 74
     0
 42
0.00000001
 43
0.00000001
 40
16.0
 40
16.0
 40
16.0
 40
16.0
 40
17.0
 40
17.0
 40
17.0
 40
17.0
 10
-35.1888692338865
 20
-10.43680844141459
 30
0.0
 10
-34.81471685749703
 20
-11.8843133271045
 30
0.0
 10
-33.72975075395794
 20
-12.95131992706823
 30
0.0
 10
-31.59496833044066
 20
-12.72957879515504
 30
0.0
  0
SPLINE
  5
CF
330
74
100
AcDbEntity
  8
0
100
AcDbSpline
210
0.0
220
0.0
230
1.0
 70
     8
 71
     3
 72
     8
 73
     4
 74
     0
 42
0.00000001
 43
0.00000001
 40
18.0
 40
18.0
 40
18.0
 40
18.0
 40
19.0
 40
19.0
 40
19.0
 40
19.0
 10
-30.20639204762402
 20
-12.42915496033268
 30
0.0
 10
-28.36320980349184
 20
-11.79454394754582
 30
0.0
 10
-27.78707037380765
 20
-10.41512978795686
 30
0.0
 10
-27.91988511866083
 20
-9.073464993912006
 30
0.0
  0
SPLINE
  5
D0
330
74
100
AcDbEntity
  8
0
100
AcDbSpline
210
0.0
220
0.0
230
1.0
 70
     8
 71
     3
 72
     8
 73
     4
 74
     0
 42
0.00000001
 43
0.00000001
 40
19.0
 40
19.0
 40
19.0
 40
19.0
 40
20.0
 40
20.0
 40
20.0
 40
20.0
 10
-27.91988511866083
 20
-9.073464993912006
 30
0.0
 10
-28.12563217330358
 20
-6.994152508733083
 30
0.0
 10
-29.51271678483619
 20
-6.50510505043454
 30
0.0
 10
-30.23703582864644
 20
-6.251438951366732
 30
0.0
  0
HATCH
  5
D1
330
74
100
AcDbEntity
  8
0
100
AcDbHatch
 10
0.0
 20
0.0
 30
0.0
210
0.0
220
0.0
230
1.0
  2
SOLID
 70
     1
 71
     0
 91
        1
 92
        0
 93
        7
 72
     1
 10
-53.06293521179145
 20
-11.48017794540906
 11
-53.0628942334185
 21
-11.48036734981106
 72
     1
 10
-53.0628942334185
 20
-11.48036734981106
 11
-50.18135879739363
 21
-10.85693604353014
 72
     1
 10
-50.18135879739363
 20
-10.85693604353014
 11
-47.91273279754322
 21
-7.399227366744369
 72
     1
 10
-47.91273279754322
 20
-7.399227366744369
 11
-51.40738209617635
 21
-5.188811056417426
 72
     1
 10
-51.40738209617635
 20
-5.188811056417426
 11
-54.28910693660305
 21
-5.812283341071309
 72
     1
 10
-54.28910693660305
 20
-5.812283341071309
 11
-50.79453412756107
 21
-8.022804320319173
 72
     1
 10
-50.79453412756107
 20
-8.022804320319173
 11
-53.06293521179145
 21
-11.48017794540906
 97
        0
 75
     0
 76
     1
 98
        1
 10
0.0
 20
0.0
  0
HATCH
  5
D2
330
74
100
AcDbEntity
  8
0
100
AcDbHatch
 10
0.0
 20
0.0
 30
0.0
210
0.0
220
0.0
230
1.0
  2
SOLID
 70
     1
 71
     0
 91
        1
 92
        0
 93
        6
 72
     1
 10
-41.53588964704281
 20
-8.986455445432597
 11
-44.41771445090438
 21
-9.609949357561213
 72
     1
 10
-44.41771445090438
 20
-9.609949357561213
 11
-46.68624347197728
 21
-13.06764806762683
 72
     1
 10
-46.68624347197728
 20
-13.06764806762683
 11
-43.23827248082917
 21
-15.24865255879992
 72
     1
 10
-43.23827248082917
 20
-15.24865255879992
 11
-40.35645293820115
 21
-14.62515978495947
 72
     1
 10
-40.35645293820115
 20
-14.62515978495947
 11
-43.80454139731328
 21
-12.44407055830516
 72
     1
 10
-43.80454139731328
 20
-12.44407055830516
 11
-41.53588964704281
 21
-8.986455445432597
 97
        0
 75
     0
 76
     1
 98
        1
 10
0.0
 20
0.0
  0
HATCH
  5
D3
330
74
100
AcDbEntity
  8
0
100
AcDbHatch
 10
0.0
 20
0.0
 30
0.0
210
0.0
220
0.0
230
1.0
  2
SOLID
 70
     1
 71
     0
 91
        1
 92
        0
 93
       20
 72
     4
 94
        3
 73
     1
 74
     0
 95
        8
 96
        4
 40
18.0
 40
18.0
 40
18.0
 40
18.0
 40
19.0
 40
19.0
 40
19.0
 40
19.0
 10
-30.20639204762402
 20
-12.42915496033267
 42
1.0
 10
-28.36320980349188
 20
-11.79454394754584
 42
1.0
 10
-27.78707037380775
 20
-10.41512978795687
 42
1.0
 10
-27.91988511866085
 20
-9.073464993912015
 42
1.0
 72
     4
 94
        3
 73
     1
 74
     0
 95
        8
 96
        4
 40
19.0
 40
19.0
 40
19.0
 40
19.0
 40
20.0
 40
20.0
 40
20.0
 40
20.0
 10
-27.91988511866085
 20
-9.073464993912015
 42
1.0
 10
-28.1256321733036
 20
-6.994152508733093
 42
1.0
 10
-29.51271678483624
 20
-6.505105050434554
 42
1.0
 10
-30.23703582864647
 20
-6.251438951366739
 42
1.0
 72
     4
 94
        3
 73
     1
 74
     0
 95
        8
 96
        4
 40
0.0
 40
0.0
 40
0.0
 40
0.0
 40
1.0
 40
1.0
 40
1.0
 40
1.0
 10
-30.23703582864647
 20
-6.251438951366739
 42
1.0
 10
-30.91043001867278
 20
-6.015603382360466
 42
1.0
 10
-31.40848551125484
 20
-5.893156856121866
 42
1.0
 10
-32.67210357750633
 20
-5.496689523479784
 42
1.0
 72
     4
 94
        3
 73
     1
 74
     0
 95
        8
 96
        4
 40
1.0
 40
1.0
 40
1.0
 40
1.0
 40
2.0
 40
2.0
 40
2.0
 40
2.0
 10
-32.67210357750633
 20
-5.496689523479784
 42
1.0
 10
-33.03332194555515
 20
-5.383421617718138
 42
1.0
 10
-33.81210282496121
 20
-5.206692347750558
 42
1.0
 10
-33.94849250952591
 20
-4.576291363356954
 42
1.0
 72
     4
 94
        3
 73
     1
 74
     0
 95
        8
 96
        4
 40
2.0
 40
2.0
 40
2.0
 40
2.0
 40
3.0
 40
3.0
 40
3.0
 40
3.0
 10
-33.94849250952591
 20
-4.576291363356954
 42
1.0
 10
-34.11622381965228
 20
-3.801027578894066
 42
1.0
 10
-33.67528356585566
 20
-3.448097454184939
 42
1.0
 10
-32.99335932290605
 20
-3.300560513895483
 42
1.0
 72
     1
 10
-32.99335932290605
 20
-3.300560513895483
 11
-32.85916630414502
 21
-3.271527336675422
 72
     4
 94
        3
 73
     1
 74
     0
 95
        8
 96
        4
 40
4.0
 40
4.0
 40
4.0
 40
4.0
 40
5.0
 40
5.0
 40
5.0
 40
5.0
 10
-32.85916630414502
 20
-3.271527336675422
 42
1.0
 10
-32.27869442459117
 20
-3.145940006530068
 42
1.0
 10
-31.77109773641243
 20
-3.328116480283154
 42
1.0
 10
-31.5697721187044
 20
-3.967820152272114
 42
1.0
 72
     1
 10
-31.5697721187044
 20
-3.967820152272114
 11
-29.29695612428624
 21
-3.476087645143523
 72
     4
 94
        3
 73
     1
 74
     0
 95
        8
 96
        4
 40
6.0
 40
6.0
 40
6.0
 40
6.0
 40
7.0
 40
7.0
 40
7.0
 40
7.0
 10
-29.2969561242863
 20
-3.476087645143538
 42
1.0
 10
-29.6881007197101
 20
-1.866802583842747
 42
1.0
 10
-30.87776107222446
 20
-0.7599478056671519
 42
1.0
 10
-33.27949204955327
 20
-1.266772121690873
 42
1.0
 72
     1
 10
-33.27949204955321
 20
-1.266772121690857
 11
-33.3448839193166
 21
-1.280919904944549
 72
     4
 94
        3
 73
     1
 74
     0
 95
        8
 96
        4
 40
8.0
 40
8.0
 40
8.0
 40
8.0
 40
9.0
 40
9.0
 40
9.0
 40
9.0
 10
-33.34488391931666
 20
-1.280919904944565
 42
1.0
 10
-35.8115299245211
 20
-1.828202838410234
 42
1.0
 10
-36.3337848782655
 20
-3.544650129978449
 42
1.0
 10
-36.09207577942846
 20
-4.962606301827486
 42
1.0
 72
     4
 94
        3
 73
     1
 74
     0
 95
        8
 96
        4
 40
9.0
 40
9.0
 40
9.0
 40
9.0
 40
10.0
 40
10.0
 40
10.0
 40
10.0
 10
-36.09207577942846
 20
-4.962606301827486
 42
1.0
 10
-35.83736690020323
 20
-6.457652824126184
 42
1.0
 10
-34.96800490008029
 20
-7.196828812263736
 42
1.0
 10
-33.99931718292643
 20
-7.502708028683525
 42
1.0
 72
     4
 94
        3
 73
     1
 74
     0
 95
        8
 96
        4
 40
10.0
 40
10.0
 40
10.0
 40
10.0
 40
11.0
 40
11.0
 40
11.0
 40
11.0
 10
-33.99931718292643
 20
-7.502708028683525
 42
1.0
 10
-33.40907414696031
 20
-7.689011641945555
 42
1.0
 10
-32.48616403135106
 20
-7.975318844696822
 42
1.0
 10
-31.47547483016516
 20
-8.27150505233215
 42
1.0
 72
     4
 94
        3
 73
     1
 74
     0
 95
        8
 96
        4
 40
11.0
 40
11.0
 40
11.0
 40
11.0
 40
12.0
 40
12.0
 40
12.0
 40
12.0
 10
-31.47547483016516
 20
-8.27150505233215
 42
1.0
 10
-31.11213516930568
 20
-8.377980375833708
 42
1.0
 10
-30.40258052645039
 20
-8.557295119664056
 42
1.0
 10
-30.28870163819752
 20
-9.336631754491272
 42
1.0
 72
     4
 94
        3
 73
     1
 74
     0
 95
        8
 96
        4
 40
12.0
 40
12.0
 40
12.0
 40
12.0
 40
13.0
 40
13.0
 40
13.0
 40
13.0
 10
-30.28870163819752
 20
-9.336631754491272
 42
1.0
 10
-30.18837182526216
 20
-10.02498578462435
 42
1.0
 10
-30.64014408852681
 20
-10.43662327702195
 42
1.0
 10
-31.32890793487914
 20
-10.58563999188937
 42
1.0
 72
     1
 10
-31.32890793487914
 20
-10.58563999188937
 11
-31.46505813246008
 21
-10.61509661229637
 72
     4
 94
        3
 73
     1
 74
     0
 95
        8
 96
        4
 40
14.0
 40
14.0
 40
14.0
 40
14.0
 40
15.0
 40
15.0
 40
15.0
 40
15.0
 10
-31.46505813246008
 20
-10.61509661229637
 42
1.0
 10
-32.05208024758041
 20
-10.7421011111722
 42
1.0
 10
-32.71260096537064
 20
-10.55064660173623
 42
1.0
 10
-32.88223929249212
 20
-9.937760156430087
 42
1.0
 72
     1
 10
-32.88223929249212
 20
-9.937760156430087
 11
-35.18886923388655
 21
-10.43680844141459
 72
     4
 94
        3
 73
     1
 74
     0
 95
        8
 96
        4
 40
16.0
 40
16.0
 40
16.0
 40
16.0
 40
17.0
 40
17.0
 40
17.0
 40
17.0
 10
-35.18886923388649
 20
-10.43680844141459
 42
1.0
 10
-34.81471685749708
 20
-11.88431332710451
 42
1.0
 10
-33.72975075395801
 20
-12.95131992706824
 42
1.0
 10
-31.59496833044075
 20
-12.72957879515506
 42
1.0
 72
     1
 10
-31.59496833044068
 20
-12.72957879515504
 11
-30.20639204762409
 21
-12.42915496033269
 97
        0
 75
     0
 76
     1
 98
        1
 10
0.0
 20
0.0
  0
HATCH
  5
D4
330
74
100
AcDbEntity
  8
0
100
AcDbHatch
 10
0.0
 20
0.0
 30
0.0
210
0.0
220
0.0
230
1.0
  2
SOLID
 70
     1
 71
     0
 91
        1
 92
        0
 93
       11
 72
     1
 10
-23.93083334830058
 20
-6.656177916224847
 11
-23.9305586195879
 21
-1.497666803489873
 72
     1
 10
-23.9305586195879
 20
-1.497666803489873
 11
-20.04326836721582
 21
-10.05945907169815
 72
     1
 10
-20.04326836721582
 20
-10.05945907169815
 11
-17.66870538033285
 21
-9.545713210289948
 72
     1
 10
-17.66870538033285
 20
-9.545713210289948
 11
-22.39983793591613
 21
0.8767293108990284
 72
     1
 10
-22.39983793591613
 20
0.8767293108990277
 11
-26.30586704316552
 21
0.0316448471579831
 72
     1
 10
-26.30586704316552
 20
0.0316448471579831
 11
-26.30567237753049
 21
-11.41435433475813
 72
     1
 10
-26.30567237753049
 20
-11.41435433475813
 11
-23.93111465188077
 21
-10.90060961163804
 72
     1
 10
-23.93111465188077
 20
-10.90060961163804
 11
-23.93099314235586
 21
-8.782594625323274
 72
     1
 10
-23.93099314235586
 20
-8.782594625323274
 11
-22.27383089514867
 21
-8.42406118111162
 72
     1
 10
-22.27383089514867
 20
-8.42406118111162
 11
-22.7133102853523
 21
-6.392762105309743
 72
     1
 10
-22.7133102853523
 20
-6.392762105309743
 11
-23.93083334830058
 21
-6.656177916224847
 97
        0
 75
     0
 76
     1
 98
        1
 10
0.0
 20
0.0
  0
HATCH
  5
D5
330
74
100
AcDbEntity
  8
0
100
AcDbHatch
 10
0.0
 20
0.0
 30
0.0
210
0.0
220
0.0
230
1.0
  2
SOLID
 70
     1
 71
     0
 91
        1
 92
        0
 93
        6
 72
     1
 10
-15.79563263740209
 20
2.305574601061446
 11
-18.06492886668423
 21
1.814603608696526
 72
     4
 94
        3
 73
     1
 74
     0
 95
        8
 96
        4
 40
2.0
 40
2.0
 40
2.0
 40
2.0
 40
3.0
 40
3.0
 40
3.0
 40
3.0
 10
-18.06492886668423
 20
1.814603608696526
 42
1.0
 10
-17.240039650055
 20
-1.995739949107533
 42
1.0
 10
-15.71186186991055
 20
-9.059523950669437
 42
1.0
 10
-15.69887855542098
 20
-9.119533578677919
 42
1.0
 72
     1
 10
-15.69887855542092
 20
-9.119533578677903
 11
-10.22610149671526
 21
-7.93547715235816
 72
     1
 10
-10.22610149671526
 20
-7.93547715235816
 11
-10.66558088691882
 21
-5.904178076556605
 72
     1
 10
-10.66558088691882
 20
-5.904178076556605
 11
-13.86994560355126
 21
-6.597454742918437
 72
     4
 94
        3
 73
     1
 74
     0
 95
        8
 96
        4
 40
0.0
 40
0.0
 40
0.0
 40
0.0
 40
1.0
 40
1.0
 40
1.0
 40
1.0
 10
-13.86994560355126
 20
-6.597454742918437
 42
1.0
 10
-13.88373254946556
 20
-6.533730684138598
 42
1.0
 10
-15.1136551579741
 20
-0.8489574873494129
 42
1.0
 10
-15.79563263740209
 20
2.305574601061446
 42
1.0
 97
        0
 75
     0
 76
     1
 98
        1
 10
0.0
 20
0.0
  0
HATCH
  5
D6
330
74
100
AcDbEntity
  8
0
100
AcDbHatch
 10
0.0
 20
0.0
 30
0.0
210
0.0
220
0.0
230
1.0
  2
SOLID
 70
     1
 71
     0
 91
        1
 92
        0
 93
       11
 72
     1
 10
2.375028433631206
 20
-0.9648032523823513
 11
2.375208460142868
 21
4.193687371166118
 72
     1
 10
2.375208460142868
 20
4.193687371166118
 11
6.262509234981617
 21
-4.368102620465918
 72
     1
 10
6.262509234981617
 20
-4.368102620465917
 11
8.637061699398163
 21
-3.854359035633896
 72
     1
 10
8.637061699398163
 20
-3.854359035633896
 11
3.905939666281055
 21
6.568085762131229
 72
     1
 10
3.905939666281055
 20
6.56808576213123
 11
-0.0000000000001235
 21
5.723020649288631
 72
     1
 10
-0.0000000000001234
 20
5.723020649288631
 11
-0.000000000000185
 21
-5.723020649288538
 72
     1
 10
-0.000000000000185
 20
-5.723020649288538
 11
2.37465768908423
 21
-5.20925429869377
 72
     1
 10
2.37465768908423
 20
-5.20925429869377
 11
2.374784459841949
 21
-3.091238174090979
 72
     1
 10
2.374784459841949
 20
-3.091238174090979
 11
4.031830959914354
 21
-2.732729772218408
 72
     1
 10
4.031830959914354
 20
-2.732729772218408
 11
3.592351569710606
 21
-0.701430696416514
 72
     1
 10
3.592351569710606
 20
-0.7014306964165138
 11
2.375028433631206
 21
-0.9648032523823513
 97
        0
 75
     0
 76
     1
 98
        1
 10
0.0
 20
0.0
  0
HATCH
  5
D7
330
74
100
AcDbEntity
  8
0
100
AcDbHatch
 10
0.0
 20
0.0
 30
0.0
210
0.0
220
0.0
230
1.0
  2
SOLID
 70
     1
 71
     0
 91
        1
 92
        0
 93
        8
 72
     1
 10
-42.14906497721024
 20
-6.152323722221632
 11
-42.76219705242848
 21
-3.318391925879333
 72
     1
 10
-42.76219705242848
 20
-3.318391925879333
 11
-42.76249168149826
 21
-3.318455670015027
 72
     1
 10
-42.76249168149826
 20
-3.318455670015027
 11
-45.03079507887072
 21
-6.775797145163721
 72
     1
 10
-45.03079507887072
 20
-6.775797145163721
 11
-48.52545732888054
 21
-4.565295516814268
 72
     1
 10
-48.52545732888054
 20
-4.565295516814268
 11
-48.52574669671678
 21
-4.565358122661792
 72
     1
 10
-48.52574669671678
 20
-4.565358122661792
 11
-47.91261462149855
 21
-7.39928991900409
 72
     1
 10
-47.91261462149855
 20
-7.39928991900409
 11
-44.41773721666716
 21
-9.60984413289331
 72
     1
 10
-44.41773721666716
 20
-9.60984413289331
 11
-42.14906497721024
 21
-6.152323722221632
 97
        0
 75
     0
 76
     1
 98
        1
 10
0.0
 20
0.0
  0
HATCH
  5
D8
330
74
100
AcDbEntity
  8
0
100
AcDbHatch
 10
0.0
 20
0.0
 30
0.0
210
0.0
220
0.0
230
1.0
  2
SOLID
 70
     1
 71
     0
 91
        1
 92
        0
 93
        8
 72
     1
 10
-46.11999732125613
 20
-15.87212484345383
 11
-46.08139565189786
 21
-15.8637732233933
 72
     1
 10
-46.08139565189786
 20
-15.8637732233933
 11
-46.68636620117444
 21
-13.06756447043367
 72
     1
 10
-46.68636620117444
 20
-13.06756447043367
 11
-50.18135879739361
 21
-10.85693604353009
 72
     1
 10
-50.18135879739361
 20
-10.85693604353009
 11
-52.44976215820033
 21
-14.31429914615315
 72
     1
 10
-52.44976215820033
 20
-14.31429914615315
 11
-51.84475063055083
 21
-17.11069730351469
 72
     1
 10
-51.84475063055083
 20
-17.11069730351469
 11
-51.80633836559459
 21
-17.1023866618271
 72
     1
 10
-51.80633836559459
 20
-17.1023866618271
 11
-49.56818574380249
 21
-13.69105724427409
 72
     1
 10
-49.56818574380249
 20
-13.69105724427409
 11
-46.11999732125613
 21
-15.87212484345383
 97
        0
 75
     0
 76
     1
 98
        1
 10
0.0
 20
0.0
  0
HATCH
  5
D9
330
74
100
AcDbEntity
  8
0
100
AcDbHatch
 10
0.0
 20
0.0
 30
0.0
210
0.0
220
0.0
230
1.0
  2
SOLID
 70
     1
 71
     0
 91
        2
 92
        0
 93
        7
 72
     1
 10
-6.859585567104196
 20
4.238922852960538
 11
-11.00449045380928
 21
3.342156692939393
 72
     1
 10
-11.00449045380928
 20
3.342156692939393
 11
-8.638829473816639
 21
-7.592064727757185
 72
     1
 10
-8.638829473816639
 20
-7.592064727757185
 11
-8.63844014254617
 21
-7.591980494435086
 72
     1
 10
-8.63844014254617
 20
-7.591980494435086
 11
-4.494024550545999
 21
-6.695320195210662
 72
     4
 94
        3
 73
     1
 74
     0
 95
        8
 96
        4
 40
3.0
 40
3.0
 40
3.0
 40
3.0
 40
4.0
 40
4.0
 40
4.0
 40
4.0
 10
-4.494024550545999
 20
-6.695320195210662
 42
1.0
 10
-2.825524345390513
 20
-6.334333740063992
 42
1.0
 10
-1.762658323115034
 20
-4.702068307882374
 42
1.0
 10
-2.120071189640999
 20
-3.049576315093403
 42
1.0
 72
     4
 94
        3
 73
     1
 74
     0
 95
        8
 96
        4
 40
4.0
 40
4.0
 40
4.0
 40
4.0
 40
5.0
 40
5.0
 40
5.0
 40
5.0
 10
-2.120071189640999
 20
-3.049576315093403
 42
1.0
 10
-2.485983017556096
 20
-1.358310753073632
 42
1.0
 10
-2.867352798370483
 20
0.4044023583376265
 42
1.0
 10
-3.190995488197396
 20
1.900704823656681
 42
1.0
 72
     4
 94
        3
 73
     1
 74
     0
 95
        8
 96
        4
 40
5.0
 40
5.0
 40
5.0
 40
5.0
 40
6.0
 40
6.0
 40
6.0
 40
6.0
 10
-3.190995488197396
 20
1.900704823656681
 42
1.0
 10
-3.54857504695031
 20
3.553458157285876
 42
1.0
 10
-5.190901218780231
 20
4.599949148191988
 42
1.0
 10
-6.859585567104196
 20
4.238922852960538
 42
1.0
 97
        0
 92
        0
 93
        6
 72
     4
 94
        3
 73
     1
 74
     0
 95
        8
 96
        4
 40
2.0
 40
2.0
 40
2.0
 40
2.0
 40
3.0
 40
3.0
 40
3.0
 40
3.0
 10
-6.919811195494074
 20
2.099808074263809
 42
1.0
 10
-6.228016878711183
 20
2.249480443098069
 42
1.0
 10
-5.547633595833446
 20
1.815851349115847
 42
1.0
 10
-5.399398884916104
 20
1.130701970100344
 42
1.0
 72
     4
 94
        3
 73
     1
 74
     0
 95
        8
 96
        4
 40
3.0
 40
3.0
 40
3.0
 40
3.0
 40
4.0
 40
4.0
 40
4.0
 40
4.0
 10
-5.399398884916104
 20
1.130701970100344
 42
1.0
 10
-5.107009087764085
 20
-0.2207405274728672
 42
1.0
 10
-4.711497421058354
 20
-2.048334586467611
 42
1.0
 10
-4.449160707297047
 20
-3.260870000165379
 42
1.0
 72
     4
 94
        3
 73
     1
 74
     0
 95
        8
 96
        4
 40
4.0
 40
4.0
 40
4.0
 40
4.0
 40
5.0
 40
5.0
 40
5.0
 40
5.0
 10
-4.449160707297047
 20
-3.260870000165379
 42
1.0
 10
-4.300905507193207
 20
-3.946114081381999
 42
1.0
 10
-4.741570606399121
 20
-4.622385452066122
 42
1.0
 10
-5.433383135791953
 20
-4.771973641166296
 42
1.0
 72
     1
 10
-5.433383135791953
 20
-4.771973641166296
 11
-6.809537646582547
 21
-5.069709977697404
 72
     4
 94
        3
 73
     1
 74
     0
 95
        8
 96
        4
 40
0.0
 40
0.0
 40
0.0
 40
0.0
 40
1.0
 40
1.0
 40
1.0
 40
1.0
 10
-6.809537646582547
 20
-5.069709977697404
 42
1.0
 10
-7.284290309572815
 20
-2.875375801708635
 42
1.0
 10
-7.897830097865885
 20
-0.0390758678013329
 42
1.0
 10
-8.296070930952649
 20
1.80204897196991
 42
1.0
 72
     1
 10
-8.296070930952649
 20
1.80204897196991
 11
-6.919811195494074
 21
2.099808074263809
 97
        0
 75
     0
 76
     1
 98
        1
 10
0.0
 20
0.0
  0
ENDBLK
  5
76
330
74
100
AcDbEntity
  8
0
100
AcDbBlockEnd
  0
ENDSEC
  0
SECTION
  2
ENTITIES
  0
ARC
  5
DA
330
1F
100
AcDbEntity
  8
0
100
AcDbCircle
 10
295.2232797974
 20
454.422469543
 30
0.0
 40
5.000000000000089
100
AcDbArc
 50
43.3006884733
 51
80.3421313068
  0
ARC
  5
DB
330
1F
100
AcDbEntity
  8
0
100
AcDbCircle
 10
294.7009249647
 20
454.422469543
 30
0.0
 40
5.000000000000099
100
AcDbArc
 50
99.6578686932
 51
136.6993115267
  0
ARC
  5
DC
330
1F
100
AcDbEntity
  8
0
100
AcDbCircle
 10
-19.7767202026
 20
454.422469543
 30
0.0
 40
5.000000000000093
100
AcDbArc
 50
43.3006884733
 51
80.3421313068
  0
ARC
  5
DD
330
1F
100
AcDbEntity
  8
0
100
AcDbCircle
 10
-20.2990750353
 20
454.422469543
 30
0.0
 40
5.000000000000093
100
AcDbArc
 50
99.6578686932
 51
136.6993115267
  0
ARC
  5
DE
330
1F
100
AcDbEntity
  8
0
100
AcDbCircle
 10
-20.2990750353
 20
-183.7192594782
 30
0.0
 40
4.999999999999968
100
AcDbArc
 50
223.3006884733
 51
260.3421313068
  0
ARC
  5
DF
330
1F
100
AcDbEntity
  8
0
100
AcDbCircle
 10
-19.7767202026
 20
-183.7192594782
 30
0.0
 40
4.999999999999968
100
AcDbArc
 50
279.6578686932
 51
316.6993115267
  0
ARC
  5
E0
330
1F
100
AcDbEntity
  8
0
100
AcDbCircle
 10
-26.6087621295
 20
-176.8872175512
 30
0.0
 40
4.999999999999968
100
AcDbArc
 50
133.3006884733
 51
170.3421313068
  0
ARC
  5
E1
330
1F
100
AcDbEntity
  8
0
100
AcDbCircle
 10
-26.6087621295
 20
-177.409572384
 30
0.0
 40
4.999999999999968
100
AcDbArc
 50
189.6578686932
 51
226.6993115267
  0
ARC
  5
E2
330
1F
100
AcDbEntity
  8
0
100
AcDbCircle
 10
301.5329668916
 20
-177.409572384
 30
0.0
 40
5.000000000000037
100
AcDbArc
 50
313.3006884733
 51
350.3421313068
  0
ARC
  5
E3
330
1F
100
AcDbEntity
  8
0
100
AcDbCircle
 10
301.5329668916
 20
-176.8872175512
 30
0.0
 40
5.000000000000037
100
AcDbArc
 50
9.6578686932
 51
46.6993115267
  0
ARC
  5
E4
330
1F
100
AcDbEntity
  8
0
100
AcDbCircle
 10
294.7009249647
 20
-183.7192594782
 30
0.0
 40
4.999999999999979
100
AcDbArc
 50
223.3006884733
 51
260.3421313068
  0
ARC
  5
E5
330
1F
100
AcDbEntity
  8
0
100
AcDbCircle
 10
295.2232797974
 20
-183.7192594782
 30
0.0
 40
4.999999999999958
100
AcDbArc
 50
279.6578686932
 51
316.6993115267
  0
ARC
  5
E6
330
1F
100
AcDbEntity
  8
0
100
AcDbCircle
 10
137.2009249647
 20
-183.7192594782
 30
0.0
 40
4.999999999999958
100
AcDbArc
 50
223.3006884733
 51
260.3421313068
  0
ARC
  5
E7
330
1F
100
AcDbEntity
  8
0
100
AcDbCircle
 10
137.7232797974
 20
-183.7192594782
 30
0.0
 40
4.999999999999979
100
AcDbArc
 50
279.6578686932
 51
316.6993115267
  0
ARC
  5
E8
330
1F
100
AcDbEntity
  8
0
100
AcDbCircle
 10
301.5329668916
 20
239.2570942827
 30
0.0
 40
4.999999999999998
100
AcDbArc
 50
313.3006884733
 51
350.3421313068
  0
ARC
  5
E9
330
1F
100
AcDbEntity
  8
0
100
AcDbCircle
 10
301.5329668916
 20
239.7794491154
 30
0.0
 40
4.999999999999977
100
AcDbArc
 50
9.6578686932
 51
46.6993115267
  0
ARC
  5
EA
330
1F
100
AcDbEntity
  8
0
100
AcDbCircle
 10
-26.6087621295
 20
448.1127824488
 30
0.0
 40
4.999999999999986
100
AcDbArc
 50
133.3006884733
 51
170.3421313068
  0
ARC
  5
EB
330
1F
100
AcDbEntity
  8
0
100
AcDbCircle
 10
-26.6087621295
 20
447.590427616
 30
0.0
 40
4.999999999999995
100
AcDbArc
 50
189.6578686932
 51
226.6993115267
  0
ARC
  5
EC
330
1F
100
AcDbEntity
  8
0
100
AcDbCircle
 10
-26.6087621295
 20
239.7794491154
 30
0.0
 40
4.999999999999988
100
AcDbArc
 50
133.3006884733
 51
170.3421313068
  0
ARC
  5
ED
330
1F
100
AcDbEntity
  8
0
100
AcDbCircle
 10
-26.6087621295
 20
239.2570942827
 30
0.0
 40
4.999999999999988
100
AcDbArc
 50
189.6578686932
 51
226.6993115267
  0
ARC
  5
EE
330
1F
100
AcDbEntity
  8
0
100
AcDbCircle
 10
301.5329668916
 20
30.9237609494
 30
0.0
 40
5.000000000000037
100
AcDbArc
 50
313.3006884733
 51
350.3421313068
  0
ARC
  5
EF
330
1F
100
AcDbEntity
  8
0
100
AcDbCircle
 10
301.5329668916
 20
31.4461157821
 30
0.0
 40
5.000000000000037
100
AcDbArc
 50
9.6578686932
 51
46.6993115267
  0
ARC
  5
F0
330
1F
100
AcDbEntity
  8
0
100
AcDbCircle
 10
-26.6087621295
 20
31.4461157821
 30
0.0
 40
4.999999999999978
100
AcDbArc
 50
133.3006884733
 51
170.3421313068
  0
ARC
  5
F1
330
1F
100
AcDbEntity
  8
0
100
AcDbCircle
 10
-26.6087621295
 20
30.9237609494
 30
0.0
 40
4.999999999999975
100
AcDbArc
 50
189.6578686932
 51
226.6993115267
  0
ARC
  5
F2
330
1F
100
AcDbEntity
  8
0
100
AcDbCircle
 10
301.5329668916
 20
447.590427616
 30
0.0
 40
5.000000000000005
100
AcDbArc
 50
313.3006884733
 51
350.3421313068
  0
ARC
  5
F3
330
1F
100
AcDbEntity
  8
0
100
AcDbCircle
 10
301.5329668916
 20
448.1127824488
 30
0.0
 40
4.999999999999998
100
AcDbArc
 50
9.6578686932
 51
46.6993115267
  0
ARC
  5
F4
330
1F
100
AcDbEntity
  8
0
100
AcDbCircle
 10
137.7232797974
 20
454.422469543
 30
0.0
 40
5.000000000000099
100
AcDbArc
 50
43.3006884733
 51
80.3421313068
  0
ARC
  5
F5
330
1F
100
AcDbEntity
  8
0
100
AcDbCircle
 10
137.2009249647
 20
454.422469543
 30
0.0
 40
5.000000000000099
100
AcDbArc
 50
99.6578686932
 51
136.6993115267
  0
LINE
  5
F6
330
1F
100
AcDbEntity
  8
0
100
AcDbLine
 10
198.9621023811
 20
490.3516050324
 30
0.0
 11
198.9621023811
 21
491.9516050324
 31
0.0
  0
LINE
  5
F7
330
1F
100
AcDbEntity
  8
0
100
AcDbLine
 10
182.9621023811
 20
491.9516050324
 30
0.0
 11
182.9621023811
 21
490.3516050324
 31
0.0
  0
LINE
  5
F8
330
1F
100
AcDbEntity
  8
0
100
AcDbLine
 10
91.9621023811
 20
490.3516050324
 30
0.0
 11
91.9621023811
 21
491.9516050324
 31
0.0
  0
LINE
  5
F9
330
1F
100
AcDbEntity
  8
0
100
AcDbLine
 10
75.9621023811
 20
491.9516050324
 30
0.0
 11
75.9621023811
 21
490.3516050324
 31
0.0
  0
LINE
  5
FA
330
1F
100
AcDbEntity
  8
0
100
AcDbLine
 10
75.9621023811
 20
-219.6483949676
 30
0.0
 11
75.9621023811
 21
-221.2483949676
 31
0.0
  0
LINE
  5
FB
330
1F
100
AcDbEntity
  8
0
100
AcDbLine
 10
91.9621023811
 20
-221.2483949676
 30
0.0
 11
91.9621023811
 21
-219.6483949676
 31
0.0
  0
LINE
  5
FC
330
1F
100
AcDbEntity
  8
0
100
AcDbLine
 10
182.962102381
 20
-219.6483949676
 30
0.0
 11
182.962102381
 21
-221.2483949676
 31
0.0
  0
LINE
  5
FD
330
1F
100
AcDbEntity
  8
0
100
AcDbLine
 10
198.962102381
 20
-221.2483949676
 30
0.0
 11
198.962102381
 21
-219.6483949676
 31
0.0
  0
LINE
  5
FE
330
1F
100
AcDbEntity
  8
0
100
AcDbLine
 10
182.962102381
 20
162.5605863063
 30
0.0
 11
182.962102381
 21
157.6616068207
 31
0.0
  0
LINE
  5
FF
330
1F
100
AcDbEntity
  8
0
100
AcDbLine
 10
182.962102381
 20
157.6616068207
 30
0.0
 11
91.962102381
 21
157.6616068207
 31
0.0
  0
LINE
  5
100
330
1F
100
AcDbEntity
  8
0
100
AcDbLine
 10
91.962102381
 20
162.5605863063
 30
0.0
 11
182.962102381
 21
162.5605863063
 31
0.0
  0
LINE
  5
101
330
1F
100
AcDbEntity
  8
0
100
AcDbLine
 10
91.962102381
 20
162.5605863063
 30
0.0
 11
91.962102381
 21
157.6616068207
 31
0.0
  0
ARC
  5
102
330
1F
100
AcDbEntity
  8
0
100
AcDbCircle
 10
137.462102381
 20
-470.5589034365
 30
0.0
 40
650.0000000000028
100
AcDbArc
 50
85.4345325045
 51
94.5654674955
  0
ARC
  5
103
330
1F
100
AcDbEntity
  8
0
100
AcDbCircle
 10
188.962102381
 20
174.3881874167
 30
0.0
 40
2.999999999999972
100
AcDbArc
 50
0.0
 51
85.4345325045
  0
LINE
  5
104
330
1F
100
AcDbEntity
  8
0
100
AcDbLine
 10
191.962102381
 20
111.4940057103
 30
0.0
 11
191.962102381
 21
174.3881874167
 31
0.0
  0
ARC
  5
105
330
1F
100
AcDbEntity
  8
0
100
AcDbCircle
 10
188.962102381
 20
111.4940057103
 30
0.0
 40
3.000000000000049
100
AcDbArc
 50
274.5654674955
 51
360.0
  0
LINE
  5
106
330
1F
100
AcDbEntity
  8
0
100
AcDbLine
 10
82.962102381
 20
174.3881874167
 30
0.0
 11
82.962102381
 21
111.4940057103
 31
0.0
  0
ARC
  5
107
330
1F
100
AcDbEntity
  8
0
100
AcDbCircle
 10
85.962102381
 20
174.3881874167
 30
0.0
 40
3.000000000000038
100
AcDbArc
 50
94.5654674955
 51
180.0
  0
LINE
  5
108
330
1F
100
AcDbEntity
  8
0
100
AcDbLine
 10
182.962102381
 20
156.6110965635
 30
0.0
 11
91.962102381
 21
156.6110965635
 31
0.0
  0
ARC
  5
109
330
1F
100
AcDbEntity
  8
0
100
AcDbCircle
 10
85.962102381
 20
111.4940057103
 30
0.0
 40
2.999999999999943
100
AcDbArc
 50
180.0
 51
265.4345325045
  0
ARC
  5
10A
330
1F
100
AcDbEntity
  8
0
100
AcDbCircle
 10
137.462102381
 20
756.4410965635
 30
0.0
 40
650.0000000000025
100
AcDbArc
 50
265.4345325045
 51
274.5654674955
  0
ARC
  5
10B
330
1F
100
AcDbEntity
  8
0
100
AcDbCircle
 10
-144.5347917591
 20
116.0428290551
 30
0.0
 40
330.000000000054
100
AcDbArc
 50
359.7514167075
 51
7.0614708025
  0
ARC
  5
10C
330
1F
100
AcDbEntity
  8
0
100
AcDbCircle
 10
419.4589965211
 20
116.0428290551
 30
0.0
 40
330.0000000000277
100
AcDbArc
 50
172.9385291975
 51
180.2485832925
  0
LINE
  5
10D
330
1F
100
AcDbEntity
  8
0
100
AcDbLine
 10
89.462102381
 20
114.6110965635
 30
0.0
 11
185.462102381
 21
114.6110965635
 31
0.0
  0
LINE
  5
10E
330
1F
100
AcDbEntity
  8
0
100
AcDbLine
 10
184.3272478032
 20
143.4245553517
 30
0.0
 11
90.5969569589
 21
143.4245553517
 31
0.0
  0
LINE
  5
10F
330
1F
100
AcDbEntity
  8
0
100
AcDbLine
 10
185.462102381
 20
114.6110965635
 30
0.0
 11
185.462102381
 21
117.4745615468
 31
0.0
  0
LINE
  5
110
330
1F
100
AcDbEntity
  8
0
100
AcDbLine
 10
89.462102381
 20
114.6110965635
 30
0.0
 11
89.462102381
 21
117.4745615468
 31
0.0
  0
SPLINE
  5
111
330
1F
100
AcDbEntity
  8
0
100
AcDbSpline
210
0.0
220
0.0
230
1.0
 70
     8
 71
     3
 72
    12
 73
     8
 74
     0
 42
0.00000001
 43
0.00000001
 40
0.0
 40
0.0
 40
0.0
 40
0.0
 40
0.188028514164308
 40
0.3762510474114607
 40
0.5686823856168766
 40
0.7726895670236894
 40
1.0
 40
1.0
 40
1.0
 40
1.0
 10
304.1913917029169
 20
-187.1483949675921
 30
0.0
 10
304.1806206320653
 20
-187.1317237594982
 30
0.0
 10
304.1590673761261
 20
-187.0983641409594
 30
0.0
 10
304.0415369453592
 20
-186.8420369308844
 30
0.0
 10
303.8531791998032
 20
-186.4673569305396
 30
0.0
 10
303.5760964050465
 20
-185.992689499765
 30
0.0
 10
303.3704702494206
 20
-185.6362457982255
 30
0.0
 10
303.2621023810379
 20
-185.448394967592
 30
0.0
  0
LINE
  5
112
330
1F
100
AcDbEntity
  8
0
100
AcDbLine
 10
-29.2671869408
 20
-187.1483949676
 30
0.0
 11
304.1913917029
 21
-187.1483949676
 31
0.0
  0
SPLINE
  5
113
330
1F
100
AcDbEntity
  8
0
100
AcDbSpline
210
0.0
220
0.0
230
1.0
 70
     8
 71
     3
 72
    12
 73
     8
 74
     0
 42
0.00000001
 43
0.00000001
 40
0.0
 40
0.0
 40
0.0
 40
0.0
 40
0.2542643672559786
 40
0.5042359317139629
 40
0.7350876570749644
 40
0.9478886987180443
 40
1.0
 40
1.0
 40
1.0
 40
1.0
 10
-28.3378976189646
 20
-185.4483949675921
 30
0.0
 10
-28.45107399816132
 20
-185.6615748068674
 30
0.0
 10
-28.67551597415724
 20
-186.0843353219945
 30
0.0
 10
-28.94549251792955
 20
-186.6398589524411
 30
0.0
 10
-29.14393077515176
 20
-187.0133210348434
 30
0.0
 10
-29.23647609241425
 20
-187.1403529153775
 30
0.0
 10
-29.26213879284656
 20
-187.147073041567
 30
0.0
 10
-29.26718694084601
 20
-187.1483949675921
 30
0.0
  0
SPLINE
  5
114
330
1F
100
AcDbEntity
  8
0
100
AcDbSpline
210
0.0
220
0.0
230
1.0
 70
     8
 71
     3
 72
    12
 73
     8
 74
     0
 42
0.00000001
 43
0.00000001
 40
0.0
 40
0.0
 40
0.0
 40
0.0
 40
0.16097245550176
 40
0.2971397164505595
 40
0.495215582580452
 40
0.7084705254640257
 40
1.0
 40
1.0
 40
1.0
 40
1.0
 10
-30.03789761896447
 20
-186.3776842894735
 30
0.0
 10
-30.02628053299073
 20
-186.3538475642154
 30
0.0
 10
-30.00483650630031
 20
-186.3098472552047
 30
0.0
 10
-29.82805056569277
 20
-186.219997736576
 30
0.0
 10
-29.51907344844018
 20
-186.0833253787689
 30
0.0
 10
-29.01184941188245
 20
-185.7936411732363
 30
0.0
 10
-28.58463048905102
 20
-185.5747891520134
 30
0.0
 10
-28.33789761896455
 20
-185.4483949675921
 30
0.0
  0
SPLINE
  5
115
330
1F
100
AcDbEntity
  8
0
100
AcDbSpline
210
0.0
220
0.0
230
1.0
 70
     8
 71
     3
 72
    12
 73
     8
 74
     0
 42
0.00000001
 43
0.00000001
 40
0.0
 40
0.0
 40
0.0
 40
0.0
 40
0.1491004296224738
 40
0.2765762250556915
 40
0.4681781473687573
 40
0.6893569185407606
 40
1.0
 40
1.0
 40
1.0
 40
1.0
 10
-29.33789761896455
 20
-186.3776842894734
 30
0.0
 10
-29.33100167185443
 20
-186.3537768146509
 30
0.0
 10
-29.31820992454204
 20
-186.3094292621066
 30
0.0
 10
-29.21254589825761
 20
-186.2186530220771
 30
0.0
 10
-29.02350282360577
 20
-186.0752929610529
 30
0.0
 10
-28.73024306379152
 20
-185.789554242465
 30
0.0
 10
-28.48256761417223
 20
-185.5741910264267
 30
0.0
 10
-28.33789761896449
 20
-185.4483949675922
 30
0.0
  0
LINE
  5
116
330
1F
100
AcDbEntity
  8
0
100
AcDbLine
 10
-30.037897619
 20
-186.3776842895
 30
0.0
 11
-29.337897619
 21
-186.3776842895
 31
0.0
  0
LINE
  5
117
330
1F
100
AcDbEntity
  8
0
100
AcDbLine
 10
-29.2671869408
 20
-187.1483949676
 30
0.0
 11
-29.2671869408
 21
-186.4483949676
 31
0.0
  0
SPLINE
  5
118
330
1F
100
AcDbEntity
  8
0
100
AcDbSpline
210
0.0
220
0.0
230
1.0
 70
     8
 71
     3
 72
    12
 73
     8
 74
     0
 42
0.00000001
 43
0.00000001
 40
0.0
 40
0.0
 40
0.0
 40
0.0
 40
0.3149342562069423
 40
0.5593733681368506
 40
0.7633670954649665
 40
0.9357345810194205
 40
1.0
 40
1.0
 40
1.0
 40
1.0
 10
-28.3378976189646
 20
-185.4483949675921
 30
0.0
 10
-28.46800407275374
 20
-185.5933427921705
 30
0.0
 10
-28.69909384415215
 20
-185.85079320044
 30
0.0
 10
-28.96739563206152
 20
-186.1745675962905
 30
0.0
 10
-29.14458358450545
 20
-186.3679719630861
 30
0.0
 10
-29.23413711125905
 20
-186.4418282836013
 30
0.0
 10
-29.26012820711554
 20
-186.4469924649358
 30
0.0
 10
-29.26718694084601
 20
-186.4483949675921
 30
0.0
  0
LINE
  5
119
330
1F
100
AcDbEntity
  8
0
100
AcDbLine
 10
-30.037897619
 20
457.0808943543
 30
0.0
 11
-30.037897619
 21
-186.3776842895
 31
0.0
  0
SPLINE
  5
11A
330
1F
100
AcDbEntity
  8
0
100
AcDbSpline
210
0.0
220
0.0
230
1.0
 70
     8
 71
     3
 72
    13
 73
     9
 74
     0
 42
0.00000001
 43
0.00000001
 40
0.0
 40
0.0
 40
0.0
 40
0.0
 40
0.2819917437919108
 40
0.4977893237559232
 40
0.6216706348361252
 40
0.7460552555533003
 40
0.8718673278550461
 40
1.0
 40
1.0
 40
1.0
 40
1.0
 10
-28.33789761896444
 20
456.1516050324078
 30
0.0
 10
-28.57150308643774
 20
456.2869138330551
 30
0.0
 10
-28.98387795286295
 20
456.5257693238816
 30
0.0
 10
-29.44053301916066
 20
456.786069496397
 30
0.0
 10
-29.72261972742551
 20
456.9251639549623
 30
0.0
 10
-29.89736768043483
 20
457.0078879943694
 30
0.0
 10
-30.01511858429146
 20
457.0629681537431
 30
0.0
 10
-30.03025849020469
 20
457.0748826616904
 30
0.0
 10
-30.03789761896441
 20
457.0808943542891
 30
0.0
  0
SPLINE
  5
11B
330
1F
100
AcDbEntity
  8
0
100
AcDbSpline
210
0.0
220
0.0
230
1.0
 70
     8
 71
     3
 72
    12
 73
     8
 74
     0
 42
0.00000001
 43
0.00000001
 40
0.0
 40
0.0
 40
0.0
 40
0.0
 40
0.1880285141708042
 40
0.3762510474232621
 40
0.5686823856240972
 40
0.772689567014913
 40
1.0
 40
1.0
 40
1.0
 40
1.0
 10
-29.26718694084585
 20
457.8516050324076
 30
0.0
 10
-29.25641586999495
 20
457.8349338243127
 30
0.0
 10
-29.234862614057
 20
457.8015742057711
 30
0.0
 10
-29.11733218330354
 20
457.5452469956821
 30
0.0
 10
-28.92897443772807
 20
457.170566995345
 30
0.0
 10
-28.65189164296589
 20
456.6958995645872
 30
0.0
 10
-28.44626548734813
 20
456.3394558630505
 30
0.0
 10
-28.33789761896366
 20
456.1516050324078
 30
0.0
  0
LINE
  5
11C
330
1F
100
AcDbEntity
  8
0
100
AcDbLine
 10
304.1913917029
 20
457.8516050324
 30
0.0
 11
-29.2671869408
 21
457.8516050324
 31
0.0
  0
SPLINE
  5
11D
330
1F
100
AcDbEntity
  8
0
100
AcDbSpline
210
0.0
220
0.0
230
1.0
 70
     8
 71
     3
 72
    11
 73
     7
 74
     0
 42
0.00000001
 43
0.00000001
 40
0.0
 40
0.0
 40
0.0
 40
0.0
 40
0.2843190105833032
 40
0.5441307697454122
 40
0.7817021045468951
 40
0.9999999999999999
 40
0.9999999999999999
 40
0.9999999999999999
 40
0.9999999999999999
 10
303.2621023810354
 20
456.1516050324068
 30
0.0
 10
303.3884129428515
 20
456.3907804136081
 30
0.0
 10
303.6301465613209
 20
456.8485151391558
 30
0.0
 10
303.9068213575791
 20
457.4171402746364
 30
0.0
 10
304.1055102397851
 20
457.7831556195798
 30
0.0
 10
304.1635829564723
 20
457.829440850567
 30
0.0
 10
304.191391702917
 20
457.8516050324076
 30
0.0
  0
LWPOLYLINE
  5
11E
330
1F
100
AcDbEntity
  8
0
100
AcDbPolyline
 90
        2
 70
   128
 43
0.0
 10
-28.337897619
 20
456.1516050324
 10
-28.337897619
 20
456.1516050324
  0
SPLINE
  5
11F
330
1F
100
AcDbEntity
  8
0
100
AcDbSpline
210
0.0
220
0.0
230
1.0
 70
     8
 71
     3
 72
    12
 73
     8
 74
     0
 42
0.00000001
 43
0.00000001
 40
0.0
 40
0.0
 40
0.0
 40
0.0
 40
0.1552608870655111
 40
0.3102887794819168
 40
0.47430063318956
 40
0.7165804899413193
 40
1.0
 40
1.0
 40
1.0
 40
1.0
 10
-29.26718694084585
 20
457.1516050324076
 30
0.0
 10
-29.25772088602896
 20
457.1432811135394
 30
0.0
 10
-29.23880298177656
 20
457.126645767221
 30
0.0
 10
-29.14112932759
 20
457.001855768561
 30
0.0
 10
-28.97318840645119
 20
456.7994393057067
 30
0.0
 10
-28.69171608689036
 20
456.5115508861609
 30
0.0
 10
-28.4618337421913
 20
456.2776874665649
 30
0.0
 10
-28.3378976189636
 20
456.1516050324075
 30
0.0
  0
LINE
  5
120
330
1F
100
AcDbEntity
  8
0
100
AcDbLine
 10
-29.2671869408
 20
457.8516050324
 30
0.0
 11
-29.2671869408
 21
457.1516050324
 31
0.0
  0
LINE
  5
121
330
1F
100
AcDbEntity
  8
0
100
AcDbLine
 10
-30.037897619
 20
457.0808943543
 30
0.0
 11
-29.337897619
 21
457.0808943543
 31
0.0
  0
SPLINE
  5
122
330
1F
100
AcDbEntity
  8
0
100
AcDbSpline
210
0.0
220
0.0
230
1.0
 70
     8
 71
     3
 72
    13
 73
     9
 74
     0
 42
0.00000001
 43
0.00000001
 40
0.0
 40
0.0
 40
0.0
 40
0.0
 40
0.3059278727641128
 40
0.5302149823479264
 40
0.6516086809868973
 40
0.7689731228360082
 40
0.8843784541524555
 40
1.0
 40
1.0
 40
1.0
 40
1.0
 10
-28.33789761896444
 20
456.1516050324078
 30
0.0
 10
-28.47424936020709
 20
456.2858055292634
 30
0.0
 10
-28.71056563771013
 20
456.5183934050532
 30
0.0
 10
-28.98020661782769
 20
456.7804633216864
 30
0.0
 10
-29.15024786686671
 20
456.9234155581517
 30
0.0
 10
-29.25400019858176
 20
457.0069065164005
 30
0.0
 10
-29.32424375805581
 20
457.0627316514513
 30
0.0
 10
-29.33334349322703
 20
457.0748363438105
 30
0.0
 10
-29.33789761896444
 20
457.0808943542891
 30
0.0
  0
LWPOLYLINE
  5
123
330
1F
100
AcDbEntity
  8
0
100
AcDbPolyline
 90
        2
 70
   128
 43
0.0
 10
303.262102381
 20
-185.4483949676
 10
303.262102381
 20
-185.4483949676
  0
SPLINE
  5
124
330
1F
100
AcDbEntity
  8
0
100
AcDbSpline
210
0.0
220
0.0
230
1.0
 70
     8
 71
     3
 72
    12
 73
     8
 74
     0
 42
0.00000001
 43
0.00000001
 40
0.0
 40
0.0
 40
0.0
 40
0.0
 40
0.1552608870575828
 40
0.3102887794656849
 40
0.4743006331790864
 40
0.7165804898975964
 40
1.0
 40
1.0
 40
1.0
 40
1.0
 10
304.1913917029169
 20
-186.4483949675921
 30
0.0
 10
304.1819256480997
 20
-186.440071048725
 30
0.0
 10
304.1630077438467
 20
-186.4234357024085
 30
0.0
 10
304.0653340896536
 20
-186.2986457037596
 30
0.0
 10
303.8973931685366
 20
-186.0962292409243
 30
0.0
 10
303.6159208489972
 20
-185.8083408213612
 30
0.0
 10
303.3860385042879
 20
-185.5744774017661
 30
0.0
 10
303.2621023810379
 20
-185.4483949675921
 30
0.0
  0
LINE
  5
125
330
1F
100
AcDbEntity
  8
0
100
AcDbLine
 10
304.1913917029
 20
-187.1483949676
 30
0.0
 11
304.1913917029
 21
-186.4483949676
 31
0.0
  0
SPLINE
  5
126
330
1F
100
AcDbEntity
  8
0
100
AcDbSpline
210
0.0
220
0.0
230
1.0
 70
     8
 71
     3
 72
    11
 73
     7
 74
     0
 42
0.00000001
 43
0.00000001
 40
0.0
 40
0.0
 40
0.0
 40
0.0
 40
0.2842368907651631
 40
0.5440223525967699
 40
0.7816221870973967
 40
1.0
 40
1.0
 40
1.0
 40
1.0
 10
303.2621023810356
 20
-185.4483949675925
 30
0.0
 10
303.5012081868441
 20
-185.5746644499606
 30
0.0
 10
303.9588507632365
 20
-185.8163411045077
 30
0.0
 10
304.5274753292121
 20
-186.092970589677
 30
0.0
 10
304.8936133777521
 20
-186.2916795066598
 30
0.0
 10
304.939923456677
 20
-186.3498331968741
 30
0.0
 10
304.9621023810355
 20
-186.3776842894738
 30
0.0
  0
LINE
  5
127
330
1F
100
AcDbEntity
  8
0
100
AcDbLine
 10
304.962102381
 20
-186.3776842895
 30
0.0
 11
304.262102381
 21
-186.3776842895
 31
0.0
  0
SPLINE
  5
128
330
1F
100
AcDbEntity
  8
0
100
AcDbSpline
210
0.0
220
0.0
230
1.0
 70
     8
 71
     3
 72
    12
 73
     8
 74
     0
 42
0.00000001
 43
0.00000001
 40
0.0
 40
0.0
 40
0.0
 40
0.0
 40
0.3027346052280995
 40
0.5669708080436594
 40
0.7969177191290245
 40
0.9014412882766564
 40
1.0
 40
1.0
 40
1.0
 40
1.0
 10
303.2621023810356
 20
-185.4483949675925
 30
0.0
 10
303.4011886589567
 20
-185.5734454705905
 30
0.0
 10
303.661673777007
 20
-185.8076439517242
 30
0.0
 10
304.0019597175631
 20
-186.0887261647467
 30
0.0
 10
304.1817366766143
 20
-186.2560353099228
 30
0.0
 10
304.2524420048459
 20
-186.3423939483462
 30
0.0
 10
304.2589459326237
 20
-186.3661534609616
 30
0.0
 10
304.2621023810355
 20
-186.3776842894738
 30
0.0
  0
SPLINE
  5
129
330
1F
100
AcDbEntity
  8
0
100
AcDbSpline
210
0.0
220
0.0
230
1.0
 70
     8
 71
     3
 72
    12
 73
     8
 74
     0
 42
0.00000001
 43
0.00000001
 40
0.0
 40
0.0
 40
0.0
 40
0.0
 40
0.1880285141582728
 40
0.376251047400719
 40
0.568682385612427
 40
0.7726895670358904
 40
1.0
 40
1.0
 40
1.0
 40
1.0
 10
304.9621023810355
 20
457.0808943542886
 30
0.0
 10
304.9454311729427
 20
457.0701232834347
 30
0.0
 10
304.9120715544059
 20
457.0485700274903
 30
0.0
 10
304.6557443443447
 20
456.9310395967055
 30
0.0
 10
304.2810643439886
 20
456.7426818511698
 30
0.0
 10
303.8063969131958
 20
456.46559905642
 30
0.0
 10
303.4499532116566
 20
456.2599729007869
 30
0.0
 10
303.2621023810354
 20
456.1516050324073
 30
0.0
  0
LINE
  5
12A
330
1F
100
AcDbEntity
  8
0
100
AcDbLine
 10
304.962102381
 20
-186.3776842895
 30
0.0
 11
304.962102381
 21
457.0808943543
 31
0.0
  0
LWPOLYLINE
  5
12B
330
1F
100
AcDbEntity
  8
0
100
AcDbPolyline
 90
        2
 70
   128
 43
0.0
 10
303.262102381
 20
456.1516050324
 10
303.262102381
 20
456.1516050324
  0
SPLINE
  5
12C
330
1F
100
AcDbEntity
  8
0
100
AcDbSpline
210
0.0
220
0.0
230
1.0
 70
     8
 71
     3
 72
    12
 73
     8
 74
     0
 42
0.00000001
 43
0.00000001
 40
0.0
 40
0.0
 40
0.0
 40
0.0
 40
0.1552608870513371
 40
0.3102887794527259
 40
0.4743006331757935
 40
0.716580489861512
 40
0.9999999999999999
 40
0.9999999999999999
 40
0.9999999999999999
 40
0.9999999999999999
 10
304.2621023810356
 20
457.0808943542886
 30
0.0
 10
304.2537784621693
 20
457.0714282994693
 30
0.0
 10
304.2371431158542
 20
457.0525103952119
 30
0.0
 10
304.1123531172149
 20
456.9548367410073
 30
0.0
 10
303.9099366543947
 20
456.7868958199089
 30
0.0
 10
303.6220482348124
 20
456.5054235003941
 30
0.0
 10
303.3881848152222
 20
456.2755411556765
 30
0.0
 10
303.2621023810355
 20
456.1516050324073
 30
0.0
  0
LINE
  5
12D
330
1F
100
AcDbEntity
  8
0
100
AcDbLine
 10
304.962102381
 20
457.0808943543
 30
0.0
 11
304.262102381
 21
457.0808943543
 31
0.0
  0
LINE
  5
12E
330
1F
100
AcDbEntity
  8
0
100
AcDbLine
 10
304.1913917029
 20
457.8516050324
 30
0.0
 11
304.1913917029
 21
457.1516050324
 31
0.0
  0
SPLINE
  5
12F
330
1F
100
AcDbEntity
  8
0
100
AcDbSpline
210
0.0
220
0.0
230
1.0
 70
     8
 71
     3
 72
    12
 73
     8
 74
     0
 42
0.00000001
 43
0.00000001
 40
0.0
 40
0.0
 40
0.0
 40
0.0
 40
0.3028227561271044
 40
0.5670860327260241
 40
0.7970010075752062
 40
0.9014884783350645
 40
1.0
 40
1.0
 40
1.0
 40
1.0
 10
303.2621023810354
 20
456.1516050324073
 30
0.0
 10
303.3871932286824
 20
456.2907318912899
 30
0.0
 10
303.6214466693078
 20
456.5512701000379
 30
0.0
 10
303.9025767851884
 20
456.8915557219609
 30
0.0
 10
304.0698717191692
 20
457.0712854062693
 30
0.0
 10
304.1561738122068
 20
457.1419519295912
 30
0.0
 10
304.179885079295
 20
457.1484511064155
 30
0.0
 10
304.191391702917
 20
457.1516050324076
 30
0.0
  0
CIRCLE
  5
130
330
1F
100
AcDbEntity
  8
0
100
AcDbCircle
 10
-21.337897619
 20
357.8516050324
 30
0.0
 40
8.0
  0
CIRCLE
  5
131
330
1F
100
AcDbEntity
  8
0
100
AcDbCircle
 10
69.962102381
 20
-178.4483949676
 30
0.0
 40
8.0
  0
CIRCLE
  5
132
330
1F
100
AcDbEntity
  8
0
100
AcDbCircle
 10
204.962102381
 20
449.1516050324
 30
0.0
 40
8.0
  0
CIRCLE
  5
133
330
1F
100
AcDbEntity
  8
0
100
AcDbCircle
 10
296.262102381
 20
-87.1483949676
 30
0.0
 40
8.000000000000014
  0
CIRCLE
  5
134
330
1F
100
AcDbEntity
  8
0
100
AcDbCircle
 10
69.962102381
 20
449.1516050324
 30
0.0
 40
8.0
  0
CIRCLE
  5
135
330
1F
100
AcDbEntity
  8
0
100
AcDbCircle
 10
-21.337897619
 20
-87.1483949676
 30
0.0
 40
8.0
  0
CIRCLE
  5
136
330
1F
100
AcDbEntity
  8
0
100
AcDbCircle
 10
296.262102381
 20
357.8516050324
 30
0.0
 40
8.0
  0
CIRCLE
  5
137
330
1F
100
AcDbEntity
  8
0
100
AcDbCircle
 10
204.962102381
 20
-178.4483949676
 30
0.0
 40
8.0
  0
LINE
  5
138
330
1F
100
AcDbEntity
  8
0
100
AcDbLine
 10
296.062102381
 20
459.3516050324
 30
0.0
 11
293.862102381
 21
459.3516050324
 31
0.0
  0
LINE
  5
139
330
1F
100
AcDbEntity
  8
0
100
AcDbLine
 10
-18.937897619
 20
459.3516050324
 30
0.0
 11
-21.137897619
 21
459.3516050324
 31
0.0
  0
LINE
  5
13A
330
1F
100
AcDbEntity
  8
0
100
AcDbLine
 10
-21.137897619
 20
-188.6483949676
 30
0.0
 11
-18.937897619
 21
-188.6483949676
 31
0.0
  0
LINE
  5
13B
330
1F
100
AcDbEntity
  8
0
100
AcDbLine
 10
-31.537897619
 20
-176.5467564151
 30
0.0
 11
-31.537897619
 21
-178.2483949676
 31
0.0
  0
LINE
  5
13C
330
1F
100
AcDbEntity
  8
0
100
AcDbLine
 10
-31.537897619
 20
-176.0483949676
 30
0.0
 11
-31.537897619
 21
-176.5467564151
 31
0.0
  0
LINE
  5
13D
330
1F
100
AcDbEntity
  8
0
100
AcDbLine
 10
306.462102381
 20
-178.2483949676
 30
0.0
 11
306.462102381
 21
-176.0483949676
 31
0.0
  0
LINE
  5
13E
330
1F
100
AcDbEntity
  8
0
100
AcDbLine
 10
293.862102381
 20
-188.6483949676
 30
0.0
 11
296.062102381
 21
-188.6483949676
 31
0.0
  0
LINE
  5
13F
330
1F
100
AcDbEntity
  8
0
100
AcDbLine
 10
136.362102381
 20
-188.6483949676
 30
0.0
 11
138.562102381
 21
-188.6483949676
 31
0.0
  0
LINE
  5
140
330
1F
100
AcDbEntity
  8
0
100
AcDbLine
 10
306.462102381
 20
238.4182716991
 30
0.0
 11
306.462102381
 21
240.6182716991
 31
0.0
  0
LINE
  5
141
330
1F
100
AcDbEntity
  8
0
100
AcDbLine
 10
-31.537897619
 20
448.4532435849
 30
0.0
 11
-31.537897619
 21
446.7516050324
 31
0.0
  0
LINE
  5
142
330
1F
100
AcDbEntity
  8
0
100
AcDbLine
 10
-31.537897619
 20
448.9516050324
 30
0.0
 11
-31.537897619
 21
448.4532435849
 31
0.0
  0
LINE
  5
143
330
1F
100
AcDbEntity
  8
0
100
AcDbLine
 10
-31.537897619
 20
240.1199102515
 30
0.0
 11
-31.537897619
 21
238.4182716991
 31
0.0
  0
LINE
  5
144
330
1F
100
AcDbEntity
  8
0
100
AcDbLine
 10
-31.537897619
 20
240.6182716991
 30
0.0
 11
-31.537897619
 21
240.1199102515
 31
0.0
  0
LINE
  5
145
330
1F
100
AcDbEntity
  8
0
100
AcDbLine
 10
306.462102381
 20
30.0849383657
 30
0.0
 11
306.462102381
 21
32.2849383657
 31
0.0
  0
LINE
  5
146
330
1F
100
AcDbEntity
  8
0
100
AcDbLine
 10
-31.537897619
 20
31.7865769182
 30
0.0
 11
-31.537897619
 21
30.0849383657
 31
0.0
  0
LINE
  5
147
330
1F
100
AcDbEntity
  8
0
100
AcDbLine
 10
-31.537897619
 20
32.2849383657
 30
0.0
 11
-31.537897619
 21
31.7865769182
 31
0.0
  0
LINE
  5
148
330
1F
100
AcDbEntity
  8
0
100
AcDbLine
 10
306.462102381
 20
446.7516050324
 30
0.0
 11
306.462102381
 21
448.9516050324
 31
0.0
  0
LINE
  5
149
330
1F
100
AcDbEntity
  8
0
100
AcDbLine
 10
138.562102381
 20
459.3516050324
 30
0.0
 11
136.362102381
 21
459.3516050324
 31
0.0
  0
LINE
  5
14A
330
1F
100
AcDbEntity
  8
0
100
AcDbLine
 10
-32.037897619
 20
-171.4483949676
 30
0.0
 11
-32.037897619
 21
441.5516050324
 31
0.0
  0
LINE
  5
14B
330
1F
100
AcDbEntity
  8
0
100
AcDbLine
 10
-32.037897619
 20
441.5516050324
 30
0.0
 11
-30.037897619
 21
441.5516050324
 31
0.0
  0
LINE
  5
14C
330
1F
100
AcDbEntity
  8
0
100
AcDbLine
 10
-30.037897619
 20
-171.4483949676
 30
0.0
 11
-32.037897619
 21
-171.4483949676
 31
0.0
  0
LINE
  5
14D
330
1F
100
AcDbEntity
  8
0
100
AcDbLine
 10
304.962102381
 20
442.1516050324
 30
0.0
 11
306.962102381
 21
442.1516050324
 31
0.0
  0
LINE
  5
14E
330
1F
100
AcDbEntity
  8
0
100
AcDbLine
 10
306.962102381
 20
-170.8483949676
 30
0.0
 11
304.962102381
 21
-170.8483949676
 31
0.0
  0
LINE
  5
14F
330
1F
100
AcDbEntity
  8
0
100
AcDbLine
 10
306.962102381
 20
442.1516050324
 30
0.0
 11
306.962102381
 21
-170.8483949676
 31
0.0
  0
LINE
  5
150
330
1F
100
AcDbEntity
  8
0
100
AcDbLine
 10
-30.037897619
 20
442.1516050324
 30
0.0
 11
-32.037897619
 21
442.1516050324
 31
0.0
  0
LINE
  5
151
330
1F
100
AcDbEntity
  8
0
100
AcDbLine
 10
-32.037897619
 20
442.1516050324
 30
0.0
 11
-32.037897619
 21
460.1516050324
 31
0.0
  0
LINE
  5
152
330
1F
100
AcDbEntity
  8
0
100
AcDbLine
 10
306.962102381
 20
460.1516050324
 30
0.0
 11
306.962102381
 21
442.1516050324
 31
0.0
  0
LINE
  5
153
330
1F
100
AcDbEntity
  8
0
100
AcDbLine
 10
304.962102381
 20
-171.4483949676
 30
0.0
 11
306.962102381
 21
-171.4483949676
 31
0.0
  0
LINE
  5
154
330
1F
100
AcDbEntity
  8
0
100
AcDbLine
 10
306.962102381
 20
-171.4483949676
 30
0.0
 11
306.962102381
 21
-189.4483949676
 31
0.0
  0
LINE
  5
155
330
1F
100
AcDbEntity
  8
0
100
AcDbLine
 10
-32.037897619
 20
-189.4483949676
 30
0.0
 11
-32.037897619
 21
-171.4483949676
 31
0.0
  0
LINE
  5
156
330
1F
100
AcDbEntity
  8
0
100
AcDbLine
 10
198.9621023811
 20
491.9516050324
 30
0.0
 11
182.9621023811
 21
491.9516050324
 31
0.0
  0
LINE
  5
157
330
1F
100
AcDbEntity
  8
0
100
AcDbLine
 10
91.9621023811
 20
491.9516050324
 30
0.0
 11
75.9621023811
 21
491.9516050324
 31
0.0
  0
LINE
  5
158
330
1F
100
AcDbEntity
  8
0
100
AcDbLine
 10
75.9621023811
 20
-221.2483949676
 30
0.0
 11
91.9621023811
 21
-221.2483949676
 31
0.0
  0
LINE
  5
159
330
1F
100
AcDbEntity
  8
0
100
AcDbLine
 10
182.962102381
 20
-221.2483949676
 30
0.0
 11
198.962102381
 21
-221.2483949676
 31
0.0
  0
LWPOLYLINE
  5
15A
330
1F
100
AcDbEntity
  8
0
100
AcDbPolyline
 90
        3
 70
   128
 43
0.0
 10
307.166861289
 20
436.1178560047
 10
306.9840830471
 20
435.7064960093
 10
306.962102381
 20
435.6245238801
  0
LWPOLYLINE
  5
15B
330
1F
100
AcDbEntity
  8
0
100
AcDbPolyline
 90
        3
 70
   128
 43
0.0
 10
306.962102381
 20
434.6786861847
 10
306.9840830471
 20
434.5967140555
 10
307.1698971681
 20
434.1805715712
  0
LINE
  5
15C
330
1F
100
AcDbEntity
  8
0
100
AcDbLine
 10
307.0750181729
 20
436.1263085809
 30
0.0
 11
306.962102381
 21
435.9142920082
 31
0.0
  0
LINE
  5
15D
330
1F
100
AcDbEntity
  8
0
100
AcDbLine
 10
306.962102381
 20
434.3889180566
 30
0.0
 11
307.080613989
 21
434.168255947
 31
0.0
  0
LWPOLYLINE
  5
15E
330
1F
100
AcDbEntity
  8
0
100
AcDbPolyline
 90
        3
 70
   128
 43
0.0
 10
-32.2426565269
 20
-165.4146459399
 10
-32.0598782851
 20
-165.0032859445
 10
-32.037897619
 20
-164.9213138154
  0
LWPOLYLINE
  5
15F
330
1F
100
AcDbEntity
  8
0
100
AcDbPolyline
 90
        3
 70
   128
 43
0.0
 10
-32.037897619
 20
-163.9754761198
 10
-32.0598782851
 20
-163.8935039907
 10
-32.2456924061
 20
-163.4773615064
  0
LINE
  5
160
330
1F
100
AcDbEntity
  8
0
100
AcDbLine
 10
-32.1508134108
 20
-165.423098516
 30
0.0
 11
-32.037897619
 21
-165.2110819434
 31
0.0
  0
LINE
  5
161
330
1F
100
AcDbEntity
  8
0
100
AcDbLine
 10
-32.037897619
 20
-163.6857079918
 30
0.0
 11
-32.1564092269
 21
-163.4650458822
 31
0.0
  0
LWPOLYLINE
  5
162
330
1F
100
AcDbEntity
  8
0
100
AcDbPolyline
 90
        3
 70
   128
 43
0.0
 10
-32.2426565269
 20
434.1853540601
 10
-32.0598782851
 20
434.5967140555
 10
-32.037897619
 20
434.6786861846
  0
LWPOLYLINE
  5
163
330
1F
100
AcDbEntity
  8
0
100
AcDbPolyline
 90
        3
 70
   128
 43
0.0
 10
-32.037897619
 20
435.6245238802
 10
-32.0598782851
 20
435.7064960093
 10
-32.2456924061
 20
436.1226384936
  0
LINE
  5
164
330
1F
100
AcDbEntity
  8
0
100
AcDbLine
 10
-32.1508134108
 20
434.176901484
 30
0.0
 11
-32.037897619
 21
434.3889180566
 31
0.0
  0
LINE
  5
165
330
1F
100
AcDbEntity
  8
0
100
AcDbLine
 10
-32.037897619
 20
435.9142920082
 30
0.0
 11
-32.1564092269
 21
436.1349541178
 31
0.0
  0
LWPOLYLINE
  5
166
330
1F
100
AcDbEntity
  8
0
100
AcDbPolyline
 90
        3
 70
   128
 43
0.0
 10
307.166861289
 20
-163.4821439953
 10
306.9840830471
 20
-163.8935039907
 10
306.962102381
 20
-163.9754761198
  0
LWPOLYLINE
  5
167
330
1F
100
AcDbEntity
  8
0
100
AcDbPolyline
 90
        3
 70
   128
 43
0.0
 10
306.962102381
 20
-164.9213138153
 10
306.9840830471
 20
-165.0032859445
 10
307.1698971681
 20
-165.4194284288
  0
LINE
  5
168
330
1F
100
AcDbEntity
  8
0
100
AcDbLine
 10
307.0750181729
 20
-163.4736914191
 30
0.0
 11
306.962102381
 21
-163.6857079918
 31
0.0
  0
LINE
  5
169
330
1F
100
AcDbEntity
  8
0
100
AcDbLine
 10
306.962102381
 20
-165.2110819434
 30
0.0
 11
307.080613989
 21
-165.431744053
 31
0.0
  0
ARC
  5
16A
330
1F
100
AcDbEntity
  8
0
100
AcDbCircle
 10
-52.537897619
 20
-209.6483949676
 30
0.0
 40
10.00000000000001
100
AcDbArc
 50
180.0
 51
270.0
  0
LINE
  5
16B
330
1F
100
AcDbEntity
  8
0
100
AcDbLine
 10
-62.537897619
 20
-209.6483949676
 30
0.0
 11
-62.537897619
 21
-174.6483949676
 31
0.0
  0
LINE
  5
16C
330
1F
100
AcDbEntity
  8
0
100
AcDbLine
 10
-62.537897619
 20
-174.6483949676
 30
0.0
 11
-52.537897619
 21
-174.6483949676
 31
0.0
  0
LINE
  5
16D
330
1F
100
AcDbEntity
  8
0
100
AcDbLine
 10
-17.537897619
 20
-209.6483949676
 30
0.0
 11
-17.537897619
 21
-219.6483949676
 31
0.0
  0
LINE
  5
16E
330
1F
100
AcDbEntity
  8
0
100
AcDbLine
 10
-52.537897619
 20
-219.6483949676
 30
0.0
 11
-17.537897619
 21
-219.6483949676
 31
0.0
  0
LINE
  5
16F
330
1F
100
AcDbEntity
  8
0
100
AcDbLine
 10
-32.337897619
 20
-189.4483949676
 30
0.0
 11
-32.337897619
 21
-174.6483949676
 31
0.0
  0
LINE
  5
170
330
1F
100
AcDbEntity
  8
0
100
AcDbLine
 10
-17.537897619
 20
-189.4483949676
 30
0.0
 11
-32.337897619
 21
-189.4483949676
 31
0.0
  0
LINE
  5
171
330
1F
100
AcDbEntity
  8
0
100
AcDbLine
 10
-17.537897619
 20
-209.6483949676
 30
0.0
 11
-17.537897619
 21
-189.4483949676
 31
0.0
  0
LINE
  5
172
330
1F
100
AcDbEntity
  8
0
100
AcDbLine
 10
-52.537897619
 20
-174.6483949676
 30
0.0
 11
-32.337897619
 21
-174.6483949676
 31
0.0
  0
LINE
  5
173
330
1F
100
AcDbEntity
  8
0
100
AcDbLine
 10
-62.537897619
 20
445.3516050324
 30
0.0
 11
-62.537897619
 21
480.3516050324
 31
0.0
  0
LINE
  5
174
330
1F
100
AcDbEntity
  8
0
100
AcDbLine
 10
-52.537897619
 20
445.3516050324
 30
0.0
 11
-62.537897619
 21
445.3516050324
 31
0.0
  0
LINE
  5
175
330
1F
100
AcDbEntity
  8
0
100
AcDbLine
 10
-17.537897619
 20
480.3516050324
 30
0.0
 11
-17.537897619
 21
460.1516050324
 31
0.0
  0
LINE
  5
176
330
1F
100
AcDbEntity
  8
0
100
AcDbLine
 10
-17.537897619
 20
460.1516050324
 30
0.0
 11
-32.337897619
 21
460.1516050324
 31
0.0
  0
LINE
  5
177
330
1F
100
AcDbEntity
  8
0
100
AcDbLine
 10
-32.337897619
 20
460.1516050324
 30
0.0
 11
-32.337897619
 21
445.3516050324
 31
0.0
  0
LINE
  5
178
330
1F
100
AcDbEntity
  8
0
100
AcDbLine
 10
-52.537897619
 20
445.3516050324
 30
0.0
 11
-32.337897619
 21
445.3516050324
 31
0.0
  0
ARC
  5
179
330
1F
100
AcDbEntity
  8
0
100
AcDbCircle
 10
-52.537897619
 20
480.3516050324
 30
0.0
 40
10.00000000000001
100
AcDbArc
 50
90.0
 51
180.0
  0
LINE
  5
17A
330
1F
100
AcDbEntity
  8
0
100
AcDbLine
 10
-52.537897619
 20
490.3516050324
 30
0.0
 11
-17.537897619
 21
490.3516050324
 31
0.0
  0
LINE
  5
17B
330
1F
100
AcDbEntity
  8
0
100
AcDbLine
 10
-17.537897619
 20
490.3516050324
 30
0.0
 11
-17.537897619
 21
480.3516050324
 31
0.0
  0
LINE
  5
17C
330
1F
100
AcDbEntity
  8
0
100
AcDbLine
 10
307.262102381
 20
445.3516050324
 30
0.0
 11
327.462102381
 21
445.3516050324
 31
0.0
  0
LINE
  5
17D
330
1F
100
AcDbEntity
  8
0
100
AcDbLine
 10
307.262102381
 20
460.1516050324
 30
0.0
 11
292.462102381
 21
460.1516050324
 31
0.0
  0
LINE
  5
17E
330
1F
100
AcDbEntity
  8
0
100
AcDbLine
 10
307.262102381
 20
445.3516050324
 30
0.0
 11
307.262102381
 21
460.1516050324
 31
0.0
  0
LINE
  5
17F
330
1F
100
AcDbEntity
  8
0
100
AcDbLine
 10
292.462102381
 20
480.3516050324
 30
0.0
 11
292.462102381
 21
460.1516050324
 31
0.0
  0
LINE
  5
180
330
1F
100
AcDbEntity
  8
0
100
AcDbLine
 10
337.462102381
 20
480.3516050324
 30
0.0
 11
337.462102381
 21
445.3516050324
 31
0.0
  0
LINE
  5
181
330
1F
100
AcDbEntity
  8
0
100
AcDbLine
 10
337.462102381
 20
445.3516050324
 30
0.0
 11
327.462102381
 21
445.3516050324
 31
0.0
  0
LINE
  5
182
330
1F
100
AcDbEntity
  8
0
100
AcDbLine
 10
292.462102381
 20
490.3516050324
 30
0.0
 11
327.462102381
 21
490.3516050324
 31
0.0
  0
LINE
  5
183
330
1F
100
AcDbEntity
  8
0
100
AcDbLine
 10
292.462102381
 20
480.3516050324
 30
0.0
 11
292.462102381
 21
490.3516050324
 31
0.0
  0
ARC
  5
184
330
1F
100
AcDbEntity
  8
0
100
AcDbCircle
 10
327.462102381
 20
480.3516050324
 30
0.0
 40
10.00000000000023
100
AcDbArc
 50
0.0
 51
90.0
  0
LINE
  5
185
330
1F
100
AcDbEntity
  8
0
100
AcDbLine
 10
327.462102381
 20
-219.6483949676
 30
0.0
 11
292.462102381
 21
-219.6483949676
 31
0.0
  0
LINE
  5
186
330
1F
100
AcDbEntity
  8
0
100
AcDbLine
 10
292.462102381
 20
-219.6483949676
 30
0.0
 11
292.462102381
 21
-209.6483949676
 31
0.0
  0
LINE
  5
187
330
1F
100
AcDbEntity
  8
0
100
AcDbLine
 10
292.462102381
 20
-189.4483949676
 30
0.0
 11
307.262102381
 21
-189.4483949676
 31
0.0
  0
LINE
  5
188
330
1F
100
AcDbEntity
  8
0
100
AcDbLine
 10
307.262102381
 20
-189.4483949676
 30
0.0
 11
307.262102381
 21
-174.6483949676
 31
0.0
  0
LINE
  5
189
330
1F
100
AcDbEntity
  8
0
100
AcDbLine
 10
327.462102381
 20
-174.6483949676
 30
0.0
 11
307.262102381
 21
-174.6483949676
 31
0.0
  0
LINE
  5
18A
330
1F
100
AcDbEntity
  8
0
100
AcDbLine
 10
292.462102381
 20
-189.4483949676
 30
0.0
 11
292.462102381
 21
-209.6483949676
 31
0.0
  0
ARC
  5
18B
330
1F
100
AcDbEntity
  8
0
100
AcDbCircle
 10
327.462102381
 20
-209.6483949676
 30
0.0
 40
10.00000000000006
100
AcDbArc
 50
270.0
 51
0.0
  0
LINE
  5
18C
330
1F
100
AcDbEntity
  8
0
100
AcDbLine
 10
337.462102381
 20
-174.6483949676
 30
0.0
 11
337.462102381
 21
-209.6483949676
 31
0.0
  0
LINE
  5
18D
330
1F
100
AcDbEntity
  8
0
100
AcDbLine
 10
327.462102381
 20
-174.6483949676
 30
0.0
 11
337.462102381
 21
-174.6483949676
 31
0.0
  0
LINE
  5
18E
330
1F
100
AcDbEntity
  8
0
100
AcDbLine
 10
307.262102381
 20
-174.6483949676
 30
0.0
 11
307.262102381
 21
445.3516050324
 31
0.0
  0
LINE
  5
18F
330
1F
100
AcDbEntity
  8
0
100
AcDbLine
 10
327.462102381
 20
445.3516050324
 30
0.0
 11
307.762102381
 21
445.3516050324
 31
0.0
  0
LINE
  5
190
330
1F
100
AcDbEntity
  8
0
100
AcDbLine
 10
327.462102381
 20
-174.6483949676
 30
0.0
 11
307.762102381
 21
-174.6483949676
 31
0.0
  0
LINE
  5
191
330
1F
100
AcDbEntity
  8
0
100
AcDbLine
 10
337.462102381
 20
-174.6483949676
 30
0.0
 11
337.462102381
 21
445.3516050324
 31
0.0
  0
SPLINE
  5
192
330
1F
100
AcDbEntity
  8
0
100
AcDbSpline
210
0.0
220
0.0
230
1.0
 70
     8
 71
     3
 72
    13
 73
     9
 74
     0
 42
0.00000001
 43
0.00000001
 40
0.0
 40
0.0
 40
0.0
 40
0.0
 40
0.0758195099347039
 40
0.2670621141511696
 40
0.4427845447738582
 40
0.6260806682302168
 40
0.9037570899309971
 40
1.0
 40
1.0
 40
1.0
 40
1.0
 10
307.0237295361562
 20
-165.4031644324781
 30
0.0
 10
307.035957150861
 20
-165.4084257195548
 30
0.0
 10
307.0790269707123
 20
-165.4269577629707
 30
0.0
 10
307.1433866155842
 20
-165.4268951964948
 30
0.0
 10
307.2038075909344
 20
-165.4026729375938
 30
0.0
 10
307.2471253070113
 20
-165.343713603501
 30
0.0
 10
307.2609563426817
 20
-165.2692109626973
 30
0.0
 10
307.2618677852774
 20
-165.211564133485
 30
0.0
 10
307.2621023810319
 20
-165.1967264449028
 30
0.0
  0
SPLINE
  5
193
330
1F
100
AcDbEntity
  8
0
100
AcDbSpline
210
0.0
220
0.0
230
1.0
 70
     8
 71
     3
 72
    13
 73
     9
 74
     0
 42
0.00000001
 43
0.00000001
 40
0.0
 40
0.0
 40
0.0
 40
0.0
 40
0.0707464304569899
 40
0.3170357550689745
 40
0.502159272472447
 40
0.6884579758096878
 40
0.8497023622653833
 40
1.0
 40
1.0
 40
1.0
 40
1.0
 10
307.262102381032
 20
-163.7000634902628
 30
0.0
 10
307.2619383836835
 20
-163.6877273443988
 30
0.0
 10
307.2612034628842
 20
-163.6324454129521
 30
0.0
 10
307.2485946221377
 20
-163.5553588561319
 30
0.0
 10
307.201846651997
 20
-163.4901662642909
 30
0.0
 10
307.1319448186759
 20
-163.4671388379224
 30
0.0
 10
307.0464760516436
 20
-163.4777990667335
 30
0.0
 10
306.9895603159528
 20
-163.5058087324635
 30
0.0
 10
306.9621023810354
 20
-163.5193214731728
 30
0.0
  0
SPLINE
  5
194
330
1F
100
AcDbEntity
  8
0
100
AcDbSpline
210
0.0
220
0.0
230
1.0
 70
     8
 71
     3
 72
    13
 73
     9
 74
     0
 42
0.00000001
 43
0.00000001
 40
0.0
 40
0.0
 40
0.0
 40
0.0
 40
0.0758195099287713
 40
0.2670621141455536
 40
0.4427845447685653
 40
0.6260806682255623
 40
0.9037570899281053
 40
1.0
 40
1.0
 40
1.0
 40
1.0
 10
307.0237295361603
 20
434.1968355675177
 30
0.0
 10
307.0359571508641
 20
434.1915742804417
 30
0.0
 10
307.0790269707142
 20
434.1730422370264
 30
0.0
 10
307.1433866155846
 20
434.1731048035021
 30
0.0
 10
307.2038075909346
 20
434.1973270624039
 30
0.0
 10
307.2471253070113
 20
434.2562863964964
 30
0.0
 10
307.2609563426818
 20
434.3307890373003
 30
0.0
 10
307.2618677852775
 20
434.3884358665138
 30
0.0
 10
307.262102381032
 20
434.4032735550963
 30
0.0
  0
SPLINE
  5
195
330
1F
100
AcDbEntity
  8
0
100
AcDbSpline
210
0.0
220
0.0
230
1.0
 70
     8
 71
     3
 72
    13
 73
     9
 74
     0
 42
0.00000001
 43
0.00000001
 40
0.0
 40
0.0
 40
0.0
 40
0.0
 40
0.0707464304677221
 40
0.3170357550763715
 40
0.5021592724780722
 40
0.6884579758135531
 40
0.8497023622679793
 40
1.0
 40
1.0
 40
1.0
 40
1.0
 10
307.2621023810322
 20
435.899936509724
 30
0.0
 10
307.2619383836835
 20
435.9122726555899
 30
0.0
 10
307.2612034628842
 20
435.9675545870381
 30
0.0
 10
307.2485946221367
 20
436.0446411438586
 30
0.0
 10
307.2018466519957
 20
436.1098337356989
 30
0.0
 10
307.1319448186745
 20
436.1328611620663
 30
0.0
 10
307.0464760516427
 20
436.1222009332549
 30
0.0
 10
306.9895603159526
 20
436.0941912675251
 30
0.0
 10
306.9621023810357
 20
436.0806785268157
 30
0.0
  0
LINE
  5
196
330
1F
100
AcDbEntity
  8
0
100
AcDbLine
 10
307.262102381
 20
-174.6483949676
 30
0.0
 11
306.962102381
 21
-174.6483949676
 31
0.0
  0
LINE
  5
197
330
1F
100
AcDbEntity
  8
0
100
AcDbLine
 10
307.262102381
 20
445.3516050324
 30
0.0
 11
306.962102381
 21
445.3516050324
 31
0.0
  0
LINE
  5
198
330
1F
100
AcDbEntity
  8
0
100
AcDbLine
 10
-52.537897619
 20
445.3516050324
 30
0.0
 11
-32.837897619
 21
445.3516050324
 31
0.0
  0
LINE
  5
199
330
1F
100
AcDbEntity
  8
0
100
AcDbLine
 10
-52.537897619
 20
-174.6483949676
 30
0.0
 11
-32.837897619
 21
-174.6483949676
 31
0.0
  0
LINE
  5
19A
330
1F
100
AcDbEntity
  8
0
100
AcDbLine
 10
-32.337897619
 20
445.3516050324
 30
0.0
 11
-32.337897619
 21
-174.6483949676
 31
0.0
  0
LINE
  5
19B
330
1F
100
AcDbEntity
  8
0
100
AcDbLine
 10
-62.537897619
 20
445.3516050324
 30
0.0
 11
-62.537897619
 21
-174.6483949676
 31
0.0
  0
SPLINE
  5
19C
330
1F
100
AcDbEntity
  8
0
100
AcDbSpline
210
0.0
220
0.0
230
1.0
 70
     8
 71
     3
 72
    14
 73
    10
 74
     0
 42
0.00000001
 43
0.00000001
 40
0.0
 40
0.0
 40
0.0
 40
0.0
 40
0.012679339815481
 40
0.1814462308384972
 40
0.3508312764953746
 40
0.5064699850139311
 40
0.6688167715348257
 40
0.9147569142167333
 40
1.0
 40
1.0
 40
1.0
 40
1.0
 10
-32.03789761896658
 20
-163.5199265655826
 30
0.0
 10
-32.04010640173311
 20
-163.5183456471719
 30
0.0
 10
-32.07171493289812
 20
-163.4957220964949
 30
0.0
 10
-32.1380767533041
 20
-163.4757565704724
 30
0.0
 10
-32.21919888846953
 20
-163.4684473031768
 30
0.0
 10
-32.27959826816546
 20
-163.4945045134186
 30
0.0
 10
-32.32292255777092
 20
-163.5529053043302
 30
0.0
 10
-32.33675140751424
 20
-163.6275936801899
 30
0.0
 10
-32.33766298777285
 20
-163.6852288123801
 30
0.0
 10
-32.33789761896039
 20
-163.7000634902718
 30
0.0
  0
SPLINE
  5
19D
330
1F
100
AcDbEntity
  8
0
100
AcDbSpline
210
0.0
220
0.0
230
1.0
 70
     8
 71
     3
 72
    13
 73
     9
 74
     0
 42
0.00000001
 43
0.00000001
 40
0.0
 40
0.0
 40
0.0
 40
0.0
 40
0.0707464304680431
 40
0.3170357550779144
 40
0.5021592724804352
 40
0.6884579758168518
 40
0.8497023622720247
 40
1.0
 40
1.0
 40
1.0
 40
1.0
 10
-32.3378976189605
 20
-165.1967264448996
 30
0.0
 10
-32.33773362161191
 20
-165.2090625907655
 30
0.0
 10
-32.33699870081252
 20
-165.2643445222138
 30
0.0
 10
-32.32438986006514
 20
-165.3414310790344
 30
0.0
 10
-32.27764188992393
 20
-165.4066236708744
 30
0.0
 10
-32.20774005660276
 20
-165.429651097242
 30
0.0
 10
-32.1222712895719
 20
-165.4189908684307
 30
0.0
 10
-32.06535555388263
 20
-165.3909812027012
 30
0.0
 10
-32.03789761896658
 20
-165.3774684619924
 30
0.0
  0
SPLINE
  5
19E
330
1F
100
AcDbEntity
  8
0
100
AcDbSpline
210
0.0
220
0.0
230
1.0
 70
     8
 71
     3
 72
    14
 73
    10
 74
     0
 42
0.00000001
 43
0.00000001
 40
0.0
 40
0.0
 40
0.0
 40
0.0
 40
0.0126793398131756
 40
0.1814462308371761
 40
0.3508312764951274
 40
0.5064699850146468
 40
0.6688167715362873
 40
0.9147569142186727
 40
1.0
 40
1.0
 40
1.0
 40
1.0
 10
-32.03789761896642
 20
436.0800734344148
 30
0.0
 10
-32.04010640173238
 20
436.081654352825
 30
0.0
 10
-32.07171493289695
 20
436.1042779035014
 30
0.0
 10
-32.13807675330321
 20
436.1242434295244
 30
0.0
 10
-32.21919888846919
 20
436.1315526968202
 30
0.0
 10
-32.2795982681654
 20
436.1054954865785
 30
0.0
 10
-32.32292255777114
 20
436.0470946956677
 30
0.0
 10
-32.33675140751407
 20
435.9724063198076
 30
0.0
 10
-32.33766298777297
 20
435.9147711876185
 30
0.0
 10
-32.33789761896044
 20
435.8999365097272
 30
0.0
  0
SPLINE
  5
19F
330
1F
100
AcDbEntity
  8
0
100
AcDbSpline
210
0.0
220
0.0
230
1.0
 70
     8
 71
     3
 72
    13
 73
     9
 74
     0
 42
0.00000001
 43
0.00000001
 40
0.0
 40
0.0
 40
0.0
 40
0.0
 40
0.0707464304574387
 40
0.317035755070407
 40
0.5021592724746716
 40
0.6884579758127439
 40
0.8497023622692328
 40
1.0
 40
1.0
 40
1.0
 40
1.0
 10
-32.33789761896055
 20
434.4032735550873
 30
0.0
 10
-32.33773362161202
 20
434.3909374092233
 30
0.0
 10
-32.33699870081264
 20
434.335655477776
 30
0.0
 10
-32.32438986006636
 20
434.2585689209565
 30
0.0
 10
-32.27764188992543
 20
434.1933763291151
 30
0.0
 10
-32.20774005660449
 20
434.1703489027466
 30
0.0
 10
-32.12227128957284
 20
434.1810091315574
 30
0.0
 10
-32.0653555538829
 20
434.2090187972871
 30
0.0
 10
-32.03789761896642
 20
434.222531537996
 30
0.0
  0
LINE
  5
1A0
330
1F
100
AcDbEntity
  8
0
100
AcDbLine
 10
-32.337897619
 20
445.3516050324
 30
0.0
 11
-32.037897619
 21
445.3516050324
 31
0.0
  0
LINE
  5
1A1
330
1F
100
AcDbEntity
  8
0
100
AcDbLine
 10
-32.337897619
 20
-174.6483949676
 30
0.0
 11
-32.037897619
 21
-174.6483949676
 31
0.0
  0
LINE
  5
1A2
330
1F
100
AcDbEntity
  8
0
100
AcDbLine
 10
292.462102381
 20
-189.9483949676
 30
0.0
 11
292.462102381
 21
-209.6483949676
 31
0.0
  0
LINE
  5
1A3
330
1F
100
AcDbEntity
  8
0
100
AcDbLine
 10
-17.537897619
 20
-189.9483949676
 30
0.0
 11
-17.537897619
 21
-209.6483949676
 31
0.0
  0
LINE
  5
1A4
330
1F
100
AcDbEntity
  8
0
100
AcDbLine
 10
292.462102381
 20
-219.6483949676
 30
0.0
 11
-17.537897619
 21
-219.6483949676
 31
0.0
  0
LINE
  5
1A5
330
1F
100
AcDbEntity
  8
0
100
AcDbLine
 10
292.462102381
 20
-189.4483949676
 30
0.0
 11
-17.537897619
 21
-189.4483949676
 31
0.0
  0
LINE
  5
1A6
330
1F
100
AcDbEntity
  8
0
100
AcDbLine
 10
292.462102381
 20
460.6516050324
 30
0.0
 11
292.462102381
 21
480.3516050324
 31
0.0
  0
LINE
  5
1A7
330
1F
100
AcDbEntity
  8
0
100
AcDbLine
 10
-17.537897619
 20
460.6516050324
 30
0.0
 11
-17.537897619
 21
480.3516050324
 31
0.0
  0
LINE
  5
1A8
330
1F
100
AcDbEntity
  8
0
100
AcDbLine
 10
-17.537897619
 20
460.1516050324
 30
0.0
 11
292.462102381
 21
460.1516050324
 31
0.0
  0
LINE
  5
1A9
330
1F
100
AcDbEntity
  8
0
100
AcDbLine
 10
-17.537897619
 20
490.3516050324
 30
0.0
 11
292.462102381
 21
490.3516050324
 31
0.0
  0
LINE
  5
1AA
330
1F
100
AcDbEntity
  8
0
  6
PHANTOM
 62
     8
370
    18
100
AcDbLine
 10
183.0721089156
 20
155.7129516968
 30
0.0
 11
91.8520958465
 21
155.7129516968
 31
0.0
  0
LINE
  5
1AB
330
1F
100
AcDbEntity
  8
0
  6
PHANTOM
 62
     8
370
    18
100
AcDbLine
 10
-28.337897619
 20
-185.4483949676
 30
0.0
 11
66.0891190348
 21
-185.4483949676
 31
0.0
  0
LINE
  5
1AC
330
1F
100
AcDbEntity
  8
0
  6
PHANTOM
 62
     8
370
    18
100
AcDbLine
 10
73.8350857272
 20
-185.4483949676
 30
0.0
 11
201.0891190348
 21
-185.4483949676
 31
0.0
  0
LINE
  5
1AD
330
1F
100
AcDbEntity
  8
0
  6
PHANTOM
 62
     8
370
    18
100
AcDbLine
 10
208.8350857272
 20
-185.4483949676
 30
0.0
 11
303.262102381
 21
-185.4483949676
 31
0.0
  0
LINE
  5
1AE
330
1F
100
AcDbEntity
  8
0
  6
PHANTOM
 62
     8
370
    18
100
AcDbLine
 10
303.262102381
 20
456.1516050324
 30
0.0
 11
208.8350857272
 21
456.1516050324
 31
0.0
  0
LINE
  5
1AF
330
1F
100
AcDbEntity
  8
0
  6
PHANTOM
 62
     8
370
    18
100
AcDbLine
 10
201.0891190348
 20
456.1516050324
 30
0.0
 11
73.8350857272
 21
456.1516050324
 31
0.0
  0
LINE
  5
1B0
330
1F
100
AcDbEntity
  8
0
  6
PHANTOM
 62
     8
370
    18
100
AcDbLine
 10
66.0891190348
 20
456.1516050324
 30
0.0
 11
-28.337897619
 21
456.1516050324
 31
0.0
  0
LINE
  5
1B1
330
1F
100
AcDbEntity
  8
0
  6
PHANTOM
 62
     8
370
    18
100
AcDbLine
 10
303.262102381
 20
-185.4483949676
 30
0.0
 11
303.262102381
 21
-91.0213783138
 31
0.0
  0
LINE
  5
1B2
330
1F
100
AcDbEntity
  8
0
  6
PHANTOM
 62
     8
370
    18
100
AcDbLine
 10
303.262102381
 20
-83.2754116214
 30
0.0
 11
303.262102381
 21
353.9786216862
 31
0.0
  0
LINE
  5
1B3
330
1F
100
AcDbEntity
  8
0
  6
PHANTOM
 62
     8
370
    18
100
AcDbLine
 10
303.262102381
 20
361.7245883786
 30
0.0
 11
303.262102381
 21
456.1516050324
 31
0.0
  0
LINE
  5
1B4
330
1F
100
AcDbEntity
  8
0
  6
PHANTOM
 62
     8
370
    18
100
AcDbLine
 10
-28.337897619
 20
456.1516050324
 30
0.0
 11
-28.337897619
 21
361.7245883786
 31
0.0
  0
LINE
  5
1B5
330
1F
100
AcDbEntity
  8
0
  6
PHANTOM
 62
     8
370
    18
100
AcDbLine
 10
-28.337897619
 20
353.9786216862
 30
0.0
 11
-28.337897619
 21
-83.2754116214
 31
0.0
  0
LINE
  5
1B6
330
1F
100
AcDbEntity
  8
0
  6
PHANTOM
 62
     8
370
    18
100
AcDbLine
 10
-28.337897619
 20
-91.0213783138
 30
0.0
 11
-28.337897619
 21
-185.4483949676
 31
0.0
  0
CIRCLE
  5
1B7
330
1F
100
AcDbEntity
  8
0
  6
PHANTOM
 62
     8
370
    18
100
AcDbCircle
 10
-21.337897619
 20
357.8516050324
 30
0.0
 40
0.0999999999999659
  0
CIRCLE
  5
1B8
330
1F
100
AcDbEntity
  8
0
  6
PHANTOM
 62
     8
370
    18
100
AcDbCircle
 10
-21.337897619
 20
357.8516050324
 30
0.0
 40
7.92353722581862
  0
CIRCLE
  5
1B9
330
1F
100
AcDbEntity
  8
0
  6
PHANTOM
 62
     8
370
    18
100
AcDbCircle
 10
69.962102381
 20
-178.4483949676
 30
0.0
 40
0.1000000000000512
  0
CIRCLE
  5
1BA
330
1F
100
AcDbEntity
  8
0
  6
PHANTOM
 62
     8
370
    18
100
AcDbCircle
 10
69.962102381
 20
-178.4483949676
 30
0.0
 40
7.92353722581862
  0
CIRCLE
  5
1BB
330
1F
100
AcDbEntity
  8
0
  6
PHANTOM
 62
     8
370
    18
100
AcDbCircle
 10
204.962102381
 20
449.1516050324
 30
0.0
 40
0.0999999999999659
  0
CIRCLE
  5
1BC
330
1F
100
AcDbEntity
  8
0
  6
PHANTOM
 62
     8
370
    18
100
AcDbCircle
 10
204.962102381
 20
449.1516050324
 30
0.0
 40
7.92353722581862
  0
CIRCLE
  5
1BD
330
1F
100
AcDbEntity
  8
0
  6
PHANTOM
 62
     8
370
    18
100
AcDbCircle
 10
296.262102381
 20
-87.1483949676
 30
0.0
 40
0.1000000000000369
  0
CIRCLE
  5
1BE
330
1F
100
AcDbEntity
  8
0
  6
PHANTOM
 62
     8
370
    18
100
AcDbCircle
 10
296.262102381
 20
-87.1483949676
 30
0.0
 40
7.92353722581862
  0
CIRCLE
  5
1BF
330
1F
100
AcDbEntity
  8
0
  6
PHANTOM
 62
     8
370
    18
100
AcDbCircle
 10
69.962102381
 20
449.1516050324
 30
0.0
 40
0.0999999999999659
  0
CIRCLE
  5
1C0
330
1F
100
AcDbEntity
  8
0
  6
PHANTOM
 62
     8
370
    18
100
AcDbCircle
 10
69.962102381
 20
449.1516050324
 30
0.0
 40
7.92353722581862
  0
CIRCLE
  5
1C1
330
1F
100
AcDbEntity
  8
0
  6
PHANTOM
 62
     8
370
    18
100
AcDbCircle
 10
-21.337897619
 20
-87.1483949676
 30
0.0
 40
0.1000000000000512
  0
CIRCLE
  5
1C2
330
1F
100
AcDbEntity
  8
0
  6
PHANTOM
 62
     8
370
    18
100
AcDbCircle
 10
-21.337897619
 20
-87.1483949676
 30
0.0
 40
7.92353722581862
  0
CIRCLE
  5
1C3
330
1F
100
AcDbEntity
  8
0
  6
PHANTOM
 62
     8
370
    18
100
AcDbCircle
 10
296.262102381
 20
357.8516050324
 30
0.0
 40
0.0999999999999659
  0
CIRCLE
  5
1C4
330
1F
100
AcDbEntity
  8
0
  6
PHANTOM
 62
     8
370
    18
100
AcDbCircle
 10
296.262102381
 20
357.8516050324
 30
0.0
 40
7.92353722581862
  0
CIRCLE
  5
1C5
330
1F
100
AcDbEntity
  8
0
  6
PHANTOM
 62
     8
370
    18
100
AcDbCircle
 10
204.962102381
 20
-178.4483949676
 30
0.0
 40
0.1000000000000512
  0
CIRCLE
  5
1C6
330
1F
100
AcDbEntity
  8
0
  6
PHANTOM
 62
     8
370
    18
100
AcDbCircle
 10
204.962102381
 20
-178.4483949676
 30
0.0
 40
7.92353722581862
  0
LINE
  5
1C7
330
1F
100
AcDbEntity
  8
0
  6
PHANTOM
 62
     8
370
    18
100
AcDbLine
 10
-52.537897619
 20
-209.6483949676
 30
0.0
 11
-62.537897619
 21
-209.6483949676
 31
0.0
  0
LINE
  5
1C8
330
1F
100
AcDbEntity
  8
0
  6
PHANTOM
 62
     8
370
    18
100
AcDbLine
 10
-52.537897619
 20
-209.6483949676
 30
0.0
 11
-52.537897619
 21
-219.6483949676
 31
0.0
  0
LINE
  5
1C9
330
1F
100
AcDbEntity
  8
0
  6
PHANTOM
 62
     8
370
    18
100
AcDbLine
 10
-52.537897619
 20
-174.6483949676
 30
0.0
 11
-52.537897619
 21
-209.6483949676
 31
0.0
  0
LINE
  5
1CA
330
1F
100
AcDbEntity
  8
0
  6
PHANTOM
 62
     8
370
    18
100
AcDbLine
 10
-52.537897619
 20
-209.6483949676
 30
0.0
 11
-17.537897619
 21
-209.6483949676
 31
0.0
  0
LINE
  5
1CB
330
1F
100
AcDbEntity
  8
0
  6
PHANTOM
 62
     8
370
    18
100
AcDbLine
 10
-62.537897619
 20
480.3516050324
 30
0.0
 11
-52.537897619
 21
480.3516050324
 31
0.0
  0
LINE
  5
1CC
330
1F
100
AcDbEntity
  8
0
  6
PHANTOM
 62
     8
370
    18
100
AcDbLine
 10
-52.537897619
 20
480.3516050324
 30
0.0
 11
-52.537897619
 21
445.3516050324
 31
0.0
  0
LINE
  5
1CD
330
1F
100
AcDbEntity
  8
0
  6
PHANTOM
 62
     8
370
    18
100
AcDbLine
 10
-52.537897619
 20
480.3516050324
 30
0.0
 11
-17.537897619
 21
480.3516050324
 31
0.0
  0
LINE
  5
1CE
330
1F
100
AcDbEntity
  8
0
  6
PHANTOM
 62
     8
370
    18
100
AcDbLine
 10
-52.537897619
 20
490.3516050324
 30
0.0
 11
-52.537897619
 21
480.3516050324
 31
0.0
  0
LINE
  5
1CF
330
1F
100
AcDbEntity
  8
0
  6
PHANTOM
 62
     8
370
    18
100
AcDbLine
 10
327.462102381
 20
480.3516050324
 30
0.0
 11
292.462102381
 21
480.3516050324
 31
0.0
  0
LINE
  5
1D0
330
1F
100
AcDbEntity
  8
0
  6
PHANTOM
 62
     8
370
    18
100
AcDbLine
 10
327.462102381
 20
445.3516050324
 30
0.0
 11
327.462102381
 21
480.3516050324
 31
0.0
  0
LINE
  5
1D1
330
1F
100
AcDbEntity
  8
0
  6
PHANTOM
 62
     8
370
    18
100
AcDbLine
 10
327.462102381
 20
480.3516050324
 30
0.0
 11
337.462102381
 21
480.3516050324
 31
0.0
  0
LINE
  5
1D2
330
1F
100
AcDbEntity
  8
0
  6
PHANTOM
 62
     8
370
    18
100
AcDbLine
 10
327.462102381
 20
490.3516050324
 30
0.0
 11
327.462102381
 21
480.3516050324
 31
0.0
  0
LINE
  5
1D3
330
1F
100
AcDbEntity
  8
0
  6
PHANTOM
 62
     8
370
    18
100
AcDbLine
 10
292.462102381
 20
-209.6483949676
 30
0.0
 11
327.462102381
 21
-209.6483949676
 31
0.0
  0
LINE
  5
1D4
330
1F
100
AcDbEntity
  8
0
  6
PHANTOM
 62
     8
370
    18
100
AcDbLine
 10
327.462102381
 20
-209.6483949676
 30
0.0
 11
327.462102381
 21
-219.6483949676
 31
0.0
  0
LINE
  5
1D5
330
1F
100
AcDbEntity
  8
0
  6
PHANTOM
 62
     8
370
    18
100
AcDbLine
 10
327.462102381
 20
-209.6483949676
 30
0.0
 11
327.462102381
 21
-174.6483949676
 31
0.0
  0
LINE
  5
1D6
330
1F
100
AcDbEntity
  8
0
  6
PHANTOM
 62
     8
370
    18
100
AcDbLine
 10
337.462102381
 20
-209.6483949676
 30
0.0
 11
327.462102381
 21
-209.6483949676
 31
0.0
  0
LINE
  5
1D7
330
1F
100
AcDbEntity
  8
0
  6
PHANTOM
 62
     8
370
    18
100
AcDbLine
 10
307.762102381
 20
-174.6483949676
 30
0.0
 11
307.762102381
 21
445.3516050324
 31
0.0
  0
LINE
  5
1D8
330
1F
100
AcDbEntity
  8
0
  6
PHANTOM
 62
     8
370
    18
100
AcDbLine
 10
327.462102381
 20
-174.6483949676
 30
0.0
 11
327.462102381
 21
445.3516050324
 31
0.0
  0
LINE
  5
1D9
330
1F
100
AcDbEntity
  8
0
  6
PHANTOM
 62
     8
370
    18
100
AcDbLine
 10
306.762102381
 20
-171.4483949676
 30
0.0
 11
306.762102381
 21
-170.8483949676
 31
0.0
  0
LINE
  5
1DA
330
1F
100
AcDbEntity
  8
0
  6
PHANTOM
 62
     8
370
    18
100
AcDbLine
 10
-52.537897619
 20
445.3516050324
 30
0.0
 11
-52.537897619
 21
-174.6483949676
 31
0.0
  0
LINE
  5
1DB
330
1F
100
AcDbEntity
  8
0
  6
PHANTOM
 62
     8
370
    18
100
AcDbLine
 10
-32.837897619
 20
445.3516050324
 30
0.0
 11
-32.837897619
 21
-174.6483949676
 31
0.0
  0
LINE
  5
1DC
330
1F
100
AcDbEntity
  8
0
  6
PHANTOM
 62
     8
370
    18
100
AcDbLine
 10
-31.837897619
 20
442.1516050324
 30
0.0
 11
-31.837897619
 21
441.5516050324
 31
0.0
  0
LINE
  5
1DD
330
1F
100
AcDbEntity
  8
0
  6
PHANTOM
 62
     8
370
    18
100
AcDbLine
 10
292.462102381
 20
-189.9483949676
 30
0.0
 11
-17.537897619
 21
-189.9483949676
 31
0.0
  0
LINE
  5
1DE
330
1F
100
AcDbEntity
  8
0
  6
PHANTOM
 62
     8
370
    18
100
AcDbLine
 10
292.462102381
 20
-209.6483949676
 30
0.0
 11
-17.537897619
 21
-209.6483949676
 31
0.0
  0
LINE
  5
1DF
330
1F
100
AcDbEntity
  8
0
  6
PHANTOM
 62
     8
370
    18
100
AcDbLine
 10
-17.537897619
 20
460.6516050324
 30
0.0
 11
292.462102381
 21
460.6516050324
 31
0.0
  0
LINE
  5
1E0
330
1F
100
AcDbEntity
  8
0
  6
PHANTOM
 62
     8
370
    18
100
AcDbLine
 10
-17.537897619
 20
480.3516050324
 30
0.0
 11
292.462102381
 21
480.3516050324
 31
0.0
  0
LINE
  5
1E1
330
1F
100
AcDbEntity
  8
0
100
AcDbLine
 10
1315.3230848939
 20
179.4410965635
 30
0.0
 11
1314.8230848939
 21
179.4410965635
 31
0.0
  0
LINE
  5
1E2
330
1F
100
AcDbEntity
  8
0
100
AcDbLine
 10
1314.8230848939
 20
106.4410965635
 30
0.0
 11
1315.3230848939
 21
106.4410965635
 31
0.0
  0
LINE
  5
1E3
330
1F
100
AcDbEntity
  8
0
100
AcDbLine
 10
632.3230848939
 20
490.3516050324
 30
0.0
 11
632.3230848939
 21
491.9516050324
 31
0.0
  0
LINE
  5
1E4
330
1F
100
AcDbEntity
  8
0
100
AcDbLine
 10
616.3230848939
 20
491.9516050324
 30
0.0
 11
616.3230848939
 21
490.3516050324
 31
0.0
  0
LINE
  5
1E5
330
1F
100
AcDbEntity
  8
0
100
AcDbLine
 10
1303.3230848939
 20
490.3516050324
 30
0.0
 11
1303.3230848939
 21
491.9516050324
 31
0.0
  0
LINE
  5
1E6
330
1F
100
AcDbEntity
  8
0
100
AcDbLine
 10
1287.3230848939
 20
491.9516050324
 30
0.0
 11
1287.3230848939
 21
490.3516050324
 31
0.0
  0
LINE
  5
1E7
330
1F
100
AcDbEntity
  8
0
100
AcDbLine
 10
1287.3230848939
 20
-219.6483949676
 30
0.0
 11
1287.3230848939
 21
-221.2483949676
 31
0.0
  0
LINE
  5
1E8
330
1F
100
AcDbEntity
  8
0
100
AcDbLine
 10
1303.3230848939
 20
-221.2483949676
 30
0.0
 11
1303.3230848939
 21
-219.6483949676
 31
0.0
  0
LINE
  5
1E9
330
1F
100
AcDbEntity
  8
0
100
AcDbLine
 10
616.3230848939
 20
-219.6483949676
 30
0.0
 11
616.3230848939
 21
-221.2483949676
 31
0.0
  0
LINE
  5
1EA
330
1F
100
AcDbEntity
  8
0
100
AcDbLine
 10
632.3230848939
 20
-221.2483949676
 30
0.0
 11
632.3230848939
 21
-219.6483949676
 31
0.0
  0
LINE
  5
1EB
330
1F
100
AcDbEntity
  8
0
100
AcDbLine
 10
1266.6230848939
 20
-160.6483949676
 30
0.0
 11
653.0230848939
 21
-160.6483949676
 31
0.0
  0
LINE
  5
1EC
330
1F
100
AcDbEntity
  8
0
100
AcDbLine
 10
653.0230848939
 20
431.3516050324
 30
0.0
 11
1266.6230848939
 21
431.3516050324
 31
0.0
  0
LINE
  5
1ED
330
1F
100
AcDbEntity
  8
0
100
AcDbLine
 10
1315.3230848939
 20
111.4940057103
 30
0.0
 11
1315.3230848939
 21
108.5035246089
 31
0.0
  0
LINE
  5
1EE
330
1F
100
AcDbEntity
  8
0
100
AcDbLine
 10
1315.3230848939
 20
177.378668518
 30
0.0
 11
1315.3230848939
 21
174.3881874167
 31
0.0
  0
LINE
  5
1EF
330
1F
100
AcDbEntity
  8
0
100
AcDbLine
 10
1315.3230848939
 20
174.3881874167
 30
0.0
 11
1315.3230848939
 21
111.4940057103
 31
0.0
  0
LINE
  5
1F0
330
1F
100
AcDbEntity
  8
0
100
AcDbLine
 10
1315.3230848939
 20
179.4410965635
 30
0.0
 11
1315.3230848939
 21
177.378668518
 31
0.0
  0
LINE
  5
1F1
330
1F
100
AcDbEntity
  8
0
100
AcDbLine
 10
1315.3230848939
 20
108.5035246089
 30
0.0
 11
1315.3230848939
 21
106.4410965635
 31
0.0
  0
ARC
  5
1F2
330
1F
100
AcDbEntity
  8
0
100
AcDbCircle
 10
1312.8230848939
 20
160.1110965635
 30
0.0
 40
3.500000000000065
100
AcDbArc
 50
315.5846914028
 51
44.4153085972
  0
LINE
  5
1F3
330
1F
100
AcDbEntity
  8
0
100
AcDbLine
 10
1266.6230848939
 20
363.4766050324
 30
0.0
 11
1266.4230848939
 21
363.4766050324
 31
0.0
  0
LINE
  5
1F4
330
1F
100
AcDbEntity
  8
0
100
AcDbLine
 10
1266.6230848939
 20
355.1816050324
 30
0.0
 11
1266.4230848939
 21
355.1816050324
 31
0.0
  0
LINE
  5
1F5
330
1F
100
AcDbEntity
  8
0
100
AcDbLine
 10
1266.4230848939
 20
360.5216050324
 30
0.0
 11
1266.6230848939
 21
360.5216050324
 31
0.0
  0
LINE
  5
1F6
330
1F
100
AcDbEntity
  8
0
100
AcDbLine
 10
1266.6230848939
 20
352.2266050324
 30
0.0
 11
1266.4230848939
 21
352.2266050324
 31
0.0
  0
LINE
  5
1F7
330
1F
100
AcDbEntity
  8
0
100
AcDbLine
 10
1265.9230848939
 20
360.5216050324
 30
0.0
 11
1265.9230848939
 21
363.4766050324
 31
0.0
  0
LINE
  5
1F8
330
1F
100
AcDbEntity
  8
0
100
AcDbLine
 10
1265.9230848939
 20
363.4766050324
 30
0.0
 11
1266.4230848939
 21
363.4766050324
 31
0.0
  0
LINE
  5
1F9
330
1F
100
AcDbEntity
  8
0
100
AcDbLine
 10
1266.4230848939
 20
360.5216050324
 30
0.0
 11
1265.9230848939
 21
360.5216050324
 31
0.0
  0
LINE
  5
1FA
330
1F
100
AcDbEntity
  8
0
100
AcDbLine
 10
1265.9230848939
 20
352.2266050324
 30
0.0
 11
1265.9230848939
 21
355.1816050324
 31
0.0
  0
LINE
  5
1FB
330
1F
100
AcDbEntity
  8
0
100
AcDbLine
 10
1265.9230848939
 20
355.1816050324
 30
0.0
 11
1266.4230848939
 21
355.1816050324
 31
0.0
  0
LINE
  5
1FC
330
1F
100
AcDbEntity
  8
0
100
AcDbLine
 10
1266.4230848939
 20
352.2266050324
 30
0.0
 11
1265.9230848939
 21
352.2266050324
 31
0.0
  0
LINE
  5
1FD
330
1F
100
AcDbEntity
  8
0
100
AcDbLine
 10
742.9480848939
 20
-171.4483949676
 30
0.0
 11
742.9480848939
 21
-171.2483949676
 31
0.0
  0
LINE
  5
1FE
330
1F
100
AcDbEntity
  8
0
100
AcDbLine
 10
734.6530848939
 20
-171.4483949676
 30
0.0
 11
734.6530848939
 21
-171.2483949676
 31
0.0
  0
LINE
  5
1FF
330
1F
100
AcDbEntity
  8
0
100
AcDbLine
 10
739.9930848939
 20
-171.2483949676
 30
0.0
 11
739.9930848939
 21
-171.4483949676
 31
0.0
  0
LINE
  5
200
330
1F
100
AcDbEntity
  8
0
100
AcDbLine
 10
731.6980848939
 20
-171.4483949676
 30
0.0
 11
731.6980848939
 21
-171.2483949676
 31
0.0
  0
LINE
  5
201
330
1F
100
AcDbEntity
  8
0
100
AcDbLine
 10
731.6980848939
 20
-170.7483949676
 30
0.0
 11
734.6530848939
 21
-170.7483949676
 31
0.0
  0
LINE
  5
202
330
1F
100
AcDbEntity
  8
0
100
AcDbLine
 10
734.6530848939
 20
-170.7483949676
 30
0.0
 11
734.6530848939
 21
-171.2483949676
 31
0.0
  0
LINE
  5
203
330
1F
100
AcDbEntity
  8
0
100
AcDbLine
 10
731.6980848939
 20
-171.2483949676
 30
0.0
 11
731.6980848939
 21
-170.7483949676
 31
0.0
  0
LINE
  5
204
330
1F
100
AcDbEntity
  8
0
100
AcDbLine
 10
739.9930848939
 20
-170.7483949676
 30
0.0
 11
742.9480848939
 21
-170.7483949676
 31
0.0
  0
LINE
  5
205
330
1F
100
AcDbEntity
  8
0
100
AcDbLine
 10
739.9930848939
 20
-171.2483949676
 30
0.0
 11
739.9930848939
 21
-170.7483949676
 31
0.0
  0
LINE
  5
206
330
1F
100
AcDbEntity
  8
0
100
AcDbLine
 10
742.9480848939
 20
-170.7483949676
 30
0.0
 11
742.9480848939
 21
-171.2483949676
 31
0.0
  0
LINE
  5
207
330
1F
100
AcDbEntity
  8
0
100
AcDbLine
 10
1266.4230848939
 20
-84.4783949676
 30
0.0
 11
1266.6230848939
 21
-84.4783949676
 31
0.0
  0
LINE
  5
208
330
1F
100
AcDbEntity
  8
0
100
AcDbLine
 10
1266.6230848939
 20
-89.8183949676
 30
0.0
 11
1266.4230848939
 21
-89.8183949676
 31
0.0
  0
LINE
  5
209
330
1F
100
AcDbEntity
  8
0
100
AcDbLine
 10
1266.6230848939
 20
-92.7733949676
 30
0.0
 11
1266.4230848939
 21
-92.7733949676
 31
0.0
  0
LINE
  5
20A
330
1F
100
AcDbEntity
  8
0
100
AcDbLine
 10
1266.6230848939
 20
-81.5233949676
 30
0.0
 11
1266.4230848939
 21
-81.5233949676
 31
0.0
  0
LINE
  5
20B
330
1F
100
AcDbEntity
  8
0
100
AcDbLine
 10
1265.9230848939
 20
-84.4783949676
 30
0.0
 11
1265.9230848939
 21
-81.5233949676
 31
0.0
  0
LINE
  5
20C
330
1F
100
AcDbEntity
  8
0
100
AcDbLine
 10
1266.4230848939
 20
-84.4783949676
 30
0.0
 11
1265.9230848939
 21
-84.4783949676
 31
0.0
  0
LINE
  5
20D
330
1F
100
AcDbEntity
  8
0
100
AcDbLine
 10
1265.9230848939
 20
-81.5233949676
 30
0.0
 11
1266.4230848939
 21
-81.5233949676
 31
0.0
  0
LINE
  5
20E
330
1F
100
AcDbEntity
  8
0
100
AcDbLine
 10
1265.9230848939
 20
-92.7733949676
 30
0.0
 11
1265.9230848939
 21
-89.8183949676
 31
0.0
  0
LINE
  5
20F
330
1F
100
AcDbEntity
  8
0
100
AcDbLine
 10
1265.9230848939
 20
-89.8183949676
 30
0.0
 11
1266.4230848939
 21
-89.8183949676
 31
0.0
  0
LINE
  5
210
330
1F
100
AcDbEntity
  8
0
100
AcDbLine
 10
1266.4230848939
 20
-92.7733949676
 30
0.0
 11
1265.9230848939
 21
-92.7733949676
 31
0.0
  0
LINE
  5
211
330
1F
100
AcDbEntity
  8
0
100
AcDbLine
 10
1176.6980848939
 20
442.1516050324
 30
0.0
 11
1176.6980848939
 21
441.9516050324
 31
0.0
  0
LINE
  5
212
330
1F
100
AcDbEntity
  8
0
100
AcDbLine
 10
1187.9480848939
 20
442.1516050324
 30
0.0
 11
1187.9480848939
 21
441.9516050324
 31
0.0
  0
LINE
  5
213
330
1F
100
AcDbEntity
  8
0
100
AcDbLine
 10
1184.9930848939
 20
442.1516050324
 30
0.0
 11
1184.9930848939
 21
441.9516050324
 31
0.0
  0
LINE
  5
214
330
1F
100
AcDbEntity
  8
0
100
AcDbLine
 10
1179.6530848939
 20
441.9516050324
 30
0.0
 11
1179.6530848939
 21
442.1516050324
 31
0.0
  0
LINE
  5
215
330
1F
100
AcDbEntity
  8
0
100
AcDbLine
 10
1179.6530848939
 20
441.4516050324
 30
0.0
 11
1176.6980848939
 21
441.4516050324
 31
0.0
  0
LINE
  5
216
330
1F
100
AcDbEntity
  8
0
100
AcDbLine
 10
1176.6980848939
 20
441.4516050324
 30
0.0
 11
1176.6980848939
 21
441.9516050324
 31
0.0
  0
LINE
  5
217
330
1F
100
AcDbEntity
  8
0
100
AcDbLine
 10
1179.6530848939
 20
441.9516050324
 30
0.0
 11
1179.6530848939
 21
441.4516050324
 31
0.0
  0
LINE
  5
218
330
1F
100
AcDbEntity
  8
0
100
AcDbLine
 10
1187.9480848939
 20
441.9516050324
 30
0.0
 11
1187.9480848939
 21
441.4516050324
 31
0.0
  0
LINE
  5
219
330
1F
100
AcDbEntity
  8
0
100
AcDbLine
 10
1187.9480848939
 20
441.4516050324
 30
0.0
 11
1184.9930848939
 21
441.4516050324
 31
0.0
  0
LINE
  5
21A
330
1F
100
AcDbEntity
  8
0
100
AcDbLine
 10
1184.9930848939
 20
441.4516050324
 30
0.0
 11
1184.9930848939
 21
441.9516050324
 31
0.0
  0
LINE
  5
21B
330
1F
100
AcDbEntity
  8
0
100
AcDbLine
 10
653.0230848939
 20
-92.7733949676
 30
0.0
 11
653.2230848939
 21
-92.7733949676
 31
0.0
  0
LINE
  5
21C
330
1F
100
AcDbEntity
  8
0
100
AcDbLine
 10
653.0230848939
 20
-81.5233949676
 30
0.0
 11
653.2230848939
 21
-81.5233949676
 31
0.0
  0
LINE
  5
21D
330
1F
100
AcDbEntity
  8
0
100
AcDbLine
 10
653.0230848939
 20
-84.4783949676
 30
0.0
 11
653.2230848939
 21
-84.4783949676
 31
0.0
  0
LINE
  5
21E
330
1F
100
AcDbEntity
  8
0
100
AcDbLine
 10
653.2230848939
 20
-89.8183949676
 30
0.0
 11
653.0230848939
 21
-89.8183949676
 31
0.0
  0
LINE
  5
21F
330
1F
100
AcDbEntity
  8
0
100
AcDbLine
 10
653.7230848939
 20
-89.8183949676
 30
0.0
 11
653.7230848939
 21
-92.7733949676
 31
0.0
  0
LINE
  5
220
330
1F
100
AcDbEntity
  8
0
100
AcDbLine
 10
653.2230848939
 20
-89.8183949676
 30
0.0
 11
653.7230848939
 21
-89.8183949676
 31
0.0
  0
LINE
  5
221
330
1F
100
AcDbEntity
  8
0
100
AcDbLine
 10
653.7230848939
 20
-92.7733949676
 30
0.0
 11
653.2230848939
 21
-92.7733949676
 31
0.0
  0
LINE
  5
222
330
1F
100
AcDbEntity
  8
0
100
AcDbLine
 10
653.7230848939
 20
-81.5233949676
 30
0.0
 11
653.7230848939
 21
-84.4783949676
 31
0.0
  0
LINE
  5
223
330
1F
100
AcDbEntity
  8
0
100
AcDbLine
 10
653.7230848939
 20
-84.4783949676
 30
0.0
 11
653.2230848939
 21
-84.4783949676
 31
0.0
  0
LINE
  5
224
330
1F
100
AcDbEntity
  8
0
100
AcDbLine
 10
653.2230848939
 20
-81.5233949676
 30
0.0
 11
653.7230848939
 21
-81.5233949676
 31
0.0
  0
LINE
  5
225
330
1F
100
AcDbEntity
  8
0
100
AcDbLine
 10
1187.9480848939
 20
-171.4483949676
 30
0.0
 11
1187.9480848939
 21
-171.2483949676
 31
0.0
  0
LINE
  5
226
330
1F
100
AcDbEntity
  8
0
100
AcDbLine
 10
1179.6530848939
 20
-171.4483949676
 30
0.0
 11
1179.6530848939
 21
-171.2483949676
 31
0.0
  0
LINE
  5
227
330
1F
100
AcDbEntity
  8
0
100
AcDbLine
 10
1184.9930848939
 20
-171.2483949676
 30
0.0
 11
1184.9930848939
 21
-171.4483949676
 31
0.0
  0
LINE
  5
228
330
1F
100
AcDbEntity
  8
0
100
AcDbLine
 10
1176.6980848939
 20
-171.4483949676
 30
0.0
 11
1176.6980848939
 21
-171.2483949676
 31
0.0
  0
LINE
  5
229
330
1F
100
AcDbEntity
  8
0
100
AcDbLine
 10
1176.6980848939
 20
-170.7483949676
 30
0.0
 11
1179.6530848939
 21
-170.7483949676
 31
0.0
  0
LINE
  5
22A
330
1F
100
AcDbEntity
  8
0
100
AcDbLine
 10
1179.6530848939
 20
-170.7483949676
 30
0.0
 11
1179.6530848939
 21
-171.2483949676
 31
0.0
  0
LINE
  5
22B
330
1F
100
AcDbEntity
  8
0
100
AcDbLine
 10
1176.6980848939
 20
-171.2483949676
 30
0.0
 11
1176.6980848939
 21
-170.7483949676
 31
0.0
  0
LINE
  5
22C
330
1F
100
AcDbEntity
  8
0
100
AcDbLine
 10
1184.9930848939
 20
-170.7483949676
 30
0.0
 11
1187.9480848939
 21
-170.7483949676
 31
0.0
  0
LINE
  5
22D
330
1F
100
AcDbEntity
  8
0
100
AcDbLine
 10
1184.9930848939
 20
-171.2483949676
 30
0.0
 11
1184.9930848939
 21
-170.7483949676
 31
0.0
  0
LINE
  5
22E
330
1F
100
AcDbEntity
  8
0
100
AcDbLine
 10
1187.9480848939
 20
-170.7483949676
 30
0.0
 11
1187.9480848939
 21
-171.2483949676
 31
0.0
  0
LINE
  5
22F
330
1F
100
AcDbEntity
  8
0
100
AcDbLine
 10
653.0230848939
 20
363.4766050324
 30
0.0
 11
653.2230848939
 21
363.4766050324
 31
0.0
  0
LINE
  5
230
330
1F
100
AcDbEntity
  8
0
100
AcDbLine
 10
653.0230848939
 20
360.5216050324
 30
0.0
 11
653.2230848939
 21
360.5216050324
 31
0.0
  0
LINE
  5
231
330
1F
100
AcDbEntity
  8
0
100
AcDbLine
 10
653.2230848939
 20
355.1816050324
 30
0.0
 11
653.0230848939
 21
355.1816050324
 31
0.0
  0
LINE
  5
232
330
1F
100
AcDbEntity
  8
0
100
AcDbLine
 10
653.0230848939
 20
352.2266050324
 30
0.0
 11
653.2230848939
 21
352.2266050324
 31
0.0
  0
LINE
  5
233
330
1F
100
AcDbEntity
  8
0
100
AcDbLine
 10
653.7230848939
 20
363.4766050324
 30
0.0
 11
653.7230848939
 21
360.5216050324
 31
0.0
  0
LINE
  5
234
330
1F
100
AcDbEntity
  8
0
100
AcDbLine
 10
653.7230848939
 20
360.5216050324
 30
0.0
 11
653.2230848939
 21
360.5216050324
 31
0.0
  0
LINE
  5
235
330
1F
100
AcDbEntity
  8
0
100
AcDbLine
 10
653.2230848939
 20
363.4766050324
 30
0.0
 11
653.7230848939
 21
363.4766050324
 31
0.0
  0
LINE
  5
236
330
1F
100
AcDbEntity
  8
0
100
AcDbLine
 10
653.7230848939
 20
355.1816050324
 30
0.0
 11
653.7230848939
 21
352.2266050324
 31
0.0
  0
LINE
  5
237
330
1F
100
AcDbEntity
  8
0
100
AcDbLine
 10
653.2230848939
 20
355.1816050324
 30
0.0
 11
653.7230848939
 21
355.1816050324
 31
0.0
  0
LINE
  5
238
330
1F
100
AcDbEntity
  8
0
100
AcDbLine
 10
653.7230848939
 20
352.2266050324
 30
0.0
 11
653.2230848939
 21
352.2266050324
 31
0.0
  0
LINE
  5
239
330
1F
100
AcDbEntity
  8
0
100
AcDbLine
 10
731.6980848939
 20
442.1516050324
 30
0.0
 11
731.6980848939
 21
441.9516050324
 31
0.0
  0
LINE
  5
23A
330
1F
100
AcDbEntity
  8
0
100
AcDbLine
 10
742.9480848939
 20
442.1516050324
 30
0.0
 11
742.9480848939
 21
441.9516050324
 31
0.0
  0
LINE
  5
23B
330
1F
100
AcDbEntity
  8
0
100
AcDbLine
 10
739.9930848939
 20
442.1516050324
 30
0.0
 11
739.9930848939
 21
441.9516050324
 31
0.0
  0
LINE
  5
23C
330
1F
100
AcDbEntity
  8
0
100
AcDbLine
 10
734.6530848939
 20
441.9516050324
 30
0.0
 11
734.6530848939
 21
442.1516050324
 31
0.0
  0
LINE
  5
23D
330
1F
100
AcDbEntity
  8
0
100
AcDbLine
 10
734.6530848939
 20
441.4516050324
 30
0.0
 11
731.6980848939
 21
441.4516050324
 31
0.0
  0
LINE
  5
23E
330
1F
100
AcDbEntity
  8
0
100
AcDbLine
 10
734.6530848939
 20
441.9516050324
 30
0.0
 11
734.6530848939
 21
441.4516050324
 31
0.0
  0
LINE
  5
23F
330
1F
100
AcDbEntity
  8
0
100
AcDbLine
 10
731.6980848939
 20
441.4516050324
 30
0.0
 11
731.6980848939
 21
441.9516050324
 31
0.0
  0
LINE
  5
240
330
1F
100
AcDbEntity
  8
0
100
AcDbLine
 10
742.9480848939
 20
441.9516050324
 30
0.0
 11
742.9480848939
 21
441.4516050324
 31
0.0
  0
LINE
  5
241
330
1F
100
AcDbEntity
  8
0
100
AcDbLine
 10
742.9480848939
 20
441.4516050324
 30
0.0
 11
739.9930848939
 21
441.4516050324
 31
0.0
  0
LINE
  5
242
330
1F
100
AcDbEntity
  8
0
100
AcDbLine
 10
739.9930848939
 20
441.4516050324
 30
0.0
 11
739.9930848939
 21
441.9516050324
 31
0.0
  0
LINE
  5
243
330
1F
100
AcDbEntity
  8
0
100
AcDbLine
 10
1284.3230848939
 20
-189.4483949676
 30
0.0
 11
1284.3230848939
 21
-171.4483949676
 31
0.0
  0
LINE
  5
244
330
1F
100
AcDbEntity
  8
0
100
AcDbLine
 10
635.3230848939
 20
-171.4483949676
 30
0.0
 11
635.3230848939
 21
-189.4483949676
 31
0.0
  0
LINE
  5
245
330
1F
100
AcDbEntity
  8
0
100
AcDbLine
 10
1284.3230848939
 20
-171.4483949676
 30
0.0
 11
635.3230848939
 21
-171.4483949676
 31
0.0
  0
LINE
  5
246
330
1F
100
AcDbEntity
  8
0
100
AcDbLine
 10
1284.3230848939
 20
460.1516050324
 30
0.0
 11
1284.3230848939
 21
442.1516050324
 31
0.0
  0
LINE
  5
247
330
1F
100
AcDbEntity
  8
0
100
AcDbLine
 10
1284.3230848939
 20
442.1516050324
 30
0.0
 11
635.3230848939
 21
442.1516050324
 31
0.0
  0
LINE
  5
248
330
1F
100
AcDbEntity
  8
0
100
AcDbLine
 10
635.3230848939
 20
442.1516050324
 30
0.0
 11
635.3230848939
 21
460.1516050324
 31
0.0
  0
LINE
  5
249
330
1F
100
AcDbEntity
  8
0
100
AcDbLine
 10
1266.6230848939
 20
-170.8483949676
 30
0.0
 11
1266.6230848939
 21
442.1516050324
 31
0.0
  0
LINE
  5
24A
330
1F
100
AcDbEntity
  8
0
100
AcDbLine
 10
1266.6230848939
 20
442.1516050324
 30
0.0
 11
1284.6230848939
 21
442.1516050324
 31
0.0
  0
LINE
  5
24B
330
1F
100
AcDbEntity
  8
0
100
AcDbLine
 10
1284.6230848939
 20
-170.8483949676
 30
0.0
 11
1266.6230848939
 21
-170.8483949676
 31
0.0
  0
LINE
  5
24C
330
1F
100
AcDbEntity
  8
0
100
AcDbLine
 10
653.0230848939
 20
441.8516050324
 30
0.0
 11
653.0230848939
 21
-171.1483949676
 31
0.0
  0
LINE
  5
24D
330
1F
100
AcDbEntity
  8
0
100
AcDbLine
 10
653.0230848939
 20
-171.1483949676
 30
0.0
 11
635.0230848939
 21
-171.1483949676
 31
0.0
  0
LINE
  5
24E
330
1F
100
AcDbEntity
  8
0
100
AcDbLine
 10
635.0230848939
 20
441.8516050324
 30
0.0
 11
653.0230848939
 21
441.8516050324
 31
0.0
  0
LINE
  5
24F
330
1F
100
AcDbEntity
  8
0
100
AcDbLine
 10
632.3230848939
 20
491.9516050324
 30
0.0
 11
616.3230848939
 21
491.9516050324
 31
0.0
  0
LINE
  5
250
330
1F
100
AcDbEntity
  8
0
100
AcDbLine
 10
1303.3230848939
 20
491.9516050324
 30
0.0
 11
1287.3230848939
 21
491.9516050324
 31
0.0
  0
LINE
  5
251
330
1F
100
AcDbEntity
  8
0
100
AcDbLine
 10
1287.3230848939
 20
-221.2483949676
 30
0.0
 11
1303.3230848939
 21
-221.2483949676
 31
0.0
  0
LINE
  5
252
330
1F
100
AcDbEntity
  8
0
100
AcDbLine
 10
616.3230848939
 20
-221.2483949676
 30
0.0
 11
632.3230848939
 21
-221.2483949676
 31
0.0
  0
LINE
  5
253
330
1F
100
AcDbEntity
  8
0
100
AcDbLine
 10
614.8230848939
 20
445.3516050324
 30
0.0
 11
604.8230848939
 21
445.3516050324
 31
0.0
  0
LINE
  5
254
330
1F
100
AcDbEntity
  8
0
100
AcDbLine
 10
604.8230848939
 20
480.3516050324
 30
0.0
 11
604.8230848939
 21
445.3516050324
 31
0.0
  0
ARC
  5
255
330
1F
100
AcDbEntity
  8
0
100
AcDbCircle
 10
614.8230848939
 20
480.3516050324
 30
0.0
 40
10.0
100
AcDbArc
 50
90.0
 51
180.0
  0
LINE
  5
256
330
1F
100
AcDbEntity
  8
0
100
AcDbLine
 10
635.0230848939
 20
460.1516050324
 30
0.0
 11
649.8230848939
 21
460.1516050324
 31
0.0
  0
LINE
  5
257
330
1F
100
AcDbEntity
  8
0
100
AcDbLine
 10
635.0230848939
 20
445.3516050324
 30
0.0
 11
635.0230848939
 21
460.1516050324
 31
0.0
  0
LINE
  5
258
330
1F
100
AcDbEntity
  8
0
100
AcDbLine
 10
649.8230848939
 20
480.3516050324
 30
0.0
 11
649.8230848939
 21
460.1516050324
 31
0.0
  0
LINE
  5
259
330
1F
100
AcDbEntity
  8
0
100
AcDbLine
 10
614.8230848939
 20
445.3516050324
 30
0.0
 11
635.0230848939
 21
445.3516050324
 31
0.0
  0
LINE
  5
25A
330
1F
100
AcDbEntity
  8
0
100
AcDbLine
 10
614.8230848939
 20
490.3516050324
 30
0.0
 11
649.8230848939
 21
490.3516050324
 31
0.0
  0
LINE
  5
25B
330
1F
100
AcDbEntity
  8
0
100
AcDbLine
 10
649.8230848939
 20
490.3516050324
 30
0.0
 11
649.8230848939
 21
480.3516050324
 31
0.0
  0
LINE
  5
25C
330
1F
100
AcDbEntity
  8
0
100
AcDbLine
 10
1304.8230848939
 20
-219.6483949676
 30
0.0
 11
1269.8230848939
 21
-219.6483949676
 31
0.0
  0
LINE
  5
25D
330
1F
100
AcDbEntity
  8
0
100
AcDbLine
 10
1269.8230848939
 20
-219.6483949676
 30
0.0
 11
1269.8230848939
 21
-209.6483949676
 31
0.0
  0
LINE
  5
25E
330
1F
100
AcDbEntity
  8
0
100
AcDbLine
 10
1284.6230848939
 20
-189.4483949676
 30
0.0
 11
1284.6230848939
 21
-174.6483949676
 31
0.0
  0
LINE
  5
25F
330
1F
100
AcDbEntity
  8
0
100
AcDbLine
 10
1269.8230848939
 20
-189.4483949676
 30
0.0
 11
1269.8230848939
 21
-209.6483949676
 31
0.0
  0
LINE
  5
260
330
1F
100
AcDbEntity
  8
0
100
AcDbLine
 10
1304.8230848939
 20
-174.6483949676
 30
0.0
 11
1284.6230848939
 21
-174.6483949676
 31
0.0
  0
LINE
  5
261
330
1F
100
AcDbEntity
  8
0
100
AcDbLine
 10
1269.8230848939
 20
-189.4483949676
 30
0.0
 11
1284.6230848939
 21
-189.4483949676
 31
0.0
  0
ARC
  5
262
330
1F
100
AcDbEntity
  8
0
100
AcDbCircle
 10
1304.8230848939
 20
-209.6483949676
 30
0.0
 40
10.0
100
AcDbArc
 50
270.0
 51
0.0
  0
LINE
  5
263
330
1F
100
AcDbEntity
  8
0
100
AcDbLine
 10
1314.8230848939
 20
-174.6483949676
 30
0.0
 11
1314.8230848939
 21
-209.6483949676
 31
0.0
  0
LINE
  5
264
330
1F
100
AcDbEntity
  8
0
100
AcDbLine
 10
1304.8230848939
 20
-174.6483949676
 30
0.0
 11
1314.8230848939
 21
-174.6483949676
 31
0.0
  0
ARC
  5
265
330
1F
100
AcDbEntity
  8
0
100
AcDbCircle
 10
614.8230848939
 20
-209.6483949676
 30
0.0
 40
10.0
100
AcDbArc
 50
180.0
 51
270.0
  0
LINE
  5
266
330
1F
100
AcDbEntity
  8
0
100
AcDbLine
 10
604.8230848939
 20
-209.6483949676
 30
0.0
 11
604.8230848939
 21
-174.6483949676
 31
0.0
  0
LINE
  5
267
330
1F
100
AcDbEntity
  8
0
100
AcDbLine
 10
604.8230848939
 20
-174.6483949676
 30
0.0
 11
614.8230848939
 21
-174.6483949676
 31
0.0
  0
LINE
  5
268
330
1F
100
AcDbEntity
  8
0
100
AcDbLine
 10
649.8230848939
 20
-209.6483949676
 30
0.0
 11
649.8230848939
 21
-219.6483949676
 31
0.0
  0
LINE
  5
269
330
1F
100
AcDbEntity
  8
0
100
AcDbLine
 10
614.8230848939
 20
-219.6483949676
 30
0.0
 11
649.8230848939
 21
-219.6483949676
 31
0.0
  0
LINE
  5
26A
330
1F
100
AcDbEntity
  8
0
100
AcDbLine
 10
635.0230848939
 20
-189.4483949676
 30
0.0
 11
635.0230848939
 21
-174.6483949676
 31
0.0
  0
LINE
  5
26B
330
1F
100
AcDbEntity
  8
0
100
AcDbLine
 10
649.8230848939
 20
-189.4483949676
 30
0.0
 11
635.0230848939
 21
-189.4483949676
 31
0.0
  0
LINE
  5
26C
330
1F
100
AcDbEntity
  8
0
100
AcDbLine
 10
649.8230848939
 20
-209.6483949676
 30
0.0
 11
649.8230848939
 21
-189.4483949676
 31
0.0
  0
LINE
  5
26D
330
1F
100
AcDbEntity
  8
0
100
AcDbLine
 10
614.8230848939
 20
-174.6483949676
 30
0.0
 11
635.0230848939
 21
-174.6483949676
 31
0.0
  0
LINE
  5
26E
330
1F
100
AcDbEntity
  8
0
100
AcDbLine
 10
1284.6230848939
 20
445.3516050324
 30
0.0
 11
1304.8230848939
 21
445.3516050324
 31
0.0
  0
LINE
  5
26F
330
1F
100
AcDbEntity
  8
0
100
AcDbLine
 10
1284.6230848939
 20
445.3516050324
 30
0.0
 11
1284.6230848939
 21
460.1516050324
 31
0.0
  0
LINE
  5
270
330
1F
100
AcDbEntity
  8
0
100
AcDbLine
 10
1284.6230848939
 20
460.1516050324
 30
0.0
 11
1269.8230848939
 21
460.1516050324
 31
0.0
  0
LINE
  5
271
330
1F
100
AcDbEntity
  8
0
100
AcDbLine
 10
1269.8230848939
 20
480.3516050324
 30
0.0
 11
1269.8230848939
 21
460.1516050324
 31
0.0
  0
LINE
  5
272
330
1F
100
AcDbEntity
  8
0
100
AcDbLine
 10
1269.8230848939
 20
490.3516050324
 30
0.0
 11
1304.8230848939
 21
490.3516050324
 31
0.0
  0
LINE
  5
273
330
1F
100
AcDbEntity
  8
0
100
AcDbLine
 10
1269.8230848939
 20
480.3516050324
 30
0.0
 11
1269.8230848939
 21
490.3516050324
 31
0.0
  0
ARC
  5
274
330
1F
100
AcDbEntity
  8
0
100
AcDbCircle
 10
1304.8230848939
 20
480.3516050324
 30
0.0
 40
10.0
100
AcDbArc
 50
0.0
 51
90.0
  0
LINE
  5
275
330
1F
100
AcDbEntity
  8
0
100
AcDbLine
 10
1314.8230848939
 20
480.3516050324
 30
0.0
 11
1314.8230848939
 21
445.3516050324
 31
0.0
  0
LINE
  5
276
330
1F
100
AcDbEntity
  8
0
100
AcDbLine
 10
1314.8230848939
 20
445.3516050324
 30
0.0
 11
1304.8230848939
 21
445.3516050324
 31
0.0
  0
LINE
  5
277
330
1F
100
AcDbEntity
  8
0
100
AcDbLine
 10
1269.8230848939
 20
460.6516050324
 30
0.0
 11
1269.8230848939
 21
480.3516050324
 31
0.0
  0
LINE
  5
278
330
1F
100
AcDbEntity
  8
0
100
AcDbLine
 10
649.8230848939
 20
460.6516050324
 30
0.0
 11
649.8230848939
 21
480.3516050324
 31
0.0
  0
LINE
  5
279
330
1F
100
AcDbEntity
  8
0
100
AcDbLine
 10
649.8230848939
 20
460.1516050324
 30
0.0
 11
1269.8230848939
 21
460.1516050324
 31
0.0
  0
LINE
  5
27A
330
1F
100
AcDbEntity
  8
0
100
AcDbLine
 10
649.8230848939
 20
490.3516050324
 30
0.0
 11
1269.8230848939
 21
490.3516050324
 31
0.0
  0
LINE
  5
27B
330
1F
100
AcDbEntity
  8
0
100
AcDbLine
 10
604.8230848939
 20
-174.6483949676
 30
0.0
 11
604.8230848939
 21
445.3516050324
 31
0.0
  0
LINE
  5
27C
330
1F
100
AcDbEntity
  8
0
100
AcDbLine
 10
634.5230848939
 20
-174.6483949676
 30
0.0
 11
614.8230848939
 21
-174.6483949676
 31
0.0
  0
LINE
  5
27D
330
1F
100
AcDbEntity
  8
0
100
AcDbLine
 10
634.5230848939
 20
445.3516050324
 30
0.0
 11
614.8230848939
 21
445.3516050324
 31
0.0
  0
LINE
  5
27E
330
1F
100
AcDbEntity
  8
0
100
AcDbLine
 10
635.0230848939
 20
-174.6483949676
 30
0.0
 11
635.0230848939
 21
445.3516050324
 31
0.0
  0
LINE
  5
27F
330
1F
100
AcDbEntity
  8
0
100
AcDbLine
 10
635.3230848939
 20
-174.6483949676
 30
0.0
 11
635.0230848939
 21
-174.6483949676
 31
0.0
  0
LINE
  5
280
330
1F
100
AcDbEntity
  8
0
100
AcDbLine
 10
635.3230848939
 20
445.3516050324
 30
0.0
 11
635.0230848939
 21
445.3516050324
 31
0.0
  0
LINE
  5
281
330
1F
100
AcDbEntity
  8
0
100
AcDbLine
 10
649.8230848939
 20
-171.4483949676
 30
0.0
 11
649.8230848939
 21
-171.1483949676
 31
0.0
  0
LINE
  5
282
330
1F
100
AcDbEntity
  8
0
100
AcDbLine
 10
649.8230848939
 20
441.8516050324
 30
0.0
 11
649.8230848939
 21
442.1516050324
 31
0.0
  0
LINE
  5
283
330
1F
100
AcDbEntity
  8
0
100
AcDbLine
 10
1269.8230848939
 20
-189.9483949676
 30
0.0
 11
1269.8230848939
 21
-209.6483949676
 31
0.0
  0
LINE
  5
284
330
1F
100
AcDbEntity
  8
0
100
AcDbLine
 10
649.8230848939
 20
-189.9483949676
 30
0.0
 11
649.8230848939
 21
-209.6483949676
 31
0.0
  0
LINE
  5
285
330
1F
100
AcDbEntity
  8
0
100
AcDbLine
 10
1269.8230848939
 20
-219.6483949676
 30
0.0
 11
649.8230848939
 21
-219.6483949676
 31
0.0
  0
LINE
  5
286
330
1F
100
AcDbEntity
  8
0
100
AcDbLine
 10
1269.8230848939
 20
-189.4483949676
 30
0.0
 11
649.8230848939
 21
-189.4483949676
 31
0.0
  0
LINE
  5
287
330
1F
100
AcDbEntity
  8
0
100
AcDbLine
 10
1285.1230848939
 20
-174.6483949676
 30
0.0
 11
1304.8230848939
 21
-174.6483949676
 31
0.0
  0
LINE
  5
288
330
1F
100
AcDbEntity
  8
0
100
AcDbLine
 10
1285.1230848939
 20
445.3516050324
 30
0.0
 11
1304.8230848939
 21
445.3516050324
 31
0.0
  0
LINE
  5
289
330
1F
100
AcDbEntity
  8
0
100
AcDbLine
 10
1284.6230848939
 20
445.3516050324
 30
0.0
 11
1284.6230848939
 21
-174.6483949676
 31
0.0
  0
LINE
  5
28A
330
1F
100
AcDbEntity
  8
0
100
AcDbLine
 10
1314.8230848939
 20
445.3516050324
 30
0.0
 11
1314.8230848939
 21
-174.6483949676
 31
0.0
  0
LINE
  5
28B
330
1F
100
AcDbEntity
  8
0
100
AcDbLine
 10
1284.3230848939
 20
445.3516050324
 30
0.0
 11
1284.6230848939
 21
445.3516050324
 31
0.0
  0
LINE
  5
28C
330
1F
100
AcDbEntity
  8
0
100
AcDbLine
 10
1284.3230848939
 20
-174.6483949676
 30
0.0
 11
1284.6230848939
 21
-174.6483949676
 31
0.0
  0
LINE
  5
28D
330
1F
100
AcDbEntity
  8
0
100
AcDbLine
 10
1269.8230848939
 20
-170.8483949676
 30
0.0
 11
1269.8230848939
 21
-171.4483949676
 31
0.0
  0
LINE
  5
28E
330
1F
100
AcDbEntity
  8
0
  6
PHANTOM
 62
     8
370
    18
100
AcDbLine
 10
1314.8230848939
 20
108.5035246089
 30
0.0
 11
1315.3230848939
 21
108.5035246089
 31
0.0
  0
LINE
  5
28F
330
1F
100
AcDbEntity
  8
0
  6
PHANTOM
 62
     8
370
    18
100
AcDbLine
 10
1314.8230848939
 20
111.4940057103
 30
0.0
 11
1315.3230848939
 21
111.4940057103
 31
0.0
  0
LINE
  5
290
330
1F
100
AcDbEntity
  8
0
  6
PHANTOM
 62
     8
370
    18
100
AcDbLine
 10
1314.8230848939
 20
174.3881874167
 30
0.0
 11
1315.3230848939
 21
174.3881874167
 31
0.0
  0
LINE
  5
291
330
1F
100
AcDbEntity
  8
0
  6
PHANTOM
 62
     8
370
    18
100
AcDbLine
 10
1314.8230848939
 20
177.378668518
 30
0.0
 11
1315.3230848939
 21
177.378668518
 31
0.0
  0
LINE
  5
292
330
1F
100
AcDbEntity
  8
0
  6
PHANTOM
 62
     8
370
    18
100
AcDbLine
 10
1266.4230848939
 20
355.1816050324
 30
0.0
 11
1266.4230848939
 21
352.2266050324
 31
0.0
  0
LINE
  5
293
330
1F
100
AcDbEntity
  8
0
  6
PHANTOM
 62
     8
370
    18
100
AcDbLine
 10
1266.4230848939
 20
363.4766050324
 30
0.0
 11
1266.4230848939
 21
360.5216050324
 31
0.0
  0
LINE
  5
294
330
1F
100
AcDbEntity
  8
0
  6
PHANTOM
 62
     8
370
    18
100
AcDbLine
 10
734.6530848939
 20
-171.2483949676
 30
0.0
 11
731.6980848939
 21
-171.2483949676
 31
0.0
  0
LINE
  5
295
330
1F
100
AcDbEntity
  8
0
  6
PHANTOM
 62
     8
370
    18
100
AcDbLine
 10
742.9480848939
 20
-171.2483949676
 30
0.0
 11
739.9930848939
 21
-171.2483949676
 31
0.0
  0
LINE
  5
296
330
1F
100
AcDbEntity
  8
0
  6
PHANTOM
 62
     8
370
    18
100
AcDbLine
 10
1266.4230848939
 20
-89.8183949676
 30
0.0
 11
1266.4230848939
 21
-92.7733949676
 31
0.0
  0
LINE
  5
297
330
1F
100
AcDbEntity
  8
0
  6
PHANTOM
 62
     8
370
    18
100
AcDbLine
 10
1266.4230848939
 20
-81.5233949676
 30
0.0
 11
1266.4230848939
 21
-84.4783949676
 31
0.0
  0
LINE
  5
298
330
1F
100
AcDbEntity
  8
0
  6
PHANTOM
 62
     8
370
    18
100
AcDbLine
 10
1184.9930848939
 20
441.9516050324
 30
0.0
 11
1187.9480848939
 21
441.9516050324
 31
0.0
  0
LINE
  5
299
330
1F
100
AcDbEntity
  8
0
  6
PHANTOM
 62
     8
370
    18
100
AcDbLine
 10
1176.6980848939
 20
441.9516050324
 30
0.0
 11
1179.6530848939
 21
441.9516050324
 31
0.0
  0
LINE
  5
29A
330
1F
100
AcDbEntity
  8
0
  6
PHANTOM
 62
     8
370
    18
100
AcDbLine
 10
653.2230848939
 20
-84.4783949676
 30
0.0
 11
653.2230848939
 21
-81.5233949676
 31
0.0
  0
LINE
  5
29B
330
1F
100
AcDbEntity
  8
0
  6
PHANTOM
 62
     8
370
    18
100
AcDbLine
 10
653.2230848939
 20
-92.7733949676
 30
0.0
 11
653.2230848939
 21
-89.8183949676
 31
0.0
  0
LINE
  5
29C
330
1F
100
AcDbEntity
  8
0
  6
PHANTOM
 62
     8
370
    18
100
AcDbLine
 10
1179.6530848939
 20
-171.2483949676
 30
0.0
 11
1176.6980848939
 21
-171.2483949676
 31
0.0
  0
LINE
  5
29D
330
1F
100
AcDbEntity
  8
0
  6
PHANTOM
 62
     8
370
    18
100
AcDbLine
 10
1187.9480848939
 20
-171.2483949676
 30
0.0
 11
1184.9930848939
 21
-171.2483949676
 31
0.0
  0
LINE
  5
29E
330
1F
100
AcDbEntity
  8
0
  6
PHANTOM
 62
     8
370
    18
100
AcDbLine
 10
653.2230848939
 20
360.5216050324
 30
0.0
 11
653.2230848939
 21
363.4766050324
 31
0.0
  0
LINE
  5
29F
330
1F
100
AcDbEntity
  8
0
  6
PHANTOM
 62
     8
370
    18
100
AcDbLine
 10
653.2230848939
 20
352.2266050324
 30
0.0
 11
653.2230848939
 21
355.1816050324
 31
0.0
  0
LINE
  5
2A0
330
1F
100
AcDbEntity
  8
0
  6
PHANTOM
 62
     8
370
    18
100
AcDbLine
 10
739.9930848939
 20
441.9516050324
 30
0.0
 11
742.9480848939
 21
441.9516050324
 31
0.0
  0
LINE
  5
2A1
330
1F
100
AcDbEntity
  8
0
  6
PHANTOM
 62
     8
370
    18
100
AcDbLine
 10
731.6980848939
 20
441.9516050324
 30
0.0
 11
734.6530848939
 21
441.9516050324
 31
0.0
  0
LINE
  5
2A2
330
1F
100
AcDbEntity
  8
0
  6
PHANTOM
 62
     8
370
    18
100
AcDbLine
 10
614.8230848939
 20
480.3516050324
 30
0.0
 11
604.8230848939
 21
480.3516050324
 31
0.0
  0
LINE
  5
2A3
330
1F
100
AcDbEntity
  8
0
  6
PHANTOM
 62
     8
370
    18
100
AcDbLine
 10
614.8230848939
 20
480.3516050324
 30
0.0
 11
614.8230848939
 21
445.3516050324
 31
0.0
  0
LINE
  5
2A4
330
1F
100
AcDbEntity
  8
0
  6
PHANTOM
 62
     8
370
    18
100
AcDbLine
 10
614.8230848939
 20
480.3516050324
 30
0.0
 11
614.8230848939
 21
490.3516050324
 31
0.0
  0
LINE
  5
2A5
330
1F
100
AcDbEntity
  8
0
  6
PHANTOM
 62
     8
370
    18
100
AcDbLine
 10
649.8230848939
 20
480.3516050324
 30
0.0
 11
614.8230848939
 21
480.3516050324
 31
0.0
  0
LINE
  5
2A6
330
1F
100
AcDbEntity
  8
0
  6
PHANTOM
 62
     8
370
    18
100
AcDbLine
 10
1269.8230848939
 20
-209.6483949676
 30
0.0
 11
1304.8230848939
 21
-209.6483949676
 31
0.0
  0
LINE
  5
2A7
330
1F
100
AcDbEntity
  8
0
  6
PHANTOM
 62
     8
370
    18
100
AcDbLine
 10
1304.8230848939
 20
-209.6483949676
 30
0.0
 11
1304.8230848939
 21
-219.6483949676
 31
0.0
  0
LINE
  5
2A8
330
1F
100
AcDbEntity
  8
0
  6
PHANTOM
 62
     8
370
    18
100
AcDbLine
 10
1304.8230848939
 20
-209.6483949676
 30
0.0
 11
1304.8230848939
 21
-174.6483949676
 31
0.0
  0
LINE
  5
2A9
330
1F
100
AcDbEntity
  8
0
  6
PHANTOM
 62
     8
370
    18
100
AcDbLine
 10
1314.8230848939
 20
-209.6483949676
 30
0.0
 11
1304.8230848939
 21
-209.6483949676
 31
0.0
  0
LINE
  5
2AA
330
1F
100
AcDbEntity
  8
0
  6
PHANTOM
 62
     8
370
    18
100
AcDbLine
 10
614.8230848939
 20
-209.6483949676
 30
0.0
 11
604.8230848939
 21
-209.6483949676
 31
0.0
  0
LINE
  5
2AB
330
1F
100
AcDbEntity
  8
0
  6
PHANTOM
 62
     8
370
    18
100
AcDbLine
 10
614.8230848939
 20
-209.6483949676
 30
0.0
 11
614.8230848939
 21
-219.6483949676
 31
0.0
  0
LINE
  5
2AC
330
1F
100
AcDbEntity
  8
0
  6
PHANTOM
 62
     8
370
    18
100
AcDbLine
 10
614.8230848939
 20
-174.6483949676
 30
0.0
 11
614.8230848939
 21
-209.6483949676
 31
0.0
  0
LINE
  5
2AD
330
1F
100
AcDbEntity
  8
0
  6
PHANTOM
 62
     8
370
    18
100
AcDbLine
 10
614.8230848939
 20
-209.6483949676
 30
0.0
 11
649.8230848939
 21
-209.6483949676
 31
0.0
  0
LINE
  5
2AE
330
1F
100
AcDbEntity
  8
0
  6
PHANTOM
 62
     8
370
    18
100
AcDbLine
 10
1304.8230848939
 20
480.3516050324
 30
0.0
 11
1269.8230848939
 21
480.3516050324
 31
0.0
  0
LINE
  5
2AF
330
1F
100
AcDbEntity
  8
0
  6
PHANTOM
 62
     8
370
    18
100
AcDbLine
 10
1304.8230848939
 20
445.3516050324
 30
0.0
 11
1304.8230848939
 21
480.3516050324
 31
0.0
  0
LINE
  5
2B0
330
1F
100
AcDbEntity
  8
0
  6
PHANTOM
 62
     8
370
    18
100
AcDbLine
 10
1304.8230848939
 20
490.3516050324
 30
0.0
 11
1304.8230848939
 21
480.3516050324
 31
0.0
  0
LINE
  5
2B1
330
1F
100
AcDbEntity
  8
0
  6
PHANTOM
 62
     8
370
    18
100
AcDbLine
 10
1304.8230848939
 20
480.3516050324
 30
0.0
 11
1314.8230848939
 21
480.3516050324
 31
0.0
  0
LINE
  5
2B2
330
1F
100
AcDbEntity
  8
0
  6
PHANTOM
 62
     8
370
    18
100
AcDbLine
 10
649.8230848939
 20
460.6516050324
 30
0.0
 11
1269.8230848939
 21
460.6516050324
 31
0.0
  0
LINE
  5
2B3
330
1F
100
AcDbEntity
  8
0
  6
PHANTOM
 62
     8
370
    18
100
AcDbLine
 10
649.8230848939
 20
480.3516050324
 30
0.0
 11
1269.8230848939
 21
480.3516050324
 31
0.0
  0
LINE
  5
2B4
330
1F
100
AcDbEntity
  8
0
  6
PHANTOM
 62
     8
370
    18
100
AcDbLine
 10
614.8230848939
 20
-174.6483949676
 30
0.0
 11
614.8230848939
 21
445.3516050324
 31
0.0
  0
LINE
  5
2B5
330
1F
100
AcDbEntity
  8
0
  6
PHANTOM
 62
     8
370
    18
100
AcDbLine
 10
634.5230848939
 20
-174.6483949676
 30
0.0
 11
634.5230848939
 21
445.3516050324
 31
0.0
  0
LINE
  5
2B6
330
1F
100
AcDbEntity
  8
0
  6
PHANTOM
 62
     8
370
    18
100
AcDbLine
 10
635.5230848939
 20
-171.4483949676
 30
0.0
 11
635.5230848939
 21
-171.1483949676
 31
0.0
  0
LINE
  5
2B7
330
1F
100
AcDbEntity
  8
0
  6
PHANTOM
 62
     8
370
    18
100
AcDbLine
 10
635.5230848939
 20
441.8516050324
 30
0.0
 11
635.5230848939
 21
442.1516050324
 31
0.0
  0
LINE
  5
2B8
330
1F
100
AcDbEntity
  8
0
  6
PHANTOM
 62
     8
370
    18
100
AcDbLine
 10
1269.8230848939
 20
-189.9483949676
 30
0.0
 11
649.8230848939
 21
-189.9483949676
 31
0.0
  0
LINE
  5
2B9
330
1F
100
AcDbEntity
  8
0
  6
PHANTOM
 62
     8
370
    18
100
AcDbLine
 10
1269.8230848939
 20
-209.6483949676
 30
0.0
 11
649.8230848939
 21
-209.6483949676
 31
0.0
  0
LINE
  5
2BA
330
1F
100
AcDbEntity
  8
0
  6
PHANTOM
 62
     8
370
    18
100
AcDbLine
 10
1285.1230848939
 20
445.3516050324
 30
0.0
 11
1285.1230848939
 21
-174.6483949676
 31
0.0
  0
LINE
  5
2BB
330
1F
100
AcDbEntity
  8
0
  6
PHANTOM
 62
     8
370
    18
100
AcDbLine
 10
1304.8230848939
 20
445.3516050324
 30
0.0
 11
1304.8230848939
 21
-174.6483949676
 31
0.0
  0
LINE
  5
2BC
330
1F
100
AcDbEntity
  8
0
  6
PHANTOM
 62
     8
370
    18
100
AcDbLine
 10
1284.1230848939
 20
-170.8483949676
 30
0.0
 11
1284.1230848939
 21
-171.4483949676
 31
0.0
  0
ENDSEC
  0
SECTION
  2
OBJECTS
  0
DICTIONARY
  5
C
330
0
100
AcDbDictionary
281
     1
  3
ACAD_GROUP
350
D
  3
ACAD_LAYOUT
350
1A
  3
ACAD_MLINESTYLE
350
17
  3
ACAD_PLOTSETTINGS
350
19
  3
ACAD_PLOTSTYLENAME
350
E
  3
ACAD_SCALELIST
350
47
  3
DWGPROPS
350
2BD
  0
DICTIONARY
  5
D
102
{ACAD_REACTORS
330
C
102
}
330
C
100
AcDbDictionary
281
     1
  0
DICTIONARY
  5
1A
102
{ACAD_REACTORS
330
C
102
}
330
C
100
AcDbDictionary
281
     1
  3
Layout1
350
1E
  3
Layout2
350
26
  3
Model
350
22
  0
DICTIONARY
  5
17
102
{ACAD_REACTORS
330
C
102
}
330
C
100
AcDbDictionary
281
     1
  3
Standard
350
18
  0
DICTIONARY
  5
19
102
{ACAD_REACTORS
330
C
102
}
330
C
100
AcDbDictionary
281
     1
  0
ACDBDICTIONARYWDFLT
  5
E
102
{ACAD_REACTORS
330
C
102
}
330
C
100
AcDbDictionary
281
     1
  3
Normal
350
F
100
AcDbDictionaryWithDefault
340
F
  0
DICTIONARY
  5
47
102
{ACAD_REACTORS
330
C
102
}
330
C
100
AcDbDictionary
281
     1
  3
A0
350
48
  3
A1
350
49
  3
A2
350
4A
  3
A3
350
4B
  3
A4
350
4C
  3
A5
350
4D
  3
A6
350
4E
  3
A7
350
4F
  3
A8
350
50
  3
A9
350
51
  3
B0
350
52
  3
B1
350
53
  3
B2
350
54
  3
B3
350
55
  3
B4
350
56
  3
B5
350
57
  3
B6
350
58
  3
B7
350
59
  3
B8
350
5A
  3
B9
350
5B
  3
C0
350
5C
  3
C1
350
5D
  3
C2
350
5E
  3
C3
350
5F
  3
C4
350
60
  3
C5
350
61
  3
C6
350
62
  3
C7
350
63
  3
C8
350
64
  3
C9
350
65
  3
D0
350
66
  3
D1
350
67
  3
D2
350
68
  0
XRECORD
  5
2BD
102
{ACAD_REACTORS
330
C
102
}
330
C
100
AcDbXrecord
280
     1
  1
DWGPROPS COOKIE
  2

  3

  4

  6

  7

  8
Emilis.Masalas
  9

300
=
301
=
302
=
303
=
304
=
305
=
306
=
307
=
308
=
309
=
 40
0.0
 41
2459604.294692674
 42
2459604.294693218
  1

 90
        0
  0
LAYOUT
  5
1E
102
{ACAD_REACTORS
330
1A
102
}
330
1A
100
AcDbPlotSettings
  1

  2
none_device
  4

  6

 40
0.0
 41
0.0
 42
0.0
 43
0.0
 44
0.0
 45
0.0
 46
0.0
 47
0.0
 48
0.0
 49
0.0
140
0.0
141
0.0
142
1.0
143
1.0
 70
   688
 72
     1
 73
     0
 74
     5
  7

 75
    16
147
1.0
148
0.0
149
0.0
100
AcDbLayout
  1
Layout1
 70
     1
 71
     1
 10
0.0
 20
0.0
 11
420.0
 21
297.0
 12
0.0
 22
0.0
 32
0.0
 14
1.0000000000E+20
 24
1.0000000000E+20
 34
1.0000000000E+20
 15
-1.0000000000E+20
 25
-1.0000000000E+20
 35
-1.0000000000E+20
146
0.0
 13
0.0
 23
0.0
 33
0.0
 16
1.0
 26
0.0
 36
0.0
 17
0.0
 27
1.0
 37
0.0
 76
     0
330
1B
  0
LAYOUT
  5
26
102
{ACAD_REACTORS
330
1A
102
}
330
1A
100
AcDbPlotSettings
  1

  2
none_device
  4

  6

 40
0.0
 41
0.0
 42
0.0
 43
0.0
 44
0.0
 45
0.0
 46
0.0
 47
0.0
 48
0.0
 49
0.0
140
0.0
141
0.0
142
1.0
143
1.0
 70
   688
 72
     1
 73
     0
 74
     5
  7

 75
    16
147
1.0
148
0.0
149
0.0
100
AcDbLayout
  1
Layout2
 70
     1
 71
     2
 10
0.0
 20
0.0
 11
0.0
 21
0.0
 12
0.0
 22
0.0
 32
0.0
 14
0.0
 24
0.0
 34
0.0
 15
0.0
 25
0.0
 35
0.0
146
0.0
 13
0.0
 23
0.0
 33
0.0
 16
1.0
 26
0.0
 36
0.0
 17
0.0
 27
1.0
 37
0.0
 76
     0
330
23
  0
LAYOUT
  5
22
102
{ACAD_REACTORS
330
1A
102
}
330
1A
100
AcDbPlotSettings
  1

  2
none_device
  4
Letter_(8.50_x_11.00_Inches)
  6

 40
6.35
 41
6.35
 42
6.35000508
 43
6.35000508
 44
215.9
 45
279.4
 46
0.0
 47
0.0
 48
0.0
 49
0.0
140
0.0
141
0.0
142
1.0
143
1.0
 70
  1712
 72
     1
 73
     0
 74
     0
  7

 75
     0
147
1.0
148
0.0
149
0.0
100
AcDbLayout
  1
Model
 70
     1
 71
     0
 10
0.0
 20
0.0
 11
420.0
 21
297.0
 12
0.0
 22
0.0
 32
0.0
 14
0.0
 24
0.0
 34
0.0
 15
420.0
 25
297.0
 35
0.0
146
0.0
 13
0.0
 23
0.0
 33
0.0
 16
1.0
 26
0.0
 36
0.0
 17
0.0
 27
1.0
 37
0.0
 76
     0
330
1F
331
29
  0
MLINESTYLE
  5
18
102
{ACAD_REACTORS
330
17
102
}
330
17
100
AcDbMlineStyle
  2
Standard
 70
     0
  3

 62
   256
 51
90.0
 52
90.0
 71
     2
 49
0.5
 62
   256
  6
BYLAYER
 49
-0.5
 62
   256
  6
BYLAYER
  0
ACDBPLACEHOLDER
  5
F
102
{ACAD_REACTORS
330
E
102
}
330
E
  0
SCALE
  5
48
102
{ACAD_REACTORS
330
47
102
}
330
47
100
AcDbScale
 70
     0
300
1:1
140
1.0
141
1.0
290
     1
  0
SCALE
  5
49
102
{ACAD_REACTORS
330
47
102
}
330
47
100
AcDbScale
 70
     0
300
1:2
140
1.0
141
2.0
290
     0
  0
SCALE
  5
4A
102
{ACAD_REACTORS
330
47
102
}
330
47
100
AcDbScale
 70
     0
300
1:4
140
1.0
141
4.0
290
     0
  0
SCALE
  5
4B
102
{ACAD_REACTORS
330
47
102
}
330
47
100
AcDbScale
 70
     0
300
1:5
140
1.0
141
5.0
290
     0
  0
SCALE
  5
4C
102
{ACAD_REACTORS
330
47
102
}
330
47
100
AcDbScale
 70
     0
300
1:8
140
1.0
141
8.0
290
     0
  0
SCALE
  5
4D
102
{ACAD_REACTORS
330
47
102
}
330
47
100
AcDbScale
 70
     0
300
1:10
140
1.0
141
10.0
290
     0
  0
SCALE
  5
4E
102
{ACAD_REACTORS
330
47
102
}
330
47
100
AcDbScale
 70
     0
300
1:16
140
1.0
141
16.0
290
     0
  0
SCALE
  5
4F
102
{ACAD_REACTORS
330
47
102
}
330
47
100
AcDbScale
 70
     0
300
1:20
140
1.0
141
20.0
290
     0
  0
SCALE
  5
50
102
{ACAD_REACTORS
330
47
102
}
330
47
100
AcDbScale
 70
     0
300
1:30
140
1.0
141
30.0
290
     0
  0
SCALE
  5
51
102
{ACAD_REACTORS
330
47
102
}
330
47
100
AcDbScale
 70
     0
300
1:40
140
1.0
141
40.0
290
     0
  0
SCALE
  5
52
102
{ACAD_REACTORS
330
47
102
}
330
47
100
AcDbScale
 70
     0
300
1:50
140
1.0
141
50.0
290
     0
  0
SCALE
  5
53
102
{ACAD_REACTORS
330
47
102
}
330
47
100
AcDbScale
 70
     0
300
1:100
140
1.0
141
100.0
290
     0
  0
SCALE
  5
54
102
{ACAD_REACTORS
330
47
102
}
330
47
100
AcDbScale
 70
     0
300
2:1
140
2.0
141
1.0
290
     0
  0
SCALE
  5
55
102
{ACAD_REACTORS
330
47
102
}
330
47
100
AcDbScale
 70
     0
300
4:1
140
4.0
141
1.0
290
     0
  0
SCALE
  5
56
102
{ACAD_REACTORS
330
47
102
}
330
47
100
AcDbScale
 70
     0
300
8:1
140
8.0
141
1.0
290
     0
  0
SCALE
  5
57
102
{ACAD_REACTORS
330
47
102
}
330
47
100
AcDbScale
 70
     0
300
10:1
140
10.0
141
1.0
290
     0
  0
SCALE
  5
58
102
{ACAD_REACTORS
330
47
102
}
330
47
100
AcDbScale
 70
     0
300
100:1
140
100.0
141
1.0
290
     0
  0
SCALE
  5
59
102
{ACAD_REACTORS
330
47
102
}
330
47
100
AcDbScale
 70
     0
300
1/128" = 1'-0"
140
0.0078125
141
12.0
290
     0
  0
SCALE
  5
5A
102
{ACAD_REACTORS
330
47
102
}
330
47
100
AcDbScale
 70
     0
300
1/64" = 1'-0"
140
0.015625
141
12.0
290
     0
  0
SCALE
  5
5B
102
{ACAD_REACTORS
330
47
102
}
330
47
100
AcDbScale
 70
     0
300
1/32" = 1'-0"
140
0.03125
141
12.0
290
     0
  0
SCALE
  5
5C
102
{ACAD_REACTORS
330
47
102
}
330
47
100
AcDbScale
 70
     0
300
1/16" = 1'-0"
140
0.0625
141
12.0
290
     0
  0
SCALE
  5
5D
102
{ACAD_REACTORS
330
47
102
}
330
47
100
AcDbScale
 70
     0
300
3/32" = 1'-0"
140
0.09375
141
12.0
290
     0
  0
SCALE
  5
5E
102
{ACAD_REACTORS
330
47
102
}
330
47
100
AcDbScale
 70
     0
300
1/8" = 1'-0"
140
0.125
141
12.0
290
     0
  0
SCALE
  5
5F
102
{ACAD_REACTORS
330
47
102
}
330
47
100
AcDbScale
 70
     0
300
3/16" = 1'-0"
140
0.1875
141
12.0
290
     0
  0
SCALE
  5
60
102
{ACAD_REACTORS
330
47
102
}
330
47
100
AcDbScale
 70
     0
300
1/4" = 1'-0"
140
0.25
141
12.0
290
     0
  0
SCALE
  5
61
102
{ACAD_REACTORS
330
47
102
}
330
47
100
AcDbScale
 70
     0
300
3/8" = 1'-0"
140
0.375
141
12.0
290
     0
  0
SCALE
  5
62
102
{ACAD_REACTORS
330
47
102
}
330
47
100
AcDbScale
 70
     0
300
1/2" = 1'-0"
140
0.5
141
12.0
290
     0
  0
SCALE
  5
63
102
{ACAD_REACTORS
330
47
102
}
330
47
100
AcDbScale
 70
     0
300
3/4" = 1'-0"
140
0.75
141
12.0
290
     0
  0
SCALE
  5
64
102
{ACAD_REACTORS
330
47
102
}
330
47
100
AcDbScale
 70
     0
300
1" = 1'-0"
140
1.0
141
12.0
290
     0
  0
SCALE
  5
65
102
{ACAD_REACTORS
330
47
102
}
330
47
100
AcDbScale
 70
     0
300
1-1/2" = 1'-0"
140
1.5
141
12.0
290
     0
  0
SCALE
  5
66
102
{ACAD_REACTORS
330
47
102
}
330
47
100
AcDbScale
 70
     0
300
3" = 1'-0"
140
3.0
141
12.0
290
     0
  0
SCALE
  5
67
102
{ACAD_REACTORS
330
47
102
}
330
47
100
AcDbScale
 70
     0
300
6" = 1'-0"
140
6.0
141
12.0
290
     0
  0
SCALE
  5
68
102
{ACAD_REACTORS
330
47
102
}
330
47
100
AcDbScale
 70
     0
300
1'-0" = 1'-0"
140
12.0
141
12.0
290
     0
  0
ENDSEC
  0
EOF
