  0
SECTION
  2
HEADER
  9
$ACADVER
  1
AC1021
  9
$ACADMAINTVER
 70
    25
  9
$DWGCODEPAGE
  3
ANSI_1257
  9
$LASTSAVEDBY
  1
mariusbitinas
  9
$INSBASE
 10
0.0
 20
0.0
 30
0.0
  9
$EXTMIN
 10
-1585.2186188608
 20
-677.3507337792997
 30
0.0
  9
$EXTMAX
 10
-15.1147163206906
 20
1170.128108740752
 30
0.0000000000000284
  9
$LIMMIN
 10
0.0
 20
0.0
  9
$LIMMAX
 10
420.0
 20
297.0
  9
$ORTHOMODE
 70
     0
  9
$REGENMODE
 70
     1
  9
$FILLMODE
 70
     1
  9
$QTEXTMODE
 70
     0
  9
$MIRRTEXT
 70
     1
  9
$LTSCALE
 40
1.0
  9
$ATTMODE
 70
     1
  9
$TEXTSIZE
 40
3.527777777799998
  9
$TRACEWID
 40
1.0
  9
$TEXTSTYLE
  7
Standard
  9
$CLAYER
  8
0
  9
$CELTYPE
  6
ByLayer
  9
$CECOLOR
 62
   256
  9
$CELTSCALE
 40
1.0
  9
$DISPSILH
 70
     0
  9
$DIMSCALE
 40
1.0
  9
$DIMASZ
 40
4.0
  9
$DIMEXO
 40
1.0
  9
$DIMDLI
 40
3.75
  9
$DIMRND
 40
0.0
  9
$DIMDLE
 40
0.0
  9
$DIMEXE
 40
1.0
  9
$DIMTP
 40
0.0
  9
$DIMTM
 40
0.0
  9
$DIMTXT
 40
3.527777777799998
  9
$DIMCEN
 40
2.5
  9
$DIMTSZ
 40
0.0
  9
$DIMTOL
 70
     0
  9
$DIMLIM
 70
     0
  9
$DIMTIH
 70
     1
  9
$DIMTOH
 70
     1
  9
$DIMSE1
 70
     0
  9
$DIMSE2
 70
     0
  9
$DIMTAD
 70
     1
  9
$DIMZIN
 70
     0
  9
$DIMBLK
  1

  9
$DIMASO
 70
     1
  9
$DIMSHO
 70
     1
  9
$DIMPOST
  1

  9
$DIMAPOST
  1

  9
$DIMALT
 70
     0
  9
$DIMALTD
 70
     3
  9
$DIMALTF
 40
0.0393700787
  9
$DIMLFAC
 40
1.0
  9
$DIMTOFL
 70
     1
  9
$DIMTVP
 40
0.0
  9
$DIMTIX
 70
     0
  9
$DIMSOXD
 70
     0
  9
$DIMSAH
 70
     0
  9
$DIMBLK1
  1

  9
$DIMBLK2
  1

  9
$DIMSTYLE
  2
ISO-25
  9
$DIMCLRD
 70
     0
  9
$DIMCLRE
 70
     0
  9
$DIMCLRT
 70
     0
  9
$DIMTFAC
 40
1.0
  9
$DIMGAP
 40
1.524
  9
$DIMJUST
 70
     0
  9
$DIMSD1
 70
     0
  9
$DIMSD2
 70
     0
  9
$DIMTOLJ
 70
     0
  9
$DIMTZIN
 70
     0
  9
$DIMALTZ
 70
     0
  9
$DIMALTTZ
 70
     0
  9
$DIMUPT
 70
     0
  9
$DIMDEC
 70
     2
  9
$DIMTDEC
 70
     2
  9
$DIMALTU
 70
     2
  9
$DIMALTTD
 70
     3
  9
$DIMTXSTY
  7
Standard
  9
$DIMAUNIT
 70
     0
  9
$DIMADEC
 70
     2
  9
$DIMALTRND
 40
0.0
  9
$DIMAZIN
 70
     0
  9
$DIMDSEP
 70
    44
  9
$DIMATFIT
 70
     3
  9
$DIMFRAC
 70
     0
  9
$DIMLDRBLK
  1

  9
$DIMLUNIT
 70
     2
  9
$DIMLWD
 70
    -2
  9
$DIMLWE
 70
    -2
  9
$DIMTMOVE
 70
     0
  9
$DIMFXL
 40
1.0
  9
$DIMFXLON
 70
     0
  9
$DIMJOGANG
 40
0.7853981633974483
  9
$DIMTFILL
 70
     0
  9
$DIMTFILLCLR
 70
     0
  9
$DIMARCSYM
 70
     0
  9
$DIMLTYPE
  6

  9
$DIMLTEX1
  6

  9
$DIMLTEX2
  6

  9
$LUNITS
 70
     2
  9
$LUPREC
 70
     2
  9
$SKETCHINC
 40
1.0
  9
$FILLETRAD
 40
10.0
  9
$AUNITS
 70
     0
  9
$AUPREC
 70
     2
  9
$MENU
  1
.
  9
$ELEVATION
 40
0.0
  9
$PELEVATION
 40
0.0
  9
$THICKNESS
 40
0.0
  9
$LIMCHECK
 70
     0
  9
$CHAMFERA
 40
10.0
  9
$CHAMFERB
 40
10.0
  9
$CHAMFERC
 40
20.0
  9
$CHAMFERD
 40
0.0
  9
$SKPOLY
 70
     0
  9
$TDCREATE
 40
2456260.390040706
  9
$TDUCREATE
 40
2456260.306707373
  9
$TDUPDATE
 40
2459178.623805845
  9
$TDUUPDATE
 40
2459178.540472512
  9
$TDINDWG
 40
0.007359838
  9
$TDUSRTIMER
 40
0.0004720486
  9
$USRTIMER
 70
     1
  9
$ANGBASE
 50
0.0
  9
$ANGDIR
 70
     0
  9
$PDMODE
 70
     0
  9
$PDSIZE
 40
-1.0
  9
$PLINEWID
 40
0.0
  9
$SPLFRAME
 70
     0
  9
$SPLINETYPE
 70
     6
  9
$SPLINESEGS
 70
     8
  9
$HANDSEED
  5
12AF
  9
$SURFTAB1
 70
     6
  9
$SURFTAB2
 70
     6
  9
$SURFTYPE
 70
     6
  9
$SURFU
 70
     6
  9
$SURFV
 70
     6
  9
$UCSBASE
  2

  9
$UCSNAME
  2

  9
$UCSORG
 10
0.0
 20
0.0
 30
0.0
  9
$UCSXDIR
 10
1.0
 20
0.0
 30
0.0
  9
$UCSYDIR
 10
0.0
 20
1.0
 30
0.0
  9
$UCSORTHOREF
  2

  9
$UCSORTHOVIEW
 70
     0
  9
$UCSORGTOP
 10
0.0
 20
0.0
 30
0.0
  9
$UCSORGBOTTOM
 10
0.0
 20
0.0
 30
0.0
  9
$UCSORGLEFT
 10
0.0
 20
0.0
 30
0.0
  9
$UCSORGRIGHT
 10
0.0
 20
0.0
 30
0.0
  9
$UCSORGFRONT
 10
0.0
 20
0.0
 30
0.0
  9
$UCSORGBACK
 10
0.0
 20
0.0
 30
0.0
  9
$PUCSBASE
  2

  9
$PUCSNAME
  2

  9
$PUCSORG
 10
0.0
 20
0.0
 30
0.0
  9
$PUCSXDIR
 10
1.0
 20
0.0
 30
0.0
  9
$PUCSYDIR
 10
0.0
 20
1.0
 30
0.0
  9
$PUCSORTHOREF
  2

  9
$PUCSORTHOVIEW
 70
     0
  9
$PUCSORGTOP
 10
0.0
 20
0.0
 30
0.0
  9
$PUCSORGBOTTOM
 10
0.0
 20
0.0
 30
0.0
  9
$PUCSORGLEFT
 10
0.0
 20
0.0
 30
0.0
  9
$PUCSORGRIGHT
 10
0.0
 20
0.0
 30
0.0
  9
$PUCSORGFRONT
 10
0.0
 20
0.0
 30
0.0
  9
$PUCSORGBACK
 10
0.0
 20
0.0
 30
0.0
  9
$USERI1
 70
     0
  9
$USERI2
 70
     0
  9
$USERI3
 70
     0
  9
$USERI4
 70
     0
  9
$USERI5
 70
     0
  9
$USERR1
 40
0.0
  9
$USERR2
 40
0.0
  9
$USERR3
 40
0.0
  9
$USERR4
 40
0.0
  9
$USERR5
 40
0.0
  9
$WORLDVIEW
 70
     1
  9
$SHADEDGE
 70
     3
  9
$SHADEDIF
 70
    70
  9
$TILEMODE
 70
     1
  9
$MAXACTVP
 70
    64
  9
$PINSBASE
 10
0.0
 20
0.0
 30
0.0
  9
$PLIMCHECK
 70
     0
  9
$PEXTMIN
 10
1.000000000000000E+20
 20
1.000000000000000E+20
 30
1.000000000000000E+20
  9
$PEXTMAX
 10
-1.000000000000000E+20
 20
-1.000000000000000E+20
 30
-1.000000000000000E+20
  9
$PLIMMIN
 10
0.0
 20
0.0
  9
$PLIMMAX
 10
0.0
 20
0.0
  9
$UNITMODE
 70
     0
  9
$VISRETAIN
 70
     1
  9
$PLINEGEN
 70
     0
  9
$PSLTSCALE
 70
     1
  9
$TREEDEPTH
 70
  3020
  9
$CMLSTYLE
  2
Standard
  9
$CMLJUST
 70
     0
  9
$CMLSCALE
 40
20.0
  9
$PROXYGRAPHICS
 70
     1
  9
$MEASUREMENT
 70
     1
  9
$CELWEIGHT
370
    -1
  9
$ENDCAPS
280
     0
  9
$JOINSTYLE
280
     0
  9
$LWDISPLAY
290
     1
  9
$INSUNITS
 70
     4
  9
$HYPERLINKBASE
  1

  9
$STYLESHEET
  1

  9
$XEDIT
290
     1
  9
$CEPSNTYPE
380
     0
  9
$PSTYLEMODE
290
     1
  9
$FINGERPRINTGUID
  2
{DB6546A9-F869-470E-8058-5F551E84BA94}
  9
$VERSIONGUID
  2
{E5592B15-6900-4B1D-AB10-C4517131FCBE}
  9
$EXTNAMES
290
     1
  9
$PSVPSCALE
 40
0.0
  9
$OLESTARTUP
290
     0
  9
$SORTENTS
280
   127
  9
$INDEXCTL
280
     0
  9
$HIDETEXT
280
     0
  9
$XCLIPFRAME
290
     0
  9
$HALOGAP
280
     0
  9
$OBSCOLOR
 70
   257
  9
$OBSLTYPE
280
     0
  9
$INTERSECTIONDISPLAY
280
     0
  9
$INTERSECTIONCOLOR
 70
   257
  9
$DIMASSOC
280
     1
  9
$PROJECTNAME
  1

  9
$CAMERADISPLAY
290
     0
  9
$LENSLENGTH
 40
50.0
  9
$CAMERAHEIGHT
 40
0.0
  9
$STEPSPERSEC
 40
2.0
  9
$STEPSIZE
 40
6.0
  9
$3DDWFPREC
 40
2.0
  9
$PSOLWIDTH
 40
0.25
  9
$PSOLHEIGHT
 40
4.0
  9
$LOFTANG1
 40
1.570796326794897
  9
$LOFTANG2
 40
1.570796326794897
  9
$LOFTMAG1
 40
0.0
  9
$LOFTMAG2
 40
0.0
  9
$LOFTPARAM
 70
     7
  9
$LOFTNORMALS
280
     1
  9
$LATITUDE
 40
37.795
  9
$LONGITUDE
 40
-122.394
  9
$NORTHDIRECTION
 40
0.0
  9
$TIMEZONE
 70
 -8000
  9
$LIGHTGLYPHDISPLAY
280
     1
  9
$TILEMODELIGHTSYNCH
280
     1
  9
$SOLIDHIST
280
     0
  9
$SHOWHIST
280
     1
  9
$DWFFRAME
280
     2
  9
$DGNFRAME
280
     2
  9
$REALWORLDSCALE
290
     1
  9
$INTERFERECOLOR
 62
   256
  9
$CSHADOW
280
     0
  9
$SHADOWPLANELOCATION
 40
0.0
  0
ENDSEC
  0
SECTION
  2
CLASSES
  0
CLASS
  1
ACDBDICTIONARYWDFLT
  2
AcDbDictionaryWithDefault
  3
ObjectDBX Classes
 90
        0
 91
        3
280
     0
281
     0
  0
CLASS
  1
VISUALSTYLE
  2
AcDbVisualStyle
  3
ObjectDBX Classes
 90
     4095
 91
        3
280
     0
281
     0
  0
CLASS
  1
MATERIAL
  2
AcDbMaterial
  3
ObjectDBX Classes
 90
     1153
 91
        3
280
     0
281
     0
  0
CLASS
  1
SCALE
  2
AcDbScale
  3
ObjectDBX Classes
 90
     1153
 91
        3
280
     0
281
     0
  0
CLASS
  1
TABLESTYLE
  2
AcDbTableStyle
  3
ObjectDBX Classes
 90
     4095
 91
        3
280
     0
281
     0
  0
CLASS
  1
MLEADERSTYLE
  2
AcDbMLeaderStyle
  3
ACDB_MLEADERSTYLE_CLASS
 90
     4095
 91
        3
280
     0
281
     0
  0
CLASS
  1
DICTIONARYVAR
  2
AcDbDictionaryVar
  3
ObjectDBX Classes
 90
        0
 91
        3
280
     0
281
     0
  0
CLASS
  1
CELLSTYLEMAP
  2
AcDbCellStyleMap
  3
ObjectDBX Classes
 90
     1152
 91
        3
280
     0
281
     0
  0
ENDSEC
  0
SECTION
  2
TABLES
  0
TABLE
  2
VPORT
  5
8
330
0
100
AcDbSymbolTable
 70
     1
  0
VPORT
  5
119C
330
8
100
AcDbSymbolTableRecord
100
AcDbViewportTableRecord
  2
*Active
 70
     0
 10
0.0
 20
0.0
 11
1.0
 21
1.0
 12
293.7743636448249
 22
-112.4660940636588
 13
0.0
 23
0.0
 14
10.0
 24
10.0
 15
10.0
 25
10.0
 16
0.0
 26
0.0
 36
1.0
 17
0.0
 27
0.0
 37
0.0
 40
3847.300280950952
 41
1.644036697247707
 42
50.0
 43
0.0
 44
0.0
 50
0.0
 51
0.0
 71
    16
 72
  2000
 73
     1
 74
     3
 75
     0
 76
     0
 77
     0
 78
     0
281
     0
 65
     1
110
0.0
120
0.0
130
0.0
111
1.0
121
0.0
131
0.0
112
0.0
122
1.0
132
0.0
 79
     0
146
0.0
348
11C4
 60
     3
 61
     5
292
     1
282
     1
141
0.0
142
0.0
 63
   250
  0
ENDTAB
  0
TABLE
  2
LTYPE
  5
5
330
0
100
AcDbSymbolTable
 70
     8
  0
LTYPE
  5
14
330
5
100
AcDbSymbolTableRecord
100
AcDbLinetypeTableRecord
  2
ByBlock
 70
     0
  3

 72
    65
 73
     0
 40
0.0
  0
LTYPE
  5
15
330
5
100
AcDbSymbolTableRecord
100
AcDbLinetypeTableRecord
  2
ByLayer
 70
     0
  3

 72
    65
 73
     0
 40
0.0
  0
LTYPE
  5
16
330
5
100
AcDbSymbolTableRecord
100
AcDbLinetypeTableRecord
  2
Continuous
 70
     0
  3
Solid line
 72
    65
 73
     0
 40
0.0
  0
LTYPE
  5
3F
330
5
100
AcDbSymbolTableRecord
100
AcDbLinetypeTableRecord
  2
SLD-Solid
 70
     0
  3
SolidWorks Line Style
 72
    65
 73
     0
 40
0.0
  0
LTYPE
  5
40
330
5
100
AcDbSymbolTableRecord
100
AcDbLinetypeTableRecord
  2
SLD-Dashed
 70
     0
  3
SolidWorks Line Style
 72
    65
 73
     2
 40
1.905
 49
1.27
 74
     0
 49
-0.635
 74
     0
  0
LTYPE
  5
41
330
5
100
AcDbSymbolTableRecord
100
AcDbLinetypeTableRecord
  2
SLD-Phantom
 70
     0
  3
SolidWorks Line Style
 72
    65
 73
     6
 40
12.7
 49
6.349999999999997
 74
     0
 49
-1.27
 74
     0
 49
1.27
 74
     0
 49
-1.27
 74
     0
 49
1.27
 74
     0
 49
-1.27
 74
     0
  0
LTYPE
  5
42
330
5
100
AcDbSymbolTableRecord
100
AcDbLinetypeTableRecord
  2
SLD-Chain
 70
     0
  3
SolidWorks Line Style
 72
    65
 73
     4
 40
10.16
 49
6.349999999999997
 74
     0
 49
-1.27
 74
     0
 49
1.27
 74
     0
 49
-1.27
 74
     0
  0
LTYPE
  5
43
330
5
100
AcDbSymbolTableRecord
100
AcDbLinetypeTableRecord
  2
SLD-Center
 70
     0
  3
SolidWorks Line Style
 72
    65
 73
     4
 40
19.05
 49
15.24
 74
     0
 49
-1.27
 74
     0
 49
1.27
 74
     0
 49
-1.27
 74
     0
  0
LTYPE
  5
44
330
5
100
AcDbSymbolTableRecord
100
AcDbLinetypeTableRecord
  2
SLD-Stitch
 70
     0
  3
SolidWorks Line Style
 72
    65
 73
     2
 40
0.635
 49
0.0
 74
     0
 49
-0.635
 74
     0
  0
LTYPE
  5
45
330
5
100
AcDbSymbolTableRecord
100
AcDbLinetypeTableRecord
  2
SLD-Thin-Thick-Chain
 70
     0
  3
SolidWorks Line Style
 72
    65
 73
     4
 40
10.16
 49
6.349999999999997
 74
     0
 49
-1.27
 74
     0
 49
1.27
 74
     0
 49
-1.27
 74
     0
  0
ENDTAB
  0
TABLE
  2
LAYER
  5
2
330
0
100
AcDbSymbolTable
 70
     4
  0
LAYER
  5
10
330
2
100
AcDbSymbolTableRecord
100
AcDbLayerTableRecord
  2
0
 70
     0
 62
     7
  6
Continuous
370
    -3
390
F
347
11DA
  0
LAYER
  5
46
330
2
100
AcDbSymbolTableRecord
100
AcDbLayerTableRecord
  2
SLD-0
 70
     0
 62
     7
  6
Continuous
370
    -1
390
F
347
11DA
  0
LAYER
  5
47
330
2
100
AcDbSymbolTableRecord
100
AcDbLayerTableRecord
  2
LENKIMO
 70
     0
 62
     1
  6
SLD-Center
370
    -3
390
F
347
11DA
  0
LAYER
  5
48
330
2
100
AcDbSymbolTableRecord
100
AcDbLayerTableRecord
  2
ZYMEJIMAS
 70
     0
 62
     1
  6
SLD-Solid
370
    -3
390
F
347
11DA
  0
ENDTAB
  0
TABLE
  2
STYLE
  5
3
330
0
100
AcDbSymbolTable
 70
     6
  0
STYLE
  5
11
330
3
100
AcDbSymbolTableRecord
100
AcDbTextStyleTableRecord
  2
Standard
 70
     0
 40
0.0
 41
1.0
 50
0.0
 71
     0
 42
3.527777777799998
  3
txt
  4

  0
STYLE
  5
140
330
3
100
AcDbSymbolTableRecord
100
AcDbTextStyleTableRecord
  2
SLDTEXTSTYLE0
 70
     0
 40
0.0
 41
0.75
 50
0.0
 71
     0
 42
0.2
  3
TXT
  4

  0
STYLE
  5
158
330
3
100
AcDbSymbolTableRecord
100
AcDbTextStyleTableRecord
  2
SLDTEXTSTYLE1
 70
     0
 40
0.0
 41
0.6875
 50
0.0
 71
     0
 42
0.2
  3
TXT
  4

  0
STYLE
  5
15B
330
3
100
AcDbSymbolTableRecord
100
AcDbTextStyleTableRecord
  2
SLDTEXTSTYLE2
 70
     0
 40
0.0
 41
0.75
 50
0.0
 71
     0
 42
0.2
  3
TXT
  4
bigfont
  0
STYLE
  5
16B
330
3
100
AcDbSymbolTableRecord
100
AcDbTextStyleTableRecord
  2
SLDTEXTSTYLE3
 70
     0
 40
0.0
 41
0.6629999999999999
 50
0.0
 71
     0
 42
0.2
  3
TXT
  4

  0
STYLE
  5
18E
330
3
100
AcDbSymbolTableRecord
100
AcDbTextStyleTableRecord
  2
SLDTEXTSTYLE4
 70
     0
 40
0.0
 41
0.7
 50
0.0
 71
     0
 42
0.2
  3
TXT
  4

  0
ENDTAB
  0
TABLE
  2
VIEW
  5
6
330
0
100
AcDbSymbolTable
 70
     0
  0
ENDTAB
  0
TABLE
  2
UCS
  5
7
330
0
100
AcDbSymbolTable
 70
     0
  0
ENDTAB
  0
TABLE
  2
APPID
  5
9
330
0
100
AcDbSymbolTable
 70
     3
  0
APPID
  5
12
330
9
100
AcDbSymbolTableRecord
100
AcDbRegAppTableRecord
  2
ACAD
 70
     0
  0
APPID
  5
11EE
330
9
100
AcDbSymbolTableRecord
100
AcDbRegAppTableRecord
  2
AcadAnnotative
 70
     0
  0
APPID
  5
12AD
330
9
100
AcDbSymbolTableRecord
100
AcDbRegAppTableRecord
  2
ACAD_MLEADERVER
 70
     0
  0
ENDTAB
  0
TABLE
  2
DIMSTYLE
  5
A
330
0
100
AcDbSymbolTable
 70
     2
100
AcDbDimStyleTable
  0
DIMSTYLE
105
27
330
A
100
AcDbSymbolTableRecord
100
AcDbDimStyleTableRecord
  2
ISO-25
 70
     0
 41
2.5
 42
0.625
 43
3.75
 44
1.25
 73
     0
 74
     0
 77
     1
 78
     8
140
2.5
141
2.5
143
0.0393700787
147
0.625
171
     3
172
     1
178
     0
271
     2
272
     2
274
     3
278
    44
283
     0
284
     8
340
11
  0
DIMSTYLE
105
11ED
330
A
100
AcDbSymbolTableRecord
100
AcDbDimStyleTableRecord
  2
Annotative
 70
     0
 40
0.0
 41
2.5
 42
0.625
 43
3.75
 44
1.25
 73
     0
 74
     0
 77
     1
 78
     8
140
2.5
141
-2.5
143
0.03937007874016
147
0.625
171
     3
172
     1
178
     0
271
     2
272
     2
274
     3
278
    44
283
     0
284
     8
340
11
1001
AcadAnnotative
1000
AnnotativeData
1002
{
1070
     1
1070
     1
1002
}
  0
ENDTAB
  0
TABLE
  2
BLOCK_RECORD
  5
1
330
0
100
AcDbSymbolTable
 70
     5
  0
BLOCK_RECORD
  5
1F
102
{ACAD_XDICTIONARY
360
12A5
102
}
330
1
100
AcDbSymbolTableRecord
100
AcDbBlockTableRecord
  2
*Model_Space
340
22
 70
     0
280
     1
281
     0
  0
BLOCK_RECORD
  5
1B
330
1
100
AcDbSymbolTableRecord
100
AcDbBlockTableRecord
  2
*Paper_Space
340
1E
 70
     0
280
     1
281
     0
  0
BLOCK_RECORD
  5
23
330
1
100
AcDbSymbolTableRecord
100
AcDbBlockTableRecord
  2
*Paper_Space0
340
26
 70
     0
280
     1
281
     0
  0
BLOCK_RECORD
  5
49
330
1
100
AcDbSymbolTableRecord
100
AcDbBlockTableRecord
  2
Block1
340
0
 70
     0
280
     1
281
     0
  0
BLOCK_RECORD
  5
173
330
1
100
AcDbSymbolTableRecord
100
AcDbBlockTableRecord
  2
SW_NOTE_0
340
0
 70
     0
280
     1
281
     0
  0
BLOCK_RECORD
  5
179
330
1
100
AcDbSymbolTableRecord
100
AcDbBlockTableRecord
  2
SW_NOTE_1
340
0
 70
     0
280
     1
281
     0
  0
BLOCK_RECORD
  5
18B
330
1
100
AcDbSymbolTableRecord
100
AcDbBlockTableRecord
  2
SW_NOTE_2
340
0
 70
     0
280
     1
281
     0
  0
ENDTAB
  0
ENDSEC
  0
SECTION
  2
BLOCKS
  0
BLOCK
  5
20
330
1F
100
AcDbEntity
  8
0
100
AcDbBlockBegin
  2
*Model_Space
 70
     0
 10
0.0
 20
0.0
 30
0.0
  3
*Model_Space
  1

  0
ENDBLK
  5
21
330
1F
100
AcDbEntity
  8
0
100
AcDbBlockEnd
  0
BLOCK
  5
1C
330
1B
100
AcDbEntity
 67
     1
  8
0
100
AcDbBlockBegin
  2
*Paper_Space
 70
     0
 10
0.0
 20
0.0
 30
0.0
  3
*Paper_Space
  1

  0
ENDBLK
  5
1D
330
1B
100
AcDbEntity
 67
     1
  8
0
100
AcDbBlockEnd
  0
BLOCK
  5
24
330
23
100
AcDbEntity
  8
0
100
AcDbBlockBegin
  2
*Paper_Space0
 70
     0
 10
0.0
 20
0.0
 30
0.0
  3
*Paper_Space0
  1

  0
ENDBLK
  5
25
330
23
100
AcDbEntity
  8
0
100
AcDbBlockEnd
  0
BLOCK
  5
4A
330
49
100
AcDbEntity
  8
0
100
AcDbBlockBegin
  2
Block1
 70
     0
 10
0.0
 20
0.0
 30
0.0
  3
Block1
  1

  0
ARC
  5
4C
330
49
100
AcDbEntity
  8
0
  6
SLD-Solid
 62
   179
100
AcDbCircle
 10
7867.6649029635
 20
2430.1355419087
 30
0.0
 40
931.6078627493896
100
AcDbArc
 50
232.1189098069
 51
101.3462704492
  0
ARC
  5
4D
330
49
100
AcDbEntity
  8
0
  6
SLD-Solid
 62
   179
100
AcDbCircle
 10
7943.5514462269
 20
2435.961394653701
 30
0.0
 40
1140.079096555486
100
AcDbArc
 50
297.434182935
 51
62.17203318890002
  0
ARC
  5
4E
330
49
100
AcDbEntity
  8
0
  6
SLD-Solid
 62
   179
100
AcDbCircle
 10
20001.4103066854
 20
6936.258348176301
 30
0.0
 40
1270.831290716854
100
AcDbArc
 50
3.4391112699
 51
76.41975789219998
  0
ARC
  5
4F
330
49
100
AcDbEntity
  8
0
  6
SLD-Solid
 62
   179
100
AcDbCircle
 10
19239.4822949422
 20
3782.0667000728
 30
0.0
 40
4515.74411667143
100
AcDbArc
 50
76.41975789229998
 51
91.6754644339
  0
ARC
  5
50
330
49
100
AcDbEntity
  8
0
  6
SLD-Solid
 62
   179
100
AcDbCircle
 10
18683.9539720184
 20
2160.1911622497
 30
0.0
 40
2139.476369555804
100
AcDbArc
 50
270.3210228954001
 51
307.7127911617
  0
ARC
  5
51
330
49
100
AcDbEntity
  8
0
  6
SLD-Solid
 62
   179
100
AcDbCircle
 10
18746.0422061702
 20
1962.8216117468
 30
0.0
 40
1946.678009873842
100
AcDbArc
 50
309.8210667380999
 51
331.7017265911999
  0
ARC
  5
52
330
49
100
AcDbEntity
  8
0
  6
SLD-Solid
 62
   179
100
AcDbCircle
 10
17863.1917469523
 20
2438.1532894658
 30
0.0
 40
2949.356989998811
100
AcDbArc
 50
331.7017265911999
 51
356.0927915539001
  0
ARC
  5
53
330
49
100
AcDbEntity
  8
0
  6
SLD-Solid
 62
   179
100
AcDbCircle
 10
16755.7856245826
 20
6709.226497343
 30
0.0
 40
4524.342739831097
100
AcDbArc
 50
353.5830630921
 51
3.8434115591
  0
ARC
  5
54
330
49
100
AcDbEntity
  8
0
  6
SLD-Solid
 62
   179
100
AcDbCircle
 10
19039.3213693035
 20
6348.992835766701
 30
0.0
 40
506.1072723730909
100
AcDbArc
 50
52.45518083770001
 51
82.2716960779
  0
ARC
  5
55
330
49
100
AcDbEntity
  8
0
  6
SLD-Solid
 62
   179
100
AcDbCircle
 10
19108.0528552878
 20
6495.6270812425
 30
0.0
 40
349.7025539282703
100
AcDbArc
 50
10.4012874263
 51
46.7340603611
  0
ARC
  5
56
330
49
100
AcDbEntity
  8
0
  6
SLD-Solid
 62
   179
100
AcDbCircle
 10
17417.0070420698
 20
6262.2496105517
 30
0.0
 40
2056.490362340239
100
AcDbArc
 50
355.4752495919999
 51
8.290034904
  0
ARC
  5
57
330
49
100
AcDbEntity
  8
0
  6
SLD-Solid
 62
   179
100
AcDbCircle
 10
16921.0810184775
 20
2478.8840573259
 30
0.0
 40
2122.330793892779
100
AcDbArc
 50
339.2065439429
 51
352.3366543813
  0
ARC
  5
58
330
49
100
AcDbEntity
  8
0
  6
SLD-Solid
 62
   179
100
AcDbCircle
 10
18500.143747488
 20
1898.8589115903
 30
0.0
 40
440.5904503964751
100
AcDbArc
 50
293.838270217
 51
336.8232513296001
  0
ARC
  5
59
330
49
100
AcDbEntity
  8
0
  6
SLD-Solid
 62
   179
100
AcDbCircle
 10
18201.1477532386
 20
2813.3138324813
 30
0.0
 40
1401.173285533761
100
AcDbArc
 50
267.1686990927
 51
289.9057704419
  0
ARC
  5
5A
330
49
100
AcDbEntity
  8
0
  6
SLD-Solid
 62
   179
100
AcDbCircle
 10
18751.2701169541
 20
4514.997092706598
 30
0.0
 40
2362.499275286643
100
AcDbArc
 50
81.33049979549999
 51
90.0
  0
ARC
  5
5B
330
49
100
AcDbEntity
  8
0
  6
SLD-Solid
 62
   179
100
AcDbCircle
 10
6720.6044375296
 20
9296.0579653158
 30
0.0
 40
7520.148763137155
100
AcDbArc
 50
220.017667739
 51
227.0143029097
  0
ARC
  5
5C
330
49
100
AcDbEntity
  8
0
  6
SLD-Solid
 62
   179
100
AcDbCircle
 10
2021.3892535935
 20
2163.6755564521
 30
0.0
 40
795.0570373035339
100
AcDbArc
 50
316.8708555891
 51
354.9781479006
  0
ARC
  5
5D
330
49
100
AcDbEntity
  8
0
  6
SLD-Solid
 62
   179
100
AcDbCircle
 10
2182.9124170468
 20
2011.9889486322
 30
0.0
 40
573.4753329004777
100
AcDbArc
 50
268.8486412909
 51
316.8986890901
  0
ARC
  5
5E
330
49
100
AcDbEntity
  8
0
  6
SLD-Solid
 62
   179
100
AcDbCircle
 10
10525.696072633
 20
12531.6259047731
 30
0.0
 40
10618.65239809051
100
AcDbArc
 50
220.6325257886001
 51
226.7030345034
  0
ARC
  5
5F
330
49
100
AcDbEntity
  8
0
  6
SLD-Solid
 62
   179
100
AcDbCircle
 10
2962.700769446
 20
6223.5867799529
 30
0.0
 40
723.1072200381735
100
AcDbArc
 50
137.8203941731
 51
175.3475443105
  0
ARC
  5
60
330
49
100
AcDbEntity
  8
0
  6
SLD-Solid
 62
   179
100
AcDbCircle
 10
2808.3239355685
 20
6360.2864243508
 30
0.0
 40
516.9247077280751
100
AcDbArc
 50
89.43798520159999
 51
137.5591461504
  0
ARC
  5
61
330
49
100
AcDbEntity
  8
0
  6
SLD-Solid
 62
   179
100
AcDbCircle
 10
24439.2811878643
 20
2435.9613946539
 30
0.0
 40
1140.079096554877
100
AcDbArc
 50
297.4341829348999
 51
62.17203318890002
  0
ARC
  5
62
330
49
100
AcDbEntity
  8
0
  6
SLD-Solid
 62
   179
100
AcDbCircle
 10
24363.3946446009
 20
2430.1355419089
 30
0.0
 40
931.6078627500976
100
AcDbArc
 50
232.118909807
 51
101.3462704493
  0
LINE
  5
63
330
49
100
AcDbEntity
  8
0
  6
SLD-Solid
 62
   179
100
AcDbLine
 10
10088.0321784074
 20
0.0000125144
 30
0.0
 11
9858.221794955702
 21
8289.6552921115
 31
0.0
  0
LINE
  5
64
330
49
100
AcDbEntity
  8
0
  6
SLD-Solid
 62
   179
100
AcDbLine
 10
9858.221794955702
 20
8289.6552921115
 30
0.0
 11
7491.0265293557
 21
8289.6552921115
 31
0.0
  0
LINE
  5
65
330
49
100
AcDbEntity
  8
0
  6
SLD-Solid
 62
   179
100
AcDbLine
 10
7491.0265293557
 20
8289.6552921115
 30
0.0
 11
5122.8131677553
 21
0.0000125144
 31
0.0
  0
LINE
  5
66
330
49
100
AcDbEntity
  8
0
  6
SLD-Solid
 62
   179
100
AcDbLine
 10
5122.8131677553
 20
0.0000125144
 30
0.0
 11
6903.416058155301
 21
0.0000125144
 31
0.0
  0
LINE
  5
67
330
49
100
AcDbEntity
  8
0
  6
SLD-Solid
 62
   179
100
AcDbLine
 10
6903.416058155301
 20
0.0000125144
 30
0.0
 11
7295.634628555299
 21
1694.8297721115
 31
0.0
  0
LINE
  5
68
330
49
100
AcDbEntity
  8
0
  6
SLD-Solid
 62
   179
100
AcDbLine
 10
7684.3822381561
 20
3343.5361521108
 30
0.0
 11
8520.8837909553
 21
7008.8707569115
 31
0.0
  0
LINE
  5
69
330
49
100
AcDbEntity
  8
0
  6
SLD-Solid
 62
   179
100
AcDbLine
 10
8520.8837909553
 20
7008.8707569115
 30
0.0
 11
8475.7613005553
 21
3444.194015311501
 31
0.0
  0
LINE
  5
6A
330
49
100
AcDbEntity
  8
0
  6
SLD-Solid
 62
   179
100
AcDbLine
 10
8468.8193789565
 20
1424.0948297112
 30
0.0
 11
8468.8193789565
 21
0.0000125144
 31
0.0
  0
LINE
  5
6B
330
49
100
AcDbEntity
  8
0
  6
SLD-Solid
 62
   179
100
AcDbLine
 10
8468.8193789565
 20
0.0000125144
 30
0.0
 11
10088.0321784074
 21
0.0000125144
 31
0.0
  0
LINE
  5
6C
330
49
100
AcDbEntity
  8
0
  6
SLD-Solid
 62
   179
100
AcDbLine
 10
19107.4500497519
 20
8295.8802112275
 30
0.0
 11
16935.7898769541
 21
8295.8802112275
 31
0.0
  0
LINE
  5
6D
330
49
100
AcDbEntity
  8
0
  6
SLD-Solid
 62
   179
100
AcDbLine
 10
16935.7898769541
 20
8295.8802112275
 30
0.0
 11
15991.7401521541
 21
0.0000288275
 31
0.0
  0
LINE
  5
6E
330
49
100
AcDbEntity
  8
0
  6
SLD-Solid
 62
   179
100
AcDbLine
 10
15991.7401521541
 20
0.0000288275
 30
0.0
 11
17855.6331985541
 21
0.0000288275
 31
0.0
  0
LINE
  5
6F
330
49
100
AcDbEntity
  8
0
  6
SLD-Solid
 62
   179
100
AcDbLine
 10
17855.6331985541
 20
0.0000288275
 30
0.0
 11
18695.9411953541
 21
20.7483744275
 31
0.0
  0
LINE
  5
70
330
49
100
AcDbEntity
  8
0
  6
SLD-Solid
 62
   179
100
AcDbLine
 10
20805.6935873772
 20
2237.1817154785
 30
0.0
 11
21251.7830177772
 21
6203.5737826763
 31
0.0
  0
LINE
  5
71
330
49
100
AcDbEntity
  8
0
  6
SLD-Solid
 62
   179
100
AcDbLine
 10
19024.4566673541
 20
2195.8666048275
 30
0.0
 11
19467.0880401544
 21
6100.013635223699
 31
0.0
  0
LINE
  5
72
330
49
100
AcDbEntity
  8
0
  6
SLD-Solid
 62
   179
100
AcDbLine
 10
17907.5040625541
 20
1417.8036448275
 30
0.0
 11
18131.936218492
 21
1413.8509571068
 31
0.0
  0
LINE
  5
73
330
49
100
AcDbEntity
  8
0
  6
SLD-Solid
 62
   179
100
AcDbLine
 10
18529.9544305541
 20
6877.496367993299
 30
0.0
 11
17907.5040625541
 21
1417.8036448275
 31
0.0
  0
LINE
  5
74
330
49
100
AcDbEntity
  8
0
  6
SLD-Solid
 62
   179
100
AcDbLine
 10
18751.2701169541
 20
6877.496367993299
 30
0.0
 11
18529.9544305541
 21
6877.496367993299
 31
0.0
  0
LINE
  5
75
330
49
100
AcDbEntity
  8
0
  6
SLD-Solid
 62
   179
100
AcDbLine
 10
11134.6446741053
 20
0.0
 30
0.0
 11
14807.1018453053
 21
0.0
 31
0.0
  0
LINE
  5
76
330
49
100
AcDbEntity
  8
0
  6
SLD-Solid
 62
   179
100
AcDbLine
 10
14807.1018453053
 20
0.0
 30
0.0
 11
14990.3788981053
 21
1625.287072
 31
0.0
  0
LINE
  5
77
330
49
100
AcDbEntity
  8
0
  6
SLD-Solid
 62
   179
100
AcDbLine
 10
14990.3788981053
 20
1625.287072
 30
0.0
 11
13071.1569301053
 21
1625.287072
 31
0.0
  0
LINE
  5
78
330
49
100
AcDbEntity
  8
0
  6
SLD-Solid
 62
   179
100
AcDbLine
 10
13071.1569301053
 20
1625.287072
 30
0.0
 11
13828.4715445053
 21
8295.880182400004
 31
0.0
  0
LINE
  5
79
330
49
100
AcDbEntity
  8
0
  6
SLD-Solid
 62
   179
100
AcDbLine
 10
13828.4715445053
 20
8295.880182400004
 30
0.0
 11
12075.2363413053
 21
8295.880182400004
 31
0.0
  0
LINE
  5
7A
330
49
100
AcDbEntity
  8
0
  6
SLD-Solid
 62
   179
100
AcDbLine
 10
12075.2363413053
 20
8295.880182400004
 30
0.0
 11
11134.6446741053
 21
0.0
 31
0.0
  0
LINE
  5
7B
330
49
100
AcDbEntity
  8
0
  6
SLD-Solid
 62
   179
100
AcDbLine
 10
4907.4740560005
 20
6857.018562294701
 30
0.0
 11
4882.7391856278
 21
7041.149751364599
 31
0.0
  0
LINE
  5
7C
330
49
100
AcDbEntity
  8
0
  6
SLD-Solid
 62
   179
100
AcDbLine
 10
4882.7391856278
 20
7041.149751364599
 30
0.0
 11
4840.84097804
 21
7222.1279289072
 31
0.0
  0
LINE
  5
7D
330
49
100
AcDbEntity
  8
0
  6
SLD-Solid
 62
   179
100
AcDbLine
 10
4840.84097804
 20
7222.1279289072
 30
0.0
 11
4779.230404759
 21
7397.3516386623
 31
0.0
  0
LINE
  5
7E
330
49
100
AcDbEntity
  8
0
  6
SLD-Solid
 62
   179
100
AcDbLine
 10
4779.230404759
 20
7397.3516386623
 30
0.0
 11
4695.8753846469
 21
7563.306056288
 31
0.0
  0
LINE
  5
7F
330
49
100
AcDbEntity
  8
0
  6
SLD-Solid
 62
   179
100
AcDbLine
 10
4695.8753846469
 20
7563.306056288
 30
0.0
 11
4590.0094760133
 21
7715.862266709699
 31
0.0
  0
LINE
  5
80
330
49
100
AcDbEntity
  8
0
  6
SLD-Solid
 62
   179
100
AcDbLine
 10
4590.0094760133
 20
7715.862266709699
 30
0.0
 11
4462.7758841487
 21
7851.104996035799
 31
0.0
  0
LINE
  5
81
330
49
100
AcDbEntity
  8
0
  6
SLD-Solid
 62
   179
100
AcDbLine
 10
4462.7758841487
 20
7851.104996035799
 30
0.0
 11
4317.197793690001
 21
7966.391816437099
 31
0.0
  0
LINE
  5
82
330
49
100
AcDbEntity
  8
0
  6
SLD-Solid
 62
   179
100
AcDbLine
 10
4317.197793690001
 20
7966.391816437099
 30
0.0
 11
4157.354947066902
 21
8060.963699317401
 31
0.0
  0
LINE
  5
83
330
49
100
AcDbEntity
  8
0
  6
SLD-Solid
 62
   179
100
AcDbLine
 10
4157.354947066902
 20
8060.963699317401
 30
0.0
 11
3942.3832434805
 21
8152.000134559399
 31
0.0
  0
LINE
  5
84
330
49
100
AcDbEntity
  8
0
  6
SLD-Solid
 62
   179
100
AcDbLine
 10
3942.3832434805
 20
8152.000134559399
 30
0.0
 11
3717.7379879586
 21
8215.7306159908
 31
0.0
  0
LINE
  5
85
330
49
100
AcDbEntity
  8
0
  6
SLD-Solid
 62
   179
100
AcDbLine
 10
3717.7379879586
 20
8215.7306159908
 30
0.0
 11
3487.8010416052
 21
8256.6415379559
 31
0.0
  0
LINE
  5
86
330
49
100
AcDbEntity
  8
0
  6
SLD-Solid
 62
   179
100
AcDbLine
 10
3487.8010416052
 20
8256.6415379559
 30
0.0
 11
3255.2826646592
 21
8278.7971759128
 31
0.0
  0
LINE
  5
87
330
49
100
AcDbEntity
  8
0
  6
SLD-Solid
 62
   179
100
AcDbLine
 10
3255.2826646592
 20
8278.7971759128
 30
0.0
 11
3021.7939564
 21
8285.564092295102
 31
0.0
  0
LINE
  5
88
330
49
100
AcDbEntity
  8
0
  6
SLD-Solid
 62
   179
100
AcDbLine
 10
3021.7939564
 20
8285.564092295102
 30
0.0
 11
2764.7286656624
 21
8276.816734455799
 31
0.0
  0
LINE
  5
89
330
49
100
AcDbEntity
  8
0
  6
SLD-Solid
 62
   179
100
AcDbLine
 10
2764.7286656624
 20
8276.816734455799
 30
0.0
 11
2509.0566231212
 21
8248.844873041297
 31
0.0
  0
LINE
  5
8A
330
49
100
AcDbEntity
  8
0
  6
SLD-Solid
 62
   179
100
AcDbLine
 10
2509.0566231212
 20
8248.844873041297
 30
0.0
 11
2256.7624741697
 21
8198.969363254802
 31
0.0
  0
LINE
  5
8B
330
49
100
AcDbEntity
  8
0
  6
SLD-Solid
 62
   179
100
AcDbLine
 10
2256.7624741697
 20
8198.969363254802
 30
0.0
 11
2010.5862549102
 21
8124.640160958398
 31
0.0
  0
LINE
  5
8C
330
49
100
AcDbEntity
  8
0
  6
SLD-Solid
 62
   179
100
AcDbLine
 10
2010.5862549102
 20
8124.640160958398
 30
0.0
 11
1823.7042907144
 21
8047.7718170144
 31
0.0
  0
LINE
  5
8D
330
49
100
AcDbEntity
  8
0
  6
SLD-Solid
 62
   179
100
AcDbLine
 10
1823.7042907144
 20
8047.7718170144
 30
0.0
 11
1644.6605427625
 21
7954.102205278601
 31
0.0
  0
LINE
  5
8E
330
49
100
AcDbEntity
  8
0
  6
SLD-Solid
 62
   179
100
AcDbLine
 10
1644.6605427625
 20
7954.102205278601
 30
0.0
 11
1475.390327491
 21
7843.7545704421
 31
0.0
  0
LINE
  5
8F
330
49
100
AcDbEntity
  8
0
  6
SLD-Solid
 62
   179
100
AcDbLine
 10
1475.390327491
 20
7843.7545704421
 30
0.0
 11
1317.6231711996
 21
7717.507163895
 31
0.0
  0
LINE
  5
90
330
49
100
AcDbEntity
  8
0
  6
SLD-Solid
 62
   179
100
AcDbLine
 10
1317.6231711996
 20
7717.507163895
 30
0.0
 11
1139.538084005
 21
7540.9583629978
 31
0.0
  0
LINE
  5
91
330
49
100
AcDbEntity
  8
0
  6
SLD-Solid
 62
   179
100
AcDbLine
 10
1139.538084005
 20
7540.9583629978
 30
0.0
 11
983.4661868123
 21
7344.686540327599
 31
0.0
  0
LINE
  5
92
330
49
100
AcDbEntity
  8
0
  6
SLD-Solid
 62
   179
100
AcDbLine
 10
983.4661868123
 20
7344.686540327599
 30
0.0
 11
851.5325681984
 21
7131.431508806899
 31
0.0
  0
LINE
  5
93
330
49
100
AcDbEntity
  8
0
  6
SLD-Solid
 62
   179
100
AcDbLine
 10
851.5325681984
 20
7131.431508806899
 30
0.0
 11
744.4774564036
 21
6904.647070365
 31
0.0
  0
LINE
  5
94
330
49
100
AcDbEntity
  8
0
  6
SLD-Solid
 62
   179
100
AcDbLine
 10
744.4774564036
 20
6904.647070365
 30
0.0
 11
658.3392621498999
 21
6656.432742240301
 31
0.0
  0
LINE
  5
95
330
49
100
AcDbEntity
  8
0
  6
SLD-Solid
 62
   179
100
AcDbLine
 10
658.3392621498999
 20
6656.432742240301
 30
0.0
 11
596.9943576212997
 21
6400.9335325463
 31
0.0
  0
LINE
  5
96
330
49
100
AcDbEntity
  8
0
  6
SLD-Solid
 62
   179
100
AcDbLine
 10
596.9943576212997
 20
6400.9335325463
 30
0.0
 11
557.9730775995
 21
6141.0651554946
 31
0.0
  0
LINE
  5
97
330
49
100
AcDbEntity
  8
0
  6
SLD-Solid
 62
   179
100
AcDbLine
 10
557.9730775995
 20
6141.0651554946
 30
0.0
 11
538.0293793386
 21
5893.0807139359
 31
0.0
  0
LINE
  5
98
330
49
100
AcDbEntity
  8
0
  6
SLD-Solid
 62
   179
100
AcDbLine
 10
538.0293793386
 20
5893.0807139359
 30
0.0
 11
537.9155556826
 21
5644.316103439599
 31
0.0
  0
LINE
  5
99
330
49
100
AcDbEntity
  8
0
  6
SLD-Solid
 62
   179
100
AcDbLine
 10
537.9155556826
 20
5644.316103439599
 30
0.0
 11
561.0465619986
 21
5396.6565041751
 31
0.0
  0
LINE
  5
9A
330
49
100
AcDbEntity
  8
0
  6
SLD-Solid
 62
   179
100
AcDbLine
 10
561.0465619986
 20
5396.6565041751
 30
0.0
 11
610.8365836731
 21
5152.986228349099
 31
0.0
  0
LINE
  5
9B
330
49
100
AcDbEntity
  8
0
  6
SLD-Solid
 62
   179
100
AcDbLine
 10
610.8365836731
 20
5152.986228349099
 30
0.0
 11
670.4957765389
 21
4966.8752015955
 31
0.0
  0
LINE
  5
9C
330
49
100
AcDbEntity
  8
0
  6
SLD-Solid
 62
   179
100
AcDbLine
 10
670.4957765389
 20
4966.8752015955
 30
0.0
 11
749.0385092575999
 21
4787.922755338
 31
0.0
  0
LINE
  5
9D
330
49
100
AcDbEntity
  8
0
  6
SLD-Solid
 62
   179
100
AcDbLine
 10
749.0385092575999
 20
4787.922755338
 30
0.0
 11
846.3298658911998
 21
4618.4358151253
 31
0.0
  0
LINE
  5
9E
330
49
100
AcDbEntity
  8
0
  6
SLD-Solid
 62
   179
100
AcDbLine
 10
846.3298658911998
 20
4618.4358151253
 30
0.0
 11
961.3271095995999
 21
4460.4233554942
 31
0.0
  0
LINE
  5
9F
330
49
100
AcDbEntity
  8
0
  6
SLD-Solid
 62
   179
100
AcDbLine
 10
1593.2484263997
 20
3794.8892026942
 30
0.0
 11
2342.8146692
 21
3099.1034974946
 31
0.0
  0
LINE
  5
A0
330
49
100
AcDbEntity
  8
0
  6
SLD-Solid
 62
   179
100
AcDbLine
 10
2342.8146692
 20
3099.1034974946
 30
0.0
 11
2457.4150864402
 21
2985.4804965343
 31
0.0
  0
LINE
  5
A1
330
49
100
AcDbEntity
  8
0
  6
SLD-Solid
 62
   179
100
AcDbLine
 10
2457.4150864402
 20
2985.4804965343
 30
0.0
 11
2562.4777930784
 21
2863.0062246075
 31
0.0
  0
LINE
  5
A2
330
49
100
AcDbEntity
  8
0
  6
SLD-Solid
 62
   179
100
AcDbLine
 10
2562.4777930784
 20
2863.0062246075
 30
0.0
 11
2654.962824414801
 21
2730.8077708033
 31
0.0
  0
LINE
  5
A3
330
49
100
AcDbEntity
  8
0
  6
SLD-Solid
 62
   179
100
AcDbLine
 10
2654.962824414801
 20
2730.8077708033
 30
0.0
 11
2730.9070108725
 21
2588.5028322591
 31
0.0
  0
LINE
  5
A4
330
49
100
AcDbEntity
  8
0
  6
SLD-Solid
 62
   179
100
AcDbLine
 10
2730.9070108725
 20
2588.5028322591
 30
0.0
 11
2787.6392767372
 21
2429.3959416825
 31
0.0
  0
LINE
  5
A5
330
49
100
AcDbEntity
  8
0
  6
SLD-Solid
 62
   179
100
AcDbLine
 10
2787.6392767372
 20
2429.3959416825
 30
0.0
 11
2816.0412804487
 21
2262.9265767885
 31
0.0
  0
LINE
  5
A6
330
49
100
AcDbEntity
  8
0
  6
SLD-Solid
 62
   179
100
AcDbLine
 10
2816.0412804487
 20
2262.9265767885
 30
0.0
 11
2813.3943732
 21
2094.0797010946
 31
0.0
  0
LINE
  5
A7
330
49
100
AcDbEntity
  8
0
  6
SLD-Solid
 62
   179
100
AcDbLine
 10
2171.3892056002
 20
1438.629399097
 30
0.0
 11
2081.3271648151
 21
1444.5220285234
 31
0.0
  0
LINE
  5
A8
330
49
100
AcDbEntity
  8
0
  6
SLD-Solid
 62
   179
100
AcDbLine
 10
2081.3271648151
 20
1444.5220285234
 30
0.0
 11
1993.3677378413
 21
1464.5260106363
 31
0.0
  0
LINE
  5
A9
330
49
100
AcDbEntity
  8
0
  6
SLD-Solid
 62
   179
100
AcDbLine
 10
1993.3677378413
 20
1464.5260106363
 30
0.0
 11
1911.3435803354
 21
1501.9115152047
 31
0.0
  0
LINE
  5
AA
330
49
100
AcDbEntity
  8
0
  6
SLD-Solid
 62
   179
100
AcDbLine
 10
1911.3435803354
 20
1501.9115152047
 30
0.0
 11
1840.5450992733
 21
1557.6494251181
 31
0.0
  0
LINE
  5
AB
330
49
100
AcDbEntity
  8
0
  6
SLD-Solid
 62
   179
100
AcDbLine
 10
1840.5450992733
 20
1557.6494251181
 30
0.0
 11
1785.044516871099
 21
1628.6751044787
 31
0.0
  0
LINE
  5
AC
330
49
100
AcDbEntity
  8
0
  6
SLD-Solid
 62
   179
100
AcDbLine
 10
1785.044516871099
 20
1628.6751044787
 30
0.0
 11
1745.2817682865
 21
1709.6405469696
 31
0.0
  0
LINE
  5
AD
330
49
100
AcDbEntity
  8
0
  6
SLD-Solid
 62
   179
100
AcDbLine
 10
1745.2817682865
 20
1709.6405469696
 30
0.0
 11
1710.0353127013
 21
1840.2386565146
 31
0.0
  0
LINE
  5
AE
330
49
100
AcDbEntity
  8
0
  6
SLD-Solid
 62
   179
100
AcDbLine
 10
1710.0353127013
 20
1840.2386565146
 30
0.0
 11
1696.0216688059
 21
1974.8977537186
 31
0.0
  0
LINE
  5
AF
330
49
100
AcDbEntity
  8
0
  6
SLD-Solid
 62
   179
100
AcDbLine
 10
1696.0216688059
 20
1974.8977537186
 30
0.0
 11
1696.5924840549
 21
2110.3283975811
 31
0.0
  0
LINE
  5
B0
330
49
100
AcDbEntity
  8
0
  6
SLD-Solid
 62
   179
100
AcDbLine
 10
1696.5924840549
 20
2110.3283975811
 30
0.0
 11
1707.5320688
 21
2245.3374630946
 31
0.0
  0
LINE
  5
B1
330
49
100
AcDbEntity
  8
0
  6
SLD-Solid
 62
   179
100
AcDbLine
 10
1707.5320688
 20
2245.3374630946
 30
0.0
 11
1781.480308
 21
2897.4264814946
 31
0.0
  0
LINE
  5
B2
330
49
100
AcDbEntity
  8
0
  6
SLD-Solid
 62
   179
100
AcDbLine
 10
1781.480308
 20
2897.4264814946
 30
0.0
 11
94.11594079999998
 21
2897.4264814946
 31
0.0
  0
LINE
  5
B3
330
49
100
AcDbEntity
  8
0
  6
SLD-Solid
 62
   179
100
AcDbLine
 10
94.11594079999998
 20
2897.4264814946
 30
0.0
 11
26.8902688
 21
2295.7567170946
 31
0.0
  0
LINE
  5
B4
330
49
100
AcDbEntity
  8
0
  6
SLD-Solid
 62
   179
100
AcDbLine
 10
26.8902688
 20
2295.7567170946
 30
0.0
 11
5.820122611699999
 21
2068.3689705604
 31
0.0
  0
LINE
  5
B5
330
49
100
AcDbEntity
  8
0
  6
SLD-Solid
 62
   179
100
AcDbLine
 10
5.820122611699999
 20
2068.3689705604
 30
0.0
 11
0.0
 21
1889.0414014946
 31
0.0
  0
LINE
  5
B6
330
49
100
AcDbEntity
  8
0
  6
SLD-Solid
 62
   179
100
AcDbLine
 10
0.0
 20
1889.0414014946
 30
0.0
 11
0.0
 21
1788.2028934946
 31
0.0
  0
LINE
  5
B7
330
49
100
AcDbEntity
  8
0
  6
SLD-Solid
 62
   179
100
AcDbLine
 10
0.0
 20
1788.2028934946
 30
0.0
 11
8.4741181851
 21
1597.5992610857
 31
0.0
  0
LINE
  5
B8
330
49
100
AcDbEntity
  8
0
  6
SLD-Solid
 62
   179
100
AcDbLine
 10
8.4741181851
 20
1597.5992610857
 30
0.0
 11
29.9475321698
 21
1408.0255515191
 31
0.0
  0
LINE
  5
B9
330
49
100
AcDbEntity
  8
0
  6
SLD-Solid
 62
   179
100
AcDbLine
 10
29.9475321698
 20
1408.0255515191
 30
0.0
 11
66.5196177454
 21
1220.7936775914
 31
0.0
  0
LINE
  5
BA
330
49
100
AcDbEntity
  8
0
  6
SLD-Solid
 62
   179
100
AcDbLine
 10
66.5196177454
 20
1220.7936775914
 30
0.0
 11
120.5660601196
 21
1037.8592313249
 31
0.0
  0
LINE
  5
BB
330
49
100
AcDbEntity
  8
0
  6
SLD-Solid
 62
   179
100
AcDbLine
 10
120.5660601196
 20
1037.8592313249
 30
0.0
 11
194.3311383855
 21
861.9730900702
 31
0.0
  0
LINE
  5
BC
330
49
100
AcDbEntity
  8
0
  6
SLD-Solid
 62
   179
100
AcDbLine
 10
194.3311383855
 20
861.9730900702
 30
0.0
 11
287.5295606573
 21
699.5021482411
 31
0.0
  0
LINE
  5
BD
330
49
100
AcDbEntity
  8
0
  6
SLD-Solid
 62
   179
100
AcDbLine
 10
287.5295606573
 20
699.5021482411
 30
0.0
 11
401.5974373648999
 21
550.9580491856
 31
0.0
  0
LINE
  5
BE
330
49
100
AcDbEntity
  8
0
  6
SLD-Solid
 62
   179
100
AcDbLine
 10
401.5974373648999
 20
550.9580491856
 30
0.0
 11
535.1901037299
 21
419.6995230366999
 31
0.0
  0
LINE
  5
BF
330
49
100
AcDbEntity
  8
0
  6
SLD-Solid
 62
   179
100
AcDbLine
 10
535.1901037299
 20
419.6995230366999
 30
0.0
 11
685.4525519751
 21
307.8901613371
 31
0.0
  0
LINE
  5
C0
330
49
100
AcDbEntity
  8
0
  6
SLD-Solid
 62
   179
100
AcDbLine
 10
685.4525519751
 20
307.8901613371
 30
0.0
 11
880.9909831936
 21
200.7980430706
 31
0.0
  0
LINE
  5
C1
330
49
100
AcDbEntity
  8
0
  6
SLD-Solid
 62
   179
100
AcDbLine
 10
880.9909831936
 20
200.7980430706
 30
0.0
 11
1088.9648544967
 21
120.3523112471
 31
0.0
  0
LINE
  5
C2
330
49
100
AcDbEntity
  8
0
  6
SLD-Solid
 62
   179
100
AcDbLine
 10
1088.9648544967
 20
120.3523112471
 30
0.0
 11
1304.5983771836
 21
63.40275116379999
 31
0.0
  0
LINE
  5
C3
330
49
100
AcDbEntity
  8
0
  6
SLD-Solid
 62
   179
100
AcDbLine
 10
1304.5983771836
 20
63.40275116379999
 30
0.0
 11
1524.5667113278
 21
26.43531137510001
 31
0.0
  0
LINE
  5
C4
330
49
100
AcDbEntity
  8
0
  6
SLD-Solid
 62
   179
100
AcDbLine
 10
1524.5667113278
 20
26.43531137510001
 30
0.0
 11
1746.7181907984
 21
6.202131110099997
 31
0.0
  0
LINE
  5
C5
330
49
100
AcDbEntity
  8
0
  6
SLD-Solid
 62
   179
100
AcDbLine
 10
1746.7181907984
 20
6.202131110099997
 30
0.0
 11
1969.7121896
 21
0.0000182946
 31
0.0
  0
LINE
  5
C6
330
49
100
AcDbEntity
  8
0
  6
SLD-Solid
 62
   179
100
AcDbLine
 10
1969.7121896
 20
0.0000182946
 30
0.0
 11
2235.4163107967
 21
9.0474941519
 31
0.0
  0
LINE
  5
C7
330
49
100
AcDbEntity
  8
0
  6
SLD-Solid
 62
   179
100
AcDbLine
 10
2235.4163107967
 20
9.0474941519
 30
0.0
 11
2499.6874650753
 21
37.9033605802
 31
0.0
  0
LINE
  5
C8
330
49
100
AcDbEntity
  8
0
  6
SLD-Solid
 62
   179
100
AcDbLine
 10
2499.6874650753
 20
37.9033605802
 30
0.0
 11
2760.5117042792
 21
89.204615755
 31
0.0
  0
LINE
  5
C9
330
49
100
AcDbEntity
  8
0
  6
SLD-Solid
 62
   179
100
AcDbLine
 10
2760.5117042792
 20
89.204615755
 30
0.0
 11
3015.1415277313
 21
165.4438899665
 31
0.0
  0
LINE
  5
CA
330
49
100
AcDbEntity
  8
0
  6
SLD-Solid
 62
   179
100
AcDbLine
 10
3015.1415277313
 20
165.4438899665
 30
0.0
 11
3208.6236023082
 21
244.1201341123
 31
0.0
  0
LINE
  5
CB
330
49
100
AcDbEntity
  8
0
  6
SLD-Solid
 62
   179
100
AcDbLine
 10
3208.6236023082
 20
244.1201341123
 30
0.0
 11
3394.246790929
 21
339.8610540042
 31
0.0
  0
LINE
  5
CC
330
49
100
AcDbEntity
  8
0
  6
SLD-Solid
 62
   179
100
AcDbLine
 10
3394.246790929
 20
339.8610540042
 30
0.0
 11
3570.08287903
 21
452.5651803685
 31
0.0
  0
LINE
  5
CD
330
49
100
AcDbEntity
  8
0
  6
SLD-Solid
 62
   179
100
AcDbLine
 10
3570.08287903
 20
452.5651803685
 30
0.0
 11
3734.3860796
 21
581.5020810946
 31
0.0
  0
LINE
  5
CE
330
49
100
AcDbEntity
  8
0
  6
SLD-Solid
 62
   179
100
AcDbLine
 10
3734.3860796
 20
581.5020810946
 30
0.0
 11
3918.9619613187
 21
762.6068684982001
 31
0.0
  0
LINE
  5
CF
330
49
100
AcDbEntity
  8
0
  6
SLD-Solid
 62
   179
100
AcDbLine
 10
3918.9619613187
 20
762.6068684982001
 30
0.0
 11
4080.6115034165
 21
964.4332031658001
 31
0.0
  0
LINE
  5
D0
330
49
100
AcDbEntity
  8
0
  6
SLD-Solid
 62
   179
100
AcDbLine
 10
4080.6115034165
 20
964.4332031658001
 30
0.0
 11
4217.129324297
 21
1184.0491590435
 31
0.0
  0
LINE
  5
D1
330
49
100
AcDbEntity
  8
0
  6
SLD-Solid
 62
   179
100
AcDbLine
 10
4217.129324297
 20
1184.0491590435
 30
0.0
 11
4327.807798901
 21
1417.7744861233
 31
0.0
  0
LINE
  5
D2
330
49
100
AcDbEntity
  8
0
  6
SLD-Solid
 62
   179
100
AcDbLine
 10
4327.807798901
 20
1417.7744861233
 30
0.0
 11
4416.8403522579
 21
1673.6616360853
 31
0.0
  0
LINE
  5
D3
330
49
100
AcDbEntity
  8
0
  6
SLD-Solid
 62
   179
100
AcDbLine
 10
4416.8403522579
 20
1673.6616360853
 30
0.0
 11
4480.332478423
 21
1937.0776350384
 31
0.0
  0
LINE
  5
D4
330
49
100
AcDbEntity
  8
0
  6
SLD-Solid
 62
   179
100
AcDbLine
 10
4480.332478423
 20
1937.0776350384
 30
0.0
 11
4520.926442
 21
2205.0020598946
 31
0.0
  0
LINE
  5
D5
330
49
100
AcDbEntity
  8
0
  6
SLD-Solid
 62
   179
100
AcDbLine
 10
4520.926442
 20
2205.0020598946
 30
0.0
 11
4539.8604791128
 21
2434.751251137
 31
0.0
  0
LINE
  5
D6
330
49
100
AcDbEntity
  8
0
  6
SLD-Solid
 62
   179
100
AcDbLine
 10
4539.8604791128
 20
2434.751251137
 30
0.0
 11
4542.0136171636
 21
2665.2555763504
 31
0.0
  0
LINE
  5
D7
330
49
100
AcDbEntity
  8
0
  6
SLD-Solid
 62
   179
100
AcDbLine
 10
4542.0136171636
 20
2665.2555763504
 30
0.0
 11
4524.9874932226
 21
2895.1234497405
 31
0.0
  0
LINE
  5
D8
330
49
100
AcDbEntity
  8
0
  6
SLD-Solid
 62
   179
100
AcDbLine
 10
4524.9874932226
 20
2895.1234497405
 30
0.0
 11
4496.6310776622
 21
3074.0098021703
 31
0.0
  0
LINE
  5
D9
330
49
100
AcDbEntity
  8
0
  6
SLD-Solid
 62
   179
100
AcDbLine
 10
4496.6310776622
 20
3074.0098021703
 30
0.0
 11
4454.0379981851
 21
3250.0430485054
 31
0.0
  0
LINE
  5
DA
330
49
100
AcDbEntity
  8
0
  6
SLD-Solid
 62
   179
100
AcDbLine
 10
4454.0379981851
 20
3250.0430485054
 30
0.0
 11
4396.5589488
 21
3421.786723094601
 31
0.0
  0
LINE
  5
DB
330
49
100
AcDbEntity
  8
0
  6
SLD-Solid
 62
   179
100
AcDbLine
 10
4396.5589488
 20
3421.786723094601
 30
0.0
 11
4335.077579852899
 21
3551.3591107413
 31
0.0
  0
LINE
  5
DC
330
49
100
AcDbEntity
  8
0
  6
SLD-Solid
 62
   179
100
AcDbLine
 10
4335.077579852899
 20
3551.3591107413
 30
0.0
 11
4262.2002057756
 21
3674.9188547719
 31
0.0
  0
LINE
  5
DD
330
49
100
AcDbEntity
  8
0
  6
SLD-Solid
 62
   179
100
AcDbLine
 10
4262.2002057756
 20
3674.9188547719
 30
0.0
 11
4181.3183894369
 21
3793.4113089372
 31
0.0
  0
LINE
  5
DE
330
49
100
AcDbEntity
  8
0
  6
SLD-Solid
 62
   179
100
AcDbLine
 10
4181.3183894369
 20
3793.4113089372
 30
0.0
 11
4078.522747157101
 21
3927.6643628842
 31
0.0
  0
LINE
  5
DF
330
49
100
AcDbEntity
  8
0
  6
SLD-Solid
 62
   179
100
AcDbLine
 10
4078.522747157101
 20
3927.6643628842
 30
0.0
 11
3969.6759316
 21
4057.069323494601
 31
0.0
  0
LINE
  5
E0
330
49
100
AcDbEntity
  8
0
  6
SLD-Solid
 62
   179
100
AcDbLine
 10
3969.6759316
 20
4057.069323494601
 30
0.0
 11
3243.638674
 21
4803.274282694601
 31
0.0
  0
LINE
  5
E1
330
49
100
AcDbEntity
  8
0
  6
SLD-Solid
 62
   179
100
AcDbLine
 10
2467.1821623981
 20
5616.7049138995
 30
0.0
 11
2391.5759134121
 21
5727.7039441288
 31
0.0
  0
LINE
  5
E2
330
49
100
AcDbEntity
  8
0
  6
SLD-Solid
 62
   179
100
AcDbLine
 10
2391.5759134121
 20
5727.7039441288
 30
0.0
 11
2326.9023872324
 21
5845.3828817498
 31
0.0
  0
LINE
  5
E3
330
49
100
AcDbEntity
  8
0
  6
SLD-Solid
 62
   179
100
AcDbLine
 10
2326.9023872324
 20
5845.3828817498
 30
0.0
 11
2276.7855321171
 21
5969.9206549293
 31
0.0
  0
LINE
  5
E4
330
49
100
AcDbEntity
  8
0
  6
SLD-Solid
 62
   179
100
AcDbLine
 10
2276.7855321171
 20
5969.9206549293
 30
0.0
 11
2250.5432565423
 21
6072.0904771882
 31
0.0
  0
LINE
  5
E5
330
49
100
AcDbEntity
  8
0
  6
SLD-Solid
 62
   179
100
AcDbLine
 10
2250.5432565423
 20
6072.0904771882
 30
0.0
 11
2238.3532498759
 21
6176.8496579539
 31
0.0
  0
LINE
  5
E6
330
49
100
AcDbEntity
  8
0
  6
SLD-Solid
 62
   179
100
AcDbLine
 10
2238.3532498759
 20
6176.8496579539
 30
0.0
 11
2241.9761612
 21
6282.239066694599
 31
0.0
  0
LINE
  5
E7
330
49
100
AcDbEntity
  8
0
  6
SLD-Solid
 62
   179
100
AcDbLine
 10
2813.394373201
 20
6877.186263896098
 30
0.0
 11
2899.1450330725
 21
6871.9159884789
 31
0.0
  0
LINE
  5
E8
330
49
100
AcDbEntity
  8
0
  6
SLD-Solid
 62
   179
100
AcDbLine
 10
2899.1450330725
 20
6871.9159884789
 30
0.0
 11
2983.1458702521
 21
6854.0846279821
 31
0.0
  0
LINE
  5
E9
330
49
100
AcDbEntity
  8
0
  6
SLD-Solid
 62
   179
100
AcDbLine
 10
2983.1458702521
 20
6854.0846279821
 30
0.0
 11
3062.202014936
 21
6820.693112019601
 31
0.0
  0
LINE
  5
EA
330
49
100
AcDbEntity
  8
0
  6
SLD-Solid
 62
   179
100
AcDbLine
 10
3062.202014936
 20
6820.693112019601
 30
0.0
 11
3131.6623634801
 21
6770.362935621401
 31
0.0
  0
LINE
  5
EB
330
49
100
AcDbEntity
  8
0
  6
SLD-Solid
 62
   179
100
AcDbLine
 10
3131.6623634801
 20
6770.362935621401
 30
0.0
 11
3187.37124796
 21
6705.118469623498
 31
0.0
  0
LINE
  5
EC
330
49
100
AcDbEntity
  8
0
  6
SLD-Solid
 62
   179
100
AcDbLine
 10
3187.37124796
 20
6705.118469623498
 30
0.0
 11
3228.1274776793
 21
6629.5646068072
 31
0.0
  0
LINE
  5
ED
330
49
100
AcDbEntity
  8
0
  6
SLD-Solid
 62
   179
100
AcDbLine
 10
3228.1274776793
 20
6629.5646068072
 30
0.0
 11
3265.0334180049
 21
6506.244136135899
 31
0.0
  0
LINE
  5
EE
330
49
100
AcDbEntity
  8
0
  6
SLD-Solid
 62
   179
100
AcDbLine
 10
3265.0334180049
 20
6506.244136135899
 30
0.0
 11
3280.3602104272
 21
6378.3104742822
 31
0.0
  0
LINE
  5
EF
330
49
100
AcDbEntity
  8
0
  6
SLD-Solid
 62
   179
100
AcDbLine
 10
3280.3602104272
 20
6378.3104742822
 30
0.0
 11
3280.7520241623
 21
6249.4122034737
 31
0.0
  0
LINE
  5
F0
330
49
100
AcDbEntity
  8
0
  6
SLD-Solid
 62
   179
100
AcDbLine
 10
3280.7520241623
 20
6249.4122034737
 30
0.0
 11
3270.5289428
 21
6120.897453894599
 31
0.0
  0
LINE
  5
F1
330
49
100
AcDbEntity
  8
0
  6
SLD-Solid
 62
   179
100
AcDbLine
 10
3270.5289428
 20
6120.897453894599
 30
0.0
 11
3206.6645544
 21
5566.2856598946
 31
0.0
  0
LINE
  5
F2
330
49
100
AcDbEntity
  8
0
  6
SLD-Solid
 62
   179
100
AcDbLine
 10
3206.6645544
 20
5566.2856598946
 30
0.0
 11
4820.080682400499
 21
5566.285659894499
 31
0.0
  0
LINE
  5
F3
330
49
100
AcDbEntity
  8
0
  6
SLD-Solid
 62
   179
100
AcDbLine
 10
4820.080682400499
 20
5566.285659894499
 30
0.0
 11
4894.028921600501
 21
6231.819812694499
 31
0.0
  0
LINE
  5
F4
330
49
100
AcDbEntity
  8
0
  6
SLD-Solid
 62
   179
100
AcDbLine
 10
4894.028921600501
 20
6231.819812694499
 30
0.0
 11
4907.4740560005
 21
6366.2711566946
 31
0.0
  0
LINE
  5
F5
330
49
100
AcDbEntity
  8
0
  6
SLD-Solid
 62
   179
100
AcDbLine
 10
4907.4740560005
 20
6366.2711566946
 30
0.0
 11
4917.4861623745
 21
6641.1377165616
 31
0.0
  0
LINE
  5
F6
330
49
100
AcDbEntity
  8
0
  6
SLD-Solid
 62
   179
100
AcDbLine
 10
4917.4861623745
 20
6641.1377165616
 30
0.0
 11
4907.4740560005
 21
6857.018562294701
 31
0.0
  0
LINE
  5
F7
330
49
100
AcDbEntity
  8
0
  6
SLD-Solid
 62
   179
100
AcDbLine
 10
24964.5491205926
 20
0.0000125144
 30
0.0
 11
26583.7619200447
 21
0.0000125144
 31
0.0
  0
LINE
  5
F8
330
49
100
AcDbEntity
  8
0
  6
SLD-Solid
 62
   179
100
AcDbLine
 10
24964.5491205926
 20
1424.0948297115
 30
0.0
 11
24964.5491205926
 21
0.0000125144
 31
0.0
  0
LINE
  5
F9
330
49
100
AcDbEntity
  8
0
  6
SLD-Solid
 62
   179
100
AcDbLine
 10
25016.6135325926
 20
7008.8707569115
 30
0.0
 11
24971.491042193
 21
3444.1940153109
 31
0.0
  0
LINE
  5
FA
330
49
100
AcDbEntity
  8
0
  6
SLD-Solid
 62
   179
100
AcDbLine
 10
24180.1119797926
 20
3343.5361521115
 30
0.0
 11
25016.6135325926
 21
7008.8707569115
 31
0.0
  0
LINE
  5
FB
330
49
100
AcDbEntity
  8
0
  6
SLD-Solid
 62
   179
100
AcDbLine
 10
23399.1457997926
 20
0.0000125144
 30
0.0
 11
23791.3643701938
 21
1694.8297721102
 31
0.0
  0
LINE
  5
FC
330
49
100
AcDbEntity
  8
0
  6
SLD-Solid
 62
   179
100
AcDbLine
 10
21618.5429093926
 20
0.0000125144
 30
0.0
 11
23399.1457997926
 21
0.0000125144
 31
0.0
  0
LINE
  5
FD
330
49
100
AcDbEntity
  8
0
  6
SLD-Solid
 62
   179
100
AcDbLine
 10
23986.756270993
 20
8289.6552921115
 30
0.0
 11
21618.5429093926
 21
0.0000125144
 31
0.0
  0
LINE
  5
FE
330
49
100
AcDbEntity
  8
0
  6
SLD-Solid
 62
   179
100
AcDbLine
 10
26353.951536593
 20
8289.6552921115
 30
0.0
 11
23986.756270993
 21
8289.6552921115
 31
0.0
  0
LINE
  5
FF
330
49
100
AcDbEntity
  8
0
  6
SLD-Solid
 62
   179
100
AcDbLine
 10
26583.7619200447
 20
0.0000125144
 30
0.0
 11
26353.951536593
 21
8289.6552921115
 31
0.0
  0
ENDBLK
  5
4B
330
49
100
AcDbEntity
  8
0
100
AcDbBlockEnd
  0
BLOCK
  5
174
330
173
100
AcDbEntity
  8
0
100
AcDbBlockBegin
  2
SW_NOTE_0
 70
     0
 10
0.0
 20
0.0
 30
0.0
  3
SW_NOTE_0
  1

  0
MTEXT
  5
176
330
173
100
AcDbEntity
  8
0
 62
     0
100
AcDbMText
 10
0.0
 20
2.046395036899999
 30
0.0
 40
1.587499999999999
 41
0.0
 46
0.0
 71
     1
 72
     1
  1
1000-
  7
SLDTEXTSTYLE0
 73
     1
 44
1.0
  0
MTEXT
  5
177
330
173
100
AcDbEntity
  8
0
 62
     0
100
AcDbMText
 10
0.0
 20
-0.0702716042
 30
0.0
 40
1.587499999999999
 41
0.0
 46
0.0
 71
     1
 72
     1
  1
2000
  7
SLDTEXTSTYLE0
 73
     1
 44
1.0
  0
ENDBLK
  5
175
330
173
100
AcDbEntity
  8
0
100
AcDbBlockEnd
  0
BLOCK
  5
17A
330
179
100
AcDbEntity
  8
0
100
AcDbBlockBegin
  2
SW_NOTE_1
 70
     0
 10
0.0
 20
0.0
 30
0.0
  3
SW_NOTE_1
  1

  0
MTEXT
  5
17C
330
179
100
AcDbEntity
  8
0
 62
     0
100
AcDbMText
 10
0.0
 20
2.046395036899999
 30
0.0
 40
1.587499999999999
 41
0.0
 46
0.0
 71
     1
 72
     1
  1
2000-
  7
SLDTEXTSTYLE0
 73
     1
 44
1.0
  0
MTEXT
  5
17D
330
179
100
AcDbEntity
  8
0
 62
     0
100
AcDbMText
 10
0.0
 20
-0.0702716042
 30
0.0
 40
1.587499999999999
 41
0.0
 46
0.0
 71
     1
 72
     1
  1
4000
  7
SLDTEXTSTYLE0
 73
     1
 44
1.0
  0
ENDBLK
  5
17B
330
179
100
AcDbEntity
  8
0
100
AcDbBlockEnd
  0
BLOCK
  5
18C
330
18B
100
AcDbEntity
  8
0
100
AcDbBlockBegin
  2
SW_NOTE_2
 70
     0
 10
0.0
 20
0.0
 30
0.0
  3
SW_NOTE_2
  1

  0
MTEXT
  5
18F
330
18B
100
AcDbEntity
  8
0
 62
     0
100
AcDbMText
 10
2.25
 20
2.578135479499997
 30
0.0
 40
2.0
 41
0.0
 46
0.0
 71
     1
 72
     1
  1
S= mm
  7
SLDTEXTSTYLE4
 73
     1
 44
1.0
  0
MTEXT
  5
190
330
18B
100
AcDbEntity
  8
0
 62
     0
100
AcDbMText
 10
0.0
 20
-0.4218645465
 30
0.0
 40
2.0
 41
0.0
 46
0.0
 71
     1
 72
     1
  1
Lenkimo r=mm
  7
SLDTEXTSTYLE0
 73
     1
 44
1.0
  0
MTEXT
  5
191
330
18B
100
AcDbEntity
  8
0
 62
     0
100
AcDbMText
 10
0.0
 20
-3.4218645726
 30
0.0
 40
2.0
 41
0.0
 46
0.0
 71
     1
 72
     1
  1
Plotas S= m2
  7
SLDTEXTSTYLE0
 73
     1
 44
1.0
  0
ENDBLK
  5
18D
330
18B
100
AcDbEntity
  8
0
100
AcDbBlockEnd
  0
ENDSEC
  0
SECTION
  2
ENTITIES
  0
LINE
  5
210
330
1F
100
AcDbEntity
  8
SLD-0
100
AcDbLine
 10
-1317.0903765267
 20
638.9619071383997
 30
0.0
 11
-1315.5903772122
 21
638.9619071383997
 31
0.0
  0
LINE
  5
211
330
1F
100
AcDbEntity
  8
SLD-0
100
AcDbLine
 10
-1315.5903772122
 20
667.9619063039
 30
0.0
 11
-1317.0903765267
 21
667.9619063039
 31
0.0
  0
LINE
  5
212
330
1F
100
AcDbEntity
  8
SLD-0
100
AcDbLine
 10
-1300.5903770818
 20
641.9619132181
 30
0.0
 11
-1289.5903766757
 21
641.9619132181
 31
0.0
  0
LINE
  5
213
330
1F
100
AcDbEntity
  8
SLD-0
100
AcDbLine
 10
-1289.5903766757
 20
664.9619151253999
 30
0.0
 11
-1300.5903770818
 21
664.9619151253999
 31
0.0
  0
LINE
  5
214
330
1F
100
AcDbEntity
  8
SLD-0
100
AcDbLine
 10
-1300.5903770818
 20
666.7752374311
 30
0.0
 11
-1315.5903772122
 21
666.7752374311
 31
0.0
  0
LINE
  5
215
330
1F
100
AcDbEntity
  8
SLD-0
100
AcDbLine
 10
-1315.5903772122
 20
639.9770636459
 30
0.0
 11
-1300.5903770818
 21
639.9770636459
 31
0.0
  0
LINE
  5
216
330
1F
100
AcDbEntity
  8
SLD-0
100
AcDbLine
 10
-1184.9686217165
 20
599.961910059
 30
0.0
 11
-1184.9686217165
 21
587.9619155427
 31
0.0
  0
LINE
  5
217
330
1F
100
AcDbEntity
  8
SLD-0
100
AcDbLine
 10
-1155.4686140871
 20
587.9619155427
 30
0.0
 11
-1155.4686140871
 21
599.961910059
 31
0.0
  0
ARC
  5
218
330
1F
100
AcDbEntity
  8
SLD-0
100
AcDbCircle
 10
-1183.9686188608
 20
599.9619134158
 30
0.0
 40
1.0
100
AcDbArc
 50
90.0
 51
180.0
  0
ARC
  5
219
330
1F
100
AcDbEntity
  8
SLD-0
100
AcDbCircle
 10
-1156.4686188608
 20
599.9619134158
 30
0.0
 40
1.0
100
AcDbArc
 50
0.0
 51
90.0
  0
LINE
  5
21A
330
1F
100
AcDbEntity
  8
SLD-0
100
AcDbLine
 10
-1155.7186257696
 20
564.461912622
 30
0.0
 11
-1155.7186257696
 21
565.9619156618998
 31
0.0
  0
LINE
  5
21B
330
1F
100
AcDbEntity
  8
SLD-0
100
AcDbLine
 10
-1184.7186174846
 20
565.9619156618998
 30
0.0
 11
-1184.7186174846
 21
564.461912622
 31
0.0
  0
LINE
  5
21C
330
1F
100
AcDbEntity
  8
SLD-0
100
AcDbLine
 10
-1158.7186169481
 20
580.9619162579
 30
0.0
 11
-1158.7186169481
 21
585.9619114894999
 31
0.0
  0
LINE
  5
21D
330
1F
100
AcDbEntity
  8
SLD-0
100
AcDbLine
 10
-1181.7186188555
 20
585.9619114894999
 30
0.0
 11
-1181.7186188555
 21
580.9619162579
 31
0.0
  0
LINE
  5
21E
330
1F
100
AcDbEntity
  8
SLD-0
100
AcDbLine
 10
-1183.620766983
 20
580.9619162579
 30
0.0
 11
-1183.620766983
 21
565.9619156618998
 31
0.0
  0
LINE
  5
21F
330
1F
100
AcDbEntity
  8
SLD-0
100
AcDbLine
 10
-1156.8164688206
 20
565.9619156618998
 30
0.0
 11
-1156.8164688206
 21
580.9619162579
 31
0.0
  0
LINE
  5
228
330
1F
100
AcDbEntity
  8
SLD-0
100
AcDbLine
 10
-1070.6266027546
 20
819.342042913
 30
0.0
 11
-1084.9686127758
 21
824.5621282954997
 31
0.0
  0
LINE
  5
229
330
1F
100
AcDbEntity
  8
SLD-0
100
AcDbLine
 10
-1333.3686192191
 20
824.5621282954997
 30
0.0
 11
-1347.7106404161
 21
819.342042913
 31
0.0
  0
LINE
  5
22A
330
1F
100
AcDbEntity
  8
SLD-0
100
AcDbLine
 10
-1347.7106404161
 20
819.342042913
 30
0.0
 11
-1347.3686177885
 21
818.4023458858
 31
0.0
  0
LINE
  5
22B
330
1F
100
AcDbEntity
  8
SLD-0
100
AcDbLine
 10
-1070.9686142063
 20
818.4023458858
 30
0.0
 11
-1070.6266027546
 21
819.342042913
 31
0.0
  0
ARC
  5
22C
330
1F
100
AcDbEntity
  8
SLD-0
100
AcDbCircle
 10
-1077.1686188608
 20
749.5119134158
 30
0.0
 40
1.049999999999954
100
AcDbArc
 50
270.0
 51
90.0
  0
ARC
  5
22D
330
1F
100
AcDbEntity
  8
SLD-0
100
AcDbCircle
 10
-1341.1686188608
 20
749.5119134158
 30
0.0
 40
1.049999999999954
100
AcDbArc
 50
90.0
 51
270.0
  0
ARC
  5
22E
330
1F
100
AcDbEntity
  8
SLD-0
100
AcDbCircle
 10
-1084.8686188608
 20
797.2519134158
 30
0.0
 40
2.700000000000192
100
AcDbArc
 50
285.0261137591
 51
74.9738862409
  0
ARC
  5
22F
330
1F
100
AcDbEntity
  8
SLD-0
100
AcDbCircle
 10
-1333.4686188608
 20
797.2519134158
 30
0.0
 40
2.700000000000079
100
AcDbArc
 50
105.0261137591
 51
254.9738862408999
  0
LINE
  5
230
330
1F
100
AcDbEntity
  8
SLD-0
100
AcDbLine
 10
-1084.1686141348
 20
824.8619098563998
 30
0.0
 11
-1084.1686141348
 21
828.6119062800999
 31
0.0
  0
LINE
  5
231
330
1F
100
AcDbEntity
  8
SLD-0
100
AcDbLine
 10
-1334.1686197227
 20
828.6119062800999
 30
0.0
 11
-1334.1686197227
 21
824.8619098563998
 31
0.0
  0
ARC
  5
232
330
1F
100
AcDbEntity
  8
SLD-0
100
AcDbCircle
 10
-1085.4186188608
 20
828.6119134157999
 30
0.0
 40
1.25
100
AcDbArc
 50
0.0
 51
90.0
  0
ARC
  5
233
330
1F
100
AcDbEntity
  8
SLD-0
100
AcDbCircle
 10
-1332.9186188608
 20
828.6119134157999
 30
0.0
 40
1.25
100
AcDbArc
 50
90.0
 51
180.0
  0
LINE
  5
234
330
1F
100
AcDbEntity
  8
SLD-0
100
AcDbLine
 10
-1085.4186129427
 20
829.8619050880002
 30
0.0
 11
-1332.9186190522
 21
829.8619050880002
 31
0.0
  0
LINE
  5
235
330
1F
100
AcDbEntity
  8
SLD-0
100
AcDbLine
 10
-1084.1686141348
 20
809.4726164241
 30
0.0
 11
-1085.9686148023
 21
812.0432753462999
 31
0.0
  0
LINE
  5
236
330
1F
100
AcDbEntity
  8
SLD-0
100
AcDbLine
 10
-1332.3686190551
 20
812.0432753462999
 30
0.0
 11
-1334.1686197227
 21
809.4726164241
 31
0.0
  0
LINE
  5
237
330
1F
100
AcDbEntity
  8
SLD-0
100
AcDbLine
 10
-1084.1686141348
 20
799.8596091171
 30
0.0
 11
-1084.1686141348
 21
809.4726164241
 31
0.0
  0
LINE
  5
238
330
1F
100
AcDbEntity
  8
SLD-0
100
AcDbLine
 10
-1334.1686197227
 20
809.4726164241
 30
0.0
 11
-1334.1686197227
 21
799.8596091171
 31
0.0
  0
LINE
  5
239
330
1F
100
AcDbEntity
  8
SLD-0
100
AcDbLine
 10
-1334.1686197227
 20
769.8217887778999
 30
0.0
 11
-1331.953731612
 21
750.5619187255
 31
0.0
  0
LINE
  5
23A
330
1F
100
AcDbEntity
  8
SLD-0
100
AcDbLine
 10
-1086.3835078335
 20
750.5619187255
 30
0.0
 11
-1084.1686141348
 21
769.8217887778999
 31
0.0
  0
LINE
  5
23B
330
1F
100
AcDbEntity
  8
SLD-0
100
AcDbLine
 10
-1084.1686141348
 20
769.8217887778999
 30
0.0
 11
-1084.1686141348
 21
794.6442325016001
 31
0.0
  0
LINE
  5
23C
330
1F
100
AcDbEntity
  8
SLD-0
100
AcDbLine
 10
-1334.1686197227
 20
794.6442325016001
 30
0.0
 11
-1334.1686197227
 21
769.8217887778999
 31
0.0
  0
LINE
  5
23D
330
1F
100
AcDbEntity
  8
SLD-0
100
AcDbLine
 10
-1084.9686127758
 20
824.5621282954997
 30
0.0
 11
-1084.9686127758
 21
824.8619098563998
 31
0.0
  0
LINE
  5
23E
330
1F
100
AcDbEntity
  8
SLD-0
100
AcDbLine
 10
-1333.3686192191
 20
824.8619098563998
 30
0.0
 11
-1333.3686192191
 21
824.5621282954997
 31
0.0
  0
LINE
  5
23F
330
1F
100
AcDbEntity
  8
SLD-0
100
AcDbLine
 10
-1085.9686148023
 20
812.0432753462999
 30
0.0
 11
-1085.9686148023
 21
818.4023458858
 31
0.0
  0
LINE
  5
240
330
1F
100
AcDbEntity
  8
SLD-0
100
AcDbLine
 10
-1332.3686190551
 20
818.4023458858
 30
0.0
 11
-1332.3686190551
 21
812.0432753462999
 31
0.0
  0
LINE
  5
241
330
1F
100
AcDbEntity
  8
SLD-0
100
AcDbLine
 10
-1100.2186250543
 20
482.4619133837999
 30
0.0
 11
-1087.2186136103
 21
482.4619133837999
 31
0.0
  0
SPLINE
  5
25C
330
1F
100
AcDbEntity
  8
SLD-0
100
AcDbSpline
210
0.0
220
0.0
230
1.0
 70
     8
 71
     3
 72
    11
 73
     7
 74
     0
 42
0.000000001
 43
0.0000000001
 40
0.0
 40
0.0
 40
0.0
 40
0.0
 40
0.2500705975803156
 40
0.4999153225683278
 40
0.7497800472646942
 40
1.0
 40
1.0
 40
1.0
 40
1.0
 10
-1420.040839598167
 20
679.4619072576047
 30
0.0
 10
-1420.102914787243
 20
679.45529309352
 30
0.0
 10
-1420.227009096894
 20
679.4420707394972
 30
0.0
 10
-1420.387191596243
 20
679.3366406534808
 30
0.0
 10
-1420.50267694348
 20
679.1820156365941
 30
0.0
 10
-1420.525148736873
 20
679.0570166306967
 30
0.0
 10
-1420.536392614829
 20
678.9944727321149
 30
0.0
  0
SPLINE
  5
25D
330
1F
100
AcDbEntity
  8
SLD-0
100
AcDbSpline
210
0.0
220
0.0
230
1.0
 70
     8
 71
     3
 72
    11
 73
     7
 74
     0
 42
0.000000001
 43
0.0000000001
 40
0.0
 40
0.0
 40
0.0
 40
0.0
 40
0.2502108036839557
 40
0.5000787296645763
 40
0.7499263252625493
 40
1.0
 40
1.0
 40
1.0
 40
1.0
 10
-1315.64436039387
 20
678.9944727321149
 30
0.0
 10
-1315.655596702173
 20
679.0570002770627
 30
0.0
 10
-1315.678053921047
 20
679.1819696820052
 30
0.0
 10
-1315.793474277545
 20
679.3365759957485
 30
0.0
 10
-1315.953585282726
 20
679.4420198838476
 30
0.0
 10
-1316.077640668656
 20
679.4552761347297
 30
0.0
 10
-1316.139696412372
 20
679.4619072576047
 30
0.0
  0
LINE
  5
262
330
1F
100
AcDbEntity
  8
SLD-0
100
AcDbLine
 10
-1317.0921302071
 20
656.823705544
 30
0.0
 11
-1317.0903728014
 21
657.1617830891998
 31
0.0
  0
SPLINE
  5
263
330
1F
100
AcDbEntity
  8
SLD-0
100
AcDbSpline
210
0.0
220
0.0
230
1.0
 70
     8
 71
     3
 72
    10
 73
     6
 74
     0
 42
0.000000001
 43
0.0000000001
 40
0.0
 40
0.0
 40
0.0
 40
0.0
 40
0.2436038181890568
 40
0.4832479092689563
 40
1.0
 40
1.0
 40
1.0
 40
1.0
 10
-1409.615026102054
 20
623.0049092669965
 30
0.0
 10
-1409.557879679172
 20
622.9544355302539
 30
0.0
 10
-1409.44451573609
 20
622.854308496388
 30
0.0
 10
-1409.201020802839
 20
622.6905182613386
 30
0.0
 10
-1409.035442486009
 20
622.6225221166546
 30
0.0
 10
-1408.922323272216
 20
622.5760687489988
 30
0.0
  0
SPLINE
  5
264
330
1F
100
AcDbEntity
  8
SLD-0
100
AcDbSpline
210
0.0
220
0.0
230
1.0
 70
     8
 71
     3
 72
    11
 73
     7
 74
     0
 42
0.000000001
 43
0.0000000001
 40
0.0
 40
0.0
 40
0.0
 40
0.0
 40
0.2097727710115781
 40
0.4318707010388848
 40
0.6893226204246079
 40
1.0
 40
1.0
 40
1.0
 40
1.0
 10
-1327.258439049709
 20
622.5760687489988
 30
0.0
 10
-1327.22514211415
 20
622.588365276591
 30
0.0
 10
-1327.156591887955
 20
622.6136808119007
 30
0.0
 10
-1326.987037575658
 20
622.6949537926872
 30
0.0
 10
-1326.780054940589
 20
622.8195465768353
 30
0.0
 10
-1326.641421895926
 20
622.9392831695606
 30
0.0
 10
-1326.565611422646
 20
623.0047602553846
 30
0.0
  0
SPLINE
  5
265
330
1F
100
AcDbEntity
  8
SLD-0
100
AcDbSpline
210
0.0
220
0.0
230
1.0
 70
     8
 71
     3
 72
    11
 73
     7
 74
     0
 42
0.000000001
 43
0.0000000001
 40
0.0
 40
0.0
 40
0.0
 40
0.0
 40
0.2419736961555083
 40
0.4898795343492657
 40
0.7427780437254059
 40
1.0
 40
1.0
 40
1.0
 40
1.0
 10
-1420.042352066028
 20
679.4619072576047
 30
0.0
 10
-1420.100126485245
 20
679.4582055566451
 30
0.0
 10
-1420.217091701022
 20
679.4507114051269
 30
0.0
 10
-1420.369526672301
 20
679.389457821979
 30
0.0
 10
-1420.496413865745
 20
679.2978946138837
 30
0.0
 10
-1420.545275101264
 20
679.2150963001079
 30
0.0
 10
-1420.569912776935
 20
679.1733462710857
 30
0.0
  0
SPLINE
  5
266
330
1F
100
AcDbEntity
  8
SLD-0
100
AcDbSpline
210
0.0
220
0.0
230
1.0
 70
     8
 71
     3
 72
    11
 73
     7
 74
     0
 42
0.000000001
 43
0.0000000001
 40
0.0
 40
0.0
 40
0.0
 40
0.0
 40
0.2571648275542631
 40
0.5099971075143073
 40
0.7579180395162226
 40
1.0
 40
1.0
 40
1.0
 40
1.0
 10
-1315.610842094409
 20
679.1733462710857
 30
0.0
 10
-1315.635504637553
 20
679.2150955033402
 30
0.0
 10
-1315.684414225178
 20
679.2978906036395
 30
0.0
 10
-1315.811693405317
 20
679.3894733154449
 30
0.0
 10
-1315.964631138205
 20
679.4507173093704
 30
0.0
 10
-1316.081951992602
 20
679.4582070245027
 30
0.0
 10
-1316.139913410532
 20
679.4619072576047
 30
0.0
  0
LINE
  5
267
330
1F
100
AcDbEntity
  8
SLD-0
100
AcDbLine
 10
-1328.3627361661
 20
622.457187285
 30
0.0
 11
-1328.456553877
 21
622.4589009185
 31
0.0
  0
LINE
  5
270
330
1F
100
AcDbEntity
  8
SLD-0
100
AcDbLine
 10
-1084.3186241245
 20
282.9619158407
 30
0.0
 11
-1084.7186159944
 21
282.9619158407
 31
0.0
  0
LINE
  5
271
330
1F
100
AcDbEntity
  8
SLD-0
100
AcDbLine
 10
-1084.7186159944
 20
271.9619084497
 30
0.0
 11
-1084.3186241245
 21
271.9619084497
 31
0.0
  0
ARC
  5
272
330
1F
100
AcDbEntity
  8
SLD-0
100
AcDbCircle
 10
-1084.7186188608
 20
272.9619134158
 30
0.0
 40
1.0
100
AcDbArc
 50
180.0000000001
 51
270.0
  0
ARC
  5
273
330
1F
100
AcDbEntity
  8
SLD-0
100
AcDbCircle
 10
-1084.7186188608
 20
281.9619134158001
 30
0.0
 40
1.0
100
AcDbArc
 50
90.0
 51
180.0000000001
  0
LINE
  5
276
330
1F
100
AcDbEntity
  8
SLD-0
100
AcDbLine
 10
-1549.1186243152
 20
271.9619084497
 30
0.0
 11
-1548.7186175442
 21
271.9619084497
 31
0.0
  0
LINE
  5
277
330
1F
100
AcDbEntity
  8
SLD-0
100
AcDbLine
 10
-1548.7186175442
 20
282.9619158407
 30
0.0
 11
-1549.1186243152
 21
282.9619158407
 31
0.0
  0
ARC
  5
278
330
1F
100
AcDbEntity
  8
SLD-0
100
AcDbCircle
 10
-1548.7186188608
 20
281.9619134158001
 30
0.0
 40
0.999999999999943
100
AcDbArc
 50
359.9999999998999
 51
90.0
  0
ARC
  5
279
330
1F
100
AcDbEntity
  8
SLD-0
100
AcDbCircle
 10
-1548.7186188608
 20
272.9619134158
 30
0.0
 40
0.999999999999943
100
AcDbArc
 50
270.0
 51
359.9999999998999
  0
LINE
  5
29F
330
1F
100
AcDbEntity
  8
SLD-0
100
AcDbLine
 10
-1289.3203862613
 20
652.961920609
 30
0.0
 11
-1289.3636294311
 21
654.7738273044
 31
0.0
  0
ARC
  5
2A0
330
1F
100
AcDbEntity
  8
SLD-0
100
AcDbCircle
 10
-1324.2794179112
 20
652.8583931617
 30
0.0
 40
34.95918494229374
100
AcDbArc
 50
352.8725452407
 51
0.1696748502
  0
ELLIPSE
  5
39D
330
1F
100
AcDbEntity
  8
SLD-0
100
AcDbEllipse
 10
-1308.340376914
 20
653.4619134158
 30
0.0
 11
11.83184509256125
 21
11.83184509256137
 31
0.0
210
0.0
220
0.0
230
1.0
 40
0.7443792484000002
 41
5.507279007348186
 42
5.779303383372011
  0
LINE
  5
3A4
330
1F
100
AcDbEntity
  8
SLD-0
100
AcDbLine
 10
-1315.5903772122
 20
657.6222289700997
 30
0.0
 11
-1315.5903772122
 21
638.9619071383997
 31
0.0
  0
LINE
  5
3A5
330
1F
100
AcDbEntity
  8
SLD-0
100
AcDbLine
 10
-1315.5903772122
 20
667.9619063039
 30
0.0
 11
-1315.5903772122
 21
657.6222289700997
 31
0.0
  0
LINE
  5
3A8
330
1F
100
AcDbEntity
  8
SLD-0
100
AcDbLine
 10
-1300.5903770818
 20
651.9716639419
 30
0.0
 11
-1300.5903770818
 21
640.7643515964
 31
0.0
  0
LINE
  5
3A9
330
1F
100
AcDbEntity
  8
SLD-0
100
AcDbLine
 10
-1293.7265990904
 20
655.7389606137999
 30
0.0
 11
-1295.5903767279
 21
655.2042026419999
 31
0.0
  0
LINE
  5
3AA
330
1F
100
AcDbEntity
  8
SLD-0
100
AcDbLine
 10
-1295.5903767279
 20
655.2042026419999
 30
0.0
 11
-1295.5903767279
 21
659.036036243
 31
0.0
  0
LINE
  5
3AB
330
1F
100
AcDbEntity
  8
SLD-0
100
AcDbLine
 10
-1295.5903767279
 20
659.036036243
 30
0.0
 11
-1293.7265990904
 21
659.5707793136
 31
0.0
  0
LINE
  5
3AD
330
1F
100
AcDbEntity
  8
SLD-0
100
AcDbLine
 10
-1295.5903767279
 20
654.7952849765
 30
0.0
 11
-1289.5903766757
 21
654.7952849765
 31
0.0
  0
LINE
  5
3AE
330
1F
100
AcDbEntity
  8
SLD-0
100
AcDbLine
 10
-1295.5903767279
 20
654.7952849765
 30
0.0
 11
-1295.5903767279
 21
655.2042026419999
 31
0.0
  0
LINE
  5
3B0
330
1F
100
AcDbEntity
  8
SLD-0
100
AcDbLine
 10
-1300.5903770818
 20
654.3221731086
 30
0.0
 11
-1300.5903770818
 21
651.9716639419
 31
0.0
  0
LINE
  5
3B1
330
1F
100
AcDbEntity
  8
SLD-0
100
AcDbLine
 10
-1289.5903766757
 20
664.9619151253999
 30
0.0
 11
-1289.5903766757
 21
659.5707793136
 31
0.0
  0
LINE
  5
3B2
330
1F
100
AcDbEntity
  8
SLD-0
100
AcDbLine
 10
-1289.5903766757
 20
654.7952849765
 30
0.0
 11
-1289.5903766757
 21
641.9619132181
 31
0.0
  0
LINE
  5
3B4
330
1F
100
AcDbEntity
  8
SLD-0
100
AcDbLine
 10
-1300.5903770818
 20
665.9130413433
 30
0.0
 11
-1300.5903770818
 21
654.3221731086
 31
0.0
  0
LINE
  5
3B5
330
1F
100
AcDbEntity
  8
SLD-0
100
AcDbLine
 10
-1300.5903770818
 20
666.7752374311
 30
0.0
 11
-1300.5903770818
 21
665.9130413433
 31
0.0
  0
LINE
  5
3B6
330
1F
100
AcDbEntity
  8
SLD-0
100
AcDbLine
 10
-1300.5903770818
 20
640.7643515964
 30
0.0
 11
-1300.5903770818
 21
639.9770636459
 31
0.0
  0
LWPOLYLINE
  5
3B7
330
1F
100
AcDbEntity
  8
SLD-0
100
AcDbPolyline
 90
        3
 70
   128
 43
0.0
 10
-1155.4686140871
 20
587.9619155427
 10
-1155.483768568
 20
587.9467536111
 10
-1155.6048405027
 20
587.8256891269999
  0
LINE
  5
3B8
330
1F
100
AcDbEntity
  8
SLD-0
100
AcDbLine
 10
-1155.6048405027
 20
597.9619134565
 30
0.0
 11
-1155.6048405027
 21
587.8256891269999
 31
0.0
  0
LINE
  5
3B9
330
1F
100
AcDbEntity
  8
SLD-0
100
AcDbLine
 10
-1184.8323953009
 20
597.9619134565
 30
0.0
 11
-1155.6048405027
 21
597.9619134565
 31
0.0
  0
LINE
  5
3BA
330
1F
100
AcDbEntity
  8
SLD-0
100
AcDbLine
 10
-1184.8323953009
 20
587.8256891269999
 30
0.0
 11
-1184.8323953009
 21
597.9619134565
 31
0.0
  0
LINE
  5
3BB
330
1F
100
AcDbEntity
  8
SLD-0
100
AcDbLine
 10
-1184.8323953009
 20
587.8256891269999
 30
0.0
 11
-1184.9686217165
 21
587.9619155427
 31
0.0
  0
LINE
  5
3BC
330
1F
100
AcDbEntity
  8
SLD-0
100
AcDbLine
 10
-1183.9686196899
 20
600.9619120855999
 30
0.0
 11
-1156.4686161137
 21
600.9619120855999
 31
0.0
  0
LINE
  5
3BD
330
1F
100
AcDbEntity
  8
SLD-0
100
AcDbLine
 10
-1184.7186174846
 20
565.9619156618998
 30
0.0
 11
-1155.7186257696
 21
565.9619156618998
 31
0.0
  0
LINE
  5
3BE
330
1F
100
AcDbEntity
  8
SLD-0
100
AcDbLine
 10
-1163.1717097616
 20
565.9619156618998
 30
0.0
 11
-1163.1717097616
 21
580.9619162579
 31
0.0
  0
LINE
  5
3BF
330
1F
100
AcDbEntity
  8
SLD-0
100
AcDbLine
 10
-1177.2655409431
 20
580.9619162579
 30
0.0
 11
-1177.2655409431
 21
565.9619156618998
 31
0.0
  0
LINE
  5
3C0
330
1F
100
AcDbEntity
  8
SLD-0
100
AcDbLine
 10
-1177.2655409431
 20
580.9619162579
 30
0.0
 11
-1163.1717097616
 21
580.9619162579
 31
0.0
  0
LINE
  5
3C1
330
1F
100
AcDbEntity
  8
SLD-0
100
AcDbLine
 10
-1179.1676443672
 20
565.9619156618998
 30
0.0
 11
-1179.1676443672
 21
580.9619162579
 31
0.0
  0
LINE
  5
3C2
330
1F
100
AcDbEntity
  8
SLD-0
100
AcDbLine
 10
-1179.1676443672
 20
580.9619162579
 30
0.0
 11
-1177.2655409431
 21
580.9619162579
 31
0.0
  0
LINE
  5
3C3
330
1F
100
AcDbEntity
  8
SLD-0
100
AcDbLine
 10
-1161.2695914364
 20
580.9619162579
 30
0.0
 11
-1161.2695914364
 21
565.9619156618998
 31
0.0
  0
LINE
  5
3C4
330
1F
100
AcDbEntity
  8
SLD-0
100
AcDbLine
 10
-1163.1717097616
 20
580.9619162579
 30
0.0
 11
-1161.2695914364
 21
580.9619162579
 31
0.0
  0
LINE
  5
3C6
330
1F
100
AcDbEntity
  8
SLD-0
100
AcDbLine
 10
-1158.8938695049
 20
591.9619161983
 30
0.0
 11
-1158.8938695049
 21
585.9619114894999
 31
0.0
  0
LINE
  5
3C7
330
1F
100
AcDbEntity
  8
SLD-0
100
AcDbLine
 10
-1181.5433737492
 20
585.9619114894999
 30
0.0
 11
-1181.5433737492
 21
591.9619161983
 31
0.0
  0
LINE
  5
3C8
330
1F
100
AcDbEntity
  8
SLD-0
100
AcDbLine
 10
-1183.5228812551
 20
580.9619162579
 30
0.0
 11
-1183.5228812551
 21
565.9619156618998
 31
0.0
  0
LINE
  5
3C9
330
1F
100
AcDbEntity
  8
SLD-0
100
AcDbLine
 10
-1183.5228812551
 20
580.9619162579
 30
0.0
 11
-1179.1676443672
 21
580.9619162579
 31
0.0
  0
LINE
  5
3CA
330
1F
100
AcDbEntity
  8
SLD-0
100
AcDbLine
 10
-1156.9143545484
 20
565.9619156618998
 30
0.0
 11
-1156.9143545484
 21
580.9619162579
 31
0.0
  0
LINE
  5
3CB
330
1F
100
AcDbEntity
  8
SLD-0
100
AcDbLine
 10
-1161.2695914364
 20
580.9619162579
 30
0.0
 11
-1156.9143545484
 21
580.9619162579
 31
0.0
  0
LINE
  5
3CC
330
1F
100
AcDbEntity
  8
SLD-0
100
AcDbLine
 10
-1181.4686220741
 20
591.9619161983
 30
0.0
 11
-1181.4686220741
 21
597.9619134565
 31
0.0
  0
LINE
  5
3CD
330
1F
100
AcDbEntity
  8
SLD-0
100
AcDbLine
 10
-1181.5433737492
 20
585.9619114894999
 30
0.0
 11
-1182.9686176634
 21
585.9619114894999
 31
0.0
  0
LINE
  5
3CE
330
1F
100
AcDbEntity
  8
SLD-0
100
AcDbLine
 10
-1184.8323953009
 20
587.8256891269999
 30
0.0
 11
-1182.9686176634
 21
585.9619114894999
 31
0.0
  0
LINE
  5
3CF
330
1F
100
AcDbEntity
  8
SLD-0
100
AcDbLine
 10
-1157.4686181402
 20
585.9619114894999
 30
0.0
 11
-1155.6048405027
 21
587.8256891269999
 31
0.0
  0
LINE
  5
3D0
330
1F
100
AcDbEntity
  8
SLD-0
100
AcDbLine
 10
-1158.9686137295
 20
591.9619161983
 30
0.0
 11
-1158.9686137295
 21
597.9619134565
 31
0.0
  0
LINE
  5
3D1
330
1F
100
AcDbEntity
  8
SLD-0
100
AcDbLine
 10
-1157.4686181402
 20
585.9619114894999
 30
0.0
 11
-1158.8938695049
 21
585.9619114894999
 31
0.0
  0
LINE
  5
3D2
330
1F
100
AcDbEntity
  8
SLD-0
100
AcDbLine
 10
-1183.620766983
 20
580.9619162579
 30
0.0
 11
-1183.5228812551
 21
580.9619162579
 31
0.0
  0
LINE
  5
3D3
330
1F
100
AcDbEntity
  8
SLD-0
100
AcDbLine
 10
-1156.9143545484
 20
580.9619162579
 30
0.0
 11
-1156.8164688206
 21
580.9619162579
 31
0.0
  0
LINE
  5
400
330
1F
100
AcDbEntity
  8
SLD-0
100
AcDbLine
 10
-1085.718618021
 20
288.4619195362
 30
0.0
 11
-1085.718618021
 21
265.9619111915
 31
0.0
  0
LINE
  5
401
330
1F
100
AcDbEntity
  8
SLD-0
100
AcDbLine
 10
-1085.718618021
 20
265.9619111915
 30
0.0
 11
-1088.2186156368
 21
265.9619111915
 31
0.0
  0
LINE
  5
402
330
1F
100
AcDbEntity
  8
SLD-0
100
AcDbLine
 10
-1088.2186156368
 20
288.4619195362
 30
0.0
 11
-1088.2186156368
 21
265.9619111915
 31
0.0
  0
LINE
  5
403
330
1F
100
AcDbEntity
  8
SLD-0
100
AcDbLine
 10
-1088.2186156368
 20
288.4619195362
 30
0.0
 11
-1085.718618021
 21
288.4619195362
 31
0.0
  0
LINE
  5
404
330
1F
100
AcDbEntity
  8
SLD-0
100
AcDbLine
 10
-1545.2186179018
 20
288.4619195362
 30
0.0
 11
-1545.2186179018
 21
265.9619111915
 31
0.0
  0
LINE
  5
405
330
1F
100
AcDbEntity
  8
SLD-0
100
AcDbLine
 10
-1545.2186179018
 20
288.4619195362
 30
0.0
 11
-1088.2186156368
 21
288.4619195362
 31
0.0
  0
LINE
  5
406
330
1F
100
AcDbEntity
  8
SLD-0
100
AcDbLine
 10
-1545.2186179018
 20
265.9619111915
 30
0.0
 11
-1088.2186156368
 21
265.9619111915
 31
0.0
  0
LINE
  5
407
330
1F
100
AcDbEntity
  8
SLD-0
100
AcDbLine
 10
-1545.2186179018
 20
290.961917152
 30
0.0
 11
-1545.2186179018
 21
288.4619195362
 31
0.0
  0
LINE
  5
408
330
1F
100
AcDbEntity
  8
SLD-0
100
AcDbLine
 10
-1545.2186179018
 20
290.961917152
 30
0.0
 11
-1088.2186156368
 21
290.961917152
 31
0.0
  0
LINE
  5
409
330
1F
100
AcDbEntity
  8
SLD-0
100
AcDbLine
 10
-1088.2186156368
 20
290.961917152
 30
0.0
 11
-1088.2186156368
 21
288.4619195362
 31
0.0
  0
LINE
  5
40A
330
1F
100
AcDbEntity
  8
SLD-0
100
AcDbLine
 10
-1545.2186179018
 20
265.9619111915
 30
0.0
 11
-1547.7186155176
 21
265.9619111915
 31
0.0
  0
LINE
  5
40B
330
1F
100
AcDbEntity
  8
SLD-0
100
AcDbLine
 10
-1547.7186155176
 20
265.9619111915
 30
0.0
 11
-1547.7186155176
 21
288.4619195362
 31
0.0
  0
LINE
  5
40C
330
1F
100
AcDbEntity
  8
SLD-0
100
AcDbLine
 10
-1547.7186155176
 20
288.4619195362
 30
0.0
 11
-1545.2186179018
 21
288.4619195362
 31
0.0
  0
LINE
  5
40D
330
1F
100
AcDbEntity
  8
SLD-0
100
AcDbLine
 10
-1084.3186241245
 20
290.961917152
 30
0.0
 11
-1088.2186156368
 21
290.961917152
 31
0.0
  0
LINE
  5
40E
330
1F
100
AcDbEntity
  8
SLD-0
100
AcDbLine
 10
-1084.3186241245
 20
290.961917152
 30
0.0
 11
-1084.3186241245
 21
289.4619066616
 31
0.0
  0
LINE
  5
40F
330
1F
100
AcDbEntity
  8
SLD-0
100
AcDbLine
 10
-1084.3186241245
 20
289.4619066616
 30
0.0
 11
-1088.2186156368
 21
289.4619066616
 31
0.0
  0
LINE
  5
410
330
1F
100
AcDbEntity
  8
SLD-0
100
AcDbLine
 10
-1549.1186243152
 20
289.4619066616
 30
0.0
 11
-1549.1186243152
 21
290.961917152
 31
0.0
  0
LINE
  5
411
330
1F
100
AcDbEntity
  8
SLD-0
100
AcDbLine
 10
-1549.1186243152
 20
289.4619066616
 30
0.0
 11
-1545.2186179018
 21
289.4619066616
 31
0.0
  0
LINE
  5
412
330
1F
100
AcDbEntity
  8
SLD-0
100
AcDbLine
 10
-1549.1186243152
 20
290.961917152
 30
0.0
 11
-1545.2186179018
 21
290.961917152
 31
0.0
  0
LINE
  5
413
330
1F
100
AcDbEntity
  8
SLD-0
100
AcDbLine
 10
-1084.9686127758
 20
824.5621282954997
 30
0.0
 11
-1333.3686192191
 21
824.5621282954997
 31
0.0
  0
LINE
  5
414
330
1F
100
AcDbEntity
  8
SLD-0
100
AcDbLine
 10
-1070.6266027546
 20
819.342042913
 30
0.0
 11
-1347.7106404161
 21
819.342042913
 31
0.0
  0
LINE
  5
415
330
1F
100
AcDbEntity
  8
SLD-0
100
AcDbLine
 10
-1070.9686142063
 20
818.4023458858
 30
0.0
 11
-1347.3686177885
 21
818.4023458858
 31
0.0
  0
LINE
  5
416
330
1F
100
AcDbEntity
  8
SLD-0
100
AcDbLine
 10
-1077.16861485
 20
750.5619187255
 30
0.0
 11
-1341.1686171448
 21
750.5619187255
 31
0.0
  0
LINE
  5
417
330
1F
100
AcDbEntity
  8
SLD-0
100
AcDbLine
 10
-1084.1686141348
 20
794.6442325016001
 30
0.0
 11
-1334.1686197227
 21
794.6442325016001
 31
0.0
  0
LINE
  5
418
330
1F
100
AcDbEntity
  8
SLD-0
100
AcDbLine
 10
-1084.1686141348
 20
799.8596091171
 30
0.0
 11
-1334.1686197227
 21
799.8596091171
 31
0.0
  0
LINE
  5
419
330
1F
100
AcDbEntity
  8
SLD-0
100
AcDbLine
 10
-1084.1686141348
 20
824.8619098563998
 30
0.0
 11
-1334.1686197227
 21
824.8619098563998
 31
0.0
  0
LINE
  5
41A
330
1F
100
AcDbEntity
  8
SLD-0
100
AcDbLine
 10
-1084.1686141348
 20
809.4726164241
 30
0.0
 11
-1334.1686197227
 21
809.4726164241
 31
0.0
  0
LINE
  5
41B
330
1F
100
AcDbEntity
  8
SLD-0
100
AcDbLine
 10
-1085.9686148023
 20
812.0432753462999
 30
0.0
 11
-1332.3686190551
 21
812.0432753462999
 31
0.0
  0
ARC
  5
483
330
1F
100
AcDbEntity
  8
SLD-0
100
AcDbCircle
 10
-1103.2186188608
 20
435.4619134158
 30
0.0
 40
1.00000000000046
100
AcDbArc
 50
270.0
 51
272.7398047301
  0
LINE
  5
484
330
1F
100
AcDbEntity
  8
SLD-0
100
AcDbLine
 10
-1142.7186143255
 20
434.4619136651
 30
0.0
 11
-1103.2186162329
 21
434.4619136651
 31
0.0
  0
LINE
  5
486
330
1F
100
AcDbEntity
  8
SLD-0
100
AcDbLine
 10
-1103.2186162329
 20
564.461912622
 30
0.0
 11
-1152.7186196899
 21
564.461912622
 31
0.0
  0
ARC
  5
487
330
1F
100
AcDbEntity
  8
SLD-0
100
AcDbCircle
 10
-1103.2186188608
 20
563.4619134158
 30
0.0
 40
1.000000000000152
100
AcDbArc
 50
87.26019526990001
 51
90.0
  0
LINE
  5
489
330
1F
100
AcDbEntity
  8
SLD-0
100
AcDbLine
 10
-1192.2186177826
 20
434.4619136651
 30
0.0
 11
-1142.7186143255
 21
434.4619136651
 31
0.0
  0
ARC
  5
48A
330
1F
100
AcDbEntity
  8
SLD-0
100
AcDbCircle
 10
-1192.2186188608
 20
435.4619134158
 30
0.0
 40
1.000000000000242
100
AcDbArc
 50
267.2601952699001
 51
270.0
  0
ARC
  5
48E
330
1F
100
AcDbEntity
  8
SLD-0
100
AcDbCircle
 10
-1192.2186188608
 20
563.4619134158
 30
0.0
 40
1.000000000000152
100
AcDbArc
 50
90.0
 51
92.73980473010003
  0
LINE
  5
48F
330
1F
100
AcDbEntity
  8
SLD-0
100
AcDbLine
 10
-1152.7186196899
 20
564.461912622
 30
0.0
 11
-1192.2186177826
 21
564.461912622
 31
0.0
  0
ARC
  5
4A9
330
1F
100
AcDbEntity
  8
SLD-0
100
AcDbCircle
 10
-1192.2186188608
 20
435.4619134158
 30
0.0
 40
1.00000000000004
100
AcDbArc
 50
180.0
 51
182.7398047301
  0
LINE
  5
4AA
330
1F
100
AcDbEntity
  8
SLD-0
100
AcDbLine
 10
-1193.2186198091
 20
563.4619105955001
 30
0.0
 11
-1193.2186198091
 21
435.4619119664
 31
0.0
  0
ARC
  5
4AB
330
1F
100
AcDbEntity
  8
SLD-0
100
AcDbCircle
 10
-1192.2186188608
 20
563.4619134158
 30
0.0
 40
1.000000000000039
100
AcDbArc
 50
177.2601952699
 51
180.0
  0
ARC
  5
4B5
330
1F
100
AcDbEntity
  8
SLD-0
100
AcDbCircle
 10
-1103.2186188608
 20
563.4619134158
 30
0.0
 40
1.00000000000025
100
AcDbArc
 50
360.0
 51
2.739804730099999
  0
LINE
  5
4B6
330
1F
100
AcDbEntity
  8
SLD-0
100
AcDbLine
 10
-1102.2186142063
 20
507.991274481
 30
0.0
 11
-1102.2186142063
 21
563.4619105955001
 31
0.0
  0
LINE
  5
4B7
330
1F
100
AcDbEntity
  8
SLD-0
100
AcDbLine
 10
-1102.2186142063
 20
435.4619119664
 30
0.0
 11
-1102.2186142063
 21
490.9325527374998
 31
0.0
  0
ARC
  5
4B8
330
1F
100
AcDbEntity
  8
SLD-0
100
AcDbCircle
 10
-1103.2186188608
 20
435.4619134158
 30
0.0
 40
1.000000000000057
100
AcDbArc
 50
357.2601952698999
 51
360.0
  0
ARC
  5
4BC
330
1F
100
AcDbEntity
  8
SLD-0
100
AcDbCircle
 10
-1192.2186188608
 20
435.4619134158
 30
0.0
 40
1.000000000000186
100
AcDbArc
 50
182.7398047301
 51
267.2601952699001
  0
ARC
  5
4BD
330
1F
100
AcDbEntity
  8
SLD-0
100
AcDbCircle
 10
-1103.2186188608
 20
435.4619134158
 30
0.0
 40
1.000000000000119
100
AcDbArc
 50
272.7398047301
 51
357.2601952698999
  0
ARC
  5
4BE
330
1F
100
AcDbEntity
  8
SLD-0
100
AcDbCircle
 10
-1103.2186188608
 20
563.4619134158
 30
0.0
 40
1.00000000000025
100
AcDbArc
 50
2.739804730099999
 51
87.26019526990001
  0
ARC
  5
4BF
330
1F
100
AcDbEntity
  8
SLD-0
100
AcDbCircle
 10
-1192.2186188608
 20
563.4619134158
 30
0.0
 40
1.000000000000152
100
AcDbArc
 50
92.73980473010003
 51
177.2601952699
  0
LINE
  5
4D7
330
1F
100
AcDbEntity
  8
SLD-0
100
AcDbLine
 10
-1100.2186250543
 20
518.2435546417998
 30
0.0
 11
-1102.2186142063
 21
518.2435546417998
 31
0.0
  0
LINE
  5
4D8
330
1F
100
AcDbEntity
  8
SLD-0
100
AcDbLine
 10
-1099.7186165905
 20
509.5163300980998
 30
0.0
 11
-1099.7186165905
 21
484.9102810373
 31
0.0
  0
LINE
  5
4D9
330
1F
100
AcDbEntity
  8
SLD-0
100
AcDbLine
 10
-1099.7186165905
 20
484.9102810373
 30
0.0
 11
-1102.2186142063
 21
484.9102810373
 31
0.0
  0
LINE
  5
4DA
330
1F
100
AcDbEntity
  8
SLD-0
100
AcDbLine
 10
-1102.2186142063
 20
507.991274481
 30
0.0
 11
-1102.2186142063
 21
490.9325527374998
 31
0.0
  0
LINE
  5
4DD
330
1F
100
AcDbEntity
  8
SLD-0
100
AcDbLine
 10
-1082.2186183786
 20
538.2555533547996
 30
0.0
 11
-1100.2186250543
 21
538.2555533547996
 31
0.0
  0
LINE
  5
4DE
330
1F
100
AcDbEntity
  8
SLD-0
100
AcDbLine
 10
-1082.2186183786
 20
516.255553474
 30
0.0
 11
-1100.2186250543
 21
516.255553474
 31
0.0
  0
LINE
  5
4DF
330
1F
100
AcDbEntity
  8
SLD-0
100
AcDbLine
 10
-1100.2186250543
 20
516.255553474
 30
0.0
 11
-1100.2186250543
 21
538.2555533547996
 31
0.0
  0
LINE
  5
4E0
330
1F
100
AcDbEntity
  8
SLD-0
100
AcDbLine
 10
-1082.2186183786
 20
516.255553474
 30
0.0
 11
-1082.2186183786
 21
538.2555533547996
 31
0.0
  0
LINE
  5
4E1
330
1F
100
AcDbEntity
  8
SLD-0
100
AcDbLine
 10
-1099.7186165905
 20
507.2699223060998
 30
0.0
 11
-1097.2186189747
 21
507.2699223060998
 31
0.0
  0
LINE
  5
4E2
330
1F
100
AcDbEntity
  8
SLD-0
100
AcDbLine
 10
-1097.2186189747
 20
507.2699223060998
 30
0.0
 11
-1097.2186189747
 21
509.5163300980998
 31
0.0
  0
LINE
  5
4E3
330
1F
100
AcDbEntity
  8
SLD-0
100
AcDbLine
 10
-1097.2186189747
 20
509.5163300980998
 30
0.0
 11
-1100.2186250543
 21
509.5163300980998
 31
0.0
  0
LINE
  5
4E4
330
1F
100
AcDbEntity
  8
SLD-0
100
AcDbLine
 10
-1100.2186250543
 20
509.5163300980998
 30
0.0
 11
-1100.2186250543
 21
516.255553474
 31
0.0
  0
LINE
  5
4E5
330
1F
100
AcDbEntity
  8
SLD-0
100
AcDbLine
 10
-1082.2186183786
 20
507.9443171968
 30
0.0
 11
-1086.6415512419
 21
504.8679743309
 31
0.0
  0
LINE
  5
4E6
330
1F
100
AcDbEntity
  8
SLD-0
100
AcDbLine
 10
-1082.2186183786
 20
507.9443171968
 30
0.0
 11
-1082.2186183786
 21
516.255553474
 31
0.0
  0
LINE
  5
4E7
330
1F
100
AcDbEntity
  8
SLD-0
100
AcDbLine
 10
-1099.7186165905
 20
508.0973297705
 30
0.0
 11
-1097.2186189747
 21
508.0973297705
 31
0.0
  0
LINE
  5
4E8
330
1F
100
AcDbEntity
  8
SLD-0
100
AcDbLine
 10
-1087.2186136103
 20
503.7861965943998
 30
0.0
 11
-1087.2186136103
 21
482.4619133837999
 31
0.0
  0
LINE
  5
4E9
330
1F
100
AcDbEntity
  8
SLD-0
100
AcDbLine
 10
-1100.2186250543
 20
482.4619133837999
 30
0.0
 11
-1100.2186250543
 21
484.9102810373
 31
0.0
  0
SPLINE
  5
4EA
330
1F
100
AcDbEntity
  8
SLD-0
100
AcDbSpline
210
0.0
220
0.0
230
1.0
 70
     8
 71
     3
 72
    11
 73
     7
 74
     0
 42
0.000000001
 43
0.0000000001
 40
0.0
 40
0.0
 40
0.0
 40
0.0
 40
0.3673703222635645
 40
0.6221706814957244
 40
0.8302696312770871
 40
1.0
 40
1.0
 40
1.0
 40
1.0
 10
-1086.641551241863
 20
504.8679743309498
 30
0.0
 10
-1086.745943693796
 20
504.7800963424776
 30
0.0
 10
-1086.922740563403
 20
504.6312680222163
 30
0.0
 10
-1087.106998832709
 20
504.3155496007371
 30
0.0
 10
-1087.202954701484
 20
504.035421325969
 30
0.0
 10
-1087.213759724147
 20
503.8634502830348
 30
0.0
 10
-1087.218613610255
 20
503.7861965944053
 30
0.0
  0
LINE
  5
4EB
330
1F
100
AcDbEntity
  8
SLD-0
100
AcDbLine
 10
-1102.2186142063
 20
484.6897969369996
 30
0.0
 11
-1100.2186250543
 21
484.6897969369996
 31
0.0
  0
CIRCLE
  5
592
330
1F
100
AcDbEntity
  8
SLD-0
100
AcDbCircle
 10
-1368.2186188608
 20
545.4619134158
 30
0.0
 40
64.14359353819373
  0
CIRCLE
  5
593
330
1F
100
AcDbEntity
  8
SLD-0
100
AcDbCircle
 10
-1368.2186188608
 20
545.4619134158
 30
0.0
 40
66.87564434701778
  0
CIRCLE
  5
594
330
1F
100
AcDbEntity
  8
SLD-0
100
AcDbCircle
 10
-1368.2186188608
 20
545.4619134158
 30
0.0
 40
60.50961894323361
  0
CIRCLE
  5
595
330
1F
100
AcDbEntity
  8
SLD-0
100
AcDbCircle
 10
-1368.2186188608
 20
545.4619134158
 30
0.0
 40
78.46410160913331
  0
CIRCLE
  5
714
330
1F
100
AcDbEntity
  8
SLD-0
100
AcDbCircle
 10
-1368.2186188608
 20
545.4619134158
 30
0.0
 40
78.9999999999999
  0
ARC
  5
715
330
1F
100
AcDbEntity
  8
SLD-0
100
AcDbCircle
 10
-1368.2186188608
 20
545.4619134158
 30
0.0
 40
100.0000000000002
100
AcDbArc
 50
118.7761484024
 51
180.0
  0
ARC
  5
716
330
1F
100
AcDbEntity
  8
SLD-0
100
AcDbCircle
 10
-1368.2186188608
 20
545.4619134158
 30
0.0
 40
100.0000000000002
100
AcDbArc
 50
180.0
 51
61.0625656434
  0
LINE
  5
717
330
1F
100
AcDbEntity
  8
SLD-0
100
AcDbLine
 10
-1315.0903771302
 20
670.4619188209
 30
0.0
 11
-1315.5641399926
 21
678.9896447558999
 31
0.0
  0
LINE
  5
718
330
1F
100
AcDbEntity
  8
SLD-0
100
AcDbLine
 10
-1315.0903771302
 20
670.4619188209
 30
0.0
 11
-1319.0842180183
 21
670.4619188209
 31
0.0
  0
LINE
  5
71A
330
1F
100
AcDbEntity
  8
SLD-0
100
AcDbLine
 10
-1315.5641399926
 20
678.9896447558999
 30
0.0
 11
-1315.7163208952
 21
678.9950389762
 31
0.0
  0
LINE
  5
71B
330
1F
100
AcDbEntity
  8
SLD-0
100
AcDbLine
 10
-1319.557981812
 20
678.9896447558999
 30
0.0
 11
-1416.6227739906
 21
678.9896447558999
 31
0.0
  0
LINE
  5
71C
330
1F
100
AcDbEntity
  8
SLD-0
100
AcDbLine
 10
-1319.0842180183
 20
670.4619188209
 30
0.0
 11
-1417.096534059
 21
670.4619188209
 31
0.0
  0
LINE
  5
71E
330
1F
100
AcDbEntity
  8
SLD-0
100
AcDbLine
 10
-1417.096534059
 20
670.4619188209
 30
0.0
 11
-1421.0903805351
 21
670.4619188209
 31
0.0
  0
LINE
  5
71F
330
1F
100
AcDbEntity
  8
SLD-0
100
AcDbLine
 10
-1420.6166130161
 20
678.9896447558999
 30
0.0
 11
-1421.0903805351
 21
670.4619188209
 31
0.0
  0
LINE
  5
720
330
1F
100
AcDbEntity
  8
SLD-0
100
AcDbLine
 10
-1420.4644349074
 20
678.9950389762
 30
0.0
 11
-1420.6166130161
 21
678.9896447558999
 31
0.0
  0
LINE
  5
721
330
1F
100
AcDbEntity
  8
SLD-0
100
AcDbLine
 10
-1319.557981812
 20
679.4619072576
 30
0.0
 11
-1416.6227739906
 21
679.4619072576
 31
0.0
  0
SPLINE
  5
724
330
1F
100
AcDbEntity
  8
SLD-0
100
AcDbSpline
210
0.0
220
0.0
230
1.0
 70
    24
 71
     3
 72
    13
 73
     9
 74
     0
 42
0.000000001
 43
0.0000000001
 40
0.0
 40
0.0
 40
0.0
 40
0.0
 40
0.2741807362358156
 40
0.4232618780140627
 40
0.572198066061751
 40
0.7212409902239997
 40
0.8702104576790908
 40
1.0
 40
1.0
 40
1.0
 40
1.0
 10
-1416.622773990619
 20
679.4619072576047
 30
0.0
 10
-1417.062631470545
 20
679.4619072576047
 30
0.0
 10
-1417.741654021756
 20
679.4619072576047
 30
0.0
 10
-1418.555818278425
 20
679.4619072576047
 30
0.0
 10
-1419.113253081216
 20
679.4619072576047
 30
0.0
 10
-1419.558688797053
 20
679.4619072576047
 30
0.0
 10
-1419.904753507995
 20
679.4619072576047
 30
0.0
 10
-1419.961711527869
 20
679.4619072576047
 30
0.0
 10
-1419.988231048572
 20
679.4619072576047
 30
0.0
  0
SPLINE
  5
725
330
1F
100
AcDbEntity
  8
SLD-0
100
AcDbSpline
210
0.0
220
0.0
230
1.0
 70
    24
 71
     3
 72
    13
 73
     9
 74
     0
 42
0.000000001
 43
0.0000000001
 40
0.0
 40
0.0
 40
0.0
 40
0.0
 40
0.1298338703811081
 40
0.2789071976894746
 40
0.4278313206915195
 40
0.5768684917420758
 40
0.725832328276484
 40
1.0
 40
1.0
 40
1.0
 40
1.0
 10
-1316.192480050611
 20
679.4619072576047
 30
0.0
 10
-1316.219009445322
 20
679.4619072576047
 30
0.0
 10
-1316.275999498177
 20
679.4619072576047
 30
0.0
 10
-1316.622164836186
 20
679.4619072576047
 30
0.0
 10
-1317.067743384054
 20
679.4619072576047
 30
0.0
 10
-1317.625108859661
 20
679.4619072576047
 30
0.0
 10
-1318.439264663158
 20
679.4619072576047
 30
0.0
 10
-1319.118118859625
 20
679.4619072576047
 30
0.0
 10
-1319.557981812048
 20
679.4619072576047
 30
0.0
  0
LINE
  5
726
330
1F
100
AcDbEntity
  8
SLD-0
100
AcDbLine
 10
-1320.0899905196
 20
629.4672001500998
 30
0.0
 11
-1317.0903765267
 21
670.4619188209
 31
0.0
  0
SPLINE
  5
727
330
1F
100
AcDbEntity
  8
SLD-0
100
AcDbSpline
210
0.0
220
0.0
230
1.0
 70
     8
 71
     3
 72
    12
 73
     8
 74
     0
 42
0.000000001
 43
0.0000000001
 40
0.0
 40
0.0
 40
0.0
 40
0.0
 40
0.2115726898335266
 40
0.422897583283636
 40
0.637796819865252
 40
0.8528715147223817
 40
1.0
 40
1.0
 40
1.0
 40
1.0
 10
-1324.086451218116
 20
629.4668276210309
 30
0.0
 10
-1323.64390134768
 20
629.4687795674718
 30
0.0
 10
-1322.759319926338
 20
629.4726811742117
 30
0.0
 10
-1321.571444167435
 20
629.4207438356921
 30
0.0
 10
-1320.660842346148
 20
629.4297285540027
 30
0.0
 10
-1320.161306894576
 20
629.4827178969192
 30
0.0
 10
-1320.110591379369
 20
629.4716826960033
 30
0.0
 10
-1320.089990519571
 20
629.4672001500606
 30
0.0
  0
ELLIPSE
  5
72A
330
1F
100
AcDbEntity
  8
SLD-0
100
AcDbEllipse
 10
-1319.6552342795
 20
638.3823374245999
 30
0.0
 11
7.556942312357477
 21
7.898674806709548
 31
0.0
210
0.0
220
0.0
230
1.0
 40
0.548564132
 41
3.624906973534137
 42
3.658115648851102
  0
LINE
  5
72B
330
1F
100
AcDbEntity
  8
SLD-0
100
AcDbLine
 10
-1411.847734139
 20
629.4619102378
 30
0.0
 11
-1324.3330170071
 21
629.4619102378
 31
0.0
  0
LINE
  5
72C
330
1F
100
AcDbEntity
  8
SLD-0
100
AcDbLine
 10
-1411.847734139
 20
629.4619102378
 30
0.0
 11
-1412.0943036532
 21
629.466827621
 31
0.0
  0
SPLINE
  5
72D
330
1F
100
AcDbEntity
  8
SLD-0
100
AcDbSpline
210
0.0
220
0.0
230
1.0
 70
     8
 71
     3
 72
    12
 73
     8
 74
     0
 42
0.000000001
 43
0.0000000001
 40
0.0
 40
0.0
 40
0.0
 40
0.0
 40
0.2102237731314325
 40
0.4201296928222217
 40
0.6348998838856174
 40
0.8499510721859843
 40
1.0
 40
1.0
 40
1.0
 40
1.0
 10
-1416.090765283096
 20
629.4672001500606
 30
0.0
 10
-1416.048656073639
 20
629.4694382168658
 30
0.0
 10
-1415.964501322869
 20
629.473910966571
 30
0.0
 10
-1415.295556169532
 20
629.4210785973103
 30
0.0
 10
-1414.301977151836
 20
629.4291289290411
 30
0.0
 10
-1413.168849090201
 20
629.4812061982602
 30
0.0
 10
-1412.407289560133
 20
629.4710157101327
 30
0.0
 10
-1412.094303653228
 20
629.4668276210309
 30
0.0
  0
LINE
  5
72E
330
1F
100
AcDbEntity
  8
SLD-0
100
AcDbLine
 10
-1419.090376482
 20
670.4619188209
 30
0.0
 11
-1416.0907652831
 21
629.4672001500998
 31
0.0
  0
LWPOLYLINE
  5
72F
330
1F
100
AcDbEntity
  8
SLD-0
100
AcDbPolyline
 90
        3
 70
   128
 43
0.0
 10
-1320.0899905196
 20
629.4672001500998
 10
-1320.0902801609
 20
629.4632364412
 10
-1320.0903770184
 20
629.4619102378
  0
LINE
  5
730
330
1F
100
AcDbEntity
  8
SLD-0
100
AcDbLine
 10
-1326.5045911676
 20
623.0477054018997
 30
0.0
 11
-1320.0903770184
 21
629.4619102378
 31
0.0
  0
SPLINE
  5
731
330
1F
100
AcDbEntity
  8
SLD-0
100
AcDbSpline
210
0.0
220
0.0
230
1.0
 70
     8
 71
     3
 72
    11
 73
     7
 74
     0
 42
0.000000001
 43
0.0000000001
 40
0.0
 40
0.0
 40
0.0
 40
0.0
 40
0.2595506091455114
 40
0.4999989993389073
 40
0.7404414521584374
 40
1.0
 40
1.0
 40
1.0
 40
1.0
 10
-1330.747231156218
 20
623.0477054019452
 30
0.0
 10
-1330.195973812802
 20
622.9849635624012
 30
0.0
 10
-1329.134030167232
 20
622.8640975120695
 30
0.0
 10
-1327.798365274883
 20
622.8120069497986
 30
0.0
 10
-1326.843467372174
 20
622.8641233448071
 30
0.0
 10
-1326.620392773556
 20
622.9849712920857
 30
0.0
 10
-1326.504591167557
 20
623.0477054019452
 30
0.0
  0
SPLINE
  5
734
330
1F
100
AcDbEntity
  8
SLD-0
100
AcDbSpline
210
0.0
220
0.0
230
1.0
 70
     8
 71
     3
 72
    11
 73
     7
 74
     0
 42
0.000000001
 43
0.0000000001
 40
0.0
 40
0.0
 40
0.0
 40
0.0
 40
0.2595501485911387
 40
0.5000004552317459
 40
0.7404343057015254
 40
1.0
 40
1.0
 40
1.0
 40
1.0
 10
-1409.676165566432
 20
623.0477054019452
 30
0.0
 10
-1409.560356499483
 20
622.9849630916472
 30
0.0
 10
-1409.337260552479
 20
622.8640955680432
 30
0.0
 10
-1408.382423159816
 20
622.8120124290357
 30
0.0
 10
-1407.046762544537
 20
622.8641034789895
 30
0.0
 10
-1405.984813458214
 20
622.9849632460968
 30
0.0
 10
-1405.433521852481
 20
623.0477054019452
 30
0.0
  0
LINE
  5
735
330
1F
100
AcDbEntity
  8
SLD-0
100
AcDbLine
 10
-1416.0903778529
 20
629.4619102378
 30
0.0
 11
-1409.6761655664
 21
623.0477054018997
 31
0.0
  0
LWPOLYLINE
  5
736
330
1F
100
AcDbEntity
  8
SLD-0
100
AcDbPolyline
 90
        3
 70
   128
 43
0.0
 10
-1416.0903778529
 20
629.4619102378
 10
-1416.0904747105
 20
629.4632364412
 10
-1416.0907652831
 20
629.4672001500998
  0
SPLINE
  5
746
330
1F
100
AcDbEntity
  8
SLD-0
100
AcDbSpline
210
0.0
220
0.0
230
1.0
 70
    24
 71
     3
 72
    12
 73
     8
 74
     0
 42
0.000000001
 43
0.0000000001
 40
0.0
 40
0.0
 40
0.0
 40
0.0
 40
0.0048733799188013
 40
0.0296660892236486
 40
0.0896241420997813
 40
0.3155404922091283
 40
1.0
 40
1.0
 40
1.0
 40
1.0
 10
-1317.090376526701
 20
670.4619188209058
 30
0.0
 10
-1317.090376526701
 20
670.4466949391757
 30
0.0
 10
-1317.090376526701
 20
670.3540214679382
 30
0.0
 10
-1317.090376526701
 20
669.9472173051176
 30
0.0
 10
-1317.090376526701
 20
668.5826812211765
 30
0.0
 10
-1317.090376526701
 20
664.1212281040387
 30
0.0
 10
-1317.090376526701
 20
659.956741470566
 30
0.0
 10
-1317.090376526701
 20
656.8257022996426
 30
0.0
  0
SPLINE
  5
749
330
1F
100
AcDbEntity
  8
SLD-0
100
AcDbSpline
210
0.0
220
0.0
230
1.0
 70
     8
 71
     3
 72
    11
 73
     7
 74
     0
 42
0.000000001
 43
0.0000000001
 40
0.0
 40
0.0
 40
0.0
 40
0.0
 40
0.2499971650699386
 40
0.4999936877590704
 40
0.7499990609914104
 40
1.0
 40
1.0
 40
1.0
 40
1.0
 10
-1319.831609972405
 20
632.9984028239728
 30
0.0
 10
-1319.820249420628
 20
633.0602077528752
 30
0.0
 10
-1319.797528346266
 20
633.1838174518691
 30
0.0
 10
-1319.680553617271
 20
633.335887188871
 30
0.0
 10
-1319.520354335765
 20
633.4414579926687
 30
0.0
 10
-1319.395412817949
 20
633.4550982672575
 30
0.0
 10
-1319.332942613053
 20
633.4619183440686
 30
0.0
  0
LINE
  5
74C
330
1F
100
AcDbEntity
  8
SLD-0
100
AcDbLine
 10
-1317.0903765267
 20
656.8257022996
 30
0.0
 11
-1317.0903765267
 21
652.5118310352
 31
0.0
  0
LINE
  5
74F
330
1F
100
AcDbEntity
  8
SLD-0
100
AcDbLine
 10
-1317.5903766087
 20
633.4619183441
 30
0.0
 11
-1319.3329426131
 21
633.4619183441
 31
0.0
  0
ARC
  5
750
330
1F
100
AcDbEntity
  8
SLD-0
100
AcDbCircle
 10
-1317.590376914
 20
633.9619134158
 30
0.0
 40
0.5
100
AcDbArc
 50
270.0
 51
0.0
  0
SPLINE
  5
751
330
1F
100
AcDbEntity
  8
SLD-0
100
AcDbSpline
210
0.0
220
0.0
230
1.0
 70
    24
 71
     3
 72
    15
 73
    11
 74
     0
 42
0.000000001
 43
0.0000000001
 40
0.0
 40
0.0
 40
0.0
 40
0.0
 40
0.1170373576590243
 40
0.2406426077935514
 40
0.3690498073559152
 40
0.5000000254663876
 40
0.6309506438312951
 40
0.7593576495023439
 40
0.8829630793836328
 40
1.0
 40
1.0
 40
1.0
 40
1.0
 10
-1317.090376526701
 20
652.5118310351849
 30
0.0
 10
-1317.090376526701
 20
651.3584978660759
 30
0.0
 10
-1317.090376526701
 20
648.9871088752395
 30
0.0
 10
-1317.090376526701
 20
645.5089445950712
 30
0.0
 10
-1317.090376526701
 20
642.1904810815978
 30
0.0
 10
-1317.090376526701
 20
639.2482502257388
 30
0.0
 10
-1317.090376526701
 20
636.8614326588978
 30
0.0
 10
-1317.090376526701
 20
635.1685220498362
 30
0.0
 10
-1317.090376526701
 20
634.1449995135
 30
0.0
 10
-1317.090376526701
 20
634.0218203538747
 30
0.0
 10
-1317.090376526701
 20
633.961911906767
 30
0.0
  0
SPLINE
  5
752
330
1F
100
AcDbEntity
  8
SLD-0
100
AcDbSpline
210
0.0
220
0.0
230
1.0
 70
    24
 71
     3
 72
    11
 73
     7
 74
     0
 42
0.000000001
 43
0.0000000001
 40
0.0
 40
0.0
 40
0.0
 40
0.0
 40
0.2500028482022469
 40
0.5000072580647558
 40
0.7500052208020308
 40
1.0
 40
1.0
 40
1.0
 40
1.0
 10
-1405.433521852481
 20
623.0477054019452
 30
0.0
 10
-1405.433521852481
 20
622.9603306789429
 30
0.0
 10
-1405.433521852481
 20
622.7855806871457
 30
0.0
 10
-1405.433521852481
 20
622.6038214927978
 30
0.0
 10
-1405.433521852481
 20
622.484079244653
 30
0.0
 10
-1405.433521852481
 20
622.4693003522463
 30
0.0
 10
-1405.433521852481
 20
622.4619109530927
 30
0.0
  0
SPLINE
  5
753
330
1F
100
AcDbEntity
  8
SLD-0
100
AcDbSpline
210
0.0
220
0.0
230
1.0
 70
    24
 71
     3
 72
    11
 73
     7
 74
     0
 42
0.000000001
 43
0.0000000001
 40
0.0
 40
0.0
 40
0.0
 40
0.0
 40
0.2500028482022469
 40
0.5000072580647558
 40
0.7500052208020308
 40
1.0
 40
1.0
 40
1.0
 40
1.0
 10
-1330.747231156218
 20
623.0477054019452
 30
0.0
 10
-1330.747231156218
 20
622.9603306789429
 30
0.0
 10
-1330.747231156218
 20
622.7855806871457
 30
0.0
 10
-1330.747231156218
 20
622.6038214927978
 30
0.0
 10
-1330.747231156218
 20
622.484079244653
 30
0.0
 10
-1330.747231156218
 20
622.4693003522463
 30
0.0
 10
-1330.747231156218
 20
622.4619109530927
 30
0.0
  0
SPLINE
  5
754
330
1F
100
AcDbEntity
  8
SLD-0
100
AcDbSpline
210
0.0
220
0.0
230
1.0
 70
    24
 71
     3
 72
    13
 73
     9
 74
     0
 42
0.000000001
 43
0.0000000001
 40
0.0
 40
0.0
 40
0.0
 40
0.0
 40
0.258926971364922
 40
0.3815490619437764
 40
0.4999987951410124
 40
0.6185664432026206
 40
0.7410727655215771
 40
1.0
 40
1.0
 40
1.0
 40
1.0
 10
-1408.261948511588
 20
622.4619109530927
 30
0.0
 10
-1408.231955413949
 20
622.4619109530927
 30
0.0
 10
-1408.187758248205
 20
622.4619109530927
 30
0.0
 10
-1407.856259646858
 20
622.4619109530927
 30
0.0
 10
-1407.518921242432
 20
622.4619109530927
 30
0.0
 10
-1407.090853671916
 20
622.4619109530927
 30
0.0
 10
-1406.405660981419
 20
622.4619109530927
 30
0.0
 10
-1405.826602284034
 20
622.4619109530927
 30
0.0
 10
-1405.433521852481
 20
622.4619109530927
 30
0.0
  0
SPLINE
  5
755
330
1F
100
AcDbEntity
  8
SLD-0
100
AcDbSpline
210
0.0
220
0.0
230
1.0
 70
     8
 71
     3
 72
    11
 73
     7
 74
     0
 42
0.000000001
 43
0.0000000001
 40
0.0
 40
0.0
 40
0.0
 40
0.0
 40
0.2500015771153953
 40
0.5000005260412582
 40
0.7500017639306791
 40
1.0
 40
1.0
 40
1.0
 40
1.0
 10
-1409.676165566432
 20
623.0477054019452
 30
0.0
 10
-1409.578342415708
 20
622.960331036875
 30
0.0
 10
-1409.382697142645
 20
622.7855832252745
 30
0.0
 10
-1409.031597790447
 20
622.6038179022163
 30
0.0
 10
-1408.654807782721
 20
622.4840797635071
 30
0.0
 10
-1408.392901077833
 20
622.4693005269878
 30
0.0
 10
-1408.261948511588
 20
622.4619109530927
 30
0.0
  0
SPLINE
  5
756
330
1F
100
AcDbEntity
  8
SLD-0
100
AcDbSpline
210
0.0
220
0.0
230
1.0
 70
     8
 71
     3
 72
    11
 73
     7
 74
     0
 42
0.000000001
 43
0.0000000001
 40
0.0
 40
0.0
 40
0.0
 40
0.0
 40
0.249999920355155
 40
0.4999993874420392
 40
0.7499988386733633
 40
1.0
 40
1.0
 40
1.0
 40
1.0
 10
-1327.918804497111
 20
622.4619109530927
 30
0.0
 10
-1327.787851256428
 20
622.4693003233799
 30
0.0
 10
-1327.52594501249
 20
622.484079050557
 30
0.0
 10
-1327.149156164009
 20
622.6038188288463
 30
0.0
 10
-1326.798057916637
 20
622.7855826558894
 30
0.0
 10
-1326.602413640297
 20
622.960330954036
 30
0.0
 10
-1326.504591167557
 20
623.0477054019452
 30
0.0
  0
SPLINE
  5
757
330
1F
100
AcDbEntity
  8
SLD-0
100
AcDbSpline
210
0.0
220
0.0
230
1.0
 70
    24
 71
     3
 72
    13
 73
     9
 74
     0
 42
0.000000001
 43
0.0000000001
 40
0.0
 40
0.0
 40
0.0
 40
0.0
 40
0.2589276480393765
 40
0.3815486544390455
 40
0.5000014139384134
 40
0.6185667446192074
 40
0.7410728910934643
 40
1.0
 40
1.0
 40
1.0
 40
1.0
 10
-1330.747231156218
 20
622.4619109530927
 30
0.0
 10
-1330.354152358874
 20
622.4619109530927
 30
0.0
 10
-1329.774922263708
 20
622.4619109530927
 30
0.0
 10
-1329.089736456699
 20
622.4619109530927
 30
0.0
 10
-1328.661590964557
 20
622.4619109530927
 30
0.0
 10
-1328.324403870239
 20
622.4619109530927
 30
0.0
 10
-1327.992983211504
 20
622.4619109530927
 30
0.0
 10
-1327.948798358585
 20
622.4619109530927
 30
0.0
 10
-1327.918804497111
 20
622.4619109530927
 30
0.0
  0
ARC
  5
790
330
1F
100
AcDbEntity
  8
SLD-0
100
AcDbCircle
 10
-1327.854750051
 20
612.9931119845998
 30
0.0
 40
0.7108866899636547
100
AcDbArc
 50
356.1373623723
 51
122.1285263827
  0
LINE
  5
792
330
1F
100
AcDbEntity
  8
SLD-0
100
AcDbLine
 10
-1409.1051605201
 20
613.0584437747
 30
0.0
 11
-1409.1017034507
 21
613.1363470454997
 31
0.0
  0
ARC
  5
793
330
1F
100
AcDbEntity
  8
SLD-0
100
AcDbCircle
 10
-1408.39142473
 20
613.1069454139
 30
0.0
 40
0.7108866899637195
100
AcDbArc
 50
57.70950589880001
 51
177.6298647251
  0
LINE
  5
7B3
330
1F
100
AcDbEntity
  8
SLD-0
100
AcDbLine
 10
-1328.4725707626
 20
621.8619156976
 30
0.0
 11
-1328.1848516917
 21
613.6227060456997
 31
0.0
  0
LINE
  5
7B4
330
1F
100
AcDbEntity
  8
SLD-0
100
AcDbLine
 10
-1328.4376759684
 20
621.8626458544996
 30
0.0
 11
-1328.4725707626
 21
621.8619156976
 31
0.0
  0
SPLINE
  5
7B5
330
1F
100
AcDbEntity
  8
SLD-0
100
AcDbSpline
210
0.0
220
0.0
230
1.0
 70
     8
 71
     3
 72
    13
 73
     9
 74
     0
 42
0.000000001
 43
0.0000000001
 40
0.0
 40
0.0
 40
0.0
 40
0.0
 40
0.160347558932808
 40
0.2992028313330928
 40
0.511942134609244
 40
0.6416435629627852
 40
0.7660660236800175
 40
1.0
 40
1.0
 40
1.0
 40
1.0
 10
-1327.459211707699
 20
621.4968074460508
 30
0.0
 10
-1327.46572017733
 20
621.5280158099065
 30
0.0
 10
-1327.477864749748
 20
621.5862495048193
 30
0.0
 10
-1327.569611625855
 20
621.6782475169723
 30
0.0
 10
-1327.711076261377
 20
621.7572554653258
 30
0.0
 10
-1327.897455536072
 20
621.8120943144334
 30
0.0
 10
-1328.122346175818
 20
621.8552333588242
 30
0.0
 10
-1328.313131740486
 20
621.859718178243
 30
0.0
 10
-1328.437675968396
 20
621.8626458545209
 30
0.0
  0
LINE
  5
7B6
330
1F
100
AcDbEntity
  8
SLD-0
100
AcDbLine
 10
-1327.1687694496
 20
613.1796349186998
 30
0.0
 11
-1327.4592117077
 21
621.4968074460998
 31
0.0
  0
LINE
  5
7B7
330
1F
100
AcDbEntity
  8
SLD-0
100
AcDbLine
 10
-1409.1016065931
 20
613.1384630103997
 30
0.0
 11
-1408.730254755
 21
621.5062547822
 31
0.0
  0
SPLINE
  5
7B8
330
1F
100
AcDbEntity
  8
SLD-0
100
AcDbSpline
210
0.0
220
0.0
230
1.0
 70
     8
 71
     3
 72
    12
 73
     8
 74
     0
 42
0.000000001
 43
0.0000000001
 40
0.0
 40
0.0
 40
0.0
 40
0.0
 40
0.2335881278478985
 40
0.3577777910356311
 40
0.4872022446129047
 40
0.7491343366825749
 40
1.0
 40
1.0
 40
1.0
 40
1.0
 10
-1407.757812426078
 20
621.8630928893567
 30
0.0
 10
-1407.881065662381
 20
621.8609422728453
 30
0.0
 10
-1408.069847819372
 20
621.8576482577256
 30
0.0
 10
-1408.292639006853
 20
621.8166494369269
 30
0.0
 10
-1408.495678449459
 20
621.7576269689052
 30
0.0
 10
-1408.683608431797
 20
621.6542855272174
 30
0.0
 10
-1408.714931301603
 20
621.5548833142927
 30
0.0
 10
-1408.730254755008
 20
621.5062547822477
 30
0.0
  0
LINE
  5
7B9
330
1F
100
AcDbEntity
  8
SLD-0
100
AcDbLine
 10
-1407.7134814715
 20
621.8619156976
 30
0.0
 11
-1407.757804975499
 21
621.8630928894
 31
0.0
  0
LINE
  5
7BA
330
1F
100
AcDbEntity
  8
SLD-0
100
AcDbLine
 10
-1408.0737989998
 20
613.7429286141999
 30
0.0
 11
-1407.7134814715
 21
621.8619156976
 31
0.0
  0
LINE
  5
7BB
330
1F
100
AcDbEntity
  8
SLD-0
100
AcDbLine
 10
-1407.7134814715
 20
621.8619156976
 30
0.0
 11
-1388.9199060058
 21
621.8619156976
 31
0.0
  0
SPLINE
  5
7BC
330
1F
100
AcDbEntity
  8
SLD-0
100
AcDbSpline
210
0.0
220
0.0
230
1.0
 70
    24
 71
     3
 72
    11
 73
     7
 74
     0
 42
0.000000001
 43
0.0000000001
 40
0.0
 40
0.0
 40
0.0
 40
0.0
 40
0.2500029253939675
 40
0.5
 40
0.7499970746060324
 40
1.0
 40
1.0
 40
1.0
 40
1.0
 10
-1407.713481471526
 20
622.4619109530927
 30
0.0
 10
-1407.713481471526
 20
622.4528916787294
 30
0.0
 10
-1407.713481471526
 20
622.43485334108
 30
0.0
 10
-1407.713481471526
 20
622.2961135736936
 30
0.0
 10
-1407.713481471526
 20
622.0977812540611
 30
0.0
 10
-1407.713481471526
 20
621.9405381630994
 30
0.0
 10
-1407.713481471526
 20
621.8619156976224
 30
0.0
  0
LINE
  5
7BD
330
1F
100
AcDbEntity
  8
SLD-0
100
AcDbLine
 10
-1385.8821403837
 20
622.4619109530997
 30
0.0
 11
-1407.7134814715
 21
622.4619109530997
 31
0.0
  0
SPLINE
  5
7BE
330
1F
100
AcDbEntity
  8
SLD-0
100
AcDbSpline
210
0.0
220
0.0
230
1.0
 70
    24
 71
     3
 72
    11
 73
     7
 74
     0
 42
0.000000001
 43
0.0000000001
 40
0.0
 40
0.0
 40
0.0
 40
0.0
 40
0.2500029253939675
 40
0.5
 40
0.7499970746060324
 40
1.0
 40
1.0
 40
1.0
 40
1.0
 10
-1328.472570762622
 20
621.8619156976224
 30
0.0
 10
-1328.472570762622
 20
621.9405381630994
 30
0.0
 10
-1328.472570762622
 20
622.0977812540611
 30
0.0
 10
-1328.472570762622
 20
622.2961135736936
 30
0.0
 10
-1328.472570762622
 20
622.43485334108
 30
0.0
 10
-1328.472570762622
 20
622.4528916787294
 30
0.0
 10
-1328.472570762622
 20
622.4619109530927
 30
0.0
  0
LINE
  5
7BF
330
1F
100
AcDbEntity
  8
SLD-0
100
AcDbLine
 10
-1347.3760013139
 20
621.8619156976
 30
0.0
 11
-1328.4725707626
 21
621.8619156976
 31
0.0
  0
LINE
  5
7C0
330
1F
100
AcDbEntity
  8
SLD-0
100
AcDbLine
 10
-1328.4725707626
 20
622.4619109530997
 30
0.0
 11
-1350.5550969994
 21
622.4619109530997
 31
0.0
  0
SPLINE
  5
7C1
330
1F
100
AcDbEntity
  8
SLD-0
100
AcDbSpline
210
0.0
220
0.0
230
1.0
 70
     8
 71
     3
 72
    11
 73
     7
 74
     0
 42
0.000000001
 43
0.0000000001
 40
0.0
 40
0.0
 40
0.0
 40
0.0
 40
0.2798404801369001
 40
0.5590802771584995
 40
0.7794994188309495
 40
1.0
 40
1.0
 40
1.0
 40
1.0
 10
-1328.437675968396
 20
621.8626458545209
 30
0.0
 10
-1328.438085832239
 20
621.9504965212373
 30
0.0
 10
-1328.438904680143
 20
622.1260092814792
 30
0.0
 10
-1328.444471151699
 20
622.3235607094776
 30
0.0
 10
-1328.451379025772
 20
622.4399988905132
 30
0.0
 10
-1328.456194569873
 20
622.4546060329019
 30
0.0
 10
-1328.458602786648
 20
622.4619109530927
 30
0.0
  0
LINE
  5
7C2
330
1F
100
AcDbEntity
  8
SLD-0
100
AcDbLine
 10
-1328.4725707626
 20
622.4619109530997
 30
0.0
 11
-1328.4586027866
 21
622.4619109530997
 31
0.0
  0
SPLINE
  5
7C3
330
1F
100
AcDbEntity
  8
SLD-0
100
AcDbSpline
210
0.0
220
0.0
230
1.0
 70
     8
 71
     3
 72
    12
 73
     8
 74
     0
 42
0.000000001
 43
0.0000000001
 40
0.0
 40
0.0
 40
0.0
 40
0.0
 40
0.2579203073075183
 40
0.5112933479472602
 40
0.6407808608548847
 40
0.7652350259890957
 40
1.0
 40
1.0
 40
1.0
 40
1.0
 10
-1327.459211707699
 20
621.4968074460508
 30
0.0
 10
-1327.477710938157
 20
621.6237461190225
 30
0.0
 10
-1327.514383248198
 20
621.8753854713685
 30
0.0
 10
-1327.709788863485
 20
622.1464907981926
 30
0.0
 10
-1327.914215965744
 20
622.3078862440639
 30
0.0
 10
-1328.141979148176
 20
622.4281742683346
 30
0.0
 10
-1328.333461156408
 20
622.4485769400358
 30
0.0
 10
-1328.458602786648
 20
622.4619109530927
 30
0.0
  0
SPLINE
  5
7C4
330
1F
100
AcDbEntity
  8
SLD-0
100
AcDbSpline
210
0.0
220
0.0
230
1.0
 70
     8
 71
     3
 72
    11
 73
     7
 74
     0
 42
0.000000001
 43
0.0000000001
 40
0.0
 40
0.0
 40
0.0
 40
0.0
 40
0.2798352531512945
 40
0.5590679288456188
 40
0.7794894576083078
 40
1.0
 40
1.0
 40
1.0
 40
1.0
 10
-1407.731236205089
 20
622.4619109530927
 30
0.0
 10
-1407.735125683865
 20
622.4502784981473
 30
0.0
 10
-1407.742896266089
 20
622.4270386367622
 30
0.0
 10
-1407.751652775483
 20
622.2678359900043
 30
0.0
 10
-1407.756822309942
 20
622.070083495817
 30
0.0
 10
-1407.757482342951
 20
621.9320990434294
 30
0.0
 10
-1407.757812426078
 20
621.8630928893567
 30
0.0
  0
LINE
  5
7C5
330
1F
100
AcDbEntity
  8
SLD-0
100
AcDbLine
 10
-1407.7312362051
 20
622.4619109530997
 30
0.0
 11
-1407.7134814715
 21
622.4619109530997
 31
0.0
  0
SPLINE
  5
7C6
330
1F
100
AcDbEntity
  8
SLD-0
100
AcDbSpline
210
0.0
220
0.0
230
1.0
 70
     8
 71
     3
 72
    12
 73
     8
 74
     0
 42
0.000000001
 43
0.0000000001
 40
0.0
 40
0.0
 40
0.0
 40
0.0
 40
0.2483495275468994
 40
0.5112089233743359
 40
0.6411859746399716
 40
0.765825426902445
 40
1.0
 40
1.0
 40
1.0
 40
1.0
 10
-1408.730254755008
 20
621.5062547822477
 30
0.0
 10
-1408.711965475519
 20
621.6274999516585
 30
0.0
 10
-1408.674318361918
 20
621.8770740625135
 30
0.0
 10
-1408.480169760821
 20
622.1473500716817
 30
0.0
 10
-1408.272148579254
 20
622.3100577377453
 30
0.0
 10
-1408.045358705613
 20
622.4287361161307
 30
0.0
 10
-1407.855284968677
 20
622.4488100211297
 30
0.0
 10
-1407.731236205089
 20
622.4619109530927
 30
0.0
  0
LINE
  5
7E1
330
1F
100
AcDbEntity
  8
SLD-0
100
AcDbLine
 10
-1540.7186162329
 20
640.7732624908
 30
0.0
 11
-1540.7186162329
 21
556.1505664487
 31
0.0
  0
SPLINE
  5
7E2
330
1F
100
AcDbEntity
  8
SLD-0
100
AcDbSpline
210
0.0
220
0.0
230
1.0
 70
     8
 71
     3
 72
    13
 73
     9
 74
     0
 42
0.000000001
 43
0.0000000001
 40
0.0
 40
0.0
 40
0.0
 40
0.0
 40
0.0066314749287577
 40
0.1532530609254678
 40
0.3683368709002639
 40
0.5799400325296526
 40
0.7899441045371437
 40
1.0
 40
1.0
 40
1.0
 40
1.0
 10
-1540.71861623286
 20
556.1505664487363
 30
0.0
 10
-1540.718630120684
 20
556.1499182484099
 30
0.0
 10
-1540.718951067619
 20
556.134938370606
 30
0.0
 10
-1540.74275197045
 20
556.0989341899474
 30
0.0
 10
-1540.862037512767
 20
556.0463278550322
 30
0.0
 10
-1541.089679897379
 20
555.9996111373441
 30
0.0
 10
-1541.385626466682
 20
555.9680033170073
 30
0.0
 10
-1541.607611866277
 20
555.9639414710024
 30
0.0
 10
-1541.718618259418
 20
555.9619102974416
 30
0.0
  0
LINE
  5
7E3
330
1F
100
AcDbEntity
  8
SLD-0
100
AcDbLine
 10
-1541.7186182594
 20
555.9619102973998
 30
0.0
 11
-1541.7186182594
 21
640.9619111915
 31
0.0
  0
SPLINE
  5
7E4
330
1F
100
AcDbEntity
  8
SLD-0
100
AcDbSpline
210
0.0
220
0.0
230
1.0
 70
     8
 71
     3
 72
    13
 73
     9
 74
     0
 42
0.000000001
 43
0.0000000001
 40
0.0
 40
0.0
 40
0.0
 40
0.0
 40
0.006630600129469
 40
0.153253078772751
 40
0.3683369215927942
 40
0.5799401155359039
 40
0.78994421961292
 40
1.0
 40
1.0
 40
1.0
 40
1.0
 10
-1540.71861623286
 20
640.7732624907972
 30
0.0
 10
-1540.718630122407
 20
640.7739081464152
 30
0.0
 10
-1540.718951151547
 20
640.7888311864676
 30
0.0
 10
-1540.74275169803
 20
640.8249344225287
 30
0.0
 10
-1540.862037536031
 20
640.8774891381696
 30
0.0
 10
-1541.089679907225
 20
640.9242204391825
 30
0.0
 10
-1541.385626335911
 20
640.9558268184189
 30
0.0
 10
-1541.607611848601
 20
640.9598829008189
 30
0.0
 10
-1541.718618259418
 20
640.9619111915111
 30
0.0
  0
LINE
  5
7E5
330
1F
100
AcDbEntity
  8
SLD-0
100
AcDbLine
 10
-1563.7186181402
 20
640.9619111915
 30
0.0
 11
-1563.7186181402
 21
555.9619102973998
 31
0.0
  0
SPLINE
  5
7E6
330
1F
100
AcDbEntity
  8
SLD-0
100
AcDbSpline
210
0.0
220
0.0
230
1.0
 70
     8
 71
     3
 72
    13
 73
     9
 74
     0
 42
0.000000001
 43
0.0000000001
 40
0.0
 40
0.0
 40
0.0
 40
0.0
 40
0.2100556707616512
 40
0.4200595181233739
 40
0.6316624533964144
 40
0.8467460332915395
 40
0.9933686128491455
 40
1.0
 40
1.0
 40
1.0
 40
1.0
 10
-1563.718618140208
 20
555.9619102974416
 30
0.0
 10
-1563.829625559007
 20
555.9639414687223
 30
0.0
 10
-1564.051613009665
 20
555.9680033101686
 30
0.0
 10
-1564.347544159875
 20
555.9996111647773
 30
0.0
 10
-1564.5752458893
 20
556.0463277505601
 30
0.0
 10
-1564.694330092525
 20
556.0989346390822
 30
0.0
 10
-1564.718515885079
 20
556.1349380756093
 30
0.0
 10
-1564.718601558468
 20
556.149918248071
 30
0.0
 10
-1564.718605265604
 20
556.1505664487363
 30
0.0
  0
LINE
  5
7E7
330
1F
100
AcDbEntity
  8
SLD-0
100
AcDbLine
 10
-1564.7186052656
 20
556.1505664487
 30
0.0
 11
-1564.7186052656
 21
640.7732624908
 31
0.0
  0
SPLINE
  5
7E8
330
1F
100
AcDbEntity
  8
SLD-0
100
AcDbSpline
210
0.0
220
0.0
230
1.0
 70
     8
 71
     3
 72
    13
 73
     9
 74
     0
 42
0.000000001
 43
0.0000000001
 40
0.0
 40
0.0
 40
0.0
 40
0.0
 40
0.2100555556896368
 40
0.4200594351244881
 40
0.6316624027148801
 40
0.8467460154589428
 40
0.9933694876580531
 40
1.0
 40
1.0
 40
1.0
 40
1.0
 10
-1563.718618140208
 20
640.9619111915111
 30
0.0
 10
-1563.829625576813
 20
640.959882903097
 30
0.0
 10
-1564.051613140825
 20
640.9558268252517
 30
0.0
 10
-1564.347544148456
 20
640.9242204117711
 30
0.0
 10
-1564.575245872022
 20
640.877489242557
 30
0.0
 10
-1564.694330344952
 20
640.8249339737743
 30
0.0
 10
-1564.718515831417
 20
640.7888314804518
 30
0.0
 10
-1564.718601556712
 20
640.7739081467552
 30
0.0
 10
-1564.718605265604
 20
640.7732624907972
 30
0.0
  0
LINE
  5
7E9
330
1F
100
AcDbEntity
  8
SLD-0
100
AcDbLine
 10
-1563.7186181402
 20
640.9619111915
 30
0.0
 11
-1541.7186182594
 21
640.9619111915
 31
0.0
  0
LINE
  5
7EA
330
1F
100
AcDbEntity
  8
SLD-0
100
AcDbLine
 10
-1541.7186182594
 20
555.9619102973998
 30
0.0
 11
-1563.7186181402
 21
555.9619102973998
 31
0.0
  0
LINE
  5
7EF
330
1F
100
AcDbEntity
  8
SLD-0
100
AcDbLine
 10
-1541.7186182594
 20
540.9619134267
 30
0.0
 11
-1541.7186182594
 21
555.9619102973998
 31
0.0
  0
ARC
  5
7F0
330
1F
100
AcDbEntity
  8
SLD-0
100
AcDbCircle
 10
-1552.7186188608
 20
540.9619134158
 30
0.0
 40
11.0
100
AcDbArc
 50
180.0000096442
 51
0.0
  0
LINE
  5
7F1
330
1F
100
AcDbEntity
  8
SLD-0
100
AcDbLine
 10
-1563.7186181402
 20
555.9619102973998
 30
0.0
 11
-1563.7186181402
 21
540.9619134267
 31
0.0
  0
ARC
  5
7F2
330
1F
100
AcDbEntity
  8
SLD-0
100
AcDbCircle
 10
-1552.7186188608
 20
540.9619134158
 30
0.0
 40
12.00000000000014
100
AcDbArc
 50
180.0000088404999
 51
0.0
  0
LWPOLYLINE
  5
7F3
330
1F
100
AcDbEntity
  8
SLD-0
100
AcDbPolyline
 90
        9
 70
   128
 43
0.0
 10
-1564.7186052656
 20
540.9619134267
 10
-1564.69941257
 20
540.9619097014
 10
-1564.6424901342
 20
540.9619097014
 10
-1564.5501029348
 20
540.9619097014
 10
-1564.4257378435
 20
540.9619097014
 10
-1564.2741930342
 20
540.9619097014
 10
-1564.101309762
 20
540.9619097014
 10
-1563.9137041426
 20
540.9619097014
 10
-1563.7186181402
 20
540.9619134267
  0
LINE
  5
7F4
330
1F
100
AcDbEntity
  8
SLD-0
100
AcDbLine
 10
-1540.7186162329
 20
540.9619134267
 30
0.0
 11
-1541.7186182594
 21
540.9619134267
 31
0.0
  0
LINE
  5
7F5
330
1F
100
AcDbEntity
  8
SLD-0
100
AcDbLine
 10
-1564.7186052656
 20
540.9619134267
 30
0.0
 11
-1564.7186052656
 21
556.1505664487
 31
0.0
  0
LINE
  5
7F6
330
1F
100
AcDbEntity
  8
SLD-0
100
AcDbLine
 10
-1540.7186162329
 20
556.1505664487
 30
0.0
 11
-1540.7186162329
 21
540.9619134267
 31
0.0
  0
LINE
  5
7F7
330
1F
100
AcDbEntity
  8
SLD-0
100
AcDbLine
 10
-1563.7186181402
 20
655.9619117876
 30
0.0
 11
-1563.7186181402
 21
640.9619111915
 31
0.0
  0
LINE
  5
7F8
330
1F
100
AcDbEntity
  8
SLD-0
100
AcDbLine
 10
-1563.7186181402
 20
655.9619117876
 30
0.0
 11
-1564.7186052656
 21
655.9619117876
 31
0.0
  0
LINE
  5
7F9
330
1F
100
AcDbEntity
  8
SLD-0
100
AcDbLine
 10
-1564.7186052656
 20
640.7732624908
 30
0.0
 11
-1564.7186052656
 21
655.9619117876
 31
0.0
  0
LINE
  5
7FA
330
1F
100
AcDbEntity
  8
SLD-0
100
AcDbLine
 10
-1541.7186182594
 20
640.9619111915
 30
0.0
 11
-1541.7186182594
 21
655.9619117876
 31
0.0
  0
ARC
  5
7FB
330
1F
100
AcDbEntity
  8
SLD-0
100
AcDbCircle
 10
-1552.7186188608
 20
655.9619134158
 30
0.0
 40
11.00000000000023
100
AcDbArc
 50
0.0
 51
179.9999903558
  0
LINE
  5
7FC
330
1F
100
AcDbEntity
  8
SLD-0
100
AcDbLine
 10
-1541.7186182594
 20
655.9619117876
 30
0.0
 11
-1540.7186162329
 21
655.9619117876
 31
0.0
  0
LINE
  5
7FD
330
1F
100
AcDbEntity
  8
SLD-0
100
AcDbLine
 10
-1540.7186162329
 20
655.9619117876
 30
0.0
 11
-1540.7186162329
 21
640.7732624908
 31
0.0
  0
ARC
  5
7FE
330
1F
100
AcDbEntity
  8
SLD-0
100
AcDbCircle
 10
-1552.7186188608
 20
655.9619134158
 30
0.0
 40
12.00000000000014
100
AcDbArc
 50
0.0
 51
179.9999911595
  0
LINE
  5
803
330
1F
100
AcDbEntity
  8
SLD-0
100
AcDbLine
 10
-1583.5418414926
 20
292.4619127412
 30
0.0
 11
-1573.6186218119
 21
292.4619127412
 31
0.0
  0
LINE
  5
804
330
1F
100
AcDbEntity
  8
SLD-0
100
AcDbLine
 10
-1573.6186218119
 20
292.4619127412
 30
0.0
 11
-1073.8186251974
 21
292.4619127412
 31
0.0
  0
LINE
  5
805
330
1F
100
AcDbEntity
  8
SLD-0
100
AcDbLine
 10
-1073.8186251974
 20
292.4619127412
 30
0.0
 11
-1049.8954069471
 21
292.4619127412
 31
0.0
  0
ARC
  5
80D
330
1F
100
AcDbEntity
  8
SLD-0
100
AcDbCircle
 10
-1368.2186188608
 20
545.4619134158
 30
0.0
 40
110.0000000000001
100
AcDbArc
 50
180.0
 51
270.0
  0
ARC
  5
80E
330
1F
100
AcDbEntity
  8
SLD-0
100
AcDbCircle
 10
-1368.2186188608
 20
545.4619134158
 30
0.0
 40
110.0000000000001
100
AcDbArc
 50
270.0
 51
0.0
  0
LINE
  5
80F
330
1F
100
AcDbEntity
  8
SLD-0
100
AcDbLine
 10
-1258.218617425
 20
545.4619113703
 30
0.0
 11
-1258.218617425
 21
642.2119099994
 31
0.0
  0
LINE
  5
810
330
1F
100
AcDbEntity
  8
SLD-0
100
AcDbLine
 10
-1258.218617425
 20
642.2119099994
 30
0.0
 11
-1258.218617425
 21
707.4619192977
 31
0.0
  0
ARC
  5
811
330
1F
100
AcDbEntity
  8
SLD-0
100
AcDbCircle
 10
-1263.2186188608
 20
707.4619134158
 30
0.0
 40
5.0
100
AcDbArc
 50
0.0
 51
90.0
  0
LINE
  5
812
330
1F
100
AcDbEntity
  8
SLD-0
100
AcDbLine
 10
-1263.2186201072
 20
712.4619145293999
 30
0.0
 11
-1473.2186210012
 21
712.4619145293999
 31
0.0
  0
ARC
  5
813
330
1F
100
AcDbEntity
  8
SLD-0
100
AcDbCircle
 10
-1473.2186188608
 20
707.4619134158
 30
0.0
 40
5.000000000000226
100
AcDbArc
 50
90.0
 51
180.0
  0
LINE
  5
814
330
1F
100
AcDbEntity
  8
SLD-0
100
AcDbLine
 10
-1478.2186162329
 20
707.4619192977
 30
0.0
 11
-1478.2186162329
 21
545.4619113703
 31
0.0
  0
LINE
  5
818
330
1F
100
AcDbEntity
  8
SLD-0
100
AcDbLine
 10
-1048.2186090803
 20
294.1386957069
 30
0.0
 11
-1048.2186090803
 21
746.785130014
 31
0.0
  0
LINE
  5
81F
330
1F
100
AcDbEntity
  8
SLD-0
100
AcDbLine
 10
-1585.2186095571
 20
746.785130014
 30
0.0
 11
-1585.2186095571
 21
294.1386957069
 31
0.0
  0
LINE
  5
826
330
1F
100
AcDbEntity
  8
SLD-0
100
AcDbLine
 10
-1049.8954069471
 20
748.4619278808
 30
0.0
 11
-1583.5418414926
 21
748.4619278808
 31
0.0
  0
LINE
  5
82C
330
1F
100
AcDbEntity
  8
SLD-0
100
AcDbLine
 10
-1582.118631587
 20
265.9619111915
 30
0.0
 11
-1584.1186058378
 21
265.9619111915
 31
0.0
  0
LINE
  5
82D
330
1F
100
AcDbEntity
  8
SLD-0
100
AcDbLine
 10
-1584.1186058378
 20
265.9619111915
 30
0.0
 11
-1584.1186058378
 21
268.9619172712
 31
0.0
  0
LINE
  5
82F
330
1F
100
AcDbEntity
  8
SLD-0
100
AcDbLine
 10
-1582.118631587
 20
268.9619172712
 30
0.0
 11
-1582.118631587
 21
265.9619111915
 31
0.0
  0
LINE
  5
830
330
1F
100
AcDbEntity
  8
SLD-0
100
AcDbLine
 10
-1549.1186243152
 20
265.9619111915
 30
0.0
 11
-1551.1186134672
 21
265.9619111915
 31
0.0
  0
LINE
  5
831
330
1F
100
AcDbEntity
  8
SLD-0
100
AcDbLine
 10
-1551.1186134672
 20
268.9619172712
 30
0.0
 11
-1549.1186243152
 21
268.9619172712
 31
0.0
  0
LINE
  5
832
330
1F
100
AcDbEntity
  8
SLD-0
100
AcDbLine
 10
-1549.1186243152
 20
268.9619172712
 30
0.0
 11
-1549.1186243152
 21
265.9619111915
 31
0.0
  0
LINE
  5
833
330
1F
100
AcDbEntity
  8
SLD-0
100
AcDbLine
 10
-1551.1186134672
 20
265.9619111915
 30
0.0
 11
-1551.1186134672
 21
268.9619172712
 31
0.0
  0
ARC
  5
834
330
1F
100
AcDbEntity
  8
SLD-0
100
AcDbCircle
 10
-1552.1186188608
 20
287.9619134158001
 30
0.0
 40
1.0
100
AcDbArc
 50
0.0
 51
90.0
  0
LINE
  5
835
330
1F
100
AcDbEntity
  8
SLD-0
100
AcDbLine
 10
-1552.1186154938
 20
288.9619130989
 30
0.0
 11
-1552.1186154938
 21
290.961917152
 31
0.0
  0
LINE
  5
836
330
1F
100
AcDbEntity
  8
SLD-0
100
AcDbLine
 10
-1549.1186243152
 20
287.9619110723
 30
0.0
 11
-1551.1186134672
 21
287.9619110723
 31
0.0
  0
ARC
  5
837
330
1F
100
AcDbEntity
  8
SLD-0
100
AcDbCircle
 10
-1552.1186188608
 20
287.9619134158001
 30
0.0
 40
3.0
100
AcDbArc
 50
0.0
 51
90.0
  0
LINE
  5
839
330
1F
100
AcDbEntity
  8
SLD-0
100
AcDbLine
 10
-1584.1186058378
 20
287.9619110723
 30
0.0
 11
-1584.1186058378
 21
268.9619172712
 31
0.0
  0
LINE
  5
83A
330
1F
100
AcDbEntity
  8
SLD-0
100
AcDbLine
 10
-1582.118631587
 20
287.9619110723
 30
0.0
 11
-1582.118631587
 21
268.9619172712
 31
0.0
  0
LINE
  5
83C
330
1F
100
AcDbEntity
  8
SLD-0
100
AcDbLine
 10
-1552.1186154938
 20
288.9619130989
 30
0.0
 11
-1581.1186146593
 21
288.9619130989
 31
0.0
  0
LINE
  5
83D
330
1F
100
AcDbEntity
  8
SLD-0
100
AcDbLine
 10
-1552.1186154938
 20
290.961917152
 30
0.0
 11
-1581.1186146593
 21
290.961917152
 31
0.0
  0
LINE
  5
83E
330
1F
100
AcDbEntity
  8
SLD-0
100
AcDbLine
 10
-1549.1186243152
 20
268.9619172712
 30
0.0
 11
-1549.1186243152
 21
287.9619110723
 31
0.0
  0
LINE
  5
83F
330
1F
100
AcDbEntity
  8
SLD-0
100
AcDbLine
 10
-1551.1186134672
 20
268.9619172712
 30
0.0
 11
-1551.1186134672
 21
287.9619110723
 31
0.0
  0
ARC
  5
840
330
1F
100
AcDbEntity
  8
SLD-0
100
AcDbCircle
 10
-1581.1186188608
 20
287.9619134158001
 30
0.0
 40
3.0
100
AcDbArc
 50
90.0
 51
180.0
  0
ARC
  5
841
330
1F
100
AcDbEntity
  8
SLD-0
100
AcDbCircle
 10
-1581.1186188608
 20
287.9619134158001
 30
0.0
 40
1.0
100
AcDbArc
 50
90.0
 51
180.0
  0
ARC
  5
842
330
1F
100
AcDbEntity
  8
SLD-0
100
AcDbCircle
 10
-1052.3186188608
 20
287.9619134158001
 30
0.0
 40
1.0
100
AcDbArc
 50
0.0
 51
90.0
  0
ARC
  5
844
330
1F
100
AcDbEntity
  8
SLD-0
100
AcDbCircle
 10
-1052.3186188608
 20
287.9619134158001
 30
0.0
 40
3.0
100
AcDbArc
 50
0.0
 51
90.0
  0
LINE
  5
846
330
1F
100
AcDbEntity
  8
SLD-0
100
AcDbLine
 10
-1049.3186127996
 20
268.9619172712
 30
0.0
 11
-1049.3186127996
 21
287.9619110723
 31
0.0
  0
LINE
  5
848
330
1F
100
AcDbEntity
  8
SLD-0
100
AcDbLine
 10
-1051.3186168527
 20
268.9619172712
 30
0.0
 11
-1051.3186168527
 21
287.9619110723
 31
0.0
  0
LINE
  5
849
330
1F
100
AcDbEntity
  8
SLD-0
100
AcDbLine
 10
-1082.3186200714
 20
287.9619110723
 30
0.0
 11
-1084.3186241245
 21
287.9619110723
 31
0.0
  0
ARC
  5
84A
330
1F
100
AcDbEntity
  8
SLD-0
100
AcDbCircle
 10
-1081.3186188608
 20
287.9619134158001
 30
0.0
 40
3.0
100
AcDbArc
 50
90.0
 51
180.0
  0
LINE
  5
84B
330
1F
100
AcDbEntity
  8
SLD-0
100
AcDbLine
 10
-1081.3186180448
 20
290.961917152
 30
0.0
 11
-1081.3186180448
 21
288.9619130989
 31
0.0
  0
ARC
  5
84C
330
1F
100
AcDbEntity
  8
SLD-0
100
AcDbCircle
 10
-1081.3186188608
 20
287.9619134158001
 30
0.0
 40
1.0
100
AcDbArc
 50
90.0
 51
180.0
  0
LINE
  5
84D
330
1F
100
AcDbEntity
  8
SLD-0
100
AcDbLine
 10
-1052.3186039781
 20
288.9619130989
 30
0.0
 11
-1081.3186180448
 21
288.9619130989
 31
0.0
  0
LINE
  5
84E
330
1F
100
AcDbEntity
  8
SLD-0
100
AcDbLine
 10
-1052.3186039781
 20
290.961917152
 30
0.0
 11
-1081.3186180448
 21
290.961917152
 31
0.0
  0
LINE
  5
84F
330
1F
100
AcDbEntity
  8
SLD-0
100
AcDbLine
 10
-1082.3186200714
 20
287.9619110723
 30
0.0
 11
-1082.3186200714
 21
268.9619172712
 31
0.0
  0
LINE
  5
850
330
1F
100
AcDbEntity
  8
SLD-0
100
AcDbLine
 10
-1084.3186241245
 20
268.9619172712
 30
0.0
 11
-1082.3186200714
 21
268.9619172712
 31
0.0
  0
LINE
  5
851
330
1F
100
AcDbEntity
  8
SLD-0
100
AcDbLine
 10
-1084.3186241245
 20
287.9619110723
 30
0.0
 11
-1084.3186241245
 21
268.9619172712
 31
0.0
  0
LINE
  5
852
330
1F
100
AcDbEntity
  8
SLD-0
100
AcDbLine
 10
-1049.3186127996
 20
265.9619111915
 30
0.0
 11
-1051.3186168527
 21
265.9619111915
 31
0.0
  0
LINE
  5
853
330
1F
100
AcDbEntity
  8
SLD-0
100
AcDbLine
 10
-1051.3186168527
 20
265.9619111915
 30
0.0
 11
-1051.3186168527
 21
268.9619172712
 31
0.0
  0
LINE
  5
854
330
1F
100
AcDbEntity
  8
SLD-0
100
AcDbLine
 10
-1049.3186127996
 20
268.9619172712
 30
0.0
 11
-1049.3186127996
 21
265.9619111915
 31
0.0
  0
LINE
  5
855
330
1F
100
AcDbEntity
  8
SLD-0
100
AcDbLine
 10
-1082.3186200714
 20
265.9619111915
 30
0.0
 11
-1084.3186241245
 21
265.9619111915
 31
0.0
  0
LINE
  5
856
330
1F
100
AcDbEntity
  8
SLD-0
100
AcDbLine
 10
-1082.3186200714
 20
268.9619172712
 30
0.0
 11
-1082.3186200714
 21
265.9619111915
 31
0.0
  0
LINE
  5
857
330
1F
100
AcDbEntity
  8
SLD-0
100
AcDbLine
 10
-1084.3186241245
 20
265.9619111915
 30
0.0
 11
-1084.3186241245
 21
268.9619172712
 31
0.0
  0
ARC
  5
85C
330
1F
100
AcDbEntity
  8
SLD-0
100
AcDbCircle
 10
-1050.6186188608
 20
746.7619134158
 30
0.0
 40
1.700000000000011
100
AcDbArc
 50
31.9657187508
 51
64.82240254269999
  0
ARC
  5
85D
330
1F
100
AcDbEntity
  8
SLD-0
100
AcDbCircle
 10
-1582.8186188608
 20
746.7619134158
 30
0.0
 40
1.700000000000014
100
AcDbArc
 50
115.177597459
 51
162.8953648234
  0
LINE
  5
861
330
1F
100
AcDbEntity
  8
SLD-0
100
AcDbLine
 10
-1048.2186090803
 20
293.6619181533
 30
0.0
 11
-1048.2186090803
 21
294.1386957069
 31
0.0
  0
LINE
  5
862
330
1F
100
AcDbEntity
  8
SLD-0
100
AcDbLine
 10
-1048.2186090803
 20
746.785130014
 30
0.0
 11
-1048.2186090803
 21
747.2619075674997
 31
0.0
  0
LINE
  5
867
330
1F
100
AcDbEntity
  8
SLD-0
100
AcDbLine
 10
-1048.9186060285
 20
747.2619075674997
 30
0.0
 11
-1048.9186060285
 21
747.6619143386
 31
0.0
  0
LINE
  5
869
330
1F
100
AcDbEntity
  8
SLD-0
100
AcDbLine
 10
-1584.5186126089
 20
293.6619181533
 30
0.0
 11
-1584.5186126089
 21
293.2619113822
 31
0.0
  0
LINE
  5
86C
330
1F
100
AcDbEntity
  8
SLD-0
100
AcDbLine
 10
-1585.2186095571
 20
747.2619075674997
 30
0.0
 11
-1585.2186095571
 21
746.785130014
 31
0.0
  0
LINE
  5
86D
330
1F
100
AcDbEntity
  8
SLD-0
100
AcDbLine
 10
-1585.2186095571
 20
294.1386957069
 30
0.0
 11
-1585.2186095571
 21
293.6619181533
 31
0.0
  0
ARC
  5
871
330
1F
100
AcDbEntity
  8
SLD-0
100
AcDbCircle
 10
-1050.6186188608
 20
294.1619134158001
 30
0.0
 40
1.700000000000049
100
AcDbArc
 50
295.1775974575
 51
342.8953648233999
  0
ARC
  5
872
330
1F
100
AcDbEntity
  8
SLD-0
100
AcDbCircle
 10
-1582.8186188608
 20
294.1619134158001
 30
0.0
 40
1.700000000000025
100
AcDbArc
 50
211.9657187508
 51
244.8224025426
  0
LINE
  5
875
330
1F
100
AcDbEntity
  8
SLD-0
100
AcDbLine
 10
-1155.4686140871
 20
599.961910059
 30
0.0
 11
-1184.9686217165
 21
599.961910059
 31
0.0
  0
LINE
  5
876
330
1F
100
AcDbEntity
  8
SLD-0
100
AcDbLine
 10
-1084.1686141348
 20
828.6119062800999
 30
0.0
 11
-1334.1686197227
 21
828.6119062800999
 31
0.0
  0
LINE
  5
877
330
1F
100
AcDbEntity
  8
SLD-0
100
AcDbLine
 10
-1099.7186165905
 20
504.8679743309
 30
0.0
 11
-1086.6415512419
 21
504.8679743309
 31
0.0
  0
LINE
  5
878
330
1F
100
AcDbEntity
  8
SLD-0
100
AcDbLine
 10
-1087.2186136103
 20
503.7861965943998
 30
0.0
 11
-1099.7186165905
 21
503.7861965943998
 31
0.0
  0
SPLINE
  5
879
330
1F
100
AcDbEntity
  8
SLD-0
100
AcDbSpline
210
0.0
220
0.0
230
1.0
 70
     8
 71
     3
 72
    11
 73
     7
 74
     0
 42
0.000000001
 43
0.0000000001
 40
0.0
 40
0.0
 40
0.0
 40
0.0
 40
0.1429245596947692
 40
0.4285651541426346
 40
0.7142007265346069
 40
1.0
 40
1.0
 40
1.0
 40
1.0
 10
-1315.716320895242
 20
678.9950389762402
 30
0.0
 10
-1315.752948221095
 20
678.996954265044
 30
0.0
 10
-1315.862776759895
 20
679.0026973370757
 30
0.0
 10
-1316.680066483902
 20
679.0069991132146
 30
0.0
 10
-1317.984952689816
 20
679.0014635841335
 30
0.0
 10
-1319.033538640527
 20
678.9935851176277
 30
0.0
 10
-1319.557981812048
 20
678.9896447558881
 30
0.0
  0
SPLINE
  5
87A
330
1F
100
AcDbEntity
  8
SLD-0
100
AcDbSpline
210
0.0
220
0.0
230
1.0
 70
     8
 71
     3
 72
    11
 73
     7
 74
     0
 42
0.000000001
 43
0.0000000001
 40
0.0
 40
0.0
 40
0.0
 40
0.0
 40
0.2858084804066028
 40
0.5714444105996468
 40
0.8570867843899304
 40
1.0
 40
1.0
 40
1.0
 40
1.0
 10
-1416.622773990619
 20
678.9896447558881
 30
0.0
 10
-1417.147231473328
 20
678.9935931103939
 30
0.0
 10
-1418.195829809756
 20
679.0014874356784
 30
0.0
 10
-1419.5007489251
 20
679.0069925008594
 30
0.0
 10
-1420.31798642306
 20
679.0026984348356
 30
0.0
 10
-1420.427810994381
 20
678.9969544576242
 30
0.0
 10
-1420.464434907424
 20
678.9950389762402
 30
0.0
  0
LINE
  5
87B
330
1F
100
AcDbEntity
  8
SLD-0
100
AcDbLine
 10
-1405.4335218525
 20
623.0477054018997
 30
0.0
 11
-1383.0996689057
 21
623.0477054018997
 31
0.0
  0
LINE
  5
87C
330
1F
100
AcDbEntity
  8
SLD-0
100
AcDbLine
 10
-1353.3375647521
 20
623.0477054018997
 30
0.0
 11
-1330.7472311562
 21
623.0477054018997
 31
0.0
  0
LINE
  5
899
330
1F
100
AcDbEntity
  8
SLD-0
100
AcDbLine
 10
-1383.0172654843
 20
436.4619139929
 30
0.0
 11
-1353.4199718988
 21
436.4619139929
 31
0.0
  0
LINE
  5
89A
330
1F
100
AcDbEntity
  8
SLD-0
100
AcDbLine
 10
-1477.2186142063
 20
710.4619104763001
 30
0.0
 11
-1477.2186142063
 21
530.6632664402
 31
0.0
  0
LINE
  5
89B
330
1F
100
AcDbEntity
  8
SLD-0
100
AcDbLine
 10
-1259.2186194515
 20
530.6632664402
 30
0.0
 11
-1259.2186194515
 21
642.2687728305
 31
0.0
  0
LINE
  5
89C
330
1F
100
AcDbEntity
  8
SLD-0
100
AcDbLine
 10
-1259.2186194515
 20
642.2687728305
 30
0.0
 11
-1259.2186194515
 21
710.4619104763001
 31
0.0
  0
LINE
  5
89D
330
1F
100
AcDbEntity
  8
SLD-0
100
AcDbLine
 10
-1260.2186177528
 20
711.4619125028
 30
0.0
 11
-1476.2186121797
 21
711.4619125028
 31
0.0
  0
LINE
  5
8A2
330
1F
100
AcDbEntity
  8
SLD-0
100
AcDbLine
 10
-1084.7186159944
 20
282.9619158407
 30
0.0
 11
-1084.7186159944
 21
271.9619084497
 31
0.0
  0
LINE
  5
8A3
330
1F
100
AcDbEntity
  8
SLD-0
100
AcDbLine
 10
-1548.7186175442
 20
277.4619121452
 30
0.0
 11
-1548.7186175442
 21
282.9619158407
 31
0.0
  0
LINE
  5
8A4
330
1F
100
AcDbEntity
  8
SLD-0
100
AcDbLine
 10
-1548.7186175442
 20
271.9619084497
 30
0.0
 11
-1548.7186175442
 21
277.4619121452
 31
0.0
  0
LINE
  5
8B0
330
1F
100
AcDbEntity
  8
SLD-0
100
AcDbLine
 10
-521.6948604876908
 20
684.0039302011
 30
0.0
 11
-526.9149309689903
 21
669.6619201798997
 31
0.0
  0
LINE
  5
8B1
330
1F
100
AcDbEntity
  8
SLD-0
100
AcDbLine
 10
-526.9149309689903
 20
421.2619137365999
 30
0.0
 11
-521.6948604876908
 21
406.9198925394998
 31
0.0
  0
LINE
  5
8B2
330
1F
100
AcDbEntity
  8
SLD-0
100
AcDbLine
 10
-521.6948604876908
 20
406.9198925394998
 30
0.0
 11
-520.7551634603905
 21
407.2619114418999
 31
0.0
  0
LINE
  5
8B3
330
1F
100
AcDbEntity
  8
SLD-0
100
AcDbLine
 10
-520.7551634603905
 20
683.6619187494
 30
0.0
 11
-521.6948604876908
 21
684.0039302011
 31
0.0
  0
ARC
  5
8B4
330
1F
100
AcDbEntity
  8
SLD-0
100
AcDbCircle
 10
-489.6047242645906
 20
669.7619134157997
 30
0.0
 40
2.700000000000138
100
AcDbArc
 50
109.696456816699
 51
164.9738862409002
  0
ARC
  5
8B5
330
1F
100
AcDbEntity
  8
SLD-0
100
AcDbCircle
 10
-489.6047242645906
 20
421.1619134157999
 30
0.0
 40
2.700000000000014
100
AcDbArc
 50
195.0261137591004
 51
250.3035431834002
  0
LINE
  5
8B6
330
1F
100
AcDbEntity
  8
SLD-0
100
AcDbLine
 10
-527.2147274309906
 20
670.4619188208999
 30
0.0
 11
-530.9647238546908
 21
670.4619188208999
 31
0.0
  0
LINE
  5
8B7
330
1F
100
AcDbEntity
  8
SLD-0
100
AcDbLine
 10
-530.9647238546908
 20
420.4619150955997
 30
0.0
 11
-527.2147274309906
 21
420.4619150955997
 31
0.0
  0
ARC
  5
8B8
330
1F
100
AcDbEntity
  8
SLD-0
100
AcDbCircle
 10
-530.9647242645905
 20
669.2119134157999
 30
0.0
 40
1.249999999999886
100
AcDbArc
 50
90.0
 51
180.0
  0
ARC
  5
8B9
330
1F
100
AcDbEntity
  8
SLD-0
100
AcDbCircle
 10
-530.9647242645905
 20
421.7119134157999
 30
0.0
 40
1.250000000000113
100
AcDbArc
 50
180.0
 51
270.0
  0
LINE
  5
8BA
330
1F
100
AcDbEntity
  8
SLD-0
100
AcDbLine
 10
-532.2147226625905
 20
669.211920013
 30
0.0
 11
-532.2147226625905
 21
421.7119139034997
 31
0.0
  0
LINE
  5
8BB
330
1F
100
AcDbEntity
  8
SLD-0
100
AcDbLine
 10
-492.2124064260909
 20
670.4619188208999
 30
0.0
 11
-501.8254360848906
 21
670.4619188208999
 31
0.0
  0
LINE
  5
8BC
330
1F
100
AcDbEntity
  8
SLD-0
100
AcDbLine
 10
-501.8254360848906
 20
420.4619150955997
 30
0.0
 11
-492.2124064260909
 21
420.4619150955997
 31
0.0
  0
LINE
  5
8BD
330
1F
100
AcDbEntity
  8
SLD-0
100
AcDbLine
 10
-501.8254360848906
 20
670.4619188208999
 30
0.0
 11
-504.3961024576907
 21
668.6619181532999
 31
0.0
  0
LINE
  5
8BE
330
1F
100
AcDbEntity
  8
SLD-0
100
AcDbLine
 10
-504.3961024576907
 20
422.2619120378999
 30
0.0
 11
-501.8254360848906
 21
420.4619150955997
 31
0.0
  0
LINE
  5
8BF
330
1F
100
AcDbEntity
  8
SLD-0
100
AcDbLine
 10
-526.9149309689903
 20
669.6619201798997
 30
0.0
 11
-527.2147274309906
 21
669.6619201798997
 31
0.0
  0
LINE
  5
8C0
330
1F
100
AcDbEntity
  8
SLD-0
100
AcDbLine
 10
-527.2147274309906
 20
421.2619137365999
 30
0.0
 11
-526.9149309689903
 21
421.2619137365999
 31
0.0
  0
LINE
  5
8C1
330
1F
100
AcDbEntity
  8
SLD-0
100
AcDbLine
 10
-504.3961024576907
 20
668.6619181532999
 30
0.0
 11
-520.7551634603905
 21
668.6619181532999
 31
0.0
  0
LINE
  5
8C2
330
1F
100
AcDbEntity
  8
SLD-0
100
AcDbLine
 10
-520.7551634603905
 20
422.2619120378999
 30
0.0
 11
-504.3961024576907
 21
422.2619120378999
 31
0.0
  0
LINE
  5
8C3
330
1F
100
AcDbEntity
  8
SLD-0
100
AcDbLine
 10
-219.7727030807906
 20
819.3420429129999
 30
0.0
 11
-234.1147280031907
 21
824.5621282954996
 31
0.0
  0
LINE
  5
8C4
330
1F
100
AcDbEntity
  8
SLD-0
100
AcDbLine
 10
-482.5147232705907
 20
824.5621282954996
 30
0.0
 11
-496.8567407423903
 21
819.3420429129999
 31
0.0
  0
LINE
  5
8C5
330
1F
100
AcDbEntity
  8
SLD-0
100
AcDbLine
 10
-496.8567407423903
 20
819.3420429129999
 30
0.0
 11
-496.5147218400905
 21
818.4023458857998
 31
0.0
  0
LINE
  5
8C6
330
1F
100
AcDbEntity
  8
SLD-0
100
AcDbLine
 10
-220.1147294336905
 20
818.4023458857998
 30
0.0
 11
-219.7727030807906
 21
819.3420429129999
 31
0.0
  0
ARC
  5
8C7
330
1F
100
AcDbEntity
  8
SLD-0
100
AcDbCircle
 10
-226.3147242645907
 20
749.5119134157999
 30
0.0
 40
1.049999999999954
100
AcDbArc
 50
270.0
 51
90.0
  0
ARC
  5
8C8
330
1F
100
AcDbEntity
  8
SLD-0
100
AcDbCircle
 10
-490.3147242645906
 20
749.5119134157999
 30
0.0
 40
1.049999999999954
100
AcDbArc
 50
90.0
 51
270.0
  0
ARC
  5
8C9
330
1F
100
AcDbEntity
  8
SLD-0
100
AcDbCircle
 10
-234.0147242645907
 20
797.2519134157999
 30
0.0
 40
2.700000000000108
100
AcDbArc
 50
285.0261137591004
 51
74.97388624090085
  0
ARC
  5
8CA
330
1F
100
AcDbEntity
  8
SLD-0
100
AcDbCircle
 10
-482.6147242645906
 20
797.2519134157999
 30
0.0
 40
2.700000000000138
100
AcDbArc
 50
105.0261137590992
 51
254.9738862408996
  0
LINE
  5
8CB
330
1F
100
AcDbEntity
  8
SLD-0
100
AcDbLine
 10
-233.3147293621906
 20
824.8619098563997
 30
0.0
 11
-233.3147293621906
 21
828.6119062800999
 31
0.0
  0
LINE
  5
8CC
330
1F
100
AcDbEntity
  8
SLD-0
100
AcDbLine
 10
-483.3147219115907
 20
828.6119062800999
 30
0.0
 11
-483.3147219115907
 21
824.8619098563997
 31
0.0
  0
ARC
  5
8CD
330
1F
100
AcDbEntity
  8
SLD-0
100
AcDbCircle
 10
-234.5647242645904
 20
828.6119134157998
 30
0.0
 40
1.250000000000057
100
AcDbArc
 50
0.0
 51
90.0
  0
ARC
  5
8CE
330
1F
100
AcDbEntity
  8
SLD-0
100
AcDbCircle
 10
-482.0647242645906
 20
828.6119134157998
 30
0.0
 40
1.25
100
AcDbArc
 50
90.0
 51
180.0
  0
LINE
  5
8CF
330
1F
100
AcDbEntity
  8
SLD-0
100
AcDbLine
 10
-234.5647281700906
 20
829.8619050880002
 30
0.0
 11
-482.0647231036907
 21
829.8619050880002
 31
0.0
  0
LINE
  5
8D0
330
1F
100
AcDbEntity
  8
SLD-0
100
AcDbLine
 10
-233.3147293621906
 20
799.8596091171
 30
0.0
 11
-233.3147293621906
 21
809.4726164240999
 31
0.0
  0
LINE
  5
8D1
330
1F
100
AcDbEntity
  8
SLD-0
100
AcDbLine
 10
-483.3147219115907
 20
809.4726164240999
 30
0.0
 11
-483.3147219115907
 21
799.8596091171
 31
0.0
  0
LINE
  5
8D2
330
1F
100
AcDbEntity
  8
SLD-0
100
AcDbLine
 10
-483.3147219115907
 20
769.8217887778999
 30
0.0
 11
-481.0998356634906
 21
750.5619187254999
 31
0.0
  0
LINE
  5
8D3
330
1F
100
AcDbEntity
  8
SLD-0
100
AcDbLine
 10
-235.5296081596907
 20
750.5619187254999
 30
0.0
 11
-233.3147293621906
 21
769.8217887778999
 31
0.0
  0
LINE
  5
8D4
330
1F
100
AcDbEntity
  8
SLD-0
100
AcDbLine
 10
-233.3147293621906
 20
809.4726164240999
 30
0.0
 11
-235.1147300297906
 21
812.0432753462999
 31
0.0
  0
LINE
  5
8D5
330
1F
100
AcDbEntity
  8
SLD-0
100
AcDbLine
 10
-481.5147212439905
 20
812.0432753462999
 30
0.0
 11
-483.3147219115907
 21
809.4726164240999
 31
0.0
  0
LINE
  5
8D6
330
1F
100
AcDbEntity
  8
SLD-0
100
AcDbLine
 10
-233.3147293621906
 20
769.8217887778999
 30
0.0
 11
-233.3147293621906
 21
794.6442325016001
 31
0.0
  0
LINE
  5
8D7
330
1F
100
AcDbEntity
  8
SLD-0
100
AcDbLine
 10
-483.3147219115907
 20
794.6442325016001
 30
0.0
 11
-483.3147219115907
 21
769.8217887778999
 31
0.0
  0
LINE
  5
8D8
330
1F
100
AcDbEntity
  8
SLD-0
100
AcDbLine
 10
-234.1147280031907
 20
824.5621282954996
 30
0.0
 11
-234.1147280031907
 21
824.8619098563997
 31
0.0
  0
LINE
  5
8D9
330
1F
100
AcDbEntity
  8
SLD-0
100
AcDbLine
 10
-482.5147232705907
 20
824.8619098563997
 30
0.0
 11
-482.5147232705907
 21
824.5621282954996
 31
0.0
  0
LINE
  5
8DA
330
1F
100
AcDbEntity
  8
SLD-0
100
AcDbLine
 10
-235.1147300297906
 20
812.0432753462999
 30
0.0
 11
-235.1147300297906
 21
818.4023458857998
 31
0.0
  0
LINE
  5
8DB
330
1F
100
AcDbEntity
  8
SLD-0
100
AcDbLine
 10
-481.5147212439905
 20
818.4023458857998
 30
0.0
 11
-481.5147212439905
 21
812.0432753462999
 31
0.0
  0
LINE
  5
8FB
330
1F
100
AcDbEntity
  8
SLD-0
100
AcDbLine
 10
-38.18651202269069
 20
624.4619150061999
 30
0.0
 11
-97.11473348679078
 21
624.4619150061999
 31
0.0
  0
LINE
  5
8FC
330
1F
100
AcDbEntity
  8
SLD-0
100
AcDbLine
 10
-97.11473348679078
 20
466.4619133223998
 30
0.0
 11
-38.18651202269069
 21
466.4619133223998
 31
0.0
  0
ARC
  5
8FD
330
1F
100
AcDbEntity
  8
SLD-0
100
AcDbCircle
 10
-38.18652103439069
 20
620.4619134157999
 30
0.0
 40
4.0
100
AcDbArc
 50
60.00000002870103
 51
90.0
  0
ARC
  5
8FE
330
1F
100
AcDbEntity
  8
SLD-0
100
AcDbCircle
 10
-38.18652103439069
 20
470.4619134157999
 30
0.0
 40
4.0
100
AcDbArc
 50
270.0
 51
299.9999999712998
  0
LINE
  5
8FF
330
1F
100
AcDbEntity
  8
SLD-0
100
AcDbLine
 10
-36.18650796959065
 20
466.9978121642999
 30
0.0
 11
-16.11473324839068
 21
478.5862690592998
 31
0.0
  0
LINE
  5
900
330
1F
100
AcDbEntity
  8
SLD-0
100
AcDbLine
 10
-16.11473324839068
 20
612.3375553985
 30
0.0
 11
-36.18650796959065
 21
623.926009645
 31
0.0
  0
ARC
  5
901
330
1F
100
AcDbEntity
  8
SLD-0
100
AcDbCircle
 10
-17.11472426459068
 20
610.6055069552999
 30
0.0
 40
2.0
100
AcDbArc
 50
0.0
 51
59.99999999999946
  0
ARC
  5
902
330
1F
100
AcDbEntity
  8
SLD-0
100
AcDbCircle
 10
-17.11472426459068
 20
480.3183198763998
 30
0.0
 40
2.0
100
AcDbArc
 50
299.9999999999997
 51
0.0
  0
LINE
  5
903
330
1F
100
AcDbEntity
  8
SLD-0
100
AcDbLine
 10
-15.11471632069066
 20
480.3183198788
 30
0.0
 11
-15.11471632069066
 21
610.6055040259998
 31
0.0
  0
LINE
  5
91A
330
1F
100
AcDbEntity
  8
SLD-0
100
AcDbLine
 10
-213.6147237116906
 20
468.1491596971999
 30
0.0
 11
-97.11473348679078
 21
468.1491596971999
 31
0.0
  0
ARC
  5
940
330
1F
100
AcDbEntity
  8
SLD-0
100
AcDbCircle
 10
-486.3617929925905
 20
583.1778167502
 30
0.0
 40
4.99999999999825
100
AcDbArc
 50
146.1590076815002
 51
172.1320762394993
  0
ARC
  5
941
330
1F
100
AcDbEntity
  8
SLD-0
100
AcDbCircle
 10
-486.3617929925905
 20
582.7467167671
 30
0.0
 40
5.000000000005519
100
AcDbArc
 50
187.8679237607996
 51
213.8409923186
  0
ARC
  5
942
330
1F
100
AcDbEntity
  8
SLD-0
100
AcDbCircle
 10
-486.3617929925905
 20
458.1778167579999
 30
0.0
 40
4.999999999998143
100
AcDbArc
 50
146.1590076815002
 51
172.1320762394998
  0
ARC
  5
943
330
1F
100
AcDbEntity
  8
SLD-0
100
AcDbCircle
 10
-486.3617929925905
 20
457.7467167747997
 30
0.0
 40
5.000000000005519
100
AcDbArc
 50
187.8679237608002
 51
213.8409923186
  0
ARC
  5
94D
330
1F
100
AcDbEntity
  8
SLD-0
100
AcDbCircle
 10
-455.7647242645905
 20
291.2619134157999
 30
0.0
 40
0.2999999999999545
100
AcDbArc
 50
270.0
 51
0.0
  0
ARC
  5
94E
330
1F
100
AcDbEntity
  8
SLD-0
100
AcDbCircle
 10
-468.1647242645906
 20
291.2619134157999
 30
0.0
 40
0.3000000000000114
100
AcDbArc
 50
180.0
 51
270.0
  0
LINE
  5
94F
330
1F
100
AcDbEntity
  8
SLD-0
100
AcDbLine
 10
-468.4647238546906
 20
292.4619127412
 30
0.0
 11
-468.4647238546906
 21
291.2619073290999
 31
0.0
  0
LINE
  5
950
330
1F
100
AcDbEntity
  8
SLD-0
100
AcDbLine
 10
-455.4647273117906
 20
291.2619073290999
 30
0.0
 11
-455.4647273117906
 21
292.4619127412
 31
0.0
  0
ARC
  5
951
330
1F
100
AcDbEntity
  8
SLD-0
100
AcDbCircle
 10
-290.2647242645907
 20
291.2619134157999
 30
0.0
 40
0.2999999999999545
100
AcDbArc
 50
270.0
 51
0.0
  0
ARC
  5
952
330
1F
100
AcDbEntity
  8
SLD-0
100
AcDbCircle
 10
-302.6647242645906
 20
291.2619134157999
 30
0.0
 40
0.3000000000000114
100
AcDbArc
 50
180.0
 51
270.0
  0
LINE
  5
953
330
1F
100
AcDbEntity
  8
SLD-0
100
AcDbLine
 10
-302.9647237354907
 20
292.4619127412
 30
0.0
 11
-302.9647237354907
 21
291.2619073290999
 31
0.0
  0
LINE
  5
954
330
1F
100
AcDbEntity
  8
SLD-0
100
AcDbLine
 10
-289.9647271925904
 20
291.2619073290999
 30
0.0
 11
-289.9647271925904
 21
292.4619127412
 31
0.0
  0
LINE
  5
95D
330
1F
100
AcDbEntity
  8
SLD-0
100
AcDbLine
 10
-526.9149309689903
 20
669.6619201798997
 30
0.0
 11
-526.9149309689903
 21
421.2619137365999
 31
0.0
  0
LINE
  5
95E
330
1F
100
AcDbEntity
  8
SLD-0
100
AcDbLine
 10
-521.6948604876908
 20
684.0039302011
 30
0.0
 11
-521.6948604876908
 21
406.9198925394998
 31
0.0
  0
LINE
  5
95F
330
1F
100
AcDbEntity
  8
SLD-0
100
AcDbLine
 10
-520.7551634603905
 20
683.6619187494
 30
0.0
 11
-520.7551634603905
 21
407.2619114418999
 31
0.0
  0
LINE
  5
960
330
1F
100
AcDbEntity
  8
SLD-0
100
AcDbLine
 10
-492.2124064260909
 20
670.4619188208999
 30
0.0
 11
-492.2124064260909
 21
420.4619150955997
 31
0.0
  0
LINE
  5
961
330
1F
100
AcDbEntity
  8
SLD-0
100
AcDbLine
 10
-527.2147274309906
 20
670.4619188208999
 30
0.0
 11
-527.2147274309906
 21
420.4619150955997
 31
0.0
  0
LINE
  5
962
330
1F
100
AcDbEntity
  8
SLD-0
100
AcDbLine
 10
-501.8254360848906
 20
670.4619188208999
 30
0.0
 11
-501.8254360848906
 21
420.4619150955997
 31
0.0
  0
LINE
  5
963
330
1F
100
AcDbEntity
  8
SLD-0
100
AcDbLine
 10
-504.3961024576907
 20
668.6619181532999
 30
0.0
 11
-504.3961024576907
 21
422.2619120378999
 31
0.0
  0
LINE
  5
964
330
1F
100
AcDbEntity
  8
SLD-0
100
AcDbLine
 10
-268.3147257858905
 20
748.4619278808
 30
0.0
 11
-268.3147257858905
 21
744.8619265457
 31
0.0
  0
LINE
  5
965
330
1F
100
AcDbEntity
  8
SLD-0
100
AcDbLine
 10
-268.3147257858905
 20
744.8619265457
 30
0.0
 11
-268.6147234136906
 21
744.8619265457
 31
0.0
  0
LINE
  5
966
330
1F
100
AcDbEntity
  8
SLD-0
100
AcDbLine
 10
-234.1147280031907
 20
824.5621282954996
 30
0.0
 11
-482.5147232705907
 21
824.5621282954996
 31
0.0
  0
LINE
  5
967
330
1F
100
AcDbEntity
  8
SLD-0
100
AcDbLine
 10
-219.7727030807906
 20
819.3420429129999
 30
0.0
 11
-496.8567407423903
 21
819.3420429129999
 31
0.0
  0
LINE
  5
968
330
1F
100
AcDbEntity
  8
SLD-0
100
AcDbLine
 10
-220.1147294336905
 20
818.4023458857998
 30
0.0
 11
-496.5147218400905
 21
818.4023458857998
 31
0.0
  0
LINE
  5
969
330
1F
100
AcDbEntity
  8
SLD-0
100
AcDbLine
 10
-259.6147275263907
 20
748.4619278808
 30
0.0
 11
-270.3147223884906
 21
748.4619278808
 31
0.0
  0
LINE
  5
96A
330
1F
100
AcDbEntity
  8
SLD-0
100
AcDbLine
 10
-488.1147212082907
 20
748.4619278808
 30
0.0
 11
-490.3147211963903
 21
748.4619278808
 31
0.0
  0
LINE
  5
96B
330
1F
100
AcDbEntity
  8
SLD-0
100
AcDbLine
 10
-226.3147300774907
 20
750.5619187254999
 30
0.0
 11
-490.3147211963903
 21
750.5619187254999
 31
0.0
  0
LINE
  5
96C
330
1F
100
AcDbEntity
  8
SLD-0
100
AcDbLine
 10
-233.3147293621906
 20
794.6442325016001
 30
0.0
 11
-483.3147219115907
 21
794.6442325016001
 31
0.0
  0
LINE
  5
96D
330
1F
100
AcDbEntity
  8
SLD-0
100
AcDbLine
 10
-233.3147293621906
 20
799.8596091171
 30
0.0
 11
-483.3147219115907
 21
799.8596091171
 31
0.0
  0
LINE
  5
96E
330
1F
100
AcDbEntity
  8
SLD-0
100
AcDbLine
 10
-233.3147293621906
 20
824.8619098563997
 30
0.0
 11
-483.3147219115907
 21
824.8619098563997
 31
0.0
  0
LINE
  5
96F
330
1F
100
AcDbEntity
  8
SLD-0
100
AcDbLine
 10
-233.3147293621906
 20
809.4726164240999
 30
0.0
 11
-483.3147219115907
 21
809.4726164240999
 31
0.0
  0
LINE
  5
971
330
1F
100
AcDbEntity
  8
SLD-0
100
AcDbLine
 10
-235.1147300297906
 20
812.0432753462999
 30
0.0
 11
-481.5147212439905
 21
812.0432753462999
 31
0.0
  0
LINE
  5
9A4
330
1F
100
AcDbEntity
  8
SLD-0
100
AcDbLine
 10
-489.8147276336905
 20
293.7073219915
 30
0.0
 11
-490.5147245818907
 21
293.7073219915
 31
0.0
  0
LINE
  5
9A6
330
1F
100
AcDbEntity
  8
SLD-0
100
AcDbLine
 10
-490.5147245818907
 20
293.7073219915
 30
0.0
 11
-490.5147245818907
 21
298.7073768277999
 31
0.0
  0
LINE
  5
9A9
330
1F
100
AcDbEntity
  8
SLD-0
100
AcDbLine
 10
-490.5147245818907
 20
742.2173876663
 30
0.0
 11
-490.5147245818907
 21
298.7073768277999
 31
0.0
  0
LINE
  5
9AB
330
1F
100
AcDbEntity
  8
SLD-0
100
AcDbLine
 10
-490.5147245818907
 20
747.2173232932998
 30
0.0
 11
-489.8147276336905
 21
747.2173232932998
 31
0.0
  0
LINE
  5
9AC
330
1F
100
AcDbEntity
  8
SLD-0
100
AcDbLine
 10
-490.5147245818907
 20
742.2173876663
 30
0.0
 11
-490.5147245818907
 21
747.2173232932998
 31
0.0
  0
LINE
  5
9AD
330
1F
100
AcDbEntity
  8
SLD-0
100
AcDbLine
 10
-490.5147245818907
 20
293.7015105386
 30
0.0
 11
-489.8147276336905
 21
293.7015105386
 31
0.0
  0
LINE
  5
9AE
330
1F
100
AcDbEntity
  8
SLD-0
100
AcDbLine
 10
-490.5147245818907
 20
293.7073219915
 30
0.0
 11
-490.5147245818907
 21
293.7015105386
 31
0.0
  0
LINE
  5
9F9
330
1F
100
AcDbEntity
  8
SLD-0
100
AcDbLine
 10
-97.11473348679078
 20
624.4619150061999
 30
0.0
 11
-97.11473348679078
 21
466.4619133223998
 31
0.0
  0
LINE
  5
A04
330
1F
100
AcDbEntity
  8
SLD-0
100
AcDbLine
 10
-131.1085737043907
 20
670.4619188208999
 30
0.0
 11
-213.6147237116907
 21
670.4619188208999
 31
0.0
  0
LINE
  5
A05
330
1F
100
AcDbEntity
  8
SLD-0
100
AcDbLine
 10
-127.1147346788907
 20
670.4619188208999
 30
0.0
 11
-127.5885021978906
 21
678.9896447558999
 31
0.0
  0
LINE
  5
A06
330
1F
100
AcDbEntity
  8
SLD-0
100
AcDbLine
 10
-127.1147346788907
 20
670.4619188208999
 30
0.0
 11
-131.1085737043907
 21
670.4619188208999
 31
0.0
  0
LINE
  5
A07
330
1F
100
AcDbEntity
  8
SLD-0
100
AcDbLine
 10
-127.5885021978906
 20
678.9896447558999
 30
0.0
 11
-127.7409112745907
 21
678.9950538773996
 31
0.0
  0
LINE
  5
A0F
330
1F
100
AcDbEntity
  8
SLD-0
100
AcDbLine
 10
-130.1147258573905
 20
670.4619188208999
 30
0.0
 11
-132.1144914919907
 21
629.466827621
 31
0.0
  0
LINE
  5
A11
330
1F
100
AcDbEntity
  8
SLD-0
100
AcDbLine
 10
-132.1147299105907
 20
629.4619102377999
 30
0.0
 11
-132.1144914919907
 21
629.466827621
 31
0.0
  0
LINE
  5
A12
330
1F
100
AcDbEntity
  8
SLD-0
100
AcDbLine
 10
-132.1147299105907
 20
629.4619102377999
 30
0.0
 11
-138.5289347464906
 21
623.0477054018997
 31
0.0
  0
LINE
  5
B0D
330
1F
100
AcDbEntity
  8
SLD-0
100
AcDbLine
 10
-97.11473348679078
 20
622.4619109530997
 30
0.0
 11
-213.6147237116906
 21
622.4619109530995
 31
0.0
  0
LINE
  5
B3D
330
1F
100
AcDbEntity
  8
SLD-0
100
AcDbLine
 10
-262.1147251421908
 20
742.2118742365999
 30
0.0
 11
-263.6147207313905
 21
742.2118742365999
 31
0.0
  0
LINE
  5
B3E
330
1F
100
AcDbEntity
  8
SLD-0
100
AcDbLine
 10
-263.6147207313905
 20
747.2118992705998
 30
0.0
 11
-262.1147251421908
 21
747.2118992705998
 31
0.0
  0
LINE
  5
B3F
330
1F
100
AcDbEntity
  8
SLD-0
100
AcDbLine
 10
-262.1147251421908
 20
747.2118992705998
 30
0.0
 11
-262.1147251421908
 21
745.9619004627
 31
0.0
  0
LINE
  5
B40
330
1F
100
AcDbEntity
  8
SLD-0
100
AcDbLine
 10
-262.1147251421908
 20
744.3914372821
 30
0.0
 11
-262.1147251421908
 21
742.2118742365999
 31
0.0
  0
LINE
  5
B41
330
1F
100
AcDbEntity
  8
SLD-0
100
AcDbLine
 10
-263.6147207313905
 20
742.2118742365999
 30
0.0
 11
-263.6147207313905
 21
747.2118992705998
 31
0.0
  0
LINE
  5
B42
330
1F
100
AcDbEntity
  8
SLD-0
100
AcDbLine
 10
-263.6147207313905
 20
298.7118620772999
 30
0.0
 11
-262.1147251421908
 21
298.7118620772999
 31
0.0
  0
LINE
  5
B43
330
1F
100
AcDbEntity
  8
SLD-0
100
AcDbLine
 10
-262.1147251421908
 20
742.2118742365999
 30
0.0
 11
-262.1147251421908
 21
298.7118620772999
 31
0.0
  0
LINE
  5
B44
330
1F
100
AcDbEntity
  8
SLD-0
100
AcDbLine
 10
-263.6147207313905
 20
742.2118742365999
 30
0.0
 11
-263.6147207313905
 21
298.7118620772999
 31
0.0
  0
LINE
  5
B45
330
1F
100
AcDbEntity
  8
SLD-0
100
AcDbLine
 10
-262.1147251421908
 20
293.7119115491
 30
0.0
 11
-263.6147207313905
 21
293.7119115491
 31
0.0
  0
LINE
  5
B46
330
1F
100
AcDbEntity
  8
SLD-0
100
AcDbLine
 10
-262.1147251421908
 20
298.7118620772999
 30
0.0
 11
-262.1147251421908
 21
296.5405989785999
 31
0.0
  0
LINE
  5
B47
330
1F
100
AcDbEntity
  8
SLD-0
100
AcDbLine
 10
-262.1147251421908
 20
294.961910357
 30
0.0
 11
-262.1147251421908
 21
293.7119115491
 31
0.0
  0
LINE
  5
B48
330
1F
100
AcDbEntity
  8
SLD-0
100
AcDbLine
 10
-263.6147207313905
 20
293.7119115491
 30
0.0
 11
-263.6147207313905
 21
298.7118620772999
 31
0.0
  0
LINE
  5
B49
330
1F
100
AcDbEntity
  8
SLD-0
100
AcDbLine
 10
-262.1147251421908
 20
747.2165782351999
 30
0.0
 11
-263.6147207313905
 21
747.2165782351999
 31
0.0
  0
LINE
  5
B4A
330
1F
100
AcDbEntity
  8
SLD-0
100
AcDbLine
 10
-262.1147251421908
 20
747.2165782351999
 30
0.0
 11
-262.1147251421908
 21
747.2118992705998
 31
0.0
  0
LINE
  5
B4B
330
1F
100
AcDbEntity
  8
SLD-0
100
AcDbLine
 10
-263.6147207313905
 20
747.2165782351999
 30
0.0
 11
-263.6147207313905
 21
747.2118992705998
 31
0.0
  0
LINE
  5
B55
330
1F
100
AcDbEntity
  8
SLD-0
100
AcDbLine
 10
-262.1147251421908
 20
745.7851428885999
 30
0.0
 11
-262.1147251421908
 21
744.3914372821
 31
0.0
  0
LINE
  5
B56
330
1F
100
AcDbEntity
  8
SLD-0
100
AcDbLine
 10
-262.1147251421908
 20
296.5405989785999
 30
0.0
 11
-262.1147251421908
 21
295.1386828322999
 31
0.0
  0
LINE
  5
B58
330
1F
100
AcDbEntity
  8
SLD-0
100
AcDbLine
 10
-213.6147237116907
 20
294.961910357
 30
0.0
 11
-213.6147237116907
 21
745.9619004627
 31
0.0
  0
LINE
  5
B5A
330
1F
100
AcDbEntity
  8
SLD-0
100
AcDbLine
 10
-216.1147213274907
 20
748.4619278808
 30
0.0
 11
-259.6147275263907
 21
748.4619278808
 31
0.0
  0
ARC
  5
B5D
330
1F
100
AcDbEntity
  8
SLD-0
100
AcDbCircle
 10
-216.1147242645904
 20
745.9619134157999
 30
0.0
 40
2.5
100
AcDbArc
 50
0.0
 51
90.0
  0
LINE
  5
B5F
330
1F
100
AcDbEntity
  8
SLD-0
100
AcDbLine
 10
-262.0753488236904
 20
745.9619004627
 30
0.0
 11
-262.1147251421908
 21
745.9619004627
 31
0.0
  0
ARC
  5
B60
330
1F
100
AcDbEntity
  8
SLD-0
100
AcDbCircle
 10
-259.6147242645907
 20
745.9619134157999
 30
0.0
 40
2.5
100
AcDbArc
 50
90.0
 51
180.0
  0
LINE
  5
B62
330
1F
100
AcDbEntity
  8
SLD-0
100
AcDbLine
 10
-262.0753488236904
 20
294.961910357
 30
0.0
 11
-262.1147251421908
 21
294.961910357
 31
0.0
  0
ARC
  5
B65
330
1F
100
AcDbEntity
  8
SLD-0
100
AcDbCircle
 10
-259.6147242645907
 20
294.9619134157999
 30
0.0
 40
2.5
100
AcDbArc
 50
180.0
 51
270.0
  0
LINE
  5
B67
330
1F
100
AcDbEntity
  8
SLD-0
100
AcDbLine
 10
-259.6147275263907
 20
292.4619127412
 30
0.0
 11
-216.1147213274907
 21
292.4619127412
 31
0.0
  0
ARC
  5
B6A
330
1F
100
AcDbEntity
  8
SLD-0
100
AcDbCircle
 10
-216.1147242645904
 20
294.9619134157999
 30
0.0
 40
2.5
100
AcDbArc
 50
270.0
 51
0.0000000014994712
  0
LINE
  5
B6B
330
1F
100
AcDbEntity
  8
SLD-0
100
AcDbLine
 10
-262.1147251421908
 20
745.7851428885999
 30
0.0
 11
-262.1147251421908
 21
745.9619004627
 31
0.0
  0
LINE
  5
B6C
330
1F
100
AcDbEntity
  8
SLD-0
100
AcDbLine
 10
-262.1147251421908
 20
294.961910357
 30
0.0
 11
-262.1147251421908
 21
295.1386828322999
 31
0.0
  0
LINE
  5
B6D
330
1F
100
AcDbEntity
  8
SLD-0
100
AcDbLine
 10
-15.16472461769069
 20
290.961917152
 30
0.0
 11
-515.1647246176907
 21
290.961917152
 31
0.0
  0
LINE
  5
B6E
330
1F
100
AcDbEntity
  8
SLD-0
100
AcDbLine
 10
-15.16472461769069
 20
290.961917152
 30
0.0
 11
-15.16472461769069
 21
287.9619110722999
 31
0.0
  0
LINE
  5
B70
330
1F
100
AcDbEntity
  8
SLD-0
100
AcDbLine
 10
-515.1647246176907
 20
290.961917152
 30
0.0
 11
-515.1647246176907
 21
287.9619110722999
 31
0.0
  0
ARC
  5
B71
330
1F
100
AcDbEntity
  8
SLD-0
100
AcDbCircle
 10
-512.1647242645906
 20
268.9619134157999
 30
0.0
 40
3.000000000000055
100
AcDbArc
 50
180.0
 51
270.0
  0
LINE
  5
B72
330
1F
100
AcDbEntity
  8
SLD-0
100
AcDbLine
 10
-515.1647246176907
 20
287.9619110722999
 30
0.0
 11
-515.1647246176907
 21
268.9619172711999
 31
0.0
  0
LINE
  5
B73
330
1F
100
AcDbEntity
  8
SLD-0
100
AcDbLine
 10
-15.16472461769069
 20
287.9619110722999
 30
0.0
 11
-15.16472461769069
 21
268.9619172711999
 31
0.0
  0
ARC
  5
B74
330
1F
100
AcDbEntity
  8
SLD-0
100
AcDbCircle
 10
-18.16472426459069
 20
268.9619134157999
 30
0.0
 40
3.000000000000055
100
AcDbArc
 50
270.0
 51
0.0
  0
LINE
  5
B76
330
1F
100
AcDbEntity
  8
SLD-0
100
AcDbLine
 10
-18.16471579619065
 20
265.9619111915
 30
0.0
 11
-512.1647185379908
 21
265.9619111915
 31
0.0
  0
LINE
  5
B85
330
1F
100
AcDbEntity
  8
SLD-0
100
AcDbLine
 10
-266.6147268110907
 20
744.4619197746001
 30
0.0
 11
-268.6147234136906
 21
744.4619197746001
 31
0.0
  0
LWPOLYLINE
  5
B86
330
1F
100
AcDbEntity
  8
SLD-0
100
AcDbPolyline
 90
        3
 70
   128
 43
0.0
 10
-263.6147207313905
 20
298.2657660145999
 10
-265.0618097478907
 20
297.6663519044
 10
-266.6147268110907
 20
297.4619079729
  0
LWPOLYLINE
  5
B88
330
1F
100
AcDbEntity
  8
SLD-0
100
AcDbPolyline
 90
        3
 70
   128
 43
0.0
 10
-263.6147207313905
 20
743.6580617327995
 10
-265.0618097478907
 20
744.2574758430001
 10
-266.6147268110907
 20
744.4619197746001
  0
LINE
  5
B8B
330
1F
100
AcDbEntity
  8
SLD-0
100
AcDbLine
 10
-266.6147268110907
 20
297.4619079729
 30
0.0
 11
-268.6147234136906
 21
297.4619079729
 31
0.0
  0
LINE
  5
B90
330
1F
100
AcDbEntity
  8
SLD-0
100
AcDbLine
 10
-270.3147223884906
 20
748.4619278808
 30
0.0
 11
-488.1147212082907
 21
748.4619278808
 31
0.0
  0
ARC
  5
B91
330
1F
100
AcDbEntity
  8
SLD-0
100
AcDbCircle
 10
-488.1147242645903
 20
746.7619134157999
 30
0.0
 40
1.700000000000045
100
AcDbArc
 50
90.0
 51
162.8953648233008
  0
LINE
  5
BA2
330
1F
100
AcDbEntity
  8
SLD-0
100
AcDbLine
 10
-268.6147234136906
 20
293.6619181533
 30
0.0
 11
-268.6147234136906
 21
747.2619075674997
 31
0.0
  0
LINE
  5
BA7
330
1F
100
AcDbEntity
  8
SLD-0
100
AcDbLine
 10
-491.3147232228905
 20
583.8622633714999
 30
0.0
 11
-491.3147232228905
 21
582.0622701544999
 31
0.0
  0
LINE
  5
BA8
330
1F
100
AcDbEntity
  8
SLD-0
100
AcDbLine
 10
-491.3147232228905
 20
458.8622670967999
 30
0.0
 11
-491.3147232228905
 21
457.0622664292
 31
0.0
  0
LINE
  5
BBF
330
1F
100
AcDbEntity
  8
SLD-0
100
AcDbLine
 10
-488.1147212082907
 20
292.4619127412
 30
0.0
 11
-270.3147223884906
 21
292.4619127412
 31
0.0
  0
ARC
  5
BC0
330
1F
100
AcDbEntity
  8
SLD-0
100
AcDbCircle
 10
-488.1147242645903
 20
294.1619134158
 30
0.0
 40
1.700000000000045
100
AcDbArc
 50
197.1046351765997
 51
270.0
  0
ARC
  5
BC2
330
1F
100
AcDbEntity
  8
SLD-0
100
AcDbCircle
 10
-270.3147242645907
 20
294.1619134158
 30
0.0
 40
1.70000000000009
100
AcDbArc
 50
270.0
 51
342.8953648233996
  0
LINE
  5
BC4
330
1F
100
AcDbEntity
  8
SLD-0
100
AcDbLine
 10
-530.9647238546908
 20
670.4619188208999
 30
0.0
 11
-530.9647238546908
 21
420.4619150955997
 31
0.0
  0
LINE
  5
BC5
330
1F
100
AcDbEntity
  8
SLD-0
100
AcDbLine
 10
-233.3147293621906
 20
828.6119062800999
 30
0.0
 11
-483.3147219115907
 21
828.6119062800999
 31
0.0
  0
LINE
  5
BCA
330
1F
100
AcDbEntity
  8
SLD-0
100
AcDbLine
 10
-38.18651202269069
 20
624.4619150061999
 30
0.0
 11
-38.18651202269069
 21
466.4619133223998
 31
0.0
  0
LINE
  5
BCB
330
1F
100
AcDbEntity
  8
SLD-0
100
AcDbLine
 10
-36.18650796959065
 20
623.926009645
 30
0.0
 11
-36.18650796959065
 21
466.9978121642999
 31
0.0
  0
LINE
  5
BCC
330
1F
100
AcDbEntity
  8
SLD-0
100
AcDbLine
 10
-16.11473324839068
 20
612.3375553985
 30
0.0
 11
-16.11473324839068
 21
478.5862690592998
 31
0.0
  0
LINE
  5
BCD
330
1F
100
AcDbEntity
  8
SLD-0
100
AcDbLine
 10
-131.5823412233905
 20
678.9896447558999
 30
0.0
 11
-213.6147237116907
 21
678.9896447558999
 31
0.0
  0
SPLINE
  5
BCE
330
1F
100
AcDbEntity
  8
SLD-0
100
AcDbSpline
210
0.0
220
0.0
230
1.0
 70
     8
 71
     3
 72
    11
 73
     7
 74
     0
 42
0.000000001
 43
0.0000000001
 40
0.0
 40
0.0
 40
0.0
 40
0.0
 40
0.1427118075304197
 40
0.4284144131210068
 40
0.7141234638129493
 40
1.0
 40
1.0
 40
1.0
 40
1.0
 10
-127.7409112746138
 20
678.9950538774012
 30
0.0
 10
-127.7774972844874
 20
678.9969637083227
 30
0.0
 10
-127.8873268369238
 20
679.0026969346584
 30
0.0
 10
-128.7043753733604
 20
679.0069934587266
 30
0.0
 10
-130.0092618640091
 20
679.0014872657448
 30
0.0
 10
-131.0578790153315
 20
678.9935930302277
 30
0.0
 10
-131.5823412234206
 20
678.9896447558881
 30
0.0
  0
LINE
  5
BFE
330
1F
100
AcDbEntity
  8
SLD-0
100
AcDbLine
 10
-464.8050284677904
 20
291.2619073290999
 30
0.0
 11
-455.4647273117906
 21
291.2619073290999
 31
0.0
  0
LINE
  5
BFF
330
1F
100
AcDbEntity
  8
SLD-0
100
AcDbLine
 10
-468.4647238546906
 20
291.2619073290999
 30
0.0
 11
-464.8050284677904
 21
291.2619073290999
 31
0.0
  0
LINE
  5
C00
330
1F
100
AcDbEntity
  8
SLD-0
100
AcDbLine
 10
-302.0651331836907
 20
291.2619073290999
 30
0.0
 11
-289.9647271925904
 21
291.2619073290999
 31
0.0
  0
LINE
  5
C01
330
1F
100
AcDbEntity
  8
SLD-0
100
AcDbLine
 10
-302.9647237354907
 20
291.2619073290999
 30
0.0
 11
-302.0651331836907
 21
291.2619073290999
 31
0.0
  0
LINE
  5
C0F
330
1F
100
AcDbEntity
  8
SLD-0
100
AcDbLine
 10
-1296.7504656544
 20
-547.1234362348
 30
0.0
 11
-1296.2968743077
 21
-546.9905476793
 31
0.0
  0
LINE
  5
C11
330
1F
100
AcDbEntity
  8
SLD-0
100
AcDbLine
 10
-1293.445963659
 20
-523.7515609486996
 30
0.0
 11
-1294.2616727805
 21
-523.9905457718997
 31
0.0
  0
LINE
  5
C14
330
1F
100
AcDbEntity
  8
SLD-0
100
AcDbLine
 10
-1280.5903770631
 20
-542.3889051898
 30
0.0
 11
-1279.9709860837
 21
-542.2074388487999
 31
0.0
  0
LINE
  5
C94
330
1F
100
AcDbEntity
  8
SLD-0
100
AcDbLine
 10
-1300.5903770818
 20
-546.9905476793
 30
0.0
 11
-1296.7893995947
 21
-546.9905476793
 31
0.0
  0
LINE
  5
C95
330
1F
100
AcDbEntity
  8
SLD-0
100
AcDbLine
 10
-1296.338253901
 20
-546.9905476793
 30
0.0
 11
-1295.5903767279
 21
-546.9905476793
 31
0.0
  0
LINE
  5
C97
330
1F
100
AcDbEntity
  8
SLD-0
100
AcDbLine
 10
-1294.2202931872
 20
-523.9905457718997
 30
0.0
 11
-1300.5903770818
 21
-523.9905457718997
 31
0.0
  0
LINE
  5
C98
330
1F
100
AcDbEntity
  8
SLD-0
100
AcDbLine
 10
-1315.0903771302
 20
-549.4762550814997
 30
0.0
 11
-1300.5903770818
 21
-549.4762550814997
 31
0.0
  0
LINE
  5
C99
330
1F
100
AcDbEntity
  8
SLD-0
100
AcDbLine
 10
-1300.5903770818
 20
-523.6307721360997
 30
0.0
 11
-1315.0903771302
 21
-523.6307721360997
 31
0.0
  0
LINE
  5
C9A
330
1F
100
AcDbEntity
  8
SLD-0
100
AcDbLine
 10
-1506.7606431103
 20
-170.7705896123
 30
0.0
 11
-1506.4186167574
 21
-171.7102866395
 31
0.0
  0
LINE
  5
C9B
330
1F
100
AcDbEntity
  8
SLD-0
100
AcDbLine
 10
-1230.0186169004
 20
-171.7102866395
 30
0.0
 11
-1229.6765979981
 21
-170.7705896123
 31
0.0
  0
LINE
  5
C9C
330
1F
100
AcDbEntity
  8
SLD-0
100
AcDbLine
 10
-1229.6765979981
 20
-170.7705896123
 30
0.0
 11
-1244.0186191952
 21
-165.550519131
 31
0.0
  0
LINE
  5
C9D
330
1F
100
AcDbEntity
  8
SLD-0
100
AcDbLine
 10
-1492.4186181879
 20
-165.550519131
 30
0.0
 11
-1506.7606431103
 21
-170.7705896123
 31
0.0
  0
ARC
  5
C9E
330
1F
100
AcDbEntity
  8
SLD-0
100
AcDbCircle
 10
-1492.5186188608
 20
-202.8607258354
 30
0.0
 40
2.699999999999969
100
AcDbArc
 50
105.0261137591
 51
160.3035431833
  0
LINE
  5
C9F
330
1F
100
AcDbEntity
  8
SLD-0
100
AcDbLine
 10
-1243.2186205542
 20
-199.8581778034
 30
0.0
 11
-1243.2186205542
 21
-190.640014015
 31
0.0
  0
LINE
  5
CA0
330
1F
100
AcDbEntity
  8
SLD-0
100
AcDbLine
 10
-1493.2186168289
 20
-190.640014015
 30
0.0
 11
-1493.2186168289
 21
-200.2530436738
 31
0.0
  0
LINE
  5
CA1
330
1F
100
AcDbEntity
  8
SLD-0
100
AcDbLine
 10
-1243.2186205542
 20
-190.640014015
 30
0.0
 11
-1245.0186174965
 21
-188.0693476423
 31
0.0
  0
LINE
  5
CA2
330
1F
100
AcDbEntity
  8
SLD-0
100
AcDbLine
 10
-1491.4186161613
 20
-188.0693476423
 30
0.0
 11
-1493.2186168289
 21
-190.640014015
 31
0.0
  0
LINE
  5
CA3
330
1F
100
AcDbEntity
  8
SLD-0
100
AcDbLine
 10
-1243.2186205542
 20
-165.250722669
 30
0.0
 11
-1243.2186205542
 21
-161.5007262453
 31
0.0
  0
LINE
  5
CA4
330
1F
100
AcDbEntity
  8
SLD-0
100
AcDbLine
 10
-1493.2186168289
 20
-161.5007262453
 30
0.0
 11
-1493.2186168289
 21
-165.250722669
 31
0.0
  0
ARC
  5
CA5
330
1F
100
AcDbEntity
  8
SLD-0
100
AcDbCircle
 10
-1244.4686188608
 20
-161.5007258354
 30
0.0
 40
1.25
100
AcDbArc
 50
0.0
 51
90.0
  0
ARC
  5
CA6
330
1F
100
AcDbEntity
  8
SLD-0
100
AcDbCircle
 10
-1491.9686188608
 20
-161.5007258354
 30
0.0
 40
1.25
100
AcDbArc
 50
90.0
 51
180.0
  0
LINE
  5
CA7
330
1F
100
AcDbEntity
  8
SLD-0
100
AcDbLine
 10
-1244.4686193621
 20
-160.2507274373
 30
0.0
 11
-1491.968618021
 21
-160.2507274373
 31
0.0
  0
LINE
  5
CA8
330
1F
100
AcDbEntity
  8
SLD-0
100
AcDbLine
 10
-1244.0186191952
 20
-165.550519131
 30
0.0
 11
-1244.0186191952
 21
-165.250722669
 31
0.0
  0
LINE
  5
CA9
330
1F
100
AcDbEntity
  8
SLD-0
100
AcDbLine
 10
-1492.4186181879
 20
-165.250722669
 30
0.0
 11
-1492.4186181879
 21
-165.550519131
 31
0.0
  0
LINE
  5
CAA
330
1F
100
AcDbEntity
  8
SLD-0
100
AcDbLine
 10
-1245.0186174965
 20
-188.0693476423
 30
0.0
 11
-1245.0186174965
 21
-171.7102866395
 31
0.0
  0
LINE
  5
CAB
330
1F
100
AcDbEntity
  8
SLD-0
100
AcDbLine
 10
-1491.4186161613
 20
-171.7102866395
 30
0.0
 11
-1491.4186161613
 21
-188.0693476423
 31
0.0
  0
LINE
  5
CB1
330
1F
100
AcDbEntity
  8
SLD-0
100
AcDbLine
 10
-1102.2186142063
 20
-523.8507281763998
 30
0.0
 11
-1100.2186250543
 21
-523.8507281763998
 31
0.0
  0
LINE
  5
CB2
330
1F
100
AcDbEntity
  8
SLD-0
100
AcDbLine
 10
-1087.2186136103
 20
-481.850732468
 30
0.0
 11
-1100.2186250543
 21
-481.850732468
 31
0.0
  0
LINE
  5
CB3
330
1F
100
AcDbEntity
  8
SLD-0
100
AcDbLine
 10
-1111.2186175442
 20
-480.8507304414
 30
0.0
 11
-1111.2186175442
 21
-478.8507263882998
 31
0.0
  0
LINE
  5
CB4
330
1F
100
AcDbEntity
  8
SLD-0
100
AcDbLine
 10
-1120.218620882
 20
-478.8507263882998
 30
0.0
 11
-1120.218620882
 21
-480.8507304414
 31
0.0
  0
LINE
  5
CB5
330
1F
100
AcDbEntity
  8
SLD-0
100
AcDbLine
 10
-1100.2186250543
 20
-483.8507216198999
 30
0.0
 11
-1102.2186142063
 21
-483.8507216198999
 31
0.0
  0
LINE
  5
CB8
330
1F
100
AcDbEntity
  8
SLD-0
100
AcDbLine
 10
-1289.218618781
 20
-654.2789380773
 30
0.0
 11
-1289.218618781
 21
-595.3507166130997
 31
0.0
  0
LINE
  5
CB9
330
1F
100
AcDbEntity
  8
SLD-0
100
AcDbLine
 10
-1447.2186130142
 20
-595.3507166130997
 30
0.0
 11
-1447.2186130142
 21
-654.2789380773
 31
0.0
  0
ARC
  5
CBA
330
1F
100
AcDbEntity
  8
SLD-0
100
AcDbCircle
 10
-1293.2186188608
 20
-654.2789290655998
 30
0.0
 40
4.0
100
AcDbArc
 50
330.0000000287
 51
0.0
  0
ARC
  5
CBB
330
1F
100
AcDbEntity
  8
SLD-0
100
AcDbCircle
 10
-1443.2186188608
 20
-654.2789290655998
 30
0.0
 40
4.0
100
AcDbArc
 50
180.0
 51
209.9999999713
  0
LINE
  5
CBC
330
1F
100
AcDbEntity
  8
SLD-0
100
AcDbLine
 10
-1446.6827225542
 20
-656.2789421304
 30
0.0
 11
-1435.0942683077
 21
-676.3507168516
 31
0.0
  0
LINE
  5
CBD
330
1F
100
AcDbEntity
  8
SLD-0
100
AcDbLine
 10
-1301.3429746634
 20
-676.3507168516
 30
0.0
 11
-1289.7545166916
 21
-656.2789421304
 31
0.0
  0
ARC
  5
CBE
330
1F
100
AcDbEntity
  8
SLD-0
100
AcDbCircle
 10
-1303.0750253213
 20
-675.3507258354
 30
0.0
 40
2.0
100
AcDbArc
 50
270.0
 51
330.0
  0
ARC
  5
CBF
330
1F
100
AcDbEntity
  8
SLD-0
100
AcDbCircle
 10
-1433.3622124002
 20
-675.3507258354
 30
0.0
 40
2.000000000000164
100
AcDbArc
 50
210.0
 51
270.0
  0
LINE
  5
CC0
330
1F
100
AcDbEntity
  8
SLD-0
100
AcDbLine
 10
-1433.3622169351
 20
-677.3507337792997
 30
0.0
 11
-1303.0750253374
 21
-677.3507337792997
 31
0.0
  0
LINE
  5
CD0
330
1F
100
AcDbEntity
  8
SLD-0
100
AcDbLine
 10
-1291.4362887522
 20
-595.3507166130997
 30
0.0
 11
-1291.4362887522
 21
-550.0637184603997
 31
0.0
  0
LINE
  5
CD1
330
1F
100
AcDbEntity
  8
SLD-0
100
AcDbLine
 10
-1291.4362887522
 20
-520.9173600896
 30
0.0
 11
-1291.4362887522
 21
-478.8507263882998
 31
0.0
  0
LINE
  5
CD3
330
1F
100
AcDbEntity
  8
SLD-0
100
AcDbLine
 10
-1290.941533879
 20
-595.3507166130997
 30
0.0
 11
-1290.941533879
 21
-550.0637184603997
 31
0.0
  0
LINE
  5
CD4
330
1F
100
AcDbEntity
  8
SLD-0
100
AcDbLine
 10
-1290.941533879
 20
-520.9173600896
 30
0.0
 11
-1290.941533879
 21
-479.023654364
 31
0.0
  0
LINE
  5
CD5
330
1F
100
AcDbEntity
  8
SLD-0
100
AcDbLine
 10
-1445.8940189934
 20
-479.2312126381998
 30
0.0
 11
-1445.8940189934
 21
-595.3507166130997
 31
0.0
  0
LINE
  5
CD6
330
1F
100
AcDbEntity
  8
SLD-0
100
AcDbLine
 10
-1290.9058651557
 20
-595.3507166130997
 30
0.0
 11
-1290.9058651557
 21
-550.0637184603997
 31
0.0
  0
LINE
  5
CD7
330
1F
100
AcDbEntity
  8
SLD-0
100
AcDbLine
 10
-1290.9058651557
 20
-520.9173600896
 30
0.0
 11
-1290.9058651557
 21
-479.0441434605999
 31
0.0
  0
ARC
  5
CEA
330
1F
100
AcDbEntity
  8
SLD-0
100
AcDbCircle
 10
-1563.7186188608
 20
-519.3507258353
 30
0.0
 40
1.0
100
AcDbArc
 50
180.0
 51
270.0
  0
ARC
  5
CEB
330
1F
100
AcDbEntity
  8
SLD-0
100
AcDbCircle
 10
-1541.7186188608
 20
-519.3507258353
 30
0.0
 40
1.0
100
AcDbArc
 50
270.0
 51
0.0
  0
LINE
  5
CEC
330
1F
100
AcDbEntity
  8
SLD-0
100
AcDbLine
 10
-1563.7186181402
 20
-520.3507285341
 30
0.0
 11
-1541.7186182594
 21
-520.3507285341
 31
0.0
  0
LWPOLYLINE
  5
D43
330
1F
100
AcDbEntity
  8
SLD-0
100
AcDbPolyline
 90
        3
 70
   128
 43
0.0
 10
-1296.7504656544
 20
-547.1234362348
 10
-1296.8019286772
 20
-546.9477813465998
 10
-1296.8677331364
 20
-546.723176144
  0
LWPOLYLINE
  5
D45
330
1F
100
AcDbEntity
  8
SLD-0
100
AcDbPolyline
 90
        4
 70
   128
 43
0.0
 10
-1293.1507222956
 20
-524.7592817768
 10
-1293.2418643167
 20
-524.4482051357
 10
-1293.3945006361
 20
-523.9272158369
 10
-1293.445963659
 20
-523.7515609486996
  0
ELLIPSE
  5
DA8
330
1F
100
AcDbEntity
  8
SLD-0
100
AcDbEllipse
 10
-1308.340376914
 20
-535.490541955
 30
0.0
 11
14.59413599092659
 21
-14.59413599092659
 31
0.0
210
0.0
220
0.0
230
1.0
 40
0.1465396655
 41
0.0094918635660748
 42
0.2815162395898764
  0
LINE
  5
DB0
330
1F
100
AcDbEntity
  8
SLD-0
100
AcDbLine
 10
-1300.5903770818
 20
-538.8844501002998
 30
0.0
 11
-1300.5903770818
 21
-541.1030988915999
 31
0.0
  0
LINE
  5
DB1
330
1F
100
AcDbEntity
  8
SLD-0
100
AcDbLine
 10
-1300.5903770818
 20
-541.1030988915999
 30
0.0
 11
-1300.5903770818
 21
-549.1210710033
 31
0.0
  0
LINE
  5
DB2
330
1F
100
AcDbEntity
  8
SLD-0
100
AcDbLine
 10
-1300.5903770818
 20
-525.3831933958998
 30
0.0
 11
-1300.5903770818
 21
-538.8844501002998
 31
0.0
  0
LINE
  5
DB3
330
1F
100
AcDbEntity
  8
SLD-0
100
AcDbLine
 10
-1300.5903770818
 20
-523.957554601
 30
0.0
 11
-1300.5903770818
 21
-525.3831933958998
 31
0.0
  0
LINE
  5
DB4
330
1F
100
AcDbEntity
  8
SLD-0
100
AcDbLine
 10
-1300.5903770818
 20
-523.6312936766998
 30
0.0
 11
-1300.5903770818
 21
-523.957554601
 31
0.0
  0
LINE
  5
DB5
330
1F
100
AcDbEntity
  8
SLD-0
100
AcDbLine
 10
-1293.7265990904
 20
-550.0637184603997
 30
0.0
 11
-1295.5903767279
 21
-548.2783060295998
 31
0.0
  0
LINE
  5
DB6
330
1F
100
AcDbEntity
  8
SLD-0
100
AcDbLine
 10
-1295.5903767279
 20
-548.2783060295998
 30
0.0
 11
-1295.5903767279
 21
-547.1306334956998
 31
0.0
  0
LINE
  5
DB7
330
1F
100
AcDbEntity
  8
SLD-0
100
AcDbLine
 10
-1295.5903767279
 20
-547.1306334956998
 30
0.0
 11
-1293.7265990904
 21
-548.9160459264
 31
0.0
  0
LINE
  5
DB8
330
1F
100
AcDbEntity
  8
SLD-0
100
AcDbLine
 10
-1295.5903767279
 20
-547.1306334956998
 30
0.0
 11
-1295.5903767279
 21
-545.7653146013
 31
0.0
  0
LINE
  5
DBA
330
1F
100
AcDbEntity
  8
SLD-0
100
AcDbLine
 10
-1300.5903770818
 20
-549.1210710033
 30
0.0
 11
-1300.5903770818
 21
-549.4762550814997
 31
0.0
  0
LINE
  5
DBE
330
1F
100
AcDbEntity
  8
SLD-0
100
AcDbLine
 10
-1300.5903770818
 20
-523.6307721360997
 30
0.0
 11
-1300.5903770818
 21
-523.6312936766998
 31
0.0
  0
LINE
  5
DC1
330
1F
100
AcDbEntity
  8
SLD-0
100
AcDbLine
 10
-1229.6765979981
 20
-170.7705896123
 30
0.0
 11
-1506.7606431103
 21
-170.7705896123
 31
0.0
  0
LINE
  5
DC2
330
1F
100
AcDbEntity
  8
SLD-0
100
AcDbLine
 10
-1230.0186169004
 20
-171.7102866395
 30
0.0
 11
-1506.4186167574
 21
-171.7102866395
 31
0.0
  0
LINE
  5
DC3
330
1F
100
AcDbEntity
  8
SLD-0
100
AcDbLine
 10
-1244.0186191952
 20
-165.550519131
 30
0.0
 11
-1492.4186181879
 21
-165.550519131
 31
0.0
  0
LINE
  5
DC4
330
1F
100
AcDbEntity
  8
SLD-0
100
AcDbLine
 10
-1244.7397087371
 20
-200.2530436738
 30
0.0
 11
-1493.2186168289
 21
-200.2530436738
 31
0.0
  0
LINE
  5
DC5
330
1F
100
AcDbEntity
  8
SLD-0
100
AcDbLine
 10
-1243.2186205542
 20
-190.640014015
 30
0.0
 11
-1493.2186168289
 21
-190.640014015
 31
0.0
  0
LINE
  5
DC6
330
1F
100
AcDbEntity
  8
SLD-0
100
AcDbLine
 10
-1245.0186174965
 20
-188.0693476423
 30
0.0
 11
-1491.4186161613
 21
-188.0693476423
 31
0.0
  0
LINE
  5
DC7
330
1F
100
AcDbEntity
  8
SLD-0
100
AcDbLine
 10
-1243.2186205542
 20
-165.250722669
 30
0.0
 11
-1493.2186168289
 21
-165.250722669
 31
0.0
  0
LINE
  5
E15
330
1F
100
AcDbEntity
  8
SLD-0
100
AcDbLine
 10
-1549.1186243152
 20
-554.8007230980998
 30
0.0
 11
-1545.2186179018
 21
-554.8007230980998
 31
0.0
  0
LINE
  5
E16
330
1F
100
AcDbEntity
  8
SLD-0
100
AcDbLine
 10
-1549.1186243152
 20
-554.8007230980998
 30
0.0
 11
-1549.1186243152
 21
-542.3007201179
 31
0.0
  0
LINE
  5
E17
330
1F
100
AcDbEntity
  8
SLD-0
100
AcDbLine
 10
-1549.1186243152
 20
-542.3007201179
 30
0.0
 11
-1445.8940189934
 21
-542.3007201179
 31
0.0
  0
LINE
  5
E1A
330
1F
100
AcDbEntity
  8
SLD-0
100
AcDbLine
 10
-1300.5903770818
 20
-542.3007201179
 30
0.0
 11
-1084.3186241245
 21
-542.3007201179
 31
0.0
  0
LINE
  5
E1B
330
1F
100
AcDbEntity
  8
SLD-0
100
AcDbLine
 10
-1084.3186241245
 20
-554.8007230980998
 30
0.0
 11
-1088.2186156368
 21
-554.8007230980998
 31
0.0
  0
LINE
  5
E1C
330
1F
100
AcDbEntity
  8
SLD-0
100
AcDbLine
 10
-1084.3186241245
 20
-542.3007201179
 30
0.0
 11
-1084.3186241245
 21
-554.8007230980998
 31
0.0
  0
LINE
  5
E1D
330
1F
100
AcDbEntity
  8
SLD-0
100
AcDbLine
 10
-1545.2186179018
 20
-557.3007207138998
 30
0.0
 11
-1445.8940189934
 21
-557.3007207138998
 31
0.0
  0
LINE
  5
E1E
330
1F
100
AcDbEntity
  8
SLD-0
100
AcDbLine
 10
-1290.9058651557
 20
-557.3007207138998
 30
0.0
 11
-1088.2186156368
 21
-557.3007207138998
 31
0.0
  0
LINE
  5
E1F
330
1F
100
AcDbEntity
  8
SLD-0
100
AcDbLine
 10
-1545.2186179018
 20
-554.8007230980998
 30
0.0
 11
-1545.2186179018
 21
-557.3007207138998
 31
0.0
  0
LINE
  5
E20
330
1F
100
AcDbEntity
  8
SLD-0
100
AcDbLine
 10
-1088.2186156368
 20
-554.8007230980998
 30
0.0
 11
-1088.2186156368
 21
-557.3007207138998
 31
0.0
  0
ARC
  5
E21
330
1F
100
AcDbEntity
  8
SLD-0
100
AcDbCircle
 10
-1088.2186188608
 20
-554.8007258354
 30
0.0
 40
2.5
100
AcDbArc
 50
270.0
 51
0.0
  0
ARC
  5
E22
330
1F
100
AcDbEntity
  8
SLD-0
100
AcDbCircle
 10
-1088.2186188608
 20
-554.8007258354
 30
0.0
 40
1.0
100
AcDbArc
 50
270.0
 51
0.0
  0
ARC
  5
E23
330
1F
100
AcDbEntity
  8
SLD-0
100
AcDbCircle
 10
-1545.2186188608
 20
-554.8007258353
 30
0.0
 40
1.000000000000113
100
AcDbArc
 50
180.0
 51
270.0
  0
ARC
  5
E24
330
1F
100
AcDbEntity
  8
SLD-0
100
AcDbCircle
 10
-1545.2186188608
 20
-554.8007258353
 30
0.0
 40
2.5
100
AcDbArc
 50
180.0
 51
270.0
  0
CIRCLE
  5
E25
330
1F
100
AcDbEntity
  8
SLD-0
100
AcDbCircle
 10
-1209.1686188608
 20
-334.1507258354
 30
0.0
 40
122.5
  0
CIRCLE
  5
E26
330
1F
100
AcDbEntity
  8
SLD-0
100
AcDbCircle
 10
-1209.1686188608
 20
-334.1507258354
 30
0.0
 40
125.0
  0
CIRCLE
  5
E27
330
1F
100
AcDbEntity
  8
SLD-0
100
AcDbCircle
 10
-1209.1686188608
 20
-334.1507258354
 30
0.0
 40
138.5420201433257
  0
LWPOLYLINE
  5
E38
330
1F
100
AcDbEntity
  8
SLD-0
100
AcDbPolyline
 90
        3
 70
   128
 43
0.0
 10
-1193.2174724197
 20
-522.3542492612
 10
-1193.2183366871
 20
-522.3516117556998
 10
-1193.2186198091
 20
-522.3507325872
  0
LINE
  5
E39
330
1F
100
AcDbEntity
  8
SLD-0
100
AcDbLine
 10
-1193.2186198091
 20
-522.3507325872
 30
0.0
 11
-1193.2186198091
 21
-494.4289367421998
 31
0.0
  0
LINE
  5
E3E
330
1F
100
AcDbEntity
  8
SLD-0
100
AcDbLine
 10
-1102.2186142063
 20
-515.3507184013
 30
0.0
 11
-1102.2186142063
 21
-522.3507325872
 31
0.0
  0
LWPOLYLINE
  5
E3F
330
1F
100
AcDbEntity
  8
SLD-0
100
AcDbPolyline
 90
        3
 70
   128
 43
0.0
 10
-1102.2186142063
 20
-522.3507325872
 10
-1102.2188973284
 20
-522.3516117556998
 10
-1102.2197615957
 20
-522.3542492612
  0
LINE
  5
E44
330
1F
100
AcDbEntity
  8
SLD-0
100
AcDbLine
 10
-1188.6697423315
 20
-536.3507311567
 30
0.0
 11
-1193.2174724197
 21
-522.3542492612
 31
0.0
  0
LINE
  5
E45
330
1F
100
AcDbEntity
  8
SLD-0
100
AcDbLine
 10
-1102.2197615957
 20
-522.3542492612
 30
0.0
 11
-1106.7674916839
 21
-536.3507311567
 31
0.0
  0
ARC
  5
E49
330
1F
100
AcDbEntity
  8
SLD-0
100
AcDbCircle
 10
-1147.7186188608
 20
-323.3014210195088
 30
0.0
 40
216.9493048157986
100
AcDbArc
 50
259.1264291428998
 51
271.5673095334001
  0
ARC
  5
E4A
330
1F
100
AcDbEntity
  8
SLD-0
100
AcDbCircle
 10
-1147.7186188608
 20
-323.3014210195
 30
0.0
 40
216.9493048158074
100
AcDbArc
 50
271.5673095334
 51
280.8735708571
  0
LINE
  5
E51
330
1F
100
AcDbEntity
  8
SLD-0
100
AcDbLine
 10
-1099.7186165905
 20
-515.3507184013
 30
0.0
 11
-1099.7186165905
 21
-517.2924887165
 31
0.0
  0
LINE
  5
E52
330
1F
100
AcDbEntity
  8
SLD-0
100
AcDbLine
 10
-1102.2186142063
 20
-522.3507325872
 30
0.0
 11
-1102.2186142063
 21
-523.8507281763998
 31
0.0
  0
LINE
  5
E53
330
1F
100
AcDbEntity
  8
SLD-0
100
AcDbLine
 10
-1099.7186165905
 20
-515.3507184013
 30
0.0
 11
-1102.2186142063
 21
-515.3507184013
 31
0.0
  0
LINE
  5
E55
330
1F
100
AcDbEntity
  8
SLD-0
100
AcDbLine
 10
-1083.7186139679
 20
-531.4743559583
 30
0.0
 11
-1083.7186139679
 21
-527.4743627532
 31
0.0
  0
LINE
  5
E56
330
1F
100
AcDbEntity
  8
SLD-0
100
AcDbLine
 10
-1082.2186183786
 20
-527.4743627532
 30
0.0
 11
-1083.7186139679
 21
-527.4743627532
 31
0.0
  0
LINE
  5
E57
330
1F
100
AcDbEntity
  8
SLD-0
100
AcDbLine
 10
-1082.2186183786
 20
-532.4743579848999
 30
0.0
 11
-1082.2186183786
 21
-527.4743627532
 31
0.0
  0
LINE
  5
E58
330
1F
100
AcDbEntity
  8
SLD-0
100
AcDbLine
 10
-1082.2186183786
 20
-532.4743579848999
 30
0.0
 11
-1100.2186250543
 21
-532.4743579848999
 31
0.0
  0
LINE
  5
E59
330
1F
100
AcDbEntity
  8
SLD-0
100
AcDbLine
 10
-1100.2186250543
 20
-532.4743579848999
 30
0.0
 11
-1100.2186250543
 21
-531.4743559583
 31
0.0
  0
LINE
  5
E5A
330
1F
100
AcDbEntity
  8
SLD-0
100
AcDbLine
 10
-1083.7186139679
 20
-531.4743559583
 30
0.0
 11
-1100.2186250543
 21
-531.4743559583
 31
0.0
  0
LINE
  5
E5B
330
1F
100
AcDbEntity
  8
SLD-0
100
AcDbLine
 10
-1082.2186183786
 20
-525.4743587001
 30
0.0
 11
-1083.7186139679
 21
-525.4743587001
 31
0.0
  0
LINE
  5
E5C
330
1F
100
AcDbEntity
  8
SLD-0
100
AcDbLine
 10
-1082.2186183786
 20
-527.4743627532
 30
0.0
 11
-1082.2186183786
 21
-525.4743587001
 31
0.0
  0
LINE
  5
E5D
330
1F
100
AcDbEntity
  8
SLD-0
100
AcDbLine
 10
-1083.7186139679
 20
-527.4743627532
 30
0.0
 11
-1083.7186139679
 21
-525.4743587001
 31
0.0
  0
LINE
  5
E5E
330
1F
100
AcDbEntity
  8
SLD-0
100
AcDbLine
 10
-1083.7186139679
 20
-516.1844979747
 30
0.0
 11
-1097.2186189747
 21
-516.1844979747
 31
0.0
  0
LINE
  5
E5F
330
1F
100
AcDbEntity
  8
SLD-0
100
AcDbLine
 10
-1097.2186189747
 20
-516.1844979747
 30
0.0
 11
-1097.2186189747
 21
-513.6334042772
 31
0.0
  0
LINE
  5
E60
330
1F
100
AcDbEntity
  8
SLD-0
100
AcDbLine
 10
-1097.2186189747
 20
-513.6334042772
 30
0.0
 11
-1100.2186250543
 21
-513.6334042772
 31
0.0
  0
LINE
  5
E61
330
1F
100
AcDbEntity
  8
SLD-0
100
AcDbLine
 10
-1100.2186250543
 20
-513.6334042772
 30
0.0
 11
-1100.2186250543
 21
-510.0946169122
 31
0.0
  0
LINE
  5
E62
330
1F
100
AcDbEntity
  8
SLD-0
100
AcDbLine
 10
-1086.6415512419
 20
-510.0946169122
 30
0.0
 11
-1100.2186250543
 21
-510.0946169122
 31
0.0
  0
LINE
  5
E63
330
1F
100
AcDbEntity
  8
SLD-0
100
AcDbLine
 10
-1086.6415512419
 20
-510.0946169122
 30
0.0
 11
-1082.2186183786
 21
-514.6269839033
 31
0.0
  0
LINE
  5
E64
330
1F
100
AcDbEntity
  8
SLD-0
100
AcDbLine
 10
-1082.2186183786
 20
-525.4743587001
 30
0.0
 11
-1082.2186183786
 21
-514.6269839033
 31
0.0
  0
LINE
  5
E65
330
1F
100
AcDbEntity
  8
SLD-0
100
AcDbLine
 10
-1083.7186139679
 20
-525.4743587001
 30
0.0
 11
-1083.7186139679
 21
-516.1844979747
 31
0.0
  0
LINE
  5
E66
330
1F
100
AcDbEntity
  8
SLD-0
100
AcDbLine
 10
-1097.2186189747
 20
-517.2924887165
 30
0.0
 11
-1100.2186250543
 21
-517.2924887165
 31
0.0
  0
LINE
  5
E67
330
1F
100
AcDbEntity
  8
SLD-0
100
AcDbLine
 10
-1097.2186189747
 20
-516.1844979747
 30
0.0
 11
-1097.2186189747
 21
-517.2924887165
 31
0.0
  0
LINE
  5
E68
330
1F
100
AcDbEntity
  8
SLD-0
100
AcDbLine
 10
-1100.2186250543
 20
-517.2924887165
 30
0.0
 11
-1100.2186250543
 21
-531.4743559583
 31
0.0
  0
LINE
  5
E69
330
1F
100
AcDbEntity
  8
SLD-0
100
AcDbLine
 10
-1087.2186136103
 20
-481.850732468
 30
0.0
 11
-1087.2186136103
 21
-508.9395534023
 31
0.0
  0
LINE
  5
E6A
330
1F
100
AcDbEntity
  8
SLD-0
100
AcDbLine
 10
-1100.2186250543
 20
-508.9395534023
 30
0.0
 11
-1087.2186136103
 21
-508.9395534023
 31
0.0
  0
LINE
  5
E6B
330
1F
100
AcDbEntity
  8
SLD-0
100
AcDbLine
 10
-1100.2186250543
 20
-508.9395534023
 30
0.0
 11
-1100.2186250543
 21
-481.850732468
 31
0.0
  0
LINE
  5
E6C
330
1F
100
AcDbEntity
  8
SLD-0
100
AcDbLine
 10
-1097.2186189747
 20
-515.8004056438
 30
0.0
 11
-1099.7186165905
 21
-515.8004056438
 31
0.0
  0
LINE
  5
E6D
330
1F
100
AcDbEntity
  8
SLD-0
100
AcDbLine
 10
-1097.2186189747
 20
-514.1949992402
 30
0.0
 11
-1100.2186250543
 21
-514.1949992402
 31
0.0
  0
LINE
  5
E6E
330
1F
100
AcDbEntity
  8
SLD-0
100
AcDbLine
 10
-1100.2186250543
 20
-513.6334042772
 30
0.0
 11
-1100.2186250543
 21
-514.1949992402
 31
0.0
  0
SPLINE
  5
E6F
330
1F
100
AcDbEntity
  8
SLD-0
100
AcDbSpline
210
0.0
220
0.0
230
1.0
 70
     8
 71
     3
 72
    11
 73
     7
 74
     0
 42
0.000000001
 43
0.0000000001
 40
0.0
 40
0.0
 40
0.0
 40
0.0
 40
0.2002260421418406
 40
0.3996544751018618
 40
0.670419855130116
 40
1.0
 40
1.0
 40
1.0
 40
1.0
 10
-1087.218613610255
 20
-508.9395534022738
 30
0.0
 10
-1087.211856642607
 20
-509.0186741638182
 30
0.0
 10
-1087.198369623986
 20
-509.1766005058981
 30
0.0
 10
-1087.089337662443
 20
-509.4671047790357
 30
0.0
 10
-1086.905727049161
 20
-509.7942259167784
 30
0.0
 10
-1086.735179263619
 20
-509.9881536635789
 30
0.0
 10
-1086.641551241863
 20
-510.0946169122149
 30
0.0
  0
LINE
  5
E70
330
1F
100
AcDbEntity
  8
SLD-0
100
AcDbLine
 10
-1100.2186250543
 20
-510.0946169122
 30
0.0
 11
-1100.2186250543
 21
-508.9395534023
 31
0.0
  0
LINE
  5
E71
330
1F
100
AcDbEntity
  8
SLD-0
100
AcDbLine
 10
-1100.2186250543
 20
-514.1949992402
 30
0.0
 11
-1100.2186250543
 21
-515.3507184013
 31
0.0
  0
LINE
  5
E78
330
1F
100
AcDbEntity
  8
SLD-0
100
AcDbLine
 10
-1102.2186142063
 20
-498.8507222159999
 30
0.0
 11
-1102.2186142063
 21
-515.3507184013
 31
0.0
  0
LINE
  5
E7D
330
1F
100
AcDbEntity
  8
SLD-0
100
AcDbLine
 10
-1193.2186198091
 20
-494.4289367421998
 30
0.0
 11
-1193.2186198091
 21
-482.8507195933998
 31
0.0
  0
LINE
  5
E7F
330
1F
100
AcDbEntity
  8
SLD-0
100
AcDbLine
 10
-1191.218615756
 20
-480.8507304414
 30
0.0
 11
-1104.2186182594
 21
-480.8507304414
 31
0.0
  0
LINE
  5
E80
330
1F
100
AcDbEntity
  8
SLD-0
100
AcDbLine
 10
-1104.2186182594
 20
-482.8507195933998
 30
0.0
 11
-1104.2186182594
 21
-480.8507304414
 31
0.0
  0
ARC
  5
E81
330
1F
100
AcDbEntity
  8
SLD-0
100
AcDbCircle
 10
-1191.2186188608
 20
-482.8507258354
 30
0.0
 40
2.0
100
AcDbArc
 50
90.0
 51
180.0
  0
LINE
  5
E82
330
1F
100
AcDbEntity
  8
SLD-0
100
AcDbLine
 10
-1104.2186182594
 20
-482.8507195933998
 30
0.0
 11
-1102.2186142063
 21
-482.8507195933998
 31
0.0
  0
LINE
  5
E83
330
1F
100
AcDbEntity
  8
SLD-0
100
AcDbLine
 10
-1102.2186142063
 20
-482.8507195933998
 30
0.0
 11
-1102.2186142063
 21
-498.8507222159999
 31
0.0
  0
ARC
  5
E84
330
1F
100
AcDbEntity
  8
SLD-0
100
AcDbCircle
 10
-1104.2186188608
 20
-482.8507258354
 30
0.0
 40
2.0
100
AcDbArc
 50
0.0
 51
90.0
  0
LINE
  5
E85
330
1F
100
AcDbEntity
  8
SLD-0
100
AcDbLine
 10
-1185.7290279722
 20
-478.8507263882998
 30
0.0
 11
-1185.7290279722
 21
-480.8507304414
 31
0.0
  0
LINE
  5
E86
330
1F
100
AcDbEntity
  8
SLD-0
100
AcDbLine
 10
-1187.1432375765
 20
-478.8507263882998
 30
0.0
 11
-1187.1432375765
 21
-480.8507304414
 31
0.0
  0
LINE
  5
E87
330
1F
100
AcDbEntity
  8
SLD-0
100
AcDbLine
 10
-1182.1139317608
 20
-478.8507263882998
 30
0.0
 11
-1182.1139317608
 21
-480.8507304414
 31
0.0
  0
LINE
  5
E88
330
1F
100
AcDbEntity
  8
SLD-0
100
AcDbLine
 10
-1173.7082165336
 20
-478.8507263882998
 30
0.0
 11
-1173.7082165336
 21
-480.8507304414
 31
0.0
  0
LINE
  5
E89
330
1F
100
AcDbEntity
  8
SLD-0
100
AcDbLine
 10
-1177.3233127451
 20
-478.8507263882998
 30
0.0
 11
-1177.3233127451
 21
-480.8507304414
 31
0.0
  0
LINE
  5
E8A
330
1F
100
AcDbEntity
  8
SLD-0
100
AcDbLine
 10
-1172.2939920282
 20
-478.8507263882998
 30
0.0
 11
-1172.2939920282
 21
-480.8507304414
 31
0.0
  0
LINE
  5
E8B
330
1F
100
AcDbEntity
  8
SLD-0
100
AcDbLine
 10
-1102.2186142063
 20
-513.3396129830998
 30
0.0
 11
-1100.2186250543
 21
-513.3396129830998
 31
0.0
  0
LINE
  5
E8C
330
1F
100
AcDbEntity
  8
SLD-0
100
AcDbLine
 10
-1122.106106267
 20
-478.8507263882998
 30
0.0
 11
-1122.106106267
 21
-480.8507304414
 31
0.0
  0
LINE
  5
E8D
330
1F
100
AcDbEntity
  8
SLD-0
100
AcDbLine
 10
-1109.3311321592
 20
-478.8507263882998
 30
0.0
 11
-1109.3311321592
 21
-480.8507304414
 31
0.0
  0
LINE
  5
E8E
330
1F
100
AcDbEntity
  8
SLD-0
100
AcDbLine
 10
-1127.2186201668
 20
-478.8507263882998
 30
0.0
 11
-1127.2186201668
 21
-480.8507304414
 31
0.0
  0
LINE
  5
E8F
330
1F
100
AcDbEntity
  8
SLD-0
100
AcDbLine
 10
-1104.2186182594
 20
-478.8507263882998
 30
0.0
 11
-1104.2186182594
 21
-480.8507304414
 31
0.0
  0
LINE
  5
E90
330
1F
100
AcDbEntity
  8
SLD-0
100
AcDbLine
 10
-1583.5185658789
 20
-202.6507224663
 30
0.0
 11
-1583.5185658789
 21
-201.9507255181
 31
0.0
  0
LINE
  5
E91
330
1F
100
AcDbEntity
  8
SLD-0
100
AcDbLine
 10
-1578.5185110426
 20
-201.9507255181
 30
0.0
 11
-1578.5185110426
 21
-202.6507224663
 31
0.0
  0
LINE
  5
E92
330
1F
100
AcDbEntity
  8
SLD-0
100
AcDbLine
 10
-1578.5185110426
 20
-202.6507224663
 30
0.0
 11
-1580.6034219122
 21
-202.6507224663
 31
0.0
  0
LINE
  5
E93
330
1F
100
AcDbEntity
  8
SLD-0
100
AcDbLine
 10
-1583.5185658789
 20
-201.9507255181
 30
0.0
 11
-1578.5185110426
 21
-201.9507255181
 31
0.0
  0
LINE
  5
E94
330
1F
100
AcDbEntity
  8
SLD-0
100
AcDbLine
 10
-1054.9184989786
 20
-202.6507224663
 30
0.0
 11
-1054.9184989786
 21
-201.9507255181
 31
0.0
  0
LINE
  5
E95
330
1F
100
AcDbEntity
  8
SLD-0
100
AcDbLine
 10
-1054.9184989786
 20
-202.6507224663
 30
0.0
 11
-1165.5608129358
 21
-202.6507224663
 31
0.0
  0
LINE
  5
E96
330
1F
100
AcDbEntity
  8
SLD-0
100
AcDbLine
 10
-1252.7764302349
 20
-202.6507224663
 30
0.0
 11
-1578.5185110426
 21
-202.6507224663
 31
0.0
  0
LINE
  5
E97
330
1F
100
AcDbEntity
  8
SLD-0
100
AcDbLine
 10
-1054.9184989786
 20
-201.9507255181
 30
0.0
 11
-1167.7313011742
 21
-201.9507255181
 31
0.0
  0
LINE
  5
E98
330
1F
100
AcDbEntity
  8
SLD-0
100
AcDbLine
 10
-1250.6059382713
 20
-201.9507255181
 30
0.0
 11
-1578.5185110426
 21
-201.9507255181
 31
0.0
  0
LINE
  5
E99
330
1F
100
AcDbEntity
  8
SLD-0
100
AcDbLine
 10
-1049.9185633516
 20
-201.9507255181
 30
0.0
 11
-1049.9185633516
 21
-202.6507224663
 31
0.0
  0
LINE
  5
E9A
330
1F
100
AcDbEntity
  8
SLD-0
100
AcDbLine
 10
-1052.8464031076
 20
-202.6507224663
 30
0.0
 11
-1054.9184989786
 21
-202.6507224663
 31
0.0
  0
LINE
  5
E9B
330
1F
100
AcDbEntity
  8
SLD-0
100
AcDbLine
 10
-1054.9184989786
 20
-201.9507255181
 30
0.0
 11
-1049.9185633516
 21
-201.9507255181
 31
0.0
  0
LINE
  5
E9C
330
1F
100
AcDbEntity
  8
SLD-0
100
AcDbLine
 10
-1583.523483262
 20
-201.9507255181
 30
0.0
 11
-1583.523483262
 21
-202.6507224663
 31
0.0
  0
LINE
  5
E9D
330
1F
100
AcDbEntity
  8
SLD-0
100
AcDbLine
 10
-1583.5185658789
 20
-201.9507255181
 30
0.0
 11
-1583.523483262
 21
-201.9507255181
 31
0.0
  0
LINE
  5
F65
330
1F
100
AcDbEntity
  8
SLD-0
100
AcDbLine
 10
-1289.218618781
 20
-595.3507166130997
 30
0.0
 11
-1291.460895226
 21
-595.3507166130997
 31
0.0
  0
LINE
  5
F66
330
1F
100
AcDbEntity
  8
SLD-0
100
AcDbLine
 10
-1291.9966543695
 20
-595.3507166130997
 30
0.0
 11
-1294.8316803804
 21
-595.3507166130997
 31
0.0
  0
LINE
  5
F67
330
1F
100
AcDbEntity
  8
SLD-0
100
AcDbLine
 10
-1295.5133805653
 20
-595.3507166130997
 30
0.0
 11
-1327.1574296659
 21
-595.3507166130997
 31
0.0
  0
LINE
  5
F6D
330
1F
100
AcDbEntity
  8
SLD-0
100
AcDbLine
 10
-1327.1574296659
 20
-595.3507166130997
 30
0.0
 11
-1440.8512127256
 21
-595.3507166130997
 31
0.0
  0
LINE
  5
F6E
330
1F
100
AcDbEntity
  8
SLD-0
100
AcDbLine
 10
-1441.5330749607
 20
-595.3507166130997
 30
0.0
 11
-1444.3949770784
 21
-595.3507166130997
 31
0.0
  0
LINE
  5
F6F
330
1F
100
AcDbEntity
  8
SLD-0
100
AcDbLine
 10
-1444.9568700647
 20
-595.3507166130997
 30
0.0
 11
-1447.2186130142
 21
-595.3507166130997
 31
0.0
  0
ELLIPSE
  5
F89
330
1F
100
AcDbEntity
  8
SLD-0
100
AcDbEllipse
 10
-1417.0842088302
 20
-561.3445577515
 30
0.0
 11
-2.837143407733947
 21
-2.837143407734173
 31
2.840000000000000E-14
210
5.005034275423218E-15
220
5.005034275423218E-15
230
1.0
 40
0.9969277960999999
 41
5.499325607748148
 42
7.067045006611012
  0
ELLIPSE
  5
F8C
330
1F
100
AcDbEntity
  8
SLD-0
100
AcDbEllipse
 10
-1319.0965449979
 20
-561.3445577515
 30
0.0
 11
-2.837143407734173
 21
2.837143407734173
 31
0.0
210
0.0
220
0.0
230
1.0
 40
0.9969277960999999
 41
2.35773295415838
 42
3.925452353021217
  0
LINE
  5
F8E
330
1F
100
AcDbEntity
  8
SLD-0
100
AcDbLine
 10
-1421.0903805351
 20
-561.3568763956
 30
0.0
 11
-1421.0903805351
 21
-478.8507263882998
 31
0.0
  0
LINE
  5
F8F
330
1F
100
AcDbEntity
  8
SLD-0
100
AcDbLine
 10
-1319.0842180183
 20
-565.350715421
 30
0.0
 11
-1417.096534059
 21
-565.350715421
 31
0.0
  0
LINE
  5
F90
330
1F
100
AcDbEntity
  8
SLD-0
100
AcDbLine
 10
-1315.0903771302
 20
-478.8507263882998
 30
0.0
 11
-1315.0903771302
 21
-561.3568763956
 31
0.0
  0
LINE
  5
1015
330
1F
100
AcDbEntity
  8
SLD-0
100
AcDbLine
 10
-1441.5330749607
 20
-595.3507166130997
 30
0.0
 11
-1440.8760976648
 21
-595.3507166130997
 31
0.0
  0
LINE
  5
1016
330
1F
100
AcDbEntity
  8
SLD-0
100
AcDbLine
 10
-1295.4869691884
 20
-595.3507166130997
 30
0.0
 11
-1294.8316803804
 21
-595.3507166130997
 31
0.0
  0
LINE
  5
1018
330
1F
100
AcDbEntity
  8
SLD-0
100
AcDbLine
 10
-1444.9568700647
 20
-595.3507166130997
 30
0.0
 11
-1444.3949770784
 21
-595.3507166130997
 31
0.0
  0
LINE
  5
1019
330
1F
100
AcDbEntity
  8
SLD-0
100
AcDbLine
 10
-1291.9966543695
 20
-595.3507166130997
 30
0.0
 11
-1291.4362887522
 21
-595.3507166130997
 31
0.0
  0
LINE
  5
102B
330
1F
100
AcDbEntity
  8
SLD-0
100
AcDbLine
 10
-1540.7186162329
 20
-480.3507219776
 30
0.0
 11
-1563.2188331938
 21
-480.3507219776
 31
0.0
  0
LINE
  5
102C
330
1F
100
AcDbEntity
  8
SLD-0
100
AcDbLine
 10
-1563.2188331938
 20
-480.3507219776
 30
0.0
 11
-1564.7186052656
 21
-480.3507219776
 31
0.0
  0
LINE
  5
102D
330
1F
100
AcDbEntity
  8
SLD-0
100
AcDbLine
 10
-1540.7186162329
 20
-511.3507251961999
 30
0.0
 11
-1540.7186162329
 21
-480.3507219776
 31
0.0
  0
LINE
  5
102E
330
1F
100
AcDbEntity
  8
SLD-0
100
AcDbLine
 10
-1564.7186052656
 20
-511.3507251961999
 30
0.0
 11
-1564.7186052656
 21
-480.3507219776
 31
0.0
  0
LINE
  5
1031
330
1F
100
AcDbEntity
  8
SLD-0
100
AcDbLine
 10
-1564.7186052656
 20
-519.3507265074998
 30
0.0
 11
-1564.7186052656
 21
-511.3507251961999
 31
0.0
  0
LINE
  5
1032
330
1F
100
AcDbEntity
  8
SLD-0
100
AcDbLine
 10
-1540.7186162329
 20
-511.3507251961999
 30
0.0
 11
-1540.7186162329
 21
-519.3507265074998
 31
0.0
  0
LINE
  5
1033
330
1F
100
AcDbEntity
  8
SLD-0
100
AcDbLine
 10
-1055.218697772
 20
-430.3507249577998
 30
0.0
 11
-1055.218697772
 21
-428.8507293684999
 31
0.0
  0
LINE
  5
1034
330
1F
100
AcDbEntity
  8
SLD-0
100
AcDbLine
 10
-1050.2186429357
 20
-428.8507293684999
 30
0.0
 11
-1050.2186429357
 21
-430.3507249577998
 31
0.0
  0
LINE
  5
1035
330
1F
100
AcDbEntity
  8
SLD-0
100
AcDbLine
 10
-1050.2186429357
 20
-430.3507249577998
 30
0.0
 11
-1050.7186066961
 21
-430.3507249577998
 31
0.0
  0
LINE
  5
1036
330
1F
100
AcDbEntity
  8
SLD-0
100
AcDbLine
 10
-1051.9061696386
 20
-430.3507249577998
 30
0.0
 11
-1055.218697772
 21
-430.3507249577998
 31
0.0
  0
LINE
  5
1037
330
1F
100
AcDbEntity
  8
SLD-0
100
AcDbLine
 10
-1055.218697772
 20
-428.8507293684999
 30
0.0
 11
-1050.2186429357
 21
-428.8507293684999
 31
0.0
  0
LINE
  5
1038
330
1F
100
AcDbEntity
  8
SLD-0
100
AcDbLine
 10
-1578.2186996794
 20
-428.8507293684999
 30
0.0
 11
-1578.2186996794
 21
-430.3507249577998
 31
0.0
  0
LINE
  5
1039
330
1F
100
AcDbEntity
  8
SLD-0
100
AcDbLine
 10
-1055.218697772
 20
-430.3507249577998
 30
0.0
 11
-1109.4718289232
 21
-430.3507249577998
 31
0.0
  0
LINE
  5
103A
330
1F
100
AcDbEntity
  8
SLD-0
100
AcDbLine
 10
-1308.8654158773
 20
-430.3507249577998
 30
0.0
 11
-1578.2186996794
 21
-430.3507249577998
 31
0.0
  0
LINE
  5
103B
330
1F
100
AcDbEntity
  8
SLD-0
100
AcDbLine
 10
-1055.218697772
 20
-428.8507293684999
 30
0.0
 11
-1108.0459219074
 21
-428.8507293684999
 31
0.0
  0
LINE
  5
103C
330
1F
100
AcDbEntity
  8
SLD-0
100
AcDbLine
 10
-1310.2913231259
 20
-428.8507293684999
 30
0.0
 11
-1578.2186996794
 21
-428.8507293684999
 31
0.0
  0
LINE
  5
103D
330
1F
100
AcDbEntity
  8
SLD-0
100
AcDbLine
 10
-1583.2186651087
 20
-430.3507249577998
 30
0.0
 11
-1583.2186651087
 21
-428.8507293684999
 31
0.0
  0
LINE
  5
103E
330
1F
100
AcDbEntity
  8
SLD-0
100
AcDbLine
 10
-1578.2186996794
 20
-430.3507249577998
 30
0.0
 11
-1581.5258335924
 21
-430.3507249577998
 31
0.0
  0
LINE
  5
103F
330
1F
100
AcDbEntity
  8
SLD-0
100
AcDbLine
 10
-1582.7186119413
 20
-430.3507249577998
 30
0.0
 11
-1583.2186651087
 21
-430.3507249577998
 31
0.0
  0
LINE
  5
1040
330
1F
100
AcDbEntity
  8
SLD-0
100
AcDbLine
 10
-1583.2186651087
 20
-428.8507293684999
 30
0.0
 11
-1578.2186996794
 21
-428.8507293684999
 31
0.0
  0
LINE
  5
1041
330
1F
100
AcDbEntity
  8
SLD-0
100
AcDbLine
 10
-1050.2146792269
 20
-430.3507249577998
 30
0.0
 11
-1050.2146792269
 21
-428.8507293684999
 31
0.0
  0
LINE
  5
1042
330
1F
100
AcDbEntity
  8
SLD-0
100
AcDbLine
 10
-1050.2146792269
 20
-430.3507249577998
 30
0.0
 11
-1050.2186429357
 21
-430.3507249577998
 31
0.0
  0
LINE
  5
1043
330
1F
100
AcDbEntity
  8
SLD-0
100
AcDbLine
 10
-1050.2146792269
 20
-428.8507293684999
 30
0.0
 11
-1050.2186429357
 21
-428.8507293684999
 31
0.0
  0
LINE
  5
104C
330
1F
100
AcDbEntity
  8
SLD-0
100
AcDbLine
 10
-1582.7186119413
 20
-478.8507263882998
 30
0.0
 11
-1050.7186066961
 21
-478.8507263882998
 31
0.0
  0
LINE
  5
1052
330
1F
100
AcDbEntity
  8
SLD-0
100
AcDbLine
 10
-1050.8953940725
 20
-430.3507249577998
 30
0.0
 11
-1051.9061696386
 21
-430.3507249577998
 31
0.0
  0
LINE
  5
1053
330
1F
100
AcDbEntity
  8
SLD-0
100
AcDbLine
 10
-1581.5258335924
 20
-430.3507249577998
 30
0.0
 11
-1582.5418543672
 21
-430.3507249577998
 31
0.0
  0
ARC
  5
1054
330
1F
100
AcDbEntity
  8
SLD-0
100
AcDbCircle
 10
-1582.718618860799
 20
-432.8507258353
 30
0.0
 40
2.5
100
AcDbArc
 50
90.0
 51
180.0
  0
LINE
  5
1055
330
1F
100
AcDbEntity
  8
SLD-0
100
AcDbLine
 10
-1582.7186119413
 20
-430.3901012762
 30
0.0
 11
-1582.7186119413
 21
-430.3507249577998
 31
0.0
  0
LINE
  5
1058
330
1F
100
AcDbEntity
  8
SLD-0
100
AcDbLine
 10
-1585.2186095571
 20
-432.8507225736
 30
0.0
 11
-1585.2186095571
 21
-476.3507287724998
 31
0.0
  0
ARC
  5
105A
330
1F
100
AcDbEntity
  8
SLD-0
100
AcDbCircle
 10
-1050.7186188608
 20
-476.3507258353
 30
0.0
 40
2.5
100
AcDbArc
 50
270.0
 51
0.0
  0
LINE
  5
105D
330
1F
100
AcDbEntity
  8
SLD-0
100
AcDbLine
 10
-1048.2186090803
 20
-476.3507287724998
 30
0.0
 11
-1048.2186090803
 21
-432.8507225736
 31
0.0
  0
LINE
  5
105F
330
1F
100
AcDbEntity
  8
SLD-0
100
AcDbLine
 10
-1050.7186066961
 20
-430.3901012762
 30
0.0
 11
-1050.7186066961
 21
-430.3507249577998
 31
0.0
  0
ARC
  5
1061
330
1F
100
AcDbEntity
  8
SLD-0
100
AcDbCircle
 10
-1050.7186188608
 20
-432.8507258353
 30
0.0
 40
2.5
100
AcDbArc
 50
0.0
 51
90.0
  0
ARC
  5
1062
330
1F
100
AcDbEntity
  8
SLD-0
100
AcDbCircle
 10
-1582.718618860799
 20
-476.3507258353
 30
0.0
 40
2.5
100
AcDbArc
 50
180.0
 51
270.0
  0
LINE
  5
1064
330
1F
100
AcDbEntity
  8
SLD-0
100
AcDbLine
 10
-1050.8953940725
 20
-430.3507249577998
 30
0.0
 11
-1050.7186066961
 21
-430.3507249577998
 31
0.0
  0
LINE
  5
1065
330
1F
100
AcDbEntity
  8
SLD-0
100
AcDbLine
 10
-1582.7186119413
 20
-430.3507249577998
 30
0.0
 11
-1582.5418543672
 21
-430.3507249577998
 31
0.0
  0
LINE
  5
1066
330
1F
100
AcDbEntity
  8
SLD-0
100
AcDbLine
 10
-1549.1186243152
 20
-677.3007254822998
 30
0.0
 11
-1549.1186243152
 21
-554.8007230980998
 31
0.0
  0
LINE
  5
1067
330
1F
100
AcDbEntity
  8
SLD-0
100
AcDbLine
 10
-1549.1186243152
 20
-542.3007201179
 30
0.0
 11
-1549.1186243152
 21
-520.3507285341
 31
0.0
  0
LINE
  5
1068
330
1F
100
AcDbEntity
  8
SLD-0
100
AcDbLine
 10
-1549.1186243152
 20
-201.9507255181
 30
0.0
 11
-1549.1186243152
 21
-177.3007254823
 31
0.0
  0
LINE
  5
1069
330
1F
100
AcDbEntity
  8
SLD-0
100
AcDbLine
 10
-1549.1186243152
 20
-677.3007254822998
 30
0.0
 11
-1552.1186154938
 21
-677.3007254822998
 31
0.0
  0
LINE
  5
106A
330
1F
100
AcDbEntity
  8
SLD-0
100
AcDbLine
 10
-1549.1186243152
 20
-177.3007254823
 30
0.0
 11
-1552.1186154938
 21
-177.3007254823
 31
0.0
  0
LINE
  5
106B
330
1F
100
AcDbEntity
  8
SLD-0
100
AcDbLine
 10
-1581.1186146593
 20
-677.3007254822998
 30
0.0
 11
-1584.1186058378
 21
-677.3007254822998
 31
0.0
  0
LINE
  5
106C
330
1F
100
AcDbEntity
  8
SLD-0
100
AcDbLine
 10
-1584.1186058378
 20
-677.3007254822998
 30
0.0
 11
-1584.1186058378
 21
-478.4219603761
 31
0.0
  0
LINE
  5
106D
330
1F
100
AcDbEntity
  8
SLD-0
100
AcDbLine
 10
-1584.1186058378
 20
-430.77949097
 30
0.0
 11
-1584.1186058378
 21
-423.7413223608
 31
0.0
  0
LINE
  5
106F
330
1F
100
AcDbEntity
  8
SLD-0
100
AcDbLine
 10
-1584.1186058378
 20
-202.7601267918
 30
0.0
 11
-1584.1186058378
 21
-177.3007254823
 31
0.0
  0
LINE
  5
1070
330
1F
100
AcDbEntity
  8
SLD-0
100
AcDbLine
 10
-1581.1186146593
 20
-177.3007254823
 30
0.0
 11
-1584.1186058378
 21
-177.3007254823
 31
0.0
  0
LINE
  5
1071
330
1F
100
AcDbEntity
  8
SLD-0
100
AcDbLine
 10
-1552.1186154938
 20
-677.3007254822998
 30
0.0
 11
-1581.1186146593
 21
-677.3007254822998
 31
0.0
  0
LINE
  5
1072
330
1F
100
AcDbEntity
  8
SLD-0
100
AcDbLine
 10
-1552.1186154938
 20
-177.3007254823
 30
0.0
 11
-1581.1186146593
 21
-177.3007254823
 31
0.0
  0
LINE
  5
1073
330
1F
100
AcDbEntity
  8
SLD-0
100
AcDbLine
 10
-1049.3186127996
 20
-677.3007254822998
 30
0.0
 11
-1049.3186127996
 21
-478.4219603761
 31
0.0
  0
LINE
  5
1074
330
1F
100
AcDbEntity
  8
SLD-0
100
AcDbLine
 10
-1049.3186127996
 20
-430.77949097
 30
0.0
 11
-1049.3186127996
 21
-423.7413223608
 31
0.0
  0
LINE
  5
1076
330
1F
100
AcDbEntity
  8
SLD-0
100
AcDbLine
 10
-1049.3186127996
 20
-202.7601267918
 30
0.0
 11
-1049.3186127996
 21
-177.3007254823
 31
0.0
  0
LINE
  5
1077
330
1F
100
AcDbEntity
  8
SLD-0
100
AcDbLine
 10
-1049.3186127996
 20
-677.3007254822998
 30
0.0
 11
-1052.3186039781
 21
-677.3007254822998
 31
0.0
  0
LINE
  5
1078
330
1F
100
AcDbEntity
  8
SLD-0
100
AcDbLine
 10
-1049.3186127996
 20
-177.3007254823
 30
0.0
 11
-1052.3186039781
 21
-177.3007254823
 31
0.0
  0
LINE
  5
1079
330
1F
100
AcDbEntity
  8
SLD-0
100
AcDbLine
 10
-1081.3186180448
 20
-677.3007254822998
 30
0.0
 11
-1084.3186241245
 21
-677.3007254822998
 31
0.0
  0
LINE
  5
107A
330
1F
100
AcDbEntity
  8
SLD-0
100
AcDbLine
 10
-1084.3186241245
 20
-677.3007254822998
 30
0.0
 11
-1084.3186241245
 21
-554.8007230980998
 31
0.0
  0
LINE
  5
107B
330
1F
100
AcDbEntity
  8
SLD-0
100
AcDbLine
 10
-1084.3186241245
 20
-542.3007201179
 30
0.0
 11
-1084.3186241245
 21
-532.4743579848999
 31
0.0
  0
LINE
  5
107C
330
1F
100
AcDbEntity
  8
SLD-0
100
AcDbLine
 10
-1084.3186241245
 20
-512.4750178082998
 30
0.0
 11
-1084.3186241245
 21
-478.8507263882998
 31
0.0
  0
LINE
  5
107D
330
1F
100
AcDbEntity
  8
SLD-0
100
AcDbLine
 10
-1084.3186241245
 20
-201.9507255181
 30
0.0
 11
-1084.3186241245
 21
-177.3007254823
 31
0.0
  0
LINE
  5
107E
330
1F
100
AcDbEntity
  8
SLD-0
100
AcDbLine
 10
-1081.3186180448
 20
-177.3007254823
 30
0.0
 11
-1084.3186241245
 21
-177.3007254823
 31
0.0
  0
LINE
  5
107F
330
1F
100
AcDbEntity
  8
SLD-0
100
AcDbLine
 10
-1052.3186039781
 20
-677.3007254822998
 30
0.0
 11
-1081.3186180448
 21
-677.3007254822998
 31
0.0
  0
LINE
  5
1080
330
1F
100
AcDbEntity
  8
SLD-0
100
AcDbLine
 10
-1052.3186039781
 20
-177.3007254823
 30
0.0
 11
-1081.3186180448
 21
-177.3007254823
 31
0.0
  0
LWPOLYLINE
  5
108D
330
1F
100
AcDbEntity
  8
SLD-0
100
AcDbPolyline
 90
        3
 70
   128
 43
0.0
 10
-1579.4147860861
 20
-428.8507293684999
 10
-1580.0141703939
 20
-427.4036403521
 10
-1580.2186143255
 20
-425.8507232889
  0
LWPOLYLINE
  5
1090
330
1F
100
AcDbEntity
  8
SLD-0
100
AcDbPolyline
 90
        3
 70
   128
 43
0.0
 10
-1053.0224752283
 20
-428.8507293684999
 10
-1052.4230611181
 20
-427.4036403521
 10
-1052.2186171865
 20
-425.8507232889
  0
LINE
  5
1091
330
1F
100
AcDbEntity
  8
SLD-0
100
AcDbLine
 10
-1580.2186143255
 20
-425.8507232889
 30
0.0
 11
-1580.2186143255
 21
-423.8507266863
 31
0.0
  0
LINE
  5
1094
330
1F
100
AcDbEntity
  8
SLD-0
100
AcDbLine
 10
-1052.2186171865
 20
-425.8507232889
 30
0.0
 11
-1052.2186171865
 21
-423.8507266863
 31
0.0
  0
LINE
  5
10AC
330
1F
100
AcDbEntity
  8
SLD-0
100
AcDbLine
 10
-1050.6186199045
 20
-423.8507266863
 30
0.0
 11
-1103.5854679203
 21
-423.8507266863
 31
0.0
  0
LINE
  5
10AD
330
1F
100
AcDbEntity
  8
SLD-0
100
AcDbLine
 10
-1314.7517677998
 20
-423.8507266863
 30
0.0
 11
-1582.8186285353
 21
-423.8507266863
 31
0.0
  0
LINE
  5
10B5
330
1F
100
AcDbEntity
  8
SLD-0
100
AcDbLine
 10
-1582.8186285353
 20
-202.6507224663
 30
0.0
 11
-1580.6034219122
 21
-202.6507224663
 31
0.0
  0
LINE
  5
10B6
330
1F
100
AcDbEntity
  8
SLD-0
100
AcDbLine
 10
-1052.8464031076
 20
-202.6507224663
 30
0.0
 11
-1050.6186199045
 21
-202.6507224663
 31
0.0
  0
ARC
  5
10BA
330
1F
100
AcDbEntity
  8
SLD-0
100
AcDbCircle
 10
-1049.9186188608
 20
-204.3507258353
 30
0.0
 40
1.699999999999989
100
AcDbArc
 50
0.0
 51
90.0
  0
LINE
  5
10BE
330
1F
100
AcDbEntity
  8
SLD-0
100
AcDbLine
 10
-1048.2186090803
 20
-422.1507277115
 30
0.0
 11
-1048.2186090803
 21
-204.3507288917
 31
0.0
  0
LINE
  5
10BF
330
1F
100
AcDbEntity
  8
SLD-0
100
AcDbLine
 10
-1050.6186199045
 20
-202.6507224663
 30
0.0
 11
-1049.9186229563
 21
-202.6507224663
 31
0.0
  0
ARC
  5
10C0
330
1F
100
AcDbEntity
  8
SLD-0
100
AcDbCircle
 10
-1049.9186188608
 20
-422.1507258352999
 30
0.0
 40
1.7000000000001
100
AcDbArc
 50
270.0
 51
0.0
  0
LINE
  5
10C3
330
1F
100
AcDbEntity
  8
SLD-0
100
AcDbLine
 10
-1049.9186229563
 20
-423.8507266863
 30
0.0
 11
-1050.6186199045
 21
-423.8507266863
 31
0.0
  0
LINE
  5
10CC
330
1F
100
AcDbEntity
  8
SLD-0
100
AcDbLine
 10
-1585.2186095571
 20
-204.3507288917
 30
0.0
 11
-1585.2186095571
 21
-422.1507277115
 31
0.0
  0
ARC
  5
10CE
330
1F
100
AcDbEntity
  8
SLD-0
100
AcDbCircle
 10
-1583.5186188608
 20
-204.3507258353
 30
0.0
 40
1.700000000000073
100
AcDbArc
 50
90.0
 51
180.0
  0
LINE
  5
10D1
330
1F
100
AcDbEntity
  8
SLD-0
100
AcDbLine
 10
-1582.8186285353
 20
-202.6507224663
 30
0.0
 11
-1583.5186254835
 21
-202.6507224663
 31
0.0
  0
LINE
  5
10D3
330
1F
100
AcDbEntity
  8
SLD-0
100
AcDbLine
 10
-1582.8186285353
 20
-423.8507266863
 30
0.0
 11
-1583.5186254835
 21
-423.8507266863
 31
0.0
  0
ARC
  5
10D6
330
1F
100
AcDbEntity
  8
SLD-0
100
AcDbCircle
 10
-1583.5186188608
 20
-422.1507258352999
 30
0.0
 40
1.700000000000045
100
AcDbArc
 50
180.0
 51
270.0
  0
LINE
  5
1106
330
1F
100
AcDbEntity
  8
SLD-0
100
AcDbLine
 10
-1300.5903770818
 20
-523.6312936766998
 30
0.0
 11
-1315.0903771302
 21
-523.6312936766998
 31
0.0
  0
LINE
  5
1109
330
1F
100
AcDbEntity
  8
SLD-0
100
AcDbLine
 10
-1243.2186205542
 20
-161.5007262453
 30
0.0
 11
-1493.2186168289
 21
-161.5007262453
 31
0.0
  0
LINE
  5
111C
330
1F
100
AcDbEntity
  8
SLD-0
100
AcDbLine
 10
-1545.2186179018
 20
-554.8007230980998
 30
0.0
 11
-1445.8940189934
 21
-554.8007230980998
 31
0.0
  0
LINE
  5
111D
330
1F
100
AcDbEntity
  8
SLD-0
100
AcDbLine
 10
-1290.9058651557
 20
-554.8007230980998
 30
0.0
 11
-1088.2186156368
 21
-554.8007230980998
 31
0.0
  0
LINE
  5
1120
330
1F
100
AcDbEntity
  8
SLD-0
100
AcDbLine
 10
-1368.2186168289
 20
-654.2789380773
 30
0.0
 11
-1447.2186130142
 21
-654.2789380773
 31
0.0
  0
LINE
  5
1121
330
1F
100
AcDbEntity
  8
SLD-0
100
AcDbLine
 10
-1289.218618781
 20
-654.2789380773
 30
0.0
 11
-1368.2186168289
 21
-654.2789380773
 31
0.0
  0
LINE
  5
1122
330
1F
100
AcDbEntity
  8
SLD-0
100
AcDbLine
 10
-1368.2186168289
 20
-656.2789421304
 30
0.0
 11
-1446.6827225542
 21
-656.2789421304
 31
0.0
  0
LINE
  5
1123
330
1F
100
AcDbEntity
  8
SLD-0
100
AcDbLine
 10
-1289.7545166916
 20
-656.2789421304
 30
0.0
 11
-1368.2186168289
 21
-656.2789421304
 31
0.0
  0
LINE
  5
1124
330
1F
100
AcDbEntity
  8
SLD-0
100
AcDbLine
 10
-1368.2186168289
 20
-676.3507168516
 30
0.0
 11
-1435.0942683077
 21
-676.3507168516
 31
0.0
  0
LINE
  5
1125
330
1F
100
AcDbEntity
  8
SLD-0
100
AcDbLine
 10
-1301.3429746634
 20
-676.3507168516
 30
0.0
 11
-1368.2186168289
 21
-676.3507168516
 31
0.0
  0
LINE
  5
114C
330
1F
100
AcDbEntity
  8
SLD-0
100
AcDbLine
 10
-1552.1186154938
 20
-201.9507255181
 30
0.0
 11
-1552.1186154938
 21
-177.3007254823
 31
0.0
  0
LINE
  5
114E
330
1F
100
AcDbEntity
  8
SLD-0
100
AcDbLine
 10
-1581.1186146593
 20
-428.8507293684999
 30
0.0
 11
-1581.1186146593
 21
-423.8507266863
 31
0.0
  0
LINE
  5
114F
330
1F
100
AcDbEntity
  8
SLD-0
100
AcDbLine
 10
-1581.1186146593
 20
-201.9507255181
 30
0.0
 11
-1581.1186146593
 21
-177.3007254823
 31
0.0
  0
LINE
  5
1150
330
1F
100
AcDbEntity
  8
SLD-0
100
AcDbLine
 10
-1052.3186039781
 20
-677.3007254822998
 30
0.0
 11
-1052.3186039781
 21
-478.8507263882998
 31
0.0
  0
LINE
  5
1152
330
1F
100
AcDbEntity
  8
SLD-0
100
AcDbLine
 10
-1052.3186039781
 20
-201.9507255181
 30
0.0
 11
-1052.3186039781
 21
-177.3007254823
 31
0.0
  0
LINE
  5
1153
330
1F
100
AcDbEntity
  8
SLD-0
100
AcDbLine
 10
-1081.3186180448
 20
-677.3007254822998
 30
0.0
 11
-1081.3186180448
 21
-478.8507263882998
 31
0.0
  0
LINE
  5
1154
330
1F
100
AcDbEntity
  8
SLD-0
100
AcDbLine
 10
-1081.3186180448
 20
-201.9507255181
 30
0.0
 11
-1081.3186180448
 21
-177.3007254823
 31
0.0
  0
CIRCLE
  5
1200
330
1F
100
AcDbEntity
  8
0
100
AcDbCircle
 10
-1566.6186188608
 20
-192.3007258353
 30
0.0
 40
2.999999999999984
  0
CIRCLE
  5
1201
330
1F
100
AcDbEntity
  8
0
100
AcDbCircle
 10
-1566.6186188608
 20
-192.3007258353
 30
0.0
 40
3.999999999999986
  0
CIRCLE
  5
1202
330
1F
100
AcDbEntity
  8
0
100
AcDbCircle
 10
-1566.6186188608
 20
-192.3007258353
 30
0.0
 40
4.25
  0
CIRCLE
  5
1203
330
1F
100
AcDbEntity
  8
0
100
AcDbCircle
 10
-1066.8186188608
 20
-192.3007258353
 30
0.0
 40
2.999999999999984
  0
CIRCLE
  5
1204
330
1F
100
AcDbEntity
  8
0
100
AcDbCircle
 10
-1066.8186188608
 20
-192.3007258353
 30
0.0
 40
3.999999999999986
  0
CIRCLE
  5
1205
330
1F
100
AcDbEntity
  8
0
100
AcDbCircle
 10
-1066.8186188608
 20
-192.3007258353
 30
0.0
 40
4.25
  0
CIRCLE
  5
1206
330
1F
100
AcDbEntity
  8
0
100
AcDbCircle
 10
-1066.8186188608
 20
-662.3007258352995
 30
0.0
 40
2.999999999999984
  0
CIRCLE
  5
1207
330
1F
100
AcDbEntity
  8
0
100
AcDbCircle
 10
-1066.8186188608
 20
-662.3007258352995
 30
0.0
 40
3.999999999999986
  0
CIRCLE
  5
1208
330
1F
100
AcDbEntity
  8
0
100
AcDbCircle
 10
-1066.8186188608
 20
-662.3007258352995
 30
0.0
 40
4.25
  0
CIRCLE
  5
1209
330
1F
100
AcDbEntity
  8
0
100
AcDbCircle
 10
-1566.6186188608
 20
-662.3007258352995
 30
0.0
 40
2.999999999999984
  0
CIRCLE
  5
120A
330
1F
100
AcDbEntity
  8
0
100
AcDbCircle
 10
-1566.6186188608
 20
-662.3007258352995
 30
0.0
 40
3.999999999999986
  0
CIRCLE
  5
120B
330
1F
100
AcDbEntity
  8
0
100
AcDbCircle
 10
-1566.6186188608
 20
-662.3007258352995
 30
0.0
 40
4.25
  0
LINE
  5
1236
330
1F
100
AcDbEntity
  8
0
100
AcDbLine
 10
-1554.11861507655
 20
258.9619130989
 30
0.0
 11
-1554.11861507655
 21
288.9619130989
 31
0.0
  0
LINE
  5
1237
330
1F
100
AcDbEntity
  8
0
100
AcDbLine
 10
-1579.11861507655
 20
288.9619130989
 30
0.0
 11
-1579.11861507655
 21
258.9619130989
 31
0.0
  0
LINE
  5
1238
330
1F
100
AcDbEntity
  8
0
100
AcDbLine
 10
-1562.61861507655
 20
307.9619130989
 30
0.0
 11
-1563.61861507655
 21
308.9619130989
 31
0.0
  0
LINE
  5
1239
330
1F
100
AcDbEntity
  8
0
100
AcDbLine
 10
-1569.61861507655
 20
308.9619130989
 30
0.0
 11
-1570.61861507655
 21
307.9619130989
 31
0.0
  0
LINE
  5
123A
330
1F
100
AcDbEntity
  8
0
100
AcDbLine
 10
-1562.61861507655
 20
290.9619130989
 30
0.0
 11
-1562.61861507655
 21
307.9619130989
 31
0.0
  0
LINE
  5
123B
330
1F
100
AcDbEntity
  8
0
100
AcDbLine
 10
-1570.61861507655
 20
307.9619130989
 30
0.0
 11
-1570.61861507655
 21
290.9619130989
 31
0.0
  0
LINE
  5
123C
330
1F
100
AcDbEntity
  8
0
100
AcDbLine
 10
-1577.80111608795
 20
258.9619130989
 30
0.0
 11
-1554.11861507655
 21
258.9619130989
 31
0.0
  0
LINE
  5
123D
330
1F
100
AcDbEntity
  8
0
100
AcDbLine
 10
-1579.11861507655
 20
258.9619130989
 30
0.0
 11
-1577.80111608795
 21
258.9619130989
 31
0.0
  0
LINE
  5
123E
330
1F
100
AcDbEntity
  8
0
100
AcDbLine
 10
-1569.30241531925
 20
308.9619130989
 30
0.0
 11
-1563.61861507655
 21
308.9619130989
 31
0.0
  0
LINE
  5
123F
330
1F
100
AcDbEntity
  8
0
100
AcDbLine
 10
-1569.61861507655
 20
308.9619130989
 30
0.0
 11
-1569.30241531925
 21
308.9619130989
 31
0.0
  0
LINE
  5
1240
330
1F
100
AcDbEntity
  8
0
100
AcDbLine
 10
-1570.19701540025
 20
307.9619130989
 30
0.0
 11
-1570.61861507655
 21
307.9619130989
 31
0.0
  0
LINE
  5
1241
330
1F
100
AcDbEntity
  8
0
100
AcDbLine
 10
-1562.61861507655
 20
307.9619130989
 30
0.0
 11
-1570.19701540025
 21
307.9619130989
 31
0.0
  0
LINE
  5
1242
330
1F
100
AcDbEntity
  8
0
100
AcDbLine
 10
-1579.11861507655
 20
288.9619130989
 30
0.0
 11
-1554.11861507655
 21
288.9619130989
 31
0.0
  0
LINE
  5
1243
330
1F
100
AcDbEntity
  8
0
100
AcDbLine
 10
-1054.31861101145
 20
258.9619130989
 30
0.0
 11
-1054.31861101145
 21
288.9619130989
 31
0.0
  0
LINE
  5
1244
330
1F
100
AcDbEntity
  8
0
100
AcDbLine
 10
-1079.31861101145
 20
288.9619130989
 30
0.0
 11
-1079.31861101145
 21
258.9619130989
 31
0.0
  0
LINE
  5
1245
330
1F
100
AcDbEntity
  8
0
100
AcDbLine
 10
-1062.81861101145
 20
307.9619130989
 30
0.0
 11
-1063.81861101145
 21
308.9619130989
 31
0.0
  0
LINE
  5
1246
330
1F
100
AcDbEntity
  8
0
100
AcDbLine
 10
-1069.81861101145
 20
308.9619130989
 30
0.0
 11
-1070.81861101145
 21
307.9619130989
 31
0.0
  0
LINE
  5
1247
330
1F
100
AcDbEntity
  8
0
100
AcDbLine
 10
-1062.81861101145
 20
290.9619130989
 30
0.0
 11
-1062.81861101145
 21
307.9619130989
 31
0.0
  0
LINE
  5
1248
330
1F
100
AcDbEntity
  8
0
100
AcDbLine
 10
-1070.81861101145
 20
307.9619130989
 30
0.0
 11
-1070.81861101145
 21
290.9619130989
 31
0.0
  0
LINE
  5
1249
330
1F
100
AcDbEntity
  8
0
100
AcDbLine
 10
-1078.00111202285
 20
258.9619130989
 30
0.0
 11
-1054.31861101145
 21
258.9619130989
 31
0.0
  0
LINE
  5
124A
330
1F
100
AcDbEntity
  8
0
100
AcDbLine
 10
-1079.31861101145
 20
258.9619130989
 30
0.0
 11
-1078.00111202285
 21
258.9619130989
 31
0.0
  0
LINE
  5
124B
330
1F
100
AcDbEntity
  8
0
100
AcDbLine
 10
-1069.50241125415
 20
308.9619130989
 30
0.0
 11
-1063.81861101145
 21
308.9619130989
 31
0.0
  0
LINE
  5
124C
330
1F
100
AcDbEntity
  8
0
100
AcDbLine
 10
-1069.81861101145
 20
308.9619130989
 30
0.0
 11
-1069.50241125415
 21
308.9619130989
 31
0.0
  0
LINE
  5
124D
330
1F
100
AcDbEntity
  8
0
100
AcDbLine
 10
-1070.39701133515
 20
307.9619130989
 30
0.0
 11
-1070.81861101145
 21
307.9619130989
 31
0.0
  0
LINE
  5
124E
330
1F
100
AcDbEntity
  8
0
100
AcDbLine
 10
-1062.81861101145
 20
307.9619130989
 30
0.0
 11
-1070.39701133515
 21
307.9619130989
 31
0.0
  0
LINE
  5
124F
330
1F
100
AcDbEntity
  8
0
100
AcDbLine
 10
-1079.31861101145
 20
288.9619130989
 30
0.0
 11
-1054.31861101145
 21
288.9619130989
 31
0.0
  0
LINE
  5
1250
330
1F
100
AcDbEntity
  8
0
100
AcDbLine
 10
-487.6647240216407
 20
258.9619130988999
 30
0.0
 11
-487.6647240216407
 21
265.9619111915
 31
0.0
  0
LINE
  5
1251
330
1F
100
AcDbEntity
  8
0
100
AcDbLine
 10
-512.6647240216407
 20
266.0038734831841
 30
0.0
 11
-512.6647240216407
 21
258.9619130988999
 31
0.0
  0
LINE
  5
1252
330
1F
100
AcDbEntity
  8
0
100
AcDbLine
 10
-496.1647240216407
 20
307.9619130988999
 30
0.0
 11
-497.1647240216407
 21
308.9619130988999
 31
0.0
  0
LINE
  5
1253
330
1F
100
AcDbEntity
  8
0
100
AcDbLine
 10
-503.1647240216407
 20
308.9619130988999
 30
0.0
 11
-504.1647240216407
 21
307.9619130988999
 31
0.0
  0
LINE
  5
1254
330
1F
100
AcDbEntity
  8
0
100
AcDbLine
 10
-496.1647240216407
 20
290.9619130988999
 30
0.0
 11
-496.1647240216407
 21
307.9619130988999
 31
0.0
  0
LINE
  5
1255
330
1F
100
AcDbEntity
  8
0
100
AcDbLine
 10
-504.1647240216407
 20
307.9619130988999
 30
0.0
 11
-504.1647240216407
 21
290.9619130988999
 31
0.0
  0
LINE
  5
1256
330
1F
100
AcDbEntity
  8
0
100
AcDbLine
 10
-511.3472250330408
 20
258.9619130988999
 30
0.0
 11
-487.6647240216407
 21
258.9619130988999
 31
0.0
  0
LINE
  5
1257
330
1F
100
AcDbEntity
  8
0
100
AcDbLine
 10
-512.6647240216407
 20
258.9619130988999
 30
0.0
 11
-511.3472250330408
 21
258.9619130988999
 31
0.0
  0
LINE
  5
1258
330
1F
100
AcDbEntity
  8
0
100
AcDbLine
 10
-502.8485242643408
 20
308.9619130988999
 30
0.0
 11
-497.1647240216407
 21
308.9619130988999
 31
0.0
  0
LINE
  5
1259
330
1F
100
AcDbEntity
  8
0
100
AcDbLine
 10
-503.1647240216407
 20
308.9619130988999
 30
0.0
 11
-502.8485242643408
 21
308.9619130988999
 31
0.0
  0
LINE
  5
125A
330
1F
100
AcDbEntity
  8
0
100
AcDbLine
 10
-503.7431243453407
 20
307.9619130988999
 30
0.0
 11
-504.1647240216407
 21
307.9619130988999
 31
0.0
  0
LINE
  5
125B
330
1F
100
AcDbEntity
  8
0
100
AcDbLine
 10
-496.1647240216407
 20
307.9619130988999
 30
0.0
 11
-503.7431243453407
 21
307.9619130988999
 31
0.0
  0
LINE
  5
125C
330
1F
100
AcDbEntity
  8
0
100
AcDbLine
 10
-512.6647240216406
 20
290.961917152
 30
0.0
 11
-487.6647240216406
 21
290.961917152
 31
0.0
  0
LINE
  5
125D
330
1F
100
AcDbEntity
  8
0
100
AcDbLine
 10
-17.66472521369076
 20
258.9619130988999
 30
0.0
 11
-17.66472521369076
 21
266.003873363823
 31
0.0
  0
LINE
  5
125E
330
1F
100
AcDbEntity
  8
0
100
AcDbLine
 10
-42.66472521369076
 20
265.9619111915
 30
0.0
 11
-42.66472521369076
 21
258.9619130988999
 31
0.0
  0
LINE
  5
125F
330
1F
100
AcDbEntity
  8
0
100
AcDbLine
 10
-26.16472521369076
 20
307.9619130988999
 30
0.0
 11
-27.16472521369076
 21
308.9619130988999
 31
0.0
  0
LINE
  5
1260
330
1F
100
AcDbEntity
  8
0
100
AcDbLine
 10
-33.16472521369076
 20
308.9619130988999
 30
0.0
 11
-34.16472521369076
 21
307.9619130988999
 31
0.0
  0
LINE
  5
1261
330
1F
100
AcDbEntity
  8
0
100
AcDbLine
 10
-26.16472521369076
 20
290.9619130988999
 30
0.0
 11
-26.16472521369076
 21
307.9619130988999
 31
0.0
  0
LINE
  5
1262
330
1F
100
AcDbEntity
  8
0
100
AcDbLine
 10
-34.16472521369076
 20
307.9619130988999
 30
0.0
 11
-34.16472521369076
 21
290.9619130988999
 31
0.0
  0
LINE
  5
1263
330
1F
100
AcDbEntity
  8
0
100
AcDbLine
 10
-41.34722622509082
 20
258.9619130988999
 30
0.0
 11
-17.66472521369076
 21
258.9619130988999
 31
0.0
  0
LINE
  5
1264
330
1F
100
AcDbEntity
  8
0
100
AcDbLine
 10
-42.66472521369076
 20
258.9619130988999
 30
0.0
 11
-41.34722622509082
 21
258.9619130988999
 31
0.0
  0
LINE
  5
1265
330
1F
100
AcDbEntity
  8
0
100
AcDbLine
 10
-32.8485254563908
 20
308.9619130988999
 30
0.0
 11
-27.16472521369076
 21
308.9619130988999
 31
0.0
  0
LINE
  5
1266
330
1F
100
AcDbEntity
  8
0
100
AcDbLine
 10
-33.16472521369076
 20
308.9619130988999
 30
0.0
 11
-32.8485254563908
 21
308.9619130988999
 31
0.0
  0
LINE
  5
1267
330
1F
100
AcDbEntity
  8
0
100
AcDbLine
 10
-33.74312553739071
 20
307.9619130988999
 30
0.0
 11
-34.16472521369076
 21
307.9619130988999
 31
0.0
  0
LINE
  5
1268
330
1F
100
AcDbEntity
  8
0
100
AcDbLine
 10
-26.16472521369076
 20
307.9619130988999
 30
0.0
 11
-33.74312553739071
 21
307.9619130988999
 31
0.0
  0
LINE
  5
1269
330
1F
100
AcDbEntity
  8
0
100
AcDbLine
 10
-42.66472521369064
 20
290.961917152
 30
0.0
 11
-17.66472521369064
 21
290.961917152
 31
0.0
  0
MTEXT
  5
1291
330
1F
100
AcDbEntity
  8
LENKIMO
100
AcDbMText
 10
-1401.522621806428
 20
-25.93946831671451
 30
0.0
 40
100.0
 41
436.1475856205887
 46
0.0
 71
     1
 72
     5
  1
B
 73
     1
 44
1.0
  0
MTEXT
  5
1292
330
1F
100
AcDbEntity
  8
LENKIMO
100
AcDbMText
 10
-1240.348233070874
 20
-278.2192433786677
 30
0.0
 40
100.0
 41
436.1475856205887
 46
0.0
 71
     1
 72
     5
  1
A
 73
     1
 44
1.0
  0
LINE
  5
1293
330
1F
100
AcDbEntity
  8
0
100
AcDbLine
 10
-767.3449048738219
 20
462.5526597193133
 30
0.0
 11
-767.3449048738219
 21
502.5526597193131
 31
0.0
  0
LINE
  5
1294
330
1F
100
AcDbEntity
  8
0
100
AcDbLine
 10
-667.3449048738219
 20
542.5526597193137
 30
0.0
 11
-767.3449048738219
 21
622.5526597193136
 31
0.0
  0
LINE
  5
1295
330
1F
100
AcDbEntity
  8
0
100
AcDbLine
 10
-667.3449048738219
 20
542.5526597193137
 30
0.0
 11
-767.3449048738219
 21
462.5526597193133
 31
0.0
  0
LINE
  5
1296
330
1F
100
AcDbEntity
  8
0
100
AcDbLine
 10
-767.3449048738219
 20
582.5526597193136
 30
0.0
 11
-867.3449048738219
 21
582.5526597193136
 31
0.0
  0
LINE
  5
1297
330
1F
100
AcDbEntity
  8
0
100
AcDbLine
 10
-767.3449048738219
 20
502.5526597193131
 30
0.0
 11
-867.3449048738219
 21
502.5526597193131
 31
0.0
  0
LINE
  5
1298
330
1F
100
AcDbEntity
  8
0
100
AcDbLine
 10
-767.3449048738219
 20
582.5526597193136
 30
0.0
 11
-767.3449048738219
 21
622.5526597193136
 31
0.0
  0
LINE
  5
1299
330
1F
100
AcDbEntity
  8
0
100
AcDbLine
 10
-867.3449048738219
 20
502.5526597193131
 30
0.0
 11
-867.3449048738219
 21
582.5526597193136
 31
0.0
  0
MTEXT
  5
129A
330
1F
100
AcDbEntity
  8
0
100
AcDbMText
 10
-850.3651188100127
 20
563.5730905439126
 30
0.0
 40
35.0
 41
20.96613465302437
 46
35.0
 71
     1
 72
     5
  1
{ETA}
 73
     1
 44
1.0
1001
ACAD
1000
ACAD_MTEXT_DEFINED_HEIGHT_BEGIN
1070
    46
1040
35.0
1000
ACAD_MTEXT_DEFINED_HEIGHT_END
  0
MTEXT
  5
129B
330
1F
100
AcDbEntity
  8
LENKIMO
100
AcDbMText
 10
-637.622239023073
 20
597.2954806212813
 30
0.0
 40
100.0
 41
436.1475856205887
 46
0.0
 71
     1
 72
     5
  1
B
 73
     1
 44
1.0
  0
LINE
  5
129C
330
1F
100
AcDbEntity
  8
0
100
AcDbLine
 10
-279.8182940657857
 20
1070.128108740752
 30
0.0
 11
-319.8182940657857
 21
1070.128108740752
 31
0.0
  0
LINE
  5
129D
330
1F
100
AcDbEntity
  8
0
100
AcDbLine
 10
-359.8182940657857
 20
1170.128108740752
 30
0.0
 11
-439.8182940657855
 21
1070.128108740752
 31
0.0
  0
LINE
  5
129E
330
1F
100
AcDbEntity
  8
0
100
AcDbLine
 10
-359.8182940657857
 20
1170.128108740752
 30
0.0
 11
-279.8182940657857
 21
1070.128108740752
 31
0.0
  0
LINE
  5
129F
330
1F
100
AcDbEntity
  8
0
100
AcDbLine
 10
-399.8182940657855
 20
1070.128108740752
 30
0.0
 11
-399.8182940657855
 21
970.1281087407522
 31
0.0
  0
LINE
  5
12A0
330
1F
100
AcDbEntity
  8
0
100
AcDbLine
 10
-319.8182940657857
 20
1070.128108740752
 30
0.0
 11
-319.8182940657857
 21
970.1281087407522
 31
0.0
  0
LINE
  5
12A1
330
1F
100
AcDbEntity
  8
0
100
AcDbLine
 10
-399.8182940657855
 20
1070.128108740752
 30
0.0
 11
-439.8182940657855
 21
1070.128108740752
 31
0.0
  0
LINE
  5
12A2
330
1F
100
AcDbEntity
  8
0
100
AcDbLine
 10
-319.8182940657857
 20
970.1281087407522
 30
0.0
 11
-399.8182940657855
 21
970.1281087407522
 31
0.0
  0
MTEXT
  5
12A3
330
1F
100
AcDbEntity
  8
0
100
AcDbMText
 10
-380.6287314626156
 20
980.8485928989255
 30
0.0
 40
35.0
 41
20.96613465302437
 46
35.0
 71
     1
 72
     5
  1
{EHA}
 11
6.123233995736766E-17
 21
1.0
 31
0.0
 73
     1
 44
1.0
1001
ACAD
1000
ACAD_MTEXT_DEFINED_HEIGHT_BEGIN
1070
    46
1040
35.0
1000
ACAD_MTEXT_DEFINED_HEIGHT_END
  0
MTEXT
  5
12A4
330
1F
100
AcDbEntity
  8
LENKIMO
100
AcDbMText
 10
-390.7703026694448
 20
958.7111438068498
 30
0.0
 40
100.0
 41
436.1475856205887
 46
0.0
 71
     1
 72
     5
  1
A
 73
     1
 44
1.0
  0
ENDSEC
  0
SECTION
  2
OBJECTS
  0
DICTIONARY
  5
C
330
0
100
AcDbDictionary
281
     1
  3
ACAD_COLOR
350
1167
  3
ACAD_DETAILVIEWSTYLE
350
11E8
  3
ACAD_GROUP
350
D
  3
ACAD_LAYOUT
350
1A
  3
ACAD_MATERIAL
350
1166
  3
ACAD_MLEADERSTYLE
350
11DD
  3
ACAD_MLINESTYLE
350
17
  3
ACAD_PLOTSETTINGS
350
19
  3
ACAD_PLOTSTYLENAME
350
E
  3
ACAD_SCALELIST
350
119D
  3
ACAD_SECTIONVIEWSTYLE
350
11E9
  3
ACAD_TABLESTYLE
350
11DB
  3
ACAD_VISUALSTYLE
350
11BF
  3
ACDB_RECOMPOSE_DATA
350
12AE
  3
AcDbVariableDictionary
350
11E2
  3
APPDATA
350
11DF
  0
DICTIONARY
  5
12A5
330
1F
100
AcDbDictionary
280
     1
281
     1
  3
DIM_BOUNDING_BOXES_V1
360
12A6
  0
DICTIONARY
  5
1167
102
{ACAD_REACTORS
330
C
102
}
330
C
100
AcDbDictionary
281
     1
  0
DICTIONARY
  5
11E8
102
{ACAD_REACTORS
330
C
102
}
330
C
100
AcDbDictionary
281
     1
  0
DICTIONARY
  5
D
102
{ACAD_REACTORS
330
C
102
}
330
C
100
AcDbDictionary
281
     1
  0
DICTIONARY
  5
1A
102
{ACAD_REACTORS
330
C
102
}
330
C
100
AcDbDictionary
281
     1
  3
Layout1
350
1E
  3
Layout2
350
26
  3
Model
350
22
  0
DICTIONARY
  5
1166
102
{ACAD_REACTORS
330
C
102
}
330
C
100
AcDbDictionary
281
     1
  3
ByBlock
350
11D9
  3
ByLayer
350
11D8
  3
Global
350
11DA
  0
DICTIONARY
  5
11DD
102
{ACAD_REACTORS
330
C
102
}
330
C
100
AcDbDictionary
281
     1
  3
Standard
350
11DE
  0
DICTIONARY
  5
17
102
{ACAD_REACTORS
330
C
102
}
330
C
100
AcDbDictionary
281
     1
  3
Standard
350
18
  0
DICTIONARY
  5
19
102
{ACAD_REACTORS
330
C
102
}
330
C
100
AcDbDictionary
281
     1
  0
ACDBDICTIONARYWDFLT
  5
E
102
{ACAD_REACTORS
330
C
102
}
330
C
100
AcDbDictionary
281
     1
  3
Normal
350
F
100
AcDbDictionaryWithDefault
340
F
  0
DICTIONARY
  5
119D
102
{ACAD_REACTORS
330
C
102
}
330
C
100
AcDbDictionary
281
     1
  3
A0
350
119E
  3
A1
350
119F
  3
A2
350
11A0
  3
A3
350
11A1
  3
A4
350
11A2
  3
A5
350
11A3
  3
A6
350
11A4
  3
A7
350
11A5
  3
A8
350
11A6
  3
A9
350
11A7
  3
B0
350
11A8
  3
B1
350
11A9
  3
B2
350
11AA
  3
B3
350
11AB
  3
B4
350
11AC
  3
B5
350
11AD
  3
B6
350
11AE
  3
B7
350
11AF
  3
B8
350
11B0
  3
B9
350
11B1
  3
C0
350
11B2
  3
C1
350
11B3
  3
C2
350
11B4
  3
C3
350
11B5
  3
C4
350
11B6
  3
C5
350
11B7
  3
C6
350
11B8
  3
C7
350
11B9
  3
C8
350
11BA
  3
C9
350
11BB
  3
D0
350
11BC
  3
D1
350
11BD
  3
D2
350
11BE
  0
DICTIONARY
  5
11E9
102
{ACAD_REACTORS
330
C
102
}
330
C
100
AcDbDictionary
281
     1
  0
DICTIONARY
  5
11DB
102
{ACAD_REACTORS
330
C
102
}
330
C
100
AcDbDictionary
281
     1
  3
Standard
350
11DC
  0
DICTIONARY
  5
11BF
102
{ACAD_REACTORS
330
C
102
}
330
C
100
AcDbDictionary
281
     1
  3
2dWireframe
350
11C4
  3
Basic
350
11C7
  3
Brighten
350
11CB
  3
ColorChange
350
11CF
  3
Conceptual
350
11C9
  3
Dim
350
11CA
  3
EdgeColorOff
350
11D2
  3
Facepattern
350
11CE
  3
Flat
350
11C0
  3
FlatWithEdges
350
11C1
  3
Gouraud
350
11C2
  3
GouraudWithEdges
350
11C3
  3
Hidden
350
11C6
  3
JitterOff
350
11D0
  3
Linepattern
350
11CD
  3
OverhangOff
350
11D1
  3
Realistic
350
11C8
  3
Shaded
350
11D7
  3
Shaded with edges
350
11D6
  3
Shades of Gray
350
11D3
  3
Sketchy
350
11D4
  3
Thicken
350
11CC
  3
Wireframe
350
11C5
  3
X-Ray
350
11D5
  0
XRECORD
  5
12AE
102
{ACAD_REACTORS
330
C
102
}
330
C
100
AcDbXrecord
280
     1
 90
        1
330
11DC
  0
DICTIONARY
  5
11E2
102
{ACAD_REACTORS
330
C
102
}
330
C
100
AcDbDictionary
281
     1
  3
CANNOSCALE
350
11E3
  3
CMLEADERSTYLE
350
11E5
  3
CTABLESTYLE
350
11E4
  3
MSLTSCALE
350
11E6
  3
XCLIPFRAME
350
11E7
  0
DICTIONARY
  5
11DF
102
{ACAD_REACTORS
330
C
102
}
330
C
100
AcDbDictionary
281
     1
  0
DICTIONARY
  5
12A6
102
{ACAD_REACTORS
330
12A5
102
}
330
12A5
100
AcDbDictionary
281
     1
  0
LAYOUT
  5
1E
102
{ACAD_REACTORS
330
1A
102
}
330
1A
100
AcDbPlotSettings
  1

  2
none_device
  4

  6

 40
0.0
 41
0.0
 42
0.0
 43
0.0
 44
0.0
 45
0.0
 46
0.0
 47
0.0
 48
0.0
 49
0.0
140
0.0
141
0.0
142
1.0
143
1.0
 70
   688
 72
     0
 73
     0
 74
     5
  7

 75
    16
 76
     0
 77
     2
 78
   300
147
1.0
148
0.0
149
0.0
100
AcDbLayout
  1
Layout1
 70
     1
 71
     1
 10
0.0
 20
0.0
 11
420.0
 21
297.0
 12
0.0
 22
0.0
 32
0.0
 14
1.000000000000000E+20
 24
1.000000000000000E+20
 34
1.000000000000000E+20
 15
-1.000000000000000E+20
 25
-1.000000000000000E+20
 35
-1.000000000000000E+20
146
0.0
 13
0.0
 23
0.0
 33
0.0
 16
1.0
 26
0.0
 36
0.0
 17
0.0
 27
1.0
 37
0.0
 76
     0
330
1B
  0
LAYOUT
  5
26
102
{ACAD_REACTORS
330
1A
102
}
330
1A
100
AcDbPlotSettings
  1

  2
none_device
  4

  6

 40
0.0
 41
0.0
 42
0.0
 43
0.0
 44
0.0
 45
0.0
 46
0.0
 47
0.0
 48
0.0
 49
0.0
140
0.0
141
0.0
142
1.0
143
1.0
 70
   688
 72
     0
 73
     0
 74
     5
  7

 75
    16
 76
     0
 77
     2
 78
   300
147
1.0
148
0.0
149
0.0
100
AcDbLayout
  1
Layout2
 70
     1
 71
     2
 10
0.0
 20
0.0
 11
0.0
 21
0.0
 12
0.0
 22
0.0
 32
0.0
 14
0.0
 24
0.0
 34
0.0
 15
0.0
 25
0.0
 35
0.0
146
0.0
 13
0.0
 23
0.0
 33
0.0
 16
1.0
 26
0.0
 36
0.0
 17
0.0
 27
1.0
 37
0.0
 76
     0
330
23
  0
LAYOUT
  5
22
102
{ACAD_REACTORS
330
1A
102
}
330
1A
100
AcDbPlotSettings
  1

  2
none_device
  4

  6

 40
0.0
 41
0.0
 42
0.0
 43
0.0
 44
0.0
 45
0.0
 46
0.0
 47
0.0
 48
0.0
 49
0.0
140
0.0
141
0.0
142
1.0
143
1.0
 70
  1712
 72
     0
 73
     0
 74
     0
  7

 75
     0
 76
     0
 77
     2
 78
   300
147
1.0
148
0.0
149
0.0
100
AcDbLayout
  1
Model
 70
     1
 71
     0
 10
0.0
 20
0.0
 11
420.0
 21
297.0
 12
0.0
 22
0.0
 32
0.0
 14
-1585.2186188608
 24
-677.3507337792997
 34
0.0
 15
-15.1147163206906
 25
1170.128108740752
 35
0.0000000000000284
146
0.0
 13
0.0
 23
0.0
 33
0.0
 16
1.0
 26
0.0
 36
0.0
 17
0.0
 27
1.0
 37
0.0
 76
     0
330
1F
331
119C
  0
MATERIAL
  5
11D9
102
{ACAD_REACTORS
330
1166
102
}
330
1166
100
AcDbMaterial
  1
ByBlock
 72
     1
 94
      127
  0
MATERIAL
  5
11D8
102
{ACAD_REACTORS
330
1166
102
}
330
1166
100
AcDbMaterial
  1
ByLayer
 72
     1
 94
      127
  0
MATERIAL
  5
11DA
102
{ACAD_REACTORS
330
1166
102
}
330
1166
100
AcDbMaterial
  1
Global
 72
     1
 94
      127
  0
MLEADERSTYLE
  5
11DE
102
{ACAD_REACTORS
330
11DD
102
}
330
11DD
100
AcDbMLeaderStyle
170
     2
171
     1
172
     0
 90
        2
 40
0.0
 41
0.0
173
     1
 91
-1056964608
340
14
 92
       -2
290
     1
 42
2.0
291
     1
 43
8.0
  3
Standard
341
0
 44
4.0
300

342
11
174
     1
178
     1
175
     1
176
     0
 93
-1056964608
 45
4.0
292
     0
297
     0
 46
4.0
343
0
 94
-1056964608
 47
1.0
 49
1.0
140
1.0
293
     1
141
0.0
294
     1
177
     0
142
1.0
295
     0
296
     0
143
3.75
1001
ACAD_MLEADERVER
1070
     2
  0
MLINESTYLE
  5
18
102
{ACAD_REACTORS
330
17
102
}
330
17
100
AcDbMlineStyle
  2
STANDARD
 70
     0
  3

 62
   256
 51
90.0
 52
90.0
 71
     2
 49
0.5
 62
   256
  6
BYLAYER
 49
-0.5
 62
   256
  6
BYLAYER
  0
ACDBPLACEHOLDER
  5
F
102
{ACAD_REACTORS
330
E
102
}
330
E
  0
SCALE
  5
119E
102
{ACAD_REACTORS
330
119D
102
}
330
119D
100
AcDbScale
 70
     0
300
1:1
140
1.0
141
1.0
290
     1
  0
SCALE
  5
119F
102
{ACAD_REACTORS
330
119D
102
}
330
119D
100
AcDbScale
 70
     0
300
1:2
140
1.0
141
2.0
290
     0
  0
SCALE
  5
11A0
102
{ACAD_REACTORS
330
119D
102
}
330
119D
100
AcDbScale
 70
     0
300
1:4
140
1.0
141
4.0
290
     0
  0
SCALE
  5
11A1
102
{ACAD_REACTORS
330
119D
102
}
330
119D
100
AcDbScale
 70
     0
300
1:5
140
1.0
141
5.0
290
     0
  0
SCALE
  5
11A2
102
{ACAD_REACTORS
330
119D
102
}
330
119D
100
AcDbScale
 70
     0
300
1:8
140
1.0
141
8.0
290
     0
  0
SCALE
  5
11A3
102
{ACAD_REACTORS
330
119D
102
}
330
119D
100
AcDbScale
 70
     0
300
1:10
140
1.0
141
10.0
290
     0
  0
SCALE
  5
11A4
102
{ACAD_REACTORS
330
119D
102
}
330
119D
100
AcDbScale
 70
     0
300
1:16
140
1.0
141
16.0
290
     0
  0
SCALE
  5
11A5
102
{ACAD_REACTORS
330
119D
102
}
330
119D
100
AcDbScale
 70
     0
300
1:20
140
1.0
141
20.0
290
     0
  0
SCALE
  5
11A6
102
{ACAD_REACTORS
330
119D
102
}
330
119D
100
AcDbScale
 70
     0
300
1:30
140
1.0
141
30.0
290
     0
  0
SCALE
  5
11A7
102
{ACAD_REACTORS
330
119D
102
}
330
119D
100
AcDbScale
 70
     0
300
1:40
140
1.0
141
40.0
290
     0
  0
SCALE
  5
11A8
102
{ACAD_REACTORS
330
119D
102
}
330
119D
100
AcDbScale
 70
     0
300
1:50
140
1.0
141
50.0
290
     0
  0
SCALE
  5
11A9
102
{ACAD_REACTORS
330
119D
102
}
330
119D
100
AcDbScale
 70
     0
300
1:100
140
1.0
141
100.0
290
     0
  0
SCALE
  5
11AA
102
{ACAD_REACTORS
330
119D
102
}
330
119D
100
AcDbScale
 70
     0
300
2:1
140
2.0
141
1.0
290
     0
  0
SCALE
  5
11AB
102
{ACAD_REACTORS
330
119D
102
}
330
119D
100
AcDbScale
 70
     0
300
4:1
140
4.0
141
1.0
290
     0
  0
SCALE
  5
11AC
102
{ACAD_REACTORS
330
119D
102
}
330
119D
100
AcDbScale
 70
     0
300
8:1
140
8.0
141
1.0
290
     0
  0
SCALE
  5
11AD
102
{ACAD_REACTORS
330
119D
102
}
330
119D
100
AcDbScale
 70
     0
300
10:1
140
10.0
141
1.0
290
     0
  0
SCALE
  5
11AE
102
{ACAD_REACTORS
330
119D
102
}
330
119D
100
AcDbScale
 70
     0
300
100:1
140
100.0
141
1.0
290
     0
  0
SCALE
  5
11AF
102
{ACAD_REACTORS
330
119D
102
}
330
119D
100
AcDbScale
 70
     0
300
1/128" = 1'-0"
140
0.0078125
141
12.0
290
     0
  0
SCALE
  5
11B0
102
{ACAD_REACTORS
330
119D
102
}
330
119D
100
AcDbScale
 70
     0
300
1/64" = 1'-0"
140
0.015625
141
12.0
290
     0
  0
SCALE
  5
11B1
102
{ACAD_REACTORS
330
119D
102
}
330
119D
100
AcDbScale
 70
     0
300
1/32" = 1'-0"
140
0.03125
141
12.0
290
     0
  0
SCALE
  5
11B2
102
{ACAD_REACTORS
330
119D
102
}
330
119D
100
AcDbScale
 70
     0
300
1/16" = 1'-0"
140
0.0625
141
12.0
290
     0
  0
SCALE
  5
11B3
102
{ACAD_REACTORS
330
119D
102
}
330
119D
100
AcDbScale
 70
     0
300
3/32" = 1'-0"
140
0.09375
141
12.0
290
     0
  0
SCALE
  5
11B4
102
{ACAD_REACTORS
330
119D
102
}
330
119D
100
AcDbScale
 70
     0
300
1/8" = 1'-0"
140
0.125
141
12.0
290
     0
  0
SCALE
  5
11B5
102
{ACAD_REACTORS
330
119D
102
}
330
119D
100
AcDbScale
 70
     0
300
3/16" = 1'-0"
140
0.1875
141
12.0
290
     0
  0
SCALE
  5
11B6
102
{ACAD_REACTORS
330
119D
102
}
330
119D
100
AcDbScale
 70
     0
300
1/4" = 1'-0"
140
0.25
141
12.0
290
     0
  0
SCALE
  5
11B7
102
{ACAD_REACTORS
330
119D
102
}
330
119D
100
AcDbScale
 70
     0
300
3/8" = 1'-0"
140
0.375
141
12.0
290
     0
  0
SCALE
  5
11B8
102
{ACAD_REACTORS
330
119D
102
}
330
119D
100
AcDbScale
 70
     0
300
1/2" = 1'-0"
140
0.5
141
12.0
290
     0
  0
SCALE
  5
11B9
102
{ACAD_REACTORS
330
119D
102
}
330
119D
100
AcDbScale
 70
     0
300
3/4" = 1'-0"
140
0.75
141
12.0
290
     0
  0
SCALE
  5
11BA
102
{ACAD_REACTORS
330
119D
102
}
330
119D
100
AcDbScale
 70
     0
300
1" = 1'-0"
140
1.0
141
12.0
290
     0
  0
SCALE
  5
11BB
102
{ACAD_REACTORS
330
119D
102
}
330
119D
100
AcDbScale
 70
     0
300
1-1/2" = 1'-0"
140
1.5
141
12.0
290
     0
  0
SCALE
  5
11BC
102
{ACAD_REACTORS
330
119D
102
}
330
119D
100
AcDbScale
 70
     0
300
3" = 1'-0"
140
3.0
141
12.0
290
     0
  0
SCALE
  5
11BD
102
{ACAD_REACTORS
330
119D
102
}
330
119D
100
AcDbScale
 70
     0
300
6" = 1'-0"
140
6.0
141
12.0
290
     0
  0
SCALE
  5
11BE
102
{ACAD_REACTORS
330
119D
102
}
330
119D
100
AcDbScale
 70
     0
300
1'-0" = 1'-0"
140
12.0
141
12.0
290
     0
  0
TABLESTYLE
  5
11DC
102
{ACAD_REACTORS
330
11DB
102
}
102
{ACAD_XDICTIONARY
360
12AB
102
}
330
11DB
100
AcDbTableStyle
  3
Standard
 70
     0
 71
     0
 40
0.06
 41
0.06
280
     0
281
     0
  7
Standard
140
4.5
170
     2
 62
     0
 63
   257
283
     0
 90
        4
 91
        0
  1

274
    -2
284
     1
 64
     0
275
    -2
285
     1
 65
     0
276
    -2
286
     1
 66
     0
277
    -2
287
     1
 67
     0
278
    -2
288
     1
 68
     0
279
    -2
289
     1
 69
     0
  7
Standard
140
6.0
170
     5
 62
     0
 63
   257
283
     0
 90
        4
 91
        0
  1

274
    -2
284
     1
 64
     0
275
    -2
285
     1
 65
     0
276
    -2
286
     1
 66
     0
277
    -2
287
     1
 67
     0
278
    -2
288
     1
 68
     0
279
    -2
289
     1
 69
     0
  7
Standard
140
4.5
170
     5
 62
     0
 63
   257
283
     0
 90
        4
 91
        0
  1

274
    -2
284
     1
 64
     0
275
    -2
285
     1
 65
     0
276
    -2
286
     1
 66
     0
277
    -2
287
     1
 67
     0
278
    -2
288
     1
 68
     0
279
    -2
289
     1
 69
     0
  0
VISUALSTYLE
  5
11C4
102
{ACAD_REACTORS
330
11BF
102
}
330
11BF
100
AcDbVisualStyle
  2
2dWireframe
 70
     4
 71
     0
 72
     2
 73
     0
 90
        0
 40
0.6
 41
30.0
 62
     5
 63
     7
421
 16777215
 74
     1
 91
        4
 64
     7
 65
   257
 75
     1
175
     1
 42
1.0
 92
        0
 66
   257
 43
1.0
 76
     1
 77
     6
 78
     2
 67
     7
 79
     5
170
     0
171
     0
290
     0
174
     0
 93
        1
 44
0.0
173
     0
291
     0
 45
0.0
  0
VISUALSTYLE
  5
11C7
102
{ACAD_REACTORS
330
11BF
102
}
330
11BF
100
AcDbVisualStyle
  2
Basic
 70
     7
 71
     1
 72
     0
 73
     1
 90
        0
 40
0.6
 41
30.0
 62
     5
 63
     7
421
 16777215
 74
     0
 91
        4
 64
     7
 65
   257
 75
     1
175
     1
 42
1.0
 92
        8
 66
     7
 43
1.0
 76
     1
 77
     6
 78
     2
 67
     7
 79
     5
170
     0
171
     0
290
     0
174
     0
 93
        1
 44
0.0
173
     0
291
     1
 45
0.0
  0
VISUALSTYLE
  5
11CB
102
{ACAD_REACTORS
330
11BF
102
}
330
11BF
100
AcDbVisualStyle
  2
Brighten
 70
    12
 71
     2
 72
     2
 73
     0
 90
        0
 40
0.6
 41
30.0
 62
     5
 63
     7
421
 16777215
 74
     1
 91
        4
 64
     7
 65
   257
 75
     1
175
     1
 42
1.0
 92
        8
 66
     7
 43
1.0
 76
     1
 77
     6
 78
     2
 67
     7
 79
     5
170
     0
171
     0
290
     0
174
     0
 93
        1
 44
50.0
173
     0
291
     1
 45
0.0
  0
VISUALSTYLE
  5
11CF
102
{ACAD_REACTORS
330
11BF
102
}
330
11BF
100
AcDbVisualStyle
  2
ColorChange
 70
    16
 71
     2
 72
     2
 73
     3
 90
        0
 40
0.6
 41
30.0
 62
     5
 63
     8
421
  8421504
 74
     1
 91
        4
 64
     7
 65
   257
 75
     1
175
     1
 42
1.0
 92
        8
 66
     8
424
  8421504
 43
1.0
 76
     1
 77
     6
 78
     2
 67
     7
 79
     5
170
     0
171
     0
290
     0
174
     0
 93
        1
 44
0.0
173
     0
291
     1
 45
0.0
  0
VISUALSTYLE
  5
11C9
102
{ACAD_REACTORS
330
11BF
102
}
330
11BF
100
AcDbVisualStyle
  2
Conceptual
 70
     9
 71
     3
 72
     2
 73
     0
 90
        0
 40
0.6
 41
30.0
 62
     5
 63
     7
421
 16777215
 74
     2
 91
        2
 64
     7
 65
   257
 75
     1
175
     1
 42
179.0
 92
        8
 66
     7
 43
1.0
 76
     1
 77
     6
 78
     2
 67
     7
 79
     3
170
     0
171
     0
290
     0
174
     0
 93
        1
 44
0.0
173
     0
291
     0
 45
0.0
  0
VISUALSTYLE
  5
11CA
102
{ACAD_REACTORS
330
11BF
102
}
330
11BF
100
AcDbVisualStyle
  2
Dim
 70
    11
 71
     2
 72
     2
 73
     0
 90
        0
 40
0.6
 41
30.0
 62
     5
 63
     7
421
 16777215
 74
     1
 91
        4
 64
     7
 65
   257
 75
     1
175
     1
 42
1.0
 92
        8
 66
     7
 43
1.0
 76
     1
 77
     6
 78
     2
 67
     7
 79
     5
170
     0
171
     0
290
     0
174
     0
 93
        1
 44
-50.0
173
     0
291
     1
 45
0.0
  0
VISUALSTYLE
  5
11D2
102
{ACAD_REACTORS
330
11BF
102
}
330
11BF
100
AcDbVisualStyle
  2
EdgeColorOff
 70
    22
 71
     2
 72
     2
 73
     0
 90
        0
 40
0.6
 41
30.0
 62
     5
 63
     7
421
 16777215
 74
     1
 91
        4
 64
     7
 65
   257
 75
     1
175
     1
 42
1.0
 92
        8
 66
     7
 43
1.0
 76
     1
 77
     6
 78
     2
 67
     7
 79
     5
170
     0
171
     0
290
     0
174
     0
 93
        1
 44
0.0
173
     0
291
     1
 45
0.0
  0
VISUALSTYLE
  5
11CE
102
{ACAD_REACTORS
330
11BF
102
}
330
11BF
100
AcDbVisualStyle
  2
Facepattern
 70
    15
 71
     2
 72
     2
 73
     0
 90
        0
 40
0.6
 41
30.0
 62
     5
 63
     7
421
 16777215
 74
     1
 91
        4
 64
     7
 65
   257
 75
     1
175
     1
 42
1.0
 92
        8
 66
     7
 43
1.0
 76
     1
 77
     6
 78
     2
 67
     7
 79
     5
170
     0
171
     0
290
     0
174
     0
 93
        1
 44
0.0
173
     0
291
     1
 45
0.0
  0
VISUALSTYLE
  5
11C0
102
{ACAD_REACTORS
330
11BF
102
}
330
11BF
100
AcDbVisualStyle
  2
Flat
 70
     0
 71
     2
 72
     1
 73
     1
 90
        2
 40
0.6
 41
30.0
 62
     5
 63
     7
421
 16777215
 74
     0
 91
        0
 64
     7
 65
   257
 75
     1
175
     1
 42
1.0
 92
        8
 66
     7
 43
1.0
 76
     1
 77
     6
 78
     2
 67
     7
 79
     5
170
     0
171
     0
290
     0
174
     0
 93
       13
 44
0.0
173
     0
291
     1
 45
0.0
  0
VISUALSTYLE
  5
11C1
102
{ACAD_REACTORS
330
11BF
102
}
330
11BF
100
AcDbVisualStyle
  2
FlatWithEdges
 70
     1
 71
     2
 72
     1
 73
     1
 90
        2
 40
0.6
 41
30.0
 62
     5
 63
     7
421
 16777215
 74
     1
 91
        0
 64
     7
 65
   257
 75
     1
175
     1
 42
1.0
 92
        0
 66
   257
 43
1.0
 76
     1
 77
     6
 78
     2
 67
     7
 79
     5
170
     0
171
     0
290
     0
174
     0
 93
       13
 44
0.0
173
     0
291
     1
 45
0.0
  0
VISUALSTYLE
  5
11C2
102
{ACAD_REACTORS
330
11BF
102
}
330
11BF
100
AcDbVisualStyle
  2
Gouraud
 70
     2
 71
     2
 72
     2
 73
     1
 90
        2
 40
0.6
 41
30.0
 62
     5
 63
     7
421
 16777215
 74
     0
 91
        0
 64
     7
 65
   257
 75
     1
175
     1
 42
1.0
 92
        0
 66
     7
 43
1.0
 76
     1
 77
     6
 78
     2
 67
     7
 79
     5
170
     0
171
     0
290
     0
174
     0
 93
       13
 44
0.0
173
     0
291
     1
 45
0.0
  0
VISUALSTYLE
  5
11C3
102
{ACAD_REACTORS
330
11BF
102
}
330
11BF
100
AcDbVisualStyle
  2
GouraudWithEdges
 70
     3
 71
     2
 72
     2
 73
     1
 90
        2
 40
0.6
 41
30.0
 62
     5
 63
     7
421
 16777215
 74
     1
 91
        0
 64
     7
 65
   257
 75
     1
175
     1
 42
1.0
 92
        0
 66
   257
 43
1.0
 76
     1
 77
     6
 78
     2
 67
     7
 79
     5
170
     0
171
     0
290
     0
174
     0
 93
       13
 44
0.0
173
     0
291
     1
 45
0.0
  0
VISUALSTYLE
  5
11C6
102
{ACAD_REACTORS
330
11BF
102
}
330
11BF
100
AcDbVisualStyle
  2
Hidden
 70
     6
 71
     1
 72
     2
 73
     2
 90
        0
 40
0.6
 41
30.0
 62
     5
 63
     7
421
 16777215
 74
     2
 91
        2
 64
     7
 65
   257
 75
     2
175
     1
 42
40.0
 92
        0
 66
   257
 43
1.0
 76
     1
 77
     6
 78
     2
 67
     7
 79
     3
170
     0
171
     0
290
     0
174
     0
 93
        1
 44
0.0
173
     0
291
     0
 45
0.0
  0
VISUALSTYLE
  5
11D0
102
{ACAD_REACTORS
330
11BF
102
}
330
11BF
100
AcDbVisualStyle
  2
JitterOff
 70
    20
 71
     2
 72
     2
 73
     0
 90
        0
 40
0.6
 41
30.0
 62
     5
 63
     7
421
 16777215
 74
     1
 91
        4
 64
     7
 65
   257
 75
     1
175
     1
 42
1.0
 92
       10
 66
     7
 43
1.0
 76
     1
 77
     6
 78
     2
 67
     7
 79
     5
170
     0
171
     0
290
     0
174
     0
 93
        1
 44
0.0
173
     0
291
     1
 45
0.0
  0
VISUALSTYLE
  5
11CD
102
{ACAD_REACTORS
330
11BF
102
}
330
11BF
100
AcDbVisualStyle
  2
Linepattern
 70
    14
 71
     2
 72
     2
 73
     0
 90
        0
 40
0.6
 41
30.0
 62
     5
 63
     7
421
 16777215
 74
     1
 91
        4
 64
     7
 65
   257
 75
     7
175
     7
 42
1.0
 92
        8
 66
     7
 43
1.0
 76
     1
 77
     6
 78
     2
 67
     7
 79
     5
170
     0
171
     0
290
     0
174
     0
 93
        1
 44
0.0
173
     0
291
     1
 45
0.0
  0
VISUALSTYLE
  5
11D1
102
{ACAD_REACTORS
330
11BF
102
}
330
11BF
100
AcDbVisualStyle
  2
OverhangOff
 70
    21
 71
     2
 72
     2
 73
     0
 90
        0
 40
0.6
 41
30.0
 62
     5
 63
     7
421
 16777215
 74
     1
 91
        4
 64
     7
 65
   257
 75
     1
175
     1
 42
1.0
 92
        9
 66
     7
 43
1.0
 76
     1
 77
     6
 78
     2
 67
     7
 79
     5
170
     0
171
     0
290
     0
174
     0
 93
        1
 44
0.0
173
     0
291
     1
 45
0.0
  0
VISUALSTYLE
  5
11C8
102
{ACAD_REACTORS
330
11BF
102
}
330
11BF
100
AcDbVisualStyle
  2
Realistic
 70
     8
 71
     2
 72
     3
 73
     0
 90
        2
 40
0.6
 41
30.0
 62
     5
 63
     7
421
 16777215
 74
     0
 91
        0
 64
     7
 65
   257
 75
     1
175
     1
 42
1.0
 92
        8
 66
   257
 43
1.0
 76
     1
 77
     6
 78
     2
 67
     7
 79
     3
170
     0
171
     0
290
     0
174
     0
 93
       13
 44
0.0
173
     0
291
     0
 45
0.0
  0
VISUALSTYLE
  5
11D7
102
{ACAD_REACTORS
330
11BF
102
}
330
11BF
100
AcDbVisualStyle
  2
Shaded
 70
    27
 71
     2
 72
     2
 73
     1
 90
        2
 40
0.6
 41
30.0
 62
     5
 63
     7
421
 16777215
 74
     0
 91
        4
 64
     7
 65
   257
 75
     1
175
     1
 42
1.0
 92
        8
 66
   257
 43
1.0
 76
     1
 77
     6
 78
     2
 67
     8
425
  7895160
 79
     3
170
     0
171
     0
290
     0
174
     0
 93
        5
 44
0.0
173
     0
291
     0
 45
0.0
  0
VISUALSTYLE
  5
11D6
102
{ACAD_REACTORS
330
11BF
102
}
330
11BF
100
AcDbVisualStyle
  2
Shaded with edges
 70
    26
 71
     2
 72
     2
 73
     1
 90
        2
 40
0.6
 41
30.0
 62
     5
 63
     7
421
 16777215
 74
     1
 91
       10
 64
     7
 65
   257
 75
     2
175
     1
 42
1.0
 92
        8
 66
   257
 43
1.0
 76
     1
 77
     6
 78
     2
 67
     7
 79
     3
170
     0
171
     0
290
     0
174
     0
 93
        5
 44
0.0
173
     0
291
     0
 45
0.0
  0
VISUALSTYLE
  5
11D3
102
{ACAD_REACTORS
330
11BF
102
}
330
11BF
100
AcDbVisualStyle
  2
Shades of Gray
 70
    23
 71
     2
 72
     2
 73
     3
 90
        0
 40
0.6
 41
30.0
 62
     5
 63
     7
421
 16777215
 74
     2
 91
        2
 64
     7
 65
     7
 75
     1
175
     1
 42
40.0
 92
        8
 66
     7
 43
1.0
 76
     1
 77
     6
 78
     2
 67
     7
 79
     3
170
     0
171
     0
290
     0
174
     0
 93
        1
 44
0.0
173
     0
291
     0
 45
0.0
  0
VISUALSTYLE
  5
11D4
102
{ACAD_REACTORS
330
11BF
102
}
330
11BF
100
AcDbVisualStyle
  2
Sketchy
 70
    24
 71
     1
 72
     2
 73
     2
 90
        0
 40
0.6
 41
30.0
 62
     5
 63
     7
421
 16777215
 74
     2
 91
        2
 64
     7
 65
     7
 75
     1
175
     1
 42
40.0
 92
       11
 66
     7
 43
1.0
 76
     1
 77
     6
 78
     2
 67
     7
 79
     6
170
     0
171
     0
290
     0
174
     0
 93
        1
 44
0.0
173
     0
291
     0
 45
0.0
  0
VISUALSTYLE
  5
11CC
102
{ACAD_REACTORS
330
11BF
102
}
330
11BF
100
AcDbVisualStyle
  2
Thicken
 70
    13
 71
     2
 72
     2
 73
     0
 90
        0
 40
0.6
 41
30.0
 62
     5
 63
     7
421
 16777215
 74
     1
 91
        4
 64
     7
 65
   257
 75
     1
175
     1
 42
1.0
 92
       12
 66
     7
 43
1.0
 76
     1
 77
     6
 78
     2
 67
     7
 79
     5
170
     0
171
     0
290
     0
174
     0
 93
        1
 44
0.0
173
     0
291
     1
 45
0.0
  0
VISUALSTYLE
  5
11C5
102
{ACAD_REACTORS
330
11BF
102
}
330
11BF
100
AcDbVisualStyle
  2
Wireframe
 70
     5
 71
     0
 72
     2
 73
     0
 90
        0
 40
0.6
 41
30.0
 62
     5
 63
     7
421
 16777215
 74
     1
 91
        4
 64
     7
 65
   257
 75
     1
175
     1
 42
1.0
 92
        0
 66
   257
 43
1.0
 76
     1
 77
     6
 78
     2
 67
     7
 79
     3
170
     0
171
     0
290
     0
174
     0
 93
        1
 44
0.0
173
     0
291
     0
 45
0.0
  0
VISUALSTYLE
  5
11D5
102
{ACAD_REACTORS
330
11BF
102
}
330
11BF
100
AcDbVisualStyle
  2
X-Ray
 70
    25
 71
     2
 72
     2
 73
     1
 90
        1
 40
0.5
 41
30.0
 62
     5
 63
     7
421
 16777215
 74
     1
 91
        0
 64
     7
 65
   257
 75
     1
175
     1
 42
1.0
 92
        8
 66
     7
 43
1.0
 76
     1
 77
     6
 78
     2
 67
     7
 79
     3
170
     0
171
     0
290
     0
174
     0
 93
       13
 44
0.0
173
     0
291
     0
 45
0.0
  0
DICTIONARYVAR
  5
11E3
102
{ACAD_REACTORS
330
11E2
102
}
330
11E2
100
DictionaryVariables
280
     0
  1
1:1
  0
DICTIONARYVAR
  5
11E5
102
{ACAD_REACTORS
330
11E2
102
}
330
11E2
100
DictionaryVariables
280
     0
  1
Standard
  0
DICTIONARYVAR
  5
11E4
102
{ACAD_REACTORS
330
11E2
102
}
330
11E2
100
DictionaryVariables
280
     0
  1
Standard
  0
DICTIONARYVAR
  5
11E6
102
{ACAD_REACTORS
330
11E2
102
}
330
11E2
100
DictionaryVariables
280
     0
  1
0
  0
DICTIONARYVAR
  5
11E7
102
{ACAD_REACTORS
330
11E2
102
}
330
11E2
100
DictionaryVariables
280
     0
  1
0
  0
DICTIONARY
  5
12AB
330
11DC
100
AcDbDictionary
280
     1
281
     1
  3
ACAD_ROUNDTRIP_2008_TABLESTYLE_CELLSTYLEMAP
360
12AC
  0
CELLSTYLEMAP
  5
12AC
102
{ACAD_REACTORS
330
12AB
102
}
330
12AB
100
AcDbCellStyleMap
 90
        3
300
CELLSTYLE
  1
TABLEFORMAT_BEGIN
 90
        5
170
     1
 91
        0
 92
    32768
 62
   257
 93
        1
300
CONTENTFORMAT
  1
CONTENTFORMAT_BEGIN
 90
        0
 91
        0
 92
        4
 93
        0
300

 40
0.0
140
1.0
 94
        5
 62
     0
340
11
144
6.0
309
CONTENTFORMAT_END
171
     1
301
MARGIN
  1
CELLMARGIN_BEGIN
 40
1.5
 40
1.5
 40
1.5
 40
1.5
 40
1.5
 40
1.5
309
CELLMARGIN_END
 94
        6
 95
        1
302
GRIDFORMAT
  1
GRIDFORMAT_BEGIN
 90
        0
 91
        1
 62
     0
 92
       -2
340
14
 93
        0
 40
0.045
309
GRIDFORMAT_END
 95
        2
302
GRIDFORMAT
  1
GRIDFORMAT_BEGIN
 90
        0
 91
        1
 62
     0
 92
       -2
340
14
 93
        0
 40
0.045
309
GRIDFORMAT_END
 95
        4
302
GRIDFORMAT
  1
GRIDFORMAT_BEGIN
 90
        0
 91
        1
 62
     0
 92
       -2
340
14
 93
        0
 40
0.045
309
GRIDFORMAT_END
 95
        8
302
GRIDFORMAT
  1
GRIDFORMAT_BEGIN
 90
        0
 91
        1
 62
     0
 92
       -2
340
14
 93
        0
 40
0.045
309
GRIDFORMAT_END
 95
       16
302
GRIDFORMAT
  1
GRIDFORMAT_BEGIN
 90
        0
 91
        1
 62
     0
 92
       -2
340
14
 93
        0
 40
0.045
309
GRIDFORMAT_END
 95
       32
302
GRIDFORMAT
  1
GRIDFORMAT_BEGIN
 90
        0
 91
        1
 62
     0
 92
       -2
340
14
 93
        0
 40
0.045
309
GRIDFORMAT_END
309
TABLEFORMAT_END
  1
CELLSTYLE_BEGIN
 90
        1
 91
        1
300
_TITLE
309
CELLSTYLE_END
300
CELLSTYLE
  1
TABLEFORMAT_BEGIN
 90
        5
170
     1
 91
        0
 92
        0
 62
   257
 93
        1
300
CONTENTFORMAT
  1
CONTENTFORMAT_BEGIN
 90
        0
 91
        0
 92
        4
 93
        0
300

 40
0.0
140
1.0
 94
        5
 62
     0
340
11
144
4.5
309
CONTENTFORMAT_END
171
     1
301
MARGIN
  1
CELLMARGIN_BEGIN
 40
1.5
 40
1.5
 40
1.5
 40
1.5
 40
1.5
 40
1.5
309
CELLMARGIN_END
 94
        6
 95
        1
302
GRIDFORMAT
  1
GRIDFORMAT_BEGIN
 90
        0
 91
        1
 62
     0
 92
       -2
340
14
 93
        0
 40
0.045
309
GRIDFORMAT_END
 95
        2
302
GRIDFORMAT
  1
GRIDFORMAT_BEGIN
 90
        0
 91
        1
 62
     0
 92
       -2
340
14
 93
        0
 40
0.045
309
GRIDFORMAT_END
 95
        4
302
GRIDFORMAT
  1
GRIDFORMAT_BEGIN
 90
        0
 91
        1
 62
     0
 92
       -2
340
14
 93
        0
 40
0.045
309
GRIDFORMAT_END
 95
        8
302
GRIDFORMAT
  1
GRIDFORMAT_BEGIN
 90
        0
 91
        1
 62
     0
 92
       -2
340
14
 93
        0
 40
0.045
309
GRIDFORMAT_END
 95
       16
302
GRIDFORMAT
  1
GRIDFORMAT_BEGIN
 90
        0
 91
        1
 62
     0
 92
       -2
340
14
 93
        0
 40
0.045
309
GRIDFORMAT_END
 95
       32
302
GRIDFORMAT
  1
GRIDFORMAT_BEGIN
 90
        0
 91
        1
 62
     0
 92
       -2
340
14
 93
        0
 40
0.045
309
GRIDFORMAT_END
309
TABLEFORMAT_END
  1
CELLSTYLE_BEGIN
 90
        2
 91
        1
300
_HEADER
309
CELLSTYLE_END
300
CELLSTYLE
  1
TABLEFORMAT_BEGIN
 90
        5
170
     1
 91
        0
 92
        0
 62
   257
 93
        1
300
CONTENTFORMAT
  1
CONTENTFORMAT_BEGIN
 90
        0
 91
        0
 92
        4
 93
        0
300

 40
0.0
140
1.0
 94
        2
 62
     0
340
11
144
4.5
309
CONTENTFORMAT_END
171
     1
301
MARGIN
  1
CELLMARGIN_BEGIN
 40
1.5
 40
1.5
 40
1.5
 40
1.5
 40
1.5
 40
1.5
309
CELLMARGIN_END
 94
        6
 95
        1
302
GRIDFORMAT
  1
GRIDFORMAT_BEGIN
 90
        0
 91
        1
 62
     0
 92
       -2
340
14
 93
        0
 40
0.045
309
GRIDFORMAT_END
 95
        2
302
GRIDFORMAT
  1
GRIDFORMAT_BEGIN
 90
        0
 91
        1
 62
     0
 92
       -2
340
14
 93
        0
 40
0.045
309
GRIDFORMAT_END
 95
        4
302
GRIDFORMAT
  1
GRIDFORMAT_BEGIN
 90
        0
 91
        1
 62
     0
 92
       -2
340
14
 93
        0
 40
0.045
309
GRIDFORMAT_END
 95
        8
302
GRIDFORMAT
  1
GRIDFORMAT_BEGIN
 90
        0
 91
        1
 62
     0
 92
       -2
340
14
 93
        0
 40
0.045
309
GRIDFORMAT_END
 95
       16
302
GRIDFORMAT
  1
GRIDFORMAT_BEGIN
 90
        0
 91
        1
 62
     0
 92
       -2
340
14
 93
        0
 40
0.045
309
GRIDFORMAT_END
 95
       32
302
GRIDFORMAT
  1
GRIDFORMAT_BEGIN
 90
        0
 91
        1
 62
     0
 92
       -2
340
14
 93
        0
 40
0.045
309
GRIDFORMAT_END
309
TABLEFORMAT_END
  1
CELLSTYLE_BEGIN
 90
        3
 91
        2
300
_DATA
309
CELLSTYLE_END
  0
ENDSEC
  0
EOF
