  0
SECTION
  2
HEADER
  9
$ACADVER
  1
AC1021
  9
$ACADMAINTVER
 70
    25
  9
$DWGCODEPAGE
  3
ANSI_1257
  9
$LASTSAVEDBY
  1
mariusbitinas
  9
$INSBASE
 10
0.0
 20
0.0
 30
0.0
  9
$EXTMIN
 10
-2023.1328259578
 20
-898.8707961174
 30
0.0
  9
$EXTMAX
 10
-277.3334121363293
 20
1153.928038206499
 30
0.0000000000000274
  9
$LIMMIN
 10
0.0
 20
0.0
  9
$LIMMAX
 10
420.0
 20
297.0
  9
$ORTHOMODE
 70
     1
  9
$REGENMODE
 70
     1
  9
$FILLMODE
 70
     1
  9
$QTEXTMODE
 70
     0
  9
$MIRRTEXT
 70
     1
  9
$LTSCALE
 40
1.0
  9
$ATTMODE
 70
     1
  9
$TEXTSIZE
 40
3.527777777799998
  9
$TRACEWID
 40
1.0
  9
$TEXTSTYLE
  7
Standard
  9
$CLAYER
  8
0
  9
$CELTYPE
  6
ByLayer
  9
$CECOLOR
 62
   256
  9
$CELTSCALE
 40
1.0
  9
$DISPSILH
 70
     0
  9
$DIMSCALE
 40
1.0
  9
$DIMASZ
 40
4.0
  9
$DIMEXO
 40
1.0
  9
$DIMDLI
 40
3.75
  9
$DIMRND
 40
0.0
  9
$DIMDLE
 40
0.0
  9
$DIMEXE
 40
1.0
  9
$DIMTP
 40
0.0
  9
$DIMTM
 40
0.0
  9
$DIMTXT
 40
3.527777777799998
  9
$DIMCEN
 40
2.5
  9
$DIMTSZ
 40
0.0
  9
$DIMTOL
 70
     0
  9
$DIMLIM
 70
     0
  9
$DIMTIH
 70
     1
  9
$DIMTOH
 70
     1
  9
$DIMSE1
 70
     0
  9
$DIMSE2
 70
     0
  9
$DIMTAD
 70
     1
  9
$DIMZIN
 70
     0
  9
$DIMBLK
  1

  9
$DIMASO
 70
     1
  9
$DIMSHO
 70
     1
  9
$DIMPOST
  1

  9
$DIMAPOST
  1

  9
$DIMALT
 70
     0
  9
$DIMALTD
 70
     3
  9
$DIMALTF
 40
0.0393700787
  9
$DIMLFAC
 40
1.0
  9
$DIMTOFL
 70
     1
  9
$DIMTVP
 40
0.0
  9
$DIMTIX
 70
     0
  9
$DIMSOXD
 70
     0
  9
$DIMSAH
 70
     0
  9
$DIMBLK1
  1

  9
$DIMBLK2
  1

  9
$DIMSTYLE
  2
ISO-25
  9
$DIMCLRD
 70
     0
  9
$DIMCLRE
 70
     0
  9
$DIMCLRT
 70
     0
  9
$DIMTFAC
 40
1.0
  9
$DIMGAP
 40
1.524
  9
$DIMJUST
 70
     0
  9
$DIMSD1
 70
     0
  9
$DIMSD2
 70
     0
  9
$DIMTOLJ
 70
     0
  9
$DIMTZIN
 70
     0
  9
$DIMALTZ
 70
     0
  9
$DIMALTTZ
 70
     0
  9
$DIMUPT
 70
     0
  9
$DIMDEC
 70
     2
  9
$DIMTDEC
 70
     2
  9
$DIMALTU
 70
     2
  9
$DIMALTTD
 70
     3
  9
$DIMTXSTY
  7
Standard
  9
$DIMAUNIT
 70
     0
  9
$DIMADEC
 70
     2
  9
$DIMALTRND
 40
0.0
  9
$DIMAZIN
 70
     0
  9
$DIMDSEP
 70
    44
  9
$DIMATFIT
 70
     3
  9
$DIMFRAC
 70
     0
  9
$DIMLDRBLK
  1

  9
$DIMLUNIT
 70
     2
  9
$DIMLWD
 70
    -2
  9
$DIMLWE
 70
    -2
  9
$DIMTMOVE
 70
     0
  9
$DIMFXL
 40
1.0
  9
$DIMFXLON
 70
     0
  9
$DIMJOGANG
 40
0.7853981633974483
  9
$DIMTFILL
 70
     0
  9
$DIMTFILLCLR
 70
     0
  9
$DIMARCSYM
 70
     0
  9
$DIMLTYPE
  6

  9
$DIMLTEX1
  6

  9
$DIMLTEX2
  6

  9
$LUNITS
 70
     2
  9
$LUPREC
 70
     2
  9
$SKETCHINC
 40
1.0
  9
$FILLETRAD
 40
10.0
  9
$AUNITS
 70
     0
  9
$AUPREC
 70
     2
  9
$MENU
  1
.
  9
$ELEVATION
 40
0.0
  9
$PELEVATION
 40
0.0
  9
$THICKNESS
 40
0.0
  9
$LIMCHECK
 70
     0
  9
$CHAMFERA
 40
10.0
  9
$CHAMFERB
 40
10.0
  9
$CHAMFERC
 40
20.0
  9
$CHAMFERD
 40
0.0
  9
$SKPOLY
 70
     0
  9
$TDCREATE
 40
2456260.400828368
  9
$TDUCREATE
 40
2456260.317495035
  9
$TDUPDATE
 40
2459178.647291134
  9
$TDUUPDATE
 40
2459178.563957801
  9
$TDINDWG
 40
0.0115351852
  9
$TDUSRTIMER
 40
0.0001959606
  9
$USRTIMER
 70
     1
  9
$ANGBASE
 50
0.0
  9
$ANGDIR
 70
     0
  9
$PDMODE
 70
     0
  9
$PDSIZE
 40
-1.0
  9
$PLINEWID
 40
0.0
  9
$SPLFRAME
 70
     0
  9
$SPLINETYPE
 70
     6
  9
$SPLINESEGS
 70
     8
  9
$HANDSEED
  5
13C5
  9
$SURFTAB1
 70
     6
  9
$SURFTAB2
 70
     6
  9
$SURFTYPE
 70
     6
  9
$SURFU
 70
     6
  9
$SURFV
 70
     6
  9
$UCSBASE
  2

  9
$UCSNAME
  2

  9
$UCSORG
 10
0.0
 20
0.0
 30
0.0
  9
$UCSXDIR
 10
1.0
 20
0.0
 30
0.0
  9
$UCSYDIR
 10
0.0
 20
1.0
 30
0.0
  9
$UCSORTHOREF
  2

  9
$UCSORTHOVIEW
 70
     0
  9
$UCSORGTOP
 10
0.0
 20
0.0
 30
0.0
  9
$UCSORGBOTTOM
 10
0.0
 20
0.0
 30
0.0
  9
$UCSORGLEFT
 10
0.0
 20
0.0
 30
0.0
  9
$UCSORGRIGHT
 10
0.0
 20
0.0
 30
0.0
  9
$UCSORGFRONT
 10
0.0
 20
0.0
 30
0.0
  9
$UCSORGBACK
 10
0.0
 20
0.0
 30
0.0
  9
$PUCSBASE
  2

  9
$PUCSNAME
  2

  9
$PUCSORG
 10
0.0
 20
0.0
 30
0.0
  9
$PUCSXDIR
 10
1.0
 20
0.0
 30
0.0
  9
$PUCSYDIR
 10
0.0
 20
1.0
 30
0.0
  9
$PUCSORTHOREF
  2

  9
$PUCSORTHOVIEW
 70
     0
  9
$PUCSORGTOP
 10
0.0
 20
0.0
 30
0.0
  9
$PUCSORGBOTTOM
 10
0.0
 20
0.0
 30
0.0
  9
$PUCSORGLEFT
 10
0.0
 20
0.0
 30
0.0
  9
$PUCSORGRIGHT
 10
0.0
 20
0.0
 30
0.0
  9
$PUCSORGFRONT
 10
0.0
 20
0.0
 30
0.0
  9
$PUCSORGBACK
 10
0.0
 20
0.0
 30
0.0
  9
$USERI1
 70
     0
  9
$USERI2
 70
     0
  9
$USERI3
 70
     0
  9
$USERI4
 70
     0
  9
$USERI5
 70
     0
  9
$USERR1
 40
0.0
  9
$USERR2
 40
0.0
  9
$USERR3
 40
0.0
  9
$USERR4
 40
0.0
  9
$USERR5
 40
0.0
  9
$WORLDVIEW
 70
     1
  9
$SHADEDGE
 70
     3
  9
$SHADEDIF
 70
    70
  9
$TILEMODE
 70
     1
  9
$MAXACTVP
 70
    64
  9
$PINSBASE
 10
0.0
 20
0.0
 30
0.0
  9
$PLIMCHECK
 70
     0
  9
$PEXTMIN
 10
1.000000000000000E+20
 20
1.000000000000000E+20
 30
1.000000000000000E+20
  9
$PEXTMAX
 10
-1.000000000000000E+20
 20
-1.000000000000000E+20
 30
-1.000000000000000E+20
  9
$PLIMMIN
 10
0.0
 20
0.0
  9
$PLIMMAX
 10
0.0
 20
0.0
  9
$UNITMODE
 70
     0
  9
$VISRETAIN
 70
     1
  9
$PLINEGEN
 70
     0
  9
$PSLTSCALE
 70
     1
  9
$TREEDEPTH
 70
  3020
  9
$CMLSTYLE
  2
Standard
  9
$CMLJUST
 70
     0
  9
$CMLSCALE
 40
20.0
  9
$PROXYGRAPHICS
 70
     1
  9
$MEASUREMENT
 70
     1
  9
$CELWEIGHT
370
    -1
  9
$ENDCAPS
280
     0
  9
$JOINSTYLE
280
     0
  9
$LWDISPLAY
290
     1
  9
$INSUNITS
 70
     4
  9
$HYPERLINKBASE
  1

  9
$STYLESHEET
  1

  9
$XEDIT
290
     1
  9
$CEPSNTYPE
380
     0
  9
$PSTYLEMODE
290
     1
  9
$FINGERPRINTGUID
  2
{6D36C0A8-D981-4D26-82A5-2A7FE6843BF5}
  9
$VERSIONGUID
  2
{F4FA3463-9718-4596-824A-6E8DD8FDD900}
  9
$EXTNAMES
290
     1
  9
$PSVPSCALE
 40
0.0
  9
$OLESTARTUP
290
     0
  9
$SORTENTS
280
   127
  9
$INDEXCTL
280
     0
  9
$HIDETEXT
280
     0
  9
$XCLIPFRAME
290
     0
  9
$HALOGAP
280
     0
  9
$OBSCOLOR
 70
   257
  9
$OBSLTYPE
280
     0
  9
$INTERSECTIONDISPLAY
280
     0
  9
$INTERSECTIONCOLOR
 70
   257
  9
$DIMASSOC
280
     1
  9
$PROJECTNAME
  1

  9
$CAMERADISPLAY
290
     0
  9
$LENSLENGTH
 40
50.0
  9
$CAMERAHEIGHT
 40
0.0
  9
$STEPSPERSEC
 40
2.0
  9
$STEPSIZE
 40
6.0
  9
$3DDWFPREC
 40
2.0
  9
$PSOLWIDTH
 40
0.25
  9
$PSOLHEIGHT
 40
4.0
  9
$LOFTANG1
 40
1.570796326794897
  9
$LOFTANG2
 40
1.570796326794897
  9
$LOFTMAG1
 40
0.0
  9
$LOFTMAG2
 40
0.0
  9
$LOFTPARAM
 70
     7
  9
$LOFTNORMALS
280
     1
  9
$LATITUDE
 40
37.795
  9
$LONGITUDE
 40
-122.394
  9
$NORTHDIRECTION
 40
0.0
  9
$TIMEZONE
 70
 -8000
  9
$LIGHTGLYPHDISPLAY
280
     1
  9
$TILEMODELIGHTSYNCH
280
     1
  9
$SOLIDHIST
280
     0
  9
$SHOWHIST
280
     1
  9
$DWFFRAME
280
     2
  9
$DGNFRAME
280
     2
  9
$REALWORLDSCALE
290
     1
  9
$INTERFERECOLOR
 62
   256
  9
$CSHADOW
280
     0
  9
$SHADOWPLANELOCATION
 40
0.0
  0
ENDSEC
  0
SECTION
  2
CLASSES
  0
CLASS
  1
ACDBDICTIONARYWDFLT
  2
AcDbDictionaryWithDefault
  3
ObjectDBX Classes
 90
        0
 91
        3
280
     0
281
     0
  0
CLASS
  1
VISUALSTYLE
  2
AcDbVisualStyle
  3
ObjectDBX Classes
 90
     4095
 91
        3
280
     0
281
     0
  0
CLASS
  1
MATERIAL
  2
AcDbMaterial
  3
ObjectDBX Classes
 90
     1153
 91
        3
280
     0
281
     0
  0
CLASS
  1
SCALE
  2
AcDbScale
  3
ObjectDBX Classes
 90
     1153
 91
        3
280
     0
281
     0
  0
CLASS
  1
TABLESTYLE
  2
AcDbTableStyle
  3
ObjectDBX Classes
 90
     4095
 91
        3
280
     0
281
     0
  0
CLASS
  1
MLEADERSTYLE
  2
AcDbMLeaderStyle
  3
ACDB_MLEADERSTYLE_CLASS
 90
     4095
 91
        3
280
     0
281
     0
  0
CLASS
  1
DICTIONARYVAR
  2
AcDbDictionaryVar
  3
ObjectDBX Classes
 90
        0
 91
        3
280
     0
281
     0
  0
CLASS
  1
CELLSTYLEMAP
  2
AcDbCellStyleMap
  3
ObjectDBX Classes
 90
     1152
 91
        3
280
     0
281
     0
  0
ENDSEC
  0
SECTION
  2
TABLES
  0
TABLE
  2
VPORT
  5
8
330
0
100
AcDbSymbolTable
 70
     1
  0
VPORT
  5
12B2
330
8
100
AcDbSymbolTableRecord
100
AcDbViewportTableRecord
  2
*Active
 70
     0
 10
0.0
 20
0.0
 11
1.0
 21
1.0
 12
-1057.87326686723
 22
43.85824362491826
 13
0.0
 23
0.0
 14
10.0
 24
10.0
 15
10.0
 25
10.0
 16
0.0
 26
0.0
 36
1.0
 17
0.0
 27
0.0
 37
0.0
 40
1401.204561228258
 41
1.644036697247707
 42
50.0
 43
0.0
 44
0.0
 50
0.0
 51
0.0
 71
    16
 72
  2000
 73
     1
 74
     3
 75
     0
 76
     0
 77
     0
 78
     0
281
     0
 65
     1
110
0.0
120
0.0
130
0.0
111
1.0
121
0.0
131
0.0
112
0.0
122
1.0
132
0.0
 79
     0
146
0.0
348
12DA
 60
     3
 61
     5
292
     1
282
     1
141
0.0
142
0.0
 63
   250
  0
ENDTAB
  0
TABLE
  2
LTYPE
  5
5
330
0
100
AcDbSymbolTable
 70
     8
  0
LTYPE
  5
14
330
5
100
AcDbSymbolTableRecord
100
AcDbLinetypeTableRecord
  2
ByBlock
 70
     0
  3

 72
    65
 73
     0
 40
0.0
  0
LTYPE
  5
15
330
5
100
AcDbSymbolTableRecord
100
AcDbLinetypeTableRecord
  2
ByLayer
 70
     0
  3

 72
    65
 73
     0
 40
0.0
  0
LTYPE
  5
16
330
5
100
AcDbSymbolTableRecord
100
AcDbLinetypeTableRecord
  2
Continuous
 70
     0
  3
Solid line
 72
    65
 73
     0
 40
0.0
  0
LTYPE
  5
3F
330
5
100
AcDbSymbolTableRecord
100
AcDbLinetypeTableRecord
  2
SLD-Solid
 70
     0
  3
SolidWorks Line Style
 72
    65
 73
     0
 40
0.0
  0
LTYPE
  5
40
330
5
100
AcDbSymbolTableRecord
100
AcDbLinetypeTableRecord
  2
SLD-Dashed
 70
     0
  3
SolidWorks Line Style
 72
    65
 73
     2
 40
1.905
 49
1.27
 74
     0
 49
-0.635
 74
     0
  0
LTYPE
  5
41
330
5
100
AcDbSymbolTableRecord
100
AcDbLinetypeTableRecord
  2
SLD-Phantom
 70
     0
  3
SolidWorks Line Style
 72
    65
 73
     6
 40
12.7
 49
6.349999999999998
 74
     0
 49
-1.27
 74
     0
 49
1.27
 74
     0
 49
-1.27
 74
     0
 49
1.27
 74
     0
 49
-1.27
 74
     0
  0
LTYPE
  5
42
330
5
100
AcDbSymbolTableRecord
100
AcDbLinetypeTableRecord
  2
SLD-Chain
 70
     0
  3
SolidWorks Line Style
 72
    65
 73
     4
 40
10.16
 49
6.349999999999998
 74
     0
 49
-1.27
 74
     0
 49
1.27
 74
     0
 49
-1.27
 74
     0
  0
LTYPE
  5
43
330
5
100
AcDbSymbolTableRecord
100
AcDbLinetypeTableRecord
  2
SLD-Center
 70
     0
  3
SolidWorks Line Style
 72
    65
 73
     4
 40
19.05
 49
15.24
 74
     0
 49
-1.27
 74
     0
 49
1.27
 74
     0
 49
-1.27
 74
     0
  0
LTYPE
  5
44
330
5
100
AcDbSymbolTableRecord
100
AcDbLinetypeTableRecord
  2
SLD-Stitch
 70
     0
  3
SolidWorks Line Style
 72
    65
 73
     2
 40
0.635
 49
0.0
 74
     0
 49
-0.635
 74
     0
  0
LTYPE
  5
45
330
5
100
AcDbSymbolTableRecord
100
AcDbLinetypeTableRecord
  2
SLD-Thin-Thick-Chain
 70
     0
  3
SolidWorks Line Style
 72
    65
 73
     4
 40
10.16
 49
6.349999999999998
 74
     0
 49
-1.27
 74
     0
 49
1.27
 74
     0
 49
-1.27
 74
     0
  0
ENDTAB
  0
TABLE
  2
LAYER
  5
2
330
0
100
AcDbSymbolTable
 70
     4
  0
LAYER
  5
10
330
2
100
AcDbSymbolTableRecord
100
AcDbLayerTableRecord
  2
0
 70
     0
 62
     7
  6
Continuous
370
    -3
390
F
347
12F0
  0
LAYER
  5
46
330
2
100
AcDbSymbolTableRecord
100
AcDbLayerTableRecord
  2
SLD-0
 70
     0
 62
     7
  6
Continuous
370
    -1
390
F
347
12F0
  0
LAYER
  5
47
330
2
100
AcDbSymbolTableRecord
100
AcDbLayerTableRecord
  2
LENKIMO
 70
     0
 62
     1
  6
SLD-Center
370
    -3
390
F
347
12F0
  0
LAYER
  5
48
330
2
100
AcDbSymbolTableRecord
100
AcDbLayerTableRecord
  2
ZYMEJIMAS
 70
     0
 62
     1
  6
SLD-Solid
370
    -3
390
F
347
12F0
  0
ENDTAB
  0
TABLE
  2
STYLE
  5
3
330
0
100
AcDbSymbolTable
 70
     6
  0
STYLE
  5
11
330
3
100
AcDbSymbolTableRecord
100
AcDbTextStyleTableRecord
  2
Standard
 70
     0
 40
0.0
 41
1.0
 50
0.0
 71
     0
 42
3.527777777799998
  3
txt
  4

  0
STYLE
  5
140
330
3
100
AcDbSymbolTableRecord
100
AcDbTextStyleTableRecord
  2
SLDTEXTSTYLE0
 70
     0
 40
0.0
 41
0.75
 50
0.0
 71
     0
 42
0.2
  3
TXT
  4

  0
STYLE
  5
158
330
3
100
AcDbSymbolTableRecord
100
AcDbTextStyleTableRecord
  2
SLDTEXTSTYLE1
 70
     0
 40
0.0
 41
0.6875
 50
0.0
 71
     0
 42
0.2
  3
TXT
  4

  0
STYLE
  5
15B
330
3
100
AcDbSymbolTableRecord
100
AcDbTextStyleTableRecord
  2
SLDTEXTSTYLE2
 70
     0
 40
0.0
 41
0.75
 50
0.0
 71
     0
 42
0.2
  3
TXT
  4
bigfont
  0
STYLE
  5
16B
330
3
100
AcDbSymbolTableRecord
100
AcDbTextStyleTableRecord
  2
SLDTEXTSTYLE3
 70
     0
 40
0.0
 41
0.6629999999999999
 50
0.0
 71
     0
 42
0.2
  3
TXT
  4

  0
STYLE
  5
18E
330
3
100
AcDbSymbolTableRecord
100
AcDbTextStyleTableRecord
  2
SLDTEXTSTYLE4
 70
     0
 40
0.0
 41
0.7
 50
0.0
 71
     0
 42
0.2
  3
TXT
  4

  0
ENDTAB
  0
TABLE
  2
VIEW
  5
6
330
0
100
AcDbSymbolTable
 70
     0
  0
ENDTAB
  0
TABLE
  2
UCS
  5
7
330
0
100
AcDbSymbolTable
 70
     0
  0
ENDTAB
  0
TABLE
  2
APPID
  5
9
330
0
100
AcDbSymbolTable
 70
     3
  0
APPID
  5
12
330
9
100
AcDbSymbolTableRecord
100
AcDbRegAppTableRecord
  2
ACAD
 70
     0
  0
APPID
  5
12FA
330
9
100
AcDbSymbolTableRecord
100
AcDbRegAppTableRecord
  2
AcadAnnotative
 70
     0
  0
APPID
  5
13C3
330
9
100
AcDbSymbolTableRecord
100
AcDbRegAppTableRecord
  2
ACAD_MLEADERVER
 70
     0
  0
ENDTAB
  0
TABLE
  2
DIMSTYLE
  5
A
330
0
100
AcDbSymbolTable
 70
     2
100
AcDbDimStyleTable
  0
DIMSTYLE
105
27
330
A
100
AcDbSymbolTableRecord
100
AcDbDimStyleTableRecord
  2
ISO-25
 70
     0
 41
2.5
 42
0.625
 43
3.75
 44
1.25
 73
     0
 74
     0
 77
     1
 78
     8
140
2.5
141
2.5
143
0.0393700787
147
0.625
171
     3
172
     1
178
     0
271
     2
272
     2
274
     3
278
    44
283
     0
284
     8
340
11
  0
DIMSTYLE
105
12F9
330
A
100
AcDbSymbolTableRecord
100
AcDbDimStyleTableRecord
  2
Annotative
 70
     0
 40
0.0
 41
2.5
 42
0.625
 43
3.75
 44
1.25
 73
     0
 74
     0
 77
     1
 78
     8
140
2.5
141
-2.5
143
0.03937007874016
147
0.625
171
     3
172
     1
178
     0
271
     2
272
     2
274
     3
278
    44
283
     0
284
     8
340
11
1001
AcadAnnotative
1000
AnnotativeData
1002
{
1070
     1
1070
     1
1002
}
  0
ENDTAB
  0
TABLE
  2
BLOCK_RECORD
  5
1
330
0
100
AcDbSymbolTable
 70
     5
  0
BLOCK_RECORD
  5
1F
102
{ACAD_XDICTIONARY
360
13BB
102
}
330
1
100
AcDbSymbolTableRecord
100
AcDbBlockTableRecord
  2
*Model_Space
340
22
 70
     0
280
     1
281
     0
  0
BLOCK_RECORD
  5
1B
330
1
100
AcDbSymbolTableRecord
100
AcDbBlockTableRecord
  2
*Paper_Space
340
1E
 70
     0
280
     1
281
     0
  0
BLOCK_RECORD
  5
23
330
1
100
AcDbSymbolTableRecord
100
AcDbBlockTableRecord
  2
*Paper_Space0
340
26
 70
     0
280
     1
281
     0
  0
BLOCK_RECORD
  5
49
330
1
100
AcDbSymbolTableRecord
100
AcDbBlockTableRecord
  2
Block1
340
0
 70
     0
280
     1
281
     0
  0
BLOCK_RECORD
  5
173
330
1
100
AcDbSymbolTableRecord
100
AcDbBlockTableRecord
  2
SW_NOTE_0
340
0
 70
     0
280
     1
281
     0
  0
BLOCK_RECORD
  5
179
330
1
100
AcDbSymbolTableRecord
100
AcDbBlockTableRecord
  2
SW_NOTE_1
340
0
 70
     0
280
     1
281
     0
  0
BLOCK_RECORD
  5
18B
330
1
100
AcDbSymbolTableRecord
100
AcDbBlockTableRecord
  2
SW_NOTE_2
340
0
 70
     0
280
     1
281
     0
  0
ENDTAB
  0
ENDSEC
  0
SECTION
  2
BLOCKS
  0
BLOCK
  5
20
330
1F
100
AcDbEntity
  8
0
100
AcDbBlockBegin
  2
*Model_Space
 70
     0
 10
0.0
 20
0.0
 30
0.0
  3
*Model_Space
  1

  0
ENDBLK
  5
21
330
1F
100
AcDbEntity
  8
0
100
AcDbBlockEnd
  0
BLOCK
  5
1C
330
1B
100
AcDbEntity
 67
     1
  8
0
100
AcDbBlockBegin
  2
*Paper_Space
 70
     0
 10
0.0
 20
0.0
 30
0.0
  3
*Paper_Space
  1

  0
ENDBLK
  5
1D
330
1B
100
AcDbEntity
 67
     1
  8
0
100
AcDbBlockEnd
  0
BLOCK
  5
24
330
23
100
AcDbEntity
  8
0
100
AcDbBlockBegin
  2
*Paper_Space0
 70
     0
 10
0.0
 20
0.0
 30
0.0
  3
*Paper_Space0
  1

  0
ENDBLK
  5
25
330
23
100
AcDbEntity
  8
0
100
AcDbBlockEnd
  0
BLOCK
  5
4A
330
49
100
AcDbEntity
  8
0
100
AcDbBlockBegin
  2
Block1
 70
     0
 10
0.0
 20
0.0
 30
0.0
  3
Block1
  1

  0
ARC
  5
4C
330
49
100
AcDbEntity
  8
0
  6
SLD-Solid
 62
   179
100
AcDbCircle
 10
7867.6649029635
 20
2430.1355419087
 30
0.0
 40
931.6078627493896
100
AcDbArc
 50
232.1189098069
 51
101.3462704492
  0
ARC
  5
4D
330
49
100
AcDbEntity
  8
0
  6
SLD-Solid
 62
   179
100
AcDbCircle
 10
7943.5514462269
 20
2435.961394653701
 30
0.0
 40
1140.079096555486
100
AcDbArc
 50
297.434182935
 51
62.17203318890002
  0
ARC
  5
4E
330
49
100
AcDbEntity
  8
0
  6
SLD-Solid
 62
   179
100
AcDbCircle
 10
20001.4103066854
 20
6936.258348176301
 30
0.0
 40
1270.831290716854
100
AcDbArc
 50
3.4391112699
 51
76.41975789219998
  0
ARC
  5
4F
330
49
100
AcDbEntity
  8
0
  6
SLD-Solid
 62
   179
100
AcDbCircle
 10
19239.4822949422
 20
3782.0667000728
 30
0.0
 40
4515.74411667143
100
AcDbArc
 50
76.41975789229998
 51
91.6754644339
  0
ARC
  5
50
330
49
100
AcDbEntity
  8
0
  6
SLD-Solid
 62
   179
100
AcDbCircle
 10
18683.9539720184
 20
2160.1911622497
 30
0.0
 40
2139.476369555804
100
AcDbArc
 50
270.3210228954001
 51
307.7127911617
  0
ARC
  5
51
330
49
100
AcDbEntity
  8
0
  6
SLD-Solid
 62
   179
100
AcDbCircle
 10
18746.0422061702
 20
1962.8216117468
 30
0.0
 40
1946.678009873842
100
AcDbArc
 50
309.8210667380999
 51
331.7017265911999
  0
ARC
  5
52
330
49
100
AcDbEntity
  8
0
  6
SLD-Solid
 62
   179
100
AcDbCircle
 10
17863.1917469523
 20
2438.1532894658
 30
0.0
 40
2949.356989998811
100
AcDbArc
 50
331.7017265911999
 51
356.0927915539001
  0
ARC
  5
53
330
49
100
AcDbEntity
  8
0
  6
SLD-Solid
 62
   179
100
AcDbCircle
 10
16755.7856245826
 20
6709.226497343
 30
0.0
 40
4524.342739831097
100
AcDbArc
 50
353.5830630921
 51
3.8434115591
  0
ARC
  5
54
330
49
100
AcDbEntity
  8
0
  6
SLD-Solid
 62
   179
100
AcDbCircle
 10
19039.3213693035
 20
6348.992835766701
 30
0.0
 40
506.1072723730909
100
AcDbArc
 50
52.45518083770001
 51
82.2716960779
  0
ARC
  5
55
330
49
100
AcDbEntity
  8
0
  6
SLD-Solid
 62
   179
100
AcDbCircle
 10
19108.0528552878
 20
6495.6270812425
 30
0.0
 40
349.7025539282703
100
AcDbArc
 50
10.4012874263
 51
46.7340603611
  0
ARC
  5
56
330
49
100
AcDbEntity
  8
0
  6
SLD-Solid
 62
   179
100
AcDbCircle
 10
17417.0070420698
 20
6262.2496105517
 30
0.0
 40
2056.490362340239
100
AcDbArc
 50
355.4752495919999
 51
8.290034904
  0
ARC
  5
57
330
49
100
AcDbEntity
  8
0
  6
SLD-Solid
 62
   179
100
AcDbCircle
 10
16921.0810184775
 20
2478.8840573259
 30
0.0
 40
2122.330793892779
100
AcDbArc
 50
339.2065439429
 51
352.3366543813
  0
ARC
  5
58
330
49
100
AcDbEntity
  8
0
  6
SLD-Solid
 62
   179
100
AcDbCircle
 10
18500.143747488
 20
1898.8589115903
 30
0.0
 40
440.5904503964751
100
AcDbArc
 50
293.838270217
 51
336.8232513296001
  0
ARC
  5
59
330
49
100
AcDbEntity
  8
0
  6
SLD-Solid
 62
   179
100
AcDbCircle
 10
18201.1477532386
 20
2813.3138324813
 30
0.0
 40
1401.173285533761
100
AcDbArc
 50
267.1686990927
 51
289.9057704419
  0
ARC
  5
5A
330
49
100
AcDbEntity
  8
0
  6
SLD-Solid
 62
   179
100
AcDbCircle
 10
18751.2701169541
 20
4514.997092706598
 30
0.0
 40
2362.499275286643
100
AcDbArc
 50
81.33049979549999
 51
90.0
  0
ARC
  5
5B
330
49
100
AcDbEntity
  8
0
  6
SLD-Solid
 62
   179
100
AcDbCircle
 10
6720.6044375296
 20
9296.0579653158
 30
0.0
 40
7520.148763137155
100
AcDbArc
 50
220.017667739
 51
227.0143029097
  0
ARC
  5
5C
330
49
100
AcDbEntity
  8
0
  6
SLD-Solid
 62
   179
100
AcDbCircle
 10
2021.3892535935
 20
2163.6755564521
 30
0.0
 40
795.0570373035339
100
AcDbArc
 50
316.8708555891
 51
354.9781479006
  0
ARC
  5
5D
330
49
100
AcDbEntity
  8
0
  6
SLD-Solid
 62
   179
100
AcDbCircle
 10
2182.9124170468
 20
2011.9889486322
 30
0.0
 40
573.4753329004777
100
AcDbArc
 50
268.8486412909
 51
316.8986890901
  0
ARC
  5
5E
330
49
100
AcDbEntity
  8
0
  6
SLD-Solid
 62
   179
100
AcDbCircle
 10
10525.696072633
 20
12531.6259047731
 30
0.0
 40
10618.65239809051
100
AcDbArc
 50
220.6325257886001
 51
226.7030345034
  0
ARC
  5
5F
330
49
100
AcDbEntity
  8
0
  6
SLD-Solid
 62
   179
100
AcDbCircle
 10
2962.700769446
 20
6223.5867799529
 30
0.0
 40
723.1072200381735
100
AcDbArc
 50
137.8203941731
 51
175.3475443105
  0
ARC
  5
60
330
49
100
AcDbEntity
  8
0
  6
SLD-Solid
 62
   179
100
AcDbCircle
 10
2808.3239355685
 20
6360.2864243508
 30
0.0
 40
516.9247077280751
100
AcDbArc
 50
89.43798520159999
 51
137.5591461504
  0
ARC
  5
61
330
49
100
AcDbEntity
  8
0
  6
SLD-Solid
 62
   179
100
AcDbCircle
 10
24439.2811878643
 20
2435.9613946539
 30
0.0
 40
1140.079096554877
100
AcDbArc
 50
297.4341829348999
 51
62.17203318890002
  0
ARC
  5
62
330
49
100
AcDbEntity
  8
0
  6
SLD-Solid
 62
   179
100
AcDbCircle
 10
24363.3946446009
 20
2430.1355419089
 30
0.0
 40
931.6078627500976
100
AcDbArc
 50
232.118909807
 51
101.3462704493
  0
LINE
  5
63
330
49
100
AcDbEntity
  8
0
  6
SLD-Solid
 62
   179
100
AcDbLine
 10
10088.0321784074
 20
0.0000125144
 30
0.0
 11
9858.221794955702
 21
8289.6552921115
 31
0.0
  0
LINE
  5
64
330
49
100
AcDbEntity
  8
0
  6
SLD-Solid
 62
   179
100
AcDbLine
 10
9858.221794955702
 20
8289.6552921115
 30
0.0
 11
7491.0265293557
 21
8289.6552921115
 31
0.0
  0
LINE
  5
65
330
49
100
AcDbEntity
  8
0
  6
SLD-Solid
 62
   179
100
AcDbLine
 10
7491.0265293557
 20
8289.6552921115
 30
0.0
 11
5122.8131677553
 21
0.0000125144
 31
0.0
  0
LINE
  5
66
330
49
100
AcDbEntity
  8
0
  6
SLD-Solid
 62
   179
100
AcDbLine
 10
5122.8131677553
 20
0.0000125144
 30
0.0
 11
6903.416058155301
 21
0.0000125144
 31
0.0
  0
LINE
  5
67
330
49
100
AcDbEntity
  8
0
  6
SLD-Solid
 62
   179
100
AcDbLine
 10
6903.416058155301
 20
0.0000125144
 30
0.0
 11
7295.634628555299
 21
1694.8297721115
 31
0.0
  0
LINE
  5
68
330
49
100
AcDbEntity
  8
0
  6
SLD-Solid
 62
   179
100
AcDbLine
 10
7684.3822381561
 20
3343.5361521108
 30
0.0
 11
8520.8837909553
 21
7008.8707569115
 31
0.0
  0
LINE
  5
69
330
49
100
AcDbEntity
  8
0
  6
SLD-Solid
 62
   179
100
AcDbLine
 10
8520.8837909553
 20
7008.8707569115
 30
0.0
 11
8475.7613005553
 21
3444.194015311501
 31
0.0
  0
LINE
  5
6A
330
49
100
AcDbEntity
  8
0
  6
SLD-Solid
 62
   179
100
AcDbLine
 10
8468.8193789565
 20
1424.0948297112
 30
0.0
 11
8468.8193789565
 21
0.0000125144
 31
0.0
  0
LINE
  5
6B
330
49
100
AcDbEntity
  8
0
  6
SLD-Solid
 62
   179
100
AcDbLine
 10
8468.8193789565
 20
0.0000125144
 30
0.0
 11
10088.0321784074
 21
0.0000125144
 31
0.0
  0
LINE
  5
6C
330
49
100
AcDbEntity
  8
0
  6
SLD-Solid
 62
   179
100
AcDbLine
 10
19107.4500497519
 20
8295.8802112275
 30
0.0
 11
16935.7898769541
 21
8295.8802112275
 31
0.0
  0
LINE
  5
6D
330
49
100
AcDbEntity
  8
0
  6
SLD-Solid
 62
   179
100
AcDbLine
 10
16935.7898769541
 20
8295.8802112275
 30
0.0
 11
15991.7401521541
 21
0.0000288275
 31
0.0
  0
LINE
  5
6E
330
49
100
AcDbEntity
  8
0
  6
SLD-Solid
 62
   179
100
AcDbLine
 10
15991.7401521541
 20
0.0000288275
 30
0.0
 11
17855.6331985541
 21
0.0000288275
 31
0.0
  0
LINE
  5
6F
330
49
100
AcDbEntity
  8
0
  6
SLD-Solid
 62
   179
100
AcDbLine
 10
17855.6331985541
 20
0.0000288275
 30
0.0
 11
18695.9411953541
 21
20.7483744275
 31
0.0
  0
LINE
  5
70
330
49
100
AcDbEntity
  8
0
  6
SLD-Solid
 62
   179
100
AcDbLine
 10
20805.6935873772
 20
2237.1817154785
 30
0.0
 11
21251.7830177772
 21
6203.5737826763
 31
0.0
  0
LINE
  5
71
330
49
100
AcDbEntity
  8
0
  6
SLD-Solid
 62
   179
100
AcDbLine
 10
19024.4566673541
 20
2195.8666048275
 30
0.0
 11
19467.0880401544
 21
6100.013635223699
 31
0.0
  0
LINE
  5
72
330
49
100
AcDbEntity
  8
0
  6
SLD-Solid
 62
   179
100
AcDbLine
 10
17907.5040625541
 20
1417.8036448275
 30
0.0
 11
18131.936218492
 21
1413.8509571068
 31
0.0
  0
LINE
  5
73
330
49
100
AcDbEntity
  8
0
  6
SLD-Solid
 62
   179
100
AcDbLine
 10
18529.9544305541
 20
6877.496367993299
 30
0.0
 11
17907.5040625541
 21
1417.8036448275
 31
0.0
  0
LINE
  5
74
330
49
100
AcDbEntity
  8
0
  6
SLD-Solid
 62
   179
100
AcDbLine
 10
18751.2701169541
 20
6877.496367993299
 30
0.0
 11
18529.9544305541
 21
6877.496367993299
 31
0.0
  0
LINE
  5
75
330
49
100
AcDbEntity
  8
0
  6
SLD-Solid
 62
   179
100
AcDbLine
 10
11134.6446741053
 20
0.0
 30
0.0
 11
14807.1018453053
 21
0.0
 31
0.0
  0
LINE
  5
76
330
49
100
AcDbEntity
  8
0
  6
SLD-Solid
 62
   179
100
AcDbLine
 10
14807.1018453053
 20
0.0
 30
0.0
 11
14990.3788981053
 21
1625.287072
 31
0.0
  0
LINE
  5
77
330
49
100
AcDbEntity
  8
0
  6
SLD-Solid
 62
   179
100
AcDbLine
 10
14990.3788981053
 20
1625.287072
 30
0.0
 11
13071.1569301053
 21
1625.287072
 31
0.0
  0
LINE
  5
78
330
49
100
AcDbEntity
  8
0
  6
SLD-Solid
 62
   179
100
AcDbLine
 10
13071.1569301053
 20
1625.287072
 30
0.0
 11
13828.4715445053
 21
8295.880182400004
 31
0.0
  0
LINE
  5
79
330
49
100
AcDbEntity
  8
0
  6
SLD-Solid
 62
   179
100
AcDbLine
 10
13828.4715445053
 20
8295.880182400004
 30
0.0
 11
12075.2363413053
 21
8295.880182400004
 31
0.0
  0
LINE
  5
7A
330
49
100
AcDbEntity
  8
0
  6
SLD-Solid
 62
   179
100
AcDbLine
 10
12075.2363413053
 20
8295.880182400004
 30
0.0
 11
11134.6446741053
 21
0.0
 31
0.0
  0
LINE
  5
7B
330
49
100
AcDbEntity
  8
0
  6
SLD-Solid
 62
   179
100
AcDbLine
 10
4907.4740560005
 20
6857.018562294701
 30
0.0
 11
4882.7391856278
 21
7041.149751364599
 31
0.0
  0
LINE
  5
7C
330
49
100
AcDbEntity
  8
0
  6
SLD-Solid
 62
   179
100
AcDbLine
 10
4882.7391856278
 20
7041.149751364599
 30
0.0
 11
4840.84097804
 21
7222.1279289072
 31
0.0
  0
LINE
  5
7D
330
49
100
AcDbEntity
  8
0
  6
SLD-Solid
 62
   179
100
AcDbLine
 10
4840.84097804
 20
7222.1279289072
 30
0.0
 11
4779.230404759
 21
7397.3516386623
 31
0.0
  0
LINE
  5
7E
330
49
100
AcDbEntity
  8
0
  6
SLD-Solid
 62
   179
100
AcDbLine
 10
4779.230404759
 20
7397.3516386623
 30
0.0
 11
4695.8753846469
 21
7563.306056288
 31
0.0
  0
LINE
  5
7F
330
49
100
AcDbEntity
  8
0
  6
SLD-Solid
 62
   179
100
AcDbLine
 10
4695.8753846469
 20
7563.306056288
 30
0.0
 11
4590.0094760133
 21
7715.862266709699
 31
0.0
  0
LINE
  5
80
330
49
100
AcDbEntity
  8
0
  6
SLD-Solid
 62
   179
100
AcDbLine
 10
4590.0094760133
 20
7715.862266709699
 30
0.0
 11
4462.7758841487
 21
7851.104996035799
 31
0.0
  0
LINE
  5
81
330
49
100
AcDbEntity
  8
0
  6
SLD-Solid
 62
   179
100
AcDbLine
 10
4462.7758841487
 20
7851.104996035799
 30
0.0
 11
4317.197793690001
 21
7966.391816437099
 31
0.0
  0
LINE
  5
82
330
49
100
AcDbEntity
  8
0
  6
SLD-Solid
 62
   179
100
AcDbLine
 10
4317.197793690001
 20
7966.391816437099
 30
0.0
 11
4157.354947066902
 21
8060.963699317401
 31
0.0
  0
LINE
  5
83
330
49
100
AcDbEntity
  8
0
  6
SLD-Solid
 62
   179
100
AcDbLine
 10
4157.354947066902
 20
8060.963699317401
 30
0.0
 11
3942.3832434805
 21
8152.000134559399
 31
0.0
  0
LINE
  5
84
330
49
100
AcDbEntity
  8
0
  6
SLD-Solid
 62
   179
100
AcDbLine
 10
3942.3832434805
 20
8152.000134559399
 30
0.0
 11
3717.7379879586
 21
8215.7306159908
 31
0.0
  0
LINE
  5
85
330
49
100
AcDbEntity
  8
0
  6
SLD-Solid
 62
   179
100
AcDbLine
 10
3717.7379879586
 20
8215.7306159908
 30
0.0
 11
3487.8010416052
 21
8256.6415379559
 31
0.0
  0
LINE
  5
86
330
49
100
AcDbEntity
  8
0
  6
SLD-Solid
 62
   179
100
AcDbLine
 10
3487.8010416052
 20
8256.6415379559
 30
0.0
 11
3255.2826646592
 21
8278.7971759128
 31
0.0
  0
LINE
  5
87
330
49
100
AcDbEntity
  8
0
  6
SLD-Solid
 62
   179
100
AcDbLine
 10
3255.2826646592
 20
8278.7971759128
 30
0.0
 11
3021.7939564
 21
8285.564092295102
 31
0.0
  0
LINE
  5
88
330
49
100
AcDbEntity
  8
0
  6
SLD-Solid
 62
   179
100
AcDbLine
 10
3021.7939564
 20
8285.564092295102
 30
0.0
 11
2764.7286656624
 21
8276.816734455799
 31
0.0
  0
LINE
  5
89
330
49
100
AcDbEntity
  8
0
  6
SLD-Solid
 62
   179
100
AcDbLine
 10
2764.7286656624
 20
8276.816734455799
 30
0.0
 11
2509.0566231212
 21
8248.844873041297
 31
0.0
  0
LINE
  5
8A
330
49
100
AcDbEntity
  8
0
  6
SLD-Solid
 62
   179
100
AcDbLine
 10
2509.0566231212
 20
8248.844873041297
 30
0.0
 11
2256.7624741697
 21
8198.969363254802
 31
0.0
  0
LINE
  5
8B
330
49
100
AcDbEntity
  8
0
  6
SLD-Solid
 62
   179
100
AcDbLine
 10
2256.7624741697
 20
8198.969363254802
 30
0.0
 11
2010.5862549102
 21
8124.640160958398
 31
0.0
  0
LINE
  5
8C
330
49
100
AcDbEntity
  8
0
  6
SLD-Solid
 62
   179
100
AcDbLine
 10
2010.5862549102
 20
8124.640160958398
 30
0.0
 11
1823.7042907144
 21
8047.7718170144
 31
0.0
  0
LINE
  5
8D
330
49
100
AcDbEntity
  8
0
  6
SLD-Solid
 62
   179
100
AcDbLine
 10
1823.7042907144
 20
8047.7718170144
 30
0.0
 11
1644.6605427625
 21
7954.102205278601
 31
0.0
  0
LINE
  5
8E
330
49
100
AcDbEntity
  8
0
  6
SLD-Solid
 62
   179
100
AcDbLine
 10
1644.6605427625
 20
7954.102205278601
 30
0.0
 11
1475.390327491
 21
7843.7545704421
 31
0.0
  0
LINE
  5
8F
330
49
100
AcDbEntity
  8
0
  6
SLD-Solid
 62
   179
100
AcDbLine
 10
1475.390327491
 20
7843.7545704421
 30
0.0
 11
1317.6231711996
 21
7717.507163895
 31
0.0
  0
LINE
  5
90
330
49
100
AcDbEntity
  8
0
  6
SLD-Solid
 62
   179
100
AcDbLine
 10
1317.6231711996
 20
7717.507163895
 30
0.0
 11
1139.538084005
 21
7540.9583629978
 31
0.0
  0
LINE
  5
91
330
49
100
AcDbEntity
  8
0
  6
SLD-Solid
 62
   179
100
AcDbLine
 10
1139.538084005
 20
7540.9583629978
 30
0.0
 11
983.4661868123
 21
7344.686540327599
 31
0.0
  0
LINE
  5
92
330
49
100
AcDbEntity
  8
0
  6
SLD-Solid
 62
   179
100
AcDbLine
 10
983.4661868123
 20
7344.686540327599
 30
0.0
 11
851.5325681984
 21
7131.431508806899
 31
0.0
  0
LINE
  5
93
330
49
100
AcDbEntity
  8
0
  6
SLD-Solid
 62
   179
100
AcDbLine
 10
851.5325681984
 20
7131.431508806899
 30
0.0
 11
744.4774564036
 21
6904.647070365
 31
0.0
  0
LINE
  5
94
330
49
100
AcDbEntity
  8
0
  6
SLD-Solid
 62
   179
100
AcDbLine
 10
744.4774564036
 20
6904.647070365
 30
0.0
 11
658.3392621498999
 21
6656.432742240301
 31
0.0
  0
LINE
  5
95
330
49
100
AcDbEntity
  8
0
  6
SLD-Solid
 62
   179
100
AcDbLine
 10
658.3392621498999
 20
6656.432742240301
 30
0.0
 11
596.9943576212999
 21
6400.9335325463
 31
0.0
  0
LINE
  5
96
330
49
100
AcDbEntity
  8
0
  6
SLD-Solid
 62
   179
100
AcDbLine
 10
596.9943576212999
 20
6400.9335325463
 30
0.0
 11
557.9730775995
 21
6141.0651554946
 31
0.0
  0
LINE
  5
97
330
49
100
AcDbEntity
  8
0
  6
SLD-Solid
 62
   179
100
AcDbLine
 10
557.9730775995
 20
6141.0651554946
 30
0.0
 11
538.0293793386
 21
5893.0807139359
 31
0.0
  0
LINE
  5
98
330
49
100
AcDbEntity
  8
0
  6
SLD-Solid
 62
   179
100
AcDbLine
 10
538.0293793386
 20
5893.0807139359
 30
0.0
 11
537.9155556826
 21
5644.316103439599
 31
0.0
  0
LINE
  5
99
330
49
100
AcDbEntity
  8
0
  6
SLD-Solid
 62
   179
100
AcDbLine
 10
537.9155556826
 20
5644.316103439599
 30
0.0
 11
561.0465619986
 21
5396.6565041751
 31
0.0
  0
LINE
  5
9A
330
49
100
AcDbEntity
  8
0
  6
SLD-Solid
 62
   179
100
AcDbLine
 10
561.0465619986
 20
5396.6565041751
 30
0.0
 11
610.8365836731
 21
5152.986228349099
 31
0.0
  0
LINE
  5
9B
330
49
100
AcDbEntity
  8
0
  6
SLD-Solid
 62
   179
100
AcDbLine
 10
610.8365836731
 20
5152.986228349099
 30
0.0
 11
670.4957765389
 21
4966.8752015955
 31
0.0
  0
LINE
  5
9C
330
49
100
AcDbEntity
  8
0
  6
SLD-Solid
 62
   179
100
AcDbLine
 10
670.4957765389
 20
4966.8752015955
 30
0.0
 11
749.0385092575999
 21
4787.922755338
 31
0.0
  0
LINE
  5
9D
330
49
100
AcDbEntity
  8
0
  6
SLD-Solid
 62
   179
100
AcDbLine
 10
749.0385092575999
 20
4787.922755338
 30
0.0
 11
846.3298658911998
 21
4618.4358151253
 31
0.0
  0
LINE
  5
9E
330
49
100
AcDbEntity
  8
0
  6
SLD-Solid
 62
   179
100
AcDbLine
 10
846.3298658911998
 20
4618.4358151253
 30
0.0
 11
961.3271095995999
 21
4460.4233554942
 31
0.0
  0
LINE
  5
9F
330
49
100
AcDbEntity
  8
0
  6
SLD-Solid
 62
   179
100
AcDbLine
 10
1593.2484263997
 20
3794.8892026942
 30
0.0
 11
2342.8146692
 21
3099.1034974946
 31
0.0
  0
LINE
  5
A0
330
49
100
AcDbEntity
  8
0
  6
SLD-Solid
 62
   179
100
AcDbLine
 10
2342.8146692
 20
3099.1034974946
 30
0.0
 11
2457.4150864402
 21
2985.4804965343
 31
0.0
  0
LINE
  5
A1
330
49
100
AcDbEntity
  8
0
  6
SLD-Solid
 62
   179
100
AcDbLine
 10
2457.4150864402
 20
2985.4804965343
 30
0.0
 11
2562.4777930784
 21
2863.0062246075
 31
0.0
  0
LINE
  5
A2
330
49
100
AcDbEntity
  8
0
  6
SLD-Solid
 62
   179
100
AcDbLine
 10
2562.4777930784
 20
2863.0062246075
 30
0.0
 11
2654.962824414801
 21
2730.8077708033
 31
0.0
  0
LINE
  5
A3
330
49
100
AcDbEntity
  8
0
  6
SLD-Solid
 62
   179
100
AcDbLine
 10
2654.962824414801
 20
2730.8077708033
 30
0.0
 11
2730.9070108725
 21
2588.5028322591
 31
0.0
  0
LINE
  5
A4
330
49
100
AcDbEntity
  8
0
  6
SLD-Solid
 62
   179
100
AcDbLine
 10
2730.9070108725
 20
2588.5028322591
 30
0.0
 11
2787.6392767372
 21
2429.3959416825
 31
0.0
  0
LINE
  5
A5
330
49
100
AcDbEntity
  8
0
  6
SLD-Solid
 62
   179
100
AcDbLine
 10
2787.6392767372
 20
2429.3959416825
 30
0.0
 11
2816.0412804487
 21
2262.9265767885
 31
0.0
  0
LINE
  5
A6
330
49
100
AcDbEntity
  8
0
  6
SLD-Solid
 62
   179
100
AcDbLine
 10
2816.0412804487
 20
2262.9265767885
 30
0.0
 11
2813.3943732
 21
2094.0797010946
 31
0.0
  0
LINE
  5
A7
330
49
100
AcDbEntity
  8
0
  6
SLD-Solid
 62
   179
100
AcDbLine
 10
2171.3892056002
 20
1438.629399097
 30
0.0
 11
2081.3271648151
 21
1444.5220285234
 31
0.0
  0
LINE
  5
A8
330
49
100
AcDbEntity
  8
0
  6
SLD-Solid
 62
   179
100
AcDbLine
 10
2081.3271648151
 20
1444.5220285234
 30
0.0
 11
1993.3677378413
 21
1464.5260106363
 31
0.0
  0
LINE
  5
A9
330
49
100
AcDbEntity
  8
0
  6
SLD-Solid
 62
   179
100
AcDbLine
 10
1993.3677378413
 20
1464.5260106363
 30
0.0
 11
1911.3435803354
 21
1501.9115152047
 31
0.0
  0
LINE
  5
AA
330
49
100
AcDbEntity
  8
0
  6
SLD-Solid
 62
   179
100
AcDbLine
 10
1911.3435803354
 20
1501.9115152047
 30
0.0
 11
1840.5450992733
 21
1557.6494251181
 31
0.0
  0
LINE
  5
AB
330
49
100
AcDbEntity
  8
0
  6
SLD-Solid
 62
   179
100
AcDbLine
 10
1840.5450992733
 20
1557.6494251181
 30
0.0
 11
1785.044516871099
 21
1628.6751044787
 31
0.0
  0
LINE
  5
AC
330
49
100
AcDbEntity
  8
0
  6
SLD-Solid
 62
   179
100
AcDbLine
 10
1785.044516871099
 20
1628.6751044787
 30
0.0
 11
1745.2817682865
 21
1709.6405469696
 31
0.0
  0
LINE
  5
AD
330
49
100
AcDbEntity
  8
0
  6
SLD-Solid
 62
   179
100
AcDbLine
 10
1745.2817682865
 20
1709.6405469696
 30
0.0
 11
1710.0353127013
 21
1840.2386565146
 31
0.0
  0
LINE
  5
AE
330
49
100
AcDbEntity
  8
0
  6
SLD-Solid
 62
   179
100
AcDbLine
 10
1710.0353127013
 20
1840.2386565146
 30
0.0
 11
1696.0216688059
 21
1974.8977537186
 31
0.0
  0
LINE
  5
AF
330
49
100
AcDbEntity
  8
0
  6
SLD-Solid
 62
   179
100
AcDbLine
 10
1696.0216688059
 20
1974.8977537186
 30
0.0
 11
1696.5924840549
 21
2110.3283975811
 31
0.0
  0
LINE
  5
B0
330
49
100
AcDbEntity
  8
0
  6
SLD-Solid
 62
   179
100
AcDbLine
 10
1696.5924840549
 20
2110.3283975811
 30
0.0
 11
1707.5320688
 21
2245.3374630946
 31
0.0
  0
LINE
  5
B1
330
49
100
AcDbEntity
  8
0
  6
SLD-Solid
 62
   179
100
AcDbLine
 10
1707.5320688
 20
2245.3374630946
 30
0.0
 11
1781.480308
 21
2897.4264814946
 31
0.0
  0
LINE
  5
B2
330
49
100
AcDbEntity
  8
0
  6
SLD-Solid
 62
   179
100
AcDbLine
 10
1781.480308
 20
2897.4264814946
 30
0.0
 11
94.11594079999998
 21
2897.4264814946
 31
0.0
  0
LINE
  5
B3
330
49
100
AcDbEntity
  8
0
  6
SLD-Solid
 62
   179
100
AcDbLine
 10
94.11594079999998
 20
2897.4264814946
 30
0.0
 11
26.8902688
 21
2295.7567170946
 31
0.0
  0
LINE
  5
B4
330
49
100
AcDbEntity
  8
0
  6
SLD-Solid
 62
   179
100
AcDbLine
 10
26.8902688
 20
2295.7567170946
 30
0.0
 11
5.820122611699999
 21
2068.3689705604
 31
0.0
  0
LINE
  5
B5
330
49
100
AcDbEntity
  8
0
  6
SLD-Solid
 62
   179
100
AcDbLine
 10
5.820122611699999
 20
2068.3689705604
 30
0.0
 11
0.0
 21
1889.0414014946
 31
0.0
  0
LINE
  5
B6
330
49
100
AcDbEntity
  8
0
  6
SLD-Solid
 62
   179
100
AcDbLine
 10
0.0
 20
1889.0414014946
 30
0.0
 11
0.0
 21
1788.2028934946
 31
0.0
  0
LINE
  5
B7
330
49
100
AcDbEntity
  8
0
  6
SLD-Solid
 62
   179
100
AcDbLine
 10
0.0
 20
1788.2028934946
 30
0.0
 11
8.4741181851
 21
1597.5992610857
 31
0.0
  0
LINE
  5
B8
330
49
100
AcDbEntity
  8
0
  6
SLD-Solid
 62
   179
100
AcDbLine
 10
8.4741181851
 20
1597.5992610857
 30
0.0
 11
29.9475321698
 21
1408.0255515191
 31
0.0
  0
LINE
  5
B9
330
49
100
AcDbEntity
  8
0
  6
SLD-Solid
 62
   179
100
AcDbLine
 10
29.9475321698
 20
1408.0255515191
 30
0.0
 11
66.5196177454
 21
1220.7936775914
 31
0.0
  0
LINE
  5
BA
330
49
100
AcDbEntity
  8
0
  6
SLD-Solid
 62
   179
100
AcDbLine
 10
66.5196177454
 20
1220.7936775914
 30
0.0
 11
120.5660601196
 21
1037.8592313249
 31
0.0
  0
LINE
  5
BB
330
49
100
AcDbEntity
  8
0
  6
SLD-Solid
 62
   179
100
AcDbLine
 10
120.5660601196
 20
1037.8592313249
 30
0.0
 11
194.3311383855
 21
861.9730900702
 31
0.0
  0
LINE
  5
BC
330
49
100
AcDbEntity
  8
0
  6
SLD-Solid
 62
   179
100
AcDbLine
 10
194.3311383855
 20
861.9730900702
 30
0.0
 11
287.5295606573
 21
699.5021482411
 31
0.0
  0
LINE
  5
BD
330
49
100
AcDbEntity
  8
0
  6
SLD-Solid
 62
   179
100
AcDbLine
 10
287.5295606573
 20
699.5021482411
 30
0.0
 11
401.5974373648999
 21
550.9580491856
 31
0.0
  0
LINE
  5
BE
330
49
100
AcDbEntity
  8
0
  6
SLD-Solid
 62
   179
100
AcDbLine
 10
401.5974373648999
 20
550.9580491856
 30
0.0
 11
535.1901037299
 21
419.6995230366999
 31
0.0
  0
LINE
  5
BF
330
49
100
AcDbEntity
  8
0
  6
SLD-Solid
 62
   179
100
AcDbLine
 10
535.1901037299
 20
419.6995230366999
 30
0.0
 11
685.4525519751
 21
307.8901613371
 31
0.0
  0
LINE
  5
C0
330
49
100
AcDbEntity
  8
0
  6
SLD-Solid
 62
   179
100
AcDbLine
 10
685.4525519751
 20
307.8901613371
 30
0.0
 11
880.9909831936
 21
200.7980430706
 31
0.0
  0
LINE
  5
C1
330
49
100
AcDbEntity
  8
0
  6
SLD-Solid
 62
   179
100
AcDbLine
 10
880.9909831936
 20
200.7980430706
 30
0.0
 11
1088.9648544967
 21
120.3523112471
 31
0.0
  0
LINE
  5
C2
330
49
100
AcDbEntity
  8
0
  6
SLD-Solid
 62
   179
100
AcDbLine
 10
1088.9648544967
 20
120.3523112471
 30
0.0
 11
1304.5983771836
 21
63.40275116379999
 31
0.0
  0
LINE
  5
C3
330
49
100
AcDbEntity
  8
0
  6
SLD-Solid
 62
   179
100
AcDbLine
 10
1304.5983771836
 20
63.40275116379999
 30
0.0
 11
1524.5667113278
 21
26.43531137510001
 31
0.0
  0
LINE
  5
C4
330
49
100
AcDbEntity
  8
0
  6
SLD-Solid
 62
   179
100
AcDbLine
 10
1524.5667113278
 20
26.43531137510001
 30
0.0
 11
1746.7181907984
 21
6.202131110099998
 31
0.0
  0
LINE
  5
C5
330
49
100
AcDbEntity
  8
0
  6
SLD-Solid
 62
   179
100
AcDbLine
 10
1746.7181907984
 20
6.202131110099998
 30
0.0
 11
1969.7121896
 21
0.0000182946
 31
0.0
  0
LINE
  5
C6
330
49
100
AcDbEntity
  8
0
  6
SLD-Solid
 62
   179
100
AcDbLine
 10
1969.7121896
 20
0.0000182946
 30
0.0
 11
2235.4163107967
 21
9.0474941519
 31
0.0
  0
LINE
  5
C7
330
49
100
AcDbEntity
  8
0
  6
SLD-Solid
 62
   179
100
AcDbLine
 10
2235.4163107967
 20
9.0474941519
 30
0.0
 11
2499.6874650753
 21
37.9033605802
 31
0.0
  0
LINE
  5
C8
330
49
100
AcDbEntity
  8
0
  6
SLD-Solid
 62
   179
100
AcDbLine
 10
2499.6874650753
 20
37.9033605802
 30
0.0
 11
2760.5117042792
 21
89.204615755
 31
0.0
  0
LINE
  5
C9
330
49
100
AcDbEntity
  8
0
  6
SLD-Solid
 62
   179
100
AcDbLine
 10
2760.5117042792
 20
89.204615755
 30
0.0
 11
3015.1415277313
 21
165.4438899665
 31
0.0
  0
LINE
  5
CA
330
49
100
AcDbEntity
  8
0
  6
SLD-Solid
 62
   179
100
AcDbLine
 10
3015.1415277313
 20
165.4438899665
 30
0.0
 11
3208.6236023082
 21
244.1201341123
 31
0.0
  0
LINE
  5
CB
330
49
100
AcDbEntity
  8
0
  6
SLD-Solid
 62
   179
100
AcDbLine
 10
3208.6236023082
 20
244.1201341123
 30
0.0
 11
3394.246790929
 21
339.8610540042
 31
0.0
  0
LINE
  5
CC
330
49
100
AcDbEntity
  8
0
  6
SLD-Solid
 62
   179
100
AcDbLine
 10
3394.246790929
 20
339.8610540042
 30
0.0
 11
3570.08287903
 21
452.5651803685
 31
0.0
  0
LINE
  5
CD
330
49
100
AcDbEntity
  8
0
  6
SLD-Solid
 62
   179
100
AcDbLine
 10
3570.08287903
 20
452.5651803685
 30
0.0
 11
3734.3860796
 21
581.5020810946
 31
0.0
  0
LINE
  5
CE
330
49
100
AcDbEntity
  8
0
  6
SLD-Solid
 62
   179
100
AcDbLine
 10
3734.3860796
 20
581.5020810946
 30
0.0
 11
3918.9619613187
 21
762.6068684982001
 31
0.0
  0
LINE
  5
CF
330
49
100
AcDbEntity
  8
0
  6
SLD-Solid
 62
   179
100
AcDbLine
 10
3918.9619613187
 20
762.6068684982001
 30
0.0
 11
4080.6115034165
 21
964.4332031658001
 31
0.0
  0
LINE
  5
D0
330
49
100
AcDbEntity
  8
0
  6
SLD-Solid
 62
   179
100
AcDbLine
 10
4080.6115034165
 20
964.4332031658001
 30
0.0
 11
4217.129324297
 21
1184.0491590435
 31
0.0
  0
LINE
  5
D1
330
49
100
AcDbEntity
  8
0
  6
SLD-Solid
 62
   179
100
AcDbLine
 10
4217.129324297
 20
1184.0491590435
 30
0.0
 11
4327.807798901
 21
1417.7744861233
 31
0.0
  0
LINE
  5
D2
330
49
100
AcDbEntity
  8
0
  6
SLD-Solid
 62
   179
100
AcDbLine
 10
4327.807798901
 20
1417.7744861233
 30
0.0
 11
4416.8403522579
 21
1673.6616360853
 31
0.0
  0
LINE
  5
D3
330
49
100
AcDbEntity
  8
0
  6
SLD-Solid
 62
   179
100
AcDbLine
 10
4416.8403522579
 20
1673.6616360853
 30
0.0
 11
4480.332478423
 21
1937.0776350384
 31
0.0
  0
LINE
  5
D4
330
49
100
AcDbEntity
  8
0
  6
SLD-Solid
 62
   179
100
AcDbLine
 10
4480.332478423
 20
1937.0776350384
 30
0.0
 11
4520.926442
 21
2205.0020598946
 31
0.0
  0
LINE
  5
D5
330
49
100
AcDbEntity
  8
0
  6
SLD-Solid
 62
   179
100
AcDbLine
 10
4520.926442
 20
2205.0020598946
 30
0.0
 11
4539.8604791128
 21
2434.751251137
 31
0.0
  0
LINE
  5
D6
330
49
100
AcDbEntity
  8
0
  6
SLD-Solid
 62
   179
100
AcDbLine
 10
4539.8604791128
 20
2434.751251137
 30
0.0
 11
4542.0136171636
 21
2665.2555763504
 31
0.0
  0
LINE
  5
D7
330
49
100
AcDbEntity
  8
0
  6
SLD-Solid
 62
   179
100
AcDbLine
 10
4542.0136171636
 20
2665.2555763504
 30
0.0
 11
4524.9874932226
 21
2895.1234497405
 31
0.0
  0
LINE
  5
D8
330
49
100
AcDbEntity
  8
0
  6
SLD-Solid
 62
   179
100
AcDbLine
 10
4524.9874932226
 20
2895.1234497405
 30
0.0
 11
4496.6310776622
 21
3074.0098021703
 31
0.0
  0
LINE
  5
D9
330
49
100
AcDbEntity
  8
0
  6
SLD-Solid
 62
   179
100
AcDbLine
 10
4496.6310776622
 20
3074.0098021703
 30
0.0
 11
4454.0379981851
 21
3250.0430485054
 31
0.0
  0
LINE
  5
DA
330
49
100
AcDbEntity
  8
0
  6
SLD-Solid
 62
   179
100
AcDbLine
 10
4454.0379981851
 20
3250.0430485054
 30
0.0
 11
4396.5589488
 21
3421.786723094601
 31
0.0
  0
LINE
  5
DB
330
49
100
AcDbEntity
  8
0
  6
SLD-Solid
 62
   179
100
AcDbLine
 10
4396.5589488
 20
3421.786723094601
 30
0.0
 11
4335.077579852899
 21
3551.3591107413
 31
0.0
  0
LINE
  5
DC
330
49
100
AcDbEntity
  8
0
  6
SLD-Solid
 62
   179
100
AcDbLine
 10
4335.077579852899
 20
3551.3591107413
 30
0.0
 11
4262.2002057756
 21
3674.9188547719
 31
0.0
  0
LINE
  5
DD
330
49
100
AcDbEntity
  8
0
  6
SLD-Solid
 62
   179
100
AcDbLine
 10
4262.2002057756
 20
3674.9188547719
 30
0.0
 11
4181.3183894369
 21
3793.4113089372
 31
0.0
  0
LINE
  5
DE
330
49
100
AcDbEntity
  8
0
  6
SLD-Solid
 62
   179
100
AcDbLine
 10
4181.3183894369
 20
3793.4113089372
 30
0.0
 11
4078.522747157101
 21
3927.6643628842
 31
0.0
  0
LINE
  5
DF
330
49
100
AcDbEntity
  8
0
  6
SLD-Solid
 62
   179
100
AcDbLine
 10
4078.522747157101
 20
3927.6643628842
 30
0.0
 11
3969.6759316
 21
4057.069323494601
 31
0.0
  0
LINE
  5
E0
330
49
100
AcDbEntity
  8
0
  6
SLD-Solid
 62
   179
100
AcDbLine
 10
3969.6759316
 20
4057.069323494601
 30
0.0
 11
3243.638674
 21
4803.274282694601
 31
0.0
  0
LINE
  5
E1
330
49
100
AcDbEntity
  8
0
  6
SLD-Solid
 62
   179
100
AcDbLine
 10
2467.1821623981
 20
5616.7049138995
 30
0.0
 11
2391.5759134121
 21
5727.7039441288
 31
0.0
  0
LINE
  5
E2
330
49
100
AcDbEntity
  8
0
  6
SLD-Solid
 62
   179
100
AcDbLine
 10
2391.5759134121
 20
5727.7039441288
 30
0.0
 11
2326.9023872324
 21
5845.3828817498
 31
0.0
  0
LINE
  5
E3
330
49
100
AcDbEntity
  8
0
  6
SLD-Solid
 62
   179
100
AcDbLine
 10
2326.9023872324
 20
5845.3828817498
 30
0.0
 11
2276.7855321171
 21
5969.9206549293
 31
0.0
  0
LINE
  5
E4
330
49
100
AcDbEntity
  8
0
  6
SLD-Solid
 62
   179
100
AcDbLine
 10
2276.7855321171
 20
5969.9206549293
 30
0.0
 11
2250.5432565423
 21
6072.0904771882
 31
0.0
  0
LINE
  5
E5
330
49
100
AcDbEntity
  8
0
  6
SLD-Solid
 62
   179
100
AcDbLine
 10
2250.5432565423
 20
6072.0904771882
 30
0.0
 11
2238.3532498759
 21
6176.8496579539
 31
0.0
  0
LINE
  5
E6
330
49
100
AcDbEntity
  8
0
  6
SLD-Solid
 62
   179
100
AcDbLine
 10
2238.3532498759
 20
6176.8496579539
 30
0.0
 11
2241.9761612
 21
6282.239066694599
 31
0.0
  0
LINE
  5
E7
330
49
100
AcDbEntity
  8
0
  6
SLD-Solid
 62
   179
100
AcDbLine
 10
2813.394373201
 20
6877.186263896098
 30
0.0
 11
2899.1450330725
 21
6871.9159884789
 31
0.0
  0
LINE
  5
E8
330
49
100
AcDbEntity
  8
0
  6
SLD-Solid
 62
   179
100
AcDbLine
 10
2899.1450330725
 20
6871.9159884789
 30
0.0
 11
2983.1458702521
 21
6854.0846279821
 31
0.0
  0
LINE
  5
E9
330
49
100
AcDbEntity
  8
0
  6
SLD-Solid
 62
   179
100
AcDbLine
 10
2983.1458702521
 20
6854.0846279821
 30
0.0
 11
3062.202014936
 21
6820.693112019601
 31
0.0
  0
LINE
  5
EA
330
49
100
AcDbEntity
  8
0
  6
SLD-Solid
 62
   179
100
AcDbLine
 10
3062.202014936
 20
6820.693112019601
 30
0.0
 11
3131.6623634801
 21
6770.362935621401
 31
0.0
  0
LINE
  5
EB
330
49
100
AcDbEntity
  8
0
  6
SLD-Solid
 62
   179
100
AcDbLine
 10
3131.6623634801
 20
6770.362935621401
 30
0.0
 11
3187.37124796
 21
6705.118469623498
 31
0.0
  0
LINE
  5
EC
330
49
100
AcDbEntity
  8
0
  6
SLD-Solid
 62
   179
100
AcDbLine
 10
3187.37124796
 20
6705.118469623498
 30
0.0
 11
3228.1274776793
 21
6629.5646068072
 31
0.0
  0
LINE
  5
ED
330
49
100
AcDbEntity
  8
0
  6
SLD-Solid
 62
   179
100
AcDbLine
 10
3228.1274776793
 20
6629.5646068072
 30
0.0
 11
3265.0334180049
 21
6506.244136135899
 31
0.0
  0
LINE
  5
EE
330
49
100
AcDbEntity
  8
0
  6
SLD-Solid
 62
   179
100
AcDbLine
 10
3265.0334180049
 20
6506.244136135899
 30
0.0
 11
3280.3602104272
 21
6378.3104742822
 31
0.0
  0
LINE
  5
EF
330
49
100
AcDbEntity
  8
0
  6
SLD-Solid
 62
   179
100
AcDbLine
 10
3280.3602104272
 20
6378.3104742822
 30
0.0
 11
3280.7520241623
 21
6249.4122034737
 31
0.0
  0
LINE
  5
F0
330
49
100
AcDbEntity
  8
0
  6
SLD-Solid
 62
   179
100
AcDbLine
 10
3280.7520241623
 20
6249.4122034737
 30
0.0
 11
3270.5289428
 21
6120.897453894599
 31
0.0
  0
LINE
  5
F1
330
49
100
AcDbEntity
  8
0
  6
SLD-Solid
 62
   179
100
AcDbLine
 10
3270.5289428
 20
6120.897453894599
 30
0.0
 11
3206.6645544
 21
5566.2856598946
 31
0.0
  0
LINE
  5
F2
330
49
100
AcDbEntity
  8
0
  6
SLD-Solid
 62
   179
100
AcDbLine
 10
3206.6645544
 20
5566.2856598946
 30
0.0
 11
4820.080682400499
 21
5566.285659894499
 31
0.0
  0
LINE
  5
F3
330
49
100
AcDbEntity
  8
0
  6
SLD-Solid
 62
   179
100
AcDbLine
 10
4820.080682400499
 20
5566.285659894499
 30
0.0
 11
4894.028921600501
 21
6231.819812694499
 31
0.0
  0
LINE
  5
F4
330
49
100
AcDbEntity
  8
0
  6
SLD-Solid
 62
   179
100
AcDbLine
 10
4894.028921600501
 20
6231.819812694499
 30
0.0
 11
4907.4740560005
 21
6366.2711566946
 31
0.0
  0
LINE
  5
F5
330
49
100
AcDbEntity
  8
0
  6
SLD-Solid
 62
   179
100
AcDbLine
 10
4907.4740560005
 20
6366.2711566946
 30
0.0
 11
4917.4861623745
 21
6641.1377165616
 31
0.0
  0
LINE
  5
F6
330
49
100
AcDbEntity
  8
0
  6
SLD-Solid
 62
   179
100
AcDbLine
 10
4917.4861623745
 20
6641.1377165616
 30
0.0
 11
4907.4740560005
 21
6857.018562294701
 31
0.0
  0
LINE
  5
F7
330
49
100
AcDbEntity
  8
0
  6
SLD-Solid
 62
   179
100
AcDbLine
 10
24964.5491205926
 20
0.0000125144
 30
0.0
 11
26583.7619200447
 21
0.0000125144
 31
0.0
  0
LINE
  5
F8
330
49
100
AcDbEntity
  8
0
  6
SLD-Solid
 62
   179
100
AcDbLine
 10
24964.5491205926
 20
1424.0948297115
 30
0.0
 11
24964.5491205926
 21
0.0000125144
 31
0.0
  0
LINE
  5
F9
330
49
100
AcDbEntity
  8
0
  6
SLD-Solid
 62
   179
100
AcDbLine
 10
25016.6135325926
 20
7008.8707569115
 30
0.0
 11
24971.491042193
 21
3444.1940153109
 31
0.0
  0
LINE
  5
FA
330
49
100
AcDbEntity
  8
0
  6
SLD-Solid
 62
   179
100
AcDbLine
 10
24180.1119797926
 20
3343.5361521115
 30
0.0
 11
25016.6135325926
 21
7008.8707569115
 31
0.0
  0
LINE
  5
FB
330
49
100
AcDbEntity
  8
0
  6
SLD-Solid
 62
   179
100
AcDbLine
 10
23399.1457997926
 20
0.0000125144
 30
0.0
 11
23791.3643701938
 21
1694.8297721102
 31
0.0
  0
LINE
  5
FC
330
49
100
AcDbEntity
  8
0
  6
SLD-Solid
 62
   179
100
AcDbLine
 10
21618.5429093926
 20
0.0000125144
 30
0.0
 11
23399.1457997926
 21
0.0000125144
 31
0.0
  0
LINE
  5
FD
330
49
100
AcDbEntity
  8
0
  6
SLD-Solid
 62
   179
100
AcDbLine
 10
23986.756270993
 20
8289.6552921115
 30
0.0
 11
21618.5429093926
 21
0.0000125144
 31
0.0
  0
LINE
  5
FE
330
49
100
AcDbEntity
  8
0
  6
SLD-Solid
 62
   179
100
AcDbLine
 10
26353.951536593
 20
8289.6552921115
 30
0.0
 11
23986.756270993
 21
8289.6552921115
 31
0.0
  0
LINE
  5
FF
330
49
100
AcDbEntity
  8
0
  6
SLD-Solid
 62
   179
100
AcDbLine
 10
26583.7619200447
 20
0.0000125144
 30
0.0
 11
26353.951536593
 21
8289.6552921115
 31
0.0
  0
ENDBLK
  5
4B
330
49
100
AcDbEntity
  8
0
100
AcDbBlockEnd
  0
BLOCK
  5
174
330
173
100
AcDbEntity
  8
0
100
AcDbBlockBegin
  2
SW_NOTE_0
 70
     0
 10
0.0
 20
0.0
 30
0.0
  3
SW_NOTE_0
  1

  0
MTEXT
  5
176
330
173
100
AcDbEntity
  8
0
 62
     0
100
AcDbMText
 10
0.0
 20
2.046395036899999
 30
0.0
 40
1.587499999999999
 41
0.0
 46
0.0
 71
     1
 72
     1
  1
1000-
  7
SLDTEXTSTYLE0
 73
     1
 44
1.0
  0
MTEXT
  5
177
330
173
100
AcDbEntity
  8
0
 62
     0
100
AcDbMText
 10
0.0
 20
-0.0702716042
 30
0.0
 40
1.587499999999999
 41
0.0
 46
0.0
 71
     1
 72
     1
  1
2000
  7
SLDTEXTSTYLE0
 73
     1
 44
1.0
  0
ENDBLK
  5
175
330
173
100
AcDbEntity
  8
0
100
AcDbBlockEnd
  0
BLOCK
  5
17A
330
179
100
AcDbEntity
  8
0
100
AcDbBlockBegin
  2
SW_NOTE_1
 70
     0
 10
0.0
 20
0.0
 30
0.0
  3
SW_NOTE_1
  1

  0
MTEXT
  5
17C
330
179
100
AcDbEntity
  8
0
 62
     0
100
AcDbMText
 10
0.0
 20
2.046395036899999
 30
0.0
 40
1.587499999999999
 41
0.0
 46
0.0
 71
     1
 72
     1
  1
2000-
  7
SLDTEXTSTYLE0
 73
     1
 44
1.0
  0
MTEXT
  5
17D
330
179
100
AcDbEntity
  8
0
 62
     0
100
AcDbMText
 10
0.0
 20
-0.0702716042
 30
0.0
 40
1.587499999999999
 41
0.0
 46
0.0
 71
     1
 72
     1
  1
4000
  7
SLDTEXTSTYLE0
 73
     1
 44
1.0
  0
ENDBLK
  5
17B
330
179
100
AcDbEntity
  8
0
100
AcDbBlockEnd
  0
BLOCK
  5
18C
330
18B
100
AcDbEntity
  8
0
100
AcDbBlockBegin
  2
SW_NOTE_2
 70
     0
 10
0.0
 20
0.0
 30
0.0
  3
SW_NOTE_2
  1

  0
MTEXT
  5
18F
330
18B
100
AcDbEntity
  8
0
 62
     0
100
AcDbMText
 10
2.25
 20
2.578135479499998
 30
0.0
 40
2.0
 41
0.0
 46
0.0
 71
     1
 72
     1
  1
S= mm
  7
SLDTEXTSTYLE4
 73
     1
 44
1.0
  0
MTEXT
  5
190
330
18B
100
AcDbEntity
  8
0
 62
     0
100
AcDbMText
 10
0.0
 20
-0.4218645465
 30
0.0
 40
2.0
 41
0.0
 46
0.0
 71
     1
 72
     1
  1
Lenkimo r=mm
  7
SLDTEXTSTYLE0
 73
     1
 44
1.0
  0
MTEXT
  5
191
330
18B
100
AcDbEntity
  8
0
 62
     0
100
AcDbMText
 10
0.0
 20
-3.4218645726
 30
0.0
 40
2.0
 41
0.0
 46
0.0
 71
     1
 72
     1
  1
Plotas S= m2
  7
SLDTEXTSTYLE0
 73
     1
 44
1.0
  0
ENDBLK
  5
18D
330
18B
100
AcDbEntity
  8
0
100
AcDbBlockEnd
  0
ENDSEC
  0
SECTION
  2
ENTITIES
  0
ARC
  5
221
330
1F
100
AcDbEntity
  8
SLD-0
100
AcDbCircle
 10
-1678.432818572099
 20
628.5435511406998
 30
0.0
 40
1.000000000000113
100
AcDbArc
 50
0.0
 51
90.0
  0
ARC
  5
222
330
1F
100
AcDbEntity
  8
SLD-0
100
AcDbCircle
 10
-1678.432818572099
 20
601.0435511406998
 30
0.0
 40
1.0
100
AcDbArc
 50
270.0
 51
0.0
  0
LINE
  5
223
330
1F
100
AcDbEntity
  8
SLD-0
100
AcDbLine
 10
-1678.4328191897
 20
629.5435583882
 30
0.0
 11
-1680.4328176549
 21
629.5435583882
 31
0.0
  0
LINE
  5
224
330
1F
100
AcDbEntity
  8
SLD-0
100
AcDbLine
 10
-1680.4328176549
 20
600.0435507587999
 30
0.0
 11
-1678.4328191897
 21
600.0435507587999
 31
0.0
  0
LINE
  5
225
330
1F
100
AcDbEntity
  8
SLD-0
100
AcDbLine
 10
-1713.9328184893
 20
600.2935475401999
 30
0.0
 11
-1712.4328182434
 21
600.2935475401999
 31
0.0
  0
LINE
  5
226
330
1F
100
AcDbEntity
  8
SLD-0
100
AcDbLine
 10
-1712.4328182434
 20
629.2935467057
 30
0.0
 11
-1713.9328184893
 21
629.2935467057
 31
0.0
  0
LINE
  5
227
330
1F
100
AcDbEntity
  8
SLD-0
100
AcDbLine
 10
-1697.4328185787
 20
603.2935536199
 30
0.0
 11
-1686.4328186383
 21
603.2935536199
 31
0.0
  0
LINE
  5
228
330
1F
100
AcDbEntity
  8
SLD-0
100
AcDbLine
 10
-1692.4328186905
 20
626.2935555272
 30
0.0
 11
-1697.4328185787
 21
626.2935555272
 31
0.0
  0
LINE
  5
229
330
1F
100
AcDbEntity
  8
SLD-0
100
AcDbLine
 10
-1712.4328182434
 20
600.8407330804
 30
0.0
 11
-1697.4328185787
 21
600.8407330804
 31
0.0
  0
LINE
  5
22A
330
1F
100
AcDbEntity
  8
SLD-0
100
AcDbLine
 10
-1697.4328185787
 20
627.0101225667
 30
0.0
 11
-1712.4328182434
 21
627.0101225667
 31
0.0
  0
LINE
  5
22F
330
1F
100
AcDbEntity
  8
SLD-0
100
AcDbLine
 10
-1532.4328194728
 20
510.7935524278
 30
0.0
 11
-1532.4328194728
 21
512.2935480169998
 31
0.0
  0
LINE
  5
230
330
1F
100
AcDbEntity
  8
SLD-0
100
AcDbLine
 10
-1561.4328186383
 20
512.2935480169998
 30
0.0
 11
-1561.4328186383
 21
510.7935524278
 31
0.0
  0
LINE
  5
231
330
1F
100
AcDbEntity
  8
SLD-0
100
AcDbLine
 10
-1535.4328255525
 20
527.2935486131
 30
0.0
 11
-1535.4328255525
 21
532.2935438447
 31
0.0
  0
LINE
  5
232
330
1F
100
AcDbEntity
  8
SLD-0
100
AcDbLine
 10
-1558.4328125587
 20
532.2935438447
 30
0.0
 11
-1558.4328125587
 21
527.2935486131
 31
0.0
  0
LINE
  5
233
330
1F
100
AcDbEntity
  8
SLD-0
100
AcDbLine
 10
-1560.3349606862
 20
527.2935486131
 30
0.0
 11
-1560.3349606862
 21
512.2935480169998
 31
0.0
  0
LINE
  5
234
330
1F
100
AcDbEntity
  8
SLD-0
100
AcDbLine
 10
-1533.5306774249
 20
512.2935480169998
 30
0.0
 11
-1533.5306774249
 21
527.2935486131
 31
0.0
  0
LINE
  5
235
330
1F
100
AcDbEntity
  8
SLD-0
100
AcDbLine
 10
-1434.2328261008
 20
158.0060577683
 30
0.0
 11
-1434.0039144626
 21
158.0060577683
 31
0.0
  0
LINE
  5
236
330
1F
100
AcDbEntity
  8
SLD-0
100
AcDbLine
 10
-1434.0039144626
 20
163.006053
 30
0.0
 11
-1434.2328261008
 21
163.006053
 31
0.0
  0
LINE
  5
237
330
1F
100
AcDbEntity
  8
SLD-0
100
AcDbLine
 10
-1406.2407861819
 20
793.386206656
 30
0.0
 11
-1420.5828260055
 21
798.6062622360998
 31
0.0
  0
LINE
  5
238
330
1F
100
AcDbEntity
  8
SLD-0
100
AcDbLine
 10
-1733.9828188887
 20
798.6062622360998
 30
0.0
 11
-1748.3248400857
 21
793.386206656
 31
0.0
  0
LINE
  5
239
330
1F
100
AcDbEntity
  8
SLD-0
100
AcDbLine
 10
-1748.3248400857
 20
793.386206656
 30
0.0
 11
-1747.9828174582
 21
792.4465096288001
 31
0.0
  0
LINE
  5
23A
330
1F
100
AcDbEntity
  8
SLD-0
100
AcDbLine
 10
-1406.582827436
 20
792.4465096288001
 30
0.0
 11
-1406.2407861819
 21
793.386206656
 31
0.0
  0
ARC
  5
23B
330
1F
100
AcDbEntity
  8
SLD-0
100
AcDbCircle
 10
-1412.7828185721
 20
713.5560566547998
 30
0.0
 40
1.049999999999954
100
AcDbArc
 50
270.0
 51
90.0
  0
ARC
  5
23C
330
1F
100
AcDbEntity
  8
SLD-0
100
AcDbCircle
 10
-1741.7828185721
 20
713.5560566547998
 30
0.0
 40
1.049999999999954
100
AcDbArc
 50
90.0
 51
270.0
  0
ARC
  5
23D
330
1F
100
AcDbEntity
  8
SLD-0
100
AcDbCircle
 10
-1420.4828185721
 20
761.2960566547998
 30
0.0
 40
2.700000000000138
100
AcDbArc
 50
285.0261137591
 51
74.9738862409
  0
ARC
  5
23E
330
1F
100
AcDbEntity
  8
SLD-0
100
AcDbCircle
 10
-1734.0828185721
 20
761.2960566547998
 30
0.0
 40
2.700000000000138
100
AcDbArc
 50
105.0261137591
 51
254.9738862408999
  0
LINE
  5
23F
330
1F
100
AcDbEntity
  8
SLD-0
100
AcDbLine
 10
-1419.7828124633
 20
763.9037227921001
 30
0.0
 11
-1419.7828124633
 21
773.5167599014999
 31
0.0
  0
LINE
  5
240
330
1F
100
AcDbEntity
  8
SLD-0
100
AcDbLine
 10
-1734.7828175297
 20
773.5167599014999
 30
0.0
 11
-1734.7828175297
 21
763.9037227921001
 31
0.0
  0
LINE
  5
241
330
1F
100
AcDbEntity
  8
SLD-0
100
AcDbLine
 10
-1734.7828175297
 20
733.8659322553
 30
0.0
 11
-1732.5679312816
 21
714.6060622028999
 31
0.0
  0
LINE
  5
242
330
1F
100
AcDbEntity
  8
SLD-0
100
AcDbLine
 10
-1421.9976912608
 20
714.6060622028999
 30
0.0
 11
-1419.7828124633
 21
733.8659322553
 31
0.0
  0
LINE
  5
243
330
1F
100
AcDbEntity
  8
SLD-0
100
AcDbLine
 10
-1419.7828124633
 20
798.9060437969998
 30
0.0
 11
-1419.7828124633
 21
802.656070023
 31
0.0
  0
LINE
  5
244
330
1F
100
AcDbEntity
  8
SLD-0
100
AcDbLine
 10
-1734.7828175297
 20
802.656070023
 30
0.0
 11
-1734.7828175297
 21
798.9060437969998
 31
0.0
  0
ARC
  5
245
330
1F
100
AcDbEntity
  8
SLD-0
100
AcDbCircle
 10
-1421.0328185721
 20
802.6560566547997
 30
0.0
 40
1.25
100
AcDbArc
 50
0.0
 51
90.0
  0
ARC
  5
246
330
1F
100
AcDbEntity
  8
SLD-0
100
AcDbCircle
 10
-1733.5328185721
 20
802.6560566547997
 30
0.0
 40
1.25
100
AcDbArc
 50
90.0
 51
180.0
  0
LINE
  5
247
330
1F
100
AcDbEntity
  8
SLD-0
100
AcDbLine
 10
-1421.0328112712
 20
803.906068831
 30
0.0
 11
-1733.5328187218
 21
803.906068831
 31
0.0
  0
LINE
  5
248
330
1F
100
AcDbEntity
  8
SLD-0
100
AcDbLine
 10
-1419.7828124633
 20
773.5167599014999
 30
0.0
 11
-1421.5828131309
 21
776.0874188236999
 31
0.0
  0
LINE
  5
249
330
1F
100
AcDbEntity
  8
SLD-0
100
AcDbLine
 10
-1732.9828168621
 20
776.0874188236999
 30
0.0
 11
-1734.7828175297
 21
773.5167599014999
 31
0.0
  0
LINE
  5
24A
330
1F
100
AcDbEntity
  8
SLD-0
100
AcDbLine
 10
-1419.7828124633
 20
733.8659322553
 30
0.0
 11
-1419.7828124633
 21
758.6883759788998
 31
0.0
  0
LINE
  5
24B
330
1F
100
AcDbEntity
  8
SLD-0
100
AcDbLine
 10
-1734.7828175297
 20
758.6883759788998
 30
0.0
 11
-1734.7828175297
 21
733.8659322553
 31
0.0
  0
LINE
  5
24C
330
1F
100
AcDbEntity
  8
SLD-0
100
AcDbLine
 10
-1420.5828260055
 20
798.6062622360998
 30
0.0
 11
-1420.5828260055
 21
798.9060437969998
 31
0.0
  0
LINE
  5
24D
330
1F
100
AcDbEntity
  8
SLD-0
100
AcDbLine
 10
-1733.9828188887
 20
798.9060437969998
 30
0.0
 11
-1733.9828188887
 21
798.6062622360998
 31
0.0
  0
LINE
  5
24E
330
1F
100
AcDbEntity
  8
SLD-0
100
AcDbLine
 10
-1421.5828131309
 20
776.0874188236999
 30
0.0
 11
-1421.5828131309
 21
792.4465096288001
 31
0.0
  0
LINE
  5
24F
330
1F
100
AcDbEntity
  8
SLD-0
100
AcDbLine
 10
-1732.9828168621
 20
792.4465096288001
 30
0.0
 11
-1732.9828168621
 21
776.0874188236999
 31
0.0
  0
LINE
  5
258
330
1F
100
AcDbEntity
  8
SLD-0
100
AcDbLine
 10
-1476.9328187575
 20
428.7935501627999
 30
0.0
 11
-1463.9328222146
 21
428.7935501627999
 31
0.0
  0
LINE
  5
27C
330
1F
100
AcDbEntity
  8
SLD-0
100
AcDbLine
 10
-1713.9345721697
 20
618.1553459458
 30
0.0
 11
-1713.932814764
 21
618.4934234909999
 31
0.0
  0
SPLINE
  5
27D
330
1F
100
AcDbEntity
  8
SLD-0
100
AcDbSpline
210
0.0
220
0.0
230
1.0
 70
     8
 71
     3
 72
    10
 73
     6
 74
     0
 42
0.000000001
 43
0.0000000001
 40
0.0
 40
0.0
 40
0.0
 40
0.0
 40
0.2436013716263405
 40
0.4832490817430503
 40
1.0
 40
1.0
 40
1.0
 40
1.0
 10
-1806.457469927313
 20
584.3365496687778
 30
0.0
 10
-1806.40032388989
 20
584.2860756638566
 30
0.0
 10
-1806.286959297871
 20
584.1859468494442
 30
0.0
 10
-1806.04345397342
 20
584.0221609615172
 30
0.0
 10
-1805.877881616843
 20
583.9541632994316
 30
0.0
 10
-1805.764767097475
 20
583.9077091507802
 30
0.0
  0
SPLINE
  5
27E
330
1F
100
AcDbEntity
  8
SLD-0
100
AcDbSpline
210
0.0
220
0.0
230
1.0
 70
     8
 71
     3
 72
    11
 73
     7
 74
     0
 42
0.000000001
 43
0.0000000001
 40
0.0
 40
0.0
 40
0.0
 40
0.0
 40
0.2097788969132973
 40
0.4318643132259873
 40
0.6893177489308817
 40
1.0
 40
1.0
 40
1.0
 40
1.0
 10
-1724.100881012323
 20
583.9077091507802
 30
0.0
 10
-1724.067585469502
 20
583.9199986737456
 30
0.0
 10
-1723.99904112617
 20
583.9452986751917
 30
0.0
 10
-1723.829471921341
 20
584.0265852441205
 30
0.0
 10
-1723.622496976756
 20
584.1511686903569
 30
0.0
 10
-1723.483864101979
 20
584.2709169182252
 30
0.0
 10
-1723.40805338526
 20
584.3364006571658
 30
0.0
  0
SPLINE
  5
27F
330
1F
100
AcDbEntity
  8
SLD-0
100
AcDbSpline
210
0.0
220
0.0
230
1.0
 70
     8
 71
     3
 72
    11
 73
     7
 74
     0
 42
0.000000001
 43
0.0000000001
 40
0.0
 40
0.0
 40
0.0
 40
0.0
 40
0.2419823867910914
 40
0.4898863743991922
 40
0.7427768466480666
 40
1.0
 40
1.0
 40
1.0
 40
1.0
 10
-1816.884795891287
 20
640.7935476593863
 30
0.0
 10
-1816.942569828082
 20
640.7898467018485
 30
0.0
 10
-1817.059531499575
 20
640.7823542198793
 30
0.0
 10
-1817.211968810279
 20
640.7210924531105
 30
0.0
 10
-1817.338860012231
 20
640.6295604350437
 30
0.0
 10
-1817.387719408788
 20
640.5467358181256
 30
0.0
 10
-1817.4590568414
 20
640.3213000587999
 30
0.0
  0
SPLINE
  5
280
330
1F
100
AcDbEntity
  8
SLD-0
100
AcDbSpline
210
0.0
220
0.0
230
1.0
 70
     8
 71
     3
 72
    11
 73
     7
 74
     0
 42
0.000000001
 43
0.0000000001
 40
0.0
 40
0.0
 40
0.0
 40
0.0
 40
0.2571781337874588
 40
0.510001823967198
 40
0.7579203696415746
 40
1.0
 40
1.0
 40
1.0
 40
1.0
 10
-1712.4065819552
 20
640.3213000587999
 30
0.0
 10
-1712.477945472111
 20
640.5467346177077
 30
0.0
 10
-1712.526850744464
 20
640.6295531968821
 30
0.0
 10
-1712.654137864282
 20
640.7211083951785
 30
0.0
 10
-1712.807072804475
 20
640.7823591169595
 30
0.0
 10
-1712.924393857223
 20
640.7898478911492
 30
0.0
 10
-1712.982355373146
 20
640.7935476593861
 30
0.0
  0
LINE
  5
283
330
1F
100
AcDbEntity
  8
SLD-0
100
AcDbLine
 10
-1432.6328288188
 20
166.0060590796
 30
0.0
 11
-1433.0039273372
 21
166.0060590796
 31
0.0
  0
LINE
  5
284
330
1F
100
AcDbEntity
  8
SLD-0
100
AcDbLine
 10
-1433.0039273372
 20
155.0060516887
 30
0.0
 11
-1432.6328288188
 21
155.0060516887
 31
0.0
  0
ARC
  5
285
330
1F
100
AcDbEntity
  8
SLD-0
100
AcDbCircle
 10
-1433.0039246351
 20
156.0060566547
 30
0.0
 40
1.000000000000227
100
AcDbArc
 50
180.0
 51
270.0
  0
ARC
  5
286
330
1F
100
AcDbEntity
  8
SLD-0
100
AcDbCircle
 10
-1433.0039246351
 20
165.0060566547
 30
0.0
 40
1.0
100
AcDbArc
 50
90.0
 51
180.0
  0
LINE
  5
289
330
1F
100
AcDbEntity
  8
SLD-0
100
AcDbLine
 10
-1986.6328190436
 20
155.0060516887
 30
0.0
 11
-1986.2328122726
 21
155.0060516887
 31
0.0
  0
LINE
  5
28A
330
1F
100
AcDbEntity
  8
SLD-0
100
AcDbLine
 10
-1986.2328122726
 20
166.0060590796
 30
0.0
 11
-1986.6328190436
 21
166.0060590796
 31
0.0
  0
ARC
  5
28B
330
1F
100
AcDbEntity
  8
SLD-0
100
AcDbCircle
 10
-1986.2328185721
 20
165.0060566547
 30
0.0
 40
1.0
100
AcDbArc
 50
360.0
 51
90.0
  0
ARC
  5
28C
330
1F
100
AcDbEntity
  8
SLD-0
100
AcDbCircle
 10
-1986.2328185721
 20
156.0060566547
 30
0.0
 40
1.0
100
AcDbArc
 50
270.0
 51
360.0
  0
LINE
  5
3C5
330
1F
100
AcDbEntity
  8
SLD-0
100
AcDbLine
 10
-1677.4328190258
 20
627.5016522698
 30
0.0
 11
-1677.4328190258
 21
601.0435527854
 31
0.0
  0
LINE
  5
3C6
330
1F
100
AcDbEntity
  8
SLD-0
100
AcDbLine
 10
-1677.4328190258
 20
628.5435414605
 30
0.0
 11
-1677.4328190258
 21
627.5016522698
 31
0.0
  0
ELLIPSE
  5
3C7
330
1F
100
AcDbEntity
  8
SLD-0
100
AcDbEllipse
 10
-1705.1828185721
 20
614.7935511406998
 30
0.0
 11
14.46788016533856
 21
14.46788016533844
 31
0.0
210
0.0
220
0.0
230
1.0
 40
0.1984432171
 41
5.951274913072959
 42
6.223299289096829
  0
LINE
  5
3C8
330
1F
100
AcDbEntity
  8
SLD-0
100
AcDbLine
 10
-1680.4328176549
 20
629.0636515907999
 30
0.0
 11
-1690.569041053
 21
629.0636515907999
 31
0.0
  0
LINE
  5
3C9
330
1F
100
AcDbEntity
  8
SLD-0
100
AcDbLine
 10
-1680.4328176549
 20
629.5435583882
 30
0.0
 11
-1680.4328176549
 21
629.0636515907999
 31
0.0
  0
LINE
  5
3CA
330
1F
100
AcDbEntity
  8
SLD-0
100
AcDbLine
 10
-1680.4328176549
 20
600.5234426550998
 30
0.0
 11
-1690.569041053
 21
600.5234426550998
 31
0.0
  0
LINE
  5
3CB
330
1F
100
AcDbEntity
  8
SLD-0
100
AcDbLine
 10
-1680.4328176549
 20
627.5362527661
 30
0.0
 11
-1680.4328176549
 21
600.0435507587999
 31
0.0
  0
LINE
  5
3CC
330
1F
100
AcDbEntity
  8
SLD-0
100
AcDbLine
 10
-1690.569041053
 20
627.5362527661
 30
0.0
 11
-1680.4328176549
 21
627.5362527661
 31
0.0
  0
LINE
  5
3CD
330
1F
100
AcDbEntity
  8
SLD-0
100
AcDbLine
 10
-1712.4328182434
 20
628.1947946838998
 30
0.0
 11
-1712.4328182434
 21
600.2935475401999
 31
0.0
  0
LINE
  5
3CE
330
1F
100
AcDbEntity
  8
SLD-0
100
AcDbLine
 10
-1712.4328182434
 20
629.2935467057
 30
0.0
 11
-1712.4328182434
 21
628.1947946838998
 31
0.0
  0
LINE
  5
3CF
330
1F
100
AcDbEntity
  8
SLD-0
100
AcDbLine
 10
-1712.4328182434
 20
610.6842315487997
 30
0.0
 11
-1697.4328185787
 21
610.6842315487997
 31
0.0
  0
LINE
  5
3D0
330
1F
100
AcDbEntity
  8
SLD-0
100
AcDbLine
 10
-1697.4328185787
 20
624.3856704526
 30
0.0
 11
-1712.4328182434
 21
624.3856704526
 31
0.0
  0
LINE
  5
3D1
330
1F
100
AcDbEntity
  8
SLD-0
100
AcDbLine
 10
-1697.4328185787
 20
624.3856704526
 30
0.0
 11
-1697.4328185787
 21
610.6842315487997
 31
0.0
  0
LINE
  5
3D2
330
1F
100
AcDbEntity
  8
SLD-0
100
AcDbLine
 10
-1692.4328186905
 20
624.4964754871999
 30
0.0
 11
-1686.4328186383
 21
624.4964754871999
 31
0.0
  0
LINE
  5
3D3
330
1F
100
AcDbEntity
  8
SLD-0
100
AcDbLine
 10
-1686.4328186383
 20
624.4964754871999
 30
0.0
 11
-1686.4328186383
 21
603.2935536199
 31
0.0
  0
LINE
  5
3D4
330
1F
100
AcDbEntity
  8
SLD-0
100
AcDbLine
 10
-1697.4328185787
 20
608.5112548165
 30
0.0
 11
-1712.4328182434
 21
608.5112548165
 31
0.0
  0
LINE
  5
3D5
330
1F
100
AcDbEntity
  8
SLD-0
100
AcDbLine
 10
-1697.4328185787
 20
610.6842315487997
 30
0.0
 11
-1697.4328185787
 21
608.5112548165
 31
0.0
  0
LINE
  5
3D6
330
1F
100
AcDbEntity
  8
SLD-0
100
AcDbLine
 10
-1712.4328182434
 20
601.1364019208
 30
0.0
 11
-1697.4328185787
 21
601.1364019208
 31
0.0
  0
LINE
  5
3D7
330
1F
100
AcDbEntity
  8
SLD-0
100
AcDbLine
 10
-1697.4328185787
 20
608.5112548165
 30
0.0
 11
-1697.4328185787
 21
601.1364019208
 31
0.0
  0
LINE
  5
3D8
330
1F
100
AcDbEntity
  8
SLD-0
100
AcDbLine
 10
-1712.4328182434
 20
625.9110129169998
 30
0.0
 11
-1697.4328185787
 21
625.9110129169998
 31
0.0
  0
LINE
  5
3D9
330
1F
100
AcDbEntity
  8
SLD-0
100
AcDbLine
 10
-1697.4328185787
 20
625.9110129169998
 30
0.0
 11
-1697.4328185787
 21
624.3856704526
 31
0.0
  0
LINE
  5
3DA
330
1F
100
AcDbEntity
  8
SLD-0
100
AcDbLine
 10
-1697.4328185787
 20
627.0041024975999
 30
0.0
 11
-1712.4328182434
 21
627.0041024975999
 31
0.0
  0
LINE
  5
3DB
330
1F
100
AcDbEntity
  8
SLD-0
100
AcDbLine
 10
-1697.4328185787
 20
627.0041024975999
 30
0.0
 11
-1697.4328185787
 21
625.9110129169998
 31
0.0
  0
LINE
  5
3DC
330
1F
100
AcDbEntity
  8
SLD-0
100
AcDbLine
 10
-1690.569041053
 20
627.5362527661
 30
0.0
 11
-1692.4328186905
 21
625.8137083344
 31
0.0
  0
LINE
  5
3DD
330
1F
100
AcDbEntity
  8
SLD-0
100
AcDbLine
 10
-1692.4328186905
 20
625.8137083344
 30
0.0
 11
-1692.4328186905
 21
627.3411071591
 31
0.0
  0
LINE
  5
3DE
330
1F
100
AcDbEntity
  8
SLD-0
100
AcDbLine
 10
-1692.4328186905
 20
627.3411071591
 30
0.0
 11
-1690.569041053
 21
629.0636515907999
 31
0.0
  0
LINE
  5
3DF
330
1F
100
AcDbEntity
  8
SLD-0
100
AcDbLine
 10
-1686.4328186383
 20
624.4273937038998
 30
0.0
 11
-1680.4328176549
 21
624.4273937038998
 31
0.0
  0
LINE
  5
3E0
330
1F
100
AcDbEntity
  8
SLD-0
100
AcDbLine
 10
-1692.4328186905
 20
624.4964754871999
 30
0.0
 11
-1692.4328186905
 21
625.8137083344
 31
0.0
  0
LINE
  5
3E1
330
1F
100
AcDbEntity
  8
SLD-0
100
AcDbLine
 10
-1697.4328185787
 20
601.1364019208
 30
0.0
 11
-1697.4328185787
 21
600.8407330804
 31
0.0
  0
LINE
  5
3E2
330
1F
100
AcDbEntity
  8
SLD-0
100
AcDbLine
 10
-1686.4328186383
 20
605.1597303442998
 30
0.0
 11
-1680.4328176549
 21
605.1597303442998
 31
0.0
  0
LINE
  5
3E3
330
1F
100
AcDbEntity
  8
SLD-0
100
AcDbLine
 10
-1686.4328186383
 20
603.6323315196
 30
0.0
 11
-1680.4328176549
 21
603.6323315196
 31
0.0
  0
LINE
  5
3E4
330
1F
100
AcDbEntity
  8
SLD-0
100
AcDbLine
 10
-1692.4328186905
 20
602.2459870868
 30
0.0
 11
-1690.569041053
 21
600.5234426550998
 31
0.0
  0
LINE
  5
3E5
330
1F
100
AcDbEntity
  8
SLD-0
100
AcDbLine
 10
-1692.4328186905
 20
602.2459870868
 30
0.0
 11
-1692.4328186905
 21
603.2935536199
 31
0.0
  0
LINE
  5
3E6
330
1F
100
AcDbEntity
  8
SLD-0
100
AcDbLine
 10
-1697.4328185787
 20
627.0101225667
 30
0.0
 11
-1697.4328185787
 21
627.0041024975999
 31
0.0
  0
LINE
  5
3ED
330
1F
100
AcDbEntity
  8
SLD-0
100
AcDbLine
 10
-1561.4328186383
 20
512.2935480169998
 30
0.0
 11
-1532.4328194728
 21
512.2935480169998
 31
0.0
  0
LINE
  5
3EE
330
1F
100
AcDbEntity
  8
SLD-0
100
AcDbLine
 10
-1553.9797346463
 20
527.2935486131
 30
0.0
 11
-1553.9797346463
 21
512.2935480169998
 31
0.0
  0
LINE
  5
3EF
330
1F
100
AcDbEntity
  8
SLD-0
100
AcDbLine
 10
-1555.8818529716
 20
512.2935480169998
 30
0.0
 11
-1555.8818529716
 21
527.2935486131
 31
0.0
  0
LINE
  5
3F0
330
1F
100
AcDbEntity
  8
SLD-0
100
AcDbLine
 10
-1555.8818529716
 20
527.2935486131
 30
0.0
 11
-1553.9797346463
 21
527.2935486131
 31
0.0
  0
LINE
  5
3F1
330
1F
100
AcDbEntity
  8
SLD-0
100
AcDbLine
 10
-1539.8859034648
 20
512.2935480169998
 30
0.0
 11
-1539.8859034648
 21
527.2935486131
 31
0.0
  0
LINE
  5
3F2
330
1F
100
AcDbEntity
  8
SLD-0
100
AcDbLine
 10
-1553.9797346463
 20
527.2935486131
 30
0.0
 11
-1539.8859034648
 21
527.2935486131
 31
0.0
  0
LINE
  5
3F3
330
1F
100
AcDbEntity
  8
SLD-0
100
AcDbLine
 10
-1537.9837851396
 20
527.2935486131
 30
0.0
 11
-1537.9837851396
 21
512.2935480169998
 31
0.0
  0
LINE
  5
3F4
330
1F
100
AcDbEntity
  8
SLD-0
100
AcDbLine
 10
-1539.8859034648
 20
527.2935486131
 30
0.0
 11
-1537.9837851396
 21
527.2935486131
 31
0.0
  0
LINE
  5
3F5
330
1F
100
AcDbEntity
  8
SLD-0
100
AcDbLine
 10
-1558.257574903
 20
538.293556004
 30
0.0
 11
-1535.6080632081
 21
538.293556004
 31
0.0
  0
LINE
  5
3F6
330
1F
100
AcDbEntity
  8
SLD-0
100
AcDbLine
 10
-1535.6080632081
 20
538.293556004
 30
0.0
 11
-1535.6080632081
 21
532.2935438447
 31
0.0
  0
LINE
  5
3F7
330
1F
100
AcDbEntity
  8
SLD-0
100
AcDbLine
 10
-1558.257574903
 20
532.2935438447
 30
0.0
 11
-1558.257574903
 21
538.293556004
 31
0.0
  0
LINE
  5
3F8
330
1F
100
AcDbEntity
  8
SLD-0
100
AcDbLine
 10
-1560.2370749583
 20
527.2935486131
 30
0.0
 11
-1560.2370749583
 21
512.2935480169998
 31
0.0
  0
LINE
  5
3F9
330
1F
100
AcDbEntity
  8
SLD-0
100
AcDbLine
 10
-1560.2370749583
 20
527.2935486131
 30
0.0
 11
-1555.8818529716
 21
527.2935486131
 31
0.0
  0
LINE
  5
3FA
330
1F
100
AcDbEntity
  8
SLD-0
100
AcDbLine
 10
-1533.6285631528
 20
512.2935480169998
 30
0.0
 11
-1533.6285631528
 21
527.2935486131
 31
0.0
  0
LINE
  5
3FB
330
1F
100
AcDbEntity
  8
SLD-0
100
AcDbLine
 10
-1537.9837851396
 20
527.2935486131
 30
0.0
 11
-1533.6285631528
 21
527.2935486131
 31
0.0
  0
LINE
  5
3FD
330
1F
100
AcDbEntity
  8
SLD-0
100
AcDbLine
 10
-1558.257574903
 20
532.2935438447
 30
0.0
 11
-1559.6828113666
 21
532.2935438447
 31
0.0
  0
LINE
  5
400
330
1F
100
AcDbEntity
  8
SLD-0
100
AcDbLine
 10
-1534.1828118434
 20
532.2935438447
 30
0.0
 11
-1535.6080632081
 21
532.2935438447
 31
0.0
  0
LINE
  5
402
330
1F
100
AcDbEntity
  8
SLD-0
100
AcDbLine
 10
-1560.3349606862
 20
527.2935486131
 30
0.0
 11
-1560.2370749583
 21
527.2935486131
 31
0.0
  0
LINE
  5
403
330
1F
100
AcDbEntity
  8
SLD-0
100
AcDbLine
 10
-1533.6285631528
 20
527.2935486131
 30
0.0
 11
-1533.5306774249
 21
527.2935486131
 31
0.0
  0
LINE
  5
404
330
1F
100
AcDbEntity
  8
SLD-0
100
AcDbLine
 10
-1420.5828260055
 20
798.6062622360998
 30
0.0
 11
-1733.9828188887
 21
798.6062622360998
 31
0.0
  0
LINE
  5
405
330
1F
100
AcDbEntity
  8
SLD-0
100
AcDbLine
 10
-1406.2407861819
 20
793.386206656
 30
0.0
 11
-1748.3248400857
 21
793.386206656
 31
0.0
  0
LINE
  5
406
330
1F
100
AcDbEntity
  8
SLD-0
100
AcDbLine
 10
-1406.582827436
 20
792.4465096288001
 30
0.0
 11
-1747.9828174582
 21
792.4465096288001
 31
0.0
  0
LINE
  5
407
330
1F
100
AcDbEntity
  8
SLD-0
100
AcDbLine
 10
-1514.869595634
 20
712.5060713582
 30
0.0
 11
-1639.6960380843
 21
712.5060713582
 31
0.0
  0
LINE
  5
408
330
1F
100
AcDbEntity
  8
SLD-0
100
AcDbLine
 10
-1412.7828131785
 20
714.6060622028999
 30
0.0
 11
-1741.7828168144
 21
714.6060622028999
 31
0.0
  0
LINE
  5
409
330
1F
100
AcDbEntity
  8
SLD-0
100
AcDbLine
 10
-1419.7828124633
 20
758.6883759788998
 30
0.0
 11
-1734.7828175297
 21
758.6883759788998
 31
0.0
  0
LINE
  5
40A
330
1F
100
AcDbEntity
  8
SLD-0
100
AcDbLine
 10
-1419.7828124633
 20
763.9037227921001
 30
0.0
 11
-1734.7828175297
 21
763.9037227921001
 31
0.0
  0
LINE
  5
40B
330
1F
100
AcDbEntity
  8
SLD-0
100
AcDbLine
 10
-1419.7828124633
 20
773.5167599014999
 30
0.0
 11
-1734.7828175297
 21
773.5167599014999
 31
0.0
  0
LINE
  5
40D
330
1F
100
AcDbEntity
  8
SLD-0
100
AcDbLine
 10
-1419.7828124633
 20
798.9060437969998
 30
0.0
 11
-1734.7828175297
 21
798.9060437969998
 31
0.0
  0
LINE
  5
40E
330
1F
100
AcDbEntity
  8
SLD-0
100
AcDbLine
 10
-1421.5828131309
 20
776.0874188236999
 30
0.0
 11
-1732.9828168621
 21
776.0874188236999
 31
0.0
  0
LINE
  5
40F
330
1F
100
AcDbEntity
  8
SLD-0
100
AcDbLine
 10
-1982.7328275313
 20
149.0060544305
 30
0.0
 11
-1436.7328237166
 21
149.0060544305
 31
0.0
  0
LINE
  5
410
330
1F
100
AcDbEntity
  8
SLD-0
100
AcDbLine
 10
-1982.7328275313
 20
171.5060627751
 30
0.0
 11
-1982.7328275313
 21
149.0060544305
 31
0.0
  0
LINE
  5
411
330
1F
100
AcDbEntity
  8
SLD-0
100
AcDbLine
 10
-1982.7328275313
 20
171.5060627751
 30
0.0
 11
-1436.7328237166
 21
171.5060627751
 31
0.0
  0
LINE
  5
412
330
1F
100
AcDbEntity
  8
SLD-0
100
AcDbLine
 10
-1436.7328237166
 20
171.5060627751
 30
0.0
 11
-1436.7328237166
 21
149.0060544305
 31
0.0
  0
LINE
  5
413
330
1F
100
AcDbEntity
  8
SLD-0
100
AcDbLine
 10
-1982.7328275313
 20
174.0060603909
 30
0.0
 11
-1982.7328275313
 21
171.5060627751
 31
0.0
  0
LINE
  5
414
330
1F
100
AcDbEntity
  8
SLD-0
100
AcDbLine
 10
-1982.7328275313
 20
174.0060603909
 30
0.0
 11
-1436.7328237166
 21
174.0060603909
 31
0.0
  0
LINE
  5
415
330
1F
100
AcDbEntity
  8
SLD-0
100
AcDbLine
 10
-1436.7328237166
 20
174.0060603909
 30
0.0
 11
-1436.7328237166
 21
171.5060627751
 31
0.0
  0
LINE
  5
416
330
1F
100
AcDbEntity
  8
SLD-0
100
AcDbLine
 10
-1434.2328261008
 20
171.5060627751
 30
0.0
 11
-1434.2328261008
 21
149.0060544305
 31
0.0
  0
LINE
  5
417
330
1F
100
AcDbEntity
  8
SLD-0
100
AcDbLine
 10
-1436.7328237166
 20
171.5060627751
 30
0.0
 11
-1434.2328261008
 21
171.5060627751
 31
0.0
  0
LINE
  5
418
330
1F
100
AcDbEntity
  8
SLD-0
100
AcDbLine
 10
-1434.2328261008
 20
149.0060544305
 30
0.0
 11
-1436.7328237166
 21
149.0060544305
 31
0.0
  0
LINE
  5
419
330
1F
100
AcDbEntity
  8
SLD-0
100
AcDbLine
 10
-1982.7328275313
 20
149.0060544305
 30
0.0
 11
-1985.2328251472
 21
149.0060544305
 31
0.0
  0
LINE
  5
41A
330
1F
100
AcDbEntity
  8
SLD-0
100
AcDbLine
 10
-1985.2328251472
 20
171.5060627751
 30
0.0
 11
-1985.2328251472
 21
149.0060544305
 31
0.0
  0
LINE
  5
41B
330
1F
100
AcDbEntity
  8
SLD-0
100
AcDbLine
 10
-1985.2328251472
 20
171.5060627751
 30
0.0
 11
-1982.7328275313
 21
171.5060627751
 31
0.0
  0
LINE
  5
41C
330
1F
100
AcDbEntity
  8
SLD-0
100
AcDbLine
 10
-1432.8328322043
 20
172.5060499005
 30
0.0
 11
-1436.7328237166
 21
172.5060499005
 31
0.0
  0
LINE
  5
41D
330
1F
100
AcDbEntity
  8
SLD-0
100
AcDbLine
 10
-1432.8328322043
 20
174.0060603909
 30
0.0
 11
-1436.7328237166
 21
174.0060603909
 31
0.0
  0
LINE
  5
41E
330
1F
100
AcDbEntity
  8
SLD-0
100
AcDbLine
 10
-1432.8328322043
 20
174.0060603909
 30
0.0
 11
-1432.8328322043
 21
172.5060499005
 31
0.0
  0
LINE
  5
41F
330
1F
100
AcDbEntity
  8
SLD-0
100
AcDbLine
 10
-1986.6328190436
 20
172.5060499005
 30
0.0
 11
-1986.6328190436
 21
174.0060603909
 31
0.0
  0
LINE
  5
420
330
1F
100
AcDbEntity
  8
SLD-0
100
AcDbLine
 10
-1986.6328190436
 20
172.5060499005
 30
0.0
 11
-1982.7328275313
 21
172.5060499005
 31
0.0
  0
LINE
  5
421
330
1F
100
AcDbEntity
  8
SLD-0
100
AcDbLine
 10
-1986.6328190436
 20
174.0060603909
 30
0.0
 11
-1982.7328275313
 21
174.0060603909
 31
0.0
  0
ARC
  5
4B4
330
1F
100
AcDbEntity
  8
SLD-0
100
AcDbCircle
 10
-1479.9328185721
 20
381.7935511407
 30
0.0
 40
1.000000000000574
100
AcDbArc
 50
270.0
 51
272.7398047301
  0
LINE
  5
4B5
330
1F
100
AcDbEntity
  8
SLD-0
100
AcDbLine
 10
-1519.4328229299
 20
380.7935516082
 30
0.0
 11
-1479.9328248372
 21
380.7935516082
 31
0.0
  0
LINE
  5
4B7
330
1F
100
AcDbEntity
  8
SLD-0
100
AcDbLine
 10
-1479.9328248372
 20
510.7935524278
 30
0.0
 11
-1519.4328229299
 21
510.7935524278
 31
0.0
  0
ARC
  5
4B8
330
1F
100
AcDbEntity
  8
SLD-0
100
AcDbCircle
 10
-1479.9328185721
 20
509.7935511406998
 30
0.0
 40
1.000000000000142
100
AcDbArc
 50
87.26019526990001
 51
90.0
  0
LINE
  5
4BA
330
1F
100
AcDbEntity
  8
SLD-0
100
AcDbLine
 10
-1568.9328114858
 20
380.7935516082
 30
0.0
 11
-1519.4328229299
 21
380.7935516082
 31
0.0
  0
ARC
  5
4BB
330
1F
100
AcDbEntity
  8
SLD-0
100
AcDbCircle
 10
-1568.9328185721
 20
381.7935511407
 30
0.0
 40
1.000000000000345
100
AcDbArc
 50
267.2601952699001
 51
270.0
  0
ARC
  5
4BF
330
1F
100
AcDbEntity
  8
SLD-0
100
AcDbCircle
 10
-1568.9328185721
 20
509.7935511406998
 30
0.0
 40
1.000000000000039
100
AcDbArc
 50
90.0
 51
92.73980473010003
  0
LINE
  5
4C0
330
1F
100
AcDbEntity
  8
SLD-0
100
AcDbLine
 10
-1529.4328133931
 20
510.7935524278
 30
0.0
 11
-1568.9328114858
 21
510.7935524278
 31
0.0
  0
ARC
  5
4DA
330
1F
100
AcDbEntity
  8
SLD-0
100
AcDbCircle
 10
-1568.9328185721
 20
381.7935511407
 30
0.0
 40
1.00000000000004
100
AcDbArc
 50
180.0
 51
182.7398047301
  0
LINE
  5
4DB
330
1F
100
AcDbEntity
  8
SLD-0
100
AcDbLine
 10
-1569.9328135123
 20
509.7935504012
 30
0.0
 11
-1569.9328135123
 21
381.7935517721
 31
0.0
  0
ARC
  5
4DC
330
1F
100
AcDbEntity
  8
SLD-0
100
AcDbCircle
 10
-1568.9328185721
 20
509.7935511406998
 30
0.0
 40
1.000000000000266
100
AcDbArc
 50
177.2601952699
 51
180.0
  0
ARC
  5
4E6
330
1F
100
AcDbEntity
  8
SLD-0
100
AcDbCircle
 10
-1479.9328185721
 20
509.7935511406998
 30
0.0
 40
0.9999999999997932
100
AcDbArc
 50
360.0
 51
2.739804730099999
  0
LINE
  5
4E7
330
1F
100
AcDbEntity
  8
SLD-0
100
AcDbLine
 10
-1478.9328228107
 20
454.3229124241
 30
0.0
 11
-1478.9328228107
 21
509.7935504012
 31
0.0
  0
LINE
  5
4E8
330
1F
100
AcDbEntity
  8
SLD-0
100
AcDbLine
 10
-1478.9328228107
 20
381.7935517721
 30
0.0
 11
-1478.9328228107
 21
437.2641897492
 31
0.0
  0
ARC
  5
4E9
330
1F
100
AcDbEntity
  8
SLD-0
100
AcDbCircle
 10
-1479.9328185721
 20
381.7935511407
 30
0.0
 40
1.000000000000285
100
AcDbArc
 50
357.2601952698999
 51
360.0
  0
ARC
  5
4ED
330
1F
100
AcDbEntity
  8
SLD-0
100
AcDbCircle
 10
-1568.9328185721
 20
381.7935511407
 30
0.0
 40
1.000000000000229
100
AcDbArc
 50
182.7398047301
 51
267.2601952699001
  0
ARC
  5
4EE
330
1F
100
AcDbEntity
  8
SLD-0
100
AcDbCircle
 10
-1479.9328185721
 20
381.7935511407
 30
0.0
 40
1.000000000000266
100
AcDbArc
 50
272.7398047301
 51
357.2601952698999
  0
ARC
  5
4EF
330
1F
100
AcDbEntity
  8
SLD-0
100
AcDbCircle
 10
-1568.9328185721
 20
509.7935511406998
 30
0.0
 40
1.000000000000266
100
AcDbArc
 50
92.73980473010003
 51
177.2601952699
  0
ARC
  5
4F0
330
1F
100
AcDbEntity
  8
SLD-0
100
AcDbCircle
 10
-1479.9328185721
 20
509.7935511406998
 30
0.0
 40
1.000000000000142
100
AcDbArc
 50
2.739804730099999
 51
87.26019526990001
  0
LINE
  5
508
330
1F
100
AcDbEntity
  8
SLD-0
100
AcDbLine
 10
-1476.9328187575
 20
464.5751944475
 30
0.0
 11
-1478.9328228107
 21
464.5751944475
 31
0.0
  0
LINE
  5
509
330
1F
100
AcDbEntity
  8
SLD-0
100
AcDbLine
 10
-1476.4328251948
 20
455.8479643159
 30
0.0
 11
-1476.4328251948
 21
431.2419152551
 31
0.0
  0
LINE
  5
50A
330
1F
100
AcDbEntity
  8
SLD-0
100
AcDbLine
 10
-1476.4328251948
 20
431.2419152551
 30
0.0
 11
-1478.9328228107
 21
431.2419152551
 31
0.0
  0
LINE
  5
50B
330
1F
100
AcDbEntity
  8
SLD-0
100
AcDbLine
 10
-1478.9328228107
 20
454.3229124241
 30
0.0
 11
-1478.9328228107
 21
437.2641897492
 31
0.0
  0
LINE
  5
50D
330
1F
100
AcDbEntity
  8
SLD-0
100
AcDbLine
 10
-1529.4328133931
 20
510.7935524278
 30
0.0
 11
-1519.4328229299
 21
510.7935524278
 31
0.0
  0
LINE
  5
50E
330
1F
100
AcDbEntity
  8
SLD-0
100
AcDbLine
 10
-1458.9328120818
 20
484.5871931605
 30
0.0
 11
-1476.9328187575
 21
484.5871931605
 31
0.0
  0
LINE
  5
50F
330
1F
100
AcDbEntity
  8
SLD-0
100
AcDbLine
 10
-1458.9328120818
 20
462.5871932796998
 30
0.0
 11
-1476.9328187575
 21
462.5871932796998
 31
0.0
  0
LINE
  5
510
330
1F
100
AcDbEntity
  8
SLD-0
100
AcDbLine
 10
-1476.9328187575
 20
462.5871932796998
 30
0.0
 11
-1476.9328187575
 21
484.5871931605
 31
0.0
  0
LINE
  5
511
330
1F
100
AcDbEntity
  8
SLD-0
100
AcDbLine
 10
-1458.9328120818
 20
462.5871932796998
 30
0.0
 11
-1458.9328120818
 21
484.5871931605
 31
0.0
  0
LINE
  5
512
330
1F
100
AcDbEntity
  8
SLD-0
100
AcDbLine
 10
-1476.4328251948
 20
453.6015621117998
 30
0.0
 11
-1473.9328126779
 21
453.6015621117998
 31
0.0
  0
LINE
  5
513
330
1F
100
AcDbEntity
  8
SLD-0
100
AcDbLine
 10
-1473.9328126779
 20
453.6015621117998
 30
0.0
 11
-1473.9328126779
 21
455.8479643159
 31
0.0
  0
LINE
  5
514
330
1F
100
AcDbEntity
  8
SLD-0
100
AcDbLine
 10
-1473.9328126779
 20
455.8479643159
 30
0.0
 11
-1476.9328187575
 21
455.8479643159
 31
0.0
  0
LINE
  5
515
330
1F
100
AcDbEntity
  8
SLD-0
100
AcDbLine
 10
-1476.9328187575
 20
455.8479643159
 30
0.0
 11
-1476.9328187575
 21
462.5871932796998
 31
0.0
  0
LINE
  5
516
330
1F
100
AcDbEntity
  8
SLD-0
100
AcDbLine
 10
-1458.9328120818
 20
454.2759514145997
 30
0.0
 11
-1463.3557449451
 21
451.1996141366998
 31
0.0
  0
LINE
  5
517
330
1F
100
AcDbEntity
  8
SLD-0
100
AcDbLine
 10
-1458.9328120818
 20
454.2759514145997
 30
0.0
 11
-1458.9328120818
 21
462.5871932796998
 31
0.0
  0
LINE
  5
518
330
1F
100
AcDbEntity
  8
SLD-0
100
AcDbLine
 10
-1476.4328251948
 20
454.4289714389
 30
0.0
 11
-1473.9328126779
 21
454.4289714389
 31
0.0
  0
LINE
  5
519
330
1F
100
AcDbEntity
  8
SLD-0
100
AcDbLine
 10
-1463.9328222146
 20
450.1178345375
 30
0.0
 11
-1463.9328222146
 21
428.7935501627999
 31
0.0
  0
LINE
  5
51A
330
1F
100
AcDbEntity
  8
SLD-0
100
AcDbLine
 10
-1476.9328187575
 20
428.7935501627999
 30
0.0
 11
-1476.9328187575
 21
431.2419152551
 31
0.0
  0
SPLINE
  5
51B
330
1F
100
AcDbEntity
  8
SLD-0
100
AcDbSpline
210
0.0
220
0.0
230
1.0
 70
     8
 71
     3
 72
    11
 73
     7
 74
     0
 42
0.000000001
 43
0.0000000001
 40
0.0
 40
0.0
 40
0.0
 40
0.0
 40
0.3673763366376668
 40
0.6221713431793158
 40
0.8302701974827277
 40
1.0
 40
1.0
 40
1.0
 40
1.0
 10
-1463.355744945051
 20
451.1996141366847
 30
0.0
 10
-1463.460145516307
 20
451.1117380171385
 30
0.0
 10
-1463.63695343007
 20
450.9629151402161
 30
0.0
 10
-1463.821191753896
 20
450.6471862290088
 30
0.0
 10
-1463.917143955059
 20
450.3670595139213
 30
0.0
 10
-1463.927962335535
 20
450.1950882175537
 30
0.0
 10
-1463.932822214605
 20
450.1178345374951
 30
0.0
  0
LINE
  5
51C
330
1F
100
AcDbEntity
  8
SLD-0
100
AcDbLine
 10
-1478.9328228107
 20
431.021437674
 30
0.0
 11
-1476.9328187575
 21
431.021437674
 31
0.0
  0
LINE
  5
5AD
330
1F
100
AcDbEntity
  8
SLD-0
100
AcDbLine
 10
-2001.6328047385
 20
585.0060588412
 30
0.0
 11
-2001.6328047385
 21
500.0060504966
 31
0.0
  0
LINE
  5
5AE
330
1F
100
AcDbEntity
  8
SLD-0
100
AcDbLine
 10
-2001.6328047385
 20
585.0060588412
 30
0.0
 11
-1979.6328197589
 21
585.0060588412
 31
0.0
  0
LINE
  5
5AF
330
1F
100
AcDbEntity
  8
SLD-0
100
AcDbLine
 10
-1979.6328197589
 20
500.0060504966
 30
0.0
 11
-1979.6328197589
 21
585.0060588412
 31
0.0
  0
LINE
  5
5B0
330
1F
100
AcDbEntity
  8
SLD-0
100
AcDbLine
 10
-1979.6328197589
 20
500.0060504966
 30
0.0
 11
-2001.6328047385
 21
500.0060504966
 31
0.0
  0
SPLINE
  5
5B1
330
1F
100
AcDbEntity
  8
SLD-0
100
AcDbSpline
210
0.0
220
0.0
230
1.0
 70
     8
 71
     3
 72
    13
 73
     9
 74
     0
 42
0.000000001
 43
0.0000000001
 40
0.0
 40
0.0
 40
0.0
 40
0.0
 40
0.2100712570739451
 40
0.4200509105881138
 40
0.6316701677034517
 40
0.8467504943508884
 40
0.9933584759502011
 40
1.0
 40
1.0
 40
1.0
 40
1.0
 10
-2001.632804738524
 20
500.0060504965671
 30
0.0
 10
-2001.743821909467
 20
500.0080838375298
 30
0.0
 10
-2001.965807841265
 20
500.012149632797
 30
0.0
 10
-2002.261756841416
 20
500.0437652990531
 30
0.0
 10
-2002.489410982831
 20
500.0904646818685
 30
0.0
 10
-2002.608706958764
 20
500.1431055890711
 30
0.0
 10
-2002.632487652748
 20
500.1790483271101
 30
0.0
 10
-2002.632807792052
 20
500.1940633765274
 30
0.0
 10
-2002.632821666243
 20
500.1947140984425
 30
0.0
  0
LINE
  5
5B2
330
1F
100
AcDbEntity
  8
SLD-0
100
AcDbLine
 10
-2002.6328216662
 20
500.1947140983999
 30
0.0
 11
-2002.6328216662
 21
584.8174101405
 31
0.0
  0
SPLINE
  5
5B3
330
1F
100
AcDbEntity
  8
SLD-0
100
AcDbSpline
210
0.0
220
0.0
230
1.0
 70
     8
 71
     3
 72
    13
 73
     9
 74
     0
 42
0.000000001
 43
0.0000000001
 40
0.0
 40
0.0
 40
0.0
 40
0.0
 40
0.2100710270393882
 40
0.4200507448725876
 40
0.6316700668091844
 40
0.846750459338043
 40
0.993360226305386
 40
1.0
 40
1.0
 40
1.0
 40
1.0
 10
-2001.632804738524
 20
585.0060588412175
 30
0.0
 10
-2001.743821944833
 20
585.004031266741
 30
0.0
 10
-2001.965808102855
 20
584.9999769990919
 30
0.0
 10
-2002.261756821692
 20
584.9683642049343
 30
0.0
 10
-2002.489410936392
 20
584.9216356943789
 30
0.0
 10
-2002.608707503316
 20
584.8690978866151
 30
0.0
 10
-2002.632487485201
 20
584.8329573130694
 30
0.0
 10
-2002.632807788602
 20
584.8180557728136
 30
0.0
 10
-2002.632821666243
 20
584.8174101405033
 30
0.0
  0
LINE
  5
5B4
330
1F
100
AcDbEntity
  8
SLD-0
100
AcDbLine
 10
-1978.6328326335
 20
584.8174101405
 30
0.0
 11
-1978.6328326335
 21
500.1947140983999
 31
0.0
  0
SPLINE
  5
5B5
330
1F
100
AcDbEntity
  8
SLD-0
100
AcDbSpline
210
0.0
220
0.0
230
1.0
 70
     8
 71
     3
 72
    13
 73
     9
 74
     0
 42
0.000000001
 43
0.0000000001
 40
0.0
 40
0.0
 40
0.0
 40
0.0
 40
0.0066415264690849
 40
0.1532536401639865
 40
0.3683366540431799
 40
0.5799459376141896
 40
0.7899447347641116
 40
1.0
 40
1.0
 40
1.0
 40
1.0
 10
-1978.632832633497
 20
500.1947140984425
 30
0.0
 10
-1978.632836320435
 20
500.1940633760987
 30
0.0
 10
-1978.632921396764
 20
500.1790479171661
 30
0.0
 10
-1978.657110029903
 20
500.1431061527758
 30
0.0
 10
-1978.776196937754
 20
500.0904668247589
 30
0.0
 10
-1979.003884172421
 20
500.0437617063966
 30
0.0
 10
-1979.299829989705
 20
500.0121519997944
 30
0.0
 10
-1979.521813222057
 20
500.0080845132409
 30
0.0
 10
-1979.632819758894
 20
500.0060504965671
 30
0.0
  0
SPLINE
  5
5B6
330
1F
100
AcDbEntity
  8
SLD-0
100
AcDbSpline
210
0.0
220
0.0
230
1.0
 70
     8
 71
     3
 72
    13
 73
     9
 74
     0
 42
0.000000001
 43
0.0000000001
 40
0.0
 40
0.0
 40
0.0
 40
0.0
 40
0.0066397760712656
 40
0.1532536751414076
 40
0.3683367549197274
 40
0.5799461033255497
 40
0.7899449648168485
 40
1.0
 40
1.0
 40
1.0
 40
1.0
 10
-1978.632832633497
 20
584.8174101405033
 30
0.0
 10
-1978.632836323955
 20
584.8180557732456
 30
0.0
 10
-1978.632921503973
 20
584.8329577201605
 30
0.0
 10
-1978.657109525155
 20
584.8690973237136
 30
0.0
 10
-1978.776196972276
 20
584.9216335530909
 30
0.0
 10
-1979.003884195278
 20
584.9683677979197
 30
0.0
 10
-1979.299829727287
 20
584.9999746329621
 30
0.0
 10
-1979.521813186429
 20
585.0040305909982
 30
0.0
 10
-1979.632819758894
 20
585.0060588412175
 30
0.0
  0
LINE
  5
5BB
330
1F
100
AcDbEntity
  8
SLD-0
100
AcDbLine
 10
-1979.6328197589
 20
485.0060573511
 30
0.0
 11
-1979.6328197589
 21
500.0060504966
 31
0.0
  0
ARC
  5
5BC
330
1F
100
AcDbEntity
  8
SLD-0
100
AcDbCircle
 10
-1990.6328185721
 20
485.0060566548
 30
0.0
 40
11.00000000000016
100
AcDbArc
 50
180.0000096442
 51
0.0
  0
LINE
  5
5BD
330
1F
100
AcDbEntity
  8
SLD-0
100
AcDbLine
 10
-2001.6328047385
 20
500.0060504966
 30
0.0
 11
-2001.6328047385
 21
485.0060573511
 31
0.0
  0
ARC
  5
5BE
330
1F
100
AcDbEntity
  8
SLD-0
100
AcDbCircle
 10
-1990.6328185721
 20
485.0060566548
 30
0.0
 40
12.00000000000014
100
AcDbArc
 50
180.0000088404999
 51
0.0
  0
LINE
  5
5BF
330
1F
100
AcDbEntity
  8
SLD-0
100
AcDbLine
 10
-2002.6328216662
 20
485.0060573511
 30
0.0
 11
-2001.6328047385
 21
485.0060573511
 31
0.0
  0
LINE
  5
5C0
330
1F
100
AcDbEntity
  8
SLD-0
100
AcDbLine
 10
-1978.6328326335
 20
485.0060573511
 30
0.0
 11
-1979.6328197589
 21
485.0060573511
 31
0.0
  0
LINE
  5
5C1
330
1F
100
AcDbEntity
  8
SLD-0
100
AcDbLine
 10
-1978.6328326335
 20
500.1947140983999
 30
0.0
 11
-1978.6328326335
 21
485.0060573511
 31
0.0
  0
LINE
  5
5C2
330
1F
100
AcDbEntity
  8
SLD-0
100
AcDbLine
 10
-2002.6328216662
 20
485.0060573511
 30
0.0
 11
-2002.6328216662
 21
500.1947140983999
 31
0.0
  0
LINE
  5
5C3
330
1F
100
AcDbEntity
  8
SLD-0
100
AcDbLine
 10
-1979.6328197589
 20
585.0060588412
 30
0.0
 11
-1979.6328197589
 21
600.0060594373
 31
0.0
  0
LINE
  5
5C4
330
1F
100
AcDbEntity
  8
SLD-0
100
AcDbLine
 10
-2001.6328047385
 20
600.0060594373
 30
0.0
 11
-2001.6328047385
 21
585.0060588412
 31
0.0
  0
ARC
  5
5C5
330
1F
100
AcDbEntity
  8
SLD-0
100
AcDbCircle
 10
-1990.6328185721
 20
600.0060566548
 30
0.0
 40
11.0
100
AcDbArc
 50
0.0
 51
179.9999903558
  0
LINE
  5
5C6
330
1F
100
AcDbEntity
  8
SLD-0
100
AcDbLine
 10
-1979.6328197589
 20
600.0060594373
 30
0.0
 11
-1978.6328326335
 21
600.0060594373
 31
0.0
  0
LINE
  5
5C7
330
1F
100
AcDbEntity
  8
SLD-0
100
AcDbLine
 10
-1978.6328326335
 20
600.0060594373
 30
0.0
 11
-1978.6328326335
 21
584.8174101405
 31
0.0
  0
LINE
  5
5C8
330
1F
100
AcDbEntity
  8
SLD-0
100
AcDbLine
 10
-2001.6328047385
 20
600.0060594373
 30
0.0
 11
-2002.6328216662
 21
600.0060594373
 31
0.0
  0
LINE
  5
5C9
330
1F
100
AcDbEntity
  8
SLD-0
100
AcDbLine
 10
-2002.6328216662
 20
584.8174101405
 30
0.0
 11
-2002.6328216662
 21
600.0060594373
 31
0.0
  0
ARC
  5
5CA
330
1F
100
AcDbEntity
  8
SLD-0
100
AcDbCircle
 10
-1990.6328185721
 20
600.0060566548
 30
0.0
 40
12.00000000000023
100
AcDbArc
 50
0.0
 51
179.9999911595
  0
CIRCLE
  5
62B
330
1F
100
AcDbEntity
  8
SLD-0
100
AcDbCircle
 10
-1764.9328185721
 20
480.8060566546998
 30
0.0
 40
77.9281035486438
  0
CIRCLE
  5
62C
330
1F
100
AcDbEntity
  8
SLD-0
100
AcDbCircle
 10
-1764.9328185721
 20
480.8060566546998
 30
0.0
 40
82.36768611174435
  0
CIRCLE
  5
62D
330
1F
100
AcDbEntity
  8
SLD-0
100
AcDbCircle
 10
-1764.9328185721
 20
480.8060566546998
 30
0.0
 40
75.60871151552865
  0
CIRCLE
  5
62E
330
1F
100
AcDbEntity
  8
SLD-0
100
AcDbCircle
 10
-1764.9328185721
 20
480.8060566546998
 30
0.0
 40
98.31458255403669
  0
CIRCLE
  5
62F
330
1F
100
AcDbEntity
  8
SLD-0
100
AcDbCircle
 10
-1764.9328185721
 20
480.8060566546998
 30
0.0
 40
74.60871151552865
  0
CIRCLE
  5
825
330
1F
100
AcDbEntity
  8
SLD-0
100
AcDbCircle
 10
-1764.9328185721
 20
480.8060566546998
 30
0.0
 40
98.75
  0
LINE
  5
89C
330
1F
100
AcDbEntity
  8
SLD-0
100
AcDbLine
 10
-1806.8831961026
 20
570.2025300555
 30
0.0
 11
-1805.9328149428
 21
583.7935513548999
 31
0.0
  0
LINE
  5
89D
330
1F
100
AcDbEntity
  8
SLD-0
100
AcDbLine
 10
-1805.9328149428
 20
583.7935513548999
 30
0.0
 11
-1803.92793821
 21
583.7935513548999
 31
0.0
  0
LINE
  5
89E
330
1F
100
AcDbEntity
  8
SLD-0
100
AcDbLine
 10
-1723.9328182658
 20
583.7935513548999
 30
0.0
 11
-1725.9377024492
 21
583.7935513548999
 31
0.0
  0
LINE
  5
89F
330
1F
100
AcDbEntity
  8
SLD-0
100
AcDbLine
 10
-1723.9328182658
 20
583.7935513548999
 30
0.0
 11
-1722.9824408313
 21
570.2025300555
 31
0.0
  0
LINE
  5
8A0
330
1F
100
AcDbEntity
  8
SLD-0
100
AcDbLine
 10
-1803.92793821
 20
583.7935513548999
 30
0.0
 11
-1725.9377024492
 21
583.7935513548999
 31
0.0
  0
SPLINE
  5
8A1
330
1F
100
AcDbEntity
  8
SLD-0
100
AcDbSpline
210
0.0
220
0.0
230
1.0
 70
     8
 71
     3
 72
    11
 73
     7
 74
     0
 42
0.000000001
 43
0.0000000001
 40
0.0
 40
0.0
 40
0.0
 40
0.0
 40
0.0279909473619701
 40
0.3628410947068117
 40
0.6867027316735499
 40
1.0
 40
1.0
 40
1.0
 40
1.0
 10
-1758.938512521031
 20
382.3844759457001
 30
0.0
 10
-1758.936566798845
 20
382.3766265085017
 30
0.0
 10
-1758.911344788358
 20
382.2748758121402
 30
0.0
 10
-1758.880080648703
 20
382.1488878388657
 30
0.0
 10
-1758.846367365912
 20
382.0158424948692
 30
0.0
 10
-1758.842441631281
 20
382.0009915989436
 30
0.0
 10
-1758.840511309149
 20
381.9936892681011
 30
0.0
  0
ARC
  5
8A2
330
1F
100
AcDbEntity
  8
SLD-0
100
AcDbCircle
 10
-1764.9328185721
 20
480.8060566546998
 30
0.0
 40
99.0
100
AcDbArc
 50
266.4718766587
 51
273.5281233413
  0
SPLINE
  5
8A3
330
1F
100
AcDbEntity
  8
SLD-0
100
AcDbSpline
210
0.0
220
0.0
230
1.0
 70
     8
 71
     3
 72
    11
 73
     7
 74
     0
 42
0.000000001
 43
0.0000000001
 40
0.0
 40
0.0
 40
0.0
 40
0.0
 40
0.0204316748088751
 40
0.3578819839290229
 40
0.6842699717589401
 40
1.0
 40
1.0
 40
1.0
 40
1.0
 10
-1770.928720699789
 20
382.3780535452256
 30
0.0
 10
-1770.930125685379
 20
382.3723796077502
 30
0.0
 10
-1770.954735465788
 20
382.2729947056611
 30
0.0
 10
-1770.985521994054
 20
382.1490949285975
 30
0.0
 10
-1771.019275094958
 20
382.0158001357249
 30
0.0
 10
-1771.023195899083
 20
382.0009775482212
 30
0.0
 10
-1771.025123762133
 20
381.9936892681011
 30
0.0
  0
SPLINE
  5
8A4
330
1F
100
AcDbEntity
  8
SLD-0
100
AcDbSpline
210
0.0
220
0.0
230
1.0
 70
     8
 71
     3
 72
    10
 73
     6
 74
     0
 42
0.000000001
 43
0.0000000001
 40
0.0
 40
0.0
 40
0.0
 40
0.0
 40
0.163855930747682
 40
0.5819289472793061
 40
1.0
 40
1.0
 40
1.0
 40
1.0
 10
-1757.851487713101
 20
382.4771648936161
 30
0.0
 10
-1757.890471560163
 20
382.4291046709559
 30
0.0
 10
-1758.028921410456
 20
382.2584203713329
 30
0.0
 10
-1758.373826307513
 20
382.069933614412
 30
0.0
 10
-1758.684949885511
 20
382.0191040104111
 30
0.0
 10
-1758.840511309149
 20
381.9936892681011
 30
0.0
  0
SPLINE
  5
8A5
330
1F
100
AcDbEntity
  8
SLD-0
100
AcDbSpline
210
0.0
220
0.0
230
1.0
 70
     8
 71
     3
 72
    10
 73
     6
 74
     0
 42
0.000000001
 43
0.0000000001
 40
0.0
 40
0.0
 40
0.0
 40
0.0
 40
0.0957225363840894
 40
0.5478590570619799
 40
1.0
 40
1.0
 40
1.0
 40
1.0
 10
-1771.958100365641
 20
382.4130899004826
 30
0.0
 10
-1771.936713145571
 20
382.3874517118777
 30
0.0
 10
-1771.814305375539
 20
382.2407139177863
 30
0.0
 10
-1771.490478701049
 20
382.0712370824269
 30
0.0
 10
-1771.180242580829
 20
382.0195386238181
 30
0.0
 10
-1771.025123762133
 20
381.9936892681011
 30
0.0
  0
LINE
  5
8AF
330
1F
100
AcDbEntity
  8
SLD-0
100
AcDbLine
 10
-1813.9389778843
 20
631.7935443215
 30
0.0
 11
-1817.9328169098
 21
631.7935443215
 31
0.0
  0
LINE
  5
8B0
330
1F
100
AcDbEntity
  8
SLD-0
100
AcDbLine
 10
-1817.4590568414
 20
640.3213000587999
 30
0.0
 11
-1817.9328169098
 21
631.7935443215
 31
0.0
  0
LINE
  5
8B4
330
1F
100
AcDbEntity
  8
SLD-0
100
AcDbLine
 10
-1715.9266609123
 20
631.7935443215
 30
0.0
 11
-1813.9389778843
 21
631.7935443215
 31
0.0
  0
LINE
  5
8B5
330
1F
100
AcDbEntity
  8
SLD-0
100
AcDbLine
 10
-1711.9328181615
 20
631.7935443215
 30
0.0
 11
-1712.4065819552
 21
640.3213000587999
 31
0.0
  0
LINE
  5
8B6
330
1F
100
AcDbEntity
  8
SLD-0
100
AcDbLine
 10
-1711.9328181615
 20
631.7935443215
 30
0.0
 11
-1715.9266609123
 21
631.7935443215
 31
0.0
  0
LINE
  5
8B8
330
1F
100
AcDbEntity
  8
SLD-0
100
AcDbLine
 10
-1716.4004228433
 20
640.7935476593999
 30
0.0
 11
-1813.4652178159
 21
640.7935476593999
 31
0.0
  0
SPLINE
  5
8BB
330
1F
100
AcDbEntity
  8
SLD-0
100
AcDbSpline
210
0.0
220
0.0
230
1.0
 70
    24
 71
     3
 72
    13
 73
     9
 74
     0
 42
0.000000001
 43
0.0000000001
 40
0.0
 40
0.0
 40
0.0
 40
0.0
 40
0.2741813619869095
 40
0.4232657111189285
 40
0.5721970897074974
 40
0.721240354024106
 40
0.8702101614659093
 40
1.0
 40
1.0
 40
1.0
 40
1.0
 10
-1813.465217815878
 20
640.7935476593861
 30
0.0
 10
-1813.905079184403
 20
640.7935476593861
 30
0.0
 10
-1814.584112338201
 20
640.7935476593861
 30
0.0
 10
-1815.398243176182
 20
640.7935476593861
 30
0.0
 10
-1815.955700321059
 20
640.793547659386
 30
0.0
 10
-1816.401123636179
 20
640.7935476593861
 30
0.0
 10
-1816.747190209397
 20
640.7935476593861
 30
0.0
 10
-1816.804148006342
 20
640.7935476593863
 30
0.0
 10
-1816.83066742325
 20
640.7935476593861
 30
0.0
  0
SPLINE
  5
8BC
330
1F
100
AcDbEntity
  8
SLD-0
100
AcDbSpline
210
0.0
220
0.0
230
1.0
 70
    24
 71
     3
 72
    13
 73
     9
 74
     0
 42
0.000000001
 43
0.0000000001
 40
0.0
 40
0.0
 40
0.0
 40
0.0
 40
0.1298338518703683
 40
0.2789072893831897
 40
0.4278314329765242
 40
0.5768686246340009
 40
0.7258324817651901
 40
1.0
 40
1.0
 40
1.0
 40
1.0
 10
-1713.034922013225
 20
640.7935476593861
 30
0.0
 10
-1713.06145096367
 20
640.7935476593861
 30
0.0
 10
-1713.118440089017
 20
640.793547659386
 30
0.0
 10
-1713.464607067191
 20
640.7935476593861
 30
0.0
 10
-1713.910185250865
 20
640.7935476593861
 30
0.0
 10
-1714.467550847633
 20
640.7935476593861
 30
0.0
 10
-1715.281706339096
 20
640.7935476593861
 30
0.0
 10
-1715.960560209981
 20
640.793547659386
 30
0.0
 10
-1716.400422843339
 20
640.7935476593861
 30
0.0
  0
LINE
  5
8BF
330
1F
100
AcDbEntity
  8
SLD-0
100
AcDbLine
 10
-1815.9328203073
 20
631.7935443215
 30
0.0
 11
-1812.9332016578
 21
590.7988256507
 31
0.0
  0
LINE
  5
8C0
330
1F
100
AcDbEntity
  8
SLD-0
100
AcDbLine
 10
-1716.9324315509
 20
590.7988256507
 30
0.0
 11
-1713.9328184893
 21
631.7935443215
 31
0.0
  0
LWPOLYLINE
  5
8C6
330
1F
100
AcDbEntity
  8
SLD-0
100
AcDbPolyline
 90
        3
 70
   128
 43
0.0
 10
-1716.9324315509
 20
590.7988256507
 10
-1716.9327221235
 20
590.7948768429998
 10
-1716.9328189811
 20
590.7935506395999
  0
LINE
  5
8C7
330
1F
100
AcDbEntity
  8
SLD-0
100
AcDbLine
 10
-1723.3470312675
 20
584.3793309026
 30
0.0
 11
-1716.9328189811
 21
590.7935506395999
 31
0.0
  0
SPLINE
  5
8C8
330
1F
100
AcDbEntity
  8
SLD-0
100
AcDbSpline
210
0.0
220
0.0
230
1.0
 70
     8
 71
     3
 72
    11
 73
     7
 74
     0
 42
0.000000001
 43
0.0000000001
 40
0.0
 40
0.0
 40
0.0
 40
0.0
 40
0.2595506767321804
 40
0.4999975167027296
 40
0.7404397370623071
 40
1.0
 40
1.0
 40
1.0
 40
1.0
 10
-1727.589673118832
 20
584.3793309025655
 30
0.0
 10
-1727.038416765822
 20
584.3165978967351
 30
0.0
 10
-1725.976478453652
 20
584.1957492535125
 30
0.0
 10
-1724.640802735454
 20
584.1436198681622
 30
0.0
 10
-1723.6859075864
 20
584.1957751947797
 30
0.0
 10
-1723.462833190233
 20
584.316605646472
 30
0.0
 10
-1723.347031267526
 20
584.3793309025655
 30
0.0
  0
SPLINE
  5
8CB
330
1F
100
AcDbEntity
  8
SLD-0
100
AcDbSpline
210
0.0
220
0.0
230
1.0
 70
     8
 71
     3
 72
    11
 73
     7
 74
     0
 42
0.000000001
 43
0.0000000001
 40
0.0
 40
0.0
 40
0.0
 40
0.0
 40
0.2595516137471467
 40
0.500001820672818
 40
0.7404351938019162
 40
1.0
 40
1.0
 40
1.0
 40
1.0
 10
-1806.518601941111
 20
584.3793309025655
 30
0.0
 10
-1806.402796305824
 20
584.3165974231875
 30
0.0
 10
-1806.179707619719
 20
584.1957472637412
 30
0.0
 10
-1805.224870449613
 20
584.1436254766267
 30
0.0
 10
-1803.889195648294
 20
584.1957546612236
 30
0.0
 10
-1802.827253369004
 20
584.3165975513957
 30
0.0
 10
-1802.27596567774
 20
584.3793309025655
 30
0.0
  0
LINE
  5
8CC
330
1F
100
AcDbEntity
  8
SLD-0
100
AcDbLine
 10
-1812.9328216782
 20
590.7935506395999
 30
0.0
 11
-1806.5186019411
 21
584.3793309026
 31
0.0
  0
LWPOLYLINE
  5
8CD
330
1F
100
AcDbEntity
  8
SLD-0
100
AcDbPolyline
 90
        3
 70
   128
 43
0.0
 10
-1812.9328216782
 20
590.7935506395999
 10
-1812.9329185357
 20
590.7948768429998
 10
-1812.9332016578
 20
590.7988256507
  0
LINE
  5
8CE
330
1F
100
AcDbEntity
  8
SLD-0
100
AcDbLine
 10
-1802.2759656777
 20
584.3793309026
 30
0.0
 11
-1727.5896731188
 21
584.3793309026
 31
0.0
  0
SPLINE
  5
8DB
330
1F
100
AcDbEntity
  8
SLD-0
100
AcDbSpline
210
0.0
220
0.0
230
1.0
 70
     8
 71
     3
 72
    15
 73
    11
 74
     0
 42
0.000000001
 43
0.0000000001
 40
0.0
 40
0.0
 40
0.0
 40
0.0
 40
0.0004531063453913
 40
0.0009660902929087
 40
0.0022761007772947
 40
0.006390933950886
 40
0.021338474460508
 40
0.0791878670106032
 40
0.2959623352749239
 40
1.0
 40
1.0
 40
1.0
 40
1.0
 10
-1713.934152143242
 20
631.7753351025473
 30
0.0
 10
-1713.934167411552
 20
631.7750152984376
 30
0.0
 10
-1713.934199965865
 20
631.7743334283886
 30
0.0
 10
-1713.934414490213
 20
631.7689580390497
 30
0.0
 10
-1713.935202727506
 20
631.7485833459713
 30
0.0
 10
-1713.938431098449
 20
631.6627534480903
 30
0.0
 10
-1713.9510814172
 20
631.3212526485689
 30
0.0
 10
-1713.999070690864
 20
630.0092292294152
 30
0.0
 10
-1714.162107091282
 20
625.5533068570485
 30
0.0
 10
-1714.315521439635
 20
621.3481542494523
 30
0.0
 10
-1714.432819502594
 20
618.1329644017108
 30
0.0
  0
LINE
  5
8DC
330
1F
100
AcDbEntity
  8
SLD-0
100
AcDbLine
 10
-1714.4328195026
 20
618.1329644017
 30
0.0
 11
-1714.7484689375
 21
613.8191080383997
 31
0.0
  0
SPLINE
  5
8DD
330
1F
100
AcDbEntity
  8
SLD-0
100
AcDbSpline
210
0.0
220
0.0
230
1.0
 70
     8
 71
     3
 72
    11
 73
     7
 74
     0
 42
0.000000001
 43
0.0000000001
 40
0.0
 40
0.0
 40
0.0
 40
0.0
 40
0.2500043934541368
 40
0.4999978807217659
 40
0.749997396950123
 40
1.0
 40
1.0
 40
1.0
 40
1.0
 10
-1714.748468937518
 20
613.8191080384146
 30
0.0
 10
-1714.813664026836
 20
613.8234976486617
 30
0.0
 10
-1714.944051361404
 20
613.8322766776645
 30
0.0
 10
-1715.108653866743
 20
613.8386733665188
 30
0.0
 10
-1715.224057079264
 20
613.8390792678777
 30
0.0
 10
-1715.239441950911
 20
613.8338514891349
 30
0.0
 10
-1715.247134434225
 20
613.8312375836261
 30
0.0
  0
SPLINE
  5
8DE
330
1F
100
AcDbEntity
  8
SLD-0
100
AcDbSpline
210
0.0
220
0.0
230
1.0
 70
    24
 71
     3
 72
    12
 73
     8
 74
     0
 42
0.000000001
 43
0.0000000001
 40
0.0
 40
0.0
 40
0.0
 40
0.0
 40
0.0048734033921941
 40
0.0296670906641717
 40
0.0896238360879529
 40
0.3155393343836003
 40
1.0
 40
1.0
 40
1.0
 40
1.0
 10
-1713.932818489315
 20
631.7935443215263
 30
0.0
 10
-1713.932818489315
 20
631.7783258577797
 30
0.0
 10
-1713.932818489315
 20
631.6856826867988
 30
0.0
 10
-1713.932818489315
 20
631.2788263925511
 30
0.0
 10
-1713.932818489315
 20
629.9143541284786
 30
0.0
 10
-1713.932818489315
 20
625.4528357217504
 30
0.0
 10
-1713.932818489315
 20
621.2883702248911
 30
0.0
 10
-1713.932818489315
 20
618.1573427014241
 30
0.0
  0
SPLINE
  5
8DF
330
1F
100
AcDbEntity
  8
SLD-0
100
AcDbSpline
210
0.0
220
0.0
230
1.0
 70
     8
 71
     3
 72
    11
 73
     7
 74
     0
 42
0.000000001
 43
0.0000000001
 40
0.0
 40
0.0
 40
0.0
 40
0.0
 40
0.2500096043440829
 40
0.4999942593278858
 40
0.750004097555741
 40
1.0
 40
1.0
 40
1.0
 40
1.0
 10
-1713.932818489315
 20
618.1573427014241
 30
0.0
 10
-1713.940332771941
 20
618.1541479052553
 30
0.0
 10
-1713.955360587315
 20
618.1477586317379
 30
0.0
 10
-1714.071000049468
 20
618.1397120012718
 30
0.0
 10
-1714.236256742083
 20
618.1340938838302
 30
0.0
 10
-1714.367299799867
 20
618.133340888755
 30
0.0
 10
-1714.432819502594
 20
618.1329644017108
 30
0.0
  0
SPLINE
  5
8E0
330
1F
100
AcDbEntity
  8
SLD-0
100
AcDbSpline
210
0.0
220
0.0
230
1.0
 70
     8
 71
     3
 72
    18
 73
    14
 74
     0
 42
0.000000001
 43
0.0000000001
 40
0.0
 40
0.0
 40
0.0
 40
0.0
 40
0.1200342908746657
 40
0.2432514810364293
 40
0.3696737095264267
 40
0.4993196141302219
 40
0.57799839695676
 40
0.6613916520604832
 40
0.7495011673721397
 40
0.799962870013809
 40
0.8585352931268472
 40
0.9252148791238836
 40
1.0
 40
1.0
 40
1.0
 40
1.0
 10
-1716.175383644344
 20
594.7935438446887
 30
0.0
 10
-1716.170265127066
 20
594.8583058185937
 30
0.0
 10
-1716.159892366919
 20
594.9895470326877
 30
0.0
 10
-1716.078493268035
 20
596.0609372260842
 30
0.0
 10
-1715.949462231985
 20
597.7933202846222
 30
0.0
 10
-1715.792625546212
 20
599.8983667409643
 30
0.0
 10
-1715.629601406706
 20
602.0661330518024
 30
0.0
 10
-1715.47528487654
 20
604.1248270331228
 30
0.0
 10
-1715.32696264859
 20
606.10823198558
 30
0.0
 10
-1715.187903160836
 20
607.9553744261788
 30
0.0
 10
-1715.060232905174
 20
609.6530040212051
 30
0.0
 10
-1714.911958923039
 20
611.6350238788427
 30
0.0
 10
-1714.805008258064
 20
613.0637918396586
 30
0.0
 10
-1714.748468937518
 20
613.8191080384146
 30
0.0
  0
SPLINE
  5
8E1
330
1F
100
AcDbEntity
  8
SLD-0
100
AcDbSpline
210
0.0
220
0.0
230
1.0
 70
     8
 71
     3
 72
    11
 73
     7
 74
     0
 42
0.000000001
 43
0.0000000001
 40
0.0
 40
0.0
 40
0.0
 40
0.0
 40
0.2499975475373787
 40
0.4999947745983677
 40
0.7500008522275019
 40
1.0
 40
1.0
 40
1.0
 40
1.0
 10
-1716.674051003697
 20
594.3300432257543
 30
0.0
 10
-1716.662690848273
 20
594.3918482601651
 30
0.0
 10
-1716.63997055199
 20
594.5154582497577
 30
0.0
 10
-1716.522995311837
 20
594.6675265131887
 30
0.0
 10
-1716.362797610325
 20
594.7731020222875
 30
0.0
 10
-1716.237854389118
 20
594.7867299668476
 30
0.0
 10
-1716.175383644344
 20
594.7935438446887
 30
0.0
  0
LINE
  5
8E2
330
1F
100
AcDbEntity
  8
SLD-0
100
AcDbLine
 10
-1714.4328195026
 20
618.1329644017
 30
0.0
 11
-1714.4328195026
 21
613.8191080383997
 31
0.0
  0
ARC
  5
8E3
330
1F
100
AcDbEntity
  8
SLD-0
100
AcDbCircle
 10
-1714.3080037639
 20
616.4019752471
 30
0.0
 40
2.585881278462845
100
AcDbArc
 50
267.2333629811
 51
278.3424855462
  0
LINE
  5
8E4
330
1F
100
AcDbEntity
  8
SLD-0
100
AcDbLine
 10
-1713.9328184893
 20
618.1573427014
 30
0.0
 11
-1713.9328184893
 21
613.8434565357998
 31
0.0
  0
LINE
  5
8E5
330
1F
100
AcDbEntity
  8
SLD-0
100
AcDbLine
 10
-1714.4328195026
 20
613.8191080383997
 30
0.0
 11
-1714.7484689375
 21
613.8191080383997
 31
0.0
  0
LINE
  5
8E6
330
1F
100
AcDbEntity
  8
SLD-0
100
AcDbLine
 10
-1714.4328195026
 20
613.8191080383997
 30
0.0
 11
-1714.4328195026
 21
594.7935438447
 31
0.0
  0
LINE
  5
8E7
330
1F
100
AcDbEntity
  8
SLD-0
100
AcDbLine
 10
-1714.4328195026
 20
594.7935438447
 30
0.0
 11
-1716.1753836443
 21
594.7935438447
 31
0.0
  0
ARC
  5
8E8
330
1F
100
AcDbEntity
  8
SLD-0
100
AcDbCircle
 10
-1714.4328185721
 20
595.2935511406998
 30
0.0
 40
0.5000000000002274
100
AcDbArc
 50
270.0
 51
0.0
  0
SPLINE
  5
8E9
330
1F
100
AcDbEntity
  8
SLD-0
100
AcDbSpline
210
0.0
220
0.0
230
1.0
 70
    24
 71
     3
 72
    15
 73
    11
 74
     0
 42
0.000000001
 43
0.0000000001
 40
0.0
 40
0.0
 40
0.0
 40
0.0
 40
0.117036943894636
 40
0.240642051506378
 40
0.3690495144241182
 40
0.4999998030660421
 40
0.6309501296390942
 40
0.7593576016819998
 40
0.8829625633293833
 40
1.0
 40
1.0
 40
1.0
 40
1.0
 10
-1713.932818489315
 20
613.8434565358053
 30
0.0
 10
-1713.932818489315
 20
612.6901293075783
 30
0.0
 10
-1713.932818489315
 20
610.3187496301617
 30
0.0
 10
-1713.932818489315
 20
606.840575800138
 30
0.0
 10
-1713.932818489315
 20
603.5221315829764
 30
0.0
 10
-1713.932818489315
 20
600.5798696349947
 30
0.0
 10
-1713.932818489315
 20
598.1930713201076
 30
0.0
 10
-1713.932818489315
 20
596.5001681427418
 30
0.0
 10
-1713.932818489315
 20
595.4766364397733
 30
0.0
 10
-1713.932818489315
 20
595.3534597881362
 30
0.0
 10
-1713.932818489315
 20
595.2935523085483
 30
0.0
  0
SPLINE
  5
8EA
330
1F
100
AcDbEntity
  8
SLD-0
100
AcDbSpline
210
0.0
220
0.0
230
1.0
 70
    24
 71
     3
 72
    11
 73
     7
 74
     0
 42
0.000000001
 43
0.0000000001
 40
0.0
 40
0.0
 40
0.0
 40
0.0
 40
0.2500012031948275
 40
0.4999942710763405
 40
0.7499892715159723
 40
1.0
 40
1.0
 40
1.0
 40
1.0
 10
-1802.27596567774
 20
584.3793309025655
 30
0.0
 10
-1802.27596567774
 20
584.2919631737337
 30
0.0
 10
-1802.27596567774
 20
584.1172305591122
 30
0.0
 10
-1802.27596567774
 20
583.9354569707891
 30
0.0
 10
-1802.27596567774
 20
583.8157174119397
 30
0.0
 10
-1802.27596567774
 20
583.8009401955051
 30
0.0
 10
-1802.27596567774
 20
583.7935513548741
 30
0.0
  0
SPLINE
  5
8EB
330
1F
100
AcDbEntity
  8
SLD-0
100
AcDbSpline
210
0.0
220
0.0
230
1.0
 70
    24
 71
     3
 72
    11
 73
     7
 74
     0
 42
0.000000001
 43
0.0000000001
 40
0.0
 40
0.0
 40
0.0
 40
0.0
 40
0.2500012031948275
 40
0.4999942710763405
 40
0.7499892715159723
 40
1.0
 40
1.0
 40
1.0
 40
1.0
 10
-1727.589673118832
 20
584.3793309025655
 30
0.0
 10
-1727.589673118832
 20
584.2919631737337
 30
0.0
 10
-1727.589673118832
 20
584.1172305591122
 30
0.0
 10
-1727.589673118832
 20
583.9354569707891
 30
0.0
 10
-1727.589673118832
 20
583.8157174119397
 30
0.0
 10
-1727.589673118832
 20
583.8009401955051
 30
0.0
 10
-1727.589673118832
 20
583.7935513548741
 30
0.0
  0
SPLINE
  5
8EC
330
1F
100
AcDbEntity
  8
SLD-0
100
AcDbSpline
210
0.0
220
0.0
230
1.0
 70
    24
 71
     3
 72
    11
 73
     7
 74
     0
 42
0.000000001
 43
0.0000000001
 40
0.0
 40
0.0
 40
0.0
 40
0.0
 40
0.3695500655734687
 40
0.6189306942173931
 40
0.8598220042037592
 40
1.0
 40
1.0
 40
1.0
 40
1.0
 10
-1805.0488855114
 20
583.7935513548741
 30
0.0
 10
-1805.02568949367
 20
583.7935513548741
 30
0.0
 10
-1804.986840285687
 20
583.7935513548742
 30
0.0
 10
-1804.695029759867
 20
583.7935513548742
 30
0.0
 10
-1804.414648420748
 20
583.7935513548741
 30
0.0
 10
-1804.186770703596
 20
583.793551354874
 30
0.0
 10
-1804.102944897654
 20
583.7935513548741
 30
0.0
  0
SPLINE
  5
8ED
330
1F
100
AcDbEntity
  8
SLD-0
100
AcDbSpline
210
0.0
220
0.0
230
1.0
 70
     8
 71
     3
 72
    10
 73
     6
 74
     0
 42
0.000000001
 43
0.0000000001
 40
0.0
 40
0.0
 40
0.0
 40
0.0
 40
0.4384250348701644
 40
0.8768624722389216
 40
1.0
 40
1.0
 40
1.0
 40
1.0
 10
-1806.518601941111
 20
584.3793309025655
 30
0.0
 10
-1806.420462056321
 20
584.2930846858117
 30
0.0
 10
-1806.224179510485
 20
584.1205898125062
 30
0.0
 10
-1805.960883974464
 20
583.9695966200775
 30
0.0
 10
-1805.799724777665
 20
583.9238618674673
 30
0.0
 10
-1805.764387117865
 20
583.9138335280308
 30
0.0
  0
SPLINE
  5
8EE
330
1F
100
AcDbEntity
  8
SLD-0
100
AcDbSpline
210
0.0
220
0.0
230
1.0
 70
     8
 71
     3
 72
    10
 73
     6
 74
     0
 42
0.000000001
 43
0.0000000001
 40
0.0
 40
0.0
 40
0.0
 40
0.0
 40
0.1242938981832811
 40
0.5621490088110691
 40
1.0
 40
1.0
 40
1.0
 40
1.0
 10
-1724.102382304313
 20
583.9134908013233
 30
0.0
 10
-1724.066663718477
 20
583.9236215077661
 30
0.0
 10
-1723.905117834753
 20
583.9694400609577
 30
0.0
 10
-1723.64145483807
 20
584.1205771154323
 30
0.0
 10
-1723.445172149927
 20
584.2930799106798
 30
0.0
 10
-1723.347031267526
 20
584.3793309025655
 30
0.0
  0
SPLINE
  5
8EF
330
1F
100
AcDbEntity
  8
SLD-0
100
AcDbSpline
210
0.0
220
0.0
230
1.0
 70
    24
 71
     3
 72
    11
 73
     7
 74
     0
 42
0.000000001
 43
0.0000000001
 40
0.0
 40
0.0
 40
0.0
 40
0.0
 40
0.140236534248783
 40
0.3814571773719738
 40
0.6307008312290355
 40
1.0
 40
1.0
 40
1.0
 40
1.0
 10
-1725.762682723047
 20
583.7935513548741
 30
0.0
 10
-1725.678862564508
 20
583.7935513548741
 30
0.0
 10
-1725.450863482425
 20
583.7935513548742
 30
0.0
 10
-1725.170523263599
 20
583.7935513548741
 30
0.0
 10
-1724.878883338517
 20
583.7935513548741
 30
0.0
 10
-1724.84007006148
 20
583.7935513548741
 30
0.0
 10
-1724.816896708848
 20
583.7935513548741
 30
0.0
  0
ARC
  5
916
330
1F
100
AcDbEntity
  8
SLD-0
100
AcDbCircle
 10
-1764.9328185721
 20
480.8060566546998
 30
0.0
 40
125.0000000000001
100
AcDbArc
 50
0.0
 51
65.9767790169
  0
ARC
  5
917
330
1F
100
AcDbEntity
  8
SLD-0
100
AcDbCircle
 10
-1764.9328185721
 20
480.8060566546998
 30
0.0
 40
125.0000000000001
100
AcDbArc
 50
112.7731631672
 51
131.0877673344
  0
ARC
  5
918
330
1F
100
AcDbEntity
  8
SLD-0
100
AcDbCircle
 10
-1764.9328185721
 20
480.8060566546998
 30
0.0
 40
125.0
100
AcDbArc
 50
132.6263437621999
 51
0.0
  0
LINE
  5
932
330
1F
100
AcDbEntity
  8
SLD-0
100
AcDbLine
 10
-1397.1328090301
 20
177.1828389459
 30
0.0
 11
-1397.1328090301
 21
710.8292734914
 31
0.0
  0
LINE
  5
938
330
1F
100
AcDbEntity
  8
SLD-0
100
AcDbLine
 10
-2021.456028091
 20
175.5060559802
 30
0.0
 11
-2011.5285764804
 21
175.5060559802
 31
0.0
  0
LINE
  5
939
330
1F
100
AcDbEntity
  8
SLD-0
100
AcDbLine
 10
-2011.5285764804
 20
175.5060559802
 30
0.0
 11
-1422.5328217616
 21
175.5060559802
 31
0.0
  0
LINE
  5
93A
330
1F
100
AcDbEntity
  8
SLD-0
100
AcDbLine
 10
-1422.5328217616
 20
175.5060559802
 30
0.0
 11
-1398.8096068969
 21
175.5060559802
 31
0.0
  0
ARC
  5
93E
330
1F
100
AcDbEntity
  8
SLD-0
100
AcDbCircle
 10
-1639.9328185721
 20
675.3060566547
 30
0.0
 40
5.0
100
AcDbArc
 50
0.0
 51
90.0
  0
LINE
  5
93F
330
1F
100
AcDbEntity
  8
SLD-0
100
AcDbLine
 10
-1889.9328212609
 20
680.3060627274
 30
0.0
 11
-1639.9328175356
 21
680.3060627274
 31
0.0
  0
ARC
  5
940
330
1F
100
AcDbEntity
  8
SLD-0
100
AcDbCircle
 10
-1889.9328185721
 20
675.3060566547
 30
0.0
 40
5.0
100
AcDbArc
 50
90.0
 51
180.0
  0
LINE
  5
941
330
1F
100
AcDbEntity
  8
SLD-0
100
AcDbLine
 10
-1894.9328164926
 20
480.3060597472
 30
0.0
 11
-1894.9328164926
 21
675.3060674958
 31
0.0
  0
ARC
  5
942
330
1F
100
AcDbEntity
  8
SLD-0
100
AcDbCircle
 10
-1764.9328185721
 20
480.3060566546998
 30
0.0
 40
130.0
100
AcDbArc
 50
180.0
 51
270.0
  0
ARC
  5
943
330
1F
100
AcDbEntity
  8
SLD-0
100
AcDbCircle
 10
-1764.9328185721
 20
480.3060566546998
 30
0.0
 40
130.0000000000002
100
AcDbArc
 50
270.0
 51
0.0
  0
LINE
  5
944
330
1F
100
AcDbEntity
  8
SLD-0
100
AcDbLine
 10
-1634.9328185787
 20
675.3060674958
 30
0.0
 11
-1634.9328185787
 21
602.5520718387999
 31
0.0
  0
LINE
  5
945
330
1F
100
AcDbEntity
  8
SLD-0
100
AcDbLine
 10
-1634.9328185787
 20
602.5520718387999
 30
0.0
 11
-1634.9328185787
 21
480.3060597472
 31
0.0
  0
LINE
  5
94B
330
1F
100
AcDbEntity
  8
SLD-0
100
AcDbLine
 10
-2023.1328259578
 20
710.8292734914
 30
0.0
 11
-2023.1328259578
 21
177.1828389459
 31
0.0
  0
LINE
  5
952
330
1F
100
AcDbEntity
  8
SLD-0
100
AcDbLine
 10
-1398.8096068969
 20
712.5060713582
 30
0.0
 11
-1514.869595634
 21
712.5060713582
 31
0.0
  0
LINE
  5
953
330
1F
100
AcDbEntity
  8
SLD-0
100
AcDbLine
 10
-1639.6960380843
 20
712.5060713582
 30
0.0
 11
-2021.456028091
 21
712.5060713582
 31
0.0
  0
LINE
  5
959
330
1F
100
AcDbEntity
  8
SLD-0
100
AcDbLine
 10
-1430.6328247657
 20
149.0060544305
 30
0.0
 11
-1432.6328288188
 21
149.0060544305
 31
0.0
  0
LINE
  5
95A
330
1F
100
AcDbEntity
  8
SLD-0
100
AcDbLine
 10
-1432.6328288188
 20
152.0060605101
 30
0.0
 11
-1430.6328247657
 21
152.0060605101
 31
0.0
  0
LINE
  5
95B
330
1F
100
AcDbEntity
  8
SLD-0
100
AcDbLine
 10
-1430.6328247657
 20
152.0060605101
 30
0.0
 11
-1430.6328247657
 21
149.0060544305
 31
0.0
  0
LINE
  5
95C
330
1F
100
AcDbEntity
  8
SLD-0
100
AcDbLine
 10
-1432.6328288188
 20
149.0060544305
 30
0.0
 11
-1432.6328288188
 21
152.0060605101
 31
0.0
  0
LINE
  5
95E
330
1F
100
AcDbEntity
  8
SLD-0
100
AcDbLine
 10
-1397.6328323951
 20
152.0060605101
 30
0.0
 11
-1397.6328323951
 21
171.0060543113
 31
0.0
  0
LINE
  5
960
330
1F
100
AcDbEntity
  8
SLD-0
100
AcDbLine
 10
-1399.6328066459
 20
152.0060605101
 30
0.0
 11
-1399.6328066459
 21
171.0060543113
 31
0.0
  0
LINE
  5
961
330
1F
100
AcDbEntity
  8
SLD-0
100
AcDbLine
 10
-1430.6328247657
 20
171.0060543113
 30
0.0
 11
-1432.6328288188
 21
171.0060543113
 31
0.0
  0
LINE
  5
962
330
1F
100
AcDbEntity
  8
SLD-0
100
AcDbLine
 10
-1430.6328247657
 20
171.0060543113
 30
0.0
 11
-1430.6328247657
 21
152.0060605101
 31
0.0
  0
LINE
  5
963
330
1F
100
AcDbEntity
  8
SLD-0
100
AcDbLine
 10
-1432.6328288188
 20
171.0060543113
 30
0.0
 11
-1432.6328288188
 21
152.0060605101
 31
0.0
  0
LINE
  5
965
330
1F
100
AcDbEntity
  8
SLD-0
100
AcDbLine
 10
-1400.6328235736
 20
172.0060563377999
 30
0.0
 11
-1429.632807838
 21
172.0060563377999
 31
0.0
  0
LINE
  5
966
330
1F
100
AcDbEntity
  8
SLD-0
100
AcDbLine
 10
-1429.632807838
 20
174.0060603909
 30
0.0
 11
-1429.632807838
 21
172.0060563377999
 31
0.0
  0
LINE
  5
967
330
1F
100
AcDbEntity
  8
SLD-0
100
AcDbLine
 10
-1400.6328235736
 20
174.0060603909
 30
0.0
 11
-1429.632807838
 21
174.0060603909
 31
0.0
  0
ARC
  5
968
330
1F
100
AcDbEntity
  8
SLD-0
100
AcDbCircle
 10
-1429.6328185721
 20
171.0060566548
 30
0.0
 40
1.0
100
AcDbArc
 50
90.0
 51
180.0
  0
ARC
  5
969
330
1F
100
AcDbEntity
  8
SLD-0
100
AcDbCircle
 10
-1429.6328185721
 20
171.0060566548
 30
0.0
 40
3.0
100
AcDbArc
 50
90.0
 51
180.0
  0
LINE
  5
96A
330
1F
100
AcDbEntity
  8
SLD-0
100
AcDbLine
 10
-1397.6328323951
 20
149.0060544305
 30
0.0
 11
-1399.6328066459
 21
149.0060544305
 31
0.0
  0
LINE
  5
96B
330
1F
100
AcDbEntity
  8
SLD-0
100
AcDbLine
 10
-1399.6328066459
 20
149.0060544305
 30
0.0
 11
-1399.6328066459
 21
152.0060605101
 31
0.0
  0
LINE
  5
96C
330
1F
100
AcDbEntity
  8
SLD-0
100
AcDbLine
 10
-1397.6328323951
 20
152.0060605101
 30
0.0
 11
-1397.6328323951
 21
149.0060544305
 31
0.0
  0
ARC
  5
96D
330
1F
100
AcDbEntity
  8
SLD-0
100
AcDbCircle
 10
-1400.6328185721
 20
171.0060566548
 30
0.0
 40
3.0
100
AcDbArc
 50
0.0
 51
90.0
  0
ARC
  5
96E
330
1F
100
AcDbEntity
  8
SLD-0
100
AcDbCircle
 10
-1400.6328185721
 20
171.0060566548
 30
0.0
 40
1.0
100
AcDbArc
 50
0.0
 51
90.0
  0
ARC
  5
96F
330
1F
100
AcDbEntity
  8
SLD-0
100
AcDbCircle
 10
-1989.6328185721
 20
171.0060566548
 30
0.0
 40
1.0
100
AcDbArc
 50
0.0
 51
90.0
  0
LINE
  5
970
330
1F
100
AcDbEntity
  8
SLD-0
100
AcDbLine
 10
-1989.6328102222
 20
172.0060563377999
 30
0.0
 11
-1989.6328102222
 21
174.0060603909
 31
0.0
  0
ARC
  5
971
330
1F
100
AcDbEntity
  8
SLD-0
100
AcDbCircle
 10
-1989.6328185721
 20
171.0060566548
 30
0.0
 40
3.0
100
AcDbArc
 50
0.0
 51
90.0
  0
LINE
  5
972
330
1F
100
AcDbEntity
  8
SLD-0
100
AcDbLine
 10
-1986.6328190436
 20
171.0060543113
 30
0.0
 11
-1988.6328230968
 21
171.0060543113
 31
0.0
  0
LINE
  5
973
330
1F
100
AcDbEntity
  8
SLD-0
100
AcDbLine
 10
-1986.6328190436
 20
152.0060605101
 30
0.0
 11
-1986.6328190436
 21
171.0060543113
 31
0.0
  0
LINE
  5
974
330
1F
100
AcDbEntity
  8
SLD-0
100
AcDbLine
 10
-1988.6328230968
 20
152.0060605101
 30
0.0
 11
-1986.6328190436
 21
152.0060605101
 31
0.0
  0
LINE
  5
975
330
1F
100
AcDbEntity
  8
SLD-0
100
AcDbLine
 10
-1988.6328230968
 20
152.0060605101
 30
0.0
 11
-1988.6328230968
 21
171.0060543113
 31
0.0
  0
LINE
  5
976
330
1F
100
AcDbEntity
  8
SLD-0
100
AcDbLine
 10
-2019.6328114142
 20
149.0060544305
 30
0.0
 11
-2021.6328154674
 21
149.0060544305
 31
0.0
  0
LINE
  5
978
330
1F
100
AcDbEntity
  8
SLD-0
100
AcDbLine
 10
-2019.6328114142
 20
152.0060605101
 30
0.0
 11
-2019.6328114142
 21
149.0060544305
 31
0.0
  0
LINE
  5
979
330
1F
100
AcDbEntity
  8
SLD-0
100
AcDbLine
 10
-2021.6328154674
 20
149.0060544305
 30
0.0
 11
-2021.6328154674
 21
152.0060605101
 31
0.0
  0
LINE
  5
97A
330
1F
100
AcDbEntity
  8
SLD-0
100
AcDbLine
 10
-1986.6328190436
 20
149.0060544305
 30
0.0
 11
-1988.6328230968
 21
149.0060544305
 31
0.0
  0
LINE
  5
97B
330
1F
100
AcDbEntity
  8
SLD-0
100
AcDbLine
 10
-1986.6328190436
 20
152.0060605101
 30
0.0
 11
-1986.6328190436
 21
149.0060544305
 31
0.0
  0
LINE
  5
97C
330
1F
100
AcDbEntity
  8
SLD-0
100
AcDbLine
 10
-1988.6328230968
 20
149.0060544305
 30
0.0
 11
-1988.6328230968
 21
152.0060605101
 31
0.0
  0
LINE
  5
97E
330
1F
100
AcDbEntity
  8
SLD-0
100
AcDbLine
 10
-2019.6328114142
 20
171.0060543113
 30
0.0
 11
-2019.6328114142
 21
152.0060605101
 31
0.0
  0
LINE
  5
97F
330
1F
100
AcDbEntity
  8
SLD-0
100
AcDbLine
 10
-2021.6328154674
 20
171.0060543113
 30
0.0
 11
-2021.6328154674
 21
152.0060605101
 31
0.0
  0
LINE
  5
981
330
1F
100
AcDbEntity
  8
SLD-0
100
AcDbLine
 10
-1989.6328102222
 20
174.0060603909
 30
0.0
 11
-2018.6328242888
 21
174.0060603909
 31
0.0
  0
LINE
  5
982
330
1F
100
AcDbEntity
  8
SLD-0
100
AcDbLine
 10
-1989.6328102222
 20
172.0060563377999
 30
0.0
 11
-2018.6328242888
 21
172.0060563377999
 31
0.0
  0
ARC
  5
983
330
1F
100
AcDbEntity
  8
SLD-0
100
AcDbCircle
 10
-2018.6328185721
 20
171.0060566548
 30
0.0
 40
3.000000000000226
100
AcDbArc
 50
90.0
 51
180.0
  0
ARC
  5
984
330
1F
100
AcDbEntity
  8
SLD-0
100
AcDbCircle
 10
-2018.6328185721
 20
171.0060566548
 30
0.0
 40
1.0
100
AcDbArc
 50
90.0
 51
180.0
  0
ARC
  5
985
330
1F
100
AcDbEntity
  8
SLD-0
100
AcDbCircle
 10
-1399.5328185721
 20
710.8060566547997
 30
0.0
 40
1.700000000000045
100
AcDbArc
 50
0.0
 51
64.8224025432
  0
LINE
  5
98B
330
1F
100
AcDbEntity
  8
SLD-0
100
AcDbLine
 10
-1434.0039144626
 20
160.9546399407
 30
0.0
 11
-1434.0039144626
 21
165.0060570531
 31
0.0
  0
LINE
  5
98C
330
1F
100
AcDbEntity
  8
SLD-0
100
AcDbLine
 10
-1434.0039144626
 20
156.0060537152
 30
0.0
 11
-1434.0039144626
 21
160.9546399407
 31
0.0
  0
ARC
  5
995
330
1F
100
AcDbEntity
  8
SLD-0
100
AcDbCircle
 10
-1399.5328185721
 20
177.2060566548
 30
0.0
 40
1.700000000000045
100
AcDbArc
 50
295.1775974572001
 51
0.0
  0
LINE
  5
999
330
1F
100
AcDbEntity
  8
SLD-0
100
AcDbLine
 10
-1678.4328191897
 20
628.4258520894
 30
0.0
 11
-1678.4328191897
 21
629.5435583882
 31
0.0
  0
LINE
  5
99A
330
1F
100
AcDbEntity
  8
SLD-0
100
AcDbLine
 10
-1678.4328191897
 20
600.0435507587999
 30
0.0
 11
-1678.4328191897
 21
628.4258520894
 31
0.0
  0
LINE
  5
99C
330
1F
100
AcDbEntity
  8
SLD-0
100
AcDbLine
 10
-1419.7828124633
 20
802.656070023
 30
0.0
 11
-1734.7828175297
 21
802.656070023
 31
0.0
  0
LINE
  5
99D
330
1F
100
AcDbEntity
  8
SLD-0
100
AcDbLine
 10
-1476.4328251948
 20
451.1996141366998
 30
0.0
 11
-1463.3557449451
 21
451.1996141366998
 31
0.0
  0
LINE
  5
99E
330
1F
100
AcDbEntity
  8
SLD-0
100
AcDbLine
 10
-1463.9328222146
 20
450.1178345375
 30
0.0
 11
-1476.4328251948
 21
450.1178345375
 31
0.0
  0
LINE
  5
9BA
330
1F
100
AcDbEntity
  8
SLD-0
100
AcDbLine
 10
-1635.93281688
 20
464.2125821403998
 30
0.0
 11
-1635.93281688
 21
602.7482903294
 31
0.0
  0
LINE
  5
9BB
330
1F
100
AcDbEntity
  8
SLD-0
100
AcDbLine
 10
-1635.93281688
 20
623.8388276391
 30
0.0
 11
-1635.93281688
 21
678.3060586742998
 31
0.0
  0
LINE
  5
9BC
330
1F
100
AcDbEntity
  8
SLD-0
100
AcDbLine
 10
-1893.932814466
 20
678.3060586742998
 30
0.0
 11
-1893.932814466
 21
464.2125821403998
 31
0.0
  0
LINE
  5
9BD
330
1F
100
AcDbEntity
  8
SLD-0
100
AcDbLine
 10
-1636.9328189065
 20
679.3060457996999
 30
0.0
 11
-1892.9328124394
 21
679.3060457996999
 31
0.0
  0
LINE
  5
9C3
330
1F
100
AcDbEntity
  8
SLD-0
100
AcDbLine
 10
-1433.0039273372
 20
161.0543287091
 30
0.0
 11
-1433.0039273372
 21
155.0060516887
 31
0.0
  0
LINE
  5
9C4
330
1F
100
AcDbEntity
  8
SLD-0
100
AcDbLine
 10
-1433.0039273372
 20
166.0060590796
 30
0.0
 11
-1433.0039273372
 21
161.0543287091
 31
0.0
  0
LINE
  5
9C5
330
1F
100
AcDbEntity
  8
SLD-0
100
AcDbLine
 10
-1986.2328122726
 20
156.8627214723
 30
0.0
 11
-1986.2328122726
 21
166.0060590796
 31
0.0
  0
LINE
  5
9C6
330
1F
100
AcDbEntity
  8
SLD-0
100
AcDbLine
 10
-1986.2328122726
 20
155.0060516887
 30
0.0
 11
-1986.2328122726
 21
156.8627214723
 31
0.0
  0
LINE
  5
9CD
330
1F
100
AcDbEntity
  8
SLD-0
100
AcDbLine
 10
-885.1754369349292
 20
793.386206656
 30
0.0
 11
-884.8334105820293
 21
792.4465096288001
 31
0.0
  0
LINE
  5
9CE
330
1F
100
AcDbEntity
  8
SLD-0
100
AcDbLine
 10
-543.4334131092291
 20
792.4465096288001
 30
0.0
 11
-543.0913867563293
 21
793.386206656
 31
0.0
  0
LINE
  5
9CF
330
1F
100
AcDbEntity
  8
SLD-0
100
AcDbLine
 10
-543.0913867563293
 20
793.386206656
 30
0.0
 11
-557.433411678729
 21
798.6062622360998
 31
0.0
  0
LINE
  5
9D0
330
1F
100
AcDbEntity
  8
SLD-0
100
AcDbLine
 10
-870.8334120125292
 20
798.6062622360998
 30
0.0
 11
-885.1754369349292
 21
793.386206656
 31
0.0
  0
ARC
  5
9D1
330
1F
100
AcDbEntity
  8
SLD-0
100
AcDbCircle
 10
-549.6334121363293
 20
713.5560566547998
 30
0.0
 40
1.049999999999954
100
AcDbArc
 50
270.0
 51
90.0
  0
ARC
  5
9D2
330
1F
100
AcDbEntity
  8
SLD-0
100
AcDbCircle
 10
-878.6334121363293
 20
713.5560566547998
 30
0.0
 40
1.049999999999954
100
AcDbArc
 50
90.0
 51
270.0
  0
ARC
  5
9D3
330
1F
100
AcDbEntity
  8
SLD-0
100
AcDbCircle
 10
-557.3334121363293
 20
761.2960566547998
 30
0.0
 40
2.700000000000108
100
AcDbArc
 50
285.0261137590998
 51
74.97388624090023
  0
ARC
  5
9D4
330
1F
100
AcDbEntity
  8
SLD-0
100
AcDbCircle
 10
-870.9334121363293
 20
761.2960566547998
 30
0.0
 40
2.700000000000138
100
AcDbArc
 50
105.0261137590998
 51
254.9738862409002
  0
LINE
  5
9D5
330
1F
100
AcDbEntity
  8
SLD-0
100
AcDbLine
 10
-556.6334130377293
 20
798.9060437969998
 30
0.0
 11
-556.6334130377293
 21
802.656070023
 31
0.0
  0
LINE
  5
9D6
330
1F
100
AcDbEntity
  8
SLD-0
100
AcDbLine
 10
-871.6334106535292
 20
802.656070023
 30
0.0
 11
-871.6334106535292
 21
798.9060437969998
 31
0.0
  0
ARC
  5
9D7
330
1F
100
AcDbEntity
  8
SLD-0
100
AcDbCircle
 10
-557.8834121363293
 20
802.6560566547997
 30
0.0
 40
1.25
100
AcDbArc
 50
0.0
 51
90.0
  0
ARC
  5
9D8
330
1F
100
AcDbEntity
  8
SLD-0
100
AcDbCircle
 10
-870.3834121363293
 20
802.6560566547997
 30
0.0
 40
1.25
100
AcDbArc
 50
90.0
 51
180.0
  0
LINE
  5
9D9
330
1F
100
AcDbEntity
  8
SLD-0
100
AcDbLine
 10
-557.8834118456293
 20
803.906068831
 30
0.0
 11
-870.3834118456291
 21
803.906068831
 31
0.0
  0
LINE
  5
9DA
330
1F
100
AcDbEntity
  8
SLD-0
100
AcDbLine
 10
-556.6334130377293
 20
733.8659322553
 30
0.0
 11
-556.6334130377293
 21
758.6883759788998
 31
0.0
  0
LINE
  5
9DB
330
1F
100
AcDbEntity
  8
SLD-0
100
AcDbLine
 10
-871.6334106535292
 20
758.6883759788998
 30
0.0
 11
-871.6334106535292
 21
733.8659322553
 31
0.0
  0
LINE
  5
9DC
330
1F
100
AcDbEntity
  8
SLD-0
100
AcDbLine
 10
-556.6334130377293
 20
763.9037227921001
 30
0.0
 11
-556.6334130377293
 21
773.5167599014999
 31
0.0
  0
LINE
  5
9DD
330
1F
100
AcDbEntity
  8
SLD-0
100
AcDbLine
 10
-871.6334106535292
 20
773.5167599014999
 30
0.0
 11
-871.6334106535292
 21
763.9037227921001
 31
0.0
  0
LINE
  5
9DE
330
1F
100
AcDbEntity
  8
SLD-0
100
AcDbLine
 10
-556.6334130377293
 20
773.5167599014999
 30
0.0
 11
-558.4334137053293
 21
776.0874188236999
 31
0.0
  0
LINE
  5
9DF
330
1F
100
AcDbEntity
  8
SLD-0
100
AcDbLine
 10
-869.8334099859292
 20
776.0874188236999
 30
0.0
 11
-871.6334106535292
 21
773.5167599014999
 31
0.0
  0
LINE
  5
9E0
330
1F
100
AcDbEntity
  8
SLD-0
100
AcDbLine
 10
-871.6334106535292
 20
733.8659322553
 30
0.0
 11
-869.4185318560292
 21
714.6060622028999
 31
0.0
  0
LINE
  5
9E1
330
1F
100
AcDbEntity
  8
SLD-0
100
AcDbLine
 10
-558.8482918352292
 20
714.6060622028999
 30
0.0
 11
-556.6334130377293
 21
733.8659322553
 31
0.0
  0
LINE
  5
9E2
330
1F
100
AcDbEntity
  8
SLD-0
100
AcDbLine
 10
-557.433411678729
 20
798.6062622360998
 30
0.0
 11
-557.433411678729
 21
798.9060437969998
 31
0.0
  0
LINE
  5
9E3
330
1F
100
AcDbEntity
  8
SLD-0
100
AcDbLine
 10
-870.8334120125292
 20
798.9060437969998
 30
0.0
 11
-870.8334120125292
 21
798.6062622360998
 31
0.0
  0
LINE
  5
9E4
330
1F
100
AcDbEntity
  8
SLD-0
100
AcDbLine
 10
-558.4334137053293
 20
776.0874188236999
 30
0.0
 11
-558.4334137053293
 21
792.4465096288001
 31
0.0
  0
LINE
  5
9E5
330
1F
100
AcDbEntity
  8
SLD-0
100
AcDbLine
 10
-869.8334099859292
 20
792.4465096288001
 30
0.0
 11
-869.8334099859292
 21
776.0874188236999
 31
0.0
  0
LINE
  5
9E6
330
1F
100
AcDbEntity
  8
SLD-0
100
AcDbLine
 10
-897.7135570854291
 20
650.0480628304
 30
0.0
 11
-902.9336126656292
 21
635.7060528092
 31
0.0
  0
LINE
  5
9E7
330
1F
100
AcDbEntity
  8
SLD-0
100
AcDbLine
 10
-902.9336126656292
 20
322.3060562007
 30
0.0
 11
-897.7135570854291
 21
307.9640350037
 31
0.0
  0
LINE
  5
9E8
330
1F
100
AcDbEntity
  8
SLD-0
100
AcDbLine
 10
-897.7135570854291
 20
307.9640350037
 30
0.0
 11
-896.7738600582281
 21
308.3060576312
 31
0.0
  0
LINE
  5
9E9
330
1F
100
AcDbEntity
  8
SLD-0
100
AcDbLine
 10
-896.7738600582281
 20
649.7060513787
 30
0.0
 11
-897.7135570854291
 21
650.0480628304
 31
0.0
  0
LWPOLYLINE
  5
9EA
330
1F
100
AcDbEntity
  8
SLD-0
100
AcDbPolyline
 90
        3
 70
   128
 43
0.0
 10
-867.5334157557293
 20
637.7144313149
 10
-867.8678648681291
 20
637.306854754
 10
-868.2310955734292
 20
636.5060663514
  0
LWPOLYLINE
  5
9EB
330
1F
100
AcDbEntity
  8
SLD-0
100
AcDbPolyline
 90
        3
 70
   128
 43
0.0
 10
-868.2310955734292
 20
321.5060575597
 10
-867.8678648681291
 20
320.7052505307
 10
-867.5334157557293
 20
320.2976814203
  0
LINE
  5
9EC
330
1F
100
AcDbEntity
  8
SLD-0
100
AcDbLine
 10
-868.2310955734292
 20
636.5060663514
 30
0.0
 11
-877.8441252321293
 21
636.5060663514
 31
0.0
  0
LINE
  5
9ED
330
1F
100
AcDbEntity
  8
SLD-0
100
AcDbLine
 10
-877.8441252321293
 20
321.5060575597
 30
0.0
 11
-868.2310955734292
 21
321.5060575597
 31
0.0
  0
LINE
  5
9EE
330
1F
100
AcDbEntity
  8
SLD-0
100
AcDbLine
 10
-877.8441252321293
 20
636.5060663514
 30
0.0
 11
-880.4147841543293
 21
634.7060656837999
 31
0.0
  0
LINE
  5
9EF
330
1F
100
AcDbEntity
  8
SLD-0
100
AcDbLine
 10
-880.4147841543293
 20
323.3060582273
 30
0.0
 11
-877.8441252321293
 21
321.5060575597
 31
0.0
  0
LINE
  5
9F0
330
1F
100
AcDbEntity
  8
SLD-0
100
AcDbLine
 10
-903.2334091276291
 20
636.5060663514
 30
0.0
 11
-906.9834055514293
 21
636.5060663514
 31
0.0
  0
LINE
  5
9F1
330
1F
100
AcDbEntity
  8
SLD-0
100
AcDbLine
 10
-906.9834055514293
 20
321.5060575597
 30
0.0
 11
-903.2334091276291
 21
321.5060575597
 31
0.0
  0
ARC
  5
9F2
330
1F
100
AcDbEntity
  8
SLD-0
100
AcDbCircle
 10
-906.9834121363292
 20
635.2560566548
 30
0.0
 40
1.25
100
AcDbArc
 50
90.0
 51
180.0
  0
ARC
  5
9F3
330
1F
100
AcDbEntity
  8
SLD-0
100
AcDbCircle
 10
-906.9834121363292
 20
322.7560566548
 30
0.0
 40
1.250000000000057
100
AcDbArc
 50
180.0
 51
270.0
  0
LINE
  5
9F4
330
1F
100
AcDbEntity
  8
SLD-0
100
AcDbLine
 10
-908.2334192604292
 20
635.2560675434999
 30
0.0
 11
-908.2334192604292
 21
322.7560563676
 31
0.0
  0
LINE
  5
9F5
330
1F
100
AcDbEntity
  8
SLD-0
100
AcDbLine
 10
-902.9336126656292
 20
635.7060528092
 30
0.0
 11
-903.2334091276291
 21
635.7060528092
 31
0.0
  0
LINE
  5
9F6
330
1F
100
AcDbEntity
  8
SLD-0
100
AcDbLine
 10
-903.2334091276291
 20
322.3060562007
 30
0.0
 11
-902.9336126656292
 21
322.3060562007
 31
0.0
  0
LINE
  5
9F7
330
1F
100
AcDbEntity
  8
SLD-0
100
AcDbLine
 10
-880.4147841543293
 20
634.7060656837999
 30
0.0
 11
-896.7738600582281
 21
634.7060656837999
 31
0.0
  0
LINE
  5
9F8
330
1F
100
AcDbEntity
  8
SLD-0
100
AcDbLine
 10
-896.7738600582281
 20
323.3060582273
 30
0.0
 11
-880.4147841543293
 21
323.3060582273
 31
0.0
  0
LINE
  5
A35
330
1F
100
AcDbEntity
  8
SLD-0
100
AcDbLine
 10
-313.8042541355292
 20
579.5560634426998
 30
0.0
 11
-374.9334069103292
 21
579.5560634426998
 31
0.0
  0
LINE
  5
A36
330
1F
100
AcDbEntity
  8
SLD-0
100
AcDbLine
 10
-374.9334069103292
 20
382.0560562156
 30
0.0
 11
-313.8042541355292
 21
382.0560562156
 31
0.0
  0
ARC
  5
A37
330
1F
100
AcDbEntity
  8
SLD-0
100
AcDbCircle
 10
-313.804247011729
 20
576.3060566546998
 30
0.0
 40
3.249999999999886
100
AcDbArc
 50
60.00000004860042
 51
90.0
  0
ARC
  5
A38
330
1F
100
AcDbEntity
  8
SLD-0
100
AcDbCircle
 10
-313.804247011729
 20
385.3060566547
 30
0.0
 40
3.249999999999943
100
AcDbArc
 50
270.0
 51
299.9999999514005
  0
LINE
  5
A39
330
1F
100
AcDbEntity
  8
SLD-0
100
AcDbLine
 10
-312.1792527050293
 20
382.4914737337
 30
0.0
 11
-284.5584007115293
 21
398.4383723431
 31
0.0
  0
LINE
  5
A3A
330
1F
100
AcDbEntity
  8
SLD-0
100
AcDbLine
 10
-284.5584007115293
 20
563.1737417273
 30
0.0
 11
-312.1792527050293
 21
579.1206366115
 31
0.0
  0
ARC
  5
A3B
330
1F
100
AcDbEntity
  8
SLD-0
100
AcDbCircle
 10
-286.1834121363291
 20
560.3591602042
 30
0.0
 40
3.249999999999971
100
AcDbArc
 50
0.0
 51
59.99999999999972
  0
ARC
  5
A3C
330
1F
100
AcDbEntity
  8
SLD-0
100
AcDbCircle
 10
-286.1834121363291
 20
401.2529531052999
 30
0.0
 40
3.25
100
AcDbArc
 50
299.9999999999998
 51
0.0
  0
LINE
  5
A3D
330
1F
100
AcDbEntity
  8
SLD-0
100
AcDbLine
 10
-282.9333992810293
 20
401.2529520980999
 30
0.0
 11
-282.9333992810293
 21
560.3591656976
 31
0.0
  0
LINE
  5
A45
330
1F
100
AcDbEntity
  8
SLD-0
100
AcDbLine
 10
-559.4334157318292
 20
385.9635132097
 30
0.0
 11
-374.9334069103292
 21
385.9635132097
 31
0.0
  0
LINE
  5
A46
330
1F
100
AcDbEntity
  8
SLD-0
100
AcDbLine
 10
-374.9334069103292
 20
575.6486064486
 30
0.0
 11
-396.3248284668293
 21
575.6486064486
 31
0.0
  0
LINE
  5
A47
330
1F
100
AcDbEntity
  8
SLD-0
100
AcDbLine
 10
-396.3248284668293
 20
575.6486064486
 30
0.0
 11
-559.4334157318292
 21
575.6486064486
 31
0.0
  0
ARC
  5
A4F
330
1F
100
AcDbEntity
  8
SLD-0
100
AcDbCircle
 10
-863.3804808642292
 20
519.2216066463998
 30
0.0
 40
4.999999999998297
100
AcDbArc
 50
146.1590076814992
 51
172.1320762394995
  0
ARC
  5
A50
330
1F
100
AcDbEntity
  8
SLD-0
100
AcDbCircle
 10
-863.3804808642292
 20
518.7905066631998
 30
0.0
 40
5.000000000005265
100
AcDbArc
 50
187.8679237608001
 51
213.8409923186011
  0
LINE
  5
A5F
330
1F
100
AcDbEntity
  8
SLD-0
100
AcDbLine
 10
-643.6334105343292
 20
175.5060559802
 30
0.0
 11
-643.6334105343292
 21
174.3060505681
 31
0.0
  0
LINE
  5
A60
330
1F
100
AcDbEntity
  8
SLD-0
100
AcDbLine
 10
-630.633413991429
 20
174.3060505681
 30
0.0
 11
-630.633413991429
 21
175.5060559802
 31
0.0
  0
ARC
  5
A61
330
1F
100
AcDbEntity
  8
SLD-0
100
AcDbCircle
 10
-630.9334121363293
 20
174.3060566548
 30
0.0
 40
0.3000000000000682
100
AcDbArc
 50
270.0
 51
0.0
  0
ARC
  5
A62
330
1F
100
AcDbEntity
  8
SLD-0
100
AcDbCircle
 10
-643.3334121363293
 20
174.3060566548
 30
0.0
 40
0.3000000000000398
100
AcDbArc
 50
180.0
 51
270.0
  0
LINE
  5
A63
330
1F
100
AcDbEntity
  8
SLD-0
100
AcDbLine
 10
-850.6334127993291
 20
175.5060559802
 30
0.0
 11
-850.6334127993291
 21
174.3060505681
 31
0.0
  0
LINE
  5
A64
330
1F
100
AcDbEntity
  8
SLD-0
100
AcDbLine
 10
-837.6334088058293
 20
174.3060505681
 30
0.0
 11
-837.6334088058293
 21
175.5060559802
 31
0.0
  0
ARC
  5
A65
330
1F
100
AcDbEntity
  8
SLD-0
100
AcDbCircle
 10
-837.9334121363293
 20
174.3060566548
 30
0.0
 40
0.3000000000000682
100
AcDbArc
 50
270.0
 51
0.0
  0
ARC
  5
A66
330
1F
100
AcDbEntity
  8
SLD-0
100
AcDbCircle
 10
-850.3334121363291
 20
174.3060566548
 30
0.0
 40
0.3000000000001819
100
AcDbArc
 50
180.0
 51
270.0
  0
LINE
  5
A6B
330
1F
100
AcDbEntity
  8
SLD-0
100
AcDbLine
 10
-614.1334178061295
 20
712.5060713582
 30
0.0
 11
-614.1334178061295
 21
708.906070023
 31
0.0
  0
LINE
  5
A6C
330
1F
100
AcDbEntity
  8
SLD-0
100
AcDbLine
 10
-614.1334178061295
 20
708.906070023
 30
0.0
 11
-614.4334079832292
 21
708.906070023
 31
0.0
  0
LINE
  5
A6D
330
1F
100
AcDbEntity
  8
SLD-0
100
AcDbLine
 10
-543.0913867563293
 20
793.386206656
 30
0.0
 11
-885.1754369349292
 21
793.386206656
 31
0.0
  0
LINE
  5
A6E
330
1F
100
AcDbEntity
  8
SLD-0
100
AcDbLine
 10
-543.4334131092291
 20
792.4465096288001
 30
0.0
 11
-884.8334105820293
 21
792.4465096288001
 31
0.0
  0
LINE
  5
A6F
330
1F
100
AcDbEntity
  8
SLD-0
100
AcDbLine
 10
-557.433411678729
 20
798.6062622360998
 30
0.0
 11
-870.8334120125292
 21
798.6062622360998
 31
0.0
  0
LINE
  5
A70
330
1F
100
AcDbEntity
  8
SLD-0
100
AcDbLine
 10
-561.9334133476293
 20
712.5060713582
 30
0.0
 11
-549.6334137530293
 21
712.5060713582
 31
0.0
  0
LINE
  5
A71
330
1F
100
AcDbEntity
  8
SLD-0
100
AcDbLine
 10
-605.4334195465292
 20
712.5060713582
 30
0.0
 11
-616.1334069580294
 21
712.5060713582
 31
0.0
  0
LINE
  5
A72
330
1F
100
AcDbEntity
  8
SLD-0
100
AcDbLine
 10
-865.1334123821291
 20
712.5060713582
 30
0.0
 11
-878.6334099383291
 21
712.5060713582
 31
0.0
  0
LINE
  5
A73
330
1F
100
AcDbEntity
  8
SLD-0
100
AcDbLine
 10
-878.6334099383291
 20
714.6060622028999
 30
0.0
 11
-549.6334137530293
 21
714.6060622028999
 31
0.0
  0
LINE
  5
A74
330
1F
100
AcDbEntity
  8
SLD-0
100
AcDbLine
 10
-556.6334130377293
 20
758.6883759788998
 30
0.0
 11
-871.6334106535292
 21
758.6883759788998
 31
0.0
  0
LINE
  5
A75
330
1F
100
AcDbEntity
  8
SLD-0
100
AcDbLine
 10
-556.6334130377293
 20
763.9037227921001
 30
0.0
 11
-871.6334106535292
 21
763.9037227921001
 31
0.0
  0
LINE
  5
A76
330
1F
100
AcDbEntity
  8
SLD-0
100
AcDbLine
 10
-556.6334130377293
 20
798.9060437969998
 30
0.0
 11
-871.6334106535292
 21
798.9060437969998
 31
0.0
  0
LINE
  5
A78
330
1F
100
AcDbEntity
  8
SLD-0
100
AcDbLine
 10
-556.6334130377293
 20
773.5167599014999
 30
0.0
 11
-871.6334106535292
 21
773.5167599014999
 31
0.0
  0
LINE
  5
A79
330
1F
100
AcDbEntity
  8
SLD-0
100
AcDbLine
 10
-558.4334137053293
 20
776.0874188236999
 30
0.0
 11
-869.8334099859292
 21
776.0874188236999
 31
0.0
  0
LINE
  5
A7A
330
1F
100
AcDbEntity
  8
SLD-0
100
AcDbLine
 10
-902.9336126656292
 20
635.7060528092
 30
0.0
 11
-902.9336126656292
 21
322.3060562007
 31
0.0
  0
LINE
  5
A7B
330
1F
100
AcDbEntity
  8
SLD-0
100
AcDbLine
 10
-897.7135570854291
 20
650.0480628304
 30
0.0
 11
-897.7135570854291
 21
307.9640350037
 31
0.0
  0
LINE
  5
A7C
330
1F
100
AcDbEntity
  8
SLD-0
100
AcDbLine
 10
-896.7738600582281
 20
649.7060513787
 30
0.0
 11
-896.7738600582281
 21
308.3060576312
 31
0.0
  0
LINE
  5
A7D
330
1F
100
AcDbEntity
  8
SLD-0
100
AcDbLine
 10
-868.2310955734292
 20
636.5060663514
 30
0.0
 11
-868.2310955734292
 21
520.4346931271
 31
0.0
  0
LINE
  5
A7E
330
1F
100
AcDbEntity
  8
SLD-0
100
AcDbLine
 10
-868.2310955734292
 20
517.5774252705
 30
0.0
 11
-868.2310955734292
 21
370.434685304
 31
0.0
  0
LINE
  5
A7F
330
1F
100
AcDbEntity
  8
SLD-0
100
AcDbLine
 10
-868.2310955734292
 20
370.434685304
 30
0.0
 11
-868.2310955734292
 21
321.5060575597
 31
0.0
  0
LINE
  5
A80
330
1F
100
AcDbEntity
  8
SLD-0
100
AcDbLine
 10
-877.8441252321293
 20
636.5060663514
 30
0.0
 11
-877.8441252321293
 21
321.5060575597
 31
0.0
  0
LINE
  5
A81
330
1F
100
AcDbEntity
  8
SLD-0
100
AcDbLine
 10
-880.4147841543293
 20
634.7060656837999
 30
0.0
 11
-880.4147841543293
 21
323.3060582273
 31
0.0
  0
LINE
  5
A82
330
1F
100
AcDbEntity
  8
SLD-0
100
AcDbLine
 10
-903.2334091276291
 20
636.5060663514
 30
0.0
 11
-903.2334091276291
 21
321.5060575597
 31
0.0
  0
LINE
  5
A94
330
1F
100
AcDbEntity
  8
SLD-0
100
AcDbLine
 10
-866.8334113569292
 20
176.7560547881
 30
0.0
 11
-867.5334157557293
 21
176.7560547881
 31
0.0
  0
LINE
  5
A95
330
1F
100
AcDbEntity
  8
SLD-0
100
AcDbLine
 10
-867.5334157557293
 20
176.7560547881
 30
0.0
 11
-867.5334157557293
 21
181.7560500197
 31
0.0
  0
LINE
  5
A97
330
1F
100
AcDbEntity
  8
SLD-0
100
AcDbLine
 10
-866.8334113569292
 20
181.7560500197
 30
0.0
 11
-866.8334113569292
 21
179.5766061835
 31
0.0
  0
LINE
  5
A98
330
1F
100
AcDbEntity
  8
SLD-0
100
AcDbLine
 10
-866.8334113569292
 20
177.206054955
 30
0.0
 11
-866.8334113569292
 21
176.7560547881
 31
0.0
  0
LINE
  5
A9A
330
1F
100
AcDbEntity
  8
SLD-0
100
AcDbLine
 10
-866.8334113569292
 20
706.2560475163
 30
0.0
 11
-866.8334113569292
 21
181.7560500197
 31
0.0
  0
LINE
  5
A9B
330
1F
100
AcDbEntity
  8
SLD-0
100
AcDbLine
 10
-867.5334157557293
 20
706.2560475163
 30
0.0
 11
-867.5334157557293
 21
181.7560500197
 31
0.0
  0
LINE
  5
A9C
330
1F
100
AcDbEntity
  8
SLD-0
100
AcDbLine
 10
-867.5334157557293
 20
711.256042748
 30
0.0
 11
-866.8334113569292
 21
711.256042748
 31
0.0
  0
LINE
  5
A9D
330
1F
100
AcDbEntity
  8
SLD-0
100
AcDbLine
 10
-867.5334157557293
 20
706.2560475163
 30
0.0
 11
-867.5334157557293
 21
711.256042748
 31
0.0
  0
LINE
  5
A9E
330
1F
100
AcDbEntity
  8
SLD-0
100
AcDbLine
 10
-866.8334113569292
 20
711.256042748
 30
0.0
 11
-866.8334113569292
 21
710.8060574821998
 31
0.0
  0
LINE
  5
A9F
330
1F
100
AcDbEntity
  8
SLD-0
100
AcDbLine
 10
-866.8334113569292
 20
708.4354913524999
 30
0.0
 11
-866.8334113569292
 21
706.2560475163
 31
0.0
  0
LINE
  5
B18
330
1F
100
AcDbEntity
  8
SLD-0
100
AcDbLine
 10
-374.9334069103292
 20
382.0560562156
 30
0.0
 11
-374.9334069103292
 21
385.9635132097
 31
0.0
  0
LINE
  5
B1D
330
1F
100
AcDbEntity
  8
SLD-0
100
AcDbLine
 10
-374.9334069103292
 20
385.9635132097
 30
0.0
 11
-374.9334069103292
 21
579.5560634426998
 31
0.0
  0
LINE
  5
C02
330
1F
100
AcDbEntity
  8
SLD-0
100
AcDbLine
 10
-478.9334090561293
 20
575.6486064486
 30
0.0
 11
-478.9334090561293
 21
583.7935513548999
 31
0.0
  0
LINE
  5
C12
330
1F
100
AcDbEntity
  8
SLD-0
100
AcDbLine
 10
-470.9272535652293
 20
631.7935443215
 30
0.0
 11
-559.4334157318292
 21
631.7935443215
 31
0.0
  0
LINE
  5
C13
330
1F
100
AcDbEntity
  8
SLD-0
100
AcDbLine
 10
-466.9334145397293
 20
631.7935443215
 30
0.0
 11
-467.4071820587291
 21
640.3213000587999
 31
0.0
  0
LINE
  5
C14
330
1F
100
AcDbEntity
  8
SLD-0
100
AcDbLine
 10
-466.9334145397293
 20
631.7935443215
 30
0.0
 11
-470.9272535652293
 21
631.7935443215
 31
0.0
  0
LINE
  5
C15
330
1F
100
AcDbEntity
  8
SLD-0
100
AcDbLine
 10
-467.4071820587291
 20
640.3213000587999
 30
0.0
 11
-467.5595911354291
 21
640.3266942792
 31
0.0
  0
LINE
  5
C1D
330
1F
100
AcDbEntity
  8
SLD-0
100
AcDbLine
 10
-469.9334057183293
 20
631.7935443215
 30
0.0
 11
-471.9331713528291
 21
590.7984680228
 31
0.0
  0
LINE
  5
C1F
330
1F
100
AcDbEntity
  8
SLD-0
100
AcDbLine
 10
-471.933409771429
 20
590.7935506395999
 30
0.0
 11
-471.9331713528291
 21
590.7984680228
 31
0.0
  0
LINE
  5
C20
330
1F
100
AcDbEntity
  8
SLD-0
100
AcDbLine
 10
-471.933409771429
 20
590.7935506395999
 30
0.0
 11
-478.3476146073293
 21
584.3793309026
 31
0.0
  0
LINE
  5
C3A
330
1F
100
AcDbEntity
  8
SLD-0
100
AcDbLine
 10
-607.9334171623291
 20
176.7560547881
 30
0.0
 11
-609.4334127516292
 21
176.7560547881
 31
0.0
  0
LINE
  5
C3B
330
1F
100
AcDbEntity
  8
SLD-0
100
AcDbLine
 10
-609.4334127516292
 20
176.7560547881
 30
0.0
 11
-609.4334127516292
 21
181.7560500197
 31
0.0
  0
LINE
  5
C3C
330
1F
100
AcDbEntity
  8
SLD-0
100
AcDbLine
 10
-609.4334127516292
 20
181.7560500197
 30
0.0
 11
-607.9334171623291
 21
181.7560500197
 31
0.0
  0
LINE
  5
C3D
330
1F
100
AcDbEntity
  8
SLD-0
100
AcDbLine
 10
-607.9334171623291
 20
181.7560500197
 30
0.0
 11
-607.9334171623291
 21
179.5060640864
 31
0.0
  0
LINE
  5
C3E
330
1F
100
AcDbEntity
  8
SLD-0
100
AcDbLine
 10
-607.9334171623291
 20
178.006053596
 30
0.0
 11
-607.9334171623291
 21
176.7560547881
 31
0.0
  0
LINE
  5
C3F
330
1F
100
AcDbEntity
  8
SLD-0
100
AcDbLine
 10
-607.9334171623291
 20
706.2560475163
 30
0.0
 11
-609.4334127516292
 21
706.2560475163
 31
0.0
  0
LINE
  5
C40
330
1F
100
AcDbEntity
  8
SLD-0
100
AcDbLine
 10
-607.9334171623291
 20
706.2560475163
 30
0.0
 11
-607.9334171623291
 21
181.7560500197
 31
0.0
  0
LINE
  5
C41
330
1F
100
AcDbEntity
  8
SLD-0
100
AcDbLine
 10
-609.4334127516292
 20
706.2560475163
 30
0.0
 11
-609.4334127516292
 21
181.7560500197
 31
0.0
  0
LINE
  5
C42
330
1F
100
AcDbEntity
  8
SLD-0
100
AcDbLine
 10
-609.4334127516292
 20
711.256042748
 30
0.0
 11
-607.9334171623291
 21
711.256042748
 31
0.0
  0
LINE
  5
C43
330
1F
100
AcDbEntity
  8
SLD-0
100
AcDbLine
 10
-607.9334171623291
 20
711.256042748
 30
0.0
 11
-607.9334171623291
 21
710.0060439401
 31
0.0
  0
LINE
  5
C44
330
1F
100
AcDbEntity
  8
SLD-0
100
AcDbLine
 10
-607.9334171623291
 20
708.4354913524999
 30
0.0
 11
-607.9334171623291
 21
706.2560475163
 31
0.0
  0
LINE
  5
C45
330
1F
100
AcDbEntity
  8
SLD-0
100
AcDbLine
 10
-609.4334127516292
 20
706.2560475163
 30
0.0
 11
-609.4334127516292
 21
711.256042748
 31
0.0
  0
LINE
  5
C4C
330
1F
100
AcDbEntity
  8
SLD-0
100
AcDbLine
 10
-607.9334171623291
 20
709.829286366
 30
0.0
 11
-607.9334171623291
 21
708.4354913524999
 31
0.0
  0
LINE
  5
C4D
330
1F
100
AcDbEntity
  8
SLD-0
100
AcDbLine
 10
-607.9334171623291
 20
179.5766061835
 30
0.0
 11
-607.9334171623291
 21
178.1828260713
 31
0.0
  0
LINE
  5
C52
330
1F
100
AcDbEntity
  8
SLD-0
100
AcDbLine
 10
-559.4334157318292
 20
178.006053596
 30
0.0
 11
-559.4334157318292
 21
710.0060439401
 31
0.0
  0
ARC
  5
C54
330
1F
100
AcDbEntity
  8
SLD-0
100
AcDbCircle
 10
-561.9334121363293
 20
178.0060566548
 30
0.0
 40
2.499999999999943
100
AcDbArc
 50
270.0
 51
0.0000000011001768
  0
LINE
  5
C58
330
1F
100
AcDbEntity
  8
SLD-0
100
AcDbLine
 10
-605.4334195465292
 20
175.5060559802
 30
0.0
 11
-561.9334133476293
 21
175.5060559802
 31
0.0
  0
LINE
  5
C5A
330
1F
100
AcDbEntity
  8
SLD-0
100
AcDbLine
 10
-561.9334133476293
 20
712.5060713582
 30
0.0
 11
-605.4334195465292
 21
712.5060713582
 31
0.0
  0
ARC
  5
C5D
330
1F
100
AcDbEntity
  8
SLD-0
100
AcDbCircle
 10
-561.9334121363293
 20
710.0060566547997
 30
0.0
 40
2.5
100
AcDbArc
 50
0.0
 51
90.0
  0
ARC
  5
C5F
330
1F
100
AcDbEntity
  8
SLD-0
100
AcDbCircle
 10
-605.4334121363293
 20
710.0060566547997
 30
0.0
 40
2.500000000000114
100
AcDbArc
 50
90.0
 51
180.0
  0
LINE
  5
C61
330
1F
100
AcDbEntity
  8
SLD-0
100
AcDbLine
 10
-607.8940333933292
 20
710.0060439401
 30
0.0
 11
-607.9334171623291
 21
710.0060439401
 31
0.0
  0
ARC
  5
C62
330
1F
100
AcDbEntity
  8
SLD-0
100
AcDbCircle
 10
-605.4334121363293
 20
178.0060566548
 30
0.0
 40
2.5
100
AcDbArc
 50
180.0
 51
270.0
  0
LINE
  5
C63
330
1F
100
AcDbEntity
  8
SLD-0
100
AcDbLine
 10
-607.8940333933292
 20
178.006053596
 30
0.0
 11
-607.9334171623291
 21
178.006053596
 31
0.0
  0
LINE
  5
C65
330
1F
100
AcDbEntity
  8
SLD-0
100
AcDbLine
 10
-607.9334171623291
 20
178.006053596
 30
0.0
 11
-607.9334171623291
 21
178.1828260713
 31
0.0
  0
LINE
  5
C66
330
1F
100
AcDbEntity
  8
SLD-0
100
AcDbLine
 10
-607.9334171623291
 20
709.829286366
 30
0.0
 11
-607.9334171623291
 21
710.0060439401
 31
0.0
  0
LINE
  5
C67
330
1F
100
AcDbEntity
  8
SLD-0
100
AcDbLine
 10
-277.3334236950292
 20
174.0060603909
 30
0.0
 11
-897.3334135622292
 21
174.0060603909
 31
0.0
  0
LINE
  5
C68
330
1F
100
AcDbEntity
  8
SLD-0
100
AcDbLine
 10
-277.3334236950292
 20
174.0060603909
 30
0.0
 11
-277.3334236950292
 21
171.0060543113
 31
0.0
  0
LINE
  5
C6A
330
1F
100
AcDbEntity
  8
SLD-0
100
AcDbLine
 10
-897.3334135622292
 20
174.0060603909
 30
0.0
 11
-897.3334135622292
 21
171.0060543113
 31
0.0
  0
LINE
  5
C6D
330
1F
100
AcDbEntity
  8
SLD-0
100
AcDbLine
 10
-277.3334236950292
 20
171.0060543113
 30
0.0
 11
-277.3334236950292
 21
152.0060605101
 31
0.0
  0
ARC
  5
C6E
330
1F
100
AcDbEntity
  8
SLD-0
100
AcDbCircle
 10
-280.3334121363293
 20
152.0060566548
 30
0.0
 40
3.000000000000028
100
AcDbArc
 50
270.0
 51
0.0
  0
LINE
  5
C6F
330
1F
100
AcDbEntity
  8
SLD-0
100
AcDbLine
 10
-280.3334148735291
 20
149.0060544305
 30
0.0
 11
-894.3334074825293
 21
149.0060544305
 31
0.0
  0
LINE
  5
C70
330
1F
100
AcDbEntity
  8
SLD-0
100
AcDbLine
 10
-897.3334135622292
 20
171.0060543113
 30
0.0
 11
-897.3334135622292
 21
152.0060605101
 31
0.0
  0
ARC
  5
C71
330
1F
100
AcDbEntity
  8
SLD-0
100
AcDbCircle
 10
-894.3334121363291
 20
152.0060566548
 30
0.0
 40
3.000000000000028
100
AcDbArc
 50
180.0
 51
270.0
  0
LINE
  5
C72
330
1F
100
AcDbEntity
  8
SLD-0
100
AcDbLine
 10
-612.4334188313292
 20
708.506063252
 30
0.0
 11
-612.4334188313292
 21
695.5060518078997
 31
0.0
  0
LINE
  5
C73
330
1F
100
AcDbEntity
  8
SLD-0
100
AcDbLine
 10
-612.4334188313292
 20
695.5060518078997
 30
0.0
 11
-614.4334079832292
 21
695.5060518078997
 31
0.0
  0
LINE
  5
C74
330
1F
100
AcDbEntity
  8
SLD-0
100
AcDbLine
 10
-612.4334188313292
 20
708.506063252
 30
0.0
 11
-614.4334079832292
 21
708.506063252
 31
0.0
  0
LWPOLYLINE
  5
C75
330
1F
100
AcDbEntity
  8
SLD-0
100
AcDbPolyline
 90
        3
 70
   128
 43
0.0
 10
-609.4334127516292
 20
707.7022052102002
 10
-610.8804943175292
 20
708.3016193203999
 10
-612.4334188313292
 20
708.506063252
  0
LINE
  5
C76
330
1F
100
AcDbEntity
  8
SLD-0
100
AcDbLine
 10
-612.4334188313292
 20
695.5060518078997
 30
0.0
 11
-612.4334188313292
 21
192.5060606294
 31
0.0
  0
LINE
  5
C77
330
1F
100
AcDbEntity
  8
SLD-0
100
AcDbLine
 10
-612.4334188313292
 20
192.5060606294
 30
0.0
 11
-614.4334079832292
 21
192.5060606294
 31
0.0
  0
LINE
  5
C78
330
1F
100
AcDbEntity
  8
SLD-0
100
AcDbLine
 10
-612.4334188313292
 20
192.5060606294
 30
0.0
 11
-612.4334188313292
 21
179.5060640864
 31
0.0
  0
LINE
  5
C79
330
1F
100
AcDbEntity
  8
SLD-0
100
AcDbLine
 10
-612.4334188313292
 20
179.5060640864
 30
0.0
 11
-614.4334079832292
 21
179.5060640864
 31
0.0
  0
LWPOLYLINE
  5
C7A
330
1F
100
AcDbEntity
  8
SLD-0
100
AcDbPolyline
 90
        3
 70
   128
 43
0.0
 10
-609.4334127516292
 20
180.309907227
 10
-610.8804943175292
 20
179.710508018
 10
-612.4334188313292
 20
179.5060640864
  0
LINE
  5
C7B
330
1F
100
AcDbEntity
  8
SLD-0
100
AcDbLine
 10
-612.4334188313292
 20
179.5060640864
 30
0.0
 11
-609.4334127516292
 21
179.5060640864
 31
0.0
  0
LINE
  5
C7D
330
1F
100
AcDbEntity
  8
SLD-0
100
AcDbLine
 10
-865.1334123821291
 20
711.1060476593999
 30
0.0
 11
-866.0873549194291
 21
711.1060476593999
 31
0.0
  0
LINE
  5
C7F
330
1F
100
AcDbEntity
  8
SLD-0
100
AcDbLine
 10
-616.1334069580294
 20
712.5060713582
 30
0.0
 11
-865.1334123821291
 21
712.5060713582
 31
0.0
  0
LINE
  5
C80
330
1F
100
AcDbEntity
  8
SLD-0
100
AcDbLine
 10
-865.1334123821291
 20
710.8060574821998
 30
0.0
 11
-865.1334123821291
 21
712.5060713582
 31
0.0
  0
ARC
  5
C81
330
1F
100
AcDbEntity
  8
SLD-0
100
AcDbCircle
 10
-865.1334121363293
 20
710.8060566547997
 30
0.0
 40
1.700000000000159
100
AcDbArc
 50
90.0
 51
180.0
  0
ARC
  5
C82
330
1F
100
AcDbEntity
  8
SLD-0
100
AcDbCircle
 10
-865.1334121363293
 20
710.8060566547997
 30
0.0
 40
1.000000000000113
100
AcDbArc
 50
90.0
 51
180.0
  0
ARC
  5
C83
330
1F
100
AcDbEntity
  8
SLD-0
100
AcDbCircle
 10
-616.1334121363293
 20
710.8060566547997
 30
0.0
 40
1.700000000000045
100
AcDbArc
 50
0.0
 51
90.0
  0
LINE
  5
C85
330
1F
100
AcDbEntity
  8
SLD-0
100
AcDbLine
 10
-868.3334143967293
 20
519.9060595326
 30
0.0
 11
-868.3334143967293
 21
518.1060588651
 31
0.0
  0
LINE
  5
C90
330
1F
100
AcDbEntity
  8
SLD-0
100
AcDbLine
 10
-866.8334113569292
 20
710.8060574821998
 30
0.0
 11
-866.8334113569292
 21
708.4354913524999
 31
0.0
  0
LINE
  5
C91
330
1F
100
AcDbEntity
  8
SLD-0
100
AcDbLine
 10
-866.8334113569292
 20
179.5766061835
 30
0.0
 11
-866.8334113569292
 21
177.206054955
 31
0.0
  0
LINE
  5
C92
330
1F
100
AcDbEntity
  8
SLD-0
100
AcDbLine
 10
-866.8334113569292
 20
710.8060574821998
 30
0.0
 11
-865.1334123821291
 21
710.8060574821998
 31
0.0
  0
LINE
  5
C98
330
1F
100
AcDbEntity
  8
SLD-0
100
AcDbLine
 10
-614.4334079832292
 20
177.206054955
 30
0.0
 11
-614.4334079832292
 21
710.8060574821998
 31
0.0
  0
LINE
  5
CB8
330
1F
100
AcDbEntity
  8
SLD-0
100
AcDbLine
 10
-865.1334123821291
 20
175.5060559802
 30
0.0
 11
-616.1334069580294
 21
175.5060559802
 31
0.0
  0
ARC
  5
CB9
330
1F
100
AcDbEntity
  8
SLD-0
100
AcDbCircle
 10
-865.1334121363293
 20
177.2060566548
 30
0.0
 40
1.700000000000045
100
AcDbArc
 50
180.0
 51
270.0
  0
ARC
  5
CBB
330
1F
100
AcDbEntity
  8
SLD-0
100
AcDbCircle
 10
-616.1334121363293
 20
177.2060566548
 30
0.0
 40
1.7000000000001
100
AcDbArc
 50
270.0
 51
0.0
  0
LINE
  5
CBD
330
1F
100
AcDbEntity
  8
SLD-0
100
AcDbLine
 10
-556.6334130377293
 20
802.656070023
 30
0.0
 11
-871.6334106535292
 21
802.656070023
 31
0.0
  0
LINE
  5
CBE
330
1F
100
AcDbEntity
  8
SLD-0
100
AcDbLine
 10
-906.9834055514293
 20
636.5060663514
 30
0.0
 11
-906.9834055514293
 21
321.5060575597
 31
0.0
  0
LINE
  5
CC6
330
1F
100
AcDbEntity
  8
SLD-0
100
AcDbLine
 10
-313.8042541355292
 20
550.6328499608001
 30
0.0
 11
-313.8042541355292
 21
382.0560562156
 31
0.0
  0
LINE
  5
CC7
330
1F
100
AcDbEntity
  8
SLD-0
100
AcDbLine
 10
-313.8042541355292
 20
579.5560634426998
 30
0.0
 11
-313.8042541355292
 21
550.6328499608001
 31
0.0
  0
LINE
  5
CC8
330
1F
100
AcDbEntity
  8
SLD-0
100
AcDbLine
 10
-312.1792527050293
 20
550.3249621682
 30
0.0
 11
-312.1792527050293
 21
382.4914737337
 31
0.0
  0
LINE
  5
CC9
330
1F
100
AcDbEntity
  8
SLD-0
100
AcDbLine
 10
-312.1792527050293
 20
579.1206366115
 30
0.0
 11
-312.1792527050293
 21
550.3249621682
 31
0.0
  0
LINE
  5
CCA
330
1F
100
AcDbEntity
  8
SLD-0
100
AcDbLine
 10
-284.5584007115293
 20
539.048806458
 30
0.0
 11
-284.5584007115293
 21
398.4383723431
 31
0.0
  0
LINE
  5
CCB
330
1F
100
AcDbEntity
  8
SLD-0
100
AcDbLine
 10
-284.5584007115293
 20
563.1737417273
 30
0.0
 11
-284.5584007115293
 21
539.048806458
 31
0.0
  0
LINE
  5
CF7
330
1F
100
AcDbEntity
  8
SLD-0
100
AcDbLine
 10
-471.4010210842293
 20
640.3213000587999
 30
0.0
 11
-558.633417090829
 21
640.3213000587999
 31
0.0
  0
SPLINE
  5
CF8
330
1F
100
AcDbEntity
  8
SLD-0
100
AcDbSpline
210
0.0
220
0.0
230
1.0
 70
     8
 71
     3
 72
    11
 73
     7
 74
     0
 42
0.000000001
 43
0.0000000001
 40
0.0
 40
0.0
 40
0.0
 40
0.0
 40
0.1427120095277733
 40
0.4284181024072048
 40
0.7141230591620129
 40
1.0
 40
1.0
 40
1.0
 40
1.0
 10
-467.5595911354565
 20
640.3266942791828
 30
0.0
 10
-467.5961763804084
 20
640.3285974485842
 30
0.0
 10
-467.7060044269073
 20
640.3343107184497
 30
0.0
 10
-468.5230865497171
 20
640.3386502236928
 30
0.0
 10
-469.8279442192211
 20
640.3330974319795
 30
0.0
 10
-470.8765569563943
 20
640.3252333052964
 30
0.0
 10
-471.4010210842633
 20
640.3213000588307
 30
0.0
  0
LINE
  5
CFE
330
1F
100
AcDbEntity
  8
SLD-0
100
AcDbLine
 10
-609.4334127516292
 20
695.5060518078997
 30
0.0
 11
-612.4334188313292
 21
695.5060518078997
 31
0.0
  0
LINE
  5
CFF
330
1F
100
AcDbEntity
  8
SLD-0
100
AcDbLine
 10
-609.4334127516292
 20
192.5060606294
 30
0.0
 11
-612.4334188313292
 21
192.5060606294
 31
0.0
  0
LINE
  5
D01
330
1F
100
AcDbEntity
  8
SLD-0
100
AcDbLine
 10
-643.6334105343292
 20
174.3060505681
 30
0.0
 11
-630.633413991429
 21
174.3060505681
 31
0.0
  0
LINE
  5
D02
330
1F
100
AcDbEntity
  8
SLD-0
100
AcDbLine
 10
-850.6334127993291
 20
174.3060505681
 30
0.0
 11
-837.6334088058293
 21
174.3060505681
 31
0.0
  0
LINE
  5
D25
330
1F
100
AcDbEntity
  8
SLD-0
100
AcDbLine
 10
-1676.7161476781
 20
-667.7683891387999
 30
0.0
 11
-1677.4328190258
 21
-668.0019946428
 31
0.0
  0
ARC
  5
DA0
330
1F
100
AcDbEntity
  8
SLD-0
100
AcDbCircle
 10
-1678.432818572099
 20
-665.6606237957999
 30
0.0
 40
1.0
100
AcDbArc
 50
0.0
 51
90.0
  0
ARC
  5
DA1
330
1F
100
AcDbEntity
  8
SLD-0
100
AcDbCircle
 10
-1678.432818572099
 20
-693.1606237958
 30
0.0
 40
1.0
100
AcDbArc
 50
270.0
 51
0.0
  0
LINE
  5
DA2
330
1F
100
AcDbEntity
  8
SLD-0
100
AcDbLine
 10
-1678.4328191897
 20
-664.6606178613998
 30
0.0
 11
-1680.4328176549
 21
-664.6606178613998
 31
0.0
  0
LINE
  5
DA3
330
1F
100
AcDbEntity
  8
SLD-0
100
AcDbLine
 10
-1680.4328176549
 20
-694.1606105896
 30
0.0
 11
-1678.4328191897
 21
-694.1606105896
 31
0.0
  0
LINE
  5
DA4
330
1F
100
AcDbEntity
  8
SLD-0
100
AcDbLine
 10
-1697.4328185787
 20
-690.9106375309
 30
0.0
 11
-1686.4328186383
 21
-690.9106375309
 31
0.0
  0
LINE
  5
DA5
330
1F
100
AcDbEntity
  8
SLD-0
100
AcDbLine
 10
-1686.4328186383
 20
-667.9106207223999
 30
0.0
 11
-1697.4328185787
 21
-667.9106207223999
 31
0.0
  0
LINE
  5
DA6
330
1F
100
AcDbEntity
  8
SLD-0
100
AcDbLine
 10
-1697.4328185787
 20
-665.7554806801
 30
0.0
 11
-1711.9328181615
 21
-665.7554806801
 31
0.0
  0
LINE
  5
DA7
330
1F
100
AcDbEntity
  8
SLD-0
100
AcDbLine
 10
-1711.9328181615
 20
-692.4910844894
 30
0.0
 11
-1697.4328185787
 21
-692.4910844894
 31
0.0
  0
LINE
  5
DA8
330
1F
100
AcDbEntity
  8
SLD-0
100
AcDbLine
 10
-1934.6748392453
 20
-278.490662727
 30
0.0
 11
-1934.3328128924
 21
-279.4303597542
 31
0.0
  0
LINE
  5
DA9
330
1F
100
AcDbEntity
  8
SLD-0
100
AcDbLine
 10
-1592.9328154197
 20
-279.4303597542
 30
0.0
 11
-1592.5907965174
 21
-278.490662727
 31
0.0
  0
LINE
  5
DAA
330
1F
100
AcDbEntity
  8
SLD-0
100
AcDbLine
 10
-1592.5907965174
 20
-278.490662727
 30
0.0
 11
-1606.9328214397
 21
-273.2706071468
 31
0.0
  0
LINE
  5
DAB
330
1F
100
AcDbEntity
  8
SLD-0
100
AcDbLine
 10
-1920.332814323
 20
-273.2706071468
 30
0.0
 11
-1934.6748392453
 21
-278.490662727
 31
0.0
  0
LWPOLYLINE
  5
DAC
330
1F
100
AcDbEntity
  8
SLD-0
100
AcDbPolyline
 90
        3
 70
   128
 43
0.0
 10
-1921.132812964
 20
-307.9731242391
 10
-1921.9336311688
 20
-308.3363549443
 10
-1922.3411928287
 20
-308.6708040567
  0
LINE
  5
DAD
330
1F
100
AcDbEntity
  8
SLD-0
100
AcDbLine
 10
-1919.3328122964
 20
-295.7894356581
 30
0.0
 11
-1921.132812964
 21
-298.3600945803
 31
0.0
  0
LINE
  5
DAE
330
1F
100
AcDbEntity
  8
SLD-0
100
AcDbLine
 10
-1921.132812964
 20
-298.3600945803
 30
0.0
 11
-1921.132812964
 21
-307.9731242391
 31
0.0
  0
LINE
  5
DAF
330
1F
100
AcDbEntity
  8
SLD-0
100
AcDbLine
 10
-1606.1328153482
 20
-272.9708106848
 30
0.0
 11
-1606.1328153482
 21
-269.2208142611
 31
0.0
  0
LINE
  5
DB0
330
1F
100
AcDbEntity
  8
SLD-0
100
AcDbLine
 10
-1921.132812964
 20
-269.2208142611
 30
0.0
 11
-1921.132812964
 21
-272.9708106848
 31
0.0
  0
ARC
  5
DB1
330
1F
100
AcDbEntity
  8
SLD-0
100
AcDbCircle
 10
-1607.3828185721
 20
-269.2208076761
 30
0.0
 40
1.25
100
AcDbArc
 50
0.0
 51
90.0
  0
ARC
  5
DB2
330
1F
100
AcDbEntity
  8
SLD-0
100
AcDbCircle
 10
-1919.8828185721
 20
-269.2208076761
 30
0.0
 40
1.250000000000057
100
AcDbArc
 50
90.0
 51
180.0
  0
LINE
  5
DB3
330
1F
100
AcDbEntity
  8
SLD-0
100
AcDbLine
 10
-1607.3828216066
 20
-267.970800552
 30
0.0
 11
-1919.8828141561
 21
-267.970800552
 31
0.0
  0
LINE
  5
DB4
330
1F
100
AcDbEntity
  8
SLD-0
100
AcDbLine
 10
-1606.9328214397
 20
-273.2706071468
 30
0.0
 11
-1606.9328214397
 21
-272.9708106848
 31
0.0
  0
LINE
  5
DB5
330
1F
100
AcDbEntity
  8
SLD-0
100
AcDbLine
 10
-1920.332814323
 20
-272.9708106848
 30
0.0
 11
-1920.332814323
 21
-273.2706071468
 31
0.0
  0
LINE
  5
DB6
330
1F
100
AcDbEntity
  8
SLD-0
100
AcDbLine
 10
-1607.9328160157
 20
-293.7973739239
 30
0.0
 11
-1607.9328160157
 21
-279.4303597542
 31
0.0
  0
LINE
  5
DB7
330
1F
100
AcDbEntity
  8
SLD-0
100
AcDbLine
 10
-1919.3328122964
 20
-279.4303597542
 30
0.0
 11
-1919.3328122964
 21
-295.7894356581
 31
0.0
  0
SPLINE
  5
DBC
330
1F
100
AcDbEntity
  8
SLD-0
100
AcDbSpline
210
0.0
220
0.0
230
1.0
 70
     8
 71
     3
 72
     9
 73
     5
 74
     0
 42
0.000000001
 43
0.0000000001
 40
0.0
 40
0.0
 40
0.0
 40
0.0
 40
0.8390670156961748
 40
1.0
 40
1.0
 40
1.0
 40
1.0
 10
-1517.570654617788
 20
-678.0622454019614
 30
0.0
 10
-1517.548679140785
 20
-678.0615582276237
 30
0.0
 10
-1517.522488769107
 20
-678.0607392533047
 30
0.0
 10
-1517.522929737871
 20
-678.0607530633503
 30
0.0
 10
-1517.523000704291
 20
-678.060755285842
 30
0.0
  0
LINE
  5
DBD
330
1F
100
AcDbEntity
  8
SLD-0
100
AcDbLine
 10
-1478.9328228107
 20
-661.7708058687
 30
0.0
 11
-1476.9328187575
 21
-661.7708058687
 31
0.0
  0
LINE
  5
DBE
330
1F
100
AcDbEntity
  8
SLD-0
100
AcDbLine
 10
-1463.9328222146
 20
-619.7708101603
 30
0.0
 11
-1476.9328187575
 21
-619.7708101603
 31
0.0
  0
LINE
  5
DBF
330
1F
100
AcDbEntity
  8
SLD-0
100
AcDbLine
 10
-1485.9328220954
 20
-618.7708081337
 30
0.0
 11
-1485.9328220954
 21
-616.7708040805998
 31
0.0
  0
LINE
  5
DC0
330
1F
100
AcDbEntity
  8
SLD-0
100
AcDbLine
 10
-1494.9328254333
 20
-616.7708040805998
 30
0.0
 11
-1494.9328254333
 21
-618.7708081337
 31
0.0
  0
LINE
  5
DC1
330
1F
100
AcDbEntity
  8
SLD-0
100
AcDbLine
 10
-1476.9328187575
 20
-621.7708142133998
 30
0.0
 11
-1478.9328228107
 21
-621.7708142133998
 31
0.0
  0
ARC
  5
DD9
330
1F
100
AcDbEntity
  8
SLD-0
100
AcDbCircle
 10
-2001.6328185721
 20
-657.2708076761
 30
0.0
 40
1.0
100
AcDbArc
 50
180.0
 51
270.0
  0
ARC
  5
DDA
330
1F
100
AcDbEntity
  8
SLD-0
100
AcDbCircle
 10
-1979.6328185721
 20
-657.2708076761
 30
0.0
 40
1.0
100
AcDbArc
 50
270.0
 51
0.0
  0
LINE
  5
DDB
330
1F
100
AcDbEntity
  8
SLD-0
100
AcDbLine
 10
-2001.6328047385
 20
-658.2708062263998
 30
0.0
 11
-1979.6328197589
 21
-658.2708062263998
 31
0.0
  0
ARC
  5
DDC
330
1F
100
AcDbEntity
  8
SLD-0
100
AcDbCircle
 10
-1669.4328185721
 20
-862.3999728007001
 30
0.0
 40
3.25
100
AcDbArc
 50
330.0000000486
 51
0.0
  0
ARC
  5
DDD
330
1F
100
AcDbEntity
  8
SLD-0
100
AcDbCircle
 10
-1860.4328185721
 20
-862.3999728007001
 30
0.0
 40
3.25
100
AcDbArc
 50
180.0
 51
209.9999999514
  0
LINE
  5
DDE
330
1F
100
AcDbEntity
  8
SLD-0
100
AcDbLine
 10
-1666.1828185787
 20
-862.3999656768999
 30
0.0
 11
-1666.1828185787
 21
-801.2708129021
 31
0.0
  0
LINE
  5
DDF
330
1F
100
AcDbEntity
  8
SLD-0
100
AcDbLine
 10
-1863.6828164926
 20
-801.2708129021
 30
0.0
 11
-1863.6828164926
 21
-862.3999656768999
 31
0.0
  0
LINE
  5
DE0
330
1F
100
AcDbEntity
  8
SLD-0
100
AcDbLine
 10
-1863.2474045625
 20
-864.0249671074
 30
0.0
 11
-1847.3005096784
 21
-891.6458191010001
 31
0.0
  0
LINE
  5
DE1
330
1F
100
AcDbEntity
  8
SLD-0
100
AcDbLine
 10
-1682.5651328435
 20
-891.6458191010001
 30
0.0
 11
-1666.6182342341
 21
-864.0249671074
 31
0.0
  0
ARC
  5
DE2
330
1F
100
AcDbEntity
  8
SLD-0
100
AcDbCircle
 10
-1685.3797150227
 20
-890.0208076761
 30
0.0
 40
3.25
100
AcDbArc
 50
270.0
 51
330.0
  0
ARC
  5
DE3
330
1F
100
AcDbEntity
  8
SLD-0
100
AcDbCircle
 10
-1844.4859221216
 20
-890.0208076761
 30
0.0
 40
3.25
100
AcDbArc
 50
210.0
 51
270.0
  0
LINE
  5
DE4
330
1F
100
AcDbEntity
  8
SLD-0
100
AcDbLine
 10
-1844.4859187474
 20
-893.2708205314998
 30
0.0
 11
-1685.3797153925
 21
-893.2708205314998
 31
0.0
  0
LINE
  5
DF2
330
1F
100
AcDbEntity
  8
SLD-0
100
AcDbLine
 10
-1859.7753594985
 20
-616.7708040805998
 30
0.0
 11
-1859.7753594985
 21
-801.2708129021
 31
0.0
  0
LINE
  5
DF3
330
1F
100
AcDbEntity
  8
SLD-0
100
AcDbLine
 10
-1670.0902755728
 20
-801.2708129021
 30
0.0
 11
-1670.0902755728
 21
-688.2219912144002
 31
0.0
  0
LINE
  5
DF4
330
1F
100
AcDbEntity
  8
SLD-0
100
AcDbLine
 10
-1670.0902755728
 20
-688.0955995651
 30
0.0
 11
-1670.0902755728
 21
-685.8554782005
 31
0.0
  0
LINE
  5
DF5
330
1F
100
AcDbEntity
  8
SLD-0
100
AcDbLine
 10
-1670.0902755728
 20
-685.8554782005
 30
0.0
 11
-1670.0902755728
 21
-616.7708040805998
 31
0.0
  0
ARC
  5
E00
330
1F
100
AcDbEntity
  8
SLD-0
100
AcDbCircle
 10
-1709.4172685806
 20
-312.8237389482
 30
0.0
 40
5.000000000013272
100
AcDbArc
 50
56.1590076812
 51
82.1320762392
  0
ARC
  5
E01
330
1F
100
AcDbEntity
  8
SLD-0
100
AcDbCircle
 10
-1709.8483685637
 20
-312.8237389482
 30
0.0
 40
4.999999999997534
100
AcDbArc
 50
97.86792376040002
 51
123.8409923183
  0
ARC
  5
E12
330
1F
100
AcDbEntity
  8
SLD-0
100
AcDbCircle
 10
-1847.4172685806
 20
-312.8237389482
 30
0.0
 40
5.000000000013401
100
AcDbArc
 50
56.1590076812
 51
82.1320762392
  0
ARC
  5
E13
330
1F
100
AcDbEntity
  8
SLD-0
100
AcDbCircle
 10
-1847.8483685637
 20
-312.8237389482
 30
0.0
 40
4.999999999997534
100
AcDbArc
 50
97.86792376040002
 51
123.8409923183
  0
ARC
  5
E18
330
1F
100
AcDbEntity
  8
SLD-0
100
AcDbCircle
 10
-1985.4172685806
 20
-312.8237389482
 30
0.0
 40
5.000000000013272
100
AcDbArc
 50
56.1590076812
 51
82.1320762392
  0
ARC
  5
E19
330
1F
100
AcDbEntity
  8
SLD-0
100
AcDbCircle
 10
-1985.8483685637
 20
-312.8237389482
 30
0.0
 40
4.999999999997566
100
AcDbArc
 50
97.86792376040002
 51
123.8409923183
  0
ARC
  5
E1A
330
1F
100
AcDbEntity
  8
SLD-0
100
AcDbCircle
 10
-1433.4172685805
 20
-312.8237389482
 30
0.0
 40
4.999999999997037
100
AcDbArc
 50
56.1590076817
 51
82.13207623960001
  0
ARC
  5
E1B
330
1F
100
AcDbEntity
  8
SLD-0
100
AcDbCircle
 10
-1433.8483685637
 20
-312.8237389482
 30
0.0
 40
5.000000000012512
100
AcDbArc
 50
97.8679237609
 51
123.8409923187999
  0
LINE
  5
E1E
330
1F
100
AcDbEntity
  8
SLD-0
100
AcDbLine
 10
-1432.6328288188
 20
-733.3708108994
 30
0.0
 11
-1432.8328322043
 21
-733.3708108994
 31
0.0
  0
LINE
  5
E1F
330
1F
100
AcDbEntity
  8
SLD-0
100
AcDbLine
 10
-1432.8328322043
 20
-744.3708182903
 30
0.0
 11
-1432.6328288188
 21
-744.3708182903
 31
0.0
  0
LINE
  5
E8C
330
1F
100
AcDbEntity
  8
SLD-0
100
AcDbLine
 10
-1569.9328135123
 20
-632.9843999477
 30
0.0
 11
-1570.3424464335
 21
-633.2046391101998
 31
0.0
  0
LINE
  5
EA7
330
1F
100
AcDbEntity
  8
SLD-0
100
AcDbLine
 10
-1677.4328190258
 20
-684.6610607239
 30
0.0
 11
-1677.4328190258
 21
-693.1606234641998
 31
0.0
  0
LINE
  5
EA8
330
1F
100
AcDbEntity
  8
SLD-0
100
AcDbLine
 10
-1677.4328190258
 20
-665.6606198879
 30
0.0
 11
-1677.4328190258
 21
-684.6610607239
 31
0.0
  0
ELLIPSE
  5
EA9
330
1F
100
AcDbEntity
  8
SLD-0
100
AcDbEllipse
 10
-1705.1828185721
 20
-679.4106237958
 30
0.0
 11
12.26047699718015
 21
-12.26047699717981
 31
0.0
210
0.0
220
0.0
230
1.0
 40
0.6688316738000001
 41
0.4534877692907756
 42
0.725512145314596
  0
LINE
  5
EAA
330
1F
100
AcDbEntity
  8
SLD-0
100
AcDbLine
 10
-1680.4328176549
 20
-683.1424237819999
 30
0.0
 11
-1690.569041053
 21
-683.1424237819999
 31
0.0
  0
LINE
  5
EAB
330
1F
100
AcDbEntity
  8
SLD-0
100
AcDbLine
 10
-1680.4328176549
 20
-664.6606178613998
 30
0.0
 11
-1680.4328176549
 21
-683.1424237819999
 31
0.0
  0
LINE
  5
EAC
330
1F
100
AcDbEntity
  8
SLD-0
100
AcDbLine
 10
-1686.4328186383
 20
-671.9819159837999
 30
0.0
 11
-1680.4328176549
 21
-671.9819159837999
 31
0.0
  0
LINE
  5
EAD
330
1F
100
AcDbEntity
  8
SLD-0
100
AcDbLine
 10
-1680.4328176549
 20
-686.8393422695
 30
0.0
 11
-1680.4328176549
 21
-694.1606105896
 31
0.0
  0
LINE
  5
EAE
330
1F
100
AcDbEntity
  8
SLD-0
100
AcDbLine
 10
-1690.569041053
 20
-686.8393422695
 30
0.0
 11
-1680.4328176549
 21
-686.8393422695
 31
0.0
  0
LINE
  5
EAF
330
1F
100
AcDbEntity
  8
SLD-0
100
AcDbLine
 10
-1697.4328185787
 20
-673.2923240992
 30
0.0
 11
-1697.4328185787
 21
-687.3436869713
 31
0.0
  0
LINE
  5
EB0
330
1F
100
AcDbEntity
  8
SLD-0
100
AcDbLine
 10
-1686.4328186383
 20
-667.9106207223999
 30
0.0
 11
-1686.4328186383
 21
-681.8865241142
 31
0.0
  0
LINE
  5
EB1
330
1F
100
AcDbEntity
  8
SLD-0
100
AcDbLine
 10
-1686.4328186383
 20
-681.8865241142
 30
0.0
 11
-1692.4328186905
 21
-681.8865241142
 31
0.0
  0
LINE
  5
EB2
330
1F
100
AcDbEntity
  8
SLD-0
100
AcDbLine
 10
-1686.4328186383
 20
-686.8393422695
 30
0.0
 11
-1686.4328186383
 21
-690.9106375309
 31
0.0
  0
LINE
  5
EB3
330
1F
100
AcDbEntity
  8
SLD-0
100
AcDbLine
 10
-1690.569041053
 20
-686.8393422695
 30
0.0
 11
-1692.4328186905
 21
-686.1276628109
 31
0.0
  0
LINE
  5
EB4
330
1F
100
AcDbEntity
  8
SLD-0
100
AcDbLine
 10
-1692.4328186905
 20
-686.1276628109
 30
0.0
 11
-1692.4328186905
 21
-682.4307443233998
 31
0.0
  0
LINE
  5
EB5
330
1F
100
AcDbEntity
  8
SLD-0
100
AcDbLine
 10
-1692.4328186905
 20
-682.4307443233998
 30
0.0
 11
-1690.569041053
 21
-683.1424237819999
 31
0.0
  0
LINE
  5
EB6
330
1F
100
AcDbEntity
  8
SLD-0
100
AcDbLine
 10
-1692.4328186905
 20
-682.4307443233998
 30
0.0
 11
-1692.4328186905
 21
-681.8865241142
 31
0.0
  0
LINE
  5
EB7
330
1F
100
AcDbEntity
  8
SLD-0
100
AcDbLine
 10
-1686.4328186383
 20
-681.8579734894
 30
0.0
 11
-1680.4328176549
 21
-681.8579734894
 31
0.0
  0
LINE
  5
EB8
330
1F
100
AcDbEntity
  8
SLD-0
100
AcDbLine
 10
-1697.4328185787
 20
-671.2887586685
 30
0.0
 11
-1697.4328185787
 21
-673.2923240992
 31
0.0
  0
LINE
  5
EB9
330
1F
100
AcDbEntity
  8
SLD-0
100
AcDbLine
 10
-1697.4328185787
 20
-687.3436869713
 30
0.0
 11
-1697.4328185787
 21
-689.1328991982001
 31
0.0
  0
LINE
  5
EBA
330
1F
100
AcDbEntity
  8
SLD-0
100
AcDbLine
 10
-1697.4328185787
 20
-665.9070403906
 30
0.0
 11
-1697.4328185787
 21
-671.2887586685
 31
0.0
  0
LINE
  5
EBB
330
1F
100
AcDbEntity
  8
SLD-0
100
AcDbLine
 10
-1697.4328185787
 20
-689.1328991982001
 30
0.0
 11
-1697.4328185787
 21
-692.4354137511999
 31
0.0
  0
LINE
  5
EBC
330
1F
100
AcDbEntity
  8
SLD-0
100
AcDbLine
 10
-1697.4328185787
 20
-665.7554806801
 30
0.0
 11
-1697.4328185787
 21
-665.9070403906
 31
0.0
  0
LINE
  5
EBD
330
1F
100
AcDbEntity
  8
SLD-0
100
AcDbLine
 10
-1697.4328185787
 20
-692.4354137511999
 30
0.0
 11
-1697.4328185787
 21
-692.4910844894
 31
0.0
  0
LINE
  5
EBE
330
1F
100
AcDbEntity
  8
SLD-0
100
AcDbLine
 10
-1686.4328186383
 20
-673.2663662764
 30
0.0
 11
-1680.4328176549
 21
-673.2663662764
 31
0.0
  0
LINE
  5
EBF
330
1F
100
AcDbEntity
  8
SLD-0
100
AcDbLine
 10
-1686.4328186383
 20
-676.9632698627998
 30
0.0
 11
-1680.4328176549
 21
-676.9632698627998
 31
0.0
  0
CIRCLE
  5
EC2
330
1F
100
AcDbEntity
  8
SLD-0
100
AcDbCircle
 10
-1577.2828185721
 20
-462.0708076760998
 30
0.0
 40
155.0
  0
CIRCLE
  5
EC3
330
1F
100
AcDbEntity
  8
SLD-0
100
AcDbCircle
 10
-1577.2828185721
 20
-462.0708076760998
 30
0.0
 40
157.5000000000001
  0
CIRCLE
  5
EC4
330
1F
100
AcDbEntity
  8
SLD-0
100
AcDbCircle
 10
-1577.2828185721
 20
-462.0708076760998
 30
0.0
 40
171.0420201433256
  0
CIRCLE
  5
EC5
330
1F
100
AcDbEntity
  8
SLD-0
100
AcDbCircle
 10
-1577.2828185721
 20
-462.0708076760998
 30
0.0
 40
154.5
  0
LINE
  5
ECA
330
1F
100
AcDbEntity
  8
SLD-0
100
AcDbLine
 10
-1592.5907965174
 20
-278.490662727
 30
0.0
 11
-1934.6748392453
 21
-278.490662727
 31
0.0
  0
LINE
  5
ECB
330
1F
100
AcDbEntity
  8
SLD-0
100
AcDbLine
 10
-1592.9328154197
 20
-279.4303597542
 30
0.0
 11
-1934.3328128924
 21
-279.4303597542
 31
0.0
  0
LINE
  5
ECC
330
1F
100
AcDbEntity
  8
SLD-0
100
AcDbLine
 10
-1606.9328214397
 20
-273.2706071468
 30
0.0
 11
-1920.332814323
 21
-273.2706071468
 31
0.0
  0
LINE
  5
ECD
330
1F
100
AcDbEntity
  8
SLD-0
100
AcDbLine
 10
-1651.5073242953
 20
-307.9731242391
 30
0.0
 11
-1708.2041890716
 21
-307.9731242391
 31
0.0
  0
LINE
  5
ECE
330
1F
100
AcDbEntity
  8
SLD-0
100
AcDbLine
 10
-1711.061447615
 20
-307.9731242391
 30
0.0
 11
-1846.2041865459
 21
-307.9731242391
 31
0.0
  0
LINE
  5
ECF
330
1F
100
AcDbEntity
  8
SLD-0
100
AcDbLine
 10
-1849.0614544024
 20
-307.9731242391
 30
0.0
 11
-1921.132812964
 21
-307.9731242391
 31
0.0
  0
LINE
  5
ED0
330
1F
100
AcDbEntity
  8
SLD-0
100
AcDbLine
 10
-1626.8224592676
 20
-298.3600945803
 30
0.0
 11
-1921.132812964
 21
-298.3600945803
 31
0.0
  0
LINE
  5
ED1
330
1F
100
AcDbEntity
  8
SLD-0
100
AcDbLine
 10
-1617.3562134972
 20
-295.7894356581
 30
0.0
 11
-1919.3328122964
 21
-295.7894356581
 31
0.0
  0
LINE
  5
ED2
330
1F
100
AcDbEntity
  8
SLD-0
100
AcDbLine
 10
-1606.1328153482
 20
-272.9708106848
 30
0.0
 11
-1921.132812964
 21
-272.9708106848
 31
0.0
  0
LINE
  5
ED3
330
1F
100
AcDbEntity
  8
SLD-0
100
AcDbLine
 10
-1986.6328190436
 20
-746.3708223435
 30
0.0
 11
-1982.7328275313
 21
-746.3708223435
 31
0.0
  0
LINE
  5
ED4
330
1F
100
AcDbEntity
  8
SLD-0
100
AcDbLine
 10
-1986.6328190436
 20
-746.3708223435
 30
0.0
 11
-1986.6328190436
 21
-703.87080327
 31
0.0
  0
LINE
  5
ED5
330
1F
100
AcDbEntity
  8
SLD-0
100
AcDbLine
 10
-1432.8328322043
 20
-703.87080327
 30
0.0
 11
-1432.8328322043
 21
-746.3708223435
 31
0.0
  0
LINE
  5
ED6
330
1F
100
AcDbEntity
  8
SLD-0
100
AcDbLine
 10
-1432.8328322043
 20
-746.3708223435
 30
0.0
 11
-1436.7328237166
 21
-746.3708223435
 31
0.0
  0
LINE
  5
ED7
330
1F
100
AcDbEntity
  8
SLD-0
100
AcDbLine
 10
-1986.6328190436
 20
-703.87080327
 30
0.0
 11
-1859.7753594985
 21
-703.87080327
 31
0.0
  0
LINE
  5
ED8
330
1F
100
AcDbEntity
  8
SLD-0
100
AcDbLine
 10
-1670.0902755728
 20
-703.87080327
 30
0.0
 11
-1432.8328322043
 21
-703.87080327
 31
0.0
  0
LINE
  5
ED9
330
1F
100
AcDbEntity
  8
SLD-0
100
AcDbLine
 10
-1982.7328275313
 20
-748.8708199592999
 30
0.0
 11
-1859.7753594985
 21
-748.8708199592999
 31
0.0
  0
LINE
  5
EDA
330
1F
100
AcDbEntity
  8
SLD-0
100
AcDbLine
 10
-1670.0902755728
 20
-748.8708199592999
 30
0.0
 11
-1436.7328237166
 21
-748.8708199592999
 31
0.0
  0
LINE
  5
EDB
330
1F
100
AcDbEntity
  8
SLD-0
100
AcDbLine
 10
-1982.7328275313
 20
-746.3708223435
 30
0.0
 11
-1982.7328275313
 21
-748.8708199592999
 31
0.0
  0
LINE
  5
EDC
330
1F
100
AcDbEntity
  8
SLD-0
100
AcDbLine
 10
-1436.7328237166
 20
-746.3708223435
 30
0.0
 11
-1436.7328237166
 21
-748.8708199592999
 31
0.0
  0
ARC
  5
EDD
330
1F
100
AcDbEntity
  8
SLD-0
100
AcDbCircle
 10
-1436.7328185721
 20
-746.3708076760998
 30
0.0
 40
1.000000000000113
100
AcDbArc
 50
270.0
 51
0.0
  0
ARC
  5
EDE
330
1F
100
AcDbEntity
  8
SLD-0
100
AcDbCircle
 10
-1436.7328185721
 20
-746.3708076760998
 30
0.0
 40
2.500000000000114
100
AcDbArc
 50
270.0
 51
0.0
  0
ARC
  5
EDF
330
1F
100
AcDbEntity
  8
SLD-0
100
AcDbCircle
 10
-1982.7328185721
 20
-746.3708076760998
 30
0.0
 40
1.0
100
AcDbArc
 50
180.0
 51
270.0
  0
ARC
  5
EE0
330
1F
100
AcDbEntity
  8
SLD-0
100
AcDbCircle
 10
-1982.7328185721
 20
-746.3708076760998
 30
0.0
 40
2.5
100
AcDbArc
 50
180.0
 51
270.0
  0
LINE
  5
EFF
330
1F
100
AcDbEntity
  8
SLD-0
100
AcDbLine
 10
-1479.9328248372
 20
-660.2708102794998
 30
0.0
 11
-1479.9328248372
 21
-653.2708109947
 31
0.0
  0
LINE
  5
F0A
330
1F
100
AcDbEntity
  8
SLD-0
100
AcDbLine
 10
-1569.9316810241
 20
-660.2743269534999
 30
0.0
 11
-1569.9328135123
 21
-660.2708102794998
 31
0.0
  0
LINE
  5
F0B
330
1F
100
AcDbEntity
  8
SLD-0
100
AcDbLine
 10
-1569.9328135123
 20
-660.2708102794998
 30
0.0
 11
-1569.9328135123
 21
-632.9843999477
 31
0.0
  0
ELLIPSE
  5
F0C
330
1F
100
AcDbEntity
  8
SLD-0
100
AcDbEllipse
 10
-1479.9328185721
 20
-663.3484912133
 30
0.0
 11
0.0
 21
3.077683537175174
 31
0.0
210
0.0
220
0.0
230
1.0
 40
0.3249196962
 41
6.235366693777878
 42
6.283185307179584
  0
LINE
  5
F10
330
1F
100
AcDbEntity
  8
SLD-0
100
AcDbLine
 10
-1478.9328228107
 20
-653.2708109947
 30
0.0
 11
-1478.9328228107
 21
-660.2708102794998
 31
0.0
  0
LINE
  5
F11
330
1F
100
AcDbEntity
  8
SLD-0
100
AcDbLine
 10
-1478.9328228107
 20
-660.2708102794998
 30
0.0
 11
-1478.9339552989
 21
-660.2743269534999
 31
0.0
  0
ELLIPSE
  5
F12
330
1F
100
AcDbEntity
  8
SLD-0
100
AcDbEllipse
 10
-1479.9328185721
 20
-660.1124232358
 30
0.0
 11
0.9997141861424552
 21
-0.15833917185671
 31
0.0
210
0.0
220
0.0
230
1.0
 40
0.1509861932
 41
4.784116900487546
 42
6.259276000481797
  0
LINE
  5
F13
330
1F
100
AcDbEntity
  8
SLD-0
100
AcDbLine
 10
-1479.9328248372
 20
-653.2708109947
 30
0.0
 11
-1478.9328228107
 21
-653.2708109947
 31
0.0
  0
SPLINE
  5
F14
330
1F
100
AcDbEntity
  8
SLD-0
100
AcDbSpline
210
0.0
220
0.0
230
1.0
 70
     8
 71
     3
 72
    12
 73
     8
 74
     0
 42
0.000000001
 43
0.0000000001
 40
0.0
 40
0.0
 40
0.0
 40
0.0
 40
0.0048617240673594
 40
0.2558188603055783
 40
0.5203224504245056
 40
0.7596853706477678
 40
1.0
 40
1.0
 40
1.0
 40
1.0
 10
-1564.615632163527
 20
-673.7083794208594
 30
0.0
 10
-1564.617137126824
 20
-673.7099644288218
 30
0.0
 10
-1564.696326729153
 20
-673.7933658981217
 30
0.0
 10
-1564.858306342288
 20
-673.9542518560576
 30
0.0
 10
-1565.074822251404
 20
-674.1388441867622
 30
0.0
 10
-1565.257963000792
 20
-674.2626451848328
 30
0.0
 10
-1565.325062334864
 20
-674.271320409228
 30
0.0
 10
-1565.358678566458
 20
-674.2756666275092
 30
0.0
  0
LINE
  5
F15
330
1F
100
AcDbEntity
  8
SLD-0
100
AcDbLine
 10
-1565.3586785665
 20
-674.2756666274998
 30
0.0
 11
-1565.3839360347
 21
-674.2708088489998
 31
0.0
  0
LINE
  5
F16
330
1F
100
AcDbEntity
  8
SLD-0
100
AcDbLine
 10
-1565.3839360347
 20
-674.2708088489998
 30
0.0
 11
-1569.9316810241
 21
-660.2743269534999
 31
0.0
  0
LINE
  5
F17
330
1F
100
AcDbEntity
  8
SLD-0
100
AcDbLine
 10
-1478.9339552989
 20
-660.2743269534999
 30
0.0
 11
-1483.4817002883
 21
-674.2708088489998
 31
0.0
  0
LINE
  5
F18
330
1F
100
AcDbEntity
  8
SLD-0
100
AcDbLine
 10
-1483.4817002883
 20
-674.2708088489998
 30
0.0
 11
-1483.5069726577
 21
-674.2756666274998
 31
0.0
  0
ARC
  5
F1B
330
1F
100
AcDbEntity
  8
SLD-0
100
AcDbCircle
 10
-1524.4328185721
 20
-461.2215028602999
 30
0.0
 40
216.9493048158074
100
AcDbArc
 50
259.1264291429001
 51
268.1739364888
  0
ARC
  5
F1C
330
1F
100
AcDbEntity
  8
SLD-0
100
AcDbCircle
 10
-1524.4328185721
 20
-461.2215028602999
 30
0.0
 40
216.9493048158075
100
AcDbArc
 50
271.5673095334
 51
280.8735708571
  0
SPLINE
  5
F1E
330
1F
100
AcDbEntity
  8
SLD-0
100
AcDbSpline
210
0.0
220
0.0
230
1.0
 70
     8
 71
     3
 72
    12
 73
     8
 74
     0
 42
0.000000001
 43
0.0000000001
 40
0.0
 40
0.0
 40
0.0
 40
0.0
 40
0.1144486656329234
 40
0.3252280068922349
 40
0.5357905166930811
 40
0.8098032800960849
 40
1.0
 40
1.0
 40
1.0
 40
1.0
 10
-1520.190830098631
 20
-678.1293304296561
 30
0.0
 10
-1520.520028063487
 20
-678.0893545397756
 30
0.0
 10
-1521.455507716228
 20
-677.9757553211415
 30
0.0
 10
-1522.903216074274
 20
-677.5805027164822
 30
0.0
 10
-1524.938757082832
 20
-677.6981090611
 30
0.0
 10
-1526.820839204309
 20
-677.734423432095
 30
0.0
 10
-1528.135968963498
 20
-678.014554598934
 30
0.0
 10
-1528.674806224348
 20
-678.1293304296561
 30
0.0
  0
SPLINE
  5
F20
330
1F
100
AcDbEntity
  8
SLD-0
100
AcDbSpline
210
0.0
220
0.0
230
1.0
 70
     8
 71
     3
 72
     9
 73
     5
 74
     0
 42
0.000000001
 43
0.0000000001
 40
0.0
 40
0.0
 40
0.0
 40
0.0
 40
0.1074754133947316
 40
1.0
 40
1.0
 40
1.0
 40
1.0
 10
-1518.498982059004
 20
-678.0894400211401
 30
0.0
 10
-1518.534296743603
 20
-678.0904809264499
 30
0.0
 10
-1518.862880588815
 20
-678.1001659816366
 30
0.0
 10
-1519.564562098908
 20
-678.1155763219967
 30
0.0
 10
-1520.190830098631
 20
-678.1293304296561
 30
0.0
  0
SPLINE
  5
F21
330
1F
100
AcDbEntity
  8
SLD-0
100
AcDbSpline
210
0.0
220
0.0
230
1.0
 70
     8
 71
     3
 72
    11
 73
     7
 74
     0
 42
0.000000001
 43
0.0000000001
 40
0.0
 40
0.0
 40
0.0
 40
0.0
 40
0.0264223056060202
 40
0.3968000083060316
 40
0.7670388870918919
 40
1.0
 40
1.0
 40
1.0
 40
1.0
 10
-1528.674806224348
 20
-678.1293304296561
 30
0.0
 10
-1528.718064704286
 20
-678.1284776320578
 30
0.0
 10
-1529.367703893791
 20
-678.1156706462065
 30
0.0
 10
-1530.434568171442
 20
-678.088905510643
 30
0.0
 10
-1531.235535260761
 20
-678.0641909229246
 30
0.0
 10
-1531.315226014846
 20
-678.0616264849348
 30
0.0
 10
-1531.346003281119
 20
-678.0606360765523
 30
0.0
  0
ARC
  5
F22
330
1F
100
AcDbEntity
  8
SLD-0
100
AcDbCircle
 10
-1524.4328185721
 20
-461.2215028602999
 30
0.0
 40
216.9493048158067
100
AcDbArc
 50
268.1739364888
 51
271.5659242849
  0
LINE
  5
F23
330
1F
100
AcDbEntity
  8
SLD-0
100
AcDbLine
 10
-1476.4328251948
 20
-653.2708109947
 30
0.0
 11
-1476.4328251948
 21
-655.2125664087
 31
0.0
  0
LINE
  5
F24
330
1F
100
AcDbEntity
  8
SLD-0
100
AcDbLine
 10
-1478.9328228107
 20
-660.2708102794998
 30
0.0
 11
-1478.9328228107
 21
-661.7708058687
 31
0.0
  0
LINE
  5
F25
330
1F
100
AcDbEntity
  8
SLD-0
100
AcDbLine
 10
-1476.4328251948
 20
-653.2708109947
 30
0.0
 11
-1478.9328228107
 21
-653.2708109947
 31
0.0
  0
LINE
  5
F27
330
1F
100
AcDbEntity
  8
SLD-0
100
AcDbLine
 10
-1460.4328225722
 20
-669.3944485518
 30
0.0
 11
-1460.4328225722
 21
-665.3944404455
 31
0.0
  0
LINE
  5
F28
330
1F
100
AcDbEntity
  8
SLD-0
100
AcDbLine
 10
-1458.9328120818
 20
-665.3944404455
 30
0.0
 11
-1460.4328225722
 21
-665.3944404455
 31
0.0
  0
LINE
  5
F29
330
1F
100
AcDbEntity
  8
SLD-0
100
AcDbLine
 10
-1458.9328120818
 20
-670.3944505783
 30
0.0
 11
-1458.9328120818
 21
-665.3944404455
 31
0.0
  0
LINE
  5
F2A
330
1F
100
AcDbEntity
  8
SLD-0
100
AcDbLine
 10
-1458.9328120818
 20
-670.3944505783
 30
0.0
 11
-1476.9328187575
 21
-670.3944505783
 31
0.0
  0
LINE
  5
F2B
330
1F
100
AcDbEntity
  8
SLD-0
100
AcDbLine
 10
-1460.4328225722
 20
-669.3944485518
 30
0.0
 11
-1476.9328187575
 21
-669.3944485518
 31
0.0
  0
LINE
  5
F2C
330
1F
100
AcDbEntity
  8
SLD-0
100
AcDbLine
 10
-1476.9328187575
 20
-670.3944505783
 30
0.0
 11
-1476.9328187575
 21
-669.3944485518
 31
0.0
  0
LINE
  5
F2D
330
1F
100
AcDbEntity
  8
SLD-0
100
AcDbLine
 10
-1458.9328120818
 20
-663.3944512935999
 30
0.0
 11
-1460.4328225722
 21
-663.3944512935999
 31
0.0
  0
LINE
  5
F2E
330
1F
100
AcDbEntity
  8
SLD-0
100
AcDbLine
 10
-1460.4328225722
 20
-665.3944404455
 30
0.0
 11
-1460.4328225722
 21
-663.3944512935999
 31
0.0
  0
LINE
  5
F2F
330
1F
100
AcDbEntity
  8
SLD-0
100
AcDbLine
 10
-1458.9328120818
 20
-665.3944404455
 30
0.0
 11
-1458.9328120818
 21
-663.3944512935999
 31
0.0
  0
LINE
  5
F30
330
1F
100
AcDbEntity
  8
SLD-0
100
AcDbLine
 10
-1460.4328225722
 20
-654.1045905682
 30
0.0
 11
-1473.9328126779
 21
-654.1045905682
 31
0.0
  0
LINE
  5
F31
330
1F
100
AcDbEntity
  8
SLD-0
100
AcDbLine
 10
-1473.9328126779
 20
-654.1045905682
 30
0.0
 11
-1473.9328126779
 21
-651.5534819695
 31
0.0
  0
LINE
  5
F32
330
1F
100
AcDbEntity
  8
SLD-0
100
AcDbLine
 10
-1473.9328126779
 20
-651.5534819695
 30
0.0
 11
-1476.9328187575
 21
-651.5534819695
 31
0.0
  0
LINE
  5
F33
330
1F
100
AcDbEntity
  8
SLD-0
100
AcDbLine
 10
-1476.9328187575
 20
-651.5534819695
 30
0.0
 11
-1476.9328187575
 21
-648.0146946044999
 31
0.0
  0
LINE
  5
F34
330
1F
100
AcDbEntity
  8
SLD-0
100
AcDbLine
 10
-1463.3557449451
 20
-648.0146946044999
 30
0.0
 11
-1476.9328187575
 21
-648.0146946044999
 31
0.0
  0
LINE
  5
F35
330
1F
100
AcDbEntity
  8
SLD-0
100
AcDbLine
 10
-1463.3557449451
 20
-648.0146946044999
 30
0.0
 11
-1458.9328120818
 21
-652.5470615955
 31
0.0
  0
LINE
  5
F36
330
1F
100
AcDbEntity
  8
SLD-0
100
AcDbLine
 10
-1460.4328225722
 20
-663.3944512935999
 30
0.0
 11
-1460.4328225722
 21
-654.1045905682
 31
0.0
  0
LINE
  5
F37
330
1F
100
AcDbEntity
  8
SLD-0
100
AcDbLine
 10
-1458.9328120818
 20
-663.3944512935999
 30
0.0
 11
-1458.9328120818
 21
-652.5470615955
 31
0.0
  0
LINE
  5
F38
330
1F
100
AcDbEntity
  8
SLD-0
100
AcDbLine
 10
-1473.9328126779
 20
-655.2125664087
 30
0.0
 11
-1476.9328187575
 21
-655.2125664087
 31
0.0
  0
LINE
  5
F39
330
1F
100
AcDbEntity
  8
SLD-0
100
AcDbLine
 10
-1473.9328126779
 20
-654.1045905682
 30
0.0
 11
-1473.9328126779
 21
-655.2125664087
 31
0.0
  0
LINE
  5
F3A
330
1F
100
AcDbEntity
  8
SLD-0
100
AcDbLine
 10
-1476.9328187575
 20
-655.2125664087
 30
0.0
 11
-1476.9328187575
 21
-669.3944485518
 31
0.0
  0
LINE
  5
F3B
330
1F
100
AcDbEntity
  8
SLD-0
100
AcDbLine
 10
-1463.9328222146
 20
-619.7708101603
 30
0.0
 11
-1463.9328222146
 21
-646.8596310946
 31
0.0
  0
LINE
  5
F3C
330
1F
100
AcDbEntity
  8
SLD-0
100
AcDbLine
 10
-1476.9328187575
 20
-646.8596310946
 30
0.0
 11
-1463.9328222146
 21
-646.8596310946
 31
0.0
  0
LINE
  5
F3D
330
1F
100
AcDbEntity
  8
SLD-0
100
AcDbLine
 10
-1476.9328187575
 20
-646.8596310946
 30
0.0
 11
-1476.9328187575
 21
-619.7708101603
 31
0.0
  0
LINE
  5
F3E
330
1F
100
AcDbEntity
  8
SLD-0
100
AcDbLine
 10
-1473.9328126779
 20
-653.7204833360998
 30
0.0
 11
-1476.4328251948
 21
-653.7204833360998
 31
0.0
  0
LINE
  5
F3F
330
1F
100
AcDbEntity
  8
SLD-0
100
AcDbLine
 10
-1473.9328126779
 20
-652.1150769324998
 30
0.0
 11
-1476.9328187575
 21
-652.1150769324998
 31
0.0
  0
LINE
  5
F40
330
1F
100
AcDbEntity
  8
SLD-0
100
AcDbLine
 10
-1476.9328187575
 20
-651.5534819695
 30
0.0
 11
-1476.9328187575
 21
-652.1150769324998
 31
0.0
  0
SPLINE
  5
F41
330
1F
100
AcDbEntity
  8
SLD-0
100
AcDbSpline
210
0.0
220
0.0
230
1.0
 70
     8
 71
     3
 72
    11
 73
     7
 74
     0
 42
0.000000001
 43
0.0000000001
 40
0.0
 40
0.0
 40
0.0
 40
0.0
 40
0.2002245136046172
 40
0.3996568097948469
 40
0.6704220042068603
 40
1.0
 40
1.0
 40
1.0
 40
1.0
 10
-1463.932822214605
 20
-646.8596310945577
 30
0.0
 10
-1463.926066568484
 20
-646.9387525766141
 30
0.0
 10
-1463.912582005939
 20
-647.0966824850728
 30
0.0
 10
-1463.80352562592
 20
-647.3871782179525
 30
0.0
 10
-1463.619923885179
 20
-647.7143033817206
 30
0.0
 10
-1463.449373918053
 20
-647.9082314561723
 30
0.0
 10
-1463.355744945051
 20
-648.014694604499
 30
0.0
  0
LINE
  5
F42
330
1F
100
AcDbEntity
  8
SLD-0
100
AcDbLine
 10
-1476.9328187575
 20
-648.0146946044999
 30
0.0
 11
-1476.9328187575
 21
-646.8596310946
 31
0.0
  0
LINE
  5
F43
330
1F
100
AcDbEntity
  8
SLD-0
100
AcDbLine
 10
-1476.9328187575
 20
-652.1150769324998
 30
0.0
 11
-1476.9328187575
 21
-653.2708109947
 31
0.0
  0
LINE
  5
F48
330
1F
100
AcDbEntity
  8
SLD-0
100
AcDbLine
 10
-1479.9328248372
 20
-653.2708109947
 30
0.0
 11
-1479.9328248372
 21
-636.7708148094
 31
0.0
  0
LINE
  5
F4A
330
1F
100
AcDbEntity
  8
SLD-0
100
AcDbLine
 10
-1478.9328228107
 20
-636.7708148094
 30
0.0
 11
-1478.9328228107
 21
-653.2708109947
 31
0.0
  0
LINE
  5
F4B
330
1F
100
AcDbEntity
  8
SLD-0
100
AcDbLine
 10
-1479.9328248372
 20
-636.7708148094
 30
0.0
 11
-1478.9328228107
 21
-636.7708148094
 31
0.0
  0
LINE
  5
F4C
330
1F
100
AcDbEntity
  8
SLD-0
100
AcDbLine
 10
-1569.9328135123
 20
-632.9843999477
 30
0.0
 11
-1569.9328135123
 21
-632.9548360438998
 31
0.0
  0
LINE
  5
F4E
330
1F
100
AcDbEntity
  8
SLD-0
100
AcDbLine
 10
-1508.7227474322
 20
-618.7708081337
 30
0.0
 11
-1480.9328119626
 21
-618.7708081337
 31
0.0
  0
LINE
  5
F4F
330
1F
100
AcDbEntity
  8
SLD-0
100
AcDbLine
 10
-1480.9328119626
 20
-620.7708121867998
 30
0.0
 11
-1480.9328119626
 21
-618.7708081337
 31
0.0
  0
LINE
  5
F50
330
1F
100
AcDbEntity
  8
SLD-0
100
AcDbLine
 10
-1480.9328119626
 20
-620.7708121867998
 30
0.0
 11
-1478.9328228107
 21
-620.7708121867998
 31
0.0
  0
LINE
  5
F51
330
1F
100
AcDbEntity
  8
SLD-0
100
AcDbLine
 10
-1478.9328228107
 20
-620.7708121867998
 30
0.0
 11
-1478.9328228107
 21
-636.7708148094
 31
0.0
  0
ARC
  5
F52
330
1F
100
AcDbEntity
  8
SLD-0
100
AcDbCircle
 10
-1480.9328185721
 20
-620.7708076761
 30
0.0
 40
2.0
100
AcDbArc
 50
0.0
 51
90.0
  0
LINE
  5
F53
330
1F
100
AcDbEntity
  8
SLD-0
100
AcDbLine
 10
-1478.9328228107
 20
-651.2596906754001
 30
0.0
 11
-1476.9328187575
 21
-651.2596906754001
 31
0.0
  0
LINE
  5
F54
330
1F
100
AcDbEntity
  8
SLD-0
100
AcDbLine
 10
-1498.0702947249
 20
-616.7708040805998
 30
0.0
 11
-1498.0702947249
 21
-618.7708081337
 31
0.0
  0
LINE
  5
F55
330
1F
100
AcDbEntity
  8
SLD-0
100
AcDbLine
 10
-1485.2953355184
 20
-616.7708040805998
 30
0.0
 11
-1485.2953355184
 21
-618.7708081337
 31
0.0
  0
LINE
  5
F56
330
1F
100
AcDbEntity
  8
SLD-0
100
AcDbLine
 10
-1502.4328182807
 20
-616.7708040805998
 30
0.0
 11
-1502.4328182807
 21
-618.7708081337
 31
0.0
  0
LINE
  5
F57
330
1F
100
AcDbEntity
  8
SLD-0
100
AcDbLine
 10
-1480.9328119626
 20
-616.7708040805998
 30
0.0
 11
-1480.9328119626
 21
-618.7708081337
 31
0.0
  0
LINE
  5
F59
330
1F
100
AcDbEntity
  8
SLD-0
100
AcDbLine
 10
-1403.3328245749
 20
-308.6708040567
 30
0.0
 11
-1501.626933681
 21
-308.6708040567
 31
0.0
  0
LINE
  5
F5A
330
1F
100
AcDbEntity
  8
SLD-0
100
AcDbLine
 10
-1652.9387000372
 20
-308.6708040567
 30
0.0
 11
-2015.9328232875
 21
-308.6708040567
 31
0.0
  0
LINE
  5
F5C
330
1F
100
AcDbEntity
  8
SLD-0
100
AcDbLine
 10
-1403.3328245749
 20
-309.3708084556
 30
0.0
 11
-1500.2238701453
 21
-309.3708084556
 31
0.0
  0
LINE
  5
F5D
330
1F
100
AcDbEntity
  8
SLD-0
100
AcDbLine
 10
-1654.3417747488
 20
-309.3708084556
 30
0.0
 11
-2015.9328232875
 21
-309.3708084556
 31
0.0
  0
LINE
  5
F5E
330
1F
100
AcDbEntity
  8
SLD-0
100
AcDbLine
 10
-2020.9328185191
 20
-309.3708084556
 30
0.0
 11
-2020.9328185191
 21
-308.6708040567
 31
0.0
  0
LINE
  5
F5F
330
1F
100
AcDbEntity
  8
SLD-0
100
AcDbLine
 10
-2020.9328185191
 20
-308.6708040567
 30
0.0
 11
-2015.9328232875
 21
-308.6708040567
 31
0.0
  0
LINE
  5
F60
330
1F
100
AcDbEntity
  8
SLD-0
100
AcDbLine
 10
-2015.9328232875
 20
-309.3708084556
 30
0.0
 11
-2018.0058728328
 21
-309.3708084556
 31
0.0
  0
LINE
  5
F61
330
1F
100
AcDbEntity
  8
SLD-0
100
AcDbLine
 10
-2020.4328249564
 20
-309.3708084556
 30
0.0
 11
-2020.9328185191
 21
-309.3708084556
 31
0.0
  0
LINE
  5
F62
330
1F
100
AcDbEntity
  8
SLD-0
100
AcDbLine
 10
-1398.3328293433
 20
-308.6708040567
 30
0.0
 11
-1398.3328293433
 21
-309.3708084556
 31
0.0
  0
LINE
  5
F63
330
1F
100
AcDbEntity
  8
SLD-0
100
AcDbLine
 10
-1403.3328245749
 20
-308.6708040567
 30
0.0
 11
-1398.3328293433
 21
-308.6708040567
 31
0.0
  0
LINE
  5
F64
330
1F
100
AcDbEntity
  8
SLD-0
100
AcDbLine
 10
-1398.3328293433
 20
-309.3708084556
 30
0.0
 11
-1398.832822906
 21
-309.3708084556
 31
0.0
  0
LINE
  5
F65
330
1F
100
AcDbEntity
  8
SLD-0
100
AcDbLine
 10
-1401.2597750297
 20
-309.3708084556
 30
0.0
 11
-1403.3328245749
 21
-309.3708084556
 31
0.0
  0
LINE
  5
1063
330
1F
100
AcDbEntity
  8
SLD-0
100
AcDbLine
 10
-1978.6328326335
 20
-618.2708145709998
 30
0.0
 11
-2001.1330495944
 21
-618.2708145709998
 31
0.0
  0
LINE
  5
1064
330
1F
100
AcDbEntity
  8
SLD-0
100
AcDbLine
 10
-2001.1330495944
 20
-618.2708145709998
 30
0.0
 11
-2002.6328216662
 21
-618.2708145709998
 31
0.0
  0
LINE
  5
1065
330
1F
100
AcDbEntity
  8
SLD-0
100
AcDbLine
 10
-1978.6328326335
 20
-649.2708028884999
 30
0.0
 11
-1978.6328326335
 21
-618.2708145709998
 31
0.0
  0
LINE
  5
1067
330
1F
100
AcDbEntity
  8
SLD-0
100
AcDbLine
 10
-2002.6328216662
 20
-649.2708028884999
 30
0.0
 11
-2002.6328216662
 21
-618.2708145709998
 31
0.0
  0
LINE
  5
106D
330
1F
100
AcDbEntity
  8
SLD-0
100
AcDbLine
 10
-2002.6328216662
 20
-657.2708041998001
 30
0.0
 11
-2002.6328216662
 21
-649.2708028884999
 31
0.0
  0
LINE
  5
106E
330
1F
100
AcDbEntity
  8
SLD-0
100
AcDbLine
 10
-1978.6328326335
 20
-649.2708028884999
 30
0.0
 11
-1978.6328326335
 21
-657.2708041998001
 31
0.0
  0
LINE
  5
106F
330
1F
100
AcDbEntity
  8
SLD-0
100
AcDbLine
 10
-1695.1060239116
 20
-801.2708129021
 30
0.0
 11
-1672.5425820222
 21
-801.2708129021
 31
0.0
  0
LINE
  5
1070
330
1F
100
AcDbEntity
  8
SLD-0
100
AcDbLine
 10
-1670.0902755728
 20
-801.2708129021
 30
0.0
 11
-1666.1828185787
 21
-801.2708129021
 31
0.0
  0
LINE
  5
1071
330
1F
100
AcDbEntity
  8
SLD-0
100
AcDbLine
 10
-1863.6828164926
 20
-801.2708129021
 30
0.0
 11
-1859.7753594985
 21
-801.2708129021
 31
0.0
  0
LINE
  5
1072
330
1F
100
AcDbEntity
  8
SLD-0
100
AcDbLine
 10
-1857.3230306973
 20
-801.2708129021
 30
0.0
 11
-1816.7029719224
 21
-801.2708129021
 31
0.0
  0
LINE
  5
1073
330
1F
100
AcDbEntity
  8
SLD-0
100
AcDbLine
 10
-1815.0328721275
 20
-801.2708129021
 30
0.0
 11
-1799.7328217497
 21
-801.2708129021
 31
0.0
  0
LINE
  5
1074
330
1F
100
AcDbEntity
  8
SLD-0
100
AcDbLine
 10
-1798.132906424
 20
-801.2708129021
 30
0.0
 11
-1731.7773613503
 21
-801.2708129021
 31
0.0
  0
LINE
  5
1075
330
1F
100
AcDbEntity
  8
SLD-0
100
AcDbLine
 10
-1730.1328170469
 20
-801.2708129021
 30
0.0
 11
-1714.8717127165
 21
-801.2708129021
 31
0.0
  0
LINE
  5
1076
330
1F
100
AcDbEntity
  8
SLD-0
100
AcDbLine
 10
-1713.2331428474
 20
-801.2708129021
 30
0.0
 11
-1695.1060239116
 21
-801.2708129021
 31
0.0
  0
LINE
  5
109E
330
1F
100
AcDbEntity
  8
SLD-0
100
AcDbLine
 10
-1799.7328217497
 20
-801.2708129021
 30
0.0
 11
-1798.132906424
 21
-801.2708129021
 31
0.0
  0
LINE
  5
10A0
330
1F
100
AcDbEntity
  8
SLD-0
100
AcDbLine
 10
-1731.7327286472
 20
-801.2708129021
 30
0.0
 11
-1730.1328170469
 21
-801.2708129021
 31
0.0
  0
LINE
  5
10A8
330
1F
100
AcDbEntity
  8
SLD-0
100
AcDbLine
 10
-1798.132906424
 20
-801.2708129021
 30
0.0
 11
-1798.0882550945
 21
-801.2708129021
 31
0.0
  0
LINE
  5
10AA
330
1F
100
AcDbEntity
  8
SLD-0
100
AcDbLine
 10
-1731.7773613503
 20
-801.2708129021
 30
0.0
 11
-1731.7327286472
 21
-801.2708129021
 31
0.0
  0
LINE
  5
10AE
330
1F
100
AcDbEntity
  8
SLD-0
100
AcDbLine
 10
-1730.1328170469
 20
-801.2708129021
 30
0.0
 11
-1730.0672035089
 21
-801.2708129021
 31
0.0
  0
LINE
  5
10B2
330
1F
100
AcDbEntity
  8
SLD-0
100
AcDbLine
 10
-1799.7983719578
 20
-801.2708129021
 30
0.0
 11
-1799.7328217497
 21
-801.2708129021
 31
0.0
  0
LINE
  5
10B5
330
1F
100
AcDbEntity
  8
SLD-0
100
AcDbLine
 10
-1816.6327576509
 20
-801.2708129021
 30
0.0
 11
-1815.0328721275
 21
-801.2708129021
 31
0.0
  0
LINE
  5
10B8
330
1F
100
AcDbEntity
  8
SLD-0
100
AcDbLine
 10
-1714.8326157948
 20
-801.2708129021
 30
0.0
 11
-1713.2331428474
 21
-801.2708129021
 31
0.0
  0
LINE
  5
10BE
330
1F
100
AcDbEntity
  8
SLD-0
100
AcDbLine
 10
-1713.2331428474
 20
-801.2708129021
 30
0.0
 11
-1713.1615762954
 21
-801.2708129021
 31
0.0
  0
LINE
  5
10C2
330
1F
100
AcDbEntity
  8
SLD-0
100
AcDbLine
 10
-1714.8717127165
 20
-801.2708129021
 30
0.0
 11
-1714.8326157948
 21
-801.2708129021
 31
0.0
  0
LINE
  5
10C8
330
1F
100
AcDbEntity
  8
SLD-0
100
AcDbLine
 10
-1816.7029719224
 20
-801.2708129021
 30
0.0
 11
-1816.6327576509
 21
-801.2708129021
 31
0.0
  0
LINE
  5
10CC
330
1F
100
AcDbEntity
  8
SLD-0
100
AcDbLine
 10
-1815.0328721275
 20
-801.2708129021
 30
0.0
 11
-1814.9936075678
 21
-801.2708129021
 31
0.0
  0
LINE
  5
1131
330
1F
100
AcDbEntity
  8
SLD-0
100
AcDbLine
 10
-1670.9228053113
 20
-801.2708129021
 30
0.0
 11
-1670.9228053113
 21
-688.4933413597
 31
0.0
  0
LINE
  5
1133
330
1F
100
AcDbEntity
  8
SLD-0
100
AcDbLine
 10
-1670.9228053113
 20
-665.879994783
 30
0.0
 11
-1670.9228053113
 21
-616.7708040805998
 31
0.0
  0
LINE
  5
1134
330
1F
100
AcDbEntity
  8
SLD-0
100
AcDbLine
 10
-1672.5425820222
 20
-801.2708129021
 30
0.0
 11
-1670.9228053113
 21
-801.2708129021
 31
0.0
  0
LINE
  5
1135
330
1F
100
AcDbEntity
  8
SLD-0
100
AcDbLine
 10
-1858.9436660876
 20
-801.2708129021
 30
0.0
 11
-1857.3230306973
 21
-801.2708129021
 31
0.0
  0
LINE
  5
1136
330
1F
100
AcDbEntity
  8
SLD-0
100
AcDbLine
 10
-1858.9436660876
 20
-616.7708040805998
 30
0.0
 11
-1858.9436660876
 21
-801.2708129021
 31
0.0
  0
LINE
  5
1137
330
1F
100
AcDbEntity
  8
SLD-0
100
AcDbLine
 10
-1859.7753594985
 20
-801.2708129021
 30
0.0
 11
-1858.9436660876
 21
-801.2708129021
 31
0.0
  0
LINE
  5
1138
330
1F
100
AcDbEntity
  8
SLD-0
100
AcDbLine
 10
-1670.9228053113
 20
-801.2708129021
 30
0.0
 11
-1670.0902755728
 21
-801.2708129021
 31
0.0
  0
ELLIPSE
  5
1158
330
1F
100
AcDbEntity
  8
SLD-0
100
AcDbEllipse
 10
-1813.9266504883
 20
-705.2646395923
 30
0.0
 11
-2.837143407734173
 21
-2.83714340773406
 31
2.840000000000000E-14
210
5.005034275423118E-15
220
5.005034275423118E-15
230
1.0
 40
0.9969277960999999
 41
5.499325607748208
 42
7.067045006610987
  0
ELLIPSE
  5
115B
330
1F
100
AcDbEntity
  8
SLD-0
100
AcDbEllipse
 10
-1715.938986656
 20
-705.2646395923
 30
0.0
 11
-2.837143407733947
 21
2.837143407734287
 31
-2.840000000000000E-14
210
-5.005034275423117E-15
220
5.005034275423118E-15
230
1.0
 40
0.9969277960999999
 41
2.35773295415847
 42
3.925452353021278
  0
LINE
  5
115D
330
1F
100
AcDbEntity
  8
SLD-0
100
AcDbLine
 10
-1817.9328169098
 20
-705.2769662472
 30
0.0
 11
-1817.9328169098
 21
-616.7708040805998
 31
0.0
  0
LINE
  5
115E
330
1F
100
AcDbEntity
  8
SLD-0
100
AcDbLine
 10
-1711.9328181615
 20
-616.7708040805998
 30
0.0
 11
-1711.9328181615
 21
-705.2769662472
 31
0.0
  0
LINE
  5
115F
330
1F
100
AcDbEntity
  8
SLD-0
100
AcDbLine
 10
-1715.9266609123
 20
-709.2708052727
 30
0.0
 11
-1813.9389778843
 21
-709.2708052727
 31
0.0
  0
LINE
  5
1167
330
1F
100
AcDbEntity
  8
SLD-0
100
AcDbLine
 10
-2021.1328219047
 20
-568.2708026501
 30
0.0
 11
-2021.1328219047
 21
-566.7708070608
 31
0.0
  0
LINE
  5
1168
330
1F
100
AcDbEntity
  8
SLD-0
100
AcDbLine
 10
-2021.1328219047
 20
-566.7708070608
 30
0.0
 11
-2016.132826673
 21
-566.7708070608
 31
0.0
  0
LINE
  5
1169
330
1F
100
AcDbEntity
  8
SLD-0
100
AcDbLine
 10
-2016.132826673
 20
-566.7708070608
 30
0.0
 11
-2016.132826673
 21
-568.2708026501
 31
0.0
  0
LINE
  5
116A
330
1F
100
AcDbEntity
  8
SLD-0
100
AcDbLine
 10
-2016.132826673
 20
-568.2708026501
 30
0.0
 11
-2019.4400201907
 21
-568.2708026501
 31
0.0
  0
LINE
  5
116B
330
1F
100
AcDbEntity
  8
SLD-0
100
AcDbLine
 10
-2020.632828342
 20
-568.2708026501
 30
0.0
 11
-2021.1328219047
 21
-568.2708026501
 31
0.0
  0
LINE
  5
116C
330
1F
100
AcDbEntity
  8
SLD-0
100
AcDbLine
 10
-1404.1328083148
 20
-568.2708026501
 30
0.0
 11
-1404.1328083148
 21
-566.7708070608
 31
0.0
  0
LINE
  5
116D
330
1F
100
AcDbEntity
  8
SLD-0
100
AcDbLine
 10
-1404.1328083148
 20
-568.2708026501
 30
0.0
 11
-1443.2047258487
 21
-568.2708026501
 31
0.0
  0
LINE
  5
116E
330
1F
100
AcDbEntity
  8
SLD-0
100
AcDbLine
 10
-1711.3609022816
 20
-568.2708026501
 30
0.0
 11
-2016.132826673
 21
-568.2708026501
 31
0.0
  0
LINE
  5
116F
330
1F
100
AcDbEntity
  8
SLD-0
100
AcDbLine
 10
-1404.1328083148
 20
-566.7708070608
 30
0.0
 11
-1442.0301567187
 21
-566.7708070608
 31
0.0
  0
LINE
  5
1170
330
1F
100
AcDbEntity
  8
SLD-0
100
AcDbLine
 10
-1712.5354807248
 20
-566.7708070608
 30
0.0
 11
-2016.132826673
 21
-566.7708070608
 31
0.0
  0
LINE
  5
1171
330
1F
100
AcDbEntity
  8
SLD-0
100
AcDbLine
 10
-1399.1328130832
 20
-566.7708070608
 30
0.0
 11
-1399.1328130832
 21
-568.2708026501
 31
0.0
  0
LINE
  5
1172
330
1F
100
AcDbEntity
  8
SLD-0
100
AcDbLine
 10
-1399.1328130832
 20
-568.2708026501
 30
0.0
 11
-1399.6328066459
 21
-568.2708026501
 31
0.0
  0
LINE
  5
1173
330
1F
100
AcDbEntity
  8
SLD-0
100
AcDbLine
 10
-1400.8256147971
 20
-568.2708026501
 30
0.0
 11
-1404.1328083148
 21
-568.2708026501
 31
0.0
  0
LINE
  5
1174
330
1F
100
AcDbEntity
  8
SLD-0
100
AcDbLine
 10
-1404.1328083148
 20
-566.7708070608
 30
0.0
 11
-1399.1328130832
 21
-566.7708070608
 31
0.0
  0
LINE
  5
117A
330
1F
100
AcDbEntity
  8
SLD-0
100
AcDbLine
 10
-2020.632828342
 20
-616.7708040805998
 30
0.0
 11
-1650.2436499467
 21
-616.7708040805998
 31
0.0
  0
LINE
  5
117B
330
1F
100
AcDbEntity
  8
SLD-0
100
AcDbLine
 10
-1504.3219874969
 20
-616.7708040805998
 30
0.0
 11
-1399.6328066459
 21
-616.7708040805998
 31
0.0
  0
LINE
  5
1180
330
1F
100
AcDbEntity
  8
SLD-0
100
AcDbLine
 10
-1399.8095940223
 20
-568.2708026501
 30
0.0
 11
-1400.8256147971
 21
-568.2708026501
 31
0.0
  0
LINE
  5
1181
330
1F
100
AcDbEntity
  8
SLD-0
100
AcDbLine
 10
-2019.4400201907
 20
-568.2708026501
 30
0.0
 11
-2020.4560409656
 21
-568.2708026501
 31
0.0
  0
LINE
  5
1182
330
1F
100
AcDbEntity
  8
SLD-0
100
AcDbLine
 10
-1397.1328090301
 20
-614.2708064647998
 30
0.0
 11
-1397.1328090301
 21
-570.7708002659
 31
0.0
  0
ARC
  5
1187
330
1F
100
AcDbEntity
  8
SLD-0
100
AcDbCircle
 10
-1399.6328185721
 20
-614.2708076761
 30
0.0
 40
2.5
100
AcDbArc
 50
270.0
 51
0.0
  0
LINE
  5
118A
330
1F
100
AcDbEntity
  8
SLD-0
100
AcDbLine
 10
-2023.1328259578
 20
-570.7708002659
 30
0.0
 11
-2023.1328259578
 21
-614.2708064647998
 31
0.0
  0
LINE
  5
118B
330
1F
100
AcDbEntity
  8
SLD-0
100
AcDbLine
 10
-2020.632828342
 20
-568.3101864191001
 30
0.0
 11
-2020.632828342
 21
-568.2708026501
 31
0.0
  0
ARC
  5
118C
330
1F
100
AcDbEntity
  8
SLD-0
100
AcDbCircle
 10
-2020.6328185721
 20
-570.7708076761
 30
0.0
 40
2.499999999999884
100
AcDbArc
 50
90.0
 51
180.0
  0
ARC
  5
118E
330
1F
100
AcDbEntity
  8
SLD-0
100
AcDbCircle
 10
-2020.6328185721
 20
-614.2708076761
 30
0.0
 40
2.500000000000114
100
AcDbArc
 50
180.0
 51
270.0
  0
ARC
  5
1190
330
1F
100
AcDbEntity
  8
SLD-0
100
AcDbCircle
 10
-1399.6328185721
 20
-570.7708076761
 30
0.0
 40
2.5
100
AcDbArc
 50
0.0
 51
90.0
  0
LINE
  5
1192
330
1F
100
AcDbEntity
  8
SLD-0
100
AcDbLine
 10
-1399.6328066459
 20
-568.3101864191001
 30
0.0
 11
-1399.6328066459
 21
-568.2708026501
 31
0.0
  0
LINE
  5
1193
330
1F
100
AcDbEntity
  8
SLD-0
100
AcDbLine
 10
-2020.632828342
 20
-568.2708026501
 30
0.0
 11
-2020.4560409656
 21
-568.2708026501
 31
0.0
  0
LINE
  5
1194
330
1F
100
AcDbEntity
  8
SLD-0
100
AcDbLine
 10
-1399.8095940223
 20
-568.2708026501
 30
0.0
 11
-1399.6328066459
 21
-568.2708026501
 31
0.0
  0
LINE
  5
1195
330
1F
100
AcDbEntity
  8
SLD-0
100
AcDbLine
 10
-1429.632807838
 20
-898.8707961174
 30
0.0
 11
-1432.6328288188
 21
-898.8707961174
 31
0.0
  0
LINE
  5
1196
330
1F
100
AcDbEntity
  8
SLD-0
100
AcDbLine
 10
-1432.6328288188
 20
-898.8707961174
 30
0.0
 11
-1432.6328288188
 21
-616.7708040805998
 31
0.0
  0
LINE
  5
1197
330
1F
100
AcDbEntity
  8
SLD-0
100
AcDbLine
 10
-1432.6328288188
 20
-307.8856618734
 30
0.0
 11
-1432.6328288188
 21
-278.8708062502
 31
0.0
  0
LINE
  5
1198
330
1F
100
AcDbEntity
  8
SLD-0
100
AcDbLine
 10
-1429.632807838
 20
-278.8708062502
 30
0.0
 11
-1432.6328288188
 21
-278.8708062502
 31
0.0
  0
LINE
  5
1199
330
1F
100
AcDbEntity
  8
SLD-0
100
AcDbLine
 10
-1400.6328235736
 20
-898.8707961174
 30
0.0
 11
-1429.632807838
 21
-898.8707961174
 31
0.0
  0
LINE
  5
119A
330
1F
100
AcDbEntity
  8
SLD-0
100
AcDbLine
 10
-1400.6328235736
 20
-278.8708062502
 30
0.0
 11
-1429.632807838
 21
-278.8708062502
 31
0.0
  0
LINE
  5
119B
330
1F
100
AcDbEntity
  8
SLD-0
100
AcDbLine
 10
-1397.6328323951
 20
-898.8707961174
 30
0.0
 11
-1397.6328323951
 21
-615.770802054
 31
0.0
  0
LINE
  5
119D
330
1F
100
AcDbEntity
  8
SLD-0
100
AcDbLine
 10
-1397.6328323951
 20
-309.8666445943
 30
0.0
 11
-1397.6328323951
 21
-278.8708062502
 31
0.0
  0
LINE
  5
119E
330
1F
100
AcDbEntity
  8
SLD-0
100
AcDbLine
 10
-1397.6328323951
 20
-898.8707961174
 30
0.0
 11
-1400.6328235736
 21
-898.8707961174
 31
0.0
  0
LINE
  5
119F
330
1F
100
AcDbEntity
  8
SLD-0
100
AcDbLine
 10
-1397.6328323951
 20
-278.8708062502
 30
0.0
 11
-1400.6328235736
 21
-278.8708062502
 31
0.0
  0
LINE
  5
11A0
330
1F
100
AcDbEntity
  8
SLD-0
100
AcDbLine
 10
-1989.6328102222
 20
-898.8707961174
 30
0.0
 11
-2018.6328242888
 21
-898.8707961174
 31
0.0
  0
LINE
  5
11A1
330
1F
100
AcDbEntity
  8
SLD-0
100
AcDbLine
 10
-1989.6328102222
 20
-278.8708062502
 30
0.0
 11
-2018.6328242888
 21
-278.8708062502
 31
0.0
  0
LINE
  5
11A2
330
1F
100
AcDbEntity
  8
SLD-0
100
AcDbLine
 10
-2018.6328242888
 20
-898.8707961174
 30
0.0
 11
-2021.6328154674
 21
-898.8707961174
 31
0.0
  0
LINE
  5
11A3
330
1F
100
AcDbEntity
  8
SLD-0
100
AcDbLine
 10
-2021.6328154674
 20
-898.8707961174
 30
0.0
 11
-2021.6328154674
 21
-616.5620984169
 31
0.0
  0
LINE
  5
11A4
330
1F
100
AcDbEntity
  8
SLD-0
100
AcDbLine
 10
-2021.6328154674
 20
-568.4795232148997
 30
0.0
 11
-2021.6328154674
 21
-561.2749607893
 31
0.0
  0
LINE
  5
11A5
330
1F
100
AcDbEntity
  8
SLD-0
100
AcDbLine
 10
-2021.6328154674
 20
-309.8666445943
 30
0.0
 11
-2021.6328154674
 21
-278.8708062502
 31
0.0
  0
LINE
  5
11A6
330
1F
100
AcDbEntity
  8
SLD-0
100
AcDbLine
 10
-2018.6328242888
 20
-278.8708062502
 30
0.0
 11
-2021.6328154674
 21
-278.8708062502
 31
0.0
  0
LINE
  5
11A7
330
1F
100
AcDbEntity
  8
SLD-0
100
AcDbLine
 10
-1986.6328190436
 20
-898.8707961174
 30
0.0
 11
-1986.6328190436
 21
-746.3708223435
 31
0.0
  0
LINE
  5
11A8
330
1F
100
AcDbEntity
  8
SLD-0
100
AcDbLine
 10
-1986.6328190436
 20
-703.87080327
 30
0.0
 11
-1986.6328190436
 21
-658.2708062263998
 31
0.0
  0
LINE
  5
11A9
330
1F
100
AcDbEntity
  8
SLD-0
100
AcDbLine
 10
-1986.6328190436
 20
-307.8856618734
 30
0.0
 11
-1986.6328190436
 21
-278.8708062502
 31
0.0
  0
LINE
  5
11AA
330
1F
100
AcDbEntity
  8
SLD-0
100
AcDbLine
 10
-1986.6328190436
 20
-898.8707961174
 30
0.0
 11
-1989.6328102222
 21
-898.8707961174
 31
0.0
  0
LINE
  5
11AB
330
1F
100
AcDbEntity
  8
SLD-0
100
AcDbLine
 10
-1986.6328190436
 20
-278.8708062502
 30
0.0
 11
-1989.6328102222
 21
-278.8708062502
 31
0.0
  0
LINE
  5
11AC
330
1F
100
AcDbEntity
  8
SLD-0
100
AcDbLine
 10
-1401.1328171363
 20
-563.7708009810999
 30
0.0
 11
-1414.1328285804
 21
-563.7708009810999
 31
0.0
  0
LINE
  5
11AD
330
1F
100
AcDbEntity
  8
SLD-0
100
AcDbLine
 10
-1414.1328285804
 20
-563.7708009810999
 30
0.0
 11
-1414.1328285804
 21
-561.7708118291999
 31
0.0
  0
LINE
  5
11AE
330
1F
100
AcDbEntity
  8
SLD-0
100
AcDbLine
 10
-1401.1328171363
 20
-563.7708009810999
 30
0.0
 11
-1401.1328171363
 21
-561.7708118291999
 31
0.0
  0
LWPOLYLINE
  5
11AF
330
1F
100
AcDbEntity
  8
SLD-0
100
AcDbPolyline
 90
        3
 70
   128
 43
0.0
 10
-1401.9366751781
 20
-566.7708070608
 10
-1401.3372610679
 20
-565.3237254949998
 10
-1401.1328171363
 20
-563.7708009810999
  0
LINE
  5
11B0
330
1F
100
AcDbEntity
  8
SLD-0
100
AcDbLine
 10
-2005.1328192821
 20
-563.7708009810999
 30
0.0
 11
-2005.1328192821
 21
-561.7708118291999
 31
0.0
  0
LINE
  5
11B1
330
1F
100
AcDbEntity
  8
SLD-0
100
AcDbLine
 10
-2005.1328192821
 20
-563.7708009810999
 30
0.0
 11
-2018.1328307261
 21
-563.7708009810999
 31
0.0
  0
LINE
  5
11B2
330
1F
100
AcDbEntity
  8
SLD-0
100
AcDbLine
 10
-2018.1328307261
 20
-563.7708009810999
 30
0.0
 11
-2018.1328307261
 21
-561.7708118291999
 31
0.0
  0
LWPOLYLINE
  5
11B3
330
1F
100
AcDbEntity
  8
SLD-0
100
AcDbPolyline
 90
        3
 70
   128
 43
0.0
 10
-2017.3289726844
 20
-566.7708070608
 10
-2017.9283867946
 20
-565.3237254949998
 10
-2018.1328307261
 20
-563.7708009810999
  0
LINE
  5
11D0
330
1F
100
AcDbEntity
  8
SLD-0
100
AcDbLine
 10
-1399.5328198543
 20
-561.7708118291999
 30
0.0
 11
-1438.3033763042
 21
-561.7708118291999
 31
0.0
  0
LINE
  5
11D1
330
1F
100
AcDbEntity
  8
SLD-0
100
AcDbLine
 10
-1716.2622518262
 20
-561.7708118291999
 30
0.0
 11
-2019.7328280082
 21
-561.7708118291999
 31
0.0
  0
LINE
  5
11D3
330
1F
100
AcDbEntity
  8
SLD-0
100
AcDbLine
 10
-2019.7328280082
 20
-309.3708084556
 30
0.0
 11
-2018.0058728328
 21
-309.3708084556
 31
0.0
  0
LINE
  5
11D4
330
1F
100
AcDbEntity
  8
SLD-0
100
AcDbLine
 10
-1401.2597750297
 20
-309.3708084556
 30
0.0
 11
-1399.5328198543
 21
-309.3708084556
 31
0.0
  0
LINE
  5
11DB
330
1F
100
AcDbEntity
  8
SLD-0
100
AcDbLine
 10
-1399.5328198543
 20
-309.3708084556
 30
0.0
 11
-1398.832822906
 21
-309.3708084556
 31
0.0
  0
LINE
  5
11DE
330
1F
100
AcDbEntity
  8
SLD-0
100
AcDbLine
 10
-1397.8328059783
 20
-560.0708128544
 30
0.0
 11
-1397.1328090301
 21
-560.0708128544
 31
0.0
  0
LINE
  5
11E0
330
1F
100
AcDbEntity
  8
SLD-0
100
AcDbLine
 10
-1397.1328090301
 20
-560.0708128544
 30
0.0
 11
-1397.1328090301
 21
-311.0708074304
 31
0.0
  0
ARC
  5
11E2
330
1F
100
AcDbEntity
  8
SLD-0
100
AcDbCircle
 10
-1398.8328185721
 20
-311.0708076761
 30
0.0
 40
1.700000000000045
100
AcDbArc
 50
0.0
 51
90.0
  0
LINE
  5
11E4
330
1F
100
AcDbEntity
  8
SLD-0
100
AcDbLine
 10
-1398.832822906
 20
-561.7708118291999
 30
0.0
 11
-1399.5328198543
 21
-561.7708118291999
 31
0.0
  0
ARC
  5
11E6
330
1F
100
AcDbEntity
  8
SLD-0
100
AcDbCircle
 10
-1398.8328185721
 20
-560.0708076761
 30
0.0
 40
1.700000000000045
100
AcDbArc
 50
270.0
 51
0.0
  0
LINE
  5
11EC
330
1F
100
AcDbEntity
  8
SLD-0
100
AcDbLine
 10
-1708.7328189408
 20
-307.8708054157
 30
0.0
 11
-1710.5328186771
 21
-307.8708054157
 31
0.0
  0
LINE
  5
11FC
330
1F
100
AcDbEntity
  8
SLD-0
100
AcDbLine
 10
-1846.7328201404
 20
-307.8708054157
 30
0.0
 11
-1848.5328208079
 21
-307.8708054157
 31
0.0
  0
LINE
  5
1200
330
1F
100
AcDbEntity
  8
SLD-0
100
AcDbLine
 10
-1984.7328315845
 20
-307.8708054157
 30
0.0
 11
-1986.532832252
 21
-307.8708054157
 31
0.0
  0
LINE
  5
1201
330
1F
100
AcDbEntity
  8
SLD-0
100
AcDbLine
 10
-1434.3096862903
 20
-307.8708054157
 30
0.0
 11
-1434.532816278
 21
-307.8708054157
 31
0.0
  0
LINE
  5
1202
330
1F
100
AcDbEntity
  8
SLD-0
100
AcDbLine
 10
-1432.7328156104
 20
-307.8708054157
 30
0.0
 11
-1434.3096862903
 21
-307.8708054157
 31
0.0
  0
LINE
  5
1205
330
1F
100
AcDbEntity
  8
SLD-0
100
AcDbLine
 10
-2020.4328249564
 20
-309.3708084556
 30
0.0
 11
-2019.7328280082
 21
-309.3708084556
 31
0.0
  0
ARC
  5
1208
330
1F
100
AcDbEntity
  8
SLD-0
100
AcDbCircle
 10
-2020.4328185721
 20
-311.0708076761
 30
0.0
 40
1.699999999999989
100
AcDbArc
 50
90.0
 51
180.0
  0
LINE
  5
120B
330
1F
100
AcDbEntity
  8
SLD-0
100
AcDbLine
 10
-2022.1328090301
 20
-311.0708074304
 30
0.0
 11
-2022.1328090301
 21
-560.0708128544
 31
0.0
  0
LINE
  5
120E
330
1F
100
AcDbEntity
  8
SLD-0
100
AcDbLine
 10
-2019.7328280082
 20
-561.7708118291999
 30
0.0
 11
-2020.4328249564
 21
-561.7708118291999
 31
0.0
  0
ARC
  5
120F
330
1F
100
AcDbEntity
  8
SLD-0
100
AcDbCircle
 10
-2020.4328185721
 20
-560.0708076761
 30
0.0
 40
1.700000000000045
100
AcDbArc
 50
180.0
 51
270.0
  0
LINE
  5
1225
330
1F
100
AcDbEntity
  8
SLD-0
100
AcDbLine
 10
-1678.4328191897
 20
-685.0428880783
 30
0.0
 11
-1678.4328191897
 21
-664.6606178613998
 31
0.0
  0
LINE
  5
1226
330
1F
100
AcDbEntity
  8
SLD-0
100
AcDbLine
 10
-1678.4328191897
 20
-694.1606105896
 30
0.0
 11
-1678.4328191897
 21
-685.0428880783
 31
0.0
  0
LINE
  5
122F
330
1F
100
AcDbEntity
  8
SLD-0
100
AcDbLine
 10
-1606.1328153482
 20
-269.2208142611
 30
0.0
 11
-1921.132812964
 21
-269.2208142611
 31
0.0
  0
LINE
  5
1230
330
1F
100
AcDbEntity
  8
SLD-0
100
AcDbLine
 10
-1982.7328275313
 20
-746.3708223435
 30
0.0
 11
-1859.7753594985
 21
-746.3708223435
 31
0.0
  0
LINE
  5
1231
330
1F
100
AcDbEntity
  8
SLD-0
100
AcDbLine
 10
-1670.0902755728
 20
-746.3708223435
 30
0.0
 11
-1436.7328237166
 21
-746.3708223435
 31
0.0
  0
LINE
  5
1235
330
1F
100
AcDbEntity
  8
SLD-0
100
AcDbLine
 10
-1480.9328119626
 20
-620.7708121867998
 30
0.0
 11
-1513.4887497296
 21
-620.7708121867998
 31
0.0
  0
LINE
  5
124F
330
1F
100
AcDbEntity
  8
SLD-0
100
AcDbLine
 10
-1834.4517301192
 20
-864.0249671074
 30
0.0
 11
-1863.2474045625
 21
-864.0249671074
 31
0.0
  0
LINE
  5
1250
330
1F
100
AcDbEntity
  8
SLD-0
100
AcDbLine
 10
-1666.6182342341
 20
-864.0249671074
 30
0.0
 11
-1834.4517301192
 21
-864.0249671074
 31
0.0
  0
LINE
  5
1251
330
1F
100
AcDbEntity
  8
SLD-0
100
AcDbLine
 10
-1834.7596179118
 20
-862.3999656768999
 30
0.0
 11
-1863.6828164926
 21
-862.3999656768999
 31
0.0
  0
LINE
  5
1252
330
1F
100
AcDbEntity
  8
SLD-0
100
AcDbLine
 10
-1666.1828185787
 20
-862.3999656768999
 30
0.0
 11
-1834.7596179118
 21
-862.3999656768999
 31
0.0
  0
LINE
  5
1253
330
1F
100
AcDbEntity
  8
SLD-0
100
AcDbLine
 10
-1823.1755669584
 20
-891.6458191010001
 30
0.0
 11
-1847.3005096784
 21
-891.6458191010001
 31
0.0
  0
LINE
  5
1254
330
1F
100
AcDbEntity
  8
SLD-0
100
AcDbLine
 10
-1682.5651328435
 20
-891.6458191010001
 30
0.0
 11
-1823.1755669584
 21
-891.6458191010001
 31
0.0
  0
LINE
  5
127B
330
1F
100
AcDbEntity
  8
SLD-0
100
AcDbLine
 10
-1400.6328235736
 20
-566.7708070608
 30
0.0
 11
-1400.6328235736
 21
-561.7708118291999
 31
0.0
  0
LINE
  5
1280
330
1F
100
AcDbEntity
  8
SLD-0
100
AcDbLine
 10
-2018.6328242888
 20
-566.7708070608
 30
0.0
 11
-2018.6328242888
 21
-561.7708118291999
 31
0.0
  0
LINE
  5
1282
330
1F
100
AcDbEntity
  8
SLD-0
100
AcDbLine
 10
-1414.1328285804
 20
-566.7708070608
 30
0.0
 11
-1414.1328285804
 21
-563.7708009810999
 31
0.0
  0
LINE
  5
1283
330
1F
100
AcDbEntity
  8
SLD-0
100
AcDbLine
 10
-2005.1328192821
 20
-566.7708070608
 30
0.0
 11
-2005.1328192821
 21
-563.7708009810999
 31
0.0
  0
LINE
  5
1284
330
1F
100
AcDbEntity
  8
SLD-0
100
AcDbLine
 10
-1414.1328285804
 20
-563.7708009810999
 30
0.0
 11
-1439.7601436248
 21
-563.7708009810999
 31
0.0
  0
LINE
  5
1285
330
1F
100
AcDbEntity
  8
SLD-0
100
AcDbLine
 10
-1714.805480780199
 20
-563.7708009810999
 30
0.0
 11
-2005.1328192821
 21
-563.7708009810999
 31
0.0
  0
CIRCLE
  5
130C
330
1F
100
AcDbEntity
  8
0
100
AcDbCircle
 10
-2004.1328185721
 20
-293.8708076761
 30
0.0
 40
2.999999999999984
  0
CIRCLE
  5
130D
330
1F
100
AcDbEntity
  8
0
100
AcDbCircle
 10
-2004.1328185721
 20
-293.8708076761
 30
0.0
 40
3.999999999999986
  0
CIRCLE
  5
130E
330
1F
100
AcDbEntity
  8
0
100
AcDbCircle
 10
-2004.1328185721
 20
-293.8708076761
 30
0.0
 40
4.25
  0
CIRCLE
  5
130F
330
1F
100
AcDbEntity
  8
0
100
AcDbCircle
 10
-1415.1328185721
 20
-293.8708076761
 30
0.0
 40
2.999999999999984
  0
CIRCLE
  5
1310
330
1F
100
AcDbEntity
  8
0
100
AcDbCircle
 10
-1415.1328185721
 20
-293.8708076761
 30
0.0
 40
3.999999999999986
  0
CIRCLE
  5
1311
330
1F
100
AcDbEntity
  8
0
100
AcDbCircle
 10
-1415.1328185721
 20
-293.8708076761
 30
0.0
 40
4.25
  0
CIRCLE
  5
1312
330
1F
100
AcDbEntity
  8
0
100
AcDbCircle
 10
-1415.1328185721
 20
-883.8708076761
 30
0.0
 40
2.999999999999984
  0
CIRCLE
  5
1313
330
1F
100
AcDbEntity
  8
0
100
AcDbCircle
 10
-1415.1328185721
 20
-883.8708076761
 30
0.0
 40
3.999999999999986
  0
CIRCLE
  5
1314
330
1F
100
AcDbEntity
  8
0
100
AcDbCircle
 10
-1415.1328185721
 20
-883.8708076761
 30
0.0
 40
4.25
  0
CIRCLE
  5
1315
330
1F
100
AcDbEntity
  8
0
100
AcDbCircle
 10
-2004.1328185721
 20
-883.8708076761
 30
0.0
 40
2.999999999999984
  0
CIRCLE
  5
1316
330
1F
100
AcDbEntity
  8
0
100
AcDbCircle
 10
-2004.1328185721
 20
-883.8708076761
 30
0.0
 40
3.999999999999986
  0
CIRCLE
  5
1317
330
1F
100
AcDbEntity
  8
0
100
AcDbCircle
 10
-2004.1328185721
 20
-883.8708076761
 30
0.0
 40
4.25
  0
LINE
  5
1342
330
1F
100
AcDbEntity
  8
0
100
AcDbLine
 10
-1991.6328172555
 20
142.0060563377999
 30
0.0
 11
-1991.6328172555
 21
172.0060563377999
 31
0.0
  0
LINE
  5
1343
330
1F
100
AcDbEntity
  8
0
100
AcDbLine
 10
-2016.6328172555
 20
172.0060563377999
 30
0.0
 11
-2016.6328172555
 21
142.0060563377999
 31
0.0
  0
LINE
  5
1344
330
1F
100
AcDbEntity
  8
0
100
AcDbLine
 10
-2000.1328172555
 20
191.0060563377999
 30
0.0
 11
-2001.1328172555
 21
192.0060563377999
 31
0.0
  0
LINE
  5
1345
330
1F
100
AcDbEntity
  8
0
100
AcDbLine
 10
-2007.1328172555
 20
192.0060563377999
 30
0.0
 11
-2008.1328172555
 21
191.0060563377999
 31
0.0
  0
LINE
  5
1346
330
1F
100
AcDbEntity
  8
0
100
AcDbLine
 10
-2000.1328172555
 20
174.0060563377999
 30
0.0
 11
-2000.1328172555
 21
191.0060563377999
 31
0.0
  0
LINE
  5
1347
330
1F
100
AcDbEntity
  8
0
100
AcDbLine
 10
-2008.1328172555
 20
191.0060563377999
 30
0.0
 11
-2008.1328172555
 21
174.0060563377999
 31
0.0
  0
LINE
  5
1348
330
1F
100
AcDbEntity
  8
0
100
AcDbLine
 10
-2015.3153182669
 20
142.0060563377999
 30
0.0
 11
-1991.6328172555
 21
142.0060563377999
 31
0.0
  0
LINE
  5
1349
330
1F
100
AcDbEntity
  8
0
100
AcDbLine
 10
-2016.6328172555
 20
142.0060563377999
 30
0.0
 11
-2015.3153182669
 21
142.0060563377999
 31
0.0
  0
LINE
  5
134A
330
1F
100
AcDbEntity
  8
0
100
AcDbLine
 10
-2006.8166174982
 20
192.0060563377999
 30
0.0
 11
-2001.1328172555
 21
192.0060563377999
 31
0.0
  0
LINE
  5
134B
330
1F
100
AcDbEntity
  8
0
100
AcDbLine
 10
-2007.1328172555
 20
192.0060563377999
 30
0.0
 11
-2006.8166174982
 21
192.0060563377999
 31
0.0
  0
LINE
  5
134C
330
1F
100
AcDbEntity
  8
0
100
AcDbLine
 10
-2007.7112175792
 20
191.0060563377999
 30
0.0
 11
-2008.1328172555
 21
191.0060563377999
 31
0.0
  0
LINE
  5
134D
330
1F
100
AcDbEntity
  8
0
100
AcDbLine
 10
-2000.1328172555
 20
191.0060563377999
 30
0.0
 11
-2007.7112175792
 21
191.0060563377999
 31
0.0
  0
LINE
  5
134E
330
1F
100
AcDbEntity
  8
0
100
AcDbLine
 10
-2016.6328172555
 20
172.0060563377999
 30
0.0
 11
-1991.6328172555
 21
172.0060563377999
 31
0.0
  0
LINE
  5
134F
330
1F
100
AcDbEntity
  8
0
100
AcDbLine
 10
-1402.6328157058
 20
142.0060563377999
 30
0.0
 11
-1402.6328157058
 21
172.0060563377999
 31
0.0
  0
LINE
  5
1350
330
1F
100
AcDbEntity
  8
0
100
AcDbLine
 10
-1427.6328157058
 20
172.0060563377999
 30
0.0
 11
-1427.6328157058
 21
142.0060563377999
 31
0.0
  0
LINE
  5
1351
330
1F
100
AcDbEntity
  8
0
100
AcDbLine
 10
-1411.1328157058
 20
191.0060563377999
 30
0.0
 11
-1412.1328157058
 21
192.0060563377999
 31
0.0
  0
LINE
  5
1352
330
1F
100
AcDbEntity
  8
0
100
AcDbLine
 10
-1418.1328157058
 20
192.0060563377999
 30
0.0
 11
-1419.1328157058
 21
191.0060563377999
 31
0.0
  0
LINE
  5
1353
330
1F
100
AcDbEntity
  8
0
100
AcDbLine
 10
-1411.1328157058
 20
174.0060563377999
 30
0.0
 11
-1411.1328157058
 21
191.0060563377999
 31
0.0
  0
LINE
  5
1354
330
1F
100
AcDbEntity
  8
0
100
AcDbLine
 10
-1419.1328157058
 20
191.0060563377999
 30
0.0
 11
-1419.1328157058
 21
174.0060563377999
 31
0.0
  0
LINE
  5
1355
330
1F
100
AcDbEntity
  8
0
100
AcDbLine
 10
-1426.3153167172
 20
142.0060563377999
 30
0.0
 11
-1402.6328157058
 21
142.0060563377999
 31
0.0
  0
LINE
  5
1356
330
1F
100
AcDbEntity
  8
0
100
AcDbLine
 10
-1427.6328157058
 20
142.0060563377999
 30
0.0
 11
-1426.3153167172
 21
142.0060563377999
 31
0.0
  0
LINE
  5
1357
330
1F
100
AcDbEntity
  8
0
100
AcDbLine
 10
-1417.8166159485
 20
192.0060563377999
 30
0.0
 11
-1412.1328157058
 21
192.0060563377999
 31
0.0
  0
LINE
  5
1358
330
1F
100
AcDbEntity
  8
0
100
AcDbLine
 10
-1418.1328157058
 20
192.0060563377999
 30
0.0
 11
-1417.8166159485
 21
192.0060563377999
 31
0.0
  0
LINE
  5
1359
330
1F
100
AcDbEntity
  8
0
100
AcDbLine
 10
-1418.7112160295
 20
191.0060563377999
 30
0.0
 11
-1419.1328157058
 21
191.0060563377999
 31
0.0
  0
LINE
  5
135A
330
1F
100
AcDbEntity
  8
0
100
AcDbLine
 10
-1411.1328157058
 20
191.0060563377999
 30
0.0
 11
-1418.7112160295
 21
191.0060563377999
 31
0.0
  0
LINE
  5
135B
330
1F
100
AcDbEntity
  8
0
100
AcDbLine
 10
-1427.6328157058
 20
172.0060563377999
 30
0.0
 11
-1402.6328157058
 21
172.0060563377999
 31
0.0
  0
LINE
  5
135C
330
1F
100
AcDbEntity
  8
0
100
AcDbLine
 10
-869.8334055155792
 20
142.0060563377999
 30
0.0
 11
-869.8334055155792
 21
149.0060544305
 31
0.0
  0
LINE
  5
135D
330
1F
100
AcDbEntity
  8
0
100
AcDbLine
 10
-894.8334055155792
 20
149.0480156441468
 30
0.0
 11
-894.8334055155792
 21
142.0060563377999
 31
0.0
  0
LINE
  5
135E
330
1F
100
AcDbEntity
  8
0
100
AcDbLine
 10
-878.3334055155792
 20
191.0060563377999
 30
0.0
 11
-879.3334055155792
 21
192.0060563377999
 31
0.0
  0
LINE
  5
135F
330
1F
100
AcDbEntity
  8
0
100
AcDbLine
 10
-885.3334055155792
 20
192.0060563377999
 30
0.0
 11
-886.3334055155792
 21
191.0060563377999
 31
0.0
  0
LINE
  5
1360
330
1F
100
AcDbEntity
  8
0
100
AcDbLine
 10
-878.3334055155792
 20
174.0060563377999
 30
0.0
 11
-878.3334055155792
 21
191.0060563377999
 31
0.0
  0
LINE
  5
1361
330
1F
100
AcDbEntity
  8
0
100
AcDbLine
 10
-886.3334055155792
 20
191.0060563377999
 30
0.0
 11
-886.3334055155792
 21
174.0060563377999
 31
0.0
  0
LINE
  5
1362
330
1F
100
AcDbEntity
  8
0
100
AcDbLine
 10
-893.5159065269795
 20
142.0060563377999
 30
0.0
 11
-869.8334055155792
 21
142.0060563377999
 31
0.0
  0
LINE
  5
1363
330
1F
100
AcDbEntity
  8
0
100
AcDbLine
 10
-894.8334055155792
 20
142.0060563377999
 30
0.0
 11
-893.5159065269795
 21
142.0060563377999
 31
0.0
  0
LINE
  5
1364
330
1F
100
AcDbEntity
  8
0
100
AcDbLine
 10
-885.017205758279
 20
192.0060563377999
 30
0.0
 11
-879.3334055155792
 21
192.0060563377999
 31
0.0
  0
LINE
  5
1365
330
1F
100
AcDbEntity
  8
0
100
AcDbLine
 10
-885.3334055155792
 20
192.0060563377999
 30
0.0
 11
-885.017205758279
 21
192.0060563377999
 31
0.0
  0
LINE
  5
1366
330
1F
100
AcDbEntity
  8
0
100
AcDbLine
 10
-885.9118058392792
 20
191.0060563377999
 30
0.0
 11
-886.3334055155792
 21
191.0060563377999
 31
0.0
  0
LINE
  5
1367
330
1F
100
AcDbEntity
  8
0
100
AcDbLine
 10
-878.3334055155792
 20
191.0060563377999
 30
0.0
 11
-885.9118058392792
 21
191.0060563377999
 31
0.0
  0
LINE
  5
1368
330
1F
100
AcDbEntity
  8
0
100
AcDbLine
 10
-894.8334055155792
 20
174.0060603909
 30
0.0
 11
-869.8334055155792
 21
174.0060603909
 31
0.0
  0
LINE
  5
1369
330
1F
100
AcDbEntity
  8
0
100
AcDbLine
 10
-279.8334093899293
 20
142.0060563377999
 30
0.0
 11
-279.8334093899293
 21
149.0480172274778
 31
0.0
  0
LINE
  5
136A
330
1F
100
AcDbEntity
  8
0
100
AcDbLine
 10
-304.8334093899293
 20
149.0060544305
 30
0.0
 11
-304.8334093899293
 21
142.0060563377999
 31
0.0
  0
LINE
  5
136B
330
1F
100
AcDbEntity
  8
0
100
AcDbLine
 10
-288.3334093899293
 20
191.0060563377999
 30
0.0
 11
-289.3334093899293
 21
192.0060563377999
 31
0.0
  0
LINE
  5
136C
330
1F
100
AcDbEntity
  8
0
100
AcDbLine
 10
-295.3334093899293
 20
192.0060563377999
 30
0.0
 11
-296.3334093899293
 21
191.0060563377999
 31
0.0
  0
LINE
  5
136D
330
1F
100
AcDbEntity
  8
0
100
AcDbLine
 10
-288.3334093899293
 20
174.0060563377999
 30
0.0
 11
-288.3334093899293
 21
191.0060563377999
 31
0.0
  0
LINE
  5
136E
330
1F
100
AcDbEntity
  8
0
100
AcDbLine
 10
-296.3334093899293
 20
191.0060563377999
 30
0.0
 11
-296.3334093899293
 21
174.0060563377999
 31
0.0
  0
LINE
  5
136F
330
1F
100
AcDbEntity
  8
0
100
AcDbLine
 10
-303.5159104013296
 20
142.0060563377999
 30
0.0
 11
-279.8334093899293
 21
142.0060563377999
 31
0.0
  0
LINE
  5
1370
330
1F
100
AcDbEntity
  8
0
100
AcDbLine
 10
-304.8334093899293
 20
142.0060563377999
 30
0.0
 11
-303.5159104013296
 21
142.0060563377999
 31
0.0
  0
LINE
  5
1371
330
1F
100
AcDbEntity
  8
0
100
AcDbLine
 10
-295.0172096326291
 20
192.0060563377999
 30
0.0
 11
-289.3334093899293
 21
192.0060563377999
 31
0.0
  0
LINE
  5
1372
330
1F
100
AcDbEntity
  8
0
100
AcDbLine
 10
-295.3334093899293
 20
192.0060563377999
 30
0.0
 11
-295.0172096326291
 21
192.0060563377999
 31
0.0
  0
LINE
  5
1373
330
1F
100
AcDbEntity
  8
0
100
AcDbLine
 10
-295.9118097136292
 20
191.0060563377999
 30
0.0
 11
-296.3334093899293
 21
191.0060563377999
 31
0.0
  0
LINE
  5
1374
330
1F
100
AcDbEntity
  8
0
100
AcDbLine
 10
-288.3334093899293
 20
191.0060563377999
 30
0.0
 11
-295.9118097136292
 21
191.0060563377999
 31
0.0
  0
LINE
  5
1375
330
1F
100
AcDbEntity
  8
0
100
AcDbLine
 10
-304.8334093899292
 20
174.0060603909
 30
0.0
 11
-279.8334093899292
 21
174.0060603909
 31
0.0
  0
MTEXT
  5
13A7
330
1F
100
AcDbEntity
  8
LENKIMO
100
AcDbMText
 10
-1801.474558952861
 20
-135.4094681743509
 30
0.0
 40
100.0
 41
436.1475856205887
 46
0.0
 71
     1
 72
     5
  1
B
 73
     1
 44
1.0
  0
MTEXT
  5
13A8
330
1F
100
AcDbEntity
  8
LENKIMO
100
AcDbMText
 10
-1620.460241336047
 20
-410.7666620151963
 30
0.0
 40
100.0
 41
436.1475856205887
 46
0.0
 71
     1
 72
     5
  1
A
 73
     1
 44
1.0
  0
LINE
  5
13A9
330
1F
100
AcDbEntity
  8
0
100
AcDbLine
 10
-1135.726070457343
 20
406.8672867292388
 30
0.0
 11
-1135.726070457343
 21
446.8672867292386
 31
0.0
  0
LINE
  5
13AA
330
1F
100
AcDbEntity
  8
0
100
AcDbLine
 10
-1035.726070457343
 20
486.8672867292393
 30
0.0
 11
-1135.726070457343
 21
566.8672867292391
 31
0.0
  0
LINE
  5
13AB
330
1F
100
AcDbEntity
  8
0
100
AcDbLine
 10
-1035.726070457343
 20
486.8672867292393
 30
0.0
 11
-1135.726070457343
 21
406.8672867292388
 31
0.0
  0
LINE
  5
13AC
330
1F
100
AcDbEntity
  8
0
100
AcDbLine
 10
-1135.726070457343
 20
526.8672867292391
 30
0.0
 11
-1235.726070457343
 21
526.8672867292391
 31
0.0
  0
LINE
  5
13AD
330
1F
100
AcDbEntity
  8
0
100
AcDbLine
 10
-1135.726070457343
 20
446.8672867292386
 30
0.0
 11
-1235.726070457343
 21
446.8672867292386
 31
0.0
  0
LINE
  5
13AE
330
1F
100
AcDbEntity
  8
0
100
AcDbLine
 10
-1135.726070457343
 20
526.8672867292391
 30
0.0
 11
-1135.726070457343
 21
566.8672867292391
 31
0.0
  0
LINE
  5
13AF
330
1F
100
AcDbEntity
  8
0
100
AcDbLine
 10
-1235.726070457343
 20
446.8672867292386
 30
0.0
 11
-1235.726070457343
 21
526.8672867292391
 31
0.0
  0
MTEXT
  5
13B0
330
1F
100
AcDbEntity
  8
0
100
AcDbMText
 10
-1218.746284393534
 20
507.8877175538381
 30
0.0
 40
35.0
 41
20.96613465302437
 46
35.0
 71
     1
 72
     5
  1
{ETA}
 73
     1
 44
1.0
1001
ACAD
1000
ACAD_MTEXT_DEFINED_HEIGHT_BEGIN
1070
    46
1040
35.0
1000
ACAD_MTEXT_DEFINED_HEIGHT_END
  0
MTEXT
  5
13B1
330
1F
100
AcDbEntity
  8
LENKIMO
100
AcDbMText
 10
-1006.003404606594
 20
541.6101076312068
 30
0.0
 40
100.0
 41
436.1475856205887
 46
0.0
 71
     1
 72
     5
  1
B
 73
     1
 44
1.0
  0
LINE
  5
13B2
330
1F
100
AcDbEntity
  8
0
100
AcDbLine
 10
-628.760827329563
 20
1053.928038206499
 30
0.0
 11
-668.760827329563
 21
1053.928038206499
 31
0.0
  0
LINE
  5
13B3
330
1F
100
AcDbEntity
  8
0
100
AcDbLine
 10
-708.760827329563
 20
1153.928038206499
 30
0.0
 11
-788.760827329563
 21
1053.928038206499
 31
0.0
  0
LINE
  5
13B4
330
1F
100
AcDbEntity
  8
0
100
AcDbLine
 10
-708.760827329563
 20
1153.928038206499
 30
0.0
 11
-628.760827329563
 21
1053.928038206499
 31
0.0
  0
LINE
  5
13B5
330
1F
100
AcDbEntity
  8
0
100
AcDbLine
 10
-748.760827329563
 20
1053.928038206499
 30
0.0
 11
-748.760827329563
 21
953.9280382064994
 31
0.0
  0
LINE
  5
13B6
330
1F
100
AcDbEntity
  8
0
100
AcDbLine
 10
-668.760827329563
 20
1053.928038206499
 30
0.0
 11
-668.760827329563
 21
953.9280382064994
 31
0.0
  0
LINE
  5
13B7
330
1F
100
AcDbEntity
  8
0
100
AcDbLine
 10
-748.760827329563
 20
1053.928038206499
 30
0.0
 11
-788.760827329563
 21
1053.928038206499
 31
0.0
  0
LINE
  5
13B8
330
1F
100
AcDbEntity
  8
0
100
AcDbLine
 10
-668.760827329563
 20
953.9280382064994
 30
0.0
 11
-748.760827329563
 21
953.9280382064994
 31
0.0
  0
MTEXT
  5
13B9
330
1F
100
AcDbEntity
  8
0
100
AcDbMText
 10
-729.5712647263929
 20
964.6485223646728
 30
0.0
 40
35.0
 41
20.96613465302437
 46
35.0
 71
     1
 72
     5
  1
{EHA}
 11
6.123233995736766E-17
 21
1.0
 31
0.0
 73
     1
 44
1.0
1001
ACAD
1000
ACAD_MTEXT_DEFINED_HEIGHT_BEGIN
1070
    46
1040
35.0
1000
ACAD_MTEXT_DEFINED_HEIGHT_END
  0
MTEXT
  5
13BA
330
1F
100
AcDbEntity
  8
LENKIMO
100
AcDbMText
 10
-739.7128359332221
 20
942.5110732725971
 30
0.0
 40
100.0
 41
436.1475856205887
 46
0.0
 71
     1
 72
     5
  1
A
 73
     1
 44
1.0
  0
ENDSEC
  0
SECTION
  2
OBJECTS
  0
DICTIONARY
  5
C
330
0
100
AcDbDictionary
281
     1
  3
ACAD_COLOR
350
1292
  3
ACAD_DETAILVIEWSTYLE
350
137F
  3
ACAD_GROUP
350
D
  3
ACAD_LAYOUT
350
1A
  3
ACAD_MATERIAL
350
1291
  3
ACAD_MLEADERSTYLE
350
12F3
  3
ACAD_MLINESTYLE
350
17
  3
ACAD_PLOTSETTINGS
350
19
  3
ACAD_PLOTSTYLENAME
350
E
  3
ACAD_SCALELIST
350
12B3
  3
ACAD_SECTIONVIEWSTYLE
350
1380
  3
ACAD_TABLESTYLE
350
12F1
  3
ACAD_VISUALSTYLE
350
12D5
  3
ACDB_RECOMPOSE_DATA
350
13C4
  3
AcDbVariableDictionary
350
1379
  3
APPDATA
350
12F5
  0
DICTIONARY
  5
13BB
330
1F
100
AcDbDictionary
280
     1
281
     1
  3
DIM_BOUNDING_BOXES_V1
360
13BC
  0
DICTIONARY
  5
1292
102
{ACAD_REACTORS
330
C
102
}
330
C
100
AcDbDictionary
281
     1
  0
DICTIONARY
  5
137F
102
{ACAD_REACTORS
330
C
102
}
330
C
100
AcDbDictionary
281
     1
  0
DICTIONARY
  5
D
102
{ACAD_REACTORS
330
C
102
}
330
C
100
AcDbDictionary
281
     1
  0
DICTIONARY
  5
1A
102
{ACAD_REACTORS
330
C
102
}
330
C
100
AcDbDictionary
281
     1
  3
Layout1
350
1E
  3
Layout2
350
26
  3
Model
350
22
  0
DICTIONARY
  5
1291
102
{ACAD_REACTORS
330
C
102
}
330
C
100
AcDbDictionary
281
     1
  3
ByBlock
350
12EF
  3
ByLayer
350
12EE
  3
Global
350
12F0
  0
DICTIONARY
  5
12F3
102
{ACAD_REACTORS
330
C
102
}
330
C
100
AcDbDictionary
281
     1
  3
Standard
350
12F4
  0
DICTIONARY
  5
17
102
{ACAD_REACTORS
330
C
102
}
330
C
100
AcDbDictionary
281
     1
  3
Standard
350
18
  0
DICTIONARY
  5
19
102
{ACAD_REACTORS
330
C
102
}
330
C
100
AcDbDictionary
281
     1
  0
ACDBDICTIONARYWDFLT
  5
E
102
{ACAD_REACTORS
330
C
102
}
330
C
100
AcDbDictionary
281
     1
  3
Normal
350
F
100
AcDbDictionaryWithDefault
340
F
  0
DICTIONARY
  5
12B3
102
{ACAD_REACTORS
330
C
102
}
330
C
100
AcDbDictionary
281
     1
  3
A0
350
12B4
  3
A1
350
12B5
  3
A2
350
12B6
  3
A3
350
12B7
  3
A4
350
12B8
  3
A5
350
12B9
  3
A6
350
12BA
  3
A7
350
12BB
  3
A8
350
12BC
  3
A9
350
12BD
  3
B0
350
12BE
  3
B1
350
12BF
  3
B2
350
12C0
  3
B3
350
12C1
  3
B4
350
12C2
  3
B5
350
12C3
  3
B6
350
12C4
  3
B7
350
12C5
  3
B8
350
12C6
  3
B9
350
12C7
  3
C0
350
12C8
  3
C1
350
12C9
  3
C2
350
12CA
  3
C3
350
12CB
  3
C4
350
12CC
  3
C5
350
12CD
  3
C6
350
12CE
  3
C7
350
12CF
  3
C8
350
12D0
  3
C9
350
12D1
  3
D0
350
12D2
  3
D1
350
12D3
  3
D2
350
12D4
  0
DICTIONARY
  5
1380
102
{ACAD_REACTORS
330
C
102
}
330
C
100
AcDbDictionary
281
     1
  0
DICTIONARY
  5
12F1
102
{ACAD_REACTORS
330
C
102
}
330
C
100
AcDbDictionary
281
     1
  3
Standard
350
12F2
  0
DICTIONARY
  5
12D5
102
{ACAD_REACTORS
330
C
102
}
330
C
100
AcDbDictionary
281
     1
  3
2dWireframe
350
12DA
  3
Basic
350
12DD
  3
Brighten
350
12E1
  3
ColorChange
350
12E5
  3
Conceptual
350
12DF
  3
Dim
350
12E0
  3
EdgeColorOff
350
12E8
  3
Facepattern
350
12E4
  3
Flat
350
12D6
  3
FlatWithEdges
350
12D7
  3
Gouraud
350
12D8
  3
GouraudWithEdges
350
12D9
  3
Hidden
350
12DC
  3
JitterOff
350
12E6
  3
Linepattern
350
12E3
  3
OverhangOff
350
12E7
  3
Realistic
350
12DE
  3
Shaded
350
12ED
  3
Shaded with edges
350
12EC
  3
Shades of Gray
350
12E9
  3
Sketchy
350
12EA
  3
Thicken
350
12E2
  3
Wireframe
350
12DB
  3
X-Ray
350
12EB
  0
XRECORD
  5
13C4
102
{ACAD_REACTORS
330
C
102
}
330
C
100
AcDbXrecord
280
     1
 90
        1
330
12F2
  0
DICTIONARY
  5
1379
102
{ACAD_REACTORS
330
C
102
}
330
C
100
AcDbDictionary
281
     1
  3
CANNOSCALE
350
137A
  3
CMLEADERSTYLE
350
137C
  3
CTABLESTYLE
350
137B
  3
MSLTSCALE
350
137D
  3
XCLIPFRAME
350
137E
  0
DICTIONARY
  5
12F5
102
{ACAD_REACTORS
330
C
102
}
330
C
100
AcDbDictionary
281
     1
  0
DICTIONARY
  5
13BC
102
{ACAD_REACTORS
330
13BB
102
}
330
13BB
100
AcDbDictionary
281
     1
  0
LAYOUT
  5
1E
102
{ACAD_REACTORS
330
1A
102
}
330
1A
100
AcDbPlotSettings
  1

  2
none_device
  4

  6

 40
0.0
 41
0.0
 42
0.0
 43
0.0
 44
0.0
 45
0.0
 46
0.0
 47
0.0
 48
0.0
 49
0.0
140
0.0
141
0.0
142
1.0
143
1.0
 70
   688
 72
     0
 73
     0
 74
     5
  7

 75
    16
 76
     0
 77
     2
 78
   300
147
1.0
148
0.0
149
0.0
100
AcDbLayout
  1
Layout1
 70
     1
 71
     1
 10
0.0
 20
0.0
 11
420.0
 21
297.0
 12
0.0
 22
0.0
 32
0.0
 14
1.000000000000000E+20
 24
1.000000000000000E+20
 34
1.000000000000000E+20
 15
-1.000000000000000E+20
 25
-1.000000000000000E+20
 35
-1.000000000000000E+20
146
0.0
 13
0.0
 23
0.0
 33
0.0
 16
1.0
 26
0.0
 36
0.0
 17
0.0
 27
1.0
 37
0.0
 76
     0
330
1B
  0
LAYOUT
  5
26
102
{ACAD_REACTORS
330
1A
102
}
330
1A
100
AcDbPlotSettings
  1

  2
none_device
  4

  6

 40
0.0
 41
0.0
 42
0.0
 43
0.0
 44
0.0
 45
0.0
 46
0.0
 47
0.0
 48
0.0
 49
0.0
140
0.0
141
0.0
142
1.0
143
1.0
 70
   688
 72
     0
 73
     0
 74
     5
  7

 75
    16
 76
     0
 77
     2
 78
   300
147
1.0
148
0.0
149
0.0
100
AcDbLayout
  1
Layout2
 70
     1
 71
     2
 10
0.0
 20
0.0
 11
0.0
 21
0.0
 12
0.0
 22
0.0
 32
0.0
 14
0.0
 24
0.0
 34
0.0
 15
0.0
 25
0.0
 35
0.0
146
0.0
 13
0.0
 23
0.0
 33
0.0
 16
1.0
 26
0.0
 36
0.0
 17
0.0
 27
1.0
 37
0.0
 76
     0
330
23
  0
LAYOUT
  5
22
102
{ACAD_REACTORS
330
1A
102
}
330
1A
100
AcDbPlotSettings
  1

  2
none_device
  4

  6

 40
0.0
 41
0.0
 42
0.0
 43
0.0
 44
0.0
 45
0.0
 46
0.0
 47
0.0
 48
0.0
 49
0.0
140
0.0
141
0.0
142
1.0
143
1.0
 70
  1712
 72
     0
 73
     0
 74
     0
  7

 75
     0
 76
     0
 77
     2
 78
   300
147
1.0
148
0.0
149
0.0
100
AcDbLayout
  1
Model
 70
     1
 71
     0
 10
0.0
 20
0.0
 11
420.0
 21
297.0
 12
0.0
 22
0.0
 32
0.0
 14
-2023.1328259578
 24
-898.8707961174
 34
0.0
 15
-277.3334121363293
 25
1153.928038206499
 35
0.0000000000000274
146
0.0
 13
0.0
 23
0.0
 33
0.0
 16
1.0
 26
0.0
 36
0.0
 17
0.0
 27
1.0
 37
0.0
 76
     0
330
1F
331
12B2
  0
MATERIAL
  5
12EF
102
{ACAD_REACTORS
330
1291
102
}
330
1291
100
AcDbMaterial
  1
ByBlock
 72
     1
 94
      127
  0
MATERIAL
  5
12EE
102
{ACAD_REACTORS
330
1291
102
}
330
1291
100
AcDbMaterial
  1
ByLayer
 72
     1
 94
      127
  0
MATERIAL
  5
12F0
102
{ACAD_REACTORS
330
1291
102
}
330
1291
100
AcDbMaterial
  1
Global
 72
     1
 94
      127
  0
MLEADERSTYLE
  5
12F4
102
{ACAD_REACTORS
330
12F3
102
}
330
12F3
100
AcDbMLeaderStyle
170
     2
171
     1
172
     0
 90
        2
 40
0.0
 41
0.0
173
     1
 91
-1056964608
340
14
 92
       -2
290
     1
 42
2.0
291
     1
 43
8.0
  3
Standard
341
0
 44
4.0
300

342
11
174
     1
178
     1
175
     1
176
     0
 93
-1056964608
 45
4.0
292
     0
297
     0
 46
4.0
343
0
 94
-1056964608
 47
1.0
 49
1.0
140
1.0
293
     1
141
0.0
294
     1
177
     0
142
1.0
295
     0
296
     0
143
3.75
1001
ACAD_MLEADERVER
1070
     2
  0
MLINESTYLE
  5
18
102
{ACAD_REACTORS
330
17
102
}
330
17
100
AcDbMlineStyle
  2
STANDARD
 70
     0
  3

 62
   256
 51
90.0
 52
90.0
 71
     2
 49
0.5
 62
   256
  6
BYLAYER
 49
-0.5
 62
   256
  6
BYLAYER
  0
ACDBPLACEHOLDER
  5
F
102
{ACAD_REACTORS
330
E
102
}
330
E
  0
SCALE
  5
12B4
102
{ACAD_REACTORS
330
12B3
102
}
330
12B3
100
AcDbScale
 70
     0
300
1:1
140
1.0
141
1.0
290
     1
  0
SCALE
  5
12B5
102
{ACAD_REACTORS
330
12B3
102
}
330
12B3
100
AcDbScale
 70
     0
300
1:2
140
1.0
141
2.0
290
     0
  0
SCALE
  5
12B6
102
{ACAD_REACTORS
330
12B3
102
}
330
12B3
100
AcDbScale
 70
     0
300
1:4
140
1.0
141
4.0
290
     0
  0
SCALE
  5
12B7
102
{ACAD_REACTORS
330
12B3
102
}
330
12B3
100
AcDbScale
 70
     0
300
1:5
140
1.0
141
5.0
290
     0
  0
SCALE
  5
12B8
102
{ACAD_REACTORS
330
12B3
102
}
330
12B3
100
AcDbScale
 70
     0
300
1:8
140
1.0
141
8.0
290
     0
  0
SCALE
  5
12B9
102
{ACAD_REACTORS
330
12B3
102
}
330
12B3
100
AcDbScale
 70
     0
300
1:10
140
1.0
141
10.0
290
     0
  0
SCALE
  5
12BA
102
{ACAD_REACTORS
330
12B3
102
}
330
12B3
100
AcDbScale
 70
     0
300
1:16
140
1.0
141
16.0
290
     0
  0
SCALE
  5
12BB
102
{ACAD_REACTORS
330
12B3
102
}
330
12B3
100
AcDbScale
 70
     0
300
1:20
140
1.0
141
20.0
290
     0
  0
SCALE
  5
12BC
102
{ACAD_REACTORS
330
12B3
102
}
330
12B3
100
AcDbScale
 70
     0
300
1:30
140
1.0
141
30.0
290
     0
  0
SCALE
  5
12BD
102
{ACAD_REACTORS
330
12B3
102
}
330
12B3
100
AcDbScale
 70
     0
300
1:40
140
1.0
141
40.0
290
     0
  0
SCALE
  5
12BE
102
{ACAD_REACTORS
330
12B3
102
}
330
12B3
100
AcDbScale
 70
     0
300
1:50
140
1.0
141
50.0
290
     0
  0
SCALE
  5
12BF
102
{ACAD_REACTORS
330
12B3
102
}
330
12B3
100
AcDbScale
 70
     0
300
1:100
140
1.0
141
100.0
290
     0
  0
SCALE
  5
12C0
102
{ACAD_REACTORS
330
12B3
102
}
330
12B3
100
AcDbScale
 70
     0
300
2:1
140
2.0
141
1.0
290
     0
  0
SCALE
  5
12C1
102
{ACAD_REACTORS
330
12B3
102
}
330
12B3
100
AcDbScale
 70
     0
300
4:1
140
4.0
141
1.0
290
     0
  0
SCALE
  5
12C2
102
{ACAD_REACTORS
330
12B3
102
}
330
12B3
100
AcDbScale
 70
     0
300
8:1
140
8.0
141
1.0
290
     0
  0
SCALE
  5
12C3
102
{ACAD_REACTORS
330
12B3
102
}
330
12B3
100
AcDbScale
 70
     0
300
10:1
140
10.0
141
1.0
290
     0
  0
SCALE
  5
12C4
102
{ACAD_REACTORS
330
12B3
102
}
330
12B3
100
AcDbScale
 70
     0
300
100:1
140
100.0
141
1.0
290
     0
  0
SCALE
  5
12C5
102
{ACAD_REACTORS
330
12B3
102
}
330
12B3
100
AcDbScale
 70
     0
300
1/128" = 1'-0"
140
0.0078125
141
12.0
290
     0
  0
SCALE
  5
12C6
102
{ACAD_REACTORS
330
12B3
102
}
330
12B3
100
AcDbScale
 70
     0
300
1/64" = 1'-0"
140
0.015625
141
12.0
290
     0
  0
SCALE
  5
12C7
102
{ACAD_REACTORS
330
12B3
102
}
330
12B3
100
AcDbScale
 70
     0
300
1/32" = 1'-0"
140
0.03125
141
12.0
290
     0
  0
SCALE
  5
12C8
102
{ACAD_REACTORS
330
12B3
102
}
330
12B3
100
AcDbScale
 70
     0
300
1/16" = 1'-0"
140
0.0625
141
12.0
290
     0
  0
SCALE
  5
12C9
102
{ACAD_REACTORS
330
12B3
102
}
330
12B3
100
AcDbScale
 70
     0
300
3/32" = 1'-0"
140
0.09375
141
12.0
290
     0
  0
SCALE
  5
12CA
102
{ACAD_REACTORS
330
12B3
102
}
330
12B3
100
AcDbScale
 70
     0
300
1/8" = 1'-0"
140
0.125
141
12.0
290
     0
  0
SCALE
  5
12CB
102
{ACAD_REACTORS
330
12B3
102
}
330
12B3
100
AcDbScale
 70
     0
300
3/16" = 1'-0"
140
0.1875
141
12.0
290
     0
  0
SCALE
  5
12CC
102
{ACAD_REACTORS
330
12B3
102
}
330
12B3
100
AcDbScale
 70
     0
300
1/4" = 1'-0"
140
0.25
141
12.0
290
     0
  0
SCALE
  5
12CD
102
{ACAD_REACTORS
330
12B3
102
}
330
12B3
100
AcDbScale
 70
     0
300
3/8" = 1'-0"
140
0.375
141
12.0
290
     0
  0
SCALE
  5
12CE
102
{ACAD_REACTORS
330
12B3
102
}
330
12B3
100
AcDbScale
 70
     0
300
1/2" = 1'-0"
140
0.5
141
12.0
290
     0
  0
SCALE
  5
12CF
102
{ACAD_REACTORS
330
12B3
102
}
330
12B3
100
AcDbScale
 70
     0
300
3/4" = 1'-0"
140
0.75
141
12.0
290
     0
  0
SCALE
  5
12D0
102
{ACAD_REACTORS
330
12B3
102
}
330
12B3
100
AcDbScale
 70
     0
300
1" = 1'-0"
140
1.0
141
12.0
290
     0
  0
SCALE
  5
12D1
102
{ACAD_REACTORS
330
12B3
102
}
330
12B3
100
AcDbScale
 70
     0
300
1-1/2" = 1'-0"
140
1.5
141
12.0
290
     0
  0
SCALE
  5
12D2
102
{ACAD_REACTORS
330
12B3
102
}
330
12B3
100
AcDbScale
 70
     0
300
3" = 1'-0"
140
3.0
141
12.0
290
     0
  0
SCALE
  5
12D3
102
{ACAD_REACTORS
330
12B3
102
}
330
12B3
100
AcDbScale
 70
     0
300
6" = 1'-0"
140
6.0
141
12.0
290
     0
  0
SCALE
  5
12D4
102
{ACAD_REACTORS
330
12B3
102
}
330
12B3
100
AcDbScale
 70
     0
300
1'-0" = 1'-0"
140
12.0
141
12.0
290
     0
  0
TABLESTYLE
  5
12F2
102
{ACAD_REACTORS
330
12F1
102
}
102
{ACAD_XDICTIONARY
360
13C1
102
}
330
12F1
100
AcDbTableStyle
  3
Standard
 70
     0
 71
     0
 40
0.06
 41
0.06
280
     0
281
     0
  7
Standard
140
4.5
170
     2
 62
     0
 63
   257
283
     0
 90
        4
 91
        0
  1

274
    -2
284
     1
 64
     0
275
    -2
285
     1
 65
     0
276
    -2
286
     1
 66
     0
277
    -2
287
     1
 67
     0
278
    -2
288
     1
 68
     0
279
    -2
289
     1
 69
     0
  7
Standard
140
6.0
170
     5
 62
     0
 63
   257
283
     0
 90
        4
 91
        0
  1

274
    -2
284
     1
 64
     0
275
    -2
285
     1
 65
     0
276
    -2
286
     1
 66
     0
277
    -2
287
     1
 67
     0
278
    -2
288
     1
 68
     0
279
    -2
289
     1
 69
     0
  7
Standard
140
4.5
170
     5
 62
     0
 63
   257
283
     0
 90
        4
 91
        0
  1

274
    -2
284
     1
 64
     0
275
    -2
285
     1
 65
     0
276
    -2
286
     1
 66
     0
277
    -2
287
     1
 67
     0
278
    -2
288
     1
 68
     0
279
    -2
289
     1
 69
     0
  0
VISUALSTYLE
  5
12DA
102
{ACAD_REACTORS
330
12D5
102
}
330
12D5
100
AcDbVisualStyle
  2
2dWireframe
 70
     4
 71
     0
 72
     2
 73
     0
 90
        0
 40
0.6
 41
30.0
 62
     5
 63
     7
421
 16777215
 74
     1
 91
        4
 64
     7
 65
   257
 75
     1
175
     1
 42
1.0
 92
        0
 66
   257
 43
1.0
 76
     1
 77
     6
 78
     2
 67
     7
 79
     5
170
     0
171
     0
290
     0
174
     0
 93
        1
 44
0.0
173
     0
291
     0
 45
0.0
  0
VISUALSTYLE
  5
12DD
102
{ACAD_REACTORS
330
12D5
102
}
330
12D5
100
AcDbVisualStyle
  2
Basic
 70
     7
 71
     1
 72
     0
 73
     1
 90
        0
 40
0.6
 41
30.0
 62
     5
 63
     7
421
 16777215
 74
     0
 91
        4
 64
     7
 65
   257
 75
     1
175
     1
 42
1.0
 92
        8
 66
     7
 43
1.0
 76
     1
 77
     6
 78
     2
 67
     7
 79
     5
170
     0
171
     0
290
     0
174
     0
 93
        1
 44
0.0
173
     0
291
     1
 45
0.0
  0
VISUALSTYLE
  5
12E1
102
{ACAD_REACTORS
330
12D5
102
}
330
12D5
100
AcDbVisualStyle
  2
Brighten
 70
    12
 71
     2
 72
     2
 73
     0
 90
        0
 40
0.6
 41
30.0
 62
     5
 63
     7
421
 16777215
 74
     1
 91
        4
 64
     7
 65
   257
 75
     1
175
     1
 42
1.0
 92
        8
 66
     7
 43
1.0
 76
     1
 77
     6
 78
     2
 67
     7
 79
     5
170
     0
171
     0
290
     0
174
     0
 93
        1
 44
50.0
173
     0
291
     1
 45
0.0
  0
VISUALSTYLE
  5
12E5
102
{ACAD_REACTORS
330
12D5
102
}
330
12D5
100
AcDbVisualStyle
  2
ColorChange
 70
    16
 71
     2
 72
     2
 73
     3
 90
        0
 40
0.6
 41
30.0
 62
     5
 63
     8
421
  8421504
 74
     1
 91
        4
 64
     7
 65
   257
 75
     1
175
     1
 42
1.0
 92
        8
 66
     8
424
  8421504
 43
1.0
 76
     1
 77
     6
 78
     2
 67
     7
 79
     5
170
     0
171
     0
290
     0
174
     0
 93
        1
 44
0.0
173
     0
291
     1
 45
0.0
  0
VISUALSTYLE
  5
12DF
102
{ACAD_REACTORS
330
12D5
102
}
330
12D5
100
AcDbVisualStyle
  2
Conceptual
 70
     9
 71
     3
 72
     2
 73
     0
 90
        0
 40
0.6
 41
30.0
 62
     5
 63
     7
421
 16777215
 74
     2
 91
        2
 64
     7
 65
   257
 75
     1
175
     1
 42
179.0
 92
        8
 66
     7
 43
1.0
 76
     1
 77
     6
 78
     2
 67
     7
 79
     3
170
     0
171
     0
290
     0
174
     0
 93
        1
 44
0.0
173
     0
291
     0
 45
0.0
  0
VISUALSTYLE
  5
12E0
102
{ACAD_REACTORS
330
12D5
102
}
330
12D5
100
AcDbVisualStyle
  2
Dim
 70
    11
 71
     2
 72
     2
 73
     0
 90
        0
 40
0.6
 41
30.0
 62
     5
 63
     7
421
 16777215
 74
     1
 91
        4
 64
     7
 65
   257
 75
     1
175
     1
 42
1.0
 92
        8
 66
     7
 43
1.0
 76
     1
 77
     6
 78
     2
 67
     7
 79
     5
170
     0
171
     0
290
     0
174
     0
 93
        1
 44
-50.0
173
     0
291
     1
 45
0.0
  0
VISUALSTYLE
  5
12E8
102
{ACAD_REACTORS
330
12D5
102
}
330
12D5
100
AcDbVisualStyle
  2
EdgeColorOff
 70
    22
 71
     2
 72
     2
 73
     0
 90
        0
 40
0.6
 41
30.0
 62
     5
 63
     7
421
 16777215
 74
     1
 91
        4
 64
     7
 65
   257
 75
     1
175
     1
 42
1.0
 92
        8
 66
     7
 43
1.0
 76
     1
 77
     6
 78
     2
 67
     7
 79
     5
170
     0
171
     0
290
     0
174
     0
 93
        1
 44
0.0
173
     0
291
     1
 45
0.0
  0
VISUALSTYLE
  5
12E4
102
{ACAD_REACTORS
330
12D5
102
}
330
12D5
100
AcDbVisualStyle
  2
Facepattern
 70
    15
 71
     2
 72
     2
 73
     0
 90
        0
 40
0.6
 41
30.0
 62
     5
 63
     7
421
 16777215
 74
     1
 91
        4
 64
     7
 65
   257
 75
     1
175
     1
 42
1.0
 92
        8
 66
     7
 43
1.0
 76
     1
 77
     6
 78
     2
 67
     7
 79
     5
170
     0
171
     0
290
     0
174
     0
 93
        1
 44
0.0
173
     0
291
     1
 45
0.0
  0
VISUALSTYLE
  5
12D6
102
{ACAD_REACTORS
330
12D5
102
}
330
12D5
100
AcDbVisualStyle
  2
Flat
 70
     0
 71
     2
 72
     1
 73
     1
 90
        2
 40
0.6
 41
30.0
 62
     5
 63
     7
421
 16777215
 74
     0
 91
        0
 64
     7
 65
   257
 75
     1
175
     1
 42
1.0
 92
        8
 66
     7
 43
1.0
 76
     1
 77
     6
 78
     2
 67
     7
 79
     5
170
     0
171
     0
290
     0
174
     0
 93
       13
 44
0.0
173
     0
291
     1
 45
0.0
  0
VISUALSTYLE
  5
12D7
102
{ACAD_REACTORS
330
12D5
102
}
330
12D5
100
AcDbVisualStyle
  2
FlatWithEdges
 70
     1
 71
     2
 72
     1
 73
     1
 90
        2
 40
0.6
 41
30.0
 62
     5
 63
     7
421
 16777215
 74
     1
 91
        0
 64
     7
 65
   257
 75
     1
175
     1
 42
1.0
 92
        0
 66
   257
 43
1.0
 76
     1
 77
     6
 78
     2
 67
     7
 79
     5
170
     0
171
     0
290
     0
174
     0
 93
       13
 44
0.0
173
     0
291
     1
 45
0.0
  0
VISUALSTYLE
  5
12D8
102
{ACAD_REACTORS
330
12D5
102
}
330
12D5
100
AcDbVisualStyle
  2
Gouraud
 70
     2
 71
     2
 72
     2
 73
     1
 90
        2
 40
0.6
 41
30.0
 62
     5
 63
     7
421
 16777215
 74
     0
 91
        0
 64
     7
 65
   257
 75
     1
175
     1
 42
1.0
 92
        0
 66
     7
 43
1.0
 76
     1
 77
     6
 78
     2
 67
     7
 79
     5
170
     0
171
     0
290
     0
174
     0
 93
       13
 44
0.0
173
     0
291
     1
 45
0.0
  0
VISUALSTYLE
  5
12D9
102
{ACAD_REACTORS
330
12D5
102
}
330
12D5
100
AcDbVisualStyle
  2
GouraudWithEdges
 70
     3
 71
     2
 72
     2
 73
     1
 90
        2
 40
0.6
 41
30.0
 62
     5
 63
     7
421
 16777215
 74
     1
 91
        0
 64
     7
 65
   257
 75
     1
175
     1
 42
1.0
 92
        0
 66
   257
 43
1.0
 76
     1
 77
     6
 78
     2
 67
     7
 79
     5
170
     0
171
     0
290
     0
174
     0
 93
       13
 44
0.0
173
     0
291
     1
 45
0.0
  0
VISUALSTYLE
  5
12DC
102
{ACAD_REACTORS
330
12D5
102
}
330
12D5
100
AcDbVisualStyle
  2
Hidden
 70
     6
 71
     1
 72
     2
 73
     2
 90
        0
 40
0.6
 41
30.0
 62
     5
 63
     7
421
 16777215
 74
     2
 91
        2
 64
     7
 65
   257
 75
     2
175
     1
 42
40.0
 92
        0
 66
   257
 43
1.0
 76
     1
 77
     6
 78
     2
 67
     7
 79
     3
170
     0
171
     0
290
     0
174
     0
 93
        1
 44
0.0
173
     0
291
     0
 45
0.0
  0
VISUALSTYLE
  5
12E6
102
{ACAD_REACTORS
330
12D5
102
}
330
12D5
100
AcDbVisualStyle
  2
JitterOff
 70
    20
 71
     2
 72
     2
 73
     0
 90
        0
 40
0.6
 41
30.0
 62
     5
 63
     7
421
 16777215
 74
     1
 91
        4
 64
     7
 65
   257
 75
     1
175
     1
 42
1.0
 92
       10
 66
     7
 43
1.0
 76
     1
 77
     6
 78
     2
 67
     7
 79
     5
170
     0
171
     0
290
     0
174
     0
 93
        1
 44
0.0
173
     0
291
     1
 45
0.0
  0
VISUALSTYLE
  5
12E3
102
{ACAD_REACTORS
330
12D5
102
}
330
12D5
100
AcDbVisualStyle
  2
Linepattern
 70
    14
 71
     2
 72
     2
 73
     0
 90
        0
 40
0.6
 41
30.0
 62
     5
 63
     7
421
 16777215
 74
     1
 91
        4
 64
     7
 65
   257
 75
     7
175
     7
 42
1.0
 92
        8
 66
     7
 43
1.0
 76
     1
 77
     6
 78
     2
 67
     7
 79
     5
170
     0
171
     0
290
     0
174
     0
 93
        1
 44
0.0
173
     0
291
     1
 45
0.0
  0
VISUALSTYLE
  5
12E7
102
{ACAD_REACTORS
330
12D5
102
}
330
12D5
100
AcDbVisualStyle
  2
OverhangOff
 70
    21
 71
     2
 72
     2
 73
     0
 90
        0
 40
0.6
 41
30.0
 62
     5
 63
     7
421
 16777215
 74
     1
 91
        4
 64
     7
 65
   257
 75
     1
175
     1
 42
1.0
 92
        9
 66
     7
 43
1.0
 76
     1
 77
     6
 78
     2
 67
     7
 79
     5
170
     0
171
     0
290
     0
174
     0
 93
        1
 44
0.0
173
     0
291
     1
 45
0.0
  0
VISUALSTYLE
  5
12DE
102
{ACAD_REACTORS
330
12D5
102
}
330
12D5
100
AcDbVisualStyle
  2
Realistic
 70
     8
 71
     2
 72
     3
 73
     0
 90
        2
 40
0.6
 41
30.0
 62
     5
 63
     7
421
 16777215
 74
     0
 91
        0
 64
     7
 65
   257
 75
     1
175
     1
 42
1.0
 92
        8
 66
   257
 43
1.0
 76
     1
 77
     6
 78
     2
 67
     7
 79
     3
170
     0
171
     0
290
     0
174
     0
 93
       13
 44
0.0
173
     0
291
     0
 45
0.0
  0
VISUALSTYLE
  5
12ED
102
{ACAD_REACTORS
330
12D5
102
}
330
12D5
100
AcDbVisualStyle
  2
Shaded
 70
    27
 71
     2
 72
     2
 73
     1
 90
        2
 40
0.6
 41
30.0
 62
     5
 63
     7
421
 16777215
 74
     0
 91
        4
 64
     7
 65
   257
 75
     1
175
     1
 42
1.0
 92
        8
 66
   257
 43
1.0
 76
     1
 77
     6
 78
     2
 67
     8
425
  7895160
 79
     3
170
     0
171
     0
290
     0
174
     0
 93
        5
 44
0.0
173
     0
291
     0
 45
0.0
  0
VISUALSTYLE
  5
12EC
102
{ACAD_REACTORS
330
12D5
102
}
330
12D5
100
AcDbVisualStyle
  2
Shaded with edges
 70
    26
 71
     2
 72
     2
 73
     1
 90
        2
 40
0.6
 41
30.0
 62
     5
 63
     7
421
 16777215
 74
     1
 91
       10
 64
     7
 65
   257
 75
     2
175
     1
 42
1.0
 92
        8
 66
   257
 43
1.0
 76
     1
 77
     6
 78
     2
 67
     7
 79
     3
170
     0
171
     0
290
     0
174
     0
 93
        5
 44
0.0
173
     0
291
     0
 45
0.0
  0
VISUALSTYLE
  5
12E9
102
{ACAD_REACTORS
330
12D5
102
}
330
12D5
100
AcDbVisualStyle
  2
Shades of Gray
 70
    23
 71
     2
 72
     2
 73
     3
 90
        0
 40
0.6
 41
30.0
 62
     5
 63
     7
421
 16777215
 74
     2
 91
        2
 64
     7
 65
     7
 75
     1
175
     1
 42
40.0
 92
        8
 66
     7
 43
1.0
 76
     1
 77
     6
 78
     2
 67
     7
 79
     3
170
     0
171
     0
290
     0
174
     0
 93
        1
 44
0.0
173
     0
291
     0
 45
0.0
  0
VISUALSTYLE
  5
12EA
102
{ACAD_REACTORS
330
12D5
102
}
330
12D5
100
AcDbVisualStyle
  2
Sketchy
 70
    24
 71
     1
 72
     2
 73
     2
 90
        0
 40
0.6
 41
30.0
 62
     5
 63
     7
421
 16777215
 74
     2
 91
        2
 64
     7
 65
     7
 75
     1
175
     1
 42
40.0
 92
       11
 66
     7
 43
1.0
 76
     1
 77
     6
 78
     2
 67
     7
 79
     6
170
     0
171
     0
290
     0
174
     0
 93
        1
 44
0.0
173
     0
291
     0
 45
0.0
  0
VISUALSTYLE
  5
12E2
102
{ACAD_REACTORS
330
12D5
102
}
330
12D5
100
AcDbVisualStyle
  2
Thicken
 70
    13
 71
     2
 72
     2
 73
     0
 90
        0
 40
0.6
 41
30.0
 62
     5
 63
     7
421
 16777215
 74
     1
 91
        4
 64
     7
 65
   257
 75
     1
175
     1
 42
1.0
 92
       12
 66
     7
 43
1.0
 76
     1
 77
     6
 78
     2
 67
     7
 79
     5
170
     0
171
     0
290
     0
174
     0
 93
        1
 44
0.0
173
     0
291
     1
 45
0.0
  0
VISUALSTYLE
  5
12DB
102
{ACAD_REACTORS
330
12D5
102
}
330
12D5
100
AcDbVisualStyle
  2
Wireframe
 70
     5
 71
     0
 72
     2
 73
     0
 90
        0
 40
0.6
 41
30.0
 62
     5
 63
     7
421
 16777215
 74
     1
 91
        4
 64
     7
 65
   257
 75
     1
175
     1
 42
1.0
 92
        0
 66
   257
 43
1.0
 76
     1
 77
     6
 78
     2
 67
     7
 79
     3
170
     0
171
     0
290
     0
174
     0
 93
        1
 44
0.0
173
     0
291
     0
 45
0.0
  0
VISUALSTYLE
  5
12EB
102
{ACAD_REACTORS
330
12D5
102
}
330
12D5
100
AcDbVisualStyle
  2
X-Ray
 70
    25
 71
     2
 72
     2
 73
     1
 90
        1
 40
0.5
 41
30.0
 62
     5
 63
     7
421
 16777215
 74
     1
 91
        0
 64
     7
 65
   257
 75
     1
175
     1
 42
1.0
 92
        8
 66
     7
 43
1.0
 76
     1
 77
     6
 78
     2
 67
     7
 79
     3
170
     0
171
     0
290
     0
174
     0
 93
       13
 44
0.0
173
     0
291
     0
 45
0.0
  0
DICTIONARYVAR
  5
137A
102
{ACAD_REACTORS
330
1379
102
}
330
1379
100
DictionaryVariables
280
     0
  1
1:1
  0
DICTIONARYVAR
  5
137C
102
{ACAD_REACTORS
330
1379
102
}
330
1379
100
DictionaryVariables
280
     0
  1
Standard
  0
DICTIONARYVAR
  5
137B
102
{ACAD_REACTORS
330
1379
102
}
330
1379
100
DictionaryVariables
280
     0
  1
Standard
  0
DICTIONARYVAR
  5
137D
102
{ACAD_REACTORS
330
1379
102
}
330
1379
100
DictionaryVariables
280
     0
  1
0
  0
DICTIONARYVAR
  5
137E
102
{ACAD_REACTORS
330
1379
102
}
330
1379
100
DictionaryVariables
280
     0
  1
0
  0
DICTIONARY
  5
13C1
330
12F2
100
AcDbDictionary
280
     1
281
     1
  3
ACAD_ROUNDTRIP_2008_TABLESTYLE_CELLSTYLEMAP
360
13C2
  0
CELLSTYLEMAP
  5
13C2
102
{ACAD_REACTORS
330
13C1
102
}
330
13C1
100
AcDbCellStyleMap
 90
        3
300
CELLSTYLE
  1
TABLEFORMAT_BEGIN
 90
        5
170
     1
 91
        0
 92
    32768
 62
   257
 93
        1
300
CONTENTFORMAT
  1
CONTENTFORMAT_BEGIN
 90
        0
 91
        0
 92
        4
 93
        0
300

 40
0.0
140
1.0
 94
        5
 62
     0
340
11
144
6.0
309
CONTENTFORMAT_END
171
     1
301
MARGIN
  1
CELLMARGIN_BEGIN
 40
1.5
 40
1.5
 40
1.5
 40
1.5
 40
1.5
 40
1.5
309
CELLMARGIN_END
 94
        6
 95
        1
302
GRIDFORMAT
  1
GRIDFORMAT_BEGIN
 90
        0
 91
        1
 62
     0
 92
       -2
340
14
 93
        0
 40
0.045
309
GRIDFORMAT_END
 95
        2
302
GRIDFORMAT
  1
GRIDFORMAT_BEGIN
 90
        0
 91
        1
 62
     0
 92
       -2
340
14
 93
        0
 40
0.045
309
GRIDFORMAT_END
 95
        4
302
GRIDFORMAT
  1
GRIDFORMAT_BEGIN
 90
        0
 91
        1
 62
     0
 92
       -2
340
14
 93
        0
 40
0.045
309
GRIDFORMAT_END
 95
        8
302
GRIDFORMAT
  1
GRIDFORMAT_BEGIN
 90
        0
 91
        1
 62
     0
 92
       -2
340
14
 93
        0
 40
0.045
309
GRIDFORMAT_END
 95
       16
302
GRIDFORMAT
  1
GRIDFORMAT_BEGIN
 90
        0
 91
        1
 62
     0
 92
       -2
340
14
 93
        0
 40
0.045
309
GRIDFORMAT_END
 95
       32
302
GRIDFORMAT
  1
GRIDFORMAT_BEGIN
 90
        0
 91
        1
 62
     0
 92
       -2
340
14
 93
        0
 40
0.045
309
GRIDFORMAT_END
309
TABLEFORMAT_END
  1
CELLSTYLE_BEGIN
 90
        1
 91
        1
300
_TITLE
309
CELLSTYLE_END
300
CELLSTYLE
  1
TABLEFORMAT_BEGIN
 90
        5
170
     1
 91
        0
 92
        0
 62
   257
 93
        1
300
CONTENTFORMAT
  1
CONTENTFORMAT_BEGIN
 90
        0
 91
        0
 92
        4
 93
        0
300

 40
0.0
140
1.0
 94
        5
 62
     0
340
11
144
4.5
309
CONTENTFORMAT_END
171
     1
301
MARGIN
  1
CELLMARGIN_BEGIN
 40
1.5
 40
1.5
 40
1.5
 40
1.5
 40
1.5
 40
1.5
309
CELLMARGIN_END
 94
        6
 95
        1
302
GRIDFORMAT
  1
GRIDFORMAT_BEGIN
 90
        0
 91
        1
 62
     0
 92
       -2
340
14
 93
        0
 40
0.045
309
GRIDFORMAT_END
 95
        2
302
GRIDFORMAT
  1
GRIDFORMAT_BEGIN
 90
        0
 91
        1
 62
     0
 92
       -2
340
14
 93
        0
 40
0.045
309
GRIDFORMAT_END
 95
        4
302
GRIDFORMAT
  1
GRIDFORMAT_BEGIN
 90
        0
 91
        1
 62
     0
 92
       -2
340
14
 93
        0
 40
0.045
309
GRIDFORMAT_END
 95
        8
302
GRIDFORMAT
  1
GRIDFORMAT_BEGIN
 90
        0
 91
        1
 62
     0
 92
       -2
340
14
 93
        0
 40
0.045
309
GRIDFORMAT_END
 95
       16
302
GRIDFORMAT
  1
GRIDFORMAT_BEGIN
 90
        0
 91
        1
 62
     0
 92
       -2
340
14
 93
        0
 40
0.045
309
GRIDFORMAT_END
 95
       32
302
GRIDFORMAT
  1
GRIDFORMAT_BEGIN
 90
        0
 91
        1
 62
     0
 92
       -2
340
14
 93
        0
 40
0.045
309
GRIDFORMAT_END
309
TABLEFORMAT_END
  1
CELLSTYLE_BEGIN
 90
        2
 91
        1
300
_HEADER
309
CELLSTYLE_END
300
CELLSTYLE
  1
TABLEFORMAT_BEGIN
 90
        5
170
     1
 91
        0
 92
        0
 62
   257
 93
        1
300
CONTENTFORMAT
  1
CONTENTFORMAT_BEGIN
 90
        0
 91
        0
 92
        4
 93
        0
300

 40
0.0
140
1.0
 94
        2
 62
     0
340
11
144
4.5
309
CONTENTFORMAT_END
171
     1
301
MARGIN
  1
CELLMARGIN_BEGIN
 40
1.5
 40
1.5
 40
1.5
 40
1.5
 40
1.5
 40
1.5
309
CELLMARGIN_END
 94
        6
 95
        1
302
GRIDFORMAT
  1
GRIDFORMAT_BEGIN
 90
        0
 91
        1
 62
     0
 92
       -2
340
14
 93
        0
 40
0.045
309
GRIDFORMAT_END
 95
        2
302
GRIDFORMAT
  1
GRIDFORMAT_BEGIN
 90
        0
 91
        1
 62
     0
 92
       -2
340
14
 93
        0
 40
0.045
309
GRIDFORMAT_END
 95
        4
302
GRIDFORMAT
  1
GRIDFORMAT_BEGIN
 90
        0
 91
        1
 62
     0
 92
       -2
340
14
 93
        0
 40
0.045
309
GRIDFORMAT_END
 95
        8
302
GRIDFORMAT
  1
GRIDFORMAT_BEGIN
 90
        0
 91
        1
 62
     0
 92
       -2
340
14
 93
        0
 40
0.045
309
GRIDFORMAT_END
 95
       16
302
GRIDFORMAT
  1
GRIDFORMAT_BEGIN
 90
        0
 91
        1
 62
     0
 92
       -2
340
14
 93
        0
 40
0.045
309
GRIDFORMAT_END
 95
       32
302
GRIDFORMAT
  1
GRIDFORMAT_BEGIN
 90
        0
 91
        1
 62
     0
 92
       -2
340
14
 93
        0
 40
0.045
309
GRIDFORMAT_END
309
TABLEFORMAT_END
  1
CELLSTYLE_BEGIN
 90
        3
 91
        2
300
_DATA
309
CELLSTYLE_END
  0
ENDSEC
  0
EOF
