  0
SECTION
  2
HEADER
  9
$ACADVER
  1
AC1021
  9
$ACADMAINTVER
 70
    25
  9
$DWGCODEPAGE
  3
ANSI_1257
  9
$LASTSAVEDBY
  1
mariusbitinas
  9
$INSBASE
 10
0.0
 20
0.0
 30
0.0
  9
$EXTMIN
 10
-2244.963604654
 20
-770.6955442817999
 30
-0.0000000000000995
  9
$EXTMAX
 10
-38.86920697620781
 20
1500.573234319624
 30
0.0000000000000995
  9
$LIMMIN
 10
0.0
 20
0.0
  9
$LIMMAX
 10
420.0
 20
297.0
  9
$ORTHOMODE
 70
     1
  9
$REGENMODE
 70
     1
  9
$FILLMODE
 70
     1
  9
$QTEXTMODE
 70
     0
  9
$MIRRTEXT
 70
     1
  9
$LTSCALE
 40
1.0
  9
$ATTMODE
 70
     1
  9
$TEXTSIZE
 40
3.527777777799998
  9
$TRACEWID
 40
1.0
  9
$TEXTSTYLE
  7
Standard
  9
$CLAYER
  8
0
  9
$CELTYPE
  6
ByLayer
  9
$CECOLOR
 62
   256
  9
$CELTSCALE
 40
1.0
  9
$DISPSILH
 70
     0
  9
$DIMSCALE
 40
1.0
  9
$DIMASZ
 40
4.0
  9
$DIMEXO
 40
1.0
  9
$DIMDLI
 40
3.75
  9
$DIMRND
 40
0.0
  9
$DIMDLE
 40
0.0
  9
$DIMEXE
 40
1.0
  9
$DIMTP
 40
0.0
  9
$DIMTM
 40
0.0
  9
$DIMTXT
 40
3.527777777799998
  9
$DIMCEN
 40
2.5
  9
$DIMTSZ
 40
0.0
  9
$DIMTOL
 70
     0
  9
$DIMLIM
 70
     0
  9
$DIMTIH
 70
     1
  9
$DIMTOH
 70
     1
  9
$DIMSE1
 70
     0
  9
$DIMSE2
 70
     0
  9
$DIMTAD
 70
     1
  9
$DIMZIN
 70
     0
  9
$DIMBLK
  1

  9
$DIMASO
 70
     1
  9
$DIMSHO
 70
     1
  9
$DIMPOST
  1

  9
$DIMAPOST
  1

  9
$DIMALT
 70
     0
  9
$DIMALTD
 70
     3
  9
$DIMALTF
 40
0.0393700787
  9
$DIMLFAC
 40
1.0
  9
$DIMTOFL
 70
     1
  9
$DIMTVP
 40
0.0
  9
$DIMTIX
 70
     0
  9
$DIMSOXD
 70
     0
  9
$DIMSAH
 70
     0
  9
$DIMBLK1
  1

  9
$DIMBLK2
  1

  9
$DIMSTYLE
  2
ISO-25
  9
$DIMCLRD
 70
     0
  9
$DIMCLRE
 70
     0
  9
$DIMCLRT
 70
     0
  9
$DIMTFAC
 40
1.0
  9
$DIMGAP
 40
1.524
  9
$DIMJUST
 70
     0
  9
$DIMSD1
 70
     0
  9
$DIMSD2
 70
     0
  9
$DIMTOLJ
 70
     0
  9
$DIMTZIN
 70
     0
  9
$DIMALTZ
 70
     0
  9
$DIMALTTZ
 70
     0
  9
$DIMUPT
 70
     0
  9
$DIMDEC
 70
     2
  9
$DIMTDEC
 70
     2
  9
$DIMALTU
 70
     2
  9
$DIMALTTD
 70
     3
  9
$DIMTXSTY
  7
Standard
  9
$DIMAUNIT
 70
     0
  9
$DIMADEC
 70
     2
  9
$DIMALTRND
 40
0.0
  9
$DIMAZIN
 70
     0
  9
$DIMDSEP
 70
    44
  9
$DIMATFIT
 70
     3
  9
$DIMFRAC
 70
     0
  9
$DIMLDRBLK
  1

  9
$DIMLUNIT
 70
     2
  9
$DIMLWD
 70
    -2
  9
$DIMLWE
 70
    -2
  9
$DIMTMOVE
 70
     0
  9
$DIMFXL
 40
1.0
  9
$DIMFXLON
 70
     0
  9
$DIMJOGANG
 40
0.7853981633974483
  9
$DIMTFILL
 70
     0
  9
$DIMTFILLCLR
 70
     0
  9
$DIMARCSYM
 70
     0
  9
$DIMLTYPE
  6

  9
$DIMLTEX1
  6

  9
$DIMLTEX2
  6

  9
$LUNITS
 70
     2
  9
$LUPREC
 70
     2
  9
$SKETCHINC
 40
1.0
  9
$FILLETRAD
 40
10.0
  9
$AUNITS
 70
     0
  9
$AUPREC
 70
     2
  9
$MENU
  1
.
  9
$ELEVATION
 40
0.0
  9
$PELEVATION
 40
0.0
  9
$THICKNESS
 40
0.0
  9
$LIMCHECK
 70
     0
  9
$CHAMFERA
 40
10.0
  9
$CHAMFERB
 40
10.0
  9
$CHAMFERC
 40
20.0
  9
$CHAMFERD
 40
0.0
  9
$SKPOLY
 70
     0
  9
$TDCREATE
 40
2456260.416597037
  9
$TDUCREATE
 40
2456260.333263704
  9
$TDUPDATE
 40
2459178.667028426
  9
$TDUUPDATE
 40
2459178.583695093
  9
$TDINDWG
 40
0.0304715394
  9
$TDUSRTIMER
 40
0.0002049306
  9
$USRTIMER
 70
     1
  9
$ANGBASE
 50
0.0
  9
$ANGDIR
 70
     0
  9
$PDMODE
 70
     0
  9
$PDSIZE
 40
-1.0
  9
$PLINEWID
 40
0.0
  9
$SPLFRAME
 70
     0
  9
$SPLINETYPE
 70
     6
  9
$SPLINESEGS
 70
     8
  9
$HANDSEED
  5
1297
  9
$SURFTAB1
 70
     6
  9
$SURFTAB2
 70
     6
  9
$SURFTYPE
 70
     6
  9
$SURFU
 70
     6
  9
$SURFV
 70
     6
  9
$UCSBASE
  2

  9
$UCSNAME
  2

  9
$UCSORG
 10
0.0
 20
0.0
 30
0.0
  9
$UCSXDIR
 10
1.0
 20
0.0
 30
0.0
  9
$UCSYDIR
 10
0.0
 20
1.0
 30
0.0
  9
$UCSORTHOREF
  2

  9
$UCSORTHOVIEW
 70
     0
  9
$UCSORGTOP
 10
0.0
 20
0.0
 30
0.0
  9
$UCSORGBOTTOM
 10
0.0
 20
0.0
 30
0.0
  9
$UCSORGLEFT
 10
0.0
 20
0.0
 30
0.0
  9
$UCSORGRIGHT
 10
0.0
 20
0.0
 30
0.0
  9
$UCSORGFRONT
 10
0.0
 20
0.0
 30
0.0
  9
$UCSORGBACK
 10
0.0
 20
0.0
 30
0.0
  9
$PUCSBASE
  2

  9
$PUCSNAME
  2

  9
$PUCSORG
 10
0.0
 20
0.0
 30
0.0
  9
$PUCSXDIR
 10
1.0
 20
0.0
 30
0.0
  9
$PUCSYDIR
 10
0.0
 20
1.0
 30
0.0
  9
$PUCSORTHOREF
  2

  9
$PUCSORTHOVIEW
 70
     0
  9
$PUCSORGTOP
 10
0.0
 20
0.0
 30
0.0
  9
$PUCSORGBOTTOM
 10
0.0
 20
0.0
 30
0.0
  9
$PUCSORGLEFT
 10
0.0
 20
0.0
 30
0.0
  9
$PUCSORGRIGHT
 10
0.0
 20
0.0
 30
0.0
  9
$PUCSORGFRONT
 10
0.0
 20
0.0
 30
0.0
  9
$PUCSORGBACK
 10
0.0
 20
0.0
 30
0.0
  9
$USERI1
 70
     0
  9
$USERI2
 70
     0
  9
$USERI3
 70
     0
  9
$USERI4
 70
     0
  9
$USERI5
 70
     0
  9
$USERR1
 40
0.0
  9
$USERR2
 40
0.0
  9
$USERR3
 40
0.0
  9
$USERR4
 40
0.0
  9
$USERR5
 40
0.0
  9
$WORLDVIEW
 70
     1
  9
$SHADEDGE
 70
     3
  9
$SHADEDIF
 70
    70
  9
$TILEMODE
 70
     1
  9
$MAXACTVP
 70
    64
  9
$PINSBASE
 10
0.0
 20
0.0
 30
0.0
  9
$PLIMCHECK
 70
     0
  9
$PEXTMIN
 10
1.000000000000000E+20
 20
1.000000000000000E+20
 30
1.000000000000000E+20
  9
$PEXTMAX
 10
-1.000000000000000E+20
 20
-1.000000000000000E+20
 30
-1.000000000000000E+20
  9
$PLIMMIN
 10
0.0
 20
0.0
  9
$PLIMMAX
 10
0.0
 20
0.0
  9
$UNITMODE
 70
     0
  9
$VISRETAIN
 70
     1
  9
$PLINEGEN
 70
     0
  9
$PSLTSCALE
 70
     1
  9
$TREEDEPTH
 70
  3020
  9
$CMLSTYLE
  2
Standard
  9
$CMLJUST
 70
     0
  9
$CMLSCALE
 40
20.0
  9
$PROXYGRAPHICS
 70
     1
  9
$MEASUREMENT
 70
     1
  9
$CELWEIGHT
370
    -1
  9
$ENDCAPS
280
     0
  9
$JOINSTYLE
280
     0
  9
$LWDISPLAY
290
     1
  9
$INSUNITS
 70
     4
  9
$HYPERLINKBASE
  1

  9
$STYLESHEET
  1

  9
$XEDIT
290
     1
  9
$CEPSNTYPE
380
     0
  9
$PSTYLEMODE
290
     1
  9
$FINGERPRINTGUID
  2
{FE8CA4DC-0BB7-45FA-B586-97F296001D11}
  9
$VERSIONGUID
  2
{B5078B95-C7C3-472A-B63D-106579B2CD1E}
  9
$EXTNAMES
290
     1
  9
$PSVPSCALE
 40
0.0
  9
$OLESTARTUP
290
     0
  9
$SORTENTS
280
   127
  9
$INDEXCTL
280
     0
  9
$HIDETEXT
280
     0
  9
$XCLIPFRAME
290
     0
  9
$HALOGAP
280
     0
  9
$OBSCOLOR
 70
   257
  9
$OBSLTYPE
280
     0
  9
$INTERSECTIONDISPLAY
280
     0
  9
$INTERSECTIONCOLOR
 70
   257
  9
$DIMASSOC
280
     1
  9
$PROJECTNAME
  1

  9
$CAMERADISPLAY
290
     0
  9
$LENSLENGTH
 40
50.0
  9
$CAMERAHEIGHT
 40
0.0
  9
$STEPSPERSEC
 40
2.0
  9
$STEPSIZE
 40
6.0
  9
$3DDWFPREC
 40
2.0
  9
$PSOLWIDTH
 40
0.25
  9
$PSOLHEIGHT
 40
4.0
  9
$LOFTANG1
 40
1.570796326794897
  9
$LOFTANG2
 40
1.570796326794897
  9
$LOFTMAG1
 40
0.0
  9
$LOFTMAG2
 40
0.0
  9
$LOFTPARAM
 70
     7
  9
$LOFTNORMALS
280
     1
  9
$LATITUDE
 40
37.795
  9
$LONGITUDE
 40
-122.394
  9
$NORTHDIRECTION
 40
0.0
  9
$TIMEZONE
 70
 -8000
  9
$LIGHTGLYPHDISPLAY
280
     1
  9
$TILEMODELIGHTSYNCH
280
     1
  9
$SOLIDHIST
280
     0
  9
$SHOWHIST
280
     1
  9
$DWFFRAME
280
     2
  9
$DGNFRAME
280
     2
  9
$REALWORLDSCALE
290
     1
  9
$INTERFERECOLOR
 62
   256
  9
$CSHADOW
280
     0
  9
$SHADOWPLANELOCATION
 40
0.0
  0
ENDSEC
  0
SECTION
  2
CLASSES
  0
CLASS
  1
ACDBDICTIONARYWDFLT
  2
AcDbDictionaryWithDefault
  3
ObjectDBX Classes
 90
        0
 91
        3
280
     0
281
     0
  0
CLASS
  1
VISUALSTYLE
  2
AcDbVisualStyle
  3
ObjectDBX Classes
 90
     4095
 91
        3
280
     0
281
     0
  0
CLASS
  1
MATERIAL
  2
AcDbMaterial
  3
ObjectDBX Classes
 90
     1153
 91
        3
280
     0
281
     0
  0
CLASS
  1
SCALE
  2
AcDbScale
  3
ObjectDBX Classes
 90
     1153
 91
        3
280
     0
281
     0
  0
CLASS
  1
TABLESTYLE
  2
AcDbTableStyle
  3
ObjectDBX Classes
 90
     4095
 91
        3
280
     0
281
     0
  0
CLASS
  1
MLEADERSTYLE
  2
AcDbMLeaderStyle
  3
ACDB_MLEADERSTYLE_CLASS
 90
     4095
 91
        3
280
     0
281
     0
  0
CLASS
  1
DICTIONARYVAR
  2
AcDbDictionaryVar
  3
ObjectDBX Classes
 90
        0
 91
        3
280
     0
281
     0
  0
CLASS
  1
CELLSTYLEMAP
  2
AcDbCellStyleMap
  3
ObjectDBX Classes
 90
     1152
 91
        3
280
     0
281
     0
  0
ENDSEC
  0
SECTION
  2
TABLES
  0
TABLE
  2
VPORT
  5
8
330
0
100
AcDbSymbolTable
 70
     1
  0
VPORT
  5
1188
330
8
100
AcDbSymbolTableRecord
100
AcDbViewportTableRecord
  2
*Active
 70
     0
 10
0.0
 20
0.0
 11
1.0
 21
1.0
 12
-936.8219447399119
 22
-221.1566818353986
 13
0.0
 23
0.0
 14
10.0
 24
10.0
 15
10.0
 25
10.0
 16
0.0
 26
0.0
 36
1.0
 17
0.0
 27
0.0
 37
0.0
 40
5200.870616804618
 41
1.644036697247707
 42
50.0
 43
0.0
 44
0.0
 50
0.0
 51
0.0
 71
    16
 72
  2000
 73
     1
 74
     3
 75
     0
 76
     0
 77
     0
 78
     0
281
     0
 65
     1
110
0.0
120
0.0
130
0.0
111
1.0
121
0.0
131
0.0
112
0.0
122
1.0
132
0.0
 79
     0
146
0.0
348
11B0
 60
     3
 61
     5
292
     1
282
     1
141
0.0
142
0.0
 63
   250
  0
ENDTAB
  0
TABLE
  2
LTYPE
  5
5
330
0
100
AcDbSymbolTable
 70
     8
  0
LTYPE
  5
14
330
5
100
AcDbSymbolTableRecord
100
AcDbLinetypeTableRecord
  2
ByBlock
 70
     0
  3

 72
    65
 73
     0
 40
0.0
  0
LTYPE
  5
15
330
5
100
AcDbSymbolTableRecord
100
AcDbLinetypeTableRecord
  2
ByLayer
 70
     0
  3

 72
    65
 73
     0
 40
0.0
  0
LTYPE
  5
16
330
5
100
AcDbSymbolTableRecord
100
AcDbLinetypeTableRecord
  2
Continuous
 70
     0
  3
Solid line
 72
    65
 73
     0
 40
0.0
  0
LTYPE
  5
3F
330
5
100
AcDbSymbolTableRecord
100
AcDbLinetypeTableRecord
  2
SLD-Solid
 70
     0
  3
SolidWorks Line Style
 72
    65
 73
     0
 40
0.0
  0
LTYPE
  5
40
330
5
100
AcDbSymbolTableRecord
100
AcDbLinetypeTableRecord
  2
SLD-Dashed
 70
     0
  3
SolidWorks Line Style
 72
    65
 73
     2
 40
1.905
 49
1.27
 74
     0
 49
-0.635
 74
     0
  0
LTYPE
  5
41
330
5
100
AcDbSymbolTableRecord
100
AcDbLinetypeTableRecord
  2
SLD-Phantom
 70
     0
  3
SolidWorks Line Style
 72
    65
 73
     6
 40
12.7
 49
6.349999999999998
 74
     0
 49
-1.27
 74
     0
 49
1.27
 74
     0
 49
-1.27
 74
     0
 49
1.27
 74
     0
 49
-1.27
 74
     0
  0
LTYPE
  5
42
330
5
100
AcDbSymbolTableRecord
100
AcDbLinetypeTableRecord
  2
SLD-Chain
 70
     0
  3
SolidWorks Line Style
 72
    65
 73
     4
 40
10.16
 49
6.349999999999998
 74
     0
 49
-1.27
 74
     0
 49
1.27
 74
     0
 49
-1.27
 74
     0
  0
LTYPE
  5
43
330
5
100
AcDbSymbolTableRecord
100
AcDbLinetypeTableRecord
  2
SLD-Center
 70
     0
  3
SolidWorks Line Style
 72
    65
 73
     4
 40
19.05
 49
15.24
 74
     0
 49
-1.27
 74
     0
 49
1.27
 74
     0
 49
-1.27
 74
     0
  0
LTYPE
  5
44
330
5
100
AcDbSymbolTableRecord
100
AcDbLinetypeTableRecord
  2
SLD-Stitch
 70
     0
  3
SolidWorks Line Style
 72
    65
 73
     2
 40
0.635
 49
0.0
 74
     0
 49
-0.635
 74
     0
  0
LTYPE
  5
45
330
5
100
AcDbSymbolTableRecord
100
AcDbLinetypeTableRecord
  2
SLD-Thin-Thick-Chain
 70
     0
  3
SolidWorks Line Style
 72
    65
 73
     4
 40
10.16
 49
6.349999999999998
 74
     0
 49
-1.27
 74
     0
 49
1.27
 74
     0
 49
-1.27
 74
     0
  0
ENDTAB
  0
TABLE
  2
LAYER
  5
2
330
0
100
AcDbSymbolTable
 70
     4
  0
LAYER
  5
10
330
2
100
AcDbSymbolTableRecord
100
AcDbLayerTableRecord
  2
0
 70
     0
 62
     7
  6
Continuous
370
    -3
390
F
347
11C6
  0
LAYER
  5
46
330
2
100
AcDbSymbolTableRecord
100
AcDbLayerTableRecord
  2
SLD-0
 70
     0
 62
     7
  6
Continuous
370
    -1
390
F
347
11C6
  0
LAYER
  5
47
330
2
100
AcDbSymbolTableRecord
100
AcDbLayerTableRecord
  2
LENKIMO
 70
     0
 62
     1
  6
SLD-Center
370
    -3
390
F
347
11C6
  0
LAYER
  5
48
330
2
100
AcDbSymbolTableRecord
100
AcDbLayerTableRecord
  2
ZYMEJIMAS
 70
     0
 62
     1
  6
SLD-Solid
370
    -3
390
F
347
11C6
  0
ENDTAB
  0
TABLE
  2
STYLE
  5
3
330
0
100
AcDbSymbolTable
 70
     6
  0
STYLE
  5
11
330
3
100
AcDbSymbolTableRecord
100
AcDbTextStyleTableRecord
  2
Standard
 70
     0
 40
0.0
 41
1.0
 50
0.0
 71
     0
 42
3.527777777799998
  3
txt
  4

  0
STYLE
  5
140
330
3
100
AcDbSymbolTableRecord
100
AcDbTextStyleTableRecord
  2
SLDTEXTSTYLE0
 70
     0
 40
0.0
 41
0.75
 50
0.0
 71
     0
 42
0.2
  3
TXT
  4

  0
STYLE
  5
158
330
3
100
AcDbSymbolTableRecord
100
AcDbTextStyleTableRecord
  2
SLDTEXTSTYLE1
 70
     0
 40
0.0
 41
0.6875
 50
0.0
 71
     0
 42
0.2
  3
TXT
  4

  0
STYLE
  5
15B
330
3
100
AcDbSymbolTableRecord
100
AcDbTextStyleTableRecord
  2
SLDTEXTSTYLE2
 70
     0
 40
0.0
 41
0.75
 50
0.0
 71
     0
 42
0.2
  3
TXT
  4
bigfont
  0
STYLE
  5
16B
330
3
100
AcDbSymbolTableRecord
100
AcDbTextStyleTableRecord
  2
SLDTEXTSTYLE3
 70
     0
 40
0.0
 41
0.6629999999999999
 50
0.0
 71
     0
 42
0.2
  3
TXT
  4

  0
STYLE
  5
18E
330
3
100
AcDbSymbolTableRecord
100
AcDbTextStyleTableRecord
  2
SLDTEXTSTYLE4
 70
     0
 40
0.0
 41
0.7
 50
0.0
 71
     0
 42
0.2
  3
TXT
  4

  0
ENDTAB
  0
TABLE
  2
VIEW
  5
6
330
0
100
AcDbSymbolTable
 70
     0
  0
ENDTAB
  0
TABLE
  2
UCS
  5
7
330
0
100
AcDbSymbolTable
 70
     0
  0
ENDTAB
  0
TABLE
  2
APPID
  5
9
330
0
100
AcDbSymbolTable
 70
     3
  0
APPID
  5
12
330
9
100
AcDbSymbolTableRecord
100
AcDbRegAppTableRecord
  2
ACAD
 70
     0
  0
APPID
  5
11D0
330
9
100
AcDbSymbolTableRecord
100
AcDbRegAppTableRecord
  2
AcadAnnotative
 70
     0
  0
APPID
  5
1295
330
9
100
AcDbSymbolTableRecord
100
AcDbRegAppTableRecord
  2
ACAD_MLEADERVER
 70
     0
  0
ENDTAB
  0
TABLE
  2
DIMSTYLE
  5
A
330
0
100
AcDbSymbolTable
 70
     2
100
AcDbDimStyleTable
  0
DIMSTYLE
105
27
330
A
100
AcDbSymbolTableRecord
100
AcDbDimStyleTableRecord
  2
ISO-25
 70
     0
 41
2.5
 42
0.625
 43
3.75
 44
1.25
 73
     0
 74
     0
 77
     1
 78
     8
140
2.5
141
2.5
143
0.0393700787
147
0.625
171
     3
172
     1
178
     0
271
     2
272
     2
274
     3
278
    44
283
     0
284
     8
340
11
  0
DIMSTYLE
105
11CF
330
A
100
AcDbSymbolTableRecord
100
AcDbDimStyleTableRecord
  2
Annotative
 70
     0
 40
0.0
 41
2.5
 42
0.625
 43
3.75
 44
1.25
 73
     0
 74
     0
 77
     1
 78
     8
140
2.5
141
-2.5
143
0.03937007874016
147
0.625
171
     3
172
     1
178
     0
271
     2
272
     2
274
     3
278
    44
283
     0
284
     8
340
11
1001
AcadAnnotative
1000
AnnotativeData
1002
{
1070
     1
1070
     1
1002
}
  0
ENDTAB
  0
TABLE
  2
BLOCK_RECORD
  5
1
330
0
100
AcDbSymbolTable
 70
     5
  0
BLOCK_RECORD
  5
1F
102
{ACAD_XDICTIONARY
360
1291
102
}
330
1
100
AcDbSymbolTableRecord
100
AcDbBlockTableRecord
  2
*Model_Space
340
22
 70
     0
280
     1
281
     0
  0
BLOCK_RECORD
  5
1B
330
1
100
AcDbSymbolTableRecord
100
AcDbBlockTableRecord
  2
*Paper_Space
340
1E
 70
     0
280
     1
281
     0
  0
BLOCK_RECORD
  5
23
330
1
100
AcDbSymbolTableRecord
100
AcDbBlockTableRecord
  2
*Paper_Space0
340
26
 70
     0
280
     1
281
     0
  0
BLOCK_RECORD
  5
49
330
1
100
AcDbSymbolTableRecord
100
AcDbBlockTableRecord
  2
Block1
340
0
 70
     0
280
     1
281
     0
  0
BLOCK_RECORD
  5
173
330
1
100
AcDbSymbolTableRecord
100
AcDbBlockTableRecord
  2
SW_NOTE_0
340
0
 70
     0
280
     1
281
     0
  0
BLOCK_RECORD
  5
179
330
1
100
AcDbSymbolTableRecord
100
AcDbBlockTableRecord
  2
SW_NOTE_1
340
0
 70
     0
280
     1
281
     0
  0
BLOCK_RECORD
  5
18B
330
1
100
AcDbSymbolTableRecord
100
AcDbBlockTableRecord
  2
SW_NOTE_2
340
0
 70
     0
280
     1
281
     0
  0
ENDTAB
  0
ENDSEC
  0
SECTION
  2
BLOCKS
  0
BLOCK
  5
20
330
1F
100
AcDbEntity
  8
0
100
AcDbBlockBegin
  2
*Model_Space
 70
     0
 10
0.0
 20
0.0
 30
0.0
  3
*Model_Space
  1

  0
ENDBLK
  5
21
330
1F
100
AcDbEntity
  8
0
100
AcDbBlockEnd
  0
BLOCK
  5
1C
330
1B
100
AcDbEntity
 67
     1
  8
0
100
AcDbBlockBegin
  2
*Paper_Space
 70
     0
 10
0.0
 20
0.0
 30
0.0
  3
*Paper_Space
  1

  0
ENDBLK
  5
1D
330
1B
100
AcDbEntity
 67
     1
  8
0
100
AcDbBlockEnd
  0
BLOCK
  5
24
330
23
100
AcDbEntity
  8
0
100
AcDbBlockBegin
  2
*Paper_Space0
 70
     0
 10
0.0
 20
0.0
 30
0.0
  3
*Paper_Space0
  1

  0
ENDBLK
  5
25
330
23
100
AcDbEntity
  8
0
100
AcDbBlockEnd
  0
BLOCK
  5
4A
330
49
100
AcDbEntity
  8
0
100
AcDbBlockBegin
  2
Block1
 70
     0
 10
0.0
 20
0.0
 30
0.0
  3
Block1
  1

  0
ARC
  5
4C
330
49
100
AcDbEntity
  8
0
  6
SLD-Solid
 62
   179
100
AcDbCircle
 10
7867.6649029635
 20
2430.1355419087
 30
0.0
 40
931.6078627493896
100
AcDbArc
 50
232.1189098069
 51
101.3462704492
  0
ARC
  5
4D
330
49
100
AcDbEntity
  8
0
  6
SLD-Solid
 62
   179
100
AcDbCircle
 10
7943.5514462269
 20
2435.961394653701
 30
0.0
 40
1140.079096555486
100
AcDbArc
 50
297.434182935
 51
62.17203318890002
  0
ARC
  5
4E
330
49
100
AcDbEntity
  8
0
  6
SLD-Solid
 62
   179
100
AcDbCircle
 10
20001.4103066854
 20
6936.258348176301
 30
0.0
 40
1270.831290716854
100
AcDbArc
 50
3.4391112699
 51
76.41975789219998
  0
ARC
  5
4F
330
49
100
AcDbEntity
  8
0
  6
SLD-Solid
 62
   179
100
AcDbCircle
 10
19239.4822949422
 20
3782.0667000728
 30
0.0
 40
4515.74411667143
100
AcDbArc
 50
76.41975789229998
 51
91.6754644339
  0
ARC
  5
50
330
49
100
AcDbEntity
  8
0
  6
SLD-Solid
 62
   179
100
AcDbCircle
 10
18683.9539720184
 20
2160.1911622497
 30
0.0
 40
2139.476369555804
100
AcDbArc
 50
270.3210228954001
 51
307.7127911617
  0
ARC
  5
51
330
49
100
AcDbEntity
  8
0
  6
SLD-Solid
 62
   179
100
AcDbCircle
 10
18746.0422061702
 20
1962.8216117468
 30
0.0
 40
1946.678009873842
100
AcDbArc
 50
309.8210667380999
 51
331.7017265911999
  0
ARC
  5
52
330
49
100
AcDbEntity
  8
0
  6
SLD-Solid
 62
   179
100
AcDbCircle
 10
17863.1917469523
 20
2438.1532894658
 30
0.0
 40
2949.356989998811
100
AcDbArc
 50
331.7017265911999
 51
356.0927915539001
  0
ARC
  5
53
330
49
100
AcDbEntity
  8
0
  6
SLD-Solid
 62
   179
100
AcDbCircle
 10
16755.7856245826
 20
6709.226497343
 30
0.0
 40
4524.342739831097
100
AcDbArc
 50
353.5830630921
 51
3.8434115591
  0
ARC
  5
54
330
49
100
AcDbEntity
  8
0
  6
SLD-Solid
 62
   179
100
AcDbCircle
 10
19039.3213693035
 20
6348.992835766701
 30
0.0
 40
506.1072723730909
100
AcDbArc
 50
52.45518083770001
 51
82.2716960779
  0
ARC
  5
55
330
49
100
AcDbEntity
  8
0
  6
SLD-Solid
 62
   179
100
AcDbCircle
 10
19108.0528552878
 20
6495.6270812425
 30
0.0
 40
349.7025539282703
100
AcDbArc
 50
10.4012874263
 51
46.7340603611
  0
ARC
  5
56
330
49
100
AcDbEntity
  8
0
  6
SLD-Solid
 62
   179
100
AcDbCircle
 10
17417.0070420698
 20
6262.2496105517
 30
0.0
 40
2056.490362340239
100
AcDbArc
 50
355.4752495919999
 51
8.290034904
  0
ARC
  5
57
330
49
100
AcDbEntity
  8
0
  6
SLD-Solid
 62
   179
100
AcDbCircle
 10
16921.0810184775
 20
2478.8840573259
 30
0.0
 40
2122.330793892779
100
AcDbArc
 50
339.2065439429
 51
352.3366543813
  0
ARC
  5
58
330
49
100
AcDbEntity
  8
0
  6
SLD-Solid
 62
   179
100
AcDbCircle
 10
18500.143747488
 20
1898.8589115903
 30
0.0
 40
440.5904503964751
100
AcDbArc
 50
293.838270217
 51
336.8232513296001
  0
ARC
  5
59
330
49
100
AcDbEntity
  8
0
  6
SLD-Solid
 62
   179
100
AcDbCircle
 10
18201.1477532386
 20
2813.3138324813
 30
0.0
 40
1401.173285533761
100
AcDbArc
 50
267.1686990927
 51
289.9057704419
  0
ARC
  5
5A
330
49
100
AcDbEntity
  8
0
  6
SLD-Solid
 62
   179
100
AcDbCircle
 10
18751.2701169541
 20
4514.997092706598
 30
0.0
 40
2362.499275286643
100
AcDbArc
 50
81.33049979549999
 51
90.0
  0
ARC
  5
5B
330
49
100
AcDbEntity
  8
0
  6
SLD-Solid
 62
   179
100
AcDbCircle
 10
6720.6044375296
 20
9296.0579653158
 30
0.0
 40
7520.148763137155
100
AcDbArc
 50
220.017667739
 51
227.0143029097
  0
ARC
  5
5C
330
49
100
AcDbEntity
  8
0
  6
SLD-Solid
 62
   179
100
AcDbCircle
 10
2021.3892535935
 20
2163.6755564521
 30
0.0
 40
795.0570373035339
100
AcDbArc
 50
316.8708555891
 51
354.9781479006
  0
ARC
  5
5D
330
49
100
AcDbEntity
  8
0
  6
SLD-Solid
 62
   179
100
AcDbCircle
 10
2182.9124170468
 20
2011.9889486322
 30
0.0
 40
573.4753329004777
100
AcDbArc
 50
268.8486412909
 51
316.8986890901
  0
ARC
  5
5E
330
49
100
AcDbEntity
  8
0
  6
SLD-Solid
 62
   179
100
AcDbCircle
 10
10525.696072633
 20
12531.6259047731
 30
0.0
 40
10618.65239809051
100
AcDbArc
 50
220.6325257886001
 51
226.7030345034
  0
ARC
  5
5F
330
49
100
AcDbEntity
  8
0
  6
SLD-Solid
 62
   179
100
AcDbCircle
 10
2962.700769446
 20
6223.5867799529
 30
0.0
 40
723.1072200381735
100
AcDbArc
 50
137.8203941731
 51
175.3475443105
  0
ARC
  5
60
330
49
100
AcDbEntity
  8
0
  6
SLD-Solid
 62
   179
100
AcDbCircle
 10
2808.3239355685
 20
6360.2864243508
 30
0.0
 40
516.9247077280751
100
AcDbArc
 50
89.43798520159999
 51
137.5591461504
  0
ARC
  5
61
330
49
100
AcDbEntity
  8
0
  6
SLD-Solid
 62
   179
100
AcDbCircle
 10
24439.2811878643
 20
2435.9613946539
 30
0.0
 40
1140.079096554877
100
AcDbArc
 50
297.4341829348999
 51
62.17203318890002
  0
ARC
  5
62
330
49
100
AcDbEntity
  8
0
  6
SLD-Solid
 62
   179
100
AcDbCircle
 10
24363.3946446009
 20
2430.1355419089
 30
0.0
 40
931.6078627500976
100
AcDbArc
 50
232.118909807
 51
101.3462704493
  0
LINE
  5
63
330
49
100
AcDbEntity
  8
0
  6
SLD-Solid
 62
   179
100
AcDbLine
 10
10088.0321784074
 20
0.0000125144
 30
0.0
 11
9858.221794955702
 21
8289.6552921115
 31
0.0
  0
LINE
  5
64
330
49
100
AcDbEntity
  8
0
  6
SLD-Solid
 62
   179
100
AcDbLine
 10
9858.221794955702
 20
8289.6552921115
 30
0.0
 11
7491.0265293557
 21
8289.6552921115
 31
0.0
  0
LINE
  5
65
330
49
100
AcDbEntity
  8
0
  6
SLD-Solid
 62
   179
100
AcDbLine
 10
7491.0265293557
 20
8289.6552921115
 30
0.0
 11
5122.8131677553
 21
0.0000125144
 31
0.0
  0
LINE
  5
66
330
49
100
AcDbEntity
  8
0
  6
SLD-Solid
 62
   179
100
AcDbLine
 10
5122.8131677553
 20
0.0000125144
 30
0.0
 11
6903.416058155301
 21
0.0000125144
 31
0.0
  0
LINE
  5
67
330
49
100
AcDbEntity
  8
0
  6
SLD-Solid
 62
   179
100
AcDbLine
 10
6903.416058155301
 20
0.0000125144
 30
0.0
 11
7295.634628555299
 21
1694.8297721115
 31
0.0
  0
LINE
  5
68
330
49
100
AcDbEntity
  8
0
  6
SLD-Solid
 62
   179
100
AcDbLine
 10
7684.3822381561
 20
3343.5361521108
 30
0.0
 11
8520.8837909553
 21
7008.8707569115
 31
0.0
  0
LINE
  5
69
330
49
100
AcDbEntity
  8
0
  6
SLD-Solid
 62
   179
100
AcDbLine
 10
8520.8837909553
 20
7008.8707569115
 30
0.0
 11
8475.7613005553
 21
3444.194015311501
 31
0.0
  0
LINE
  5
6A
330
49
100
AcDbEntity
  8
0
  6
SLD-Solid
 62
   179
100
AcDbLine
 10
8468.8193789565
 20
1424.0948297112
 30
0.0
 11
8468.8193789565
 21
0.0000125144
 31
0.0
  0
LINE
  5
6B
330
49
100
AcDbEntity
  8
0
  6
SLD-Solid
 62
   179
100
AcDbLine
 10
8468.8193789565
 20
0.0000125144
 30
0.0
 11
10088.0321784074
 21
0.0000125144
 31
0.0
  0
LINE
  5
6C
330
49
100
AcDbEntity
  8
0
  6
SLD-Solid
 62
   179
100
AcDbLine
 10
19107.4500497519
 20
8295.8802112275
 30
0.0
 11
16935.7898769541
 21
8295.8802112275
 31
0.0
  0
LINE
  5
6D
330
49
100
AcDbEntity
  8
0
  6
SLD-Solid
 62
   179
100
AcDbLine
 10
16935.7898769541
 20
8295.8802112275
 30
0.0
 11
15991.7401521541
 21
0.0000288275
 31
0.0
  0
LINE
  5
6E
330
49
100
AcDbEntity
  8
0
  6
SLD-Solid
 62
   179
100
AcDbLine
 10
15991.7401521541
 20
0.0000288275
 30
0.0
 11
17855.6331985541
 21
0.0000288275
 31
0.0
  0
LINE
  5
6F
330
49
100
AcDbEntity
  8
0
  6
SLD-Solid
 62
   179
100
AcDbLine
 10
17855.6331985541
 20
0.0000288275
 30
0.0
 11
18695.9411953541
 21
20.7483744275
 31
0.0
  0
LINE
  5
70
330
49
100
AcDbEntity
  8
0
  6
SLD-Solid
 62
   179
100
AcDbLine
 10
20805.6935873772
 20
2237.1817154785
 30
0.0
 11
21251.7830177772
 21
6203.5737826763
 31
0.0
  0
LINE
  5
71
330
49
100
AcDbEntity
  8
0
  6
SLD-Solid
 62
   179
100
AcDbLine
 10
19024.4566673541
 20
2195.8666048275
 30
0.0
 11
19467.0880401544
 21
6100.013635223699
 31
0.0
  0
LINE
  5
72
330
49
100
AcDbEntity
  8
0
  6
SLD-Solid
 62
   179
100
AcDbLine
 10
17907.5040625541
 20
1417.8036448275
 30
0.0
 11
18131.936218492
 21
1413.8509571068
 31
0.0
  0
LINE
  5
73
330
49
100
AcDbEntity
  8
0
  6
SLD-Solid
 62
   179
100
AcDbLine
 10
18529.9544305541
 20
6877.496367993299
 30
0.0
 11
17907.5040625541
 21
1417.8036448275
 31
0.0
  0
LINE
  5
74
330
49
100
AcDbEntity
  8
0
  6
SLD-Solid
 62
   179
100
AcDbLine
 10
18751.2701169541
 20
6877.496367993299
 30
0.0
 11
18529.9544305541
 21
6877.496367993299
 31
0.0
  0
LINE
  5
75
330
49
100
AcDbEntity
  8
0
  6
SLD-Solid
 62
   179
100
AcDbLine
 10
11134.6446741053
 20
0.0
 30
0.0
 11
14807.1018453053
 21
0.0
 31
0.0
  0
LINE
  5
76
330
49
100
AcDbEntity
  8
0
  6
SLD-Solid
 62
   179
100
AcDbLine
 10
14807.1018453053
 20
0.0
 30
0.0
 11
14990.3788981053
 21
1625.287072
 31
0.0
  0
LINE
  5
77
330
49
100
AcDbEntity
  8
0
  6
SLD-Solid
 62
   179
100
AcDbLine
 10
14990.3788981053
 20
1625.287072
 30
0.0
 11
13071.1569301053
 21
1625.287072
 31
0.0
  0
LINE
  5
78
330
49
100
AcDbEntity
  8
0
  6
SLD-Solid
 62
   179
100
AcDbLine
 10
13071.1569301053
 20
1625.287072
 30
0.0
 11
13828.4715445053
 21
8295.880182400004
 31
0.0
  0
LINE
  5
79
330
49
100
AcDbEntity
  8
0
  6
SLD-Solid
 62
   179
100
AcDbLine
 10
13828.4715445053
 20
8295.880182400004
 30
0.0
 11
12075.2363413053
 21
8295.880182400004
 31
0.0
  0
LINE
  5
7A
330
49
100
AcDbEntity
  8
0
  6
SLD-Solid
 62
   179
100
AcDbLine
 10
12075.2363413053
 20
8295.880182400004
 30
0.0
 11
11134.6446741053
 21
0.0
 31
0.0
  0
LINE
  5
7B
330
49
100
AcDbEntity
  8
0
  6
SLD-Solid
 62
   179
100
AcDbLine
 10
4907.4740560005
 20
6857.018562294701
 30
0.0
 11
4882.7391856278
 21
7041.149751364599
 31
0.0
  0
LINE
  5
7C
330
49
100
AcDbEntity
  8
0
  6
SLD-Solid
 62
   179
100
AcDbLine
 10
4882.7391856278
 20
7041.149751364599
 30
0.0
 11
4840.84097804
 21
7222.1279289072
 31
0.0
  0
LINE
  5
7D
330
49
100
AcDbEntity
  8
0
  6
SLD-Solid
 62
   179
100
AcDbLine
 10
4840.84097804
 20
7222.1279289072
 30
0.0
 11
4779.230404759
 21
7397.3516386623
 31
0.0
  0
LINE
  5
7E
330
49
100
AcDbEntity
  8
0
  6
SLD-Solid
 62
   179
100
AcDbLine
 10
4779.230404759
 20
7397.3516386623
 30
0.0
 11
4695.8753846469
 21
7563.306056288
 31
0.0
  0
LINE
  5
7F
330
49
100
AcDbEntity
  8
0
  6
SLD-Solid
 62
   179
100
AcDbLine
 10
4695.8753846469
 20
7563.306056288
 30
0.0
 11
4590.0094760133
 21
7715.862266709699
 31
0.0
  0
LINE
  5
80
330
49
100
AcDbEntity
  8
0
  6
SLD-Solid
 62
   179
100
AcDbLine
 10
4590.0094760133
 20
7715.862266709699
 30
0.0
 11
4462.7758841487
 21
7851.104996035799
 31
0.0
  0
LINE
  5
81
330
49
100
AcDbEntity
  8
0
  6
SLD-Solid
 62
   179
100
AcDbLine
 10
4462.7758841487
 20
7851.104996035799
 30
0.0
 11
4317.197793690001
 21
7966.391816437099
 31
0.0
  0
LINE
  5
82
330
49
100
AcDbEntity
  8
0
  6
SLD-Solid
 62
   179
100
AcDbLine
 10
4317.197793690001
 20
7966.391816437099
 30
0.0
 11
4157.354947066902
 21
8060.963699317401
 31
0.0
  0
LINE
  5
83
330
49
100
AcDbEntity
  8
0
  6
SLD-Solid
 62
   179
100
AcDbLine
 10
4157.354947066902
 20
8060.963699317401
 30
0.0
 11
3942.3832434805
 21
8152.000134559399
 31
0.0
  0
LINE
  5
84
330
49
100
AcDbEntity
  8
0
  6
SLD-Solid
 62
   179
100
AcDbLine
 10
3942.3832434805
 20
8152.000134559399
 30
0.0
 11
3717.7379879586
 21
8215.7306159908
 31
0.0
  0
LINE
  5
85
330
49
100
AcDbEntity
  8
0
  6
SLD-Solid
 62
   179
100
AcDbLine
 10
3717.7379879586
 20
8215.7306159908
 30
0.0
 11
3487.8010416052
 21
8256.6415379559
 31
0.0
  0
LINE
  5
86
330
49
100
AcDbEntity
  8
0
  6
SLD-Solid
 62
   179
100
AcDbLine
 10
3487.8010416052
 20
8256.6415379559
 30
0.0
 11
3255.2826646592
 21
8278.7971759128
 31
0.0
  0
LINE
  5
87
330
49
100
AcDbEntity
  8
0
  6
SLD-Solid
 62
   179
100
AcDbLine
 10
3255.2826646592
 20
8278.7971759128
 30
0.0
 11
3021.7939564
 21
8285.564092295102
 31
0.0
  0
LINE
  5
88
330
49
100
AcDbEntity
  8
0
  6
SLD-Solid
 62
   179
100
AcDbLine
 10
3021.7939564
 20
8285.564092295102
 30
0.0
 11
2764.7286656624
 21
8276.816734455799
 31
0.0
  0
LINE
  5
89
330
49
100
AcDbEntity
  8
0
  6
SLD-Solid
 62
   179
100
AcDbLine
 10
2764.7286656624
 20
8276.816734455799
 30
0.0
 11
2509.0566231212
 21
8248.844873041297
 31
0.0
  0
LINE
  5
8A
330
49
100
AcDbEntity
  8
0
  6
SLD-Solid
 62
   179
100
AcDbLine
 10
2509.0566231212
 20
8248.844873041297
 30
0.0
 11
2256.7624741697
 21
8198.969363254802
 31
0.0
  0
LINE
  5
8B
330
49
100
AcDbEntity
  8
0
  6
SLD-Solid
 62
   179
100
AcDbLine
 10
2256.7624741697
 20
8198.969363254802
 30
0.0
 11
2010.5862549102
 21
8124.640160958398
 31
0.0
  0
LINE
  5
8C
330
49
100
AcDbEntity
  8
0
  6
SLD-Solid
 62
   179
100
AcDbLine
 10
2010.5862549102
 20
8124.640160958398
 30
0.0
 11
1823.7042907144
 21
8047.7718170144
 31
0.0
  0
LINE
  5
8D
330
49
100
AcDbEntity
  8
0
  6
SLD-Solid
 62
   179
100
AcDbLine
 10
1823.7042907144
 20
8047.7718170144
 30
0.0
 11
1644.6605427625
 21
7954.102205278601
 31
0.0
  0
LINE
  5
8E
330
49
100
AcDbEntity
  8
0
  6
SLD-Solid
 62
   179
100
AcDbLine
 10
1644.6605427625
 20
7954.102205278601
 30
0.0
 11
1475.390327491
 21
7843.7545704421
 31
0.0
  0
LINE
  5
8F
330
49
100
AcDbEntity
  8
0
  6
SLD-Solid
 62
   179
100
AcDbLine
 10
1475.390327491
 20
7843.7545704421
 30
0.0
 11
1317.6231711996
 21
7717.507163895
 31
0.0
  0
LINE
  5
90
330
49
100
AcDbEntity
  8
0
  6
SLD-Solid
 62
   179
100
AcDbLine
 10
1317.6231711996
 20
7717.507163895
 30
0.0
 11
1139.538084005
 21
7540.9583629978
 31
0.0
  0
LINE
  5
91
330
49
100
AcDbEntity
  8
0
  6
SLD-Solid
 62
   179
100
AcDbLine
 10
1139.538084005
 20
7540.9583629978
 30
0.0
 11
983.4661868123
 21
7344.686540327599
 31
0.0
  0
LINE
  5
92
330
49
100
AcDbEntity
  8
0
  6
SLD-Solid
 62
   179
100
AcDbLine
 10
983.4661868123
 20
7344.686540327599
 30
0.0
 11
851.5325681984
 21
7131.431508806899
 31
0.0
  0
LINE
  5
93
330
49
100
AcDbEntity
  8
0
  6
SLD-Solid
 62
   179
100
AcDbLine
 10
851.5325681984
 20
7131.431508806899
 30
0.0
 11
744.4774564036
 21
6904.647070365
 31
0.0
  0
LINE
  5
94
330
49
100
AcDbEntity
  8
0
  6
SLD-Solid
 62
   179
100
AcDbLine
 10
744.4774564036
 20
6904.647070365
 30
0.0
 11
658.3392621498999
 21
6656.432742240301
 31
0.0
  0
LINE
  5
95
330
49
100
AcDbEntity
  8
0
  6
SLD-Solid
 62
   179
100
AcDbLine
 10
658.3392621498999
 20
6656.432742240301
 30
0.0
 11
596.9943576212999
 21
6400.9335325463
 31
0.0
  0
LINE
  5
96
330
49
100
AcDbEntity
  8
0
  6
SLD-Solid
 62
   179
100
AcDbLine
 10
596.9943576212999
 20
6400.9335325463
 30
0.0
 11
557.9730775995
 21
6141.0651554946
 31
0.0
  0
LINE
  5
97
330
49
100
AcDbEntity
  8
0
  6
SLD-Solid
 62
   179
100
AcDbLine
 10
557.9730775995
 20
6141.0651554946
 30
0.0
 11
538.0293793386
 21
5893.0807139359
 31
0.0
  0
LINE
  5
98
330
49
100
AcDbEntity
  8
0
  6
SLD-Solid
 62
   179
100
AcDbLine
 10
538.0293793386
 20
5893.0807139359
 30
0.0
 11
537.9155556826
 21
5644.316103439599
 31
0.0
  0
LINE
  5
99
330
49
100
AcDbEntity
  8
0
  6
SLD-Solid
 62
   179
100
AcDbLine
 10
537.9155556826
 20
5644.316103439599
 30
0.0
 11
561.0465619986
 21
5396.6565041751
 31
0.0
  0
LINE
  5
9A
330
49
100
AcDbEntity
  8
0
  6
SLD-Solid
 62
   179
100
AcDbLine
 10
561.0465619986
 20
5396.6565041751
 30
0.0
 11
610.8365836731
 21
5152.986228349099
 31
0.0
  0
LINE
  5
9B
330
49
100
AcDbEntity
  8
0
  6
SLD-Solid
 62
   179
100
AcDbLine
 10
610.8365836731
 20
5152.986228349099
 30
0.0
 11
670.4957765389
 21
4966.8752015955
 31
0.0
  0
LINE
  5
9C
330
49
100
AcDbEntity
  8
0
  6
SLD-Solid
 62
   179
100
AcDbLine
 10
670.4957765389
 20
4966.8752015955
 30
0.0
 11
749.0385092575999
 21
4787.922755338
 31
0.0
  0
LINE
  5
9D
330
49
100
AcDbEntity
  8
0
  6
SLD-Solid
 62
   179
100
AcDbLine
 10
749.0385092575999
 20
4787.922755338
 30
0.0
 11
846.3298658911998
 21
4618.4358151253
 31
0.0
  0
LINE
  5
9E
330
49
100
AcDbEntity
  8
0
  6
SLD-Solid
 62
   179
100
AcDbLine
 10
846.3298658911998
 20
4618.4358151253
 30
0.0
 11
961.3271095995999
 21
4460.4233554942
 31
0.0
  0
LINE
  5
9F
330
49
100
AcDbEntity
  8
0
  6
SLD-Solid
 62
   179
100
AcDbLine
 10
1593.2484263997
 20
3794.8892026942
 30
0.0
 11
2342.8146692
 21
3099.1034974946
 31
0.0
  0
LINE
  5
A0
330
49
100
AcDbEntity
  8
0
  6
SLD-Solid
 62
   179
100
AcDbLine
 10
2342.8146692
 20
3099.1034974946
 30
0.0
 11
2457.4150864402
 21
2985.4804965343
 31
0.0
  0
LINE
  5
A1
330
49
100
AcDbEntity
  8
0
  6
SLD-Solid
 62
   179
100
AcDbLine
 10
2457.4150864402
 20
2985.4804965343
 30
0.0
 11
2562.4777930784
 21
2863.0062246075
 31
0.0
  0
LINE
  5
A2
330
49
100
AcDbEntity
  8
0
  6
SLD-Solid
 62
   179
100
AcDbLine
 10
2562.4777930784
 20
2863.0062246075
 30
0.0
 11
2654.962824414801
 21
2730.8077708033
 31
0.0
  0
LINE
  5
A3
330
49
100
AcDbEntity
  8
0
  6
SLD-Solid
 62
   179
100
AcDbLine
 10
2654.962824414801
 20
2730.8077708033
 30
0.0
 11
2730.9070108725
 21
2588.5028322591
 31
0.0
  0
LINE
  5
A4
330
49
100
AcDbEntity
  8
0
  6
SLD-Solid
 62
   179
100
AcDbLine
 10
2730.9070108725
 20
2588.5028322591
 30
0.0
 11
2787.6392767372
 21
2429.3959416825
 31
0.0
  0
LINE
  5
A5
330
49
100
AcDbEntity
  8
0
  6
SLD-Solid
 62
   179
100
AcDbLine
 10
2787.6392767372
 20
2429.3959416825
 30
0.0
 11
2816.0412804487
 21
2262.9265767885
 31
0.0
  0
LINE
  5
A6
330
49
100
AcDbEntity
  8
0
  6
SLD-Solid
 62
   179
100
AcDbLine
 10
2816.0412804487
 20
2262.9265767885
 30
0.0
 11
2813.3943732
 21
2094.0797010946
 31
0.0
  0
LINE
  5
A7
330
49
100
AcDbEntity
  8
0
  6
SLD-Solid
 62
   179
100
AcDbLine
 10
2171.3892056002
 20
1438.629399097
 30
0.0
 11
2081.3271648151
 21
1444.5220285234
 31
0.0
  0
LINE
  5
A8
330
49
100
AcDbEntity
  8
0
  6
SLD-Solid
 62
   179
100
AcDbLine
 10
2081.3271648151
 20
1444.5220285234
 30
0.0
 11
1993.3677378413
 21
1464.5260106363
 31
0.0
  0
LINE
  5
A9
330
49
100
AcDbEntity
  8
0
  6
SLD-Solid
 62
   179
100
AcDbLine
 10
1993.3677378413
 20
1464.5260106363
 30
0.0
 11
1911.3435803354
 21
1501.9115152047
 31
0.0
  0
LINE
  5
AA
330
49
100
AcDbEntity
  8
0
  6
SLD-Solid
 62
   179
100
AcDbLine
 10
1911.3435803354
 20
1501.9115152047
 30
0.0
 11
1840.5450992733
 21
1557.6494251181
 31
0.0
  0
LINE
  5
AB
330
49
100
AcDbEntity
  8
0
  6
SLD-Solid
 62
   179
100
AcDbLine
 10
1840.5450992733
 20
1557.6494251181
 30
0.0
 11
1785.044516871099
 21
1628.6751044787
 31
0.0
  0
LINE
  5
AC
330
49
100
AcDbEntity
  8
0
  6
SLD-Solid
 62
   179
100
AcDbLine
 10
1785.044516871099
 20
1628.6751044787
 30
0.0
 11
1745.2817682865
 21
1709.6405469696
 31
0.0
  0
LINE
  5
AD
330
49
100
AcDbEntity
  8
0
  6
SLD-Solid
 62
   179
100
AcDbLine
 10
1745.2817682865
 20
1709.6405469696
 30
0.0
 11
1710.0353127013
 21
1840.2386565146
 31
0.0
  0
LINE
  5
AE
330
49
100
AcDbEntity
  8
0
  6
SLD-Solid
 62
   179
100
AcDbLine
 10
1710.0353127013
 20
1840.2386565146
 30
0.0
 11
1696.0216688059
 21
1974.8977537186
 31
0.0
  0
LINE
  5
AF
330
49
100
AcDbEntity
  8
0
  6
SLD-Solid
 62
   179
100
AcDbLine
 10
1696.0216688059
 20
1974.8977537186
 30
0.0
 11
1696.5924840549
 21
2110.3283975811
 31
0.0
  0
LINE
  5
B0
330
49
100
AcDbEntity
  8
0
  6
SLD-Solid
 62
   179
100
AcDbLine
 10
1696.5924840549
 20
2110.3283975811
 30
0.0
 11
1707.5320688
 21
2245.3374630946
 31
0.0
  0
LINE
  5
B1
330
49
100
AcDbEntity
  8
0
  6
SLD-Solid
 62
   179
100
AcDbLine
 10
1707.5320688
 20
2245.3374630946
 30
0.0
 11
1781.480308
 21
2897.4264814946
 31
0.0
  0
LINE
  5
B2
330
49
100
AcDbEntity
  8
0
  6
SLD-Solid
 62
   179
100
AcDbLine
 10
1781.480308
 20
2897.4264814946
 30
0.0
 11
94.11594079999998
 21
2897.4264814946
 31
0.0
  0
LINE
  5
B3
330
49
100
AcDbEntity
  8
0
  6
SLD-Solid
 62
   179
100
AcDbLine
 10
94.11594079999998
 20
2897.4264814946
 30
0.0
 11
26.8902688
 21
2295.7567170946
 31
0.0
  0
LINE
  5
B4
330
49
100
AcDbEntity
  8
0
  6
SLD-Solid
 62
   179
100
AcDbLine
 10
26.8902688
 20
2295.7567170946
 30
0.0
 11
5.820122611699999
 21
2068.3689705604
 31
0.0
  0
LINE
  5
B5
330
49
100
AcDbEntity
  8
0
  6
SLD-Solid
 62
   179
100
AcDbLine
 10
5.820122611699999
 20
2068.3689705604
 30
0.0
 11
0.0
 21
1889.0414014946
 31
0.0
  0
LINE
  5
B6
330
49
100
AcDbEntity
  8
0
  6
SLD-Solid
 62
   179
100
AcDbLine
 10
0.0
 20
1889.0414014946
 30
0.0
 11
0.0
 21
1788.2028934946
 31
0.0
  0
LINE
  5
B7
330
49
100
AcDbEntity
  8
0
  6
SLD-Solid
 62
   179
100
AcDbLine
 10
0.0
 20
1788.2028934946
 30
0.0
 11
8.4741181851
 21
1597.5992610857
 31
0.0
  0
LINE
  5
B8
330
49
100
AcDbEntity
  8
0
  6
SLD-Solid
 62
   179
100
AcDbLine
 10
8.4741181851
 20
1597.5992610857
 30
0.0
 11
29.9475321698
 21
1408.0255515191
 31
0.0
  0
LINE
  5
B9
330
49
100
AcDbEntity
  8
0
  6
SLD-Solid
 62
   179
100
AcDbLine
 10
29.9475321698
 20
1408.0255515191
 30
0.0
 11
66.5196177454
 21
1220.7936775914
 31
0.0
  0
LINE
  5
BA
330
49
100
AcDbEntity
  8
0
  6
SLD-Solid
 62
   179
100
AcDbLine
 10
66.5196177454
 20
1220.7936775914
 30
0.0
 11
120.5660601196
 21
1037.8592313249
 31
0.0
  0
LINE
  5
BB
330
49
100
AcDbEntity
  8
0
  6
SLD-Solid
 62
   179
100
AcDbLine
 10
120.5660601196
 20
1037.8592313249
 30
0.0
 11
194.3311383855
 21
861.9730900702
 31
0.0
  0
LINE
  5
BC
330
49
100
AcDbEntity
  8
0
  6
SLD-Solid
 62
   179
100
AcDbLine
 10
194.3311383855
 20
861.9730900702
 30
0.0
 11
287.5295606573
 21
699.5021482411
 31
0.0
  0
LINE
  5
BD
330
49
100
AcDbEntity
  8
0
  6
SLD-Solid
 62
   179
100
AcDbLine
 10
287.5295606573
 20
699.5021482411
 30
0.0
 11
401.5974373648999
 21
550.9580491856
 31
0.0
  0
LINE
  5
BE
330
49
100
AcDbEntity
  8
0
  6
SLD-Solid
 62
   179
100
AcDbLine
 10
401.5974373648999
 20
550.9580491856
 30
0.0
 11
535.1901037299
 21
419.6995230366999
 31
0.0
  0
LINE
  5
BF
330
49
100
AcDbEntity
  8
0
  6
SLD-Solid
 62
   179
100
AcDbLine
 10
535.1901037299
 20
419.6995230366999
 30
0.0
 11
685.4525519751
 21
307.8901613371
 31
0.0
  0
LINE
  5
C0
330
49
100
AcDbEntity
  8
0
  6
SLD-Solid
 62
   179
100
AcDbLine
 10
685.4525519751
 20
307.8901613371
 30
0.0
 11
880.9909831936
 21
200.7980430706
 31
0.0
  0
LINE
  5
C1
330
49
100
AcDbEntity
  8
0
  6
SLD-Solid
 62
   179
100
AcDbLine
 10
880.9909831936
 20
200.7980430706
 30
0.0
 11
1088.9648544967
 21
120.3523112471
 31
0.0
  0
LINE
  5
C2
330
49
100
AcDbEntity
  8
0
  6
SLD-Solid
 62
   179
100
AcDbLine
 10
1088.9648544967
 20
120.3523112471
 30
0.0
 11
1304.5983771836
 21
63.40275116379999
 31
0.0
  0
LINE
  5
C3
330
49
100
AcDbEntity
  8
0
  6
SLD-Solid
 62
   179
100
AcDbLine
 10
1304.5983771836
 20
63.40275116379999
 30
0.0
 11
1524.5667113278
 21
26.43531137510001
 31
0.0
  0
LINE
  5
C4
330
49
100
AcDbEntity
  8
0
  6
SLD-Solid
 62
   179
100
AcDbLine
 10
1524.5667113278
 20
26.43531137510001
 30
0.0
 11
1746.7181907984
 21
6.202131110099998
 31
0.0
  0
LINE
  5
C5
330
49
100
AcDbEntity
  8
0
  6
SLD-Solid
 62
   179
100
AcDbLine
 10
1746.7181907984
 20
6.202131110099998
 30
0.0
 11
1969.7121896
 21
0.0000182946
 31
0.0
  0
LINE
  5
C6
330
49
100
AcDbEntity
  8
0
  6
SLD-Solid
 62
   179
100
AcDbLine
 10
1969.7121896
 20
0.0000182946
 30
0.0
 11
2235.4163107967
 21
9.0474941519
 31
0.0
  0
LINE
  5
C7
330
49
100
AcDbEntity
  8
0
  6
SLD-Solid
 62
   179
100
AcDbLine
 10
2235.4163107967
 20
9.0474941519
 30
0.0
 11
2499.6874650753
 21
37.9033605802
 31
0.0
  0
LINE
  5
C8
330
49
100
AcDbEntity
  8
0
  6
SLD-Solid
 62
   179
100
AcDbLine
 10
2499.6874650753
 20
37.9033605802
 30
0.0
 11
2760.5117042792
 21
89.204615755
 31
0.0
  0
LINE
  5
C9
330
49
100
AcDbEntity
  8
0
  6
SLD-Solid
 62
   179
100
AcDbLine
 10
2760.5117042792
 20
89.204615755
 30
0.0
 11
3015.1415277313
 21
165.4438899665
 31
0.0
  0
LINE
  5
CA
330
49
100
AcDbEntity
  8
0
  6
SLD-Solid
 62
   179
100
AcDbLine
 10
3015.1415277313
 20
165.4438899665
 30
0.0
 11
3208.6236023082
 21
244.1201341123
 31
0.0
  0
LINE
  5
CB
330
49
100
AcDbEntity
  8
0
  6
SLD-Solid
 62
   179
100
AcDbLine
 10
3208.6236023082
 20
244.1201341123
 30
0.0
 11
3394.246790929
 21
339.8610540042
 31
0.0
  0
LINE
  5
CC
330
49
100
AcDbEntity
  8
0
  6
SLD-Solid
 62
   179
100
AcDbLine
 10
3394.246790929
 20
339.8610540042
 30
0.0
 11
3570.08287903
 21
452.5651803685
 31
0.0
  0
LINE
  5
CD
330
49
100
AcDbEntity
  8
0
  6
SLD-Solid
 62
   179
100
AcDbLine
 10
3570.08287903
 20
452.5651803685
 30
0.0
 11
3734.3860796
 21
581.5020810946
 31
0.0
  0
LINE
  5
CE
330
49
100
AcDbEntity
  8
0
  6
SLD-Solid
 62
   179
100
AcDbLine
 10
3734.3860796
 20
581.5020810946
 30
0.0
 11
3918.9619613187
 21
762.6068684982001
 31
0.0
  0
LINE
  5
CF
330
49
100
AcDbEntity
  8
0
  6
SLD-Solid
 62
   179
100
AcDbLine
 10
3918.9619613187
 20
762.6068684982001
 30
0.0
 11
4080.6115034165
 21
964.4332031658001
 31
0.0
  0
LINE
  5
D0
330
49
100
AcDbEntity
  8
0
  6
SLD-Solid
 62
   179
100
AcDbLine
 10
4080.6115034165
 20
964.4332031658001
 30
0.0
 11
4217.129324297
 21
1184.0491590435
 31
0.0
  0
LINE
  5
D1
330
49
100
AcDbEntity
  8
0
  6
SLD-Solid
 62
   179
100
AcDbLine
 10
4217.129324297
 20
1184.0491590435
 30
0.0
 11
4327.807798901
 21
1417.7744861233
 31
0.0
  0
LINE
  5
D2
330
49
100
AcDbEntity
  8
0
  6
SLD-Solid
 62
   179
100
AcDbLine
 10
4327.807798901
 20
1417.7744861233
 30
0.0
 11
4416.8403522579
 21
1673.6616360853
 31
0.0
  0
LINE
  5
D3
330
49
100
AcDbEntity
  8
0
  6
SLD-Solid
 62
   179
100
AcDbLine
 10
4416.8403522579
 20
1673.6616360853
 30
0.0
 11
4480.332478423
 21
1937.0776350384
 31
0.0
  0
LINE
  5
D4
330
49
100
AcDbEntity
  8
0
  6
SLD-Solid
 62
   179
100
AcDbLine
 10
4480.332478423
 20
1937.0776350384
 30
0.0
 11
4520.926442
 21
2205.0020598946
 31
0.0
  0
LINE
  5
D5
330
49
100
AcDbEntity
  8
0
  6
SLD-Solid
 62
   179
100
AcDbLine
 10
4520.926442
 20
2205.0020598946
 30
0.0
 11
4539.8604791128
 21
2434.751251137
 31
0.0
  0
LINE
  5
D6
330
49
100
AcDbEntity
  8
0
  6
SLD-Solid
 62
   179
100
AcDbLine
 10
4539.8604791128
 20
2434.751251137
 30
0.0
 11
4542.0136171636
 21
2665.2555763504
 31
0.0
  0
LINE
  5
D7
330
49
100
AcDbEntity
  8
0
  6
SLD-Solid
 62
   179
100
AcDbLine
 10
4542.0136171636
 20
2665.2555763504
 30
0.0
 11
4524.9874932226
 21
2895.1234497405
 31
0.0
  0
LINE
  5
D8
330
49
100
AcDbEntity
  8
0
  6
SLD-Solid
 62
   179
100
AcDbLine
 10
4524.9874932226
 20
2895.1234497405
 30
0.0
 11
4496.6310776622
 21
3074.0098021703
 31
0.0
  0
LINE
  5
D9
330
49
100
AcDbEntity
  8
0
  6
SLD-Solid
 62
   179
100
AcDbLine
 10
4496.6310776622
 20
3074.0098021703
 30
0.0
 11
4454.0379981851
 21
3250.0430485054
 31
0.0
  0
LINE
  5
DA
330
49
100
AcDbEntity
  8
0
  6
SLD-Solid
 62
   179
100
AcDbLine
 10
4454.0379981851
 20
3250.0430485054
 30
0.0
 11
4396.5589488
 21
3421.786723094601
 31
0.0
  0
LINE
  5
DB
330
49
100
AcDbEntity
  8
0
  6
SLD-Solid
 62
   179
100
AcDbLine
 10
4396.5589488
 20
3421.786723094601
 30
0.0
 11
4335.077579852899
 21
3551.3591107413
 31
0.0
  0
LINE
  5
DC
330
49
100
AcDbEntity
  8
0
  6
SLD-Solid
 62
   179
100
AcDbLine
 10
4335.077579852899
 20
3551.3591107413
 30
0.0
 11
4262.2002057756
 21
3674.9188547719
 31
0.0
  0
LINE
  5
DD
330
49
100
AcDbEntity
  8
0
  6
SLD-Solid
 62
   179
100
AcDbLine
 10
4262.2002057756
 20
3674.9188547719
 30
0.0
 11
4181.3183894369
 21
3793.4113089372
 31
0.0
  0
LINE
  5
DE
330
49
100
AcDbEntity
  8
0
  6
SLD-Solid
 62
   179
100
AcDbLine
 10
4181.3183894369
 20
3793.4113089372
 30
0.0
 11
4078.522747157101
 21
3927.6643628842
 31
0.0
  0
LINE
  5
DF
330
49
100
AcDbEntity
  8
0
  6
SLD-Solid
 62
   179
100
AcDbLine
 10
4078.522747157101
 20
3927.6643628842
 30
0.0
 11
3969.6759316
 21
4057.069323494601
 31
0.0
  0
LINE
  5
E0
330
49
100
AcDbEntity
  8
0
  6
SLD-Solid
 62
   179
100
AcDbLine
 10
3969.6759316
 20
4057.069323494601
 30
0.0
 11
3243.638674
 21
4803.274282694601
 31
0.0
  0
LINE
  5
E1
330
49
100
AcDbEntity
  8
0
  6
SLD-Solid
 62
   179
100
AcDbLine
 10
2467.1821623981
 20
5616.7049138995
 30
0.0
 11
2391.5759134121
 21
5727.7039441288
 31
0.0
  0
LINE
  5
E2
330
49
100
AcDbEntity
  8
0
  6
SLD-Solid
 62
   179
100
AcDbLine
 10
2391.5759134121
 20
5727.7039441288
 30
0.0
 11
2326.9023872324
 21
5845.3828817498
 31
0.0
  0
LINE
  5
E3
330
49
100
AcDbEntity
  8
0
  6
SLD-Solid
 62
   179
100
AcDbLine
 10
2326.9023872324
 20
5845.3828817498
 30
0.0
 11
2276.7855321171
 21
5969.9206549293
 31
0.0
  0
LINE
  5
E4
330
49
100
AcDbEntity
  8
0
  6
SLD-Solid
 62
   179
100
AcDbLine
 10
2276.7855321171
 20
5969.9206549293
 30
0.0
 11
2250.5432565423
 21
6072.0904771882
 31
0.0
  0
LINE
  5
E5
330
49
100
AcDbEntity
  8
0
  6
SLD-Solid
 62
   179
100
AcDbLine
 10
2250.5432565423
 20
6072.0904771882
 30
0.0
 11
2238.3532498759
 21
6176.8496579539
 31
0.0
  0
LINE
  5
E6
330
49
100
AcDbEntity
  8
0
  6
SLD-Solid
 62
   179
100
AcDbLine
 10
2238.3532498759
 20
6176.8496579539
 30
0.0
 11
2241.9761612
 21
6282.239066694599
 31
0.0
  0
LINE
  5
E7
330
49
100
AcDbEntity
  8
0
  6
SLD-Solid
 62
   179
100
AcDbLine
 10
2813.394373201
 20
6877.186263896098
 30
0.0
 11
2899.1450330725
 21
6871.9159884789
 31
0.0
  0
LINE
  5
E8
330
49
100
AcDbEntity
  8
0
  6
SLD-Solid
 62
   179
100
AcDbLine
 10
2899.1450330725
 20
6871.9159884789
 30
0.0
 11
2983.1458702521
 21
6854.0846279821
 31
0.0
  0
LINE
  5
E9
330
49
100
AcDbEntity
  8
0
  6
SLD-Solid
 62
   179
100
AcDbLine
 10
2983.1458702521
 20
6854.0846279821
 30
0.0
 11
3062.202014936
 21
6820.693112019601
 31
0.0
  0
LINE
  5
EA
330
49
100
AcDbEntity
  8
0
  6
SLD-Solid
 62
   179
100
AcDbLine
 10
3062.202014936
 20
6820.693112019601
 30
0.0
 11
3131.6623634801
 21
6770.362935621401
 31
0.0
  0
LINE
  5
EB
330
49
100
AcDbEntity
  8
0
  6
SLD-Solid
 62
   179
100
AcDbLine
 10
3131.6623634801
 20
6770.362935621401
 30
0.0
 11
3187.37124796
 21
6705.118469623498
 31
0.0
  0
LINE
  5
EC
330
49
100
AcDbEntity
  8
0
  6
SLD-Solid
 62
   179
100
AcDbLine
 10
3187.37124796
 20
6705.118469623498
 30
0.0
 11
3228.1274776793
 21
6629.5646068072
 31
0.0
  0
LINE
  5
ED
330
49
100
AcDbEntity
  8
0
  6
SLD-Solid
 62
   179
100
AcDbLine
 10
3228.1274776793
 20
6629.5646068072
 30
0.0
 11
3265.0334180049
 21
6506.244136135899
 31
0.0
  0
LINE
  5
EE
330
49
100
AcDbEntity
  8
0
  6
SLD-Solid
 62
   179
100
AcDbLine
 10
3265.0334180049
 20
6506.244136135899
 30
0.0
 11
3280.3602104272
 21
6378.3104742822
 31
0.0
  0
LINE
  5
EF
330
49
100
AcDbEntity
  8
0
  6
SLD-Solid
 62
   179
100
AcDbLine
 10
3280.3602104272
 20
6378.3104742822
 30
0.0
 11
3280.7520241623
 21
6249.4122034737
 31
0.0
  0
LINE
  5
F0
330
49
100
AcDbEntity
  8
0
  6
SLD-Solid
 62
   179
100
AcDbLine
 10
3280.7520241623
 20
6249.4122034737
 30
0.0
 11
3270.5289428
 21
6120.897453894599
 31
0.0
  0
LINE
  5
F1
330
49
100
AcDbEntity
  8
0
  6
SLD-Solid
 62
   179
100
AcDbLine
 10
3270.5289428
 20
6120.897453894599
 30
0.0
 11
3206.6645544
 21
5566.2856598946
 31
0.0
  0
LINE
  5
F2
330
49
100
AcDbEntity
  8
0
  6
SLD-Solid
 62
   179
100
AcDbLine
 10
3206.6645544
 20
5566.2856598946
 30
0.0
 11
4820.080682400499
 21
5566.285659894499
 31
0.0
  0
LINE
  5
F3
330
49
100
AcDbEntity
  8
0
  6
SLD-Solid
 62
   179
100
AcDbLine
 10
4820.080682400499
 20
5566.285659894499
 30
0.0
 11
4894.028921600501
 21
6231.819812694499
 31
0.0
  0
LINE
  5
F4
330
49
100
AcDbEntity
  8
0
  6
SLD-Solid
 62
   179
100
AcDbLine
 10
4894.028921600501
 20
6231.819812694499
 30
0.0
 11
4907.4740560005
 21
6366.2711566946
 31
0.0
  0
LINE
  5
F5
330
49
100
AcDbEntity
  8
0
  6
SLD-Solid
 62
   179
100
AcDbLine
 10
4907.4740560005
 20
6366.2711566946
 30
0.0
 11
4917.4861623745
 21
6641.1377165616
 31
0.0
  0
LINE
  5
F6
330
49
100
AcDbEntity
  8
0
  6
SLD-Solid
 62
   179
100
AcDbLine
 10
4917.4861623745
 20
6641.1377165616
 30
0.0
 11
4907.4740560005
 21
6857.018562294701
 31
0.0
  0
LINE
  5
F7
330
49
100
AcDbEntity
  8
0
  6
SLD-Solid
 62
   179
100
AcDbLine
 10
24964.5491205926
 20
0.0000125144
 30
0.0
 11
26583.7619200447
 21
0.0000125144
 31
0.0
  0
LINE
  5
F8
330
49
100
AcDbEntity
  8
0
  6
SLD-Solid
 62
   179
100
AcDbLine
 10
24964.5491205926
 20
1424.0948297115
 30
0.0
 11
24964.5491205926
 21
0.0000125144
 31
0.0
  0
LINE
  5
F9
330
49
100
AcDbEntity
  8
0
  6
SLD-Solid
 62
   179
100
AcDbLine
 10
25016.6135325926
 20
7008.8707569115
 30
0.0
 11
24971.491042193
 21
3444.1940153109
 31
0.0
  0
LINE
  5
FA
330
49
100
AcDbEntity
  8
0
  6
SLD-Solid
 62
   179
100
AcDbLine
 10
24180.1119797926
 20
3343.5361521115
 30
0.0
 11
25016.6135325926
 21
7008.8707569115
 31
0.0
  0
LINE
  5
FB
330
49
100
AcDbEntity
  8
0
  6
SLD-Solid
 62
   179
100
AcDbLine
 10
23399.1457997926
 20
0.0000125144
 30
0.0
 11
23791.3643701938
 21
1694.8297721102
 31
0.0
  0
LINE
  5
FC
330
49
100
AcDbEntity
  8
0
  6
SLD-Solid
 62
   179
100
AcDbLine
 10
21618.5429093926
 20
0.0000125144
 30
0.0
 11
23399.1457997926
 21
0.0000125144
 31
0.0
  0
LINE
  5
FD
330
49
100
AcDbEntity
  8
0
  6
SLD-Solid
 62
   179
100
AcDbLine
 10
23986.756270993
 20
8289.6552921115
 30
0.0
 11
21618.5429093926
 21
0.0000125144
 31
0.0
  0
LINE
  5
FE
330
49
100
AcDbEntity
  8
0
  6
SLD-Solid
 62
   179
100
AcDbLine
 10
26353.951536593
 20
8289.6552921115
 30
0.0
 11
23986.756270993
 21
8289.6552921115
 31
0.0
  0
LINE
  5
FF
330
49
100
AcDbEntity
  8
0
  6
SLD-Solid
 62
   179
100
AcDbLine
 10
26583.7619200447
 20
0.0000125144
 30
0.0
 11
26353.951536593
 21
8289.6552921115
 31
0.0
  0
ENDBLK
  5
4B
330
49
100
AcDbEntity
  8
0
100
AcDbBlockEnd
  0
BLOCK
  5
174
330
173
100
AcDbEntity
  8
0
100
AcDbBlockBegin
  2
SW_NOTE_0
 70
     0
 10
0.0
 20
0.0
 30
0.0
  3
SW_NOTE_0
  1

  0
MTEXT
  5
176
330
173
100
AcDbEntity
  8
0
 62
     0
100
AcDbMText
 10
0.0
 20
2.046395036899999
 30
0.0
 40
1.587499999999999
 41
0.0
 46
0.0
 71
     1
 72
     1
  1
1000-
  7
SLDTEXTSTYLE0
 73
     1
 44
1.0
  0
MTEXT
  5
177
330
173
100
AcDbEntity
  8
0
 62
     0
100
AcDbMText
 10
0.0
 20
-0.0702716042
 30
0.0
 40
1.587499999999999
 41
0.0
 46
0.0
 71
     1
 72
     1
  1
2000
  7
SLDTEXTSTYLE0
 73
     1
 44
1.0
  0
ENDBLK
  5
175
330
173
100
AcDbEntity
  8
0
100
AcDbBlockEnd
  0
BLOCK
  5
17A
330
179
100
AcDbEntity
  8
0
100
AcDbBlockBegin
  2
SW_NOTE_1
 70
     0
 10
0.0
 20
0.0
 30
0.0
  3
SW_NOTE_1
  1

  0
MTEXT
  5
17C
330
179
100
AcDbEntity
  8
0
 62
     0
100
AcDbMText
 10
0.0
 20
2.046395036899999
 30
0.0
 40
1.587499999999999
 41
0.0
 46
0.0
 71
     1
 72
     1
  1
2000-
  7
SLDTEXTSTYLE0
 73
     1
 44
1.0
  0
MTEXT
  5
17D
330
179
100
AcDbEntity
  8
0
 62
     0
100
AcDbMText
 10
0.0
 20
-0.0702716042
 30
0.0
 40
1.587499999999999
 41
0.0
 46
0.0
 71
     1
 72
     1
  1
4000
  7
SLDTEXTSTYLE0
 73
     1
 44
1.0
  0
ENDBLK
  5
17B
330
179
100
AcDbEntity
  8
0
100
AcDbBlockEnd
  0
BLOCK
  5
18C
330
18B
100
AcDbEntity
  8
0
100
AcDbBlockBegin
  2
SW_NOTE_2
 70
     0
 10
0.0
 20
0.0
 30
0.0
  3
SW_NOTE_2
  1

  0
MTEXT
  5
18F
330
18B
100
AcDbEntity
  8
0
 62
     0
100
AcDbMText
 10
2.25
 20
2.578135479499998
 30
0.0
 40
2.0
 41
0.0
 46
0.0
 71
     1
 72
     1
  1
S= mm
  7
SLDTEXTSTYLE4
 73
     1
 44
1.0
  0
MTEXT
  5
190
330
18B
100
AcDbEntity
  8
0
 62
     0
100
AcDbMText
 10
0.0
 20
-0.4218645465
 30
0.0
 40
2.0
 41
0.0
 46
0.0
 71
     1
 72
     1
  1
Lenkimo r=mm
  7
SLDTEXTSTYLE0
 73
     1
 44
1.0
  0
MTEXT
  5
191
330
18B
100
AcDbEntity
  8
0
 62
     0
100
AcDbMText
 10
0.0
 20
-3.4218645726
 30
0.0
 40
2.0
 41
0.0
 46
0.0
 71
     1
 72
     1
  1
Plotas S= m2
  7
SLDTEXTSTYLE0
 73
     1
 44
1.0
  0
ENDBLK
  5
18D
330
18B
100
AcDbEntity
  8
0
100
AcDbBlockEnd
  0
ENDSEC
  0
SECTION
  2
ENTITIES
  0
LINE
  5
1FB
330
1F
100
AcDbEntity
  8
SLD-0
100
AcDbLine
 10
-1743.2136027413
 20
700.9638263928
 30
0.0
 11
-1743.2136027413
 21
700.9486123072
 31
0.0
  0
LINE
  5
1FC
330
1F
100
AcDbEntity
  8
SLD-0
100
AcDbLine
 10
-1721.7136113244
 20
700.9486123072
 30
0.0
 11
-1721.7136113244
 21
700.9638263928
 31
0.0
  0
LINE
  5
21C
330
1F
100
AcDbEntity
  8
SLD-0
100
AcDbLine
 10
-1747.213603397
 20
702.9638304458998
 30
0.0
 11
-1747.213603397
 21
690.9638210283998
 31
0.0
  0
LINE
  5
21D
330
1F
100
AcDbEntity
  8
SLD-0
100
AcDbLine
 10
-1717.7136032181
 20
690.9638210283998
 30
0.0
 11
-1717.7136032181
 21
702.9638304458998
 31
0.0
  0
ARC
  5
21E
330
1F
100
AcDbEntity
  8
SLD-0
100
AcDbCircle
 10
-1746.213604654
 20
702.9638240875
 30
0.0
 40
1.0
100
AcDbArc
 50
90.0
 51
180.0
  0
ARC
  5
21F
330
1F
100
AcDbEntity
  8
SLD-0
100
AcDbCircle
 10
-1718.713604654
 20
702.9638240875
 30
0.0
 40
1.0
100
AcDbArc
 50
0.0
 51
90.0
  0
LINE
  5
220
330
1F
100
AcDbEntity
  8
SLD-0
100
AcDbLine
 10
-1717.9635999995
 20
667.4638255584
 30
0.0
 11
-1717.9635999995
 21
668.9638211476
 31
0.0
  0
LINE
  5
221
330
1F
100
AcDbEntity
  8
SLD-0
100
AcDbLine
 10
-1746.9636066156
 20
668.9638211476
 30
0.0
 11
-1746.9636066156
 21
667.4638255584
 31
0.0
  0
LINE
  5
222
330
1F
100
AcDbEntity
  8
SLD-0
100
AcDbLine
 10
-1720.9636060792
 20
683.9638217436998
 30
0.0
 11
-1720.9636060792
 21
688.9638169752998
 31
0.0
  0
LINE
  5
223
330
1F
100
AcDbEntity
  8
SLD-0
100
AcDbLine
 10
-1743.9636079865
 20
688.9638169752998
 30
0.0
 11
-1743.9636079865
 21
683.9638217436998
 31
0.0
  0
LINE
  5
224
330
1F
100
AcDbEntity
  8
SLD-0
100
AcDbLine
 10
-1745.8657561141
 20
683.9638217436998
 30
0.0
 11
-1745.8657561141
 21
668.9638211476
 31
0.0
  0
LINE
  5
225
330
1F
100
AcDbEntity
  8
SLD-0
100
AcDbLine
 10
-1719.0614579516
 20
668.9638211476
 30
0.0
 11
-1719.0614579516
 21
683.9638217436998
 31
0.0
  0
LINE
  5
22A
330
1F
100
AcDbEntity
  8
SLD-0
100
AcDbLine
 10
-1894.335364391199
 20
746.9638153063999
 30
0.0
 11
-1892.8353613513
 21
746.9638153063999
 31
0.0
  0
LINE
  5
22B
330
1F
100
AcDbEntity
  8
SLD-0
100
AcDbLine
 10
-1892.8353613513
 20
775.9638293731
 30
0.0
 11
-1894.335364391199
 21
775.9638293731
 31
0.0
  0
LINE
  5
22C
330
1F
100
AcDbEntity
  8
SLD-0
100
AcDbLine
 10
-1877.8353626179
 20
749.9638362872
 30
0.0
 11
-1866.8353626775
 21
749.9638362872
 31
0.0
  0
LINE
  5
22D
330
1F
100
AcDbEntity
  8
SLD-0
100
AcDbLine
 10
-1866.8353626775
 20
772.9638381945
 30
0.0
 11
-1877.8353626179
 21
772.9638381945
 31
0.0
  0
LINE
  5
22E
330
1F
100
AcDbEntity
  8
SLD-0
100
AcDbLine
 10
-1877.8353626179
 20
775.4527493463999
 30
0.0
 11
-1892.8353613513
 21
775.4527493463999
 31
0.0
  0
LINE
  5
22F
330
1F
100
AcDbEntity
  8
SLD-0
100
AcDbLine
 10
-2208.8635949689
 20
278.4682228314
 30
0.0
 11
-2208.4636180001
 21
278.4682228314
 31
0.0
  0
LINE
  5
230
330
1F
100
AcDbEntity
  8
SLD-0
100
AcDbLine
 10
-2208.4636180001
 20
289.4682302224
 30
0.0
 11
-2208.8635949689
 21
289.4682302224
 31
0.0
  0
ARC
  5
231
330
1F
100
AcDbEntity
  8
SLD-0
100
AcDbCircle
 10
-2208.463604654
 20
288.4682277975
 30
0.0
 40
1.0
100
AcDbArc
 50
0.0
 51
90.0
  0
ARC
  5
232
330
1F
100
AcDbEntity
  8
SLD-0
100
AcDbCircle
 10
-2208.463604654
 20
279.4682277975
 30
0.0
 40
1.0
100
AcDbArc
 50
270.0
 51
360.0
  0
LINE
  5
235
330
1F
100
AcDbEntity
  8
SLD-0
100
AcDbLine
 10
-1531.063595255
 20
289.4682302224
 30
0.0
 11
-1531.463602026
 21
289.4682302224
 31
0.0
  0
LINE
  5
236
330
1F
100
AcDbEntity
  8
SLD-0
100
AcDbLine
 10
-1531.463602026
 20
278.4682228314
 30
0.0
 11
-1531.063595255
 21
278.4682228314
 31
0.0
  0
ARC
  5
237
330
1F
100
AcDbEntity
  8
SLD-0
100
AcDbCircle
 10
-1531.463604654
 20
279.4682277975
 30
0.0
 40
1.0
100
AcDbArc
 50
180.0
 51
270.0
  0
ARC
  5
238
330
1F
100
AcDbEntity
  8
SLD-0
100
AcDbCircle
 10
-1531.463604654
 20
288.4682277975
 30
0.0
 40
1.0
100
AcDbArc
 50
90.0
 51
180.0
  0
LINE
  5
243
330
1F
100
AcDbEntity
  8
SLD-0
100
AcDbLine
 10
-1909.7056253153
 20
1119.8483570563
 30
0.0
 11
-1909.363606413
 21
1118.9086898314
 31
0.0
  0
LINE
  5
244
330
1F
100
AcDbEntity
  8
SLD-0
100
AcDbLine
 10
-1483.9636175233
 20
1118.9086898314
 30
0.0
 11
-1483.6215762692
 21
1119.8483570563
 31
0.0
  0
LINE
  5
245
330
1F
100
AcDbEntity
  8
SLD-0
100
AcDbLine
 10
-1483.6215762692
 20
1119.8483570563
 30
0.0
 11
-1497.9636160927
 21
1125.0684126365
 31
0.0
  0
LINE
  5
246
330
1F
100
AcDbEntity
  8
SLD-0
100
AcDbLine
 10
-1895.3636041182
 20
1125.0684126365
 30
0.0
 11
-1909.7056253153
 21
1119.8483570563
 31
0.0
  0
LINE
  5
247
330
1F
100
AcDbEntity
  8
SLD-0
100
AcDbLine
 10
-1896.1636064845
 20
1047.2557409751
 30
0.0
 11
-1877.363604893
 21
990.2557595716999
 31
0.0
  0
LINE
  5
248
330
1F
100
AcDbEntity
  8
SLD-0
100
AcDbLine
 10
-1515.9635929661
 20
990.2557595716999
 30
0.0
 11
-1497.1636025506
 21
1047.2557409751
 31
0.0
  0
LINE
  5
249
330
1F
100
AcDbEntity
  8
SLD-0
100
AcDbLine
 10
-1497.1636025506
 20
1047.2557409751
 30
0.0
 11
-1497.1636025506
 21
1107.5889333236
 31
0.0
  0
LINE
  5
24A
330
1F
100
AcDbEntity
  8
SLD-0
100
AcDbLine
 10
-1896.1636064845
 20
1107.5889333236
 30
0.0
 11
-1896.1636064845
 21
1047.2557409751
 31
0.0
  0
LINE
  5
24B
330
1F
100
AcDbEntity
  8
SLD-0
100
AcDbLine
 10
-1497.1636025506
 20
1107.5889333236
 30
0.0
 11
-1498.9636032181
 21
1110.1596220481
 31
0.0
  0
LINE
  5
24C
330
1F
100
AcDbEntity
  8
SLD-0
100
AcDbLine
 10
-1894.3636058169
 20
1110.1596220481
 30
0.0
 11
-1896.1636064845
 21
1107.5889333236
 31
0.0
  0
ARC
  5
24D
330
1F
100
AcDbEntity
  8
SLD-0
100
AcDbCircle
 10
-1498.413604654
 20
1129.1182277975
 30
0.0
 40
1.250000000000227
100
AcDbArc
 50
0.0
 51
90.0
  0
ARC
  5
24E
330
1F
100
AcDbEntity
  8
SLD-0
100
AcDbCircle
 10
-1894.913604654
 20
1129.1182277975
 30
0.0
 40
1.25
100
AcDbArc
 50
90.0
 51
180.0
  0
LINE
  5
24F
330
1F
100
AcDbEntity
  8
SLD-0
100
AcDbLine
 10
-1498.4136013585
 20
1130.3682192313
 30
0.0
 11
-1894.9136039513
 21
1130.3682192313
 31
0.0
  0
LINE
  5
250
330
1F
100
AcDbEntity
  8
SLD-0
100
AcDbLine
 10
-1497.1636025506
 20
1125.3682239997
 30
0.0
 11
-1497.1636025506
 21
1129.1182502257
 31
0.0
  0
LINE
  5
251
330
1F
100
AcDbEntity
  8
SLD-0
100
AcDbLine
 10
-1896.1636064845
 20
1129.1182502257
 30
0.0
 11
-1896.1636064845
 21
1125.3682239997
 31
0.0
  0
LINE
  5
252
330
1F
100
AcDbEntity
  8
SLD-0
100
AcDbLine
 10
-1497.9636160927
 20
1125.0684126365
 30
0.0
 11
-1497.9636160927
 21
1125.3682239997
 31
0.0
  0
LINE
  5
253
330
1F
100
AcDbEntity
  8
SLD-0
100
AcDbLine
 10
-1895.3636041182
 20
1125.3682239997
 30
0.0
 11
-1895.3636041182
 21
1125.0684126365
 31
0.0
  0
LINE
  5
254
330
1F
100
AcDbEntity
  8
SLD-0
100
AcDbLine
 10
-1498.9636032181
 20
1110.1596220481
 30
0.0
 11
-1498.9636032181
 21
1118.9086898314
 31
0.0
  0
LINE
  5
255
330
1F
100
AcDbEntity
  8
SLD-0
100
AcDbLine
 10
-1894.3636058169
 20
1118.9086898314
 30
0.0
 11
-1894.3636058169
 21
1110.1596220481
 31
0.0
  0
ARC
  5
256
330
1F
100
AcDbEntity
  8
SLD-0
100
AcDbCircle
 10
-1506.663604654
 20
940.0182277975
 30
0.0
 40
1.050000000000067
100
AcDbArc
 50
270.0
 51
90.0
  0
ARC
  5
257
330
1F
100
AcDbEntity
  8
SLD-0
100
AcDbCircle
 10
-1886.663604654
 20
940.0182277975
 30
0.0
 40
1.049999999999954
100
AcDbArc
 50
90.0
 51
270.0
  0
LINE
  5
258
330
1F
100
AcDbEntity
  8
SLD-0
100
AcDbLine
 10
-1515.9635929661
 20
941.0682185636998
 30
0.0
 11
-1515.9635929661
 21
990.2557595716999
 31
0.0
  0
LINE
  5
259
330
1F
100
AcDbEntity
  8
SLD-0
100
AcDbLine
 10
-1877.363604893
 20
990.2557595716999
 30
0.0
 11
-1877.363604893
 21
941.0682185636998
 31
0.0
  0
LINE
  5
25A
330
1F
100
AcDbEntity
  8
SLD-0
100
AcDbLine
 10
-1662.4635992842
 20
585.4638232933999
 30
0.0
 11
-1649.4636027413
 21
585.4638232933999
 31
0.0
  0
LINE
  5
275
330
1F
100
AcDbEntity
  8
SLD-0
100
AcDbLine
 10
-1905.6077203053
 20
730.459095453
 30
0.0
 11
-1905.7015417414
 21
730.4608090864999
 31
0.0
  0
SPLINE
  5
276
330
1F
100
AcDbEntity
  8
SLD-0
100
AcDbSpline
210
0.0
220
0.0
230
1.0
 70
     8
 71
     3
 72
    11
 73
     7
 74
     0
 42
0.000000001
 43
0.0000000001
 40
0.0
 40
0.0
 40
0.0
 40
0.0
 40
0.2500729011085081
 40
0.4999065580840789
 40
0.7497864587517316
 40
1.0
 40
1.0
 40
1.0
 40
1.0
 10
-1997.285821874682
 20
787.4638303267297
 30
0.0
 10
-1997.347896017297
 20
787.4572167512122
 30
0.0
 10
-1997.471984916346
 20
787.4439959273694
 30
0.0
 10
-1997.632183682407
 20
787.3385593818042
 30
0.0
 10
-1997.747654015165
 20
787.1839284231025
 30
0.0
 10
-1997.770129601041
 20
787.0589245401369
 30
0.0
 10
-1997.781374891345
 20
786.9963809000787
 30
0.0
  0
SPLINE
  5
277
330
1F
100
AcDbEntity
  8
SLD-0
100
AcDbSpline
210
0.0
220
0.0
230
1.0
 70
     8
 71
     3
 72
    11
 73
     7
 74
     0
 42
0.000000001
 43
0.0000000001
 40
0.0
 40
0.0
 40
0.0
 40
0.0
 40
0.2502260246258146
 40
0.5000923972709562
 40
0.7499172811026522
 40
1.0
 40
1.0
 40
1.0
 40
1.0
 10
-1892.889348258321
 20
786.9963809000787
 30
0.0
 10
-1892.900582830733
 20
787.0589135074367
 30
0.0
 10
-1892.923035828011
 20
787.183888843508
 30
0.0
 10
-1893.038454288356
 20
787.3384984453827
 30
0.0
 10
-1893.198581922521
 20
787.4439246590614
 30
0.0
 10
-1893.322626970028
 20
787.4571928230866
 30
0.0
 10
-1893.384681482856
 20
787.4638303267297
 30
0.0
  0
SPLINE
  5
27D
330
1F
100
AcDbEntity
  8
SLD-0
100
AcDbSpline
210
0.0
220
0.0
230
1.0
 70
     8
 71
     3
 72
    10
 73
     6
 74
     0
 42
0.000000001
 43
0.0000000001
 40
0.0
 40
0.0
 40
0.0
 40
0.0
 40
0.2436120676339973
 40
0.4832524029539131
 40
1.0
 40
1.0
 40
1.0
 40
1.0
 10
-1986.86001582915
 20
731.0068174349602
 30
0.0
 10
-1986.80286624436
 20
730.9563443037431
 30
0.0
 10
-1986.689498813731
 20
730.8562209306187
 30
0.0
 10
-1986.446015937364
 20
730.692422869313
 30
0.0
 10
-1986.280430129949
 20
730.6244377536611
 30
0.0
 10
-1986.167305548732
 20
730.5779918181237
 30
0.0
  0
SPLINE
  5
27E
330
1F
100
AcDbEntity
  8
SLD-0
100
AcDbSpline
210
0.0
220
0.0
230
1.0
 70
     8
 71
     3
 72
    11
 73
     7
 74
     0
 42
0.000000001
 43
0.0000000001
 40
0.0
 40
0.0
 40
0.0
 40
0.0
 40
0.2097612501320265
 40
0.4318719266163174
 40
0.6893209809867354
 40
1.0
 40
1.0
 40
1.0
 40
1.0
 10
-1904.503425051515
 20
730.5779769169626
 30
0.0
 10
-1904.470127278307
 20
730.5902743556876
 30
0.0
 10
-1904.401571367918
 20
730.6155932291748
 30
0.0
 10
-1904.232031524553
 20
730.6968573413603
 30
0.0
 10
-1904.025037173476
 20
730.8214569660913
 30
0.0
 10
-1903.886408133834
 20
730.9411918081178
 30
0.0
 10
-1903.810599287097
 20
731.0066684233484
 30
0.0
  0
SPLINE
  5
27F
330
1F
100
AcDbEntity
  8
SLD-0
100
AcDbSpline
210
0.0
220
0.0
230
1.0
 70
     8
 71
     3
 72
    11
 73
     7
 74
     0
 42
0.000000001
 43
0.0000000001
 40
0.0
 40
0.0
 40
0.0
 40
0.0
 40
0.2419778160561223
 40
0.4898883745567677
 40
0.7427884453359141
 40
1.0
 40
1.0
 40
1.0
 40
1.0
 10
-1997.287341793124
 20
787.4638303267297
 30
0.0
 10
-1997.34511205841
 20
787.4601282061122
 30
0.0
 10
-1997.462068983718
 20
787.4526331973497
 30
0.0
 10
-1997.61452186026
 20
787.3913862842578
 30
0.0
 10
-1997.741388109695
 20
787.2998006067811
 30
0.0
 10
-1997.790260016814
 20
787.2170030975811
 30
0.0
 10
-1997.814902504031
 20
787.1752544390496
 30
0.0
  0
ARC
  5
280
330
1F
100
AcDbEntity
  8
SLD-0
100
AcDbCircle
 10
-1499.116535926
 20
930.7526778060001
 30
0.0
 40
5.000000000013494
100
AcDbArc
 50
326.1590076812
 51
352.1320762392
  0
ARC
  5
281
330
1F
100
AcDbEntity
  8
SLD-0
100
AcDbCircle
 10
-1499.116535926
 20
931.1837777892
 30
0.0
 40
4.999999999997548
100
AcDbArc
 50
7.867923760399996
 51
33.8409923183
  0
ARC
  5
282
330
1F
100
AcDbEntity
  8
SLD-0
100
AcDbCircle
 10
-1499.116535926
 20
306.752677806
 30
0.0
 40
5.000000000013244
100
AcDbArc
 50
326.1590076812
 51
352.1320762392
  0
ARC
  5
283
330
1F
100
AcDbEntity
  8
SLD-0
100
AcDbCircle
 10
-1499.116535926
 20
307.1837777892
 30
0.0
 40
4.999999999997541
100
AcDbArc
 50
7.867923760399996
 51
33.8409923183
  0
LINE
  5
3A6
330
1F
100
AcDbEntity
  8
SLD-0
100
AcDbLine
 10
-1729.4628856974
 20
700.9486123072
 30
0.0
 11
-1721.7136113244
 21
700.9486123072
 31
0.0
  0
LINE
  5
3A7
330
1F
100
AcDbEntity
  8
SLD-0
100
AcDbLine
 10
-1743.2136027413
 20
700.9486123072
 30
0.0
 11
-1729.4628856974
 21
700.9486123072
 31
0.0
  0
LINE
  5
3B4
330
1F
100
AcDbEntity
  8
SLD-0
100
AcDbLine
 10
-1717.7136032181
 20
690.9638210283998
 30
0.0
 11
-1717.8498296338
 21
690.8275946128
 31
0.0
  0
LINE
  5
3B5
330
1F
100
AcDbEntity
  8
SLD-0
100
AcDbLine
 10
-1717.8498296338
 20
700.9638263928
 30
0.0
 11
-1717.8498296338
 21
690.8275946128
 31
0.0
  0
LINE
  5
3B6
330
1F
100
AcDbEntity
  8
SLD-0
100
AcDbLine
 10
-1747.0773844319
 20
700.9638263928
 30
0.0
 11
-1717.8498296338
 21
700.9638263928
 31
0.0
  0
LINE
  5
3B7
330
1F
100
AcDbEntity
  8
SLD-0
100
AcDbLine
 10
-1747.0773844319
 20
690.8275946128
 30
0.0
 11
-1747.0773844319
 21
700.9638263928
 31
0.0
  0
LWPOLYLINE
  5
3B8
330
1F
100
AcDbEntity
  8
SLD-0
100
AcDbPolyline
 90
        3
 70
   128
 43
0.0
 10
-1747.0773844319
 20
690.8275946128
 10
-1747.198448916
 20
690.9486665475
 10
-1747.213603397
 20
690.9638210283998
  0
LINE
  5
3B9
330
1F
100
AcDbEntity
  8
SLD-0
100
AcDbLine
 10
-1746.2136013704
 20
703.9638175713
 30
0.0
 11
-1718.7136052447
 21
703.9638175713
 31
0.0
  0
LINE
  5
3BA
330
1F
100
AcDbEntity
  8
SLD-0
100
AcDbLine
 10
-1746.9636066156
 20
668.9638211476
 30
0.0
 11
-1717.9635999995
 21
668.9638211476
 31
0.0
  0
LINE
  5
3BB
330
1F
100
AcDbEntity
  8
SLD-0
100
AcDbLine
 10
-1725.4166839915
 20
668.9638211476
 30
0.0
 11
-1725.4166839915
 21
683.9638217436998
 31
0.0
  0
LINE
  5
3BC
330
1F
100
AcDbEntity
  8
SLD-0
100
AcDbLine
 10
-1739.5105226236
 20
683.9638217436998
 30
0.0
 11
-1739.5105226236
 21
668.9638211476
 31
0.0
  0
LINE
  5
3BD
330
1F
100
AcDbEntity
  8
SLD-0
100
AcDbLine
 10
-1739.5105226236
 20
683.9638217436998
 30
0.0
 11
-1725.4166839915
 21
683.9638217436998
 31
0.0
  0
LINE
  5
3BE
330
1F
100
AcDbEntity
  8
SLD-0
100
AcDbLine
 10
-1741.4126334983
 20
668.9638211476
 30
0.0
 11
-1741.4126334983
 21
683.9638217436998
 31
0.0
  0
LINE
  5
3BF
330
1F
100
AcDbEntity
  8
SLD-0
100
AcDbLine
 10
-1741.4126334983
 20
683.9638217436998
 30
0.0
 11
-1739.5105226236
 21
683.9638217436998
 31
0.0
  0
LINE
  5
3C0
330
1F
100
AcDbEntity
  8
SLD-0
100
AcDbLine
 10
-1723.5145805674
 20
683.9638217436998
 30
0.0
 11
-1723.5145805674
 21
668.9638211476
 31
0.0
  0
LINE
  5
3C1
330
1F
100
AcDbEntity
  8
SLD-0
100
AcDbLine
 10
-1725.4166839915
 20
683.9638217436998
 30
0.0
 11
-1723.5145805674
 21
683.9638217436998
 31
0.0
  0
LINE
  5
3C3
330
1F
100
AcDbEntity
  8
SLD-0
100
AcDbLine
 10
-1721.138858636
 20
694.9638291345999
 30
0.0
 11
-1721.138858636
 21
688.9638169752998
 31
0.0
  0
LINE
  5
3C4
330
1F
100
AcDbEntity
  8
SLD-0
100
AcDbLine
 10
-1743.7883554297
 20
688.9638169752998
 30
0.0
 11
-1743.7883554297
 21
694.9638291345999
 31
0.0
  0
LINE
  5
3C5
330
1F
100
AcDbEntity
  8
SLD-0
100
AcDbLine
 10
-1745.7678629356
 20
683.9638217436998
 30
0.0
 11
-1745.7678629356
 21
668.9638211476
 31
0.0
  0
LINE
  5
3C6
330
1F
100
AcDbEntity
  8
SLD-0
100
AcDbLine
 10
-1745.7678629356
 20
683.9638217436998
 30
0.0
 11
-1741.4126334983
 21
683.9638217436998
 31
0.0
  0
LINE
  5
3C7
330
1F
100
AcDbEntity
  8
SLD-0
100
AcDbLine
 10
-1719.1593436795
 20
668.9638211476
 30
0.0
 11
-1719.1593436795
 21
683.9638217436998
 31
0.0
  0
LINE
  5
3C8
330
1F
100
AcDbEntity
  8
SLD-0
100
AcDbLine
 10
-1723.5145805674
 20
683.9638217436998
 30
0.0
 11
-1719.1593436795
 21
683.9638217436998
 31
0.0
  0
LINE
  5
3C9
330
1F
100
AcDbEntity
  8
SLD-0
100
AcDbLine
 10
-1743.7136037546
 20
694.9638291345999
 30
0.0
 11
-1743.7136037546
 21
700.9638263928
 31
0.0
  0
LINE
  5
3CA
330
1F
100
AcDbEntity
  8
SLD-0
100
AcDbLine
 10
-1743.7883554297
 20
688.9638169752998
 30
0.0
 11
-1745.2136067944
 21
688.9638169752998
 31
0.0
  0
LINE
  5
3CB
330
1F
100
AcDbEntity
  8
SLD-0
100
AcDbLine
 10
-1747.0773844319
 20
690.8275946128
 30
0.0
 11
-1745.2136067944
 21
688.9638169752998
 31
0.0
  0
LINE
  5
3CC
330
1F
100
AcDbEntity
  8
SLD-0
100
AcDbLine
 10
-1719.7136072713
 20
688.9638169752998
 30
0.0
 11
-1717.8498296338
 21
690.8275946128
 31
0.0
  0
LINE
  5
3CD
330
1F
100
AcDbEntity
  8
SLD-0
100
AcDbLine
 10
-1721.2136028605
 20
694.9638291345999
 30
0.0
 11
-1721.2136028605
 21
700.9638263928
 31
0.0
  0
LINE
  5
3CE
330
1F
100
AcDbEntity
  8
SLD-0
100
AcDbLine
 10
-1719.7136072713
 20
688.9638169752998
 30
0.0
 11
-1721.138858636
 21
688.9638169752998
 31
0.0
  0
LINE
  5
3CF
330
1F
100
AcDbEntity
  8
SLD-0
100
AcDbLine
 10
-1745.8657561141
 20
683.9638217436998
 30
0.0
 11
-1745.7678629356
 21
683.9638217436998
 31
0.0
  0
LINE
  5
3D0
330
1F
100
AcDbEntity
  8
SLD-0
100
AcDbLine
 10
-1719.1593436795
 20
683.9638217436998
 30
0.0
 11
-1719.0614579516
 21
683.9638217436998
 31
0.0
  0
ARC
  5
3D3
330
1F
100
AcDbEntity
  8
SLD-0
100
AcDbCircle
 10
-1885.5853627072
 20
761.4638240875
 30
0.0
 40
14.75000000000006
100
AcDbArc
 50
352.2070756645999
 51
7.7929243354
  0
LINE
  5
3D7
330
1F
100
AcDbEntity
  8
SLD-0
100
AcDbLine
 10
-1872.8353627297
 20
759.4638331878
 30
0.0
 11
-1872.8353627297
 21
763.4638114917
 31
0.0
  0
LINE
  5
3D8
330
1F
100
AcDbEntity
  8
SLD-0
100
AcDbLine
 10
-1872.8353627297
 20
763.4638114917
 30
0.0
 11
-1870.9715850922
 21
763.4638114917
 31
0.0
  0
LINE
  5
3D9
330
1F
100
AcDbEntity
  8
SLD-0
100
AcDbLine
 10
-1870.9715850922
 20
759.4638331878
 30
0.0
 11
-1872.8353627297
 21
759.4638331878
 31
0.0
  0
LINE
  5
3DA
330
1F
100
AcDbEntity
  8
SLD-0
100
AcDbLine
 10
-1892.8353613513
 20
775.9638293731
 30
0.0
 11
-1892.8353613513
 21
746.9638153063999
 31
0.0
  0
LINE
  5
3DD
330
1F
100
AcDbEntity
  8
SLD-0
100
AcDbLine
 10
-1877.8353626179
 20
766.7866512286
 30
0.0
 11
-1877.8353626179
 21
764.5505829799
 31
0.0
  0
LINE
  5
3DF
330
1F
100
AcDbEntity
  8
SLD-0
100
AcDbLine
 10
-1877.8353626179
 20
764.5505829799
 30
0.0
 11
-1877.8353626179
 21
751.1465414511
 31
0.0
  0
LINE
  5
3E1
330
1F
100
AcDbEntity
  8
SLD-0
100
AcDbLine
 10
-1877.8353626179
 20
775.0707729803999
 30
0.0
 11
-1877.8353626179
 21
766.7866512286
 31
0.0
  0
LINE
  5
3E2
330
1F
100
AcDbEntity
  8
SLD-0
100
AcDbLine
 10
-1866.8353626775
 20
759.4638331878
 30
0.0
 11
-1866.8353626775
 21
749.9638362872
 31
0.0
  0
LINE
  5
3E3
330
1F
100
AcDbEntity
  8
SLD-0
100
AcDbLine
 10
-1866.8353626775
 20
772.9638381945
 30
0.0
 11
-1866.8353626775
 21
763.4638114917
 31
0.0
  0
LINE
  5
3E4
330
1F
100
AcDbEntity
  8
SLD-0
100
AcDbLine
 10
-1877.8353626179
 20
749.7645779596997
 30
0.0
 11
-1892.8353613513
 21
749.7645779596997
 31
0.0
  0
LINE
  5
3E5
330
1F
100
AcDbEntity
  8
SLD-0
100
AcDbLine
 10
-1877.8353626179
 20
751.1465414511
 30
0.0
 11
-1877.8353626179
 21
749.7645779596997
 31
0.0
  0
LINE
  5
3E6
330
1F
100
AcDbEntity
  8
SLD-0
100
AcDbLine
 10
-1877.8353626179
 20
775.4527493463999
 30
0.0
 11
-1877.8353626179
 21
775.0707729803999
 31
0.0
  0
LINE
  5
3EA
330
1F
100
AcDbEntity
  8
SLD-0
100
AcDbLine
 10
-2204.9636034566
 20
294.9682339179
 30
0.0
 11
-1534.9636165696
 21
294.9682339179
 31
0.0
  0
LINE
  5
3EB
330
1F
100
AcDbEntity
  8
SLD-0
100
AcDbLine
 10
-2204.9636034566
 20
297.4682315337
 30
0.0
 11
-2204.9636034566
 21
294.9682339179
 31
0.0
  0
LINE
  5
3EC
330
1F
100
AcDbEntity
  8
SLD-0
100
AcDbLine
 10
-2204.9636034566
 20
297.4682315337
 30
0.0
 11
-1534.9636165696
 21
297.4682315337
 31
0.0
  0
LINE
  5
3ED
330
1F
100
AcDbEntity
  8
SLD-0
100
AcDbLine
 10
-1534.9636165696
 20
297.4682315337
 30
0.0
 11
-1534.9636165696
 21
294.9682339179
 31
0.0
  0
LINE
  5
3EE
330
1F
100
AcDbEntity
  8
SLD-0
100
AcDbLine
 10
-2204.9636034566
 20
272.4682255732
 30
0.0
 11
-1534.9636165696
 21
272.4682255732
 31
0.0
  0
LINE
  5
3EF
330
1F
100
AcDbEntity
  8
SLD-0
100
AcDbLine
 10
-2204.9636034566
 20
294.9682339179
 30
0.0
 11
-2204.9636034566
 21
272.4682255732
 31
0.0
  0
LINE
  5
3F0
330
1F
100
AcDbEntity
  8
SLD-0
100
AcDbLine
 10
-1534.9636165696
 20
294.9682339179
 30
0.0
 11
-1534.9636165696
 21
272.4682255732
 31
0.0
  0
LINE
  5
3F1
330
1F
100
AcDbEntity
  8
SLD-0
100
AcDbLine
 10
-1532.4636189538
 20
294.9682339179
 30
0.0
 11
-1532.4636189538
 21
272.4682255732
 31
0.0
  0
LINE
  5
3F2
330
1F
100
AcDbEntity
  8
SLD-0
100
AcDbLine
 10
-1532.4636189538
 20
272.4682255732
 30
0.0
 11
-1534.9636165696
 21
272.4682255732
 31
0.0
  0
LINE
  5
3F3
330
1F
100
AcDbEntity
  8
SLD-0
100
AcDbLine
 10
-1534.9636165696
 20
294.9682339179
 30
0.0
 11
-1532.4636189538
 21
294.9682339179
 31
0.0
  0
LINE
  5
3F4
330
1F
100
AcDbEntity
  8
SLD-0
100
AcDbLine
 10
-2207.4636010724
 20
294.9682339179
 30
0.0
 11
-2207.4636010724
 21
272.4682255732
 31
0.0
  0
LINE
  5
3F5
330
1F
100
AcDbEntity
  8
SLD-0
100
AcDbLine
 10
-2207.4636010724
 20
294.9682339179
 30
0.0
 11
-2204.9636034566
 21
294.9682339179
 31
0.0
  0
LINE
  5
3F6
330
1F
100
AcDbEntity
  8
SLD-0
100
AcDbLine
 10
-2204.9636034566
 20
272.4682255732
 30
0.0
 11
-2207.4636010724
 21
272.4682255732
 31
0.0
  0
LINE
  5
3F7
330
1F
100
AcDbEntity
  8
SLD-0
100
AcDbLine
 10
-1531.063595255
 20
297.4682315337
 30
0.0
 11
-1531.063595255
 21
295.9682210433
 31
0.0
  0
LINE
  5
3F8
330
1F
100
AcDbEntity
  8
SLD-0
100
AcDbLine
 10
-1531.063595255
 20
297.4682315337
 30
0.0
 11
-1534.9636165696
 21
297.4682315337
 31
0.0
  0
LINE
  5
3F9
330
1F
100
AcDbEntity
  8
SLD-0
100
AcDbLine
 10
-1531.063595255
 20
295.9682210433
 30
0.0
 11
-1534.9636165696
 21
295.9682210433
 31
0.0
  0
LINE
  5
3FA
330
1F
100
AcDbEntity
  8
SLD-0
100
AcDbLine
 10
-2208.8635949689
 20
295.9682210433
 30
0.0
 11
-2208.8635949689
 21
297.4682315337
 31
0.0
  0
LINE
  5
3FB
330
1F
100
AcDbEntity
  8
SLD-0
100
AcDbLine
 10
-2208.8635949689
 20
297.4682315337
 30
0.0
 11
-2204.9636034566
 21
297.4682315337
 31
0.0
  0
LINE
  5
3FC
330
1F
100
AcDbEntity
  8
SLD-0
100
AcDbLine
 10
-2208.8635949689
 20
295.9682210433
 30
0.0
 11
-2204.9636034566
 21
295.9682210433
 31
0.0
  0
LINE
  5
429
330
1F
100
AcDbEntity
  8
SLD-0
100
AcDbLine
 10
-1696.6636119681
 20
1119.8483570563
 30
0.0
 11
-1909.7056253153
 21
1119.8483570563
 31
0.0
  0
LINE
  5
42A
330
1F
100
AcDbEntity
  8
SLD-0
100
AcDbLine
 10
-1483.6215762692
 20
1119.8483570563
 30
0.0
 11
-1696.6636119681
 21
1119.8483570563
 31
0.0
  0
LINE
  5
42B
330
1F
100
AcDbEntity
  8
SLD-0
100
AcDbLine
 10
-1696.6636119681
 20
1118.9086898314
 30
0.0
 11
-1909.363606413
 21
1118.9086898314
 31
0.0
  0
LINE
  5
42C
330
1F
100
AcDbEntity
  8
SLD-0
100
AcDbLine
 10
-1483.9636175233
 20
1118.9086898314
 30
0.0
 11
-1696.6636119681
 21
1118.9086898314
 31
0.0
  0
LINE
  5
42D
330
1F
100
AcDbEntity
  8
SLD-0
100
AcDbLine
 10
-1696.6636119681
 20
1125.0684126365
 30
0.0
 11
-1895.3636041182
 21
1125.0684126365
 31
0.0
  0
LINE
  5
42E
330
1F
100
AcDbEntity
  8
SLD-0
100
AcDbLine
 10
-1497.9636160927
 20
1125.0684126365
 30
0.0
 11
-1696.6636119681
 21
1125.0684126365
 31
0.0
  0
LINE
  5
42F
330
1F
100
AcDbEntity
  8
SLD-0
100
AcDbLine
 10
-1696.6636119681
 20
990.2557595716999
 30
0.0
 11
-1877.363604893
 21
990.2557595716999
 31
0.0
  0
LINE
  5
430
330
1F
100
AcDbEntity
  8
SLD-0
100
AcDbLine
 10
-1515.9635929661
 20
990.2557595716999
 30
0.0
 11
-1696.6636119681
 21
990.2557595716999
 31
0.0
  0
LINE
  5
431
330
1F
100
AcDbEntity
  8
SLD-0
100
AcDbLine
 10
-1696.6636119681
 20
1047.2557409751
 30
0.0
 11
-1896.1636064845
 21
1047.2557409751
 31
0.0
  0
LINE
  5
432
330
1F
100
AcDbEntity
  8
SLD-0
100
AcDbLine
 10
-1497.1636025506
 20
1047.2557409751
 30
0.0
 11
-1696.6636119681
 21
1047.2557409751
 31
0.0
  0
LINE
  5
433
330
1F
100
AcDbEntity
  8
SLD-0
100
AcDbLine
 10
-1696.6636119681
 20
1107.5889333236
 30
0.0
 11
-1896.1636064845
 21
1107.5889333236
 31
0.0
  0
LINE
  5
434
330
1F
100
AcDbEntity
  8
SLD-0
100
AcDbLine
 10
-1497.1636025506
 20
1107.5889333236
 30
0.0
 11
-1696.6636119681
 21
1107.5889333236
 31
0.0
  0
LINE
  5
435
330
1F
100
AcDbEntity
  8
SLD-0
100
AcDbLine
 10
-1696.6636119681
 20
1110.1596220481
 30
0.0
 11
-1894.3636058169
 21
1110.1596220481
 31
0.0
  0
LINE
  5
436
330
1F
100
AcDbEntity
  8
SLD-0
100
AcDbLine
 10
-1498.9636032181
 20
1110.1596220481
 30
0.0
 11
-1696.6636119681
 21
1110.1596220481
 31
0.0
  0
LINE
  5
437
330
1F
100
AcDbEntity
  8
SLD-0
100
AcDbLine
 10
-1696.6636119681
 20
1125.3682239997
 30
0.0
 11
-1896.1636064845
 21
1125.3682239997
 31
0.0
  0
LINE
  5
438
330
1F
100
AcDbEntity
  8
SLD-0
100
AcDbLine
 10
-1497.1636025506
 20
1125.3682239997
 30
0.0
 11
-1696.6636119681
 21
1125.3682239997
 31
0.0
  0
LINE
  5
439
330
1F
100
AcDbEntity
  8
SLD-0
100
AcDbLine
 10
-1696.6636119681
 20
938.9682277189999
 30
0.0
 11
-1755.3791044551
 21
938.9682277189999
 31
0.0
  0
LINE
  5
43A
330
1F
100
AcDbEntity
  8
SLD-0
100
AcDbLine
 10
-1637.94810458
 20
938.9682277189999
 30
0.0
 11
-1696.6636119681
 21
938.9682277189999
 31
0.0
  0
LINE
  5
43B
330
1F
100
AcDbEntity
  8
SLD-0
100
AcDbLine
 10
-1696.6636119681
 20
941.0682185636998
 30
0.0
 11
-1886.663603996
 21
941.0682185636998
 31
0.0
  0
LINE
  5
43C
330
1F
100
AcDbEntity
  8
SLD-0
100
AcDbLine
 10
-1506.6635994511
 20
941.0682185636998
 30
0.0
 11
-1696.6636119681
 21
941.0682185636998
 31
0.0
  0
ARC
  5
4A3
330
1F
100
AcDbEntity
  8
SLD-0
100
AcDbCircle
 10
-1665.463604654
 20
538.4638240875
 30
0.0
 40
1.000000000000472
100
AcDbArc
 50
270.0
 51
272.7398047301
  0
LINE
  5
4A4
330
1F
100
AcDbEntity
  8
SLD-0
100
AcDbLine
 10
-1704.9636034566
 20
537.4638228761
 30
0.0
 11
-1665.4636053639
 21
537.4638228761
 31
0.0
  0
LINE
  5
4A6
330
1F
100
AcDbEntity
  8
SLD-0
100
AcDbLine
 10
-1665.4636053639
 20
667.4638255584
 30
0.0
 11
-1704.9636034566
 21
667.4638255584
 31
0.0
  0
ARC
  5
4A7
330
1F
100
AcDbEntity
  8
SLD-0
100
AcDbCircle
 10
-1665.463604654
 20
666.4638240875
 30
0.0
 40
1.000000000000152
100
AcDbArc
 50
87.26019526990001
 51
90.0
  0
LINE
  5
4A9
330
1F
100
AcDbEntity
  8
SLD-0
100
AcDbLine
 10
-1754.4636069136
 20
537.4638228761
 30
0.0
 11
-1704.9636034566
 21
537.4638228761
 31
0.0
  0
ARC
  5
4AA
330
1F
100
AcDbEntity
  8
SLD-0
100
AcDbCircle
 10
-1754.463604654
 20
538.4638240875
 30
0.0
 40
1.000000000000287
100
AcDbArc
 50
267.2601952699001
 51
270.0
  0
ARC
  5
4AE
330
1F
100
AcDbEntity
  8
SLD-0
100
AcDbCircle
 10
-1754.463604654
 20
666.4638240875
 30
0.0
 40
1.000000000000039
100
AcDbArc
 50
90.0
 51
92.73980473010003
  0
LINE
  5
4AF
330
1F
100
AcDbEntity
  8
SLD-0
100
AcDbLine
 10
-1704.9636034566
 20
667.4638255584
 30
0.0
 11
-1754.4636069136
 21
667.4638255584
 31
0.0
  0
ARC
  5
4C9
330
1F
100
AcDbEntity
  8
SLD-0
100
AcDbCircle
 10
-1754.463604654
 20
538.4638240875
 30
0.0
 40
1.000000000000034
100
AcDbArc
 50
180.0
 51
182.7398047301
  0
LINE
  5
4CA
330
1F
100
AcDbEntity
  8
SLD-0
100
AcDbLine
 10
-1755.4636014896
 20
666.4638235318
 30
0.0
 11
-1755.4636014896
 21
538.4638249026997
 31
0.0
  0
ARC
  5
4CB
330
1F
100
AcDbEntity
  8
SLD-0
100
AcDbCircle
 10
-1754.463604654
 20
666.4638240875
 30
0.0
 40
1.00000000000026
100
AcDbArc
 50
177.2601952699
 51
180.0
  0
ARC
  5
4D5
330
1F
100
AcDbEntity
  8
SLD-0
100
AcDbCircle
 10
-1665.463604654
 20
666.4638240875
 30
0.0
 40
1.000000000000244
100
AcDbArc
 50
360.0
 51
2.739804730099999
  0
LINE
  5
4D6
330
1F
100
AcDbEntity
  8
SLD-0
100
AcDbLine
 10
-1664.4636033374
 20
610.9931781041
 30
0.0
 11
-1664.4636033374
 21
666.4638235318
 31
0.0
  0
LINE
  5
4D7
330
1F
100
AcDbEntity
  8
SLD-0
100
AcDbLine
 10
-1664.4636033374
 20
538.4638249026997
 30
0.0
 11
-1664.4636033374
 21
593.9344628797998
 31
0.0
  0
ARC
  5
4D8
330
1F
100
AcDbEntity
  8
SLD-0
100
AcDbCircle
 10
-1665.463604654
 20
538.4638240875
 30
0.0
 40
1.000000000000281
100
AcDbArc
 50
357.2601952698999
 51
360.0
  0
ARC
  5
4DC
330
1F
100
AcDbEntity
  8
SLD-0
100
AcDbCircle
 10
-1754.463604654
 20
538.4638240875
 30
0.0
 40
1.000000000000256
100
AcDbArc
 50
182.7398047301
 51
267.2601952699001
  0
ARC
  5
4DD
330
1F
100
AcDbEntity
  8
SLD-0
100
AcDbCircle
 10
-1665.463604654
 20
538.4638240875
 30
0.0
 40
1.000000000000266
100
AcDbArc
 50
272.7398047301
 51
357.2601952698999
  0
ARC
  5
4DE
330
1F
100
AcDbEntity
  8
SLD-0
100
AcDbCircle
 10
-1665.463604654
 20
666.4638240875
 30
0.0
 40
1.000000000000244
100
AcDbArc
 50
2.739804730099999
 51
87.26019526990001
  0
ARC
  5
4DF
330
1F
100
AcDbEntity
  8
SLD-0
100
AcDbCircle
 10
-1754.463604654
 20
666.4638240875
 30
0.0
 40
1.00000000000026
100
AcDbArc
 50
92.73980473010003
 51
177.2601952699
  0
LINE
  5
4F7
330
1F
100
AcDbEntity
  8
SLD-0
100
AcDbLine
 10
-1662.4635992842
 20
621.2454601274998
 30
0.0
 11
-1664.4636033374
 21
621.2454601274998
 31
0.0
  0
LINE
  5
4F8
330
1F
100
AcDbEntity
  8
SLD-0
100
AcDbLine
 10
-1661.9636057215
 20
612.5182374465
 30
0.0
 11
-1661.9636057215
 21
587.9121883857
 31
0.0
  0
LINE
  5
4F9
330
1F
100
AcDbEntity
  8
SLD-0
100
AcDbLine
 10
-1661.9636057215
 20
587.9121883857
 30
0.0
 11
-1664.4636033374
 21
587.9121883857
 31
0.0
  0
LINE
  5
4FA
330
1F
100
AcDbEntity
  8
SLD-0
100
AcDbLine
 10
-1664.4636033374
 20
610.9931781041
 30
0.0
 11
-1664.4636033374
 21
593.9344628797998
 31
0.0
  0
LINE
  5
4FD
330
1F
100
AcDbEntity
  8
SLD-0
100
AcDbLine
 10
-1644.4636075097
 20
641.2574662911
 30
0.0
 11
-1662.4635992842
 21
641.2574662911
 31
0.0
  0
LINE
  5
4FE
330
1F
100
AcDbEntity
  8
SLD-0
100
AcDbLine
 10
-1644.4636075097
 20
619.2574664103
 30
0.0
 11
-1662.4635992842
 21
619.2574664103
 31
0.0
  0
LINE
  5
4FF
330
1F
100
AcDbEntity
  8
SLD-0
100
AcDbLine
 10
-1662.4635992842
 20
619.2574664103
 30
0.0
 11
-1662.4635992842
 21
641.2574662911
 31
0.0
  0
LINE
  5
500
330
1F
100
AcDbEntity
  8
SLD-0
100
AcDbLine
 10
-1644.4636075097
 20
619.2574664103
 30
0.0
 11
-1644.4636075097
 21
641.2574662911
 31
0.0
  0
LINE
  5
501
330
1F
100
AcDbEntity
  8
SLD-0
100
AcDbLine
 10
-1661.9636057215
 20
610.2718352424
 30
0.0
 11
-1659.4636081057
 21
610.2718352424
 31
0.0
  0
LINE
  5
502
330
1F
100
AcDbEntity
  8
SLD-0
100
AcDbLine
 10
-1659.4636081057
 20
610.2718352424
 30
0.0
 11
-1659.4636081057
 21
612.5182374465
 31
0.0
  0
LINE
  5
503
330
1F
100
AcDbEntity
  8
SLD-0
100
AcDbLine
 10
-1659.4636081057
 20
612.5182374465
 30
0.0
 11
-1662.4635992842
 21
612.5182374465
 31
0.0
  0
LINE
  5
504
330
1F
100
AcDbEntity
  8
SLD-0
100
AcDbLine
 10
-1662.4635992842
 20
612.5182374465
 30
0.0
 11
-1662.4635992842
 21
619.2574664103
 31
0.0
  0
LINE
  5
505
330
1F
100
AcDbEntity
  8
SLD-0
100
AcDbLine
 10
-1644.4636075097
 20
610.9462245451999
 30
0.0
 11
-1648.8865254718
 21
607.8698872672998
 31
0.0
  0
LINE
  5
506
330
1F
100
AcDbEntity
  8
SLD-0
100
AcDbLine
 10
-1644.4636075097
 20
610.9462245451999
 30
0.0
 11
-1644.4636075097
 21
619.2574664103
 31
0.0
  0
LINE
  5
507
330
1F
100
AcDbEntity
  8
SLD-0
100
AcDbLine
 10
-1661.9636057215
 20
611.0992445695
 30
0.0
 11
-1659.4636081057
 21
611.0992445695
 31
0.0
  0
LINE
  5
508
330
1F
100
AcDbEntity
  8
SLD-0
100
AcDbLine
 10
-1649.4636027413
 20
606.7881076681
 30
0.0
 11
-1649.4636027413
 21
585.4638232933999
 31
0.0
  0
LINE
  5
509
330
1F
100
AcDbEntity
  8
SLD-0
100
AcDbLine
 10
-1662.4635992842
 20
585.4638232933999
 30
0.0
 11
-1662.4635992842
 21
587.9121883857
 31
0.0
  0
SPLINE
  5
50A
330
1F
100
AcDbEntity
  8
SLD-0
100
AcDbSpline
210
0.0
220
0.0
230
1.0
 70
     8
 71
     3
 72
    11
 73
     7
 74
     0
 42
0.000000001
 43
0.0000000001
 40
0.0
 40
0.0
 40
0.0
 40
0.0
 40
0.3673729337867254
 40
0.622174444112301
 40
0.8302713708844272
 40
1.0
 40
1.0
 40
1.0
 40
1.0
 10
-1648.886525471751
 20
607.8698872672852
 30
0.0
 10
-1648.99092445639
 20
607.7820090528242
 30
0.0
 10
-1649.167732202033
 20
607.6331805077587
 30
0.0
 10
-1649.351986388771
 20
607.3174658775716
 30
0.0
 10
-1649.447944002373
 20
607.037331830872
 30
0.0
 10
-1649.458748908816
 20
606.8653611649166
 30
0.0
 10
-1649.463602741304
 20
606.7881076680956
 30
0.0
  0
LINE
  5
50B
330
1F
100
AcDbEntity
  8
SLD-0
100
AcDbLine
 10
-1664.4636033374
 20
587.6917108046
 30
0.0
 11
-1662.4635992842
 21
587.6917108046
 31
0.0
  0
LINE
  5
582
330
1F
100
AcDbEntity
  8
SLD-0
100
AcDbLine
 10
-2161.4635972577
 20
683.9682324873997
 30
0.0
 11
-2161.4635972577
 21
768.968240832
 31
0.0
  0
LINE
  5
583
330
1F
100
AcDbEntity
  8
SLD-0
100
AcDbLine
 10
-2161.4635972577
 20
683.9682324873997
 30
0.0
 11
-2183.4636120396
 21
683.9682324873997
 31
0.0
  0
LINE
  5
584
330
1F
100
AcDbEntity
  8
SLD-0
100
AcDbLine
 10
-2183.4636120396
 20
768.968240832
 30
0.0
 11
-2183.4636120396
 21
683.9682324873997
 31
0.0
  0
LINE
  5
585
330
1F
100
AcDbEntity
  8
SLD-0
100
AcDbLine
 10
-2183.4636120396
 20
768.968240832
 30
0.0
 11
-2161.4635972577
 21
768.968240832
 31
0.0
  0
LINE
  5
586
330
1F
100
AcDbEntity
  8
SLD-0
100
AcDbLine
 10
-2184.463599165
 20
684.1568811881
 30
0.0
 11
-2184.463599165
 21
768.779562329
 31
0.0
  0
SPLINE
  5
587
330
1F
100
AcDbEntity
  8
SLD-0
100
AcDbSpline
210
0.0
220
0.0
230
1.0
 70
     8
 71
     3
 72
    13
 73
     9
 74
     0
 42
0.000000001
 43
0.0000000001
 40
0.0
 40
0.0
 40
0.0
 40
0.0
 40
0.0066341656778082
 40
0.1532437506861467
 40
0.3683305955802731
 40
0.5799407593551817
 40
0.7899425690350979
 40
1.0
 40
1.0
 40
1.0
 40
1.0
 10
-2184.463599165027
 20
768.779562328988
 30
0.0
 10
-2184.463585277117
 20
768.7802181635763
 30
0.0
 10
-2184.463264477871
 20
768.7953674011782
 30
0.0
 10
-2184.439484692326
 20
768.831073522568
 30
0.0
 10
-2184.32018675291
 20
768.8838648729304
 30
0.0
 10
-2184.092558853719
 20
768.9304953891998
 30
0.0
 10
-2183.796599497331
 20
768.962147845054
 30
0.0
 10
-2183.574617656621
 20
768.9662096570888
 30
0.0
 10
-2183.463612039631
 20
768.9682408320245
 30
0.0
  0
SPLINE
  5
588
330
1F
100
AcDbEntity
  8
SLD-0
100
AcDbSpline
210
0.0
220
0.0
230
1.0
 70
     8
 71
     3
 72
    13
 73
     9
 74
     0
 42
0.000000001
 43
0.0000000001
 40
0.0
 40
0.0
 40
0.0
 40
0.0
 40
0.0066324076458702
 40
0.1532439497924982
 40
0.3683294999187061
 40
0.5799412787746941
 40
0.789942552218828
 40
1.0
 40
1.0
 40
1.0
 40
1.0
 10
-2184.463599165027
 20
684.1568811880883
 30
0.0
 10
-2184.463585273522
 20
684.1562304443323
 30
0.0
 10
-2184.463264305767
 20
684.1411947968307
 30
0.0
 10
-2184.439485795783
 20
684.1052857436766
 30
0.0
 10
-2184.320184844928
 20
684.0526297657407
 30
0.0
 10
-2184.092560727224
 20
684.0059308854088
 30
0.0
 10
-2183.796598799672
 20
683.9743148622297
 30
0.0
 10
-2183.574617521476
 20
683.9702601264057
 30
0.0
 10
-2183.463612039631
 20
683.9682324873742
 30
0.0
  0
SPLINE
  5
589
330
1F
100
AcDbEntity
  8
SLD-0
100
AcDbSpline
210
0.0
220
0.0
230
1.0
 70
     8
 71
     3
 72
    13
 73
     9
 74
     0
 42
0.000000001
 43
0.0000000001
 40
0.0
 40
0.0
 40
0.0
 40
0.0
 40
0.2100574309649022
 40
0.4200592406448185
 40
0.6316694044197271
 40
0.8467562493138533
 40
0.9933658343221916
 40
1.0
 40
1.0
 40
1.0
 40
1.0
 10
-2161.463597257678
 20
768.9682408320245
 30
0.0
 10
-2161.352591640687
 20
768.9662096570888
 30
0.0
 10
-2161.130609799976
 20
768.9621478450539
 30
0.0
 10
-2160.834650443588
 20
768.9304953891998
 30
0.0
 10
-2160.607022544399
 20
768.8838648729304
 30
0.0
 10
-2160.487724604981
 20
768.8310735225682
 30
0.0
 10
-2160.463944819437
 20
768.7953674011778
 30
0.0
 10
-2160.463624020191
 20
768.7802181635763
 30
0.0
 10
-2160.463610132281
 20
768.779562328988
 30
0.0
  0
LINE
  5
58A
330
1F
100
AcDbEntity
  8
SLD-0
100
AcDbLine
 10
-2160.4636101323
 20
768.779562329
 30
0.0
 11
-2160.4636101323
 21
684.1568811881
 31
0.0
  0
SPLINE
  5
58B
330
1F
100
AcDbEntity
  8
SLD-0
100
AcDbSpline
210
0.0
220
0.0
230
1.0
 70
     8
 71
     3
 72
    13
 73
     9
 74
     0
 42
0.000000001
 43
0.0000000001
 40
0.0
 40
0.0
 40
0.0
 40
0.0
 40
0.2100574477811721
 40
0.420058721225306
 40
0.6316705000812939
 40
0.8467560502075016
 40
0.9933675923541295
 40
1.0
 40
1.0
 40
1.0
 40
1.0
 10
-2161.463597257678
 20
683.9682324873742
 30
0.0
 10
-2161.352591775832
 20
683.9702601264057
 30
0.0
 10
-2161.130610497636
 20
683.9743148622297
 30
0.0
 10
-2160.834648570084
 20
684.0059308854088
 30
0.0
 10
-2160.60702445238
 20
684.052629765741
 30
0.0
 10
-2160.487723501524
 20
684.1052857436764
 30
0.0
 10
-2160.463944991542
 20
684.1411947968313
 30
0.0
 10
-2160.463624023786
 20
684.1562304443323
 30
0.0
 10
-2160.463610132281
 20
684.1568811880883
 30
0.0
  0
ARC
  5
590
330
1F
100
AcDbEntity
  8
SLD-0
100
AcDbCircle
 10
-2172.463604654
 20
668.9682277975
 30
0.0
 40
11.00000000000016
100
AcDbArc
 50
180.0
 51
359.9999903558
  0
LINE
  5
591
330
1F
100
AcDbEntity
  8
SLD-0
100
AcDbLine
 10
-2161.4635972577
 20
668.9682318913
 30
0.0
 11
-2160.4636101323
 21
668.9682318913
 31
0.0
  0
ARC
  5
592
330
1F
100
AcDbEntity
  8
SLD-0
100
AcDbCircle
 10
-2172.463604654
 20
668.9682277975
 30
0.0
 40
12.00000000000014
100
AcDbArc
 50
180.0
 51
359.9999911595
  0
LINE
  5
593
330
1F
100
AcDbEntity
  8
SLD-0
100
AcDbLine
 10
-2183.4636120396
 20
668.9682318913
 30
0.0
 11
-2184.463599165
 21
668.9682318913
 31
0.0
  0
LINE
  5
594
330
1F
100
AcDbEntity
  8
SLD-0
100
AcDbLine
 10
-2183.4636120396
 20
683.9682324873997
 30
0.0
 11
-2183.4636120396
 21
668.9682318913
 31
0.0
  0
LINE
  5
595
330
1F
100
AcDbEntity
  8
SLD-0
100
AcDbLine
 10
-2161.4635972577
 20
668.9682318913
 30
0.0
 11
-2161.4635972577
 21
683.9682324873997
 31
0.0
  0
LINE
  5
596
330
1F
100
AcDbEntity
  8
SLD-0
100
AcDbLine
 10
-2160.4636101323
 20
684.1568811881
 30
0.0
 11
-2160.4636101323
 21
668.9682318913
 31
0.0
  0
LINE
  5
597
330
1F
100
AcDbEntity
  8
SLD-0
100
AcDbLine
 10
-2184.463599165
 20
668.9682318913
 30
0.0
 11
-2184.463599165
 21
684.1568811881
 31
0.0
  0
LINE
  5
598
330
1F
100
AcDbEntity
  8
SLD-0
100
AcDbLine
 10
-2184.463599165
 20
783.9682265269
 30
0.0
 11
-2183.4636120396
 21
783.9682265269
 31
0.0
  0
LINE
  5
599
330
1F
100
AcDbEntity
  8
SLD-0
100
AcDbLine
 10
-2183.4636120396
 20
783.9682265269
 30
0.0
 11
-2183.4636120396
 21
768.968240832
 31
0.0
  0
LINE
  5
59A
330
1F
100
AcDbEntity
  8
SLD-0
100
AcDbLine
 10
-2184.463599165
 20
768.779562329
 30
0.0
 11
-2184.463599165
 21
783.9682265269
 31
0.0
  0
LINE
  5
59B
330
1F
100
AcDbEntity
  8
SLD-0
100
AcDbLine
 10
-2161.4635972577
 20
768.968240832
 30
0.0
 11
-2161.4635972577
 21
783.9682265269
 31
0.0
  0
LINE
  5
59C
330
1F
100
AcDbEntity
  8
SLD-0
100
AcDbLine
 10
-2160.4636101323
 20
783.9682265269
 30
0.0
 11
-2161.4635972577
 21
783.9682265269
 31
0.0
  0
LINE
  5
59D
330
1F
100
AcDbEntity
  8
SLD-0
100
AcDbLine
 10
-2160.4636101323
 20
783.9682265269
 30
0.0
 11
-2160.4636101323
 21
768.779562329
 31
0.0
  0
ARC
  5
59E
330
1F
100
AcDbEntity
  8
SLD-0
100
AcDbCircle
 10
-2172.463604654
 20
783.9682277975
 30
0.0
 40
11.0
100
AcDbArc
 50
0.0000096442
 51
180.0
  0
ARC
  5
59F
330
1F
100
AcDbEntity
  8
SLD-0
100
AcDbCircle
 10
-2172.463604654
 20
783.9682277975
 30
0.0
 40
12.00000000000014
100
AcDbArc
 50
0.0000088405
 51
180.0
  0
ARC
  5
5CC
330
1F
100
AcDbEntity
  8
SLD-0
100
AcDbCircle
 10
-1965.5344849491
 20
577.3923810249998
 30
0.0
 40
0.7108866899637554
100
AcDbArc
 50
192.2241764221
 51
318.2153404327999
  0
ARC
  5
5CD
330
1F
100
AcDbEntity
  8
SLD-0
100
AcDbCircle
 10
-2018.0671809154
 20
623.1582899478
 30
0.0
 40
0.7108866899637537
100
AcDbArc
 50
139.6606136058
 51
265.6517776163
  0
ARC
  5
5CE
330
1F
100
AcDbEntity
  8
SLD-0
100
AcDbCircle
 10
-1925.2263797264
 20
577.4364644551999
 30
0.0
 40
0.7108866899637292
100
AcDbArc
 50
221.9099839144
 51
347.9011479252
  0
ARC
  5
5CF
330
1F
100
AcDbEntity
  8
SLD-0
100
AcDbCircle
 10
-2018.0671809154
 20
683.7693582273
 30
0.0
 40
0.7108866899636804
100
AcDbArc
 50
94.3482223837
 51
220.3393863942
  0
ARC
  5
5D0
330
1F
100
AcDbEntity
  8
SLD-0
100
AcDbCircle
 10
-1869.4956668785
 20
633.3102005309999
 30
0.0
 40
0.7897862727603063
100
AcDbArc
 50
285.6798953346
 51
44.6044758767
  0
ARC
  5
5D1
330
1F
100
AcDbEntity
  8
SLD-0
100
AcDbCircle
 10
-1872.7875526479
 20
623.3325089776
 30
0.0
 40
0.7108866899637059
100
AcDbArc
 50
274.4856402784
 51
40.47680428900001
  0
ARC
  5
5D3
330
1F
100
AcDbEntity
  8
SLD-0
100
AcDbCircle
 10
-1905.0997358441
 20
720.9950226563001
 30
0.0
 40
0.7108866899637774
100
AcDbArc
 50
356.1373623721
 51
122.1285263829
  0
ARC
  5
5D4
330
1F
100
AcDbEntity
  8
SLD-0
100
AcDbCircle
 10
-1869.3921615914
 20
673.5347043826
 30
0.0
 40
0.7108866899637418
100
AcDbArc
 50
311.7846595673
 51
77.77582357779998
  0
ARC
  5
5D6
330
1F
100
AcDbEntity
  8
SLD-0
100
AcDbCircle
 10
-2021.4909642863
 20
633.2265991599999
 30
0.0
 40
0.7108866899637214
100
AcDbArc
 50
131.9099839146
 51
257.901147925
  0
ARC
  5
5D7
330
1F
100
AcDbEntity
  8
SLD-0
100
AcDbCircle
 10
-1975.5949197639
 20
580.7877720815
 30
0.0
 40
0.7108866899637158
100
AcDbArc
 50
184.4856402783
 51
310.4768042891
  0
ARC
  5
5D8
330
1F
100
AcDbEntity
  8
SLD-0
100
AcDbCircle
 10
-1915.1580705142
 20
580.8602478261
 30
0.0
 40
0.7108866899637312
100
AcDbArc
 50
229.6606136056
 51
355.6517776165001
  0
ARC
  5
5D9
330
1F
100
AcDbEntity
  8
SLD-0
100
AcDbCircle
 10
-2021.4909642863
 20
673.7010490151
 30
0.0
 40
0.7108866899635627
100
AcDbArc
 50
102.098852075
 51
228.0900160854
  0
LINE
  5
5DA
330
1F
100
AcDbEntity
  8
SLD-0
100
AcDbLine
 10
-1986.3501427966
 20
721.0603519427
 30
0.0
 11
-1986.3466857272
 21
721.1382552133998
 31
0.0
  0
ARC
  5
5DB
330
1F
100
AcDbEntity
  8
SLD-0
100
AcDbCircle
 10
-1985.6364105232
 20
721.1088560857
 30
0.0
 40
0.7108866899637148
100
AcDbArc
 50
57.70950589869999
 51
177.6298647251
  0
ARC
  5
5DC
330
1F
100
AcDbEntity
  8
SLD-0
100
AcDbCircle
 10
-1965.5344849491
 20
729.5352671500999
 30
0.0
 40
0.710886689963777
100
AcDbArc
 50
41.78465956719999
 51
167.7758235779
  0
ARC
  5
5DD
330
1F
100
AcDbEntity
  8
SLD-0
100
AcDbCircle
 10
-1872.7875526479
 20
683.5951391974997
 30
0.0
 40
0.7108866899638552
100
AcDbArc
 50
319.5231957111
 51
85.5143597216
  0
ARC
  5
5DE
330
1F
100
AcDbEntity
  8
SLD-0
100
AcDbCircle
 10
-1925.2263797264
 20
729.4911837199
 30
0.0
 40
0.7108866899635544
100
AcDbArc
 50
12.0988520748
 51
138.0900160856
  0
LINE
  5
5FB
330
1F
100
AcDbEntity
  8
SLD-0
100
AcDbLine
 10
-1905.7175567644
 20
729.8638238656
 30
0.0
 11
-1905.4298376935
 21
721.6246142136
 31
0.0
  0
LINE
  5
5FC
330
1F
100
AcDbEntity
  8
SLD-0
100
AcDbLine
 10
-1905.6826619702
 20
729.8645540225
 30
0.0
 11
-1905.7175567644
 21
729.8638238656
 31
0.0
  0
SPLINE
  5
5FD
330
1F
100
AcDbEntity
  8
SLD-0
100
AcDbSpline
210
0.0
220
0.0
230
1.0
 70
     8
 71
     3
 72
    13
 73
     9
 74
     0
 42
0.000000001
 43
0.0000000001
 40
0.0
 40
0.0
 40
0.0
 40
0.0
 40
0.1603446406313467
 40
0.2991999385448274
 40
0.5119398652889076
 40
0.6416425483898534
 40
0.7660658502515793
 40
1.0
 40
1.0
 40
1.0
 40
1.0
 10
-1904.70419957215
 20
729.4987305151757
 30
0.0
 10
-1904.7107084243
 20
729.5299327001828
 30
0.0
 10
-1904.722853814103
 20
729.5881553623178
 30
0.0
 10
-1904.814596943405
 20
729.6801565065242
 30
0.0
 10
-1904.956061795093
 20
729.7591663004359
 30
0.0
 10
-1905.142444322055
 20
729.8139969743105
 30
0.0
 10
-1905.367329746781
 20
729.8571684558128
 30
0.0
 10
-1905.558116939672
 20
729.8616369859172
 30
0.0
 10
-1905.682661970202
 20
729.8645540224848
 30
0.0
  0
LINE
  5
5FE
330
1F
100
AcDbEntity
  8
SLD-0
100
AcDbLine
 10
-1904.413757314
 20
721.1815430867
 30
0.0
 11
-1904.7041995722
 21
729.4987305152
 31
0.0
  0
LINE
  5
5FF
330
1F
100
AcDbEntity
  8
SLD-0
100
AcDbLine
 10
-1986.3465963202
 20
721.1403711783
 30
0.0
 11
-1985.9752444821
 21
729.5081629502
 31
0.0
  0
SPLINE
  5
600
330
1F
100
AcDbEntity
  8
SLD-0
100
AcDbSpline
210
0.0
220
0.0
230
1.0
 70
     8
 71
     3
 72
    12
 73
     8
 74
     0
 42
0.000000001
 43
0.0000000001
 40
0.0
 40
0.0
 40
0.0
 40
0.0
 40
0.2335889442356417
 40
0.3577790414647779
 40
0.4872015470159253
 40
0.7491420873321201
 40
1.0
 40
1.0
 40
1.0
 40
1.0
 10
-1985.002794702594
 20
729.8650010573205
 30
0.0
 10
-1985.12604860082
 20
729.8628503550784
 30
0.0
 10
-1985.314831771651
 20
729.8595562086495
 30
0.0
 10
-1985.537616898298
 20
729.818558232662
 30
0.0
 10
-1985.740680837223
 20
729.7595324542681
 30
0.0
 10
-1985.928589939324
 20
729.6561993737233
 30
0.0
 10
-1985.959918660511
 20
729.5567922943397
 30
0.0
 10
-1985.975244482103
 20
729.5081629502115
 30
0.0
  0
LINE
  5
601
330
1F
100
AcDbEntity
  8
SLD-0
100
AcDbLine
 10
-1984.958463748
 20
729.8638238656
 30
0.0
 11
-1985.0027947026
 21
729.8650010572997
 31
0.0
  0
LINE
  5
602
330
1F
100
AcDbEntity
  8
SLD-0
100
AcDbLine
 10
-1985.3187887269
 20
721.7448367821999
 30
0.0
 11
-1984.958463748
 21
729.8638238656
 31
0.0
  0
LINE
  5
603
330
1F
100
AcDbEntity
  8
SLD-0
100
AcDbLine
 10
-1984.958463748
 20
729.8638238656
 30
0.0
 11
-1966.1648882824
 21
729.8638238656
 31
0.0
  0
SPLINE
  5
604
330
1F
100
AcDbEntity
  8
SLD-0
100
AcDbSpline
210
0.0
220
0.0
230
1.0
 70
    24
 71
     3
 72
    11
 73
     7
 74
     0
 42
0.000000001
 43
0.0000000001
 40
0.0
 40
0.0
 40
0.0
 40
0.0
 40
0.2499886882561648
 40
0.5000003641200697
 40
0.7499988086053194
 40
1.0
 40
1.0
 40
1.0
 40
1.0
 10
-1984.958463748042
 20
730.4638191210565
 30
0.0
 10
-1984.958463748042
 20
730.4547980901191
 30
0.0
 10
-1984.958463748042
 20
730.4367551987187
 30
0.0
 10
-1984.958463748042
 20
730.2980271182249
 30
0.0
 10
-1984.958463748042
 20
730.0996905249306
 30
0.0
 10
-1984.958463748042
 20
729.9424463733247
 30
0.0
 10
-1984.958463748042
 20
729.8638238655863
 30
0.0
  0
LINE
  5
605
330
1F
100
AcDbEntity
  8
SLD-0
100
AcDbLine
 10
-1963.1271301108
 20
730.4638191210998
 30
0.0
 11
-1984.958463748
 21
730.4638191210998
 31
0.0
  0
SPLINE
  5
606
330
1F
100
AcDbEntity
  8
SLD-0
100
AcDbSpline
210
0.0
220
0.0
230
1.0
 70
    24
 71
     3
 72
    11
 73
     7
 74
     0
 42
0.000000001
 43
0.0000000001
 40
0.0
 40
0.0
 40
0.0
 40
0.0
 40
0.2500011913946807
 40
0.4999996358799306
 40
0.7500113117438352
 40
1.0
 40
1.0
 40
1.0
 40
1.0
 10
-1905.717556764428
 20
729.8638238655863
 30
0.0
 10
-1905.717556764428
 20
729.9424463733247
 30
0.0
 10
-1905.717556764428
 20
730.0996905249306
 30
0.0
 10
-1905.717556764428
 20
730.2980271182249
 30
0.0
 10
-1905.717556764428
 20
730.4367551987184
 30
0.0
 10
-1905.717556764428
 20
730.4547980901189
 30
0.0
 10
-1905.717556764428
 20
730.4638191210565
 30
0.0
  0
LINE
  5
607
330
1F
100
AcDbEntity
  8
SLD-0
100
AcDbLine
 10
-1924.6209873157
 20
729.8638238656
 30
0.0
 11
-1905.7175567644
 21
729.8638238656
 31
0.0
  0
LINE
  5
608
330
1F
100
AcDbEntity
  8
SLD-0
100
AcDbLine
 10
-1905.7175567644
 20
730.4638191210998
 30
0.0
 11
-1927.8000830012
 21
730.4638191210998
 31
0.0
  0
SPLINE
  5
609
330
1F
100
AcDbEntity
  8
SLD-0
100
AcDbSpline
210
0.0
220
0.0
230
1.0
 70
     8
 71
     3
 72
    11
 73
     7
 74
     0
 42
0.000000001
 43
0.0000000001
 40
0.0
 40
0.0
 40
0.0
 40
0.0
 40
0.2798473658656883
 40
0.5590905215501635
 40
0.7795123143976826
 40
1.0
 40
1.0
 40
1.0
 40
1.0
 10
-1905.682661970203
 20
729.8645540224848
 30
0.0
 10
-1905.683071002348
 20
729.9524044474492
 30
0.0
 10
-1905.68388818351
 20
730.1279156221202
 30
0.0
 10
-1905.689455785243
 20
730.3254691162724
 30
0.0
 10
-1905.696361864879
 20
730.4419043572647
 30
0.0
 10
-1905.701180815633
 20
730.4565134720282
 30
0.0
 10
-1905.703590651099
 20
730.4638191210565
 30
0.0
  0
LINE
  5
60A
330
1F
100
AcDbEntity
  8
SLD-0
100
AcDbLine
 10
-1905.7175567644
 20
730.4638191210998
 30
0.0
 11
-1905.7035906511
 21
730.4638191210998
 31
0.0
  0
SPLINE
  5
60B
330
1F
100
AcDbEntity
  8
SLD-0
100
AcDbSpline
210
0.0
220
0.0
230
1.0
 70
     8
 71
     3
 72
    12
 73
     8
 74
     0
 42
0.000000001
 43
0.0000000001
 40
0.0
 40
0.0
 40
0.0
 40
0.0
 40
0.2579181503776898
 40
0.5112862723006747
 40
0.6407761208512178
 40
0.7652311333202395
 40
1.0
 40
1.0
 40
1.0
 40
1.0
 10
-1904.70419957215
 20
729.4987305151757
 30
0.0
 10
-1904.722696172802
 20
729.6256704302423
 30
0.0
 10
-1904.759363068808
 20
729.8773108668901
 30
0.0
 10
-1904.954782029217
 20
730.1484014317799
 30
0.0
 10
-1905.159198103868
 20
730.3097938057057
 30
0.0
 10
-1905.386965039075
 20
730.4300831408067
 30
0.0
 10
-1905.578447984596
 20
730.4504853591457
 30
0.0
 10
-1905.703590651099
 20
730.4638191210565
 30
0.0
  0
SPLINE
  5
60C
330
1F
100
AcDbEntity
  8
SLD-0
100
AcDbSpline
210
0.0
220
0.0
230
1.0
 70
     8
 71
     3
 72
    11
 73
     7
 74
     0
 42
0.000000001
 43
0.0000000001
 40
0.0
 40
0.0
 40
0.0
 40
0.0
 40
0.2798388004054314
 40
0.5590624019186334
 40
0.7794867247938257
 40
1.0
 40
1.0
 40
1.0
 40
1.0
 10
-1984.976225932185
 20
730.4638191210565
 30
0.0
 10
-1984.980115429207
 20
730.4521876847427
 30
0.0
 10
-1984.987885872564
 20
730.4289503827182
 30
0.0
 10
-1984.996642033354
 20
730.2697390047637
 30
0.0
 10
-1985.001813987078
 20
730.0719920758909
 30
0.0
 10
-1985.00246775346
 20
729.9340073422715
 30
0.0
 10
-1985.002794702594
 20
729.8650010573205
 30
0.0
  0
LINE
  5
60D
330
1F
100
AcDbEntity
  8
SLD-0
100
AcDbLine
 10
-1984.9762259322
 20
730.4638191210998
 30
0.0
 11
-1984.958463748
 21
730.4638191210998
 31
0.0
  0
SPLINE
  5
60E
330
1F
100
AcDbEntity
  8
SLD-0
100
AcDbSpline
210
0.0
220
0.0
230
1.0
 70
     8
 71
     3
 72
    12
 73
     8
 74
     0
 42
0.000000001
 43
0.0000000001
 40
0.0
 40
0.0
 40
0.0
 40
0.0
 40
0.2483475640258789
 40
0.5112079461278247
 40
0.6411852572583101
 40
0.7658249587141013
 40
1.0
 40
1.0
 40
1.0
 40
1.0
 10
-1985.975244482103
 20
729.5081629502115
 30
0.0
 10
-1985.956950950996
 20
729.6294084553018
 30
0.0
 10
-1985.919294860017
 20
729.8789847532511
 30
0.0
 10
-1985.725161272997
 20
730.1492578553904
 30
0.0
 10
-1985.517138027826
 20
730.3119659473846
 30
0.0
 10
-1985.290348574471
 20
730.4306442628827
 30
0.0
 10
-1985.100274751756
 20
730.450718180717
 30
0.0
 10
-1984.976225932185
 20
730.4638191210565
 30
0.0
  0
SPLINE
  5
60F
330
1F
100
AcDbEntity
  8
SLD-0
100
AcDbSpline
210
0.0
220
0.0
230
1.0
 70
     8
 71
     3
 72
     9
 73
     5
 74
     0
 42
0.000000001
 43
0.0000000001
 40
0.0
 40
0.0
 40
0.0
 40
0.0
 40
0.2640345613722279
 40
1.0
 40
1.0
 40
1.0
 40
1.0
 10
-1905.222324122731
 20
730.3356542336282
 30
0.0
 10
-1905.260683943541
 20
730.3569927061081
 30
0.0
 10
-1905.405967275429
 20
730.4378096732846
 30
0.0
 10
-1905.577412725349
 20
730.4527923723598
 30
0.0
 10
-1905.703590651099
 20
730.4638191210565
 30
0.0
  0
ARC
  5
610
330
1F
100
AcDbEntity
  8
SLD-0
100
AcDbCircle
 10
-1945.463604654
 20
653.4638240875
 30
0.0
 40
100.0
100
AcDbArc
 50
118.7761484024
 51
180.0
  0
ARC
  5
611
330
1F
100
AcDbEntity
  8
SLD-0
100
AcDbCircle
 10
-1945.463604654
 20
653.4638240875
 30
0.0
 40
100.0
100
AcDbArc
 50
180.0
 51
61.0625656434
  0
LINE
  5
614
330
1F
100
AcDbEntity
  8
SLD-0
100
AcDbLine
 10
-1896.3292030888
 20
778.4638269889
 30
0.0
 11
-1994.3415163356
 21
778.4638269889
 31
0.0
  0
LINE
  5
616
330
1F
100
AcDbEntity
  8
SLD-0
100
AcDbLine
 10
-1994.3415163356
 20
778.4638269889
 30
0.0
 11
-1998.335355361
 21
778.4638269889
 31
0.0
  0
LINE
  5
617
330
1F
100
AcDbEntity
  8
SLD-0
100
AcDbLine
 10
-1997.8616027432
 20
786.9915529239
 30
0.0
 11
-1998.335355361
 21
778.4638269889
 31
0.0
  0
LINE
  5
618
330
1F
100
AcDbEntity
  8
SLD-0
100
AcDbLine
 10
-1997.7094171839
 20
786.9969471442
 30
0.0
 11
-1997.8616027432
 21
786.9915529239
 31
0.0
  0
LINE
  5
619
330
1F
100
AcDbEntity
  8
SLD-0
100
AcDbLine
 10
-1892.3353640633
 20
778.4638269889
 30
0.0
 11
-1892.8091241317
 21
786.9915529239
 31
0.0
  0
LINE
  5
61A
330
1F
100
AcDbEntity
  8
SLD-0
100
AcDbLine
 10
-1892.3353640633
 20
778.4638269889
 30
0.0
 11
-1896.3292030888
 21
778.4638269889
 31
0.0
  0
LINE
  5
61B
330
1F
100
AcDbEntity
  8
SLD-0
100
AcDbLine
 10
-1892.8091241317
 20
786.9915529239
 30
0.0
 11
-1892.9613059657
 21
786.9969471442
 31
0.0
  0
LINE
  5
61C
330
1F
100
AcDbEntity
  8
SLD-0
100
AcDbLine
 10
-1896.8029668825
 20
787.4638303266998
 30
0.0
 11
-1993.8677637177
 21
787.4638303266998
 31
0.0
  0
SPLINE
  5
61F
330
1F
100
AcDbEntity
  8
SLD-0
100
AcDbSpline
210
0.0
220
0.0
230
1.0
 70
    24
 71
     3
 72
    13
 73
     9
 74
     0
 42
0.000000001
 43
0.0000000001
 40
0.0
 40
0.0
 40
0.0
 40
0.0
 40
0.2741805405247643
 40
0.4232601916606389
 40
0.5721935397339241
 40
0.7212411892030369
 40
0.8702105503232646
 40
1.0
 40
1.0
 40
1.0
 40
1.0
 10
-1993.867763717715
 20
787.4638303267297
 30
0.0
 10
-1994.307623129667
 20
787.4638303267297
 30
0.0
 10
-1994.986646442738
 20
787.4638303267297
 30
0.0
 10
-1995.800790538711
 20
787.4638303267296
 30
0.0
 10
-1996.358263239418
 20
787.4638303267297
 30
0.0
 10
-1996.803667172583
 20
787.4638303267297
 30
0.0
 10
-1997.149744818741
 20
787.4638303267297
 30
0.0
 10
-1997.206701758066
 20
787.4638303267297
 30
0.0
 10
-1997.233220775668
 20
787.4638303267297
 30
0.0
  0
SPLINE
  5
620
330
1F
100
AcDbEntity
  8
SLD-0
100
AcDbSpline
210
0.0
220
0.0
230
1.0
 70
    24
 71
     3
 72
    13
 73
     9
 74
     0
 42
0.000000001
 43
0.0000000001
 40
0.0
 40
0.0
 40
0.0
 40
0.0
 40
0.1298335724225116
 40
0.2789066890771592
 40
0.4278353432794494
 40
0.5768723651390438
 40
0.7258326890763072
 40
1.0
 40
1.0
 40
1.0
 40
1.0
 10
-1893.437465121095
 20
787.4638303267297
 30
0.0
 10
-1893.463993706986
 20
787.4638303267297
 30
0.0
 10
-1893.520982049207
 20
787.4638303267297
 30
0.0
 10
-1893.867159476893
 20
787.4638303267296
 30
0.0
 10
-1894.312718478761
 20
787.4638303267297
 30
0.0
 10
-1894.870088028365
 20
787.4638303267297
 30
0.0
 10
-1895.684261150939
 20
787.4638303267296
 30
0.0
 10
-1896.363106327109
 20
787.4638303267296
 30
0.0
 10
-1896.802966882531
 20
787.4638303267297
 30
0.0
  0
LINE
  5
623
330
1F
100
AcDbEntity
  8
SLD-0
100
AcDbLine
 10
-1996.3353662091
 20
778.4638269889
 30
0.0
 11
-1993.3357475596
 21
737.4690934169
 31
0.0
  0
LINE
  5
628
330
1F
100
AcDbEntity
  8
SLD-0
100
AcDbLine
 10
-1897.3349755901
 20
737.4690934169
 30
0.0
 11
-1894.335364391199
 21
778.4638269889
 31
0.0
  0
LWPOLYLINE
  5
62A
330
1F
100
AcDbEntity
  8
SLD-0
100
AcDbPolyline
 90
        3
 70
   128
 43
0.0
 10
-1897.3349755901
 20
737.4690934169
 10
-1897.3352661627
 20
737.465129708
 10
-1897.3353630202
 20
737.4638184057999
  0
LINE
  5
62B
330
1F
100
AcDbEntity
  8
SLD-0
100
AcDbLine
 10
-1903.7495753067
 20
731.0496135699001
 30
0.0
 11
-1897.3353630202
 21
737.4638184057999
 31
0.0
  0
LINE
  5
630
330
1F
100
AcDbEntity
  8
SLD-0
100
AcDbLine
 10
-1993.3353601294
 20
737.4638184057999
 30
0.0
 11
-1986.9211552935
 21
731.0496135699001
 31
0.0
  0
LWPOLYLINE
  5
631
330
1F
100
AcDbEntity
  8
SLD-0
100
AcDbPolyline
 90
        3
 70
   128
 43
0.0
 10
-1993.3353601294
 20
737.4638184057999
 10
-1993.3354644375
 20
737.465129708
 10
-1993.3357475596
 20
737.4690934169
  0
SPLINE
  5
641
330
1F
100
AcDbEntity
  8
SLD-0
100
AcDbSpline
210
0.0
220
0.0
230
1.0
 70
    24
 71
     3
 72
    12
 73
     8
 74
     0
 42
0.000000001
 43
0.0000000001
 40
0.0
 40
0.0
 40
0.0
 40
0.0
 40
0.0048718582097592
 40
0.029665575757524
 40
0.0896250380304346
 40
0.3155404864039641
 40
1.0
 40
1.0
 40
1.0
 40
1.0
 10
-1894.335364391152
 20
778.4638269888696
 30
0.0
 10
-1894.335364391152
 20
778.448607872348
 30
0.0
 10
-1894.335364391152
 20
778.3559360755307
 30
0.0
 10
-1894.335364391152
 20
777.9491188449367
 30
0.0
 10
-1894.335364391152
 20
776.5845971304526
 30
0.0
 10
-1894.335364391153
 20
772.1231192465106
 30
0.0
 10
-1894.335364391153
 20
767.9586526117247
 30
0.0
 10
-1894.335364391152
 20
760.5137392031488
 30
0.0
  0
SPLINE
  5
644
330
1F
100
AcDbEntity
  8
SLD-0
100
AcDbSpline
210
0.0
220
0.0
230
1.0
 70
     8
 71
     3
 72
    11
 73
     7
 74
     0
 42
0.000000001
 43
0.0000000001
 40
0.0
 40
0.0
 40
0.0
 40
0.0
 40
0.2500004593888457
 40
0.4999993106308761
 40
0.7499942351770751
 40
1.0
 40
1.0
 40
1.0
 40
1.0
 10
-1897.076596905534
 20
741.0003109919367
 30
0.0
 10
-1897.065234996298
 20
741.0621154631262
 30
0.0
 10
-1897.042511250914
 20
741.1857240079439
 30
0.0
 10
-1896.925542574094
 20
741.3377976926234
 30
0.0
 10
-1896.765333853792
 20
741.4433450212222
 30
0.0
 10
-1896.640398551606
 20
741.4569992497522
 30
0.0
 10
-1896.577929546182
 20
741.4638265120323
 30
0.0
  0
LINE
  5
64A
330
1F
100
AcDbEntity
  8
SLD-0
100
AcDbLine
 10
-1894.8353616791
 20
741.4638265119999
 30
0.0
 11
-1896.5779295462
 21
741.4638265119999
 31
0.0
  0
ARC
  5
64B
330
1F
100
AcDbEntity
  8
SLD-0
100
AcDbCircle
 10
-1894.8353627072
 20
741.9638240875
 30
0.0
 40
0.5000000000002274
100
AcDbArc
 50
270.0
 51
0.0
  0
SPLINE
  5
64C
330
1F
100
AcDbEntity
  8
SLD-0
100
AcDbSpline
210
0.0
220
0.0
230
1.0
 70
    24
 71
     3
 72
    15
 73
    11
 74
     0
 42
0.000000001
 43
0.0000000001
 40
0.0
 40
0.0
 40
0.0
 40
0.0
 40
0.1170367815024751
 40
0.2406421806975509
 40
0.3690491236959552
 40
0.5000004220669739
 40
0.6309504126694341
 40
0.7593571837686257
 40
0.8829630884198312
 40
1.0
 40
1.0
 40
1.0
 40
1.0
 10
-1894.335364391152
 20
760.5137392031488
 30
0.0
 10
-1894.335364391152
 20
759.36041037755
 30
0.0
 10
-1894.335364391152
 20
756.9890228522737
 30
0.0
 10
-1894.335364391152
 20
753.5108742166952
 30
0.0
 10
-1894.335364391152
 20
750.192394510214
 30
0.0
 10
-1894.335364391152
 20
747.2501451713736
 30
0.0
 10
-1894.335364391152
 20
744.8633678064273
 30
0.0
 10
-1894.335364391153
 20
743.1704182730522
 30
0.0
 10
-1894.335364391152
 20
742.1469112973896
 30
0.0
 10
-1894.335364391152
 20
742.0237296238926
 30
0.0
 10
-1894.335364391152
 20
741.9638200747307
 30
0.0
  0
SPLINE
  5
64F
330
1F
100
AcDbEntity
  8
SLD-0
100
AcDbSpline
210
0.0
220
0.0
230
1.0
 70
    24
 71
     3
 72
    13
 73
     9
 74
     0
 42
0.000000001
 43
0.0000000001
 40
0.0
 40
0.0
 40
0.0
 40
0.0
 40
0.2589248979785793
 40
0.3815467113432589
 40
0.4999994541225438
 40
0.6185641786262507
 40
0.7410723676306417
 40
1.0
 40
1.0
 40
1.0
 40
1.0
 10
-1985.506930788104
 20
730.4638191210565
 30
0.0
 10
-1985.476932587796
 20
730.4638191210565
 30
0.0
 10
-1985.432727821227
 20
730.4638191210565
 30
0.0
 10
-1985.101238128463
 20
730.4638191210564
 30
0.0
 10
-1984.763913924672
 20
730.4638191210566
 30
0.0
 10
-1984.335833257996
 20
730.4638191210565
 30
0.0
 10
-1983.65065948929
 20
730.4638191210566
 30
0.0
 10
-1983.071594531303
 20
730.4638191210565
 30
0.0
 10
-1982.678511579577
 20
730.4638191210565
 30
0.0
  0
SPLINE
  5
650
330
1F
100
AcDbEntity
  8
SLD-0
100
AcDbSpline
210
0.0
220
0.0
230
1.0
 70
     8
 71
     3
 72
    11
 73
     7
 74
     0
 42
0.000000001
 43
0.0000000001
 40
0.0
 40
0.0
 40
0.0
 40
0.0
 40
0.250000484226843
 40
0.5000025300991814
 40
0.7499981289072485
 40
1.0
 40
1.0
 40
1.0
 40
1.0
 10
-1986.921155293528
 20
731.049613569909
 30
0.0
 10
-1986.823332316827
 20
730.962238845577
 30
0.0
 10
-1986.627685752364
 20
730.7874888511212
 30
0.0
 10
-1986.276583473739
 20
730.6057296767156
 30
0.0
 10
-1985.899793153153
 20
730.4859858430939
 30
0.0
 10
-1985.637886004963
 20
730.4712080901961
 30
0.0
 10
-1985.506930788104
 20
730.4638191210565
 30
0.0
  0
SPLINE
  5
651
330
1F
100
AcDbEntity
  8
SLD-0
100
AcDbSpline
210
0.0
220
0.0
230
1.0
 70
     8
 71
     3
 72
    11
 73
     7
 74
     0
 42
0.000000001
 43
0.0000000001
 40
0.0
 40
0.0
 40
0.0
 40
0.0
 40
0.2499988043436107
 40
0.4999983374009477
 40
0.7499978546027207
 40
1.0
 40
1.0
 40
1.0
 40
1.0
 10
-1905.163788636271
 20
730.4638191210565
 30
0.0
 10
-1905.03283602913
 20
730.4712085511162
 30
0.0
 10
-1904.77093043314
 20
730.4859874327752
 30
0.0
 10
-1904.394142107761
 20
730.605726922545
 30
0.0
 10
-1904.043043708212
 20
730.78749131787
 30
0.0
 10
-1903.847398450011
 20
730.962239179716
 30
0.0
 10
-1903.749575306718
 20
731.049613569909
 30
0.0
  0
SPLINE
  5
652
330
1F
100
AcDbEntity
  8
SLD-0
100
AcDbSpline
210
0.0
220
0.0
230
1.0
 70
    24
 71
     3
 72
    13
 73
     9
 74
     0
 42
0.000000001
 43
0.0000000001
 40
0.0
 40
0.0
 40
0.0
 40
0.0
 40
0.2589272915059319
 40
0.3815503731653691
 40
0.5000010198807925
 40
0.6185692019647222
 40
0.7410754428812476
 40
1.0
 40
1.0
 40
1.0
 40
1.0
 10
-1907.992215295379
 20
730.4638191210565
 30
0.0
 10
-1907.599134511894
 20
730.4638191210565
 30
0.0
 10
-1907.019898083201
 20
730.4638191210566
 30
0.0
 10
-1906.334730727136
 20
730.4638191210565
 30
0.0
 10
-1905.906566381557
 20
730.4638191210565
 30
0.0
 10
-1905.569394893203
 20
730.4638191210565
 30
0.0
 10
-1905.237972486887
 20
730.4638191210565
 30
0.0
 10
-1905.193784513578
 20
730.4638191210565
 30
0.0
 10
-1905.163788636271
 20
730.4638191210565
 30
0.0
  0
CIRCLE
  5
653
330
1F
100
AcDbEntity
  8
SLD-0
100
AcDbCircle
 10
-1945.463604654
 20
653.4638240875
 30
0.0
 40
64.14359353819395
  0
CIRCLE
  5
654
330
1F
100
AcDbEntity
  8
SLD-0
100
AcDbCircle
 10
-1945.463604654
 20
653.4638240875
 30
0.0
 40
66.87564434701801
  0
CIRCLE
  5
655
330
1F
100
AcDbEntity
  8
SLD-0
100
AcDbCircle
 10
-1945.463604654
 20
653.4638240875
 30
0.0
 40
60.50961894323393
  0
CIRCLE
  5
656
330
1F
100
AcDbEntity
  8
SLD-0
100
AcDbCircle
 10
-1945.463604654
 20
653.4638240875
 30
0.0
 40
78.46410160913342
  0
CIRCLE
  5
7D5
330
1F
100
AcDbEntity
  8
SLD-0
100
AcDbCircle
 10
-1945.463604654
 20
653.4638240875
 30
0.0
 40
79.00000000000034
  0
LINE
  5
809
330
1F
100
AcDbEntity
  8
SLD-0
100
AcDbLine
 10
-1830.1668646085
 20
831.963823651
 30
0.0
 11
-2060.7603429156
 21
831.963823651
 31
0.0
  0
LINE
  5
818
330
1F
100
AcDbEntity
  8
SLD-0
100
AcDbLine
 10
-2243.2868270474
 20
298.968227123
 30
0.0
 11
-2233.3636073666
 21
298.968227123
 31
0.0
  0
LINE
  5
819
330
1F
100
AcDbEntity
  8
SLD-0
100
AcDbLine
 10
-2233.3636073666
 20
298.968227123
 30
0.0
 11
-1520.0636176663
 21
298.968227123
 31
0.0
  0
LINE
  5
81A
330
1F
100
AcDbEntity
  8
SLD-0
100
AcDbLine
 10
-1520.0636176663
 20
298.968227123
 30
0.0
 11
-1496.6403929787
 21
298.968227123
 31
0.0
  0
LINE
  5
81C
330
1F
100
AcDbEntity
  8
SLD-0
100
AcDbLine
 10
-1494.9635951119
 20
300.6450100886
 30
0.0
 11
-1494.9635951119
 21
937.2914596544999
 31
0.0
  0
ARC
  5
821
330
1F
100
AcDbEntity
  8
SLD-0
100
AcDbCircle
 10
-1950.582424309848
 20
647.833224646944
 30
0.0
 40
119.8817359876269
100
AcDbArc
 50
180.174445349379
 51
275.3217310107285
  0
ARC
  5
823
330
1F
100
AcDbEntity
  8
SLD-0
100
AcDbCircle
 10
-1939.463604654
 20
647.4682277975
 30
0.0
 40
119.0
100
AcDbArc
 50
270.0
 51
0.0
  0
LINE
  5
824
330
1F
100
AcDbEntity
  8
SLD-0
100
AcDbLine
 10
-1820.4636028307
 20
647.4682255732
 30
0.0
 11
-1820.4636028307
 21
772.2138329492999
 31
0.0
  0
LINE
  5
825
330
1F
100
AcDbEntity
  8
SLD-0
100
AcDbLine
 10
-1820.4636028307
 20
772.2138329492999
 30
0.0
 11
-1820.4636028307
 21
821.9682141291
 31
0.0
  0
ARC
  5
826
330
1F
100
AcDbEntity
  8
SLD-0
100
AcDbCircle
 10
-1830.463604654
 20
821.9682277975
 30
0.0
 40
10.0
100
AcDbArc
 50
0.0
 51
90.0
  0
LINE
  5
827
330
1F
100
AcDbEntity
  8
SLD-0
100
AcDbLine
 10
-1830.4636044698
 20
831.9682343947
 30
0.0
 11
-2060.4636011916
 21
831.9682343947
 31
0.0
  0
ARC
  5
828
330
1F
100
AcDbEntity
  8
SLD-0
100
AcDbCircle
 10
-2060.463604654
 20
821.9682277975
 30
0.0
 40
10.0
100
AcDbArc
 50
90.0
 51
180.0
  0
LINE
  5
829
330
1F
100
AcDbEntity
  8
SLD-0
100
AcDbLine
 10
-2070.463606556
 20
821.9682141291
 30
0.0
 11
-2070.463606556
 21
647.4682255732
 31
0.0
  0
LINE
  5
82F
330
1F
100
AcDbEntity
  8
SLD-0
100
AcDbLine
 10
-2244.9635951119
 20
937.2914596544999
 30
0.0
 11
-2244.9635951119
 21
300.6450100886
 31
0.0
  0
LINE
  5
836
330
1F
100
AcDbEntity
  8
SLD-0
100
AcDbLine
 10
-1496.6403929787
 20
938.9682277189999
 30
0.0
 11
-1637.94810458
 21
938.9682277189999
 31
0.0
  0
LINE
  5
837
330
1F
100
AcDbEntity
  8
SLD-0
100
AcDbLine
 10
-1755.3791044551
 20
938.9682277189999
 30
0.0
 11
-2243.2868270474
 21
938.9682277189999
 31
0.0
  0
ARC
  5
83D
330
1F
100
AcDbEntity
  8
SLD-0
100
AcDbCircle
 10
-1499.063604654
 20
294.4682277975
 30
0.0
 40
1.0
100
AcDbArc
 50
0.0
 51
90.0
  0
ARC
  5
83F
330
1F
100
AcDbEntity
  8
SLD-0
100
AcDbCircle
 10
-1499.063604654
 20
294.4682277975
 30
0.0
 40
3.000000000000226
100
AcDbArc
 50
0.0
 51
90.0
  0
LINE
  5
841
330
1F
100
AcDbEntity
  8
SLD-0
100
AcDbLine
 10
-1529.0635912018
 20
294.468225454
 30
0.0
 11
-1531.063595255
 21
294.468225454
 31
0.0
  0
LINE
  5
842
330
1F
100
AcDbEntity
  8
SLD-0
100
AcDbLine
 10
-1531.063595255
 20
275.4682316529
 30
0.0
 11
-1529.0635912018
 21
275.4682316529
 31
0.0
  0
LINE
  5
843
330
1F
100
AcDbEntity
  8
SLD-0
100
AcDbLine
 10
-1529.0635912018
 20
294.468225454
 30
0.0
 11
-1529.0635912018
 21
275.4682316529
 31
0.0
  0
LINE
  5
844
330
1F
100
AcDbEntity
  8
SLD-0
100
AcDbLine
 10
-1531.063595255
 20
294.468225454
 30
0.0
 11
-1531.063595255
 21
275.4682316529
 31
0.0
  0
ARC
  5
845
330
1F
100
AcDbEntity
  8
SLD-0
100
AcDbCircle
 10
-1528.063604654
 20
294.4682277975
 30
0.0
 40
1.000000000000227
100
AcDbArc
 50
90.0
 51
180.0
  0
LINE
  5
846
330
1F
100
AcDbEntity
  8
SLD-0
100
AcDbLine
 10
-1528.0636040764
 20
297.4682315337
 30
0.0
 11
-1528.0636040764
 21
295.4682274806
 31
0.0
  0
ARC
  5
847
330
1F
100
AcDbEntity
  8
SLD-0
100
AcDbCircle
 10
-1528.063604654
 20
294.4682277975
 30
0.0
 40
3.000000000000226
100
AcDbArc
 50
90.0
 51
180.0
  0
LINE
  5
848
330
1F
100
AcDbEntity
  8
SLD-0
100
AcDbLine
 10
-1499.0635900098
 20
295.4682274806
 30
0.0
 11
-1528.0636040764
 21
295.4682274806
 31
0.0
  0
LINE
  5
849
330
1F
100
AcDbEntity
  8
SLD-0
100
AcDbLine
 10
-1499.0635900098
 20
297.4682315337
 30
0.0
 11
-1528.0636040764
 21
297.4682315337
 31
0.0
  0
LINE
  5
84A
330
1F
100
AcDbEntity
  8
SLD-0
100
AcDbLine
 10
-1496.0635988312
 20
272.4682255732
 30
0.0
 11
-1498.0636028844
 21
272.4682255732
 31
0.0
  0
LINE
  5
84C
330
1F
100
AcDbEntity
  8
SLD-0
100
AcDbLine
 10
-1498.0636028844
 20
272.4682255732
 30
0.0
 11
-1498.0636028844
 21
275.4682316529
 31
0.0
  0
LINE
  5
84D
330
1F
100
AcDbEntity
  8
SLD-0
100
AcDbLine
 10
-1496.0635988312
 20
275.4682316529
 30
0.0
 11
-1496.0635988312
 21
272.4682255732
 31
0.0
  0
LINE
  5
84E
330
1F
100
AcDbEntity
  8
SLD-0
100
AcDbLine
 10
-1498.0636028844
 20
275.4682316529
 30
0.0
 11
-1498.0636028844
 21
294.468225454
 31
0.0
  0
LINE
  5
84F
330
1F
100
AcDbEntity
  8
SLD-0
100
AcDbLine
 10
-1496.0635988312
 20
275.4682316529
 30
0.0
 11
-1496.0635988312
 21
294.468225454
 31
0.0
  0
LINE
  5
850
330
1F
100
AcDbEntity
  8
SLD-0
100
AcDbLine
 10
-1529.0635912018
 20
272.4682255732
 30
0.0
 11
-1531.063595255
 21
272.4682255732
 31
0.0
  0
LINE
  5
851
330
1F
100
AcDbEntity
  8
SLD-0
100
AcDbLine
 10
-1529.0635912018
 20
275.4682316529
 30
0.0
 11
-1529.0635912018
 21
272.4682255732
 31
0.0
  0
LINE
  5
852
330
1F
100
AcDbEntity
  8
SLD-0
100
AcDbLine
 10
-1531.063595255
 20
272.4682255732
 30
0.0
 11
-1531.063595255
 21
275.4682316529
 31
0.0
  0
ARC
  5
853
330
1F
100
AcDbEntity
  8
SLD-0
100
AcDbCircle
 10
-2211.863604654
 20
294.4682277975
 30
0.0
 40
1.0
100
AcDbArc
 50
0.0
 51
90.0
  0
LINE
  5
854
330
1F
100
AcDbEntity
  8
SLD-0
100
AcDbLine
 10
-2211.8636159497
 20
295.4682274806
 30
0.0
 11
-2211.8636159497
 21
297.4682315337
 31
0.0
  0
LINE
  5
855
330
1F
100
AcDbEntity
  8
SLD-0
100
AcDbLine
 10
-2208.8635949689
 20
294.468225454
 30
0.0
 11
-2210.863599022
 21
294.468225454
 31
0.0
  0
ARC
  5
856
330
1F
100
AcDbEntity
  8
SLD-0
100
AcDbCircle
 10
-2211.863604654
 20
294.4682277975
 30
0.0
 40
3.0
100
AcDbArc
 50
0.0
 51
90.0
  0
LINE
  5
857
330
1F
100
AcDbEntity
  8
SLD-0
100
AcDbLine
 10
-2211.8636159497
 20
295.4682274806
 30
0.0
 11
-2240.8636002141
 21
295.4682274806
 31
0.0
  0
LINE
  5
859
330
1F
100
AcDbEntity
  8
SLD-0
100
AcDbLine
 10
-2211.8636159497
 20
297.4682315337
 30
0.0
 11
-2240.8636002141
 21
297.4682315337
 31
0.0
  0
ARC
  5
85A
330
1F
100
AcDbEntity
  8
SLD-0
100
AcDbCircle
 10
-2240.863604654
 20
294.4682277975
 30
0.0
 40
1.0
100
AcDbArc
 50
90.0
 51
180.0
  0
ARC
  5
85C
330
1F
100
AcDbEntity
  8
SLD-0
100
AcDbCircle
 10
-2240.863604654
 20
294.4682277975
 30
0.0
 40
3.0
100
AcDbArc
 50
90.0
 51
180.0
  0
LINE
  5
85D
330
1F
100
AcDbEntity
  8
SLD-0
100
AcDbLine
 10
-2208.8635949689
 20
272.4682255732
 30
0.0
 11
-2210.863599022
 21
272.4682255732
 31
0.0
  0
LINE
  5
85E
330
1F
100
AcDbEntity
  8
SLD-0
100
AcDbLine
 10
-2210.863599022
 20
272.4682255732
 30
0.0
 11
-2210.863599022
 21
275.4682316529
 31
0.0
  0
LINE
  5
85F
330
1F
100
AcDbEntity
  8
SLD-0
100
AcDbLine
 10
-2210.863599022
 20
275.4682316529
 30
0.0
 11
-2208.8635949689
 21
275.4682316529
 31
0.0
  0
LINE
  5
860
330
1F
100
AcDbEntity
  8
SLD-0
100
AcDbLine
 10
-2208.8635949689
 20
275.4682316529
 30
0.0
 11
-2208.8635949689
 21
272.4682255732
 31
0.0
  0
LINE
  5
861
330
1F
100
AcDbEntity
  8
SLD-0
100
AcDbLine
 10
-2241.8636171418
 20
272.4682255732
 30
0.0
 11
-2243.8635913926
 21
272.4682255732
 31
0.0
  0
LINE
  5
862
330
1F
100
AcDbEntity
  8
SLD-0
100
AcDbLine
 10
-2243.8635913926
 20
272.4682255732
 30
0.0
 11
-2243.8635913926
 21
275.4682316529
 31
0.0
  0
LINE
  5
864
330
1F
100
AcDbEntity
  8
SLD-0
100
AcDbLine
 10
-2241.8636171418
 20
275.4682316529
 30
0.0
 11
-2241.8636171418
 21
272.4682255732
 31
0.0
  0
LINE
  5
865
330
1F
100
AcDbEntity
  8
SLD-0
100
AcDbLine
 10
-2243.8635913926
 20
294.468225454
 30
0.0
 11
-2243.8635913926
 21
275.4682316529
 31
0.0
  0
LINE
  5
866
330
1F
100
AcDbEntity
  8
SLD-0
100
AcDbLine
 10
-2241.8636171418
 20
294.468225454
 30
0.0
 11
-2241.8636171418
 21
275.4682316529
 31
0.0
  0
LINE
  5
867
330
1F
100
AcDbEntity
  8
SLD-0
100
AcDbLine
 10
-2210.863599022
 20
275.4682316529
 30
0.0
 11
-2210.863599022
 21
294.468225454
 31
0.0
  0
LINE
  5
868
330
1F
100
AcDbEntity
  8
SLD-0
100
AcDbLine
 10
-2208.8635949689
 20
275.4682316529
 30
0.0
 11
-2208.8635949689
 21
294.468225454
 31
0.0
  0
ARC
  5
869
330
1F
100
AcDbEntity
  8
SLD-0
100
AcDbCircle
 10
-1497.363604654
 20
937.2682277975
 30
0.0
 40
1.700000000000039
100
AcDbArc
 50
17.1046351766
 51
64.8224025441
  0
ARC
  5
86B
330
1F
100
AcDbEntity
  8
SLD-0
100
AcDbCircle
 10
-2242.563604654
 20
937.2682277975
 30
0.0
 40
1.70000000000049
100
AcDbArc
 50
115.1775974587
 51
162.8953648234
  0
LINE
  5
86E
330
1F
100
AcDbEntity
  8
SLD-0
100
AcDbLine
 10
-1494.9635951119
 20
300.1682325351
 30
0.0
 11
-1494.9635951119
 21
300.6450100886
 31
0.0
  0
LINE
  5
86F
330
1F
100
AcDbEntity
  8
SLD-0
100
AcDbLine
 10
-1494.9635951119
 20
937.2914596544999
 30
0.0
 11
-1494.9635951119
 21
937.7682372081
 31
0.0
  0
LINE
  5
872
330
1F
100
AcDbEntity
  8
SLD-0
100
AcDbLine
 10
-2244.9635951119
 20
937.7682372081
 30
0.0
 11
-2244.9635951119
 21
937.2914596544999
 31
0.0
  0
LINE
  5
873
330
1F
100
AcDbEntity
  8
SLD-0
100
AcDbLine
 10
-2244.9635951119
 20
300.6450100886
 30
0.0
 11
-2244.9635951119
 21
300.1682325351
 31
0.0
  0
LINE
  5
875
330
1F
100
AcDbEntity
  8
SLD-0
100
AcDbLine
 10
-1494.1636113721
 20
930.0682409750999
 30
0.0
 11
-1494.1636113721
 21
931.8682416426
 31
0.0
  0
LINE
  5
876
330
1F
100
AcDbEntity
  8
SLD-0
100
AcDbLine
 10
-1494.1636113721
 20
306.0682281005
 30
0.0
 11
-1494.1636113721
 21
307.868228768
 31
0.0
  0
ARC
  5
87B
330
1F
100
AcDbEntity
  8
SLD-0
100
AcDbCircle
 10
-2242.563604654
 20
300.6682277975
 30
0.0
 40
1.700000000000424
100
AcDbArc
 50
197.1046351766
 51
244.8224025425
  0
ARC
  5
87E
330
1F
100
AcDbEntity
  8
SLD-0
100
AcDbCircle
 10
-1497.363604654
 20
300.6682277975
 30
0.0
 40
1.700000000000206
100
AcDbArc
 50
295.1775974569999
 51
342.8953648233999
  0
LINE
  5
881
330
1F
100
AcDbEntity
  8
SLD-0
100
AcDbLine
 10
-1717.7136032181
 20
702.9638304458998
 30
0.0
 11
-1747.213603397
 21
702.9638304458998
 31
0.0
  0
LINE
  5
883
330
1F
100
AcDbEntity
  8
SLD-0
100
AcDbLine
 10
-2208.4636180001
 20
283.9682265269
 30
0.0
 11
-2208.4636180001
 21
289.4682302224
 31
0.0
  0
LINE
  5
884
330
1F
100
AcDbEntity
  8
SLD-0
100
AcDbLine
 10
-2208.4636180001
 20
278.4682228314
 30
0.0
 11
-2208.4636180001
 21
283.9682265269
 31
0.0
  0
LINE
  5
885
330
1F
100
AcDbEntity
  8
SLD-0
100
AcDbLine
 10
-1531.463602026
 20
289.4682302224
 30
0.0
 11
-1531.463602026
 21
278.4682228314
 31
0.0
  0
LINE
  5
886
330
1F
100
AcDbEntity
  8
SLD-0
100
AcDbLine
 10
-1696.6636119681
 20
1129.1182502257
 30
0.0
 11
-1896.1636064845
 21
1129.1182502257
 31
0.0
  0
LINE
  5
887
330
1F
100
AcDbEntity
  8
SLD-0
100
AcDbLine
 10
-1497.1636025506
 20
1129.1182502257
 30
0.0
 11
-1696.6636119681
 21
1129.1182502257
 31
0.0
  0
LINE
  5
888
330
1F
100
AcDbEntity
  8
SLD-0
100
AcDbLine
 10
-1661.9636057215
 20
607.8698872672998
 30
0.0
 11
-1648.8865254718
 21
607.8698872672998
 31
0.0
  0
LINE
  5
889
330
1F
100
AcDbEntity
  8
SLD-0
100
AcDbLine
 10
-1649.4636027413
 20
606.7881076681
 30
0.0
 11
-1661.9636057215
 21
606.7881076681
 31
0.0
  0
LINE
  5
8AA
330
1F
100
AcDbEntity
  8
SLD-0
100
AcDbLine
 10
-1821.4636048573
 20
632.0734187113998
 30
0.0
 11
-1821.4636048573
 21
750.7530017839999
 31
0.0
  0
LINE
  5
8AB
330
1F
100
AcDbEntity
  8
SLD-0
100
AcDbLine
 10
-1821.4636048573
 20
772.1746428953999
 30
0.0
 11
-1821.4636048573
 21
826.3271316038999
 31
0.0
  0
LINE
  5
8AD
330
1F
100
AcDbEntity
  8
SLD-0
100
AcDbLine
 10
-2069.4636045294
 20
826.3271316038999
 30
0.0
 11
-2069.4636045294
 21
632.0734187113998
 31
0.0
  0
LINE
  5
8AE
330
1F
100
AcDbEntity
  8
SLD-0
100
AcDbLine
 10
-1826.0956233638
 20
830.9638365255998
 30
0.0
 11
-2064.831578572301
 21
830.9638365255998
 31
0.0
  0
LINE
  5
8B8
330
1F
100
AcDbEntity
  8
SLD-0
100
AcDbLine
 10
-671.6612215228081
 20
1119.8483570563
 30
0.0
 11
-671.319210071108
 21
1118.9086898314
 31
0.0
  0
LINE
  5
8B9
330
1F
100
AcDbEntity
  8
SLD-0
100
AcDbLine
 10
-245.9192062802078
 20
1118.9086898314
 30
0.0
 11
-245.577179927308
 21
1119.8483570563
 31
0.0
  0
LINE
  5
8BA
330
1F
100
AcDbEntity
  8
SLD-0
100
AcDbLine
 10
-245.577179927308
 20
1119.8483570563
 30
0.0
 11
-259.919204849708
 21
1125.0684126365
 31
0.0
  0
LINE
  5
8BB
330
1F
100
AcDbEntity
  8
SLD-0
100
AcDbLine
 10
-657.3192115016082
 20
1125.0684126365
 30
0.0
 11
-671.6612215228081
 21
1119.8483570563
 31
0.0
  0
LINE
  5
8BC
330
1F
100
AcDbEntity
  8
SLD-0
100
AcDbLine
 10
-658.1192101426082
 20
1047.2557409751
 30
0.0
 11
-639.3192048258081
 21
990.2557595717
 31
0.0
  0
LINE
  5
8BD
330
1F
100
AcDbEntity
  8
SLD-0
100
AcDbLine
 10
-277.919211525408
 20
990.2557595717
 30
0.0
 11
-259.1192062087078
 21
1047.2557409751
 31
0.0
  0
LINE
  5
8BE
330
1F
100
AcDbEntity
  8
SLD-0
100
AcDbLine
 10
-259.1192062087078
 20
1047.2557409751
 30
0.0
 11
-259.1192062087078
 21
1107.5889333236
 31
0.0
  0
LINE
  5
8BF
330
1F
100
AcDbEntity
  8
SLD-0
100
AcDbLine
 10
-658.1192101426082
 20
1107.5889333236
 30
0.0
 11
-658.1192101426082
 21
1047.2557409751
 31
0.0
  0
LINE
  5
8C0
330
1F
100
AcDbEntity
  8
SLD-0
100
AcDbLine
 10
-259.1192062087078
 20
1107.5889333236
 30
0.0
 11
-260.9192068762081
 21
1110.1596220481
 31
0.0
  0
LINE
  5
8C1
330
1F
100
AcDbEntity
  8
SLD-0
100
AcDbLine
 10
-656.3192094750082
 20
1110.1596220481
 30
0.0
 11
-658.1192101426082
 21
1107.5889333236
 31
0.0
  0
LINE
  5
8C2
330
1F
100
AcDbEntity
  8
SLD-0
100
AcDbLine
 10
-259.1192062087078
 20
1125.3682239997
 30
0.0
 11
-259.1192062087078
 21
1129.1182502257
 31
0.0
  0
LINE
  5
8C3
330
1F
100
AcDbEntity
  8
SLD-0
100
AcDbLine
 10
-658.1192101426082
 20
1129.1182502257
 30
0.0
 11
-658.1192101426082
 21
1125.3682239997
 31
0.0
  0
ARC
  5
8C4
330
1F
100
AcDbEntity
  8
SLD-0
100
AcDbCircle
 10
-260.3692069762081
 20
1129.1182277975
 30
0.0
 40
1.250000000000113
100
AcDbArc
 50
0.0
 51
90.0
  0
ARC
  5
8C5
330
1F
100
AcDbEntity
  8
SLD-0
100
AcDbCircle
 10
-656.869206976208
 20
1129.1182277975
 30
0.0
 40
1.25
100
AcDbArc
 50
90.0
 51
180.0
  0
LINE
  5
8C6
330
1F
100
AcDbEntity
  8
SLD-0
100
AcDbLine
 10
-260.3692050166081
 20
1130.3682192313
 30
0.0
 11
-656.8692113347081
 21
1130.3682192313
 31
0.0
  0
LINE
  5
8C7
330
1F
100
AcDbEntity
  8
SLD-0
100
AcDbLine
 10
-259.919204849708
 20
1125.0684126365
 30
0.0
 11
-259.919204849708
 21
1125.3682239997
 31
0.0
  0
LINE
  5
8C8
330
1F
100
AcDbEntity
  8
SLD-0
100
AcDbLine
 10
-657.3192115016082
 20
1125.3682239997
 30
0.0
 11
-657.3192115016082
 21
1125.0684126365
 31
0.0
  0
LINE
  5
8C9
330
1F
100
AcDbEntity
  8
SLD-0
100
AcDbLine
 10
-260.9192068762081
 20
1110.1596220481
 30
0.0
 11
-260.9192068762081
 21
1118.9086898314
 31
0.0
  0
LINE
  5
8CA
330
1F
100
AcDbEntity
  8
SLD-0
100
AcDbLine
 10
-656.3192094750082
 20
1118.9086898314
 30
0.0
 11
-656.3192094750082
 21
1110.1596220481
 31
0.0
  0
ARC
  5
8CB
330
1F
100
AcDbEntity
  8
SLD-0
100
AcDbCircle
 10
-268.619206976208
 20
940.0182277975001
 30
0.0
 40
1.049999999999954
100
AcDbArc
 50
270.0
 51
90.0
  0
ARC
  5
8CC
330
1F
100
AcDbEntity
  8
SLD-0
100
AcDbCircle
 10
-648.619206976208
 20
940.0182277975001
 30
0.0
 40
1.050000000000067
100
AcDbArc
 50
90.0
 51
270.0
  0
LINE
  5
8CD
330
1F
100
AcDbEntity
  8
SLD-0
100
AcDbLine
 10
-277.919211525408
 20
941.0682185636999
 30
0.0
 11
-277.919211525408
 21
990.2557595717
 31
0.0
  0
LINE
  5
8CE
330
1F
100
AcDbEntity
  8
SLD-0
100
AcDbLine
 10
-639.3192048258081
 20
990.2557595717
 30
0.0
 11
-639.3192048258081
 21
941.0682185636999
 31
0.0
  0
LINE
  5
8CF
330
1F
100
AcDbEntity
  8
SLD-0
100
AcDbLine
 10
-688.099348086808
 20
867.0109673487
 30
0.0
 11
-693.3194185681082
 21
852.6689275252002
 31
0.0
  0
LINE
  5
8D0
330
1F
100
AcDbEntity
  8
SLD-0
100
AcDbLine
 10
-693.3194185681082
 20
454.2689393358999
 30
0.0
 11
-688.099348086808
 21
439.9269200014001
 31
0.0
  0
LINE
  5
8D1
330
1F
100
AcDbEntity
  8
SLD-0
100
AcDbLine
 10
-688.099348086808
 20
439.9269200014001
 30
0.0
 11
-687.159651059608
 21
440.2689389037001
 31
0.0
  0
LINE
  5
8D2
330
1F
100
AcDbEntity
  8
SLD-0
100
AcDbLine
 10
-687.159651059608
 20
866.6689260947002
 30
0.0
 11
-688.099348086808
 21
867.0109673487
 31
0.0
  0
LWPOLYLINE
  5
8D3
330
1F
100
AcDbEntity
  8
SLD-0
100
AcDbPolyline
 90
        3
 70
   128
 43
0.0
 10
-628.0192072577081
 20
854.5716866004
 10
-628.253662127908
 20
854.2697592722999
 10
-628.6168928332081
 20
853.4689410674
  0
LWPOLYLINE
  5
8D4
330
1F
100
AcDbEntity
  8
SLD-0
100
AcDbPolyline
 90
        3
 70
   128
 43
0.0
 10
-628.6168928332081
 20
453.4689388322001
 10
-628.253662127908
 20
452.6681318031999
 10
-628.0192072577081
 20
452.3661895739001
  0
ARC
  5
8D5
330
1F
100
AcDbEntity
  8
SLD-0
100
AcDbCircle
 10
-697.369206976208
 20
852.2189384756001
 30
0.0
 40
1.25
100
AcDbArc
 50
90.0
 51
180.0
  0
ARC
  5
8D6
330
1F
100
AcDbEntity
  8
SLD-0
100
AcDbCircle
 10
-697.369206976208
 20
454.7189384755999
 30
0.0
 40
1.25
100
AcDbArc
 50
180.0
 51
270.0
  0
LINE
  5
8D7
330
1F
100
AcDbEntity
  8
SLD-0
100
AcDbLine
 10
-698.6192102618081
 20
852.2189422595
 30
0.0
 11
-698.6192102618081
 21
454.7189376401001
 31
0.0
  0
LINE
  5
8D8
330
1F
100
AcDbEntity
  8
SLD-0
100
AcDbLine
 10
-693.619200129008
 20
853.4689410674
 30
0.0
 11
-697.3692114539081
 21
853.4689410674
 31
0.0
  0
LINE
  5
8D9
330
1F
100
AcDbEntity
  8
SLD-0
100
AcDbLine
 10
-697.3692114539081
 20
453.4689388322001
 30
0.0
 11
-693.619200129008
 21
453.4689388322001
 31
0.0
  0
LINE
  5
8DA
330
1F
100
AcDbEntity
  8
SLD-0
100
AcDbLine
 10
-628.6168928332081
 20
853.4689410674
 30
0.0
 11
-638.229915041408
 21
853.4689410674
 31
0.0
  0
LINE
  5
8DB
330
1F
100
AcDbEntity
  8
SLD-0
100
AcDbLine
 10
-638.229915041408
 20
453.4689388322001
 30
0.0
 11
-628.6168928332081
 21
453.4689388322001
 31
0.0
  0
LINE
  5
8DC
330
1F
100
AcDbEntity
  8
SLD-0
100
AcDbLine
 10
-638.229915041408
 20
853.4689410674
 30
0.0
 11
-640.8005888648081
 21
851.6689403997998
 31
0.0
  0
LINE
  5
8DD
330
1F
100
AcDbEntity
  8
SLD-0
100
AcDbLine
 10
-640.8005888648081
 20
455.2689376371001
 30
0.0
 11
-638.229915041408
 21
453.4689388322001
 31
0.0
  0
LINE
  5
8DE
330
1F
100
AcDbEntity
  8
SLD-0
100
AcDbLine
 10
-693.3194185681082
 20
852.6689275252002
 30
0.0
 11
-693.619200129008
 21
852.6689275252002
 31
0.0
  0
LINE
  5
8DF
330
1F
100
AcDbEntity
  8
SLD-0
100
AcDbLine
 10
-693.619200129008
 20
454.2689393358999
 30
0.0
 11
-693.3194185681082
 21
454.2689393358999
 31
0.0
  0
LINE
  5
8E0
330
1F
100
AcDbEntity
  8
SLD-0
100
AcDbLine
 10
-640.8005888648081
 20
851.6689403997998
 30
0.0
 11
-687.159651059608
 21
851.6689403997998
 31
0.0
  0
LINE
  5
8E1
330
1F
100
AcDbEntity
  8
SLD-0
100
AcDbLine
 10
-687.159651059608
 20
455.2689376371001
 30
0.0
 11
-640.8005888648081
 21
455.2689376371001
 31
0.0
  0
LINE
  5
933
330
1F
100
AcDbEntity
  8
SLD-0
100
AcDbLine
 10
-275.4192139096081
 20
576.1510743844001
 30
0.0
 11
-156.919219631608
 21
576.1510743844001
 31
0.0
  0
SPLINE
  5
934
330
1F
100
AcDbEntity
  8
SLD-0
100
AcDbSpline
210
0.0
220
0.0
230
1.0
 70
     8
 71
     3
 72
    11
 73
     7
 74
     0
 42
0.000000001
 43
0.0000000001
 40
0.0
 40
0.0
 40
0.0
 40
0.0
 40
0.2501502711744202
 40
0.500034155515702
 40
0.7498835264742408
 40
1.0
 40
1.0
 40
1.0
 40
1.0
 10
-189.4714023060559
 20
786.9964107024012
 30
0.0
 10
-189.4826685538729
 20
787.058945291523
 30
0.0
 10
-189.5051890519987
 20
787.1839478762305
 30
0.0
 10
-189.6207361098713
 20
787.3385615395462
 30
0.0
 10
-189.7809920613666
 20
787.4439998698036
 30
0.0
 10
-189.9051242773366
 20
787.4572178205611
 30
0.0
 10
-189.96722354362
 20
787.4638303267299
 30
0.0
  0
SPLINE
  5
939
330
1F
100
AcDbEntity
  8
SLD-0
100
AcDbSpline
210
0.0
220
0.0
230
1.0
 70
     8
 71
     3
 72
    11
 73
     7
 74
     0
 42
0.000000001
 43
0.0000000001
 40
0.0
 40
0.0
 40
0.0
 40
0.0
 40
0.2572006522765087
 40
0.5101150833717372
 40
0.7580221929792331
 40
1.0
 40
1.0
 40
1.0
 40
1.0
 10
-189.4396628327131
 20
787.1752246367274
 30
0.0
 10
-189.4642835405297
 20
787.2169612046519
 30
0.0
 10
-189.5131146547181
 20
787.2997388050894
 30
0.0
 10
-189.6399582764744
 20
787.3913290020508
 30
0.0
 10
-189.7923477017782
 20
787.4525576626924
 30
0.0
 10
-189.9092642169638
 20
787.4601032144792
 30
0.0
 10
-189.9670149273632
 20
787.4638303267299
 30
0.0
  0
LINE
  5
93A
330
1F
100
AcDbEntity
  8
SLD-0
100
AcDbLine
 10
-97.99099816750805
 20
732.4638231742001
 30
0.0
 11
-156.919219631608
 21
732.4638231742001
 31
0.0
  0
LINE
  5
93B
330
1F
100
AcDbEntity
  8
SLD-0
100
AcDbLine
 10
-156.919219631608
 20
574.4638233530001
 30
0.0
 11
-97.99099816750805
 21
574.4638233530001
 31
0.0
  0
ARC
  5
93C
330
1F
100
AcDbEntity
  8
SLD-0
100
AcDbCircle
 10
-97.99100374590779
 20
728.4638240875001
 30
0.0
 40
4.0
100
AcDbArc
 50
60.00000002870022
 51
90.0
  0
ARC
  5
93D
330
1F
100
AcDbEntity
  8
SLD-0
100
AcDbCircle
 10
-97.99100374590779
 20
578.4638240875001
 30
0.0
 40
4.0
100
AcDbArc
 50
270.0
 51
299.9999999712998
  0
LINE
  5
93E
330
1F
100
AcDbEntity
  8
SLD-0
100
AcDbLine
 10
-95.99099411440778
 20
574.9997212636
 30
0.0
 11
-75.91921939320781
 21
586.5881829606999
 31
0.0
  0
LINE
  5
93F
330
1F
100
AcDbEntity
  8
SLD-0
100
AcDbLine
 10
-75.91921939320781
 20
720.3394635665001
 30
0.0
 11
-95.99099411440778
 21
731.9279327141999
 31
0.0
  0
ARC
  5
940
330
1F
100
AcDbEntity
  8
SLD-0
100
AcDbCircle
 10
-76.91920697620782
 20
718.6074176270001
 30
0.0
 40
2.000000000000064
100
AcDbArc
 50
0.0
 51
59.99999999999968
  0
ARC
  5
941
330
1F
100
AcDbEntity
  8
SLD-0
100
AcDbCircle
 10
-76.91920697620782
 20
588.3202305480999
 30
0.0
 40
2.0
100
AcDbArc
 50
300.0000000000005
 51
0.0
  0
LINE
  5
942
330
1F
100
AcDbEntity
  8
SLD-0
100
AcDbLine
 10
-74.91920246550802
 20
588.3202268826
 30
0.0
 11
-74.91920246550802
 21
718.6074121939001
 31
0.0
  0
ARC
  5
943
330
1F
100
AcDbEntity
  8
SLD-0
100
AcDbCircle
 10
-623.8662757041081
 20
711.6837777891001
 30
0.0
 40
5.000000000000706
100
AcDbArc
 50
146.1590076814006
 51
172.1320762393993
  0
ARC
  5
944
330
1F
100
AcDbEntity
  8
SLD-0
100
AcDbCircle
 10
-623.8662757041081
 20
711.2526778058999
 30
0.0
 40
5.000000000000593
100
AcDbArc
 50
187.8679237606996
 51
213.8409923184997
  0
ARC
  5
949
330
1F
100
AcDbEntity
  8
SLD-0
100
AcDbCircle
 10
-623.8662757041081
 20
526.6837777891002
 30
0.0
 40
5.000000000011786
100
AcDbArc
 50
146.1590076813005
 51
172.1320762392
  0
ARC
  5
94A
330
1F
100
AcDbEntity
  8
SLD-0
100
AcDbCircle
 10
-623.8662757041081
 20
526.2526778058998
 30
0.0
 40
4.999999999997853
100
AcDbArc
 50
187.8679237604001
 51
213.8409923184004
  0
LINE
  5
94F
330
1F
100
AcDbEntity
  8
SLD-0
100
AcDbLine
 10
-355.3692038245078
 20
298.9682271230001
 30
0.0
 11
-355.3692038245078
 21
297.7682217109001
 31
0.0
  0
LINE
  5
950
330
1F
100
AcDbEntity
  8
SLD-0
100
AcDbLine
 10
-342.3692072816081
 20
297.7682217109001
 30
0.0
 11
-342.3692072816081
 21
298.9682271230001
 31
0.0
  0
ARC
  5
951
330
1F
100
AcDbEntity
  8
SLD-0
100
AcDbCircle
 10
-342.6692069762077
 20
297.7682277975001
 30
0.0
 40
0.3000000000000682
100
AcDbArc
 50
270.0
 51
0.0
  0
ARC
  5
952
330
1F
100
AcDbEntity
  8
SLD-0
100
AcDbCircle
 10
-355.069206976208
 20
297.7682277975001
 30
0.0
 40
0.3000000000001819
100
AcDbArc
 50
180.0
 51
270.0
  0
ARC
  5
95B
330
1F
100
AcDbEntity
  8
SLD-0
100
AcDbCircle
 10
-472.6692069762079
 20
297.7682277975001
 30
0.0
 40
0.3000000000001819
100
AcDbArc
 50
270.0
 51
0.0
  0
ARC
  5
95C
330
1F
100
AcDbEntity
  8
SLD-0
100
AcDbCircle
 10
-485.069206976208
 20
297.7682277975001
 30
0.0
 40
0.3000000000001819
100
AcDbArc
 50
180.0
 51
270.0
  0
LINE
  5
95D
330
1F
100
AcDbEntity
  8
SLD-0
100
AcDbLine
 10
-485.369206972408
 20
298.9682271230001
 30
0.0
 11
-485.369206972408
 21
297.7682217109001
 31
0.0
  0
LINE
  5
95E
330
1F
100
AcDbEntity
  8
SLD-0
100
AcDbLine
 10
-472.3692071698081
 20
297.7682217109001
 30
0.0
 11
-472.3692071698081
 21
298.9682271230001
 31
0.0
  0
ARC
  5
95F
330
1F
100
AcDbEntity
  8
SLD-0
100
AcDbCircle
 10
-602.669206976208
 20
297.7682277975001
 30
0.0
 40
0.3000000000002956
100
AcDbArc
 50
270.0
 51
0.0
  0
ARC
  5
960
330
1F
100
AcDbEntity
  8
SLD-0
100
AcDbCircle
 10
-615.0692069762081
 20
297.7682277975001
 30
0.0
 40
0.3000000000001819
100
AcDbArc
 50
180.0
 51
270.0
  0
LINE
  5
961
330
1F
100
AcDbEntity
  8
SLD-0
100
AcDbLine
 10
-615.3692091889081
 20
298.9682271230001
 30
0.0
 11
-615.3692091889081
 21
297.7682217109001
 31
0.0
  0
LINE
  5
962
330
1F
100
AcDbEntity
  8
SLD-0
100
AcDbLine
 10
-602.3692051954081
 20
297.7682217109001
 30
0.0
 11
-602.3692051954081
 21
298.9682271230001
 31
0.0
  0
LINE
  5
967
330
1F
100
AcDbEntity
  8
SLD-0
100
AcDbLine
 10
-330.119201082708
 20
938.968227719
 30
0.0
 11
-330.119201082708
 21
935.3682263839003
 31
0.0
  0
LINE
  5
968
330
1F
100
AcDbEntity
  8
SLD-0
100
AcDbLine
 10
-330.119201082708
 20
935.3682263839003
 30
0.0
 11
-330.419206161008
 21
935.3682263839003
 31
0.0
  0
LINE
  5
969
330
1F
100
AcDbEntity
  8
SLD-0
100
AcDbLine
 10
-245.577179927308
 20
1119.8483570563
 30
0.0
 11
-671.6612215228081
 21
1119.8483570563
 31
0.0
  0
LINE
  5
96A
330
1F
100
AcDbEntity
  8
SLD-0
100
AcDbLine
 10
-245.9192062802078
 20
1118.9086898314
 30
0.0
 11
-671.319210071108
 21
1118.9086898314
 31
0.0
  0
LINE
  5
96B
330
1F
100
AcDbEntity
  8
SLD-0
100
AcDbLine
 10
-259.919204849708
 20
1125.0684126365
 30
0.0
 11
-657.3192115016082
 21
1125.0684126365
 31
0.0
  0
LINE
  5
96C
330
1F
100
AcDbEntity
  8
SLD-0
100
AcDbLine
 10
-277.919211525408
 20
990.2557595717
 30
0.0
 11
-639.3192048258081
 21
990.2557595717
 31
0.0
  0
LINE
  5
96D
330
1F
100
AcDbEntity
  8
SLD-0
100
AcDbLine
 10
-259.1192062087078
 20
1047.2557409751
 30
0.0
 11
-658.1192101426082
 21
1047.2557409751
 31
0.0
  0
LINE
  5
96E
330
1F
100
AcDbEntity
  8
SLD-0
100
AcDbLine
 10
-259.1192062087078
 20
1107.5889333236
 30
0.0
 11
-658.1192101426082
 21
1107.5889333236
 31
0.0
  0
LINE
  5
96F
330
1F
100
AcDbEntity
  8
SLD-0
100
AcDbLine
 10
-260.9192068762081
 20
1110.1596220481
 30
0.0
 11
-656.3192094750082
 21
1110.1596220481
 31
0.0
  0
LINE
  5
970
330
1F
100
AcDbEntity
  8
SLD-0
100
AcDbLine
 10
-259.1192062087078
 20
1125.3682239997
 30
0.0
 11
-658.1192101426082
 21
1125.3682239997
 31
0.0
  0
LINE
  5
971
330
1F
100
AcDbEntity
  8
SLD-0
100
AcDbLine
 10
-268.6192031092081
 20
938.968227719
 30
0.0
 11
-277.919211525408
 21
938.968227719
 31
0.0
  0
LINE
  5
972
330
1F
100
AcDbEntity
  8
SLD-0
100
AcDbLine
 10
-321.419202823108
 20
938.968227719
 30
0.0
 11
-332.119205135808
 21
938.968227719
 31
0.0
  0
LINE
  5
973
330
1F
100
AcDbEntity
  8
SLD-0
100
AcDbLine
 10
-625.6192113347081
 20
938.968227719
 30
0.0
 11
-648.6192132420081
 21
938.968227719
 31
0.0
  0
LINE
  5
974
330
1F
100
AcDbEntity
  8
SLD-0
100
AcDbLine
 10
-268.6192031092081
 20
941.0682185636999
 30
0.0
 11
-648.6192132420081
 21
941.0682185636999
 31
0.0
  0
LINE
  5
975
330
1F
100
AcDbEntity
  8
SLD-0
100
AcDbLine
 10
-693.3194185681082
 20
459.8785392093001
 30
0.0
 11
-693.3194185681082
 21
454.2689393358999
 31
0.0
  0
LINE
  5
976
330
1F
100
AcDbEntity
  8
SLD-0
100
AcDbLine
 10
-693.3194185681082
 20
852.6689275252002
 30
0.0
 11
-693.3194185681082
 21
459.8785392093001
 31
0.0
  0
LINE
  5
977
330
1F
100
AcDbEntity
  8
SLD-0
100
AcDbLine
 10
-688.099348086808
 20
445.9403990851999
 30
0.0
 11
-688.099348086808
 21
439.9269200014001
 31
0.0
  0
LINE
  5
978
330
1F
100
AcDbEntity
  8
SLD-0
100
AcDbLine
 10
-688.099348086808
 20
867.0109673487
 30
0.0
 11
-688.099348086808
 21
445.9403990851999
 31
0.0
  0
LINE
  5
979
330
1F
100
AcDbEntity
  8
SLD-0
100
AcDbLine
 10
-687.159651059608
 20
446.2727881121001
 30
0.0
 11
-687.159651059608
 21
440.2689389037001
 31
0.0
  0
LINE
  5
97A
330
1F
100
AcDbEntity
  8
SLD-0
100
AcDbLine
 10
-687.159651059608
 20
866.6689260947002
 30
0.0
 11
-687.159651059608
 21
446.2727881121001
 31
0.0
  0
LINE
  5
97B
330
1F
100
AcDbEntity
  8
SLD-0
100
AcDbLine
 10
-628.6168928332081
 20
459.1010673987001
 30
0.0
 11
-628.6168928332081
 21
453.4689388322001
 31
0.0
  0
LINE
  5
97C
330
1F
100
AcDbEntity
  8
SLD-0
100
AcDbLine
 10
-628.6168928332081
 20
853.4689410674
 30
0.0
 11
-628.6168928332081
 21
713.2431580769002
 31
0.0
  0
LINE
  5
97D
330
1F
100
AcDbEntity
  8
SLD-0
100
AcDbLine
 10
-628.6168928332081
 20
709.6932991492001
 30
0.0
 11
-628.6168928332081
 21
528.2431631433
 31
0.0
  0
LINE
  5
97E
330
1F
100
AcDbEntity
  8
SLD-0
100
AcDbLine
 10
-628.6168928332081
 20
524.6932930397002
 30
0.0
 11
-628.6168928332081
 21
459.1010673987001
 31
0.0
  0
LINE
  5
97F
330
1F
100
AcDbEntity
  8
SLD-0
100
AcDbLine
 10
-693.619200129008
 20
459.1010673987001
 30
0.0
 11
-693.619200129008
 21
453.4689388322001
 31
0.0
  0
LINE
  5
980
330
1F
100
AcDbEntity
  8
SLD-0
100
AcDbLine
 10
-693.619200129008
 20
853.4689410674
 30
0.0
 11
-693.619200129008
 21
459.1010673987001
 31
0.0
  0
LINE
  5
981
330
1F
100
AcDbEntity
  8
SLD-0
100
AcDbLine
 10
-638.229915041408
 20
459.1010673987001
 30
0.0
 11
-638.229915041408
 21
453.4689388322001
 31
0.0
  0
LINE
  5
982
330
1F
100
AcDbEntity
  8
SLD-0
100
AcDbLine
 10
-638.229915041408
 20
853.4689410674
 30
0.0
 11
-638.229915041408
 21
459.1010673987001
 31
0.0
  0
LINE
  5
983
330
1F
100
AcDbEntity
  8
SLD-0
100
AcDbLine
 10
-640.8005888648081
 20
460.8503780412001
 30
0.0
 11
-640.8005888648081
 21
455.2689376371001
 31
0.0
  0
LINE
  5
984
330
1F
100
AcDbEntity
  8
SLD-0
100
AcDbLine
 10
-640.8005888648081
 20
851.6689403997998
 30
0.0
 11
-640.8005888648081
 21
460.8503780412001
 31
0.0
  0
LINE
  5
985
330
1F
100
AcDbEntity
  8
SLD-0
100
AcDbLine
 10
-627.319210309508
 20
299.6682240712001
 30
0.0
 11
-628.0192072577081
 21
299.6682240712001
 31
0.0
  0
LINE
  5
987
330
1F
100
AcDbEntity
  8
SLD-0
100
AcDbLine
 10
-627.319210309508
 20
300.1682325351001
 30
0.0
 11
-627.319210309508
 21
299.6682240712001
 31
0.0
  0
LINE
  5
988
330
1F
100
AcDbEntity
  8
SLD-0
100
AcDbLine
 10
-628.0192072577081
 20
299.6682240712001
 30
0.0
 11
-628.0192072577081
 21
304.6682342040001
 31
0.0
  0
LINE
  5
98A
330
1F
100
AcDbEntity
  8
SLD-0
100
AcDbLine
 10
-627.319210309508
 20
932.2682186114002
 30
0.0
 11
-627.319210309508
 21
304.6682342040001
 31
0.0
  0
LINE
  5
98B
330
1F
100
AcDbEntity
  8
SLD-0
100
AcDbLine
 10
-628.0192072577081
 20
932.2682186114002
 30
0.0
 11
-628.0192072577081
 21
304.6682342040001
 31
0.0
  0
LINE
  5
98C
330
1F
100
AcDbEntity
  8
SLD-0
100
AcDbLine
 10
-628.0192072577081
 20
937.2682138430001
 30
0.0
 11
-627.319210309508
 21
937.2682138430001
 31
0.0
  0
LINE
  5
98D
330
1F
100
AcDbEntity
  8
SLD-0
100
AcDbLine
 10
-628.0192072577081
 20
932.2682186114002
 30
0.0
 11
-628.0192072577081
 21
937.2682138430001
 31
0.0
  0
LINE
  5
B3A
330
1F
100
AcDbEntity
  8
SLD-0
100
AcDbLine
 10
-156.919219631608
 20
730.4638191211
 30
0.0
 11
-275.4192139096081
 21
730.4638191211
 31
0.0
  0
LINE
  5
B42
330
1F
100
AcDbEntity
  8
SLD-0
100
AcDbLine
 10
-188.919195074508
 20
778.4638269889001
 30
0.0
 11
-189.3929625935078
 21
786.9915529239001
 31
0.0
  0
LINE
  5
B43
330
1F
100
AcDbEntity
  8
SLD-0
100
AcDbLine
 10
-188.919195074508
 20
778.4638269889001
 30
0.0
 11
-275.4192139096081
 21
778.4638269889002
 31
0.0
  0
LINE
  5
B44
330
1F
100
AcDbEntity
  8
SLD-0
100
AcDbLine
 10
-189.3929625935078
 20
786.9915529239001
 30
0.0
 11
-189.5454014725079
 21
786.9969471442001
 31
0.0
  0
LINE
  5
B45
330
1F
100
AcDbEntity
  8
SLD-0
100
AcDbLine
 10
-193.3868016190081
 20
787.4638303267
 30
0.0
 11
-275.4192139096081
 21
787.4638303267
 31
0.0
  0
SPLINE
  5
B47
330
1F
100
AcDbEntity
  8
SLD-0
100
AcDbSpline
210
0.0
220
0.0
230
1.0
 70
    24
 71
     3
 72
    13
 73
     9
 74
     0
 42
0.000000001
 43
0.0000000001
 40
0.0
 40
0.0
 40
0.0
 40
0.0
 40
0.1295082770170448
 40
0.2786366219176604
 40
0.4276186159688369
 40
0.5767149487500122
 40
0.7257329676110434
 40
1.0
 40
1.0
 40
1.0
 40
1.0
 10
-190.0216425843
 20
787.4638303267299
 30
0.0
 10
-190.0481159162707
 20
787.4638303267299
 30
0.0
 10
-190.1050732008638
 20
787.4638303267299
 30
0.0
 10
-190.4510101669898
 20
787.4638303267297
 30
0.0
 10
-190.8965545016367
 20
787.4638303267299
 30
0.0
 10
-191.4539444178122
 20
787.4638303267299
 30
0.0
 10
-192.2681010206717
 20
787.4638303267299
 30
0.0
 10
-192.9469452979891
 20
787.4638303267299
 30
0.0
 10
-193.3868016190287
 20
787.4638303267299
 30
0.0
  0
LINE
  5
B4C
330
1F
100
AcDbEntity
  8
SLD-0
100
AcDbLine
 10
-191.9192160554081
 20
778.4638269889001
 30
0.0
 11
-193.9189816899079
 21
737.4687357890001
 31
0.0
  0
LINE
  5
B4E
330
1F
100
AcDbEntity
  8
SLD-0
100
AcDbLine
 10
-193.9192201085078
 20
737.4638184058
 30
0.0
 11
-193.9189816899079
 21
737.4687357890001
 31
0.0
  0
LINE
  5
B4F
330
1F
100
AcDbEntity
  8
SLD-0
100
AcDbLine
 10
-193.9192201085078
 20
737.4638184058
 30
0.0
 11
-200.919219393208
 21
730.4638191211
 31
0.0
  0
LINE
  5
B5F
330
1F
100
AcDbEntity
  8
SLD-0
100
AcDbLine
 10
-156.919219631608
 20
732.4638231742001
 30
0.0
 11
-156.919219631608
 21
574.4638233530001
 31
0.0
  0
LINE
  5
B60
330
1F
100
AcDbEntity
  8
SLD-0
100
AcDbLine
 10
-323.919200438908
 20
300.9682311761001
 30
0.0
 11
-325.4192109294081
 21
300.9682311761001
 31
0.0
  0
LINE
  5
B61
330
1F
100
AcDbEntity
  8
SLD-0
100
AcDbLine
 10
-325.4192109294081
 20
300.9682311761001
 30
0.0
 11
-325.4192109294081
 21
305.9682264077001
 31
0.0
  0
LINE
  5
B62
330
1F
100
AcDbEntity
  8
SLD-0
100
AcDbLine
 10
-325.4192109294081
 20
305.9682264077001
 30
0.0
 11
-323.919200438908
 21
305.9682264077001
 31
0.0
  0
LINE
  5
B63
330
1F
100
AcDbEntity
  8
SLD-0
100
AcDbLine
 10
-323.919200438908
 20
301.4682247388001
 30
0.0
 11
-323.919200438908
 21
300.9682311761001
 31
0.0
  0
LINE
  5
B64
330
1F
100
AcDbEntity
  8
SLD-0
100
AcDbLine
 10
-323.919200438908
 20
931.9682284343
 30
0.0
 11
-325.4192109294081
 21
931.9682284343
 31
0.0
  0
LINE
  5
B65
330
1F
100
AcDbEntity
  8
SLD-0
100
AcDbLine
 10
-325.4192109294081
 20
931.9682284343
 30
0.0
 11
-325.4192109294081
 21
305.9682264077001
 31
0.0
  0
LINE
  5
B66
330
1F
100
AcDbEntity
  8
SLD-0
100
AcDbLine
 10
-323.919200438908
 20
931.9682284343
 30
0.0
 11
-323.919200438908
 21
305.9682264077001
 31
0.0
  0
LINE
  5
B67
330
1F
100
AcDbEntity
  8
SLD-0
100
AcDbLine
 10
-325.4192109294081
 20
936.9682236659
 30
0.0
 11
-323.919200438908
 21
936.9682236659
 31
0.0
  0
LINE
  5
B68
330
1F
100
AcDbEntity
  8
SLD-0
100
AcDbLine
 10
-325.4192109294081
 20
931.9682284343
 30
0.0
 11
-325.4192109294081
 21
936.9682236659
 31
0.0
  0
LINE
  5
B69
330
1F
100
AcDbEntity
  8
SLD-0
100
AcDbLine
 10
-323.919200438908
 20
936.9682236659
 30
0.0
 11
-323.919200438908
 21
936.4682301032002
 31
0.0
  0
LINE
  5
B76
330
1F
100
AcDbEntity
  8
SLD-0
100
AcDbLine
 10
-323.919200438908
 20
936.2914427267999
 30
0.0
 11
-323.919200438908
 21
301.6449972140001
 31
0.0
  0
LINE
  5
B78
330
1F
100
AcDbEntity
  8
SLD-0
100
AcDbLine
 10
-275.4192139096081
 20
301.4682247388001
 30
0.0
 11
-275.4192139096081
 21
936.4682301032002
 31
0.0
  0
LINE
  5
B7A
330
1F
100
AcDbEntity
  8
SLD-0
100
AcDbLine
 10
-277.919211525408
 20
938.968227719
 30
0.0
 11
-321.419202823108
 21
938.968227719
 31
0.0
  0
ARC
  5
B7D
330
1F
100
AcDbEntity
  8
SLD-0
100
AcDbCircle
 10
-277.9192069762077
 20
936.4682277975002
 30
0.0
 40
2.5
100
AcDbArc
 50
0.0
 51
90.0
  0
LINE
  5
B7F
330
1F
100
AcDbEntity
  8
SLD-0
100
AcDbLine
 10
-323.879831571108
 20
936.4682301032002
 30
0.0
 11
-323.919200438908
 21
936.4682301032002
 31
0.0
  0
ARC
  5
B81
330
1F
100
AcDbEntity
  8
SLD-0
100
AcDbCircle
 10
-321.4192069762079
 20
936.4682277975002
 30
0.0
 40
2.500000000000226
100
AcDbArc
 50
90.0
 51
180.0
  0
LINE
  5
B82
330
1F
100
AcDbEntity
  8
SLD-0
100
AcDbLine
 10
-321.419202823108
 20
298.9682271230001
 30
0.0
 11
-277.919211525408
 21
298.9682271230001
 31
0.0
  0
ARC
  5
B85
330
1F
100
AcDbEntity
  8
SLD-0
100
AcDbCircle
 10
-321.4192069762079
 20
301.4682277975001
 30
0.0
 40
2.5
100
AcDbArc
 50
180.0
 51
270.0
  0
LINE
  5
B86
330
1F
100
AcDbEntity
  8
SLD-0
100
AcDbLine
 10
-323.879831571108
 20
301.4682247388001
 30
0.0
 11
-323.919200438908
 21
301.4682247388001
 31
0.0
  0
ARC
  5
B88
330
1F
100
AcDbEntity
  8
SLD-0
100
AcDbCircle
 10
-277.9192069762077
 20
301.4682277975001
 30
0.0
 40
2.5
100
AcDbArc
 50
270.0
 51
359.9999999994998
  0
LINE
  5
B8A
330
1F
100
AcDbEntity
  8
SLD-0
100
AcDbLine
 10
-323.919200438908
 20
936.2914427267999
 30
0.0
 11
-323.919200438908
 21
936.4682301032002
 31
0.0
  0
LINE
  5
B8B
330
1F
100
AcDbEntity
  8
SLD-0
100
AcDbLine
 10
-323.919200438908
 20
301.4682247388001
 30
0.0
 11
-323.919200438908
 21
301.6449972140001
 31
0.0
  0
ARC
  5
B8E
330
1F
100
AcDbEntity
  8
SLD-0
100
AcDbCircle
 10
-655.869206976208
 20
275.4682277975001
 30
0.0
 40
3.0
100
AcDbArc
 50
180.0
 51
270.0
  0
LINE
  5
B8F
330
1F
100
AcDbEntity
  8
SLD-0
100
AcDbLine
 10
-658.8692004866082
 20
294.4682254540001
 30
0.0
 11
-658.8692004866082
 21
275.4682316529001
 31
0.0
  0
LINE
  5
B91
330
1F
100
AcDbEntity
  8
SLD-0
100
AcDbLine
 10
-38.86921061940791
 20
294.4682254540001
 30
0.0
 11
-38.86921061940791
 21
275.4682316529001
 31
0.0
  0
ARC
  5
B92
330
1F
100
AcDbEntity
  8
SLD-0
100
AcDbCircle
 10
-41.86920697620803
 20
275.4682277975001
 30
0.0
 40
3.0
100
AcDbArc
 50
270.0
 51
0.0
  0
LINE
  5
B93
330
1F
100
AcDbEntity
  8
SLD-0
100
AcDbLine
 10
-41.86920179790803
 20
272.4682255732001
 30
0.0
 11
-655.8692093081081
 21
272.4682255732001
 31
0.0
  0
LINE
  5
B94
330
1F
100
AcDbEntity
  8
SLD-0
100
AcDbLine
 10
-38.86921061940791
 20
297.4682315337001
 30
0.0
 11
-658.8692004866082
 21
297.4682315337001
 31
0.0
  0
LINE
  5
B95
330
1F
100
AcDbEntity
  8
SLD-0
100
AcDbLine
 10
-38.86921061940791
 20
297.4682315337001
 30
0.0
 11
-38.86921061940791
 21
294.4682254540001
 31
0.0
  0
LINE
  5
B96
330
1F
100
AcDbEntity
  8
SLD-0
100
AcDbLine
 10
-658.8692004866082
 20
297.4682315337001
 30
0.0
 11
-658.8692004866082
 21
294.4682254540001
 31
0.0
  0
LINE
  5
B9F
330
1F
100
AcDbEntity
  8
SLD-0
100
AcDbLine
 10
-328.4192021079079
 20
302.9682352292001
 30
0.0
 11
-330.419206161008
 21
302.9682352292001
 31
0.0
  0
LINE
  5
BA0
330
1F
100
AcDbEntity
  8
SLD-0
100
AcDbLine
 10
-328.4192021079079
 20
302.9682352292001
 30
0.0
 11
-325.4192109294081
 21
302.9682352292001
 31
0.0
  0
LINE
  5
BA3
330
1F
100
AcDbEntity
  8
SLD-0
100
AcDbLine
 10
-332.119205135808
 20
938.968227719
 30
0.0
 11
-625.6192113347081
 21
938.968227719
 31
0.0
  0
ARC
  5
BA5
330
1F
100
AcDbEntity
  8
SLD-0
100
AcDbCircle
 10
-625.619206976208
 20
937.2682277975001
 30
0.0
 40
1.69999999999993
100
AcDbArc
 50
90.0
 51
162.8953648233991
  0
LINE
  5
BA8
330
1F
100
AcDbEntity
  8
SLD-0
100
AcDbLine
 10
-627.319210309508
 20
937.7682372081001
 30
0.0
 11
-627.319210309508
 21
300.1682325351001
 31
0.0
  0
LINE
  5
BB0
330
1F
100
AcDbEntity
  8
SLD-0
100
AcDbLine
 10
-330.419206161008
 20
300.1682325351001
 30
0.0
 11
-330.419206161008
 21
937.7682372081001
 31
0.0
  0
LINE
  5
BB2
330
1F
100
AcDbEntity
  8
SLD-0
100
AcDbLine
 10
-628.8192058987081
 20
712.3682214963001
 30
0.0
 11
-628.8192058987081
 21
710.5682208287
 31
0.0
  0
LINE
  5
BC1
330
1F
100
AcDbEntity
  8
SLD-0
100
AcDbLine
 10
-628.8192058987081
 20
527.3682265627001
 30
0.0
 11
-628.8192058987081
 21
525.5682296204
 31
0.0
  0
LINE
  5
BD8
330
1F
100
AcDbEntity
  8
SLD-0
100
AcDbLine
 10
-625.6192113347081
 20
298.9682271230001
 30
0.0
 11
-332.119205135808
 21
298.9682271230001
 31
0.0
  0
ARC
  5
BD9
330
1F
100
AcDbEntity
  8
SLD-0
100
AcDbCircle
 10
-625.619206976208
 20
300.6682277975001
 30
0.0
 40
1.700000000000045
100
AcDbArc
 50
197.1046351765986
 51
270.0
  0
ARC
  5
BDB
330
1F
100
AcDbEntity
  8
SLD-0
100
AcDbCircle
 10
-332.119206976208
 20
300.6682277975001
 30
0.0
 40
1.700000000000159
100
AcDbArc
 50
270.0
 51
342.8953648233996
  0
LINE
  5
BDD
330
1F
100
AcDbEntity
  8
SLD-0
100
AcDbLine
 10
-259.1192062087078
 20
1129.1182502257
 30
0.0
 11
-658.1192101426082
 21
1129.1182502257
 31
0.0
  0
LINE
  5
BDE
330
1F
100
AcDbEntity
  8
SLD-0
100
AcDbLine
 10
-697.3692114539081
 20
459.1010673987001
 30
0.0
 11
-697.3692114539081
 21
453.4689388322001
 31
0.0
  0
LINE
  5
BDF
330
1F
100
AcDbEntity
  8
SLD-0
100
AcDbLine
 10
-697.3692114539081
 20
853.4689410674
 30
0.0
 11
-697.3692114539081
 21
459.1010673987001
 31
0.0
  0
LINE
  5
C11
330
1F
100
AcDbEntity
  8
SLD-0
100
AcDbLine
 10
-97.99099816750805
 20
732.4638231742001
 30
0.0
 11
-97.99099816750805
 21
574.4638233530001
 31
0.0
  0
LINE
  5
C12
330
1F
100
AcDbEntity
  8
SLD-0
100
AcDbLine
 10
-95.99099411440778
 20
731.9279327141999
 30
0.0
 11
-95.99099411440778
 21
574.9997212636
 31
0.0
  0
LINE
  5
C13
330
1F
100
AcDbEntity
  8
SLD-0
100
AcDbLine
 10
-75.91921939320781
 20
720.3394635665001
 30
0.0
 11
-75.91921939320781
 21
586.5881829606999
 31
0.0
  0
LINE
  5
C16
330
1F
100
AcDbEntity
  8
SLD-0
100
AcDbLine
 10
-355.3692038245078
 20
297.7682217109001
 30
0.0
 11
-342.3692072816081
 21
297.7682217109001
 31
0.0
  0
LINE
  5
C19
330
1F
100
AcDbEntity
  8
SLD-0
100
AcDbLine
 10
-485.369206972408
 20
297.7682217109001
 30
0.0
 11
-472.3692071698081
 21
297.7682217109001
 31
0.0
  0
LINE
  5
C1A
330
1F
100
AcDbEntity
  8
SLD-0
100
AcDbLine
 10
-615.3692091889081
 20
297.7682217109001
 30
0.0
 11
-602.3692051954081
 21
297.7682217109001
 31
0.0
  0
LINE
  5
C9C
330
1F
100
AcDbEntity
  8
SLD-0
100
AcDbLine
 10
-1858.835362705
 20
-576.0353575143
 30
0.0
 11
-1870.8353624018
 21
-576.0353575143
 31
0.0
  0
LINE
  5
C9D
330
1F
100
AcDbEntity
  8
SLD-0
100
AcDbLine
 10
-1870.8353624018
 20
-605.5353651437
 30
0.0
 11
-1858.835362705
 21
-605.5353651437
 31
0.0
  0
ARC
  5
C9E
330
1F
100
AcDbEntity
  8
SLD-0
100
AcDbCircle
 10
-1858.8353627072
 20
-577.0353640448
 30
0.0
 40
1.0
100
AcDbArc
 50
0.0
 51
90.0
  0
ARC
  5
C9F
330
1F
100
AcDbEntity
  8
SLD-0
100
AcDbCircle
 10
-1858.8353627072
 20
-604.5353640448
 30
0.0
 40
1.0
100
AcDbArc
 50
270.0
 51
0.0
  0
LINE
  5
CA0
330
1F
100
AcDbEntity
  8
SLD-0
100
AcDbLine
 10
-1877.8353626179
 20
-602.2853622826
 30
0.0
 11
-1872.8353627297
 21
-602.2853622826
 31
0.0
  0
LINE
  5
CA1
330
1F
100
AcDbEntity
  8
SLD-0
100
AcDbLine
 10
-1872.8353627297
 20
-579.2853603753
 30
0.0
 11
-1877.8353626179
 21
-579.2853603753
 31
0.0
  0
LINE
  5
CA2
330
1F
100
AcDbEntity
  8
SLD-0
100
AcDbLine
 10
-1877.8353626179
 20
-577.3832122476999
 30
0.0
 11
-1892.3353640633
 21
-577.3832122476999
 31
0.0
  0
LINE
  5
CA3
330
1F
100
AcDbEntity
  8
SLD-0
100
AcDbLine
 10
-1892.3353640633
 20
-604.1875253114
 30
0.0
 11
-1877.8353626179
 21
-604.1875253114
 31
0.0
  0
LINE
  5
CA8
330
1F
100
AcDbEntity
  8
SLD-0
100
AcDbLine
 10
-2159.0056209164
 20
-121.4654068145
 30
0.0
 11
-2158.6636094647
 21
-122.4051038417
 31
0.0
  0
LINE
  5
CA9
330
1F
100
AcDbEntity
  8
SLD-0
100
AcDbLine
 10
-1732.2636036473
 20
-122.4051038417
 30
0.0
 11
-1731.9215772944
 21
-121.4654068145
 31
0.0
  0
LINE
  5
CAA
330
1F
100
AcDbEntity
  8
SLD-0
100
AcDbLine
 10
-1731.9215772944
 20
-121.4654068145
 30
0.0
 11
-1746.2636022168
 21
-116.2453363332
 31
0.0
  0
LINE
  5
CAB
330
1F
100
AcDbEntity
  8
SLD-0
100
AcDbLine
 10
-2144.6636108952
 20
-116.2453363332
 30
0.0
 11
-2159.0056209164
 21
-121.4654068145
 31
0.0
  0
LWPOLYLINE
  5
CAC
330
1F
100
AcDbEntity
  8
SLD-0
100
AcDbPolyline
 90
        3
 70
   128
 43
0.0
 10
-2145.4635946351
 20
-180.9478620681
 10
-2146.26441284
 20
-181.3110927733
 10
-2146.5663401681
 20
-181.5455476435
  0
ARC
  5
CAD
330
1F
100
AcDbEntity
  8
SLD-0
100
AcDbCircle
 10
-1746.713604654
 20
-112.1955479251
 30
0.0
 40
1.250000000000027
100
AcDbArc
 50
0.0
 51
90.0
  0
ARC
  5
CAE
330
1F
100
AcDbEntity
  8
SLD-0
100
AcDbCircle
 10
-2144.213604654
 20
-112.1955479251
 30
0.0
 40
1.250000000000455
100
AcDbArc
 50
90.0
 51
180.0
  0
LINE
  5
CAF
330
1F
100
AcDbEntity
  8
SLD-0
100
AcDbLine
 10
-1746.7136023837
 20
-110.9455446395
 30
0.0
 11
-2144.2135958272
 21
-110.9455446395
 31
0.0
  0
LINE
  5
CB0
330
1F
100
AcDbEntity
  8
SLD-0
100
AcDbLine
 10
-1745.4636035758
 20
-115.9455547723
 30
0.0
 11
-1745.4636035758
 21
-112.1955434474
 31
0.0
  0
LINE
  5
CB1
330
1F
100
AcDbEntity
  8
SLD-0
100
AcDbLine
 10
-2145.4635946351
 20
-112.1955434474
 30
0.0
 11
-2145.4635946351
 21
-115.9455547723
 31
0.0
  0
LINE
  5
CB2
330
1F
100
AcDbEntity
  8
SLD-0
100
AcDbLine
 10
-2145.4635946351
 20
-171.3348398597999
 30
0.0
 11
-2145.4635946351
 21
-180.9478620681
 31
0.0
  0
LINE
  5
CB3
330
1F
100
AcDbEntity
  8
SLD-0
100
AcDbLine
 10
-2143.663593967501
 20
-168.7641660365
 30
0.0
 11
-2145.4635946351
 21
-171.3348398597999
 31
0.0
  0
LINE
  5
CB4
330
1F
100
AcDbEntity
  8
SLD-0
100
AcDbLine
 10
-1746.2636022168
 20
-116.2453363332
 30
0.0
 11
-1746.2636022168
 21
-115.9455547723
 31
0.0
  0
LINE
  5
CB5
330
1F
100
AcDbEntity
  8
SLD-0
100
AcDbLine
 10
-2144.6636108952
 20
-115.9455547723
 30
0.0
 11
-2144.6636108952
 21
-116.2453363332
 31
0.0
  0
LINE
  5
CB6
330
1F
100
AcDbEntity
  8
SLD-0
100
AcDbLine
 10
-1747.2636042433
 20
-143.9998070391
 30
0.0
 11
-1747.2636042433
 21
-122.4051038417
 31
0.0
  0
LINE
  5
CB7
330
1F
100
AcDbEntity
  8
SLD-0
100
AcDbLine
 10
-2143.663593967501
 20
-122.4051038417
 30
0.0
 11
-2143.663593967501
 21
-168.7641660365
 31
0.0
  0
LINE
  5
CB9
330
1F
100
AcDbEntity
  8
SLD-0
100
AcDbLine
 10
-1664.4636033374
 20
-579.145557681
 30
0.0
 11
-1662.4635992842
 21
-579.145557681
 31
0.0
  0
ARC
  5
CD2
330
1F
100
AcDbEntity
  8
SLD-0
100
AcDbCircle
 10
-2183.463604654
 20
-574.6455479250998
 30
0.0
 40
1.0
100
AcDbArc
 50
180.0
 51
270.0
  0
ARC
  5
CD3
330
1F
100
AcDbEntity
  8
SLD-0
100
AcDbCircle
 10
-2161.463604654
 20
-574.6455479250998
 30
0.0
 40
1.000000000000454
100
AcDbArc
 50
270.0
 51
0.0
  0
LINE
  5
CD4
330
1F
100
AcDbEntity
  8
SLD-0
100
AcDbLine
 10
-2183.4636120396
 20
-575.6455431374
 30
0.0
 11
-2161.4635972577
 21
-575.6455431374
 31
0.0
  0
LINE
  5
CDF
330
1F
100
AcDbEntity
  8
SLD-0
100
AcDbLine
 10
-2015.1482908326
 20
-652.6442835721
 30
0.0
 11
-2015.1482908326
 21
-652.6455352696
 31
0.0
  0
LINE
  5
CE0
330
1F
100
AcDbEntity
  8
SLD-0
100
AcDbLine
 10
-1875.7789222794
 20
-652.6455352696
 30
0.0
 11
-1875.7789222794
 21
-652.6442835721
 31
0.0
  0
LINE
  5
CEC
330
1F
100
AcDbEntity
  8
SLD-0
100
AcDbLine
 10
-1868.1865198808
 20
-576.0353575143
 30
0.0
 11
-1868.1865198808
 21
-534.5478425416001
 31
0.0
  0
LINE
  5
CED
330
1F
100
AcDbEntity
  8
SLD-0
100
AcDbLine
 10
-2023.1390087205
 20
-534.3456784876998
 30
0.0
 11
-2023.1390087205
 21
-652.6455352696
 31
0.0
  0
LINE
  5
CEE
330
1F
100
AcDbEntity
  8
SLD-0
100
AcDbLine
 10
-1868.1508511576
 20
-652.6455352696
 30
0.0
 11
-1868.1508511576
 21
-605.5353651437
 31
0.0
  0
LINE
  5
CEF
330
1F
100
AcDbEntity
  8
SLD-0
100
AcDbLine
 10
-1868.1508511576
 20
-576.0353575143
 30
0.0
 11
-1868.1508511576
 21
-534.5315257701001
 31
0.0
  0
ARC
  5
CF0
330
1F
100
AcDbEntity
  8
SLD-0
100
AcDbCircle
 10
-1870.463604654
 20
-711.5737511553
 30
0.0
 40
4.0
100
AcDbArc
 50
330.0000000287
 51
0.0
  0
ARC
  5
CF1
330
1F
100
AcDbEntity
  8
SLD-0
100
AcDbCircle
 10
-2020.463604654
 20
-711.5737511553
 30
0.0
 40
4.0
100
AcDbArc
 50
180.0
 51
209.9999999713
  0
LINE
  5
CF2
330
1F
100
AcDbEntity
  8
SLD-0
100
AcDbLine
 10
-1866.4636047828
 20
-711.5737567337999
 30
0.0
 11
-1866.4636047828
 21
-652.6455352696
 31
0.0
  0
LINE
  5
CF3
330
1F
100
AcDbEntity
  8
SLD-0
100
AcDbLine
 10
-2024.4636027413
 20
-652.6455352696
 30
0.0
 11
-2024.4636027413
 21
-711.5737567337999
 31
0.0
  0
LINE
  5
CF4
330
1F
100
AcDbEntity
  8
SLD-0
100
AcDbLine
 10
-2023.9277122813
 20
-713.5737607869
 30
0.0
 11
-2012.3392431336
 21
-733.645535508
 31
0.0
  0
LINE
  5
CF5
330
1F
100
AcDbEntity
  8
SLD-0
100
AcDbLine
 10
-1878.5879606652
 20
-733.645535508
 30
0.0
 11
-1866.9995026934
 21
-713.5737607869
 31
0.0
  0
ARC
  5
CF6
330
1F
100
AcDbEntity
  8
SLD-0
100
AcDbCircle
 10
-1880.3200111145
 20
-732.6455479250999
 30
0.0
 40
2.000000000000219
100
AcDbArc
 50
270.0
 51
330.0
  0
ARC
  5
CF7
330
1F
100
AcDbEntity
  8
SLD-0
100
AcDbCircle
 10
-2010.6071981934
 20
-732.6455479250999
 30
0.0
 40
2.000000000000023
100
AcDbArc
 50
210.0
 51
270.0
  0
LINE
  5
CF8
330
1F
100
AcDbEntity
  8
SLD-0
100
AcDbLine
 10
-2010.6071917611
 20
-734.6455524358
 30
0.0
 11
-1880.3200120377
 21
-734.6455524358
 31
0.0
  0
ARC
  5
D1F
330
1F
100
AcDbEntity
  8
SLD-0
100
AcDbCircle
 10
-1869.7480546624
 20
-185.6984791971
 30
0.0
 40
4.999999999999968
100
AcDbArc
 50
56.15900768149999
 51
82.13207623939998
  0
ARC
  5
D20
330
1F
100
AcDbEntity
  8
SLD-0
100
AcDbCircle
 10
-1870.1791546456
 20
-185.6984791971
 30
0.0
 40
5.000000000004158
100
AcDbArc
 50
97.8679237606
 51
123.8409923186
  0
ARC
  5
D30
330
1F
100
AcDbEntity
  8
SLD-0
100
AcDbCircle
 10
-2029.7480546624
 20
-185.6984791971
 30
0.0
 40
4.999999999997815
100
AcDbArc
 50
56.1590076817
 51
82.13207623960001
  0
ARC
  5
D31
330
1F
100
AcDbEntity
  8
SLD-0
100
AcDbCircle
 10
-2030.1791546455
 20
-185.6984791971
 30
0.0
 40
5.000000000012262
100
AcDbArc
 50
97.86792376080001
 51
123.8409923187999
  0
LWPOLYLINE
  5
DF0
330
1F
100
AcDbEntity
  8
SLD-0
100
AcDbPolyline
 90
        3
 70
   128
 43
0.0
 10
-1870.9715850922
 20
-576.1715839299
 10
-1870.8505196767
 20
-576.0505268964
 10
-1870.8353624018
 20
-576.0353575143
  0
LWPOLYLINE
  5
DF1
330
1F
100
AcDbEntity
  8
SLD-0
100
AcDbPolyline
 90
        3
 70
   128
 43
0.0
 10
-1870.8353624018
 20
-605.5353651437
 10
-1870.8505196767
 20
-605.5201957616
 10
-1870.9715850922
 20
-605.3991387279999
  0
LINE
  5
DF2
330
1F
100
AcDbEntity
  8
SLD-0
100
AcDbLine
 10
-1860.8353626254
 20
-605.3991387279999
 30
0.0
 11
-1870.9715850922
 21
-605.3991387279999
 31
0.0
  0
LINE
  5
DF3
330
1F
100
AcDbEntity
  8
SLD-0
100
AcDbLine
 10
-1860.8353626254
 20
-576.1715839299
 30
0.0
 11
-1860.8353626254
 21
-605.3991387279999
 31
0.0
  0
LINE
  5
DF4
330
1F
100
AcDbEntity
  8
SLD-0
100
AcDbLine
 10
-1870.9715850922
 20
-576.1715839299
 30
0.0
 11
-1860.8353626254
 21
-576.1715839299
 31
0.0
  0
LINE
  5
DF5
330
1F
100
AcDbEntity
  8
SLD-0
100
AcDbLine
 10
-1857.8353627157
 20
-577.0353595408001
 30
0.0
 11
-1857.8353627157
 21
-604.5353780182998
 31
0.0
  0
LINE
  5
DF6
330
1F
100
AcDbEntity
  8
SLD-0
100
AcDbLine
 10
-1877.8353626179
 20
-589.6097789200998
 30
0.0
 11
-1877.8353626179
 21
-591.9609437379
 31
0.0
  0
LINE
  5
DF7
330
1F
100
AcDbEntity
  8
SLD-0
100
AcDbLine
 10
-1877.8353626179
 20
-578.2076487931
 30
0.0
 11
-1877.8353626179
 21
-589.6097789200998
 31
0.0
  0
LINE
  5
DF8
330
1F
100
AcDbEntity
  8
SLD-0
100
AcDbLine
 10
-1877.8353626179
 20
-591.9609437379
 30
0.0
 11
-1877.8353626179
 21
-603.3630738648001
 31
0.0
  0
LINE
  5
DF9
330
1F
100
AcDbEntity
  8
SLD-0
100
AcDbLine
 10
-1872.8353627297
 20
-579.4605980308999
 30
0.0
 11
-1866.8353626775
 21
-579.4605980308999
 31
0.0
  0
LINE
  5
DFA
330
1F
100
AcDbEntity
  8
SLD-0
100
AcDbLine
 10
-1866.8353626775
 20
-579.4605980308999
 30
0.0
 11
-1866.8353626775
 21
-602.1101246269998
 31
0.0
  0
LINE
  5
DFB
330
1F
100
AcDbEntity
  8
SLD-0
100
AcDbLine
 10
-1866.8353626775
 20
-602.1101246269998
 30
0.0
 11
-1872.8353627297
 21
-602.1101246269998
 31
0.0
  0
LINE
  5
DFC
330
1F
100
AcDbEntity
  8
SLD-0
100
AcDbLine
 10
-1877.8353626179
 20
-577.3832122476999
 30
0.0
 11
-1877.8353626179
 21
-578.2076487931
 31
0.0
  0
LINE
  5
DFD
330
1F
100
AcDbEntity
  8
SLD-0
100
AcDbLine
 10
-1877.8353626179
 20
-603.3630738648001
 30
0.0
 11
-1877.8353626179
 21
-604.1875253114
 31
0.0
  0
LINE
  5
DFE
330
1F
100
AcDbEntity
  8
SLD-0
100
AcDbLine
 10
-1866.8353626775
 20
-579.5353720578
 30
0.0
 11
-1860.8353626254
 21
-579.5353720578
 31
0.0
  0
LINE
  5
DFF
330
1F
100
AcDbEntity
  8
SLD-0
100
AcDbLine
 10
-1872.8353627297
 20
-579.4605980308999
 30
0.0
 11
-1872.8353627297
 21
-578.0353615674
 31
0.0
  0
LINE
  5
E00
330
1F
100
AcDbEntity
  8
SLD-0
100
AcDbLine
 10
-1870.9715850922
 20
-576.1715839299
 30
0.0
 11
-1872.8353627297
 21
-578.0353615674
 31
0.0
  0
LINE
  5
E01
330
1F
100
AcDbEntity
  8
SLD-0
100
AcDbLine
 10
-1872.8353627297
 20
-603.5353610905
 30
0.0
 11
-1870.9715850922
 21
-605.3991387279999
 31
0.0
  0
LINE
  5
E02
330
1F
100
AcDbEntity
  8
SLD-0
100
AcDbLine
 10
-1866.8353626775
 20
-602.0353506001001
 30
0.0
 11
-1860.8353626254
 21
-602.0353506001001
 31
0.0
  0
LINE
  5
E03
330
1F
100
AcDbEntity
  8
SLD-0
100
AcDbLine
 10
-1872.8353627297
 20
-603.5353610905
 30
0.0
 11
-1872.8353627297
 21
-602.1101246269998
 31
0.0
  0
LINE
  5
E04
330
1F
100
AcDbEntity
  8
SLD-0
100
AcDbLine
 10
-2208.8635949689
 20
-698.1955538186
 30
0.0
 11
-2204.9636034566
 21
-698.1955538186
 31
0.0
  0
LINE
  5
E05
330
1F
100
AcDbEntity
  8
SLD-0
100
AcDbLine
 10
-2208.8635949689
 20
-698.1955538186
 30
0.0
 11
-2208.8635949689
 21
-655.6955347451
 31
0.0
  0
LINE
  5
E06
330
1F
100
AcDbEntity
  8
SLD-0
100
AcDbLine
 10
-1531.063595255
 20
-698.1955538186
 30
0.0
 11
-1534.9636165696
 21
-698.1955538186
 31
0.0
  0
LINE
  5
E07
330
1F
100
AcDbEntity
  8
SLD-0
100
AcDbLine
 10
-2208.8635949689
 20
-655.6955347451
 30
0.0
 11
-2024.4636027413
 21
-655.6955347451
 31
0.0
  0
LINE
  5
E08
330
1F
100
AcDbEntity
  8
SLD-0
100
AcDbLine
 10
-1866.4636047828
 20
-655.6955347451
 30
0.0
 11
-1531.063595255
 21
-655.6955347451
 31
0.0
  0
LINE
  5
E09
330
1F
100
AcDbEntity
  8
SLD-0
100
AcDbLine
 10
-1531.063595255
 20
-655.6955347451
 30
0.0
 11
-1531.063595255
 21
-698.1955538186
 31
0.0
  0
LINE
  5
E0A
330
1F
100
AcDbEntity
  8
SLD-0
100
AcDbLine
 10
-2204.9636034566
 20
-700.6955514344
 30
0.0
 11
-2024.4636027413
 21
-700.6955514344
 31
0.0
  0
LINE
  5
E0B
330
1F
100
AcDbEntity
  8
SLD-0
100
AcDbLine
 10
-1866.4636047828
 20
-700.6955514344
 30
0.0
 11
-1534.9636165696
 21
-700.6955514344
 31
0.0
  0
LINE
  5
E0C
330
1F
100
AcDbEntity
  8
SLD-0
100
AcDbLine
 10
-2204.9636034566
 20
-698.1955538186
 30
0.0
 11
-2204.9636034566
 21
-700.6955514344
 31
0.0
  0
LINE
  5
E0D
330
1F
100
AcDbEntity
  8
SLD-0
100
AcDbLine
 10
-1534.9636165696
 20
-698.1955538186
 30
0.0
 11
-1534.9636165696
 21
-700.6955514344
 31
0.0
  0
ARC
  5
E0E
330
1F
100
AcDbEntity
  8
SLD-0
100
AcDbCircle
 10
-1534.963604654
 20
-698.195547925
 30
0.0
 40
2.5
100
AcDbArc
 50
270.0
 51
0.0
  0
ARC
  5
E0F
330
1F
100
AcDbEntity
  8
SLD-0
100
AcDbCircle
 10
-1534.963604654
 20
-698.195547925
 30
0.0
 40
1.0
100
AcDbArc
 50
270.0
 51
0.0
  0
ARC
  5
E10
330
1F
100
AcDbEntity
  8
SLD-0
100
AcDbCircle
 10
-2204.963604654
 20
-698.195547925
 30
0.0
 40
2.500000000000114
100
AcDbArc
 50
180.0
 51
270.0
  0
ARC
  5
E11
330
1F
100
AcDbEntity
  8
SLD-0
100
AcDbCircle
 10
-2204.963604654
 20
-698.195547925
 30
0.0
 40
1.000000000000113
100
AcDbArc
 50
180.0
 51
270.0
  0
CIRCLE
  5
E30
330
1F
100
AcDbEntity
  8
SLD-0
100
AcDbCircle
 10
-1696.663604654
 20
-350.9455479251
 30
0.0
 40
197.0
  0
CIRCLE
  5
E31
330
1F
100
AcDbEntity
  8
SLD-0
100
AcDbCircle
 10
-1696.663604654
 20
-350.9455479251
 30
0.0
 40
199.5000000000001
  0
CIRCLE
  5
E32
330
1F
100
AcDbEntity
  8
SLD-0
100
AcDbCircle
 10
-1696.663604654
 20
-350.9455479251
 30
0.0
 40
213.0420201433256
  0
CIRCLE
  5
E33
330
1F
100
AcDbEntity
  8
SLD-0
100
AcDbCircle
 10
-1696.663604654
 20
-350.9455479251
 30
0.0
 40
180.0
  0
LINE
  5
E38
330
1F
100
AcDbEntity
  8
SLD-0
100
AcDbLine
 10
-1731.9215772944
 20
-121.4654068145
 30
0.0
 11
-2159.0056209164
 21
-121.4654068145
 31
0.0
  0
LINE
  5
E39
330
1F
100
AcDbEntity
  8
SLD-0
100
AcDbLine
 10
-1732.2636036473
 20
-122.4051038417
 30
0.0
 11
-2158.6636094647
 21
-122.4051038417
 31
0.0
  0
LINE
  5
E3A
330
1F
100
AcDbEntity
  8
SLD-0
100
AcDbLine
 10
-1746.2636022168
 20
-116.2453363332
 30
0.0
 11
-2144.6636108952
 21
-116.2453363332
 31
0.0
  0
LINE
  5
E3B
330
1F
100
AcDbEntity
  8
SLD-0
100
AcDbLine
 10
-1825.0680094855
 20
-180.9478620681
 30
0.0
 11
-1868.1886693733
 21
-180.9478620681
 31
0.0
  0
LINE
  5
E3C
330
1F
100
AcDbEntity
  8
SLD-0
100
AcDbLine
 10
-1871.7385404083
 20
-180.9478620681
 30
0.0
 11
-2028.1886695223
 21
-180.9478620681
 31
0.0
  0
LINE
  5
E3D
330
1F
100
AcDbEntity
  8
SLD-0
100
AcDbLine
 10
-2031.7385433512
 20
-180.9478620681
 30
0.0
 11
-2145.4635946351
 21
-180.9478620681
 31
0.0
  0
LINE
  5
E3E
330
1F
100
AcDbEntity
  8
SLD-0
100
AcDbLine
 10
-1745.4636035758
 20
-115.9455547723
 30
0.0
 11
-2145.4635946351
 21
-115.9455547723
 31
0.0
  0
LINE
  5
E3F
330
1F
100
AcDbEntity
  8
SLD-0
100
AcDbLine
 10
-1811.236271103
 20
-171.3348398597999
 30
0.0
 11
-2145.4635946351
 21
-171.3348398597999
 31
0.0
  0
LINE
  5
E40
330
1F
100
AcDbEntity
  8
SLD-0
100
AcDbLine
 10
-1807.1029497581
 20
-168.7641660365
 30
0.0
 11
-2143.663593967501
 21
-168.7641660365
 31
0.0
  0
LINE
  5
E41
330
1F
100
AcDbEntity
  8
SLD-0
100
AcDbLine
 10
-2238.2636158066
 20
-181.5455476435
 30
0.0
 11
-2238.2636158066
 21
-182.2455445918
 31
0.0
  0
LINE
  5
E42
330
1F
100
AcDbEntity
  8
SLD-0
100
AcDbLine
 10
-1500.6636170941
 20
-182.2455445918
 30
0.0
 11
-1500.6636170941
 21
-181.5455476435
 31
0.0
  0
LINE
  5
E43
330
1F
100
AcDbEntity
  8
SLD-0
100
AcDbLine
 10
-1500.6636170941
 20
-182.2455445918
 30
0.0
 11
-1566.5589956837
 21
-182.2455445918
 31
0.0
  0
LINE
  5
E44
330
1F
100
AcDbEntity
  8
SLD-0
100
AcDbLine
 10
-1826.7682245272
 20
-182.2455445918
 30
0.0
 11
-2238.2636158066
 21
-182.2455445918
 31
0.0
  0
LINE
  5
E45
330
1F
100
AcDbEntity
  8
SLD-0
100
AcDbLine
 10
-1500.6636170941
 20
-181.5455476435
 30
0.0
 11
-1567.4717216092
 21
-181.5455476435
 31
0.0
  0
LINE
  5
E46
330
1F
100
AcDbEntity
  8
SLD-0
100
AcDbLine
 10
-1825.8554874259
 20
-181.5455476435
 30
0.0
 11
-2238.2636158066
 21
-181.5455476435
 31
0.0
  0
LINE
  5
E47
330
1F
100
AcDbEntity
  8
SLD-0
100
AcDbLine
 10
-2243.2636110383
 20
-182.2455445918
 30
0.0
 11
-2243.2636110383
 21
-181.5455476435
 31
0.0
  0
LINE
  5
E48
330
1F
100
AcDbEntity
  8
SLD-0
100
AcDbLine
 10
-2243.2636110383
 20
-181.5455476435
 30
0.0
 11
-2238.2636158066
 21
-181.5455476435
 31
0.0
  0
LINE
  5
E49
330
1F
100
AcDbEntity
  8
SLD-0
100
AcDbLine
 10
-1495.6635920602
 20
-181.5455476435
 30
0.0
 11
-1495.6635920602
 21
-182.2455445918
 31
0.0
  0
LINE
  5
E4A
330
1F
100
AcDbEntity
  8
SLD-0
100
AcDbLine
 10
-1495.6635920602
 20
-182.2455445918
 30
0.0
 11
-1496.6636089879
 21
-182.2455445918
 31
0.0
  0
LINE
  5
E4B
330
1F
100
AcDbEntity
  8
SLD-0
100
AcDbLine
 10
-1500.6636170941
 20
-181.5455476435
 30
0.0
 11
-1495.6635920602
 21
-181.5455476435
 31
0.0
  0
LINE
  5
E50
330
1F
100
AcDbEntity
  8
SLD-0
100
AcDbLine
 10
-1755.4636014896
 20
-570.6455479058
 30
0.0
 11
-1665.4636053639
 21
-570.6455479058
 31
0.0
  0
LINE
  5
E58
330
1F
100
AcDbEntity
  8
SLD-0
100
AcDbLine
 10
-1755.4624615508
 20
-577.6490638645998
 30
0.0
 11
-1755.4636014896
 21
-555.7123975831503
 31
0.0
  0
LINE
  5
E5D
330
1F
100
AcDbEntity
  8
SLD-0
100
AcDbLine
 10
-1664.4636033374
 20
-570.6455479058
 30
0.0
 11
-1664.4636033374
 21
-577.6455471904998
 31
0.0
  0
LWPOLYLINE
  5
E5E
330
1F
100
AcDbEntity
  8
SLD-0
100
AcDbPolyline
 90
        3
 70
   128
 43
0.0
 10
-1664.4636033374
 20
-577.6455471904998
 10
-1664.4638864594
 20
-577.6464412601999
 10
-1664.4647507268
 20
-577.6490638645998
  0
LINE
  5
E60
330
1F
100
AcDbEntity
  8
SLD-0
100
AcDbLine
 10
-1665.4636053639
 20
-570.6455479058
 30
0.0
 11
-1664.4636033374
 21
-570.6455479058
 31
0.0
  0
LINE
  5
E62
330
1F
100
AcDbEntity
  8
SLD-0
100
AcDbLine
 10
-1750.8894590932
 20
-591.6504035386
 30
0.0
 11
-1750.9147314625
 21
-591.64554576
 31
0.0
  0
LINE
  5
E63
330
1F
100
AcDbEntity
  8
SLD-0
100
AcDbLine
 10
-1750.9147314625
 20
-591.64554576
 30
0.0
 11
-1755.4624615508
 21
-577.6490638645998
 31
0.0
  0
LINE
  5
E64
330
1F
100
AcDbEntity
  8
SLD-0
100
AcDbLine
 10
-1664.4647507268
 20
-577.6490638645998
 30
0.0
 11
-1669.012480815
 21
-591.64554576
 31
0.0
  0
LINE
  5
E65
330
1F
100
AcDbEntity
  8
SLD-0
100
AcDbLine
 10
-1669.012480815
 20
-591.64554576
 30
0.0
 11
-1669.0377531844
 21
-591.6504035386
 31
0.0
  0
ARC
  5
E68
330
1F
100
AcDbEntity
  8
SLD-0
100
AcDbCircle
 10
-1709.963604654001
 20
-378.5962431092051
 30
0.0
 40
216.9493048158022
100
AcDbArc
 50
259.1264291429002
 51
271.5673095334004
  0
ARC
  5
E69
330
1F
100
AcDbEntity
  8
SLD-0
100
AcDbCircle
 10
-1709.963604654
 20
-378.5962431092
 30
0.0
 40
216.9493048158073
100
AcDbArc
 50
271.5673095334
 51
280.8735708571
  0
LINE
  5
E70
330
1F
100
AcDbEntity
  8
SLD-0
100
AcDbLine
 10
-1661.9636057215
 20
-570.6455479058
 30
0.0
 11
-1661.9636057215
 21
-572.5873033198
 31
0.0
  0
LINE
  5
E71
330
1F
100
AcDbEntity
  8
SLD-0
100
AcDbLine
 10
-1664.4636033374
 20
-577.6455471904998
 30
0.0
 11
-1664.4636033374
 21
-579.145557681
 31
0.0
  0
LINE
  5
E72
330
1F
100
AcDbEntity
  8
SLD-0
100
AcDbLine
 10
-1661.9636057215
 20
-570.6455479058
 30
0.0
 11
-1664.4636033374
 21
-570.6455479058
 31
0.0
  0
SPLINE
  5
E73
330
1F
100
AcDbEntity
  8
SLD-0
100
AcDbSpline
210
0.0
220
0.0
230
1.0
 70
     8
 71
     3
 72
    12
 73
     8
 74
     0
 42
0.000000001
 43
0.0000000001
 40
0.0
 40
0.0
 40
0.0
 40
0.0
 40
0.2431745362653855
 40
0.5778138815726189
 40
0.874028642771348
 40
0.9976817363953855
 40
1.0
 40
1.0
 40
1.0
 40
1.0
 10
-1742.463604946677
 20
-593.0974254997992
 30
0.0
 10
-1742.512829985198
 20
-593.0899887610877
 30
0.0
 10
-1742.62979498908
 20
-593.0723181162609
 30
0.0
 10
-1743.505857954091
 20
-592.9378251826753
 30
0.0
 10
-1744.345026602141
 20
-592.8043307119536
 30
0.0
 10
-1744.83138626949
 20
-592.7253038672239
 30
0.0
 10
-1744.976730460123
 20
-592.7015513369013
 30
0.0
 10
-1744.979405243937
 20
-592.7011142166878
 30
0.0
  0
LINE
  5
E75
330
1F
100
AcDbEntity
  8
SLD-0
100
AcDbLine
 10
-1645.9636030989
 20
-586.7691705617
 30
0.0
 11
-1645.9636030989
 21
-582.7691922578
 31
0.0
  0
LINE
  5
E76
330
1F
100
AcDbEntity
  8
SLD-0
100
AcDbLine
 10
-1644.4636075097
 20
-582.7691922578
 30
0.0
 11
-1645.9636030989
 21
-582.7691922578
 31
0.0
  0
LINE
  5
E77
330
1F
100
AcDbEntity
  8
SLD-0
100
AcDbLine
 10
-1644.4636075097
 20
-587.7691874894
 30
0.0
 11
-1644.4636075097
 21
-582.7691922578
 31
0.0
  0
LINE
  5
E78
330
1F
100
AcDbEntity
  8
SLD-0
100
AcDbLine
 10
-1645.9636030989
 20
-586.7691705617
 30
0.0
 11
-1662.4635992842
 21
-586.7691705617
 31
0.0
  0
LINE
  5
E79
330
1F
100
AcDbEntity
  8
SLD-0
100
AcDbLine
 10
-1644.4636075097
 20
-587.7691874894
 30
0.0
 11
-1662.4635992842
 21
-587.7691874894
 31
0.0
  0
LINE
  5
E7A
330
1F
100
AcDbEntity
  8
SLD-0
100
AcDbLine
 10
-1662.4635992842
 20
-587.7691874894
 30
0.0
 11
-1662.4635992842
 21
-586.7691705617
 31
0.0
  0
LINE
  5
E7B
330
1F
100
AcDbEntity
  8
SLD-0
100
AcDbLine
 10
-1644.4636075097
 20
-580.7691882045998
 30
0.0
 11
-1645.9636030989
 21
-580.7691882045998
 31
0.0
  0
LINE
  5
E7C
330
1F
100
AcDbEntity
  8
SLD-0
100
AcDbLine
 10
-1644.4636075097
 20
-582.7691922578
 30
0.0
 11
-1644.4636075097
 21
-580.7691882045998
 31
0.0
  0
LINE
  5
E7D
330
1F
100
AcDbEntity
  8
SLD-0
100
AcDbLine
 10
-1645.9636030989
 20
-582.7691922578
 30
0.0
 11
-1645.9636030989
 21
-580.7691882045998
 31
0.0
  0
LINE
  5
E7E
330
1F
100
AcDbEntity
  8
SLD-0
100
AcDbLine
 10
-1645.9636030989
 20
-571.4793274792
 30
0.0
 11
-1659.4636081057
 21
-571.4793274792
 31
0.0
  0
LINE
  5
E7F
330
1F
100
AcDbEntity
  8
SLD-0
100
AcDbLine
 10
-1659.4636081057
 20
-571.4793274792
 30
0.0
 11
-1659.4636081057
 21
-568.9282188805
 31
0.0
  0
LINE
  5
E80
330
1F
100
AcDbEntity
  8
SLD-0
100
AcDbLine
 10
-1659.4636081057
 20
-568.9282188805
 30
0.0
 11
-1662.4635992842
 21
-568.9282188805
 31
0.0
  0
LINE
  5
E81
330
1F
100
AcDbEntity
  8
SLD-0
100
AcDbLine
 10
-1662.4635992842
 20
-568.9282188805
 30
0.0
 11
-1662.4635992842
 21
-565.3894315156
 31
0.0
  0
LINE
  5
E82
330
1F
100
AcDbEntity
  8
SLD-0
100
AcDbLine
 10
-1648.8865254718
 20
-565.3894315156
 30
0.0
 11
-1662.4635992842
 21
-565.3894315156
 31
0.0
  0
LINE
  5
E83
330
1F
100
AcDbEntity
  8
SLD-0
100
AcDbLine
 10
-1648.8865254718
 20
-565.3894315156
 30
0.0
 11
-1644.4636075097
 21
-569.9218134077998
 31
0.0
  0
LINE
  5
E84
330
1F
100
AcDbEntity
  8
SLD-0
100
AcDbLine
 10
-1644.4636075097
 20
-580.7691882045998
 30
0.0
 11
-1644.4636075097
 21
-569.9218134077998
 31
0.0
  0
LINE
  5
E85
330
1F
100
AcDbEntity
  8
SLD-0
100
AcDbLine
 10
-1645.9636030989
 20
-580.7691882045998
 30
0.0
 11
-1645.9636030989
 21
-571.4793274792
 31
0.0
  0
LINE
  5
E86
330
1F
100
AcDbEntity
  8
SLD-0
100
AcDbLine
 10
-1659.4636081057
 20
-572.5873033198
 30
0.0
 11
-1662.4635992842
 21
-572.5873033198
 31
0.0
  0
LINE
  5
E87
330
1F
100
AcDbEntity
  8
SLD-0
100
AcDbLine
 10
-1659.4636081057
 20
-571.4793274792
 30
0.0
 11
-1659.4636081057
 21
-572.5873033198
 31
0.0
  0
LINE
  5
E88
330
1F
100
AcDbEntity
  8
SLD-0
100
AcDbLine
 10
-1662.4635992842
 20
-572.5873033198
 30
0.0
 11
-1662.4635992842
 21
-586.7691705617
 31
0.0
  0
LINE
  5
E89
330
1F
100
AcDbEntity
  8
SLD-0
100
AcDbLine
 10
-1649.4636027413
 20
-558.6931476982998
 30
0.0
 11
-1649.4636027413
 21
-564.2343680056
 31
0.0
  0
LINE
  5
E8A
330
1F
100
AcDbEntity
  8
SLD-0
100
AcDbLine
 10
-1662.4635992842
 20
-564.2343680056
 30
0.0
 11
-1649.4636027413
 21
-564.2343680056
 31
0.0
  0
LINE
  5
E8B
330
1F
100
AcDbEntity
  8
SLD-0
100
AcDbLine
 10
-1662.4635992842
 20
-564.2343680056
 30
0.0
 11
-1662.4635992842
 21
-561.2245569619
 31
0.0
  0
LINE
  5
E8C
330
1F
100
AcDbEntity
  8
SLD-0
100
AcDbLine
 10
-1659.4636081057
 20
-571.0952202471998
 30
0.0
 11
-1661.9636057215
 21
-571.0952202471998
 31
0.0
  0
LINE
  5
E8D
330
1F
100
AcDbEntity
  8
SLD-0
100
AcDbLine
 10
-1659.4636081057
 20
-569.4898287447998
 30
0.0
 11
-1662.4635992842
 21
-569.4898287447998
 31
0.0
  0
LINE
  5
E8E
330
1F
100
AcDbEntity
  8
SLD-0
100
AcDbLine
 10
-1662.4635992842
 20
-568.9282188805
 30
0.0
 11
-1662.4635992842
 21
-569.4898287447998
 31
0.0
  0
SPLINE
  5
E8F
330
1F
100
AcDbEntity
  8
SLD-0
100
AcDbSpline
210
0.0
220
0.0
230
1.0
 70
     8
 71
     3
 72
    11
 73
     7
 74
     0
 42
0.000000001
 43
0.0000000001
 40
0.0
 40
0.0
 40
0.0
 40
0.0
 40
0.200235205387273
 40
0.3996562989909532
 40
0.670423886780064
 40
1.0
 40
1.0
 40
1.0
 40
1.0
 10
-1649.463602741304
 20
-564.2343680056357
 30
0.0
 10
-1649.45684862031
 20
-564.3134948350267
 30
0.0
 10
-1649.443367839074
 20
-564.4714267817296
 30
0.0
 10
-1649.33429623189
 20
-564.7619167009199
 30
0.0
 10
-1649.150732017466
 20
-565.089061935823
 30
0.0
 10
-1648.980163831846
 20
-565.2829764889069
 30
0.0
 10
-1648.886525471751
 20
-565.3894315155768
 30
0.0
  0
LINE
  5
E90
330
1F
100
AcDbEntity
  8
SLD-0
100
AcDbLine
 10
-1662.4635992842
 20
-565.3894315156
 30
0.0
 11
-1662.4635992842
 21
-564.2343680056
 31
0.0
  0
LINE
  5
E91
330
1F
100
AcDbEntity
  8
SLD-0
100
AcDbLine
 10
-1662.4635992842
 20
-569.4898287447998
 30
0.0
 11
-1662.4635992842
 21
-570.6455479058
 31
0.0
  0
LINE
  5
E93
330
1F
100
AcDbEntity
  8
SLD-0
100
AcDbLine
 10
-1664.4636033374
 20
-561.5400890502
 30
0.0
 11
-1664.4636033374
 21
-570.6455479058
 31
0.0
  0
LINE
  5
E94
330
1F
100
AcDbEntity
  8
SLD-0
100
AcDbLine
 10
-1664.4636033374
 20
-568.6344424876
 30
0.0
 11
-1662.4635992842
 21
-568.6344424876
 31
0.0
  0
LINE
  5
F15
330
1F
100
AcDbEntity
  8
SLD-0
100
AcDbLine
 10
-2209.8097591
 20
-150.4567633065
 30
0.0
 11
-2209.5930962163
 21
-150.6955544146
 31
0.0
  0
LINE
  5
F54
330
1F
100
AcDbEntity
  8
SLD-0
100
AcDbLine
 10
-2160.4636101323
 20
-535.6455514821
 30
0.0
 11
-2184.463599165
 21
-535.6455514821
 31
0.0
  0
LINE
  5
F55
330
1F
100
AcDbEntity
  8
SLD-0
100
AcDbLine
 10
-2160.4636101323
 20
-566.6455547007
 30
0.0
 11
-2160.4636101323
 21
-535.6455514821
 31
0.0
  0
LINE
  5
F57
330
1F
100
AcDbEntity
  8
SLD-0
100
AcDbLine
 10
-2184.463599165
 20
-566.6455547007
 30
0.0
 11
-2184.463599165
 21
-535.6455514821
 31
0.0
  0
LINE
  5
F5C
330
1F
100
AcDbEntity
  8
SLD-0
100
AcDbLine
 10
-2184.463599165
 20
-574.6455411109
 30
0.0
 11
-2184.463599165
 21
-566.6455547007
 31
0.0
  0
LINE
  5
F5D
330
1F
100
AcDbEntity
  8
SLD-0
100
AcDbLine
 10
-2160.4636101323
 20
-566.6455547007
 30
0.0
 11
-2160.4636101323
 21
-574.6455411109
 31
0.0
  0
ELLIPSE
  5
1023
330
1F
100
AcDbEntity
  8
SLD-0
100
AcDbEllipse
 10
-1994.3291946234
 20
-616.6393798412
 30
0.0
 11
-2.837143407733947
 21
-2.837143407734287
 31
9.950000000000001E-14
210
1.753524332410564E-14
220
1.753524332410564E-14
230
1.0
 40
0.9969277960999999
 41
5.499325607748127
 42
7.067045006610936
  0
ELLIPSE
  5
1026
330
1F
100
AcDbEntity
  8
SLD-0
100
AcDbEllipse
 10
-1896.3415307911
 20
-616.6393798412
 30
0.0
 11
-2.837143407734173
 21
2.837143407734173
 31
9.950000000000001E-14
210
1.753524332410530E-14
220
-1.753524332410530E-14
230
1.0
 40
0.9969277960999999
 41
2.35773295415837
 42
3.925452353021228
  0
LINE
  5
1028
330
1F
100
AcDbEntity
  8
SLD-0
100
AcDbLine
 10
-1998.335355361
 20
-616.6517208012
 30
0.0
 11
-1998.335355361
 21
-534.1455409916999
 31
0.0
  0
LINE
  5
1029
330
1F
100
AcDbEntity
  8
SLD-0
100
AcDbLine
 10
-1896.3292030888
 20
-620.6455598267
 30
0.0
 11
-1994.3415163356
 21
-620.6455598267
 31
0.0
  0
LINE
  5
102A
330
1F
100
AcDbEntity
  8
SLD-0
100
AcDbLine
 10
-1892.3353640633
 20
-534.1455409916999
 30
0.0
 11
-1892.3353640633
 21
-616.6517208012
 31
0.0
  0
LINE
  5
102B
330
1F
100
AcDbEntity
  8
SLD-0
100
AcDbLine
 10
-1866.4636047828
 20
-652.6455352696
 30
0.0
 11
-2024.4636027413
 21
-652.6455352696
 31
0.0
  0
LINE
  5
102C
330
1F
100
AcDbEntity
  8
SLD-0
100
AcDbLine
 10
-2242.4635974961
 20
-485.6455544623
 30
0.0
 11
-2242.4635974961
 21
-484.1455439718998
 31
0.0
  0
LINE
  5
102D
330
1F
100
AcDbEntity
  8
SLD-0
100
AcDbLine
 10
-2237.4636022645
 20
-484.1455439718998
 30
0.0
 11
-2237.4636022645
 21
-485.6455544623
 31
0.0
  0
LINE
  5
102E
330
1F
100
AcDbEntity
  8
SLD-0
100
AcDbLine
 10
-2242.4635974961
 20
-484.1455439718998
 30
0.0
 11
-2237.4636022645
 21
-484.1455439718998
 31
0.0
  0
LINE
  5
102F
330
1F
100
AcDbEntity
  8
SLD-0
100
AcDbLine
 10
-2237.4636022645
 20
-485.6455544623
 30
0.0
 11
-2239.6430461007
 21
-485.6455544623
 31
0.0
  0
LINE
  5
1031
330
1F
100
AcDbEntity
  8
SLD-0
100
AcDbLine
 10
-1502.4636177617
 20
-484.1455439718998
 30
0.0
 11
-1530.3967682915
 21
-484.1455439718998
 31
0.0
  0
LINE
  5
1032
330
1F
100
AcDbEntity
  8
SLD-0
100
AcDbLine
 10
-1862.9304454001
 20
-484.1455439718998
 30
0.0
 11
-2237.4636022645
 21
-484.1455439718998
 31
0.0
  0
LINE
  5
1033
330
1F
100
AcDbEntity
  8
SLD-0
100
AcDbLine
 10
-1502.4636177617
 20
-485.6455544623
 30
0.0
 11
-1531.6096334057
 21
-485.6455544623
 31
0.0
  0
LINE
  5
1034
330
1F
100
AcDbEntity
  8
SLD-0
100
AcDbLine
 10
-1861.7175726025
 20
-485.6455544623
 30
0.0
 11
-2237.4636022645
 21
-485.6455544623
 31
0.0
  0
LINE
  5
1035
330
1F
100
AcDbEntity
  8
SLD-0
100
AcDbLine
 10
-1497.4635927277
 20
-484.1455439718998
 30
0.0
 11
-1497.4635927277
 21
-485.6455544623
 31
0.0
  0
LINE
  5
1036
330
1F
100
AcDbEntity
  8
SLD-0
100
AcDbLine
 10
-1502.4636177617
 20
-484.1455439718998
 30
0.0
 11
-1497.4635927277
 21
-484.1455439718998
 31
0.0
  0
LINE
  5
1037
330
1F
100
AcDbEntity
  8
SLD-0
100
AcDbLine
 10
-1500.2841441231
 20
-485.6455544623
 30
0.0
 11
-1502.4636177617
 21
-485.6455544623
 31
0.0
  0
LINE
  5
1041
330
1F
100
AcDbEntity
  8
SLD-0
100
AcDbLine
 10
-2242.4635974961
 20
-534.1455409916999
 30
0.0
 11
-1805.4048693078
 21
-534.1455409916999
 31
0.0
  0
LINE
  5
1042
330
1F
100
AcDbEntity
  8
SLD-0
100
AcDbLine
 10
-1587.9223434525
 20
-534.1455409916999
 30
0.0
 11
-1497.4635927277
 21
-534.1455409916999
 31
0.0
  0
LINE
  5
1046
330
1F
100
AcDbEntity
  8
SLD-0
100
AcDbLine
 10
-1497.6403801041
 20
-485.6455544623
 30
0.0
 11
-1500.2841441231
 21
-485.6455544623
 31
0.0
  0
LINE
  5
1047
330
1F
100
AcDbEntity
  8
SLD-0
100
AcDbLine
 10
-2239.6430461007
 20
-485.6455544623
 30
0.0
 11
-2242.286839922
 21
-485.6455544623
 31
0.0
  0
ARC
  5
1048
330
1F
100
AcDbEntity
  8
SLD-0
100
AcDbCircle
 10
-1497.463604654
 20
-531.6455479251
 30
0.0
 40
2.5
100
AcDbArc
 50
270.0
 51
0.0
  0
ARC
  5
104D
330
1F
100
AcDbEntity
  8
SLD-0
100
AcDbCircle
 10
-2242.463604654
 20
-531.6455479251
 30
0.0
 40
2.499999999999884
100
AcDbArc
 50
180.0
 51
270.0
  0
LINE
  5
104F
330
1F
100
AcDbEntity
  8
SLD-0
100
AcDbLine
 10
-2244.9635951119
 20
-488.1455520780999
 30
0.0
 11
-2244.9635951119
 21
-531.6455433758999
 31
0.0
  0
LINE
  5
1050
330
1F
100
AcDbEntity
  8
SLD-0
100
AcDbLine
 10
-1494.9635951119
 20
-531.6455433758999
 30
0.0
 11
-1494.9635951119
 21
-488.1455520780999
 31
0.0
  0
ARC
  5
1052
330
1F
100
AcDbEntity
  8
SLD-0
100
AcDbCircle
 10
-1497.463604654
 20
-488.1455479251
 30
0.0
 40
2.500000000000055
100
AcDbArc
 50
0.0
 51
90.0
  0
LINE
  5
1054
330
1F
100
AcDbEntity
  8
SLD-0
100
AcDbLine
 10
-1497.4635927277
 20
-485.6849233301998
 30
0.0
 11
-1497.4635927277
 21
-485.6455544623
 31
0.0
  0
ARC
  5
1055
330
1F
100
AcDbEntity
  8
SLD-0
100
AcDbCircle
 10
-2242.463604654
 20
-488.1455479251
 30
0.0
 40
2.500000000000114
100
AcDbArc
 50
90.0
 51
180.0
  0
LINE
  5
1056
330
1F
100
AcDbEntity
  8
SLD-0
100
AcDbLine
 10
-2242.4635974961
 20
-485.6849233301998
 30
0.0
 11
-2242.4635974961
 21
-485.6455544623
 31
0.0
  0
LINE
  5
1058
330
1F
100
AcDbEntity
  8
SLD-0
100
AcDbLine
 10
-1497.6403801041
 20
-485.6455544623
 30
0.0
 11
-1497.4635927277
 21
-485.6455544623
 31
0.0
  0
LINE
  5
1059
330
1F
100
AcDbEntity
  8
SLD-0
100
AcDbLine
 10
-2242.4635974961
 20
-485.6455544623
 30
0.0
 11
-2242.286839922
 21
-485.6455544623
 31
0.0
  0
LINE
  5
105A
330
1F
100
AcDbEntity
  8
SLD-0
100
AcDbLine
 10
-1496.0635988312
 20
-770.6955442817999
 30
0.0
 11
-1496.0635988312
 21
-533.7167749794997
 31
0.0
  0
LINE
  5
105B
330
1F
100
AcDbEntity
  8
SLD-0
100
AcDbLine
 10
-1496.0635988312
 20
-486.0743204744998
 30
0.0
 11
-1496.0635988312
 21
-479.0361444148
 31
0.0
  0
LINE
  5
105D
330
1F
100
AcDbEntity
  8
SLD-0
100
AcDbLine
 10
-1496.0635988312
 20
-182.3549489173
 30
0.0
 11
-1496.0635988312
 21
-182.2455445918
 31
0.0
  0
LINE
  5
105E
330
1F
100
AcDbEntity
  8
SLD-0
100
AcDbLine
 10
-1496.0635988312
 20
-181.5455476435
 30
0.0
 11
-1496.0635988312
 21
-150.6955544146
 31
0.0
  0
LINE
  5
105F
330
1F
100
AcDbEntity
  8
SLD-0
100
AcDbLine
 10
-1496.0635988312
 20
-770.6955442817999
 30
0.0
 11
-1499.0635900098
 21
-770.6955442817999
 31
0.0
  0
LINE
  5
1060
330
1F
100
AcDbEntity
  8
SLD-0
100
AcDbLine
 10
-1496.0635988312
 20
-150.6955544146
 30
0.0
 11
-1499.0635900098
 21
-150.6955544146
 31
0.0
  0
LINE
  5
1061
330
1F
100
AcDbEntity
  8
SLD-0
100
AcDbLine
 10
-1528.0636040764
 20
-770.6955442817999
 30
0.0
 11
-1531.063595255
 21
-770.6955442817999
 31
0.0
  0
LINE
  5
1062
330
1F
100
AcDbEntity
  8
SLD-0
100
AcDbLine
 10
-1531.063595255
 20
-770.6955442817999
 30
0.0
 11
-1531.063595255
 21
-698.1955538186
 31
0.0
  0
LINE
  5
1063
330
1F
100
AcDbEntity
  8
SLD-0
100
AcDbLine
 10
-1531.063595255
 20
-655.6955347451
 30
0.0
 11
-1531.063595255
 21
-534.1455409916999
 31
0.0
  0
LINE
  5
1064
330
1F
100
AcDbEntity
  8
SLD-0
100
AcDbLine
 10
-1531.063595255
 20
-181.5455476435
 30
0.0
 11
-1531.063595255
 21
-150.6955544146
 31
0.0
  0
LINE
  5
1065
330
1F
100
AcDbEntity
  8
SLD-0
100
AcDbLine
 10
-1528.0636040764
 20
-150.6955544146
 30
0.0
 11
-1531.063595255
 21
-150.6955544146
 31
0.0
  0
LINE
  5
1066
330
1F
100
AcDbEntity
  8
SLD-0
100
AcDbLine
 10
-1499.0635900098
 20
-770.6955442817999
 30
0.0
 11
-1528.0636040764
 21
-770.6955442817999
 31
0.0
  0
LINE
  5
1067
330
1F
100
AcDbEntity
  8
SLD-0
100
AcDbLine
 10
-1499.0635900098
 20
-150.6955544146
 30
0.0
 11
-1528.0636040764
 21
-150.6955544146
 31
0.0
  0
LINE
  5
1068
330
1F
100
AcDbEntity
  8
SLD-0
100
AcDbLine
 10
-2211.8636159497
 20
-770.6955442817999
 30
0.0
 11
-2240.8636002141
 21
-770.6955442817999
 31
0.0
  0
LINE
  5
1069
330
1F
100
AcDbEntity
  8
SLD-0
100
AcDbLine
 10
-2211.8636159497
 20
-150.6955544146
 30
0.0
 11
-2240.8636002141
 21
-150.6955544146
 31
0.0
  0
LINE
  5
106A
330
1F
100
AcDbEntity
  8
SLD-0
100
AcDbLine
 10
-2240.8636002141
 20
-770.6955442817999
 30
0.0
 11
-2243.8635913926
 21
-770.6955442817999
 31
0.0
  0
LINE
  5
106B
330
1F
100
AcDbEntity
  8
SLD-0
100
AcDbLine
 10
-2243.8635913926
 20
-770.6955442817999
 30
0.0
 11
-2243.8635913926
 21
-533.7167749794997
 31
0.0
  0
LINE
  5
106C
330
1F
100
AcDbEntity
  8
SLD-0
100
AcDbLine
 10
-2243.8635913926
 20
-486.0743204744998
 30
0.0
 11
-2243.8635913926
 21
-479.0361444148
 31
0.0
  0
LINE
  5
106E
330
1F
100
AcDbEntity
  8
SLD-0
100
AcDbLine
 10
-2243.8635913926
 20
-182.3549489173
 30
0.0
 11
-2243.8635913926
 21
-150.6955544146
 31
0.0
  0
LINE
  5
106F
330
1F
100
AcDbEntity
  8
SLD-0
100
AcDbLine
 10
-2240.8636002141
 20
-150.6955544146
 30
0.0
 11
-2243.8635913926
 21
-150.6955544146
 31
0.0
  0
LINE
  5
1070
330
1F
100
AcDbEntity
  8
SLD-0
100
AcDbLine
 10
-2208.8635949689
 20
-770.6955442817999
 30
0.0
 11
-2208.8635949689
 21
-698.1955538186
 31
0.0
  0
LINE
  5
1071
330
1F
100
AcDbEntity
  8
SLD-0
100
AcDbLine
 10
-2208.8635949689
 20
-655.6955347451
 30
0.0
 11
-2208.8635949689
 21
-534.1455409916999
 31
0.0
  0
LINE
  5
1072
330
1F
100
AcDbEntity
  8
SLD-0
100
AcDbLine
 10
-2208.8635949689
 20
-181.5455476435
 30
0.0
 11
-2208.8635949689
 21
-150.6955544146
 31
0.0
  0
LINE
  5
1073
330
1F
100
AcDbEntity
  8
SLD-0
100
AcDbLine
 10
-2208.8635949689
 20
-770.6955442817999
 30
0.0
 11
-2211.8636159497
 21
-770.6955442817999
 31
0.0
  0
LINE
  5
1074
330
1F
100
AcDbEntity
  8
SLD-0
100
AcDbLine
 10
-2208.8635949689
 20
-150.6955544146
 30
0.0
 11
-2211.8636159497
 21
-150.6955544146
 31
0.0
  0
LINE
  5
109A
330
1F
100
AcDbEntity
  8
SLD-0
100
AcDbLine
 10
-1497.3636059361
 20
-479.1455487402998
 30
0.0
 11
-1526.5117375451
 21
-479.1455487402998
 31
0.0
  0
LINE
  5
109B
330
1F
100
AcDbEntity
  8
SLD-0
100
AcDbLine
 10
-1866.8154845285
 20
-479.1455487402998
 30
0.0
 11
-2242.56361409
 21
-479.1455487402998
 31
0.0
  0
LINE
  5
10A0
330
1F
100
AcDbEntity
  8
SLD-0
100
AcDbLine
 10
-2242.56361409
 20
-182.2455445918
 30
0.0
 11
-1826.7682245272
 21
-182.2455445918
 31
0.0
  0
LINE
  5
10A1
330
1F
100
AcDbEntity
  8
SLD-0
100
AcDbLine
 10
-1566.5589956837
 20
-182.2455445918
 30
0.0
 11
-1497.3636059361
 21
-182.2455445918
 31
0.0
  0
LINE
  5
10AD
330
1F
100
AcDbEntity
  8
SLD-0
100
AcDbLine
 10
-1496.6636089879
 20
-479.1455487402998
 30
0.0
 11
-1497.3636059361
 21
-479.1455487402998
 31
0.0
  0
ARC
  5
10AF
330
1F
100
AcDbEntity
  8
SLD-0
100
AcDbCircle
 10
-1496.663604654
 20
-477.4455479251
 30
0.0
 40
1.7000000000001
100
AcDbArc
 50
270.0
 51
0.0
  0
LINE
  5
10B2
330
1F
100
AcDbEntity
  8
SLD-0
100
AcDbLine
 10
-1494.9635951119
 20
-477.4455497655
 30
0.0
 11
-1494.9635951119
 21
-419.5313523205999
 31
0.0
  0
LINE
  5
10B3
330
1F
100
AcDbEntity
  8
SLD-0
100
AcDbLine
 10
-1494.9635951119
 20
-282.359744856
 30
0.0
 11
-1494.9635951119
 21
-183.9455435666
 31
0.0
  0
LINE
  5
10B8
330
1F
100
AcDbEntity
  8
SLD-0
100
AcDbLine
 10
-1497.3636059361
 20
-182.2455445918
 30
0.0
 11
-1496.6636089879
 21
-182.2455445918
 31
0.0
  0
ARC
  5
10BA
330
1F
100
AcDbEntity
  8
SLD-0
100
AcDbCircle
 10
-1496.663604654
 20
-183.9455479251
 30
0.0
 40
1.700000000000045
100
AcDbArc
 50
0.0
 51
90.0
  0
LINE
  5
10C1
330
1F
100
AcDbEntity
  8
SLD-0
100
AcDbLine
 10
-2244.9635951119
 20
-183.9455435666
 30
0.0
 11
-2244.9635951119
 21
-477.4455497655
 31
0.0
  0
ARC
  5
10C3
330
1F
100
AcDbEntity
  8
SLD-0
100
AcDbCircle
 10
-2243.263604654
 20
-183.9455479251
 30
0.0
 40
1.700000000000273
100
AcDbArc
 50
90.0
 51
180.0
  0
LINE
  5
10C7
330
1F
100
AcDbEntity
  8
SLD-0
100
AcDbLine
 10
-2243.2636110383
 20
-182.2455445918
 30
0.0
 11
-2242.56361409
 21
-182.2455445918
 31
0.0
  0
ARC
  5
10C8
330
1F
100
AcDbEntity
  8
SLD-0
100
AcDbCircle
 10
-2243.263604654
 20
-477.4455479251
 30
0.0
 40
1.700000000000273
100
AcDbArc
 50
180.0
 51
270.0
  0
LINE
  5
10CB
330
1F
100
AcDbEntity
  8
SLD-0
100
AcDbLine
 10
-2242.56361409
 20
-479.1455487402998
 30
0.0
 11
-2243.2636110383
 21
-479.1455487402998
 31
0.0
  0
LINE
  5
10E0
330
1F
100
AcDbEntity
  8
SLD-0
100
AcDbLine
 10
-1869.2402946102
 20
-180.7455490025
 30
0.0
 11
-1870.8636047589
 21
-180.7455490025
 31
0.0
  0
LINE
  5
10E1
330
1F
100
AcDbEntity
  8
SLD-0
100
AcDbLine
 10
-1869.0636050227
 20
-180.7455490025
 30
0.0
 11
-1869.2402946102
 21
-180.7455490025
 31
0.0
  0
LINE
  5
10F0
330
1F
100
AcDbEntity
  8
SLD-0
100
AcDbLine
 10
-2029.8302559453
 20
-180.7455490025
 30
0.0
 11
-2030.8636067706
 21
-180.7455490025
 31
0.0
  0
LINE
  5
10F1
330
1F
100
AcDbEntity
  8
SLD-0
100
AcDbLine
 10
-2029.063606103
 20
-180.7455490025
 30
0.0
 11
-2029.8302559453
 21
-180.7455490025
 31
0.0
  0
LINE
  5
110C
330
1F
100
AcDbEntity
  8
SLD-0
100
AcDbLine
 10
-1858.835362705
 20
-605.5353651437
 30
0.0
 11
-1858.835362705
 21
-576.0353575143
 31
0.0
  0
LINE
  5
1111
330
1F
100
AcDbEntity
  8
SLD-0
100
AcDbLine
 10
-2204.9636034566
 20
-698.1955538186
 30
0.0
 11
-2024.4636027413
 21
-698.1955538186
 31
0.0
  0
LINE
  5
1112
330
1F
100
AcDbEntity
  8
SLD-0
100
AcDbLine
 10
-1866.4636047828
 20
-698.1955538186
 30
0.0
 11
-1534.9636165696
 21
-698.1955538186
 31
0.0
  0
LINE
  5
1115
330
1F
100
AcDbEntity
  8
SLD-0
100
AcDbLine
 10
-1745.4636035758
 20
-112.1955434474
 30
0.0
 11
-2145.4635946351
 21
-112.1955434474
 31
0.0
  0
LINE
  5
1117
330
1F
100
AcDbEntity
  8
SLD-0
100
AcDbLine
 10
-1665.4636053639
 20
-570.6455479058
 30
0.0
 11
-1665.4636053639
 21
-561.6905609758998
 31
0.0
  0
LINE
  5
113E
330
1F
100
AcDbEntity
  8
SLD-0
100
AcDbLine
 10
-1945.463606556
 20
-713.5737607869
 30
0.0
 11
-2023.9277122813
 21
-713.5737607869
 31
0.0
  0
LINE
  5
113F
330
1F
100
AcDbEntity
  8
SLD-0
100
AcDbLine
 10
-1866.9995026934
 20
-713.5737607869
 30
0.0
 11
-1945.463606556
 21
-713.5737607869
 31
0.0
  0
LINE
  5
1140
330
1F
100
AcDbEntity
  8
SLD-0
100
AcDbLine
 10
-1945.463606556
 20
-711.5737567337999
 30
0.0
 11
-2024.4636027413
 21
-711.5737567337999
 31
0.0
  0
LINE
  5
1141
330
1F
100
AcDbEntity
  8
SLD-0
100
AcDbLine
 10
-1866.4636047828
 20
-711.5737567337999
 30
0.0
 11
-1945.463606556
 21
-711.5737567337999
 31
0.0
  0
LINE
  5
1142
330
1F
100
AcDbEntity
  8
SLD-0
100
AcDbLine
 10
-1945.463606556
 20
-733.645535508
 30
0.0
 11
-2012.3392431336
 21
-733.645535508
 31
0.0
  0
LINE
  5
1143
330
1F
100
AcDbEntity
  8
SLD-0
100
AcDbLine
 10
-1878.5879606652
 20
-733.645535508
 30
0.0
 11
-1945.463606556
 21
-733.645535508
 31
0.0
  0
LINE
  5
1150
330
1F
100
AcDbEntity
  8
SLD-0
100
AcDbLine
 10
-2240.8636002141
 20
-484.1455439718998
 30
0.0
 11
-2240.8636002141
 21
-479.1455487402998
 31
0.0
  0
CIRCLE
  5
11E2
330
1F
100
AcDbEntity
  8
0
100
AcDbCircle
 10
-2226.363604654
 20
-165.6955479251
 30
0.0
 40
2.999999999999984
  0
CIRCLE
  5
11E3
330
1F
100
AcDbEntity
  8
0
100
AcDbCircle
 10
-2226.363604654
 20
-165.6955479251
 30
0.0
 40
3.999999999999986
  0
CIRCLE
  5
11E4
330
1F
100
AcDbEntity
  8
0
100
AcDbCircle
 10
-2226.363604654
 20
-165.6955479251
 30
0.0
 40
4.25
  0
CIRCLE
  5
11E5
330
1F
100
AcDbEntity
  8
0
100
AcDbCircle
 10
-1513.563604654
 20
-165.6955479251
 30
0.0
 40
2.999999999999984
  0
CIRCLE
  5
11E6
330
1F
100
AcDbEntity
  8
0
100
AcDbCircle
 10
-1513.563604654
 20
-165.6955479251
 30
0.0
 40
3.999999999999986
  0
CIRCLE
  5
11E7
330
1F
100
AcDbEntity
  8
0
100
AcDbCircle
 10
-1513.563604654
 20
-165.6955479251
 30
0.0
 40
4.25
  0
CIRCLE
  5
11E8
330
1F
100
AcDbEntity
  8
0
100
AcDbCircle
 10
-1513.563604654
 20
-755.6955479251
 30
0.0
 40
2.999999999999984
  0
CIRCLE
  5
11E9
330
1F
100
AcDbEntity
  8
0
100
AcDbCircle
 10
-1513.563604654
 20
-755.6955479251
 30
0.0
 40
3.999999999999986
  0
CIRCLE
  5
11EA
330
1F
100
AcDbEntity
  8
0
100
AcDbCircle
 10
-1513.563604654
 20
-755.6955479251
 30
0.0
 40
4.25
  0
CIRCLE
  5
11EB
330
1F
100
AcDbEntity
  8
0
100
AcDbCircle
 10
-2226.363604654
 20
-755.6955479251
 30
0.0
 40
2.999999999999984
  0
CIRCLE
  5
11EC
330
1F
100
AcDbEntity
  8
0
100
AcDbCircle
 10
-2226.363604654
 20
-755.6955479251
 30
0.0
 40
3.999999999999986
  0
CIRCLE
  5
11ED
330
1F
100
AcDbEntity
  8
0
100
AcDbCircle
 10
-2226.363604654
 20
-755.6955479251
 30
0.0
 40
4.25
  0
LINE
  5
1218
330
1F
100
AcDbEntity
  8
0
100
AcDbLine
 10
-2213.8636080819
 20
265.4682274806
 30
0.0
 11
-2213.8636080819
 21
295.4682274806
 31
0.0
  0
LINE
  5
1219
330
1F
100
AcDbEntity
  8
0
100
AcDbLine
 10
-2238.8636080819
 20
295.4682274806
 30
0.0
 11
-2238.8636080819
 21
265.4682274806
 31
0.0
  0
LINE
  5
121A
330
1F
100
AcDbEntity
  8
0
100
AcDbLine
 10
-2222.3636080819
 20
314.4682274806
 30
0.0
 11
-2223.3636080819
 21
315.4682274806
 31
0.0
  0
LINE
  5
121B
330
1F
100
AcDbEntity
  8
0
100
AcDbLine
 10
-2229.3636080819
 20
315.4682274806
 30
0.0
 11
-2230.3636080819
 21
314.4682274806
 31
0.0
  0
LINE
  5
121C
330
1F
100
AcDbEntity
  8
0
100
AcDbLine
 10
-2222.3636080819
 20
297.4682274806
 30
0.0
 11
-2222.3636080819
 21
314.4682274806
 31
0.0
  0
LINE
  5
121D
330
1F
100
AcDbEntity
  8
0
100
AcDbLine
 10
-2230.3636080819
 20
314.4682274806
 30
0.0
 11
-2230.3636080819
 21
297.4682274806
 31
0.0
  0
LINE
  5
121E
330
1F
100
AcDbEntity
  8
0
100
AcDbLine
 10
-2237.5461090933
 20
265.4682274806
 30
0.0
 11
-2213.8636080819
 21
265.4682274806
 31
0.0
  0
LINE
  5
121F
330
1F
100
AcDbEntity
  8
0
100
AcDbLine
 10
-2238.8636080819
 20
265.4682274806
 30
0.0
 11
-2237.5461090933
 21
265.4682274806
 31
0.0
  0
LINE
  5
1220
330
1F
100
AcDbEntity
  8
0
100
AcDbLine
 10
-2229.0474083246
 20
315.4682274806
 30
0.0
 11
-2223.3636080819
 21
315.4682274806
 31
0.0
  0
LINE
  5
1221
330
1F
100
AcDbEntity
  8
0
100
AcDbLine
 10
-2229.3636080819
 20
315.4682274806
 30
0.0
 11
-2229.0474083246
 21
315.4682274806
 31
0.0
  0
LINE
  5
1222
330
1F
100
AcDbEntity
  8
0
100
AcDbLine
 10
-2229.9420084056
 20
314.4682274806
 30
0.0
 11
-2230.3636080819
 21
314.4682274806
 31
0.0
  0
LINE
  5
1223
330
1F
100
AcDbEntity
  8
0
100
AcDbLine
 10
-2222.3636080819
 20
314.4682274806
 30
0.0
 11
-2229.9420084056
 21
314.4682274806
 31
0.0
  0
LINE
  5
1224
330
1F
100
AcDbEntity
  8
0
100
AcDbLine
 10
-2238.8636080819
 20
295.4682274806
 30
0.0
 11
-2213.8636080819
 21
295.4682274806
 31
0.0
  0
LINE
  5
1225
330
1F
100
AcDbEntity
  8
0
100
AcDbLine
 10
-1501.0635970431
 20
265.4682274806
 30
0.0
 11
-1501.0635970431
 21
295.4682274806
 31
0.0
  0
LINE
  5
1226
330
1F
100
AcDbEntity
  8
0
100
AcDbLine
 10
-1526.0635970431
 20
295.4682274806
 30
0.0
 11
-1526.0635970431
 21
265.4682274806
 31
0.0
  0
LINE
  5
1227
330
1F
100
AcDbEntity
  8
0
100
AcDbLine
 10
-1509.5635970431
 20
314.4682274806
 30
0.0
 11
-1510.5635970431
 21
315.4682274806
 31
0.0
  0
LINE
  5
1228
330
1F
100
AcDbEntity
  8
0
100
AcDbLine
 10
-1516.5635970431
 20
315.4682274806
 30
0.0
 11
-1517.5635970431
 21
314.4682274806
 31
0.0
  0
LINE
  5
1229
330
1F
100
AcDbEntity
  8
0
100
AcDbLine
 10
-1509.5635970431
 20
297.4682274806
 30
0.0
 11
-1509.5635970431
 21
314.4682274806
 31
0.0
  0
LINE
  5
122A
330
1F
100
AcDbEntity
  8
0
100
AcDbLine
 10
-1517.5635970431
 20
314.4682274806
 30
0.0
 11
-1517.5635970431
 21
297.4682274806
 31
0.0
  0
LINE
  5
122B
330
1F
100
AcDbEntity
  8
0
100
AcDbLine
 10
-1524.7460980545
 20
265.4682274806
 30
0.0
 11
-1501.0635970431
 21
265.4682274806
 31
0.0
  0
LINE
  5
122C
330
1F
100
AcDbEntity
  8
0
100
AcDbLine
 10
-1526.0635970431
 20
265.4682274806
 30
0.0
 11
-1524.7460980545
 21
265.4682274806
 31
0.0
  0
LINE
  5
122D
330
1F
100
AcDbEntity
  8
0
100
AcDbLine
 10
-1516.2473972858
 20
315.4682274806
 30
0.0
 11
-1510.5635970431
 21
315.4682274806
 31
0.0
  0
LINE
  5
122E
330
1F
100
AcDbEntity
  8
0
100
AcDbLine
 10
-1516.5635970431
 20
315.4682274806
 30
0.0
 11
-1516.2473972858
 21
315.4682274806
 31
0.0
  0
LINE
  5
122F
330
1F
100
AcDbEntity
  8
0
100
AcDbLine
 10
-1517.1419973668
 20
314.4682274806
 30
0.0
 11
-1517.5635970431
 21
314.4682274806
 31
0.0
  0
LINE
  5
1230
330
1F
100
AcDbEntity
  8
0
100
AcDbLine
 10
-1509.5635970431
 20
314.4682274806
 30
0.0
 11
-1517.1419973668
 21
314.4682274806
 31
0.0
  0
LINE
  5
1231
330
1F
100
AcDbEntity
  8
0
100
AcDbLine
 10
-1526.0635970431
 20
295.4682274806
 30
0.0
 11
-1501.0635970431
 21
295.4682274806
 31
0.0
  0
LINE
  5
1232
330
1F
100
AcDbEntity
  8
0
100
AcDbLine
 10
-631.369207341158
 20
265.4682274806001
 30
0.0
 11
-631.369207341158
 21
272.4682255732001
 31
0.0
  0
LINE
  5
1233
330
1F
100
AcDbEntity
  8
0
100
AcDbLine
 10
-656.369207341158
 20
272.5101879676381
 30
0.0
 11
-656.369207341158
 21
265.4682274806001
 31
0.0
  0
LINE
  5
1234
330
1F
100
AcDbEntity
  8
0
100
AcDbLine
 10
-639.869207341158
 20
314.4682274806001
 30
0.0
 11
-640.869207341158
 21
315.4682274806001
 31
0.0
  0
LINE
  5
1235
330
1F
100
AcDbEntity
  8
0
100
AcDbLine
 10
-646.869207341158
 20
315.4682274806001
 30
0.0
 11
-647.869207341158
 21
314.4682274806001
 31
0.0
  0
LINE
  5
1236
330
1F
100
AcDbEntity
  8
0
100
AcDbLine
 10
-639.869207341158
 20
297.4682274806001
 30
0.0
 11
-639.869207341158
 21
314.4682274806001
 31
0.0
  0
LINE
  5
1237
330
1F
100
AcDbEntity
  8
0
100
AcDbLine
 10
-647.869207341158
 20
314.4682274806001
 30
0.0
 11
-647.869207341158
 21
297.4682274806001
 31
0.0
  0
LINE
  5
1238
330
1F
100
AcDbEntity
  8
0
100
AcDbLine
 10
-655.0517083525583
 20
265.4682274806001
 30
0.0
 11
-631.369207341158
 21
265.4682274806001
 31
0.0
  0
LINE
  5
1239
330
1F
100
AcDbEntity
  8
0
100
AcDbLine
 10
-656.369207341158
 20
265.4682274806001
 30
0.0
 11
-655.0517083525583
 21
265.4682274806001
 31
0.0
  0
LINE
  5
123A
330
1F
100
AcDbEntity
  8
0
100
AcDbLine
 10
-646.5530075838578
 20
315.4682274806001
 30
0.0
 11
-640.869207341158
 21
315.4682274806001
 31
0.0
  0
LINE
  5
123B
330
1F
100
AcDbEntity
  8
0
100
AcDbLine
 10
-646.869207341158
 20
315.4682274806001
 30
0.0
 11
-646.5530075838578
 21
315.4682274806001
 31
0.0
  0
LINE
  5
123C
330
1F
100
AcDbEntity
  8
0
100
AcDbLine
 10
-647.447607664858
 20
314.4682274806001
 30
0.0
 11
-647.869207341158
 21
314.4682274806001
 31
0.0
  0
LINE
  5
123D
330
1F
100
AcDbEntity
  8
0
100
AcDbLine
 10
-639.869207341158
 20
314.4682274806001
 30
0.0
 11
-647.447607664858
 21
314.4682274806001
 31
0.0
  0
LINE
  5
123E
330
1F
100
AcDbEntity
  8
0
100
AcDbLine
 10
-656.369207341158
 20
297.4682315337001
 30
0.0
 11
-631.369207341158
 21
297.4682315337001
 31
0.0
  0
LINE
  5
123F
330
1F
100
AcDbEntity
  8
0
100
AcDbLine
 10
-41.36921121545805
 20
265.4682274806001
 30
0.0
 11
-41.36921121545805
 21
272.5101871893894
 31
0.0
  0
LINE
  5
1240
330
1F
100
AcDbEntity
  8
0
100
AcDbLine
 10
-66.36921121545805
 20
272.4682255732001
 30
0.0
 11
-66.36921121545805
 21
265.4682274806001
 31
0.0
  0
LINE
  5
1241
330
1F
100
AcDbEntity
  8
0
100
AcDbLine
 10
-49.86921121545805
 20
314.4682274806001
 30
0.0
 11
-50.86921121545805
 21
315.4682274806001
 31
0.0
  0
LINE
  5
1242
330
1F
100
AcDbEntity
  8
0
100
AcDbLine
 10
-56.86921121545805
 20
315.4682274806001
 30
0.0
 11
-57.86921121545805
 21
314.4682274806001
 31
0.0
  0
LINE
  5
1243
330
1F
100
AcDbEntity
  8
0
100
AcDbLine
 10
-49.86921121545805
 20
297.4682274806001
 30
0.0
 11
-49.86921121545805
 21
314.4682274806001
 31
0.0
  0
LINE
  5
1244
330
1F
100
AcDbEntity
  8
0
100
AcDbLine
 10
-57.86921121545805
 20
314.4682274806001
 30
0.0
 11
-57.86921121545805
 21
297.4682274806001
 31
0.0
  0
LINE
  5
1245
330
1F
100
AcDbEntity
  8
0
100
AcDbLine
 10
-65.05171222685834
 20
265.4682274806001
 30
0.0
 11
-41.36921121545805
 21
265.4682274806001
 31
0.0
  0
LINE
  5
1246
330
1F
100
AcDbEntity
  8
0
100
AcDbLine
 10
-66.36921121545805
 20
265.4682274806001
 30
0.0
 11
-65.05171222685834
 21
265.4682274806001
 31
0.0
  0
LINE
  5
1247
330
1F
100
AcDbEntity
  8
0
100
AcDbLine
 10
-56.55301145815787
 20
315.4682274806001
 30
0.0
 11
-50.86921121545805
 21
315.4682274806001
 31
0.0
  0
LINE
  5
1248
330
1F
100
AcDbEntity
  8
0
100
AcDbLine
 10
-56.86921121545805
 20
315.4682274806001
 30
0.0
 11
-56.55301145815787
 21
315.4682274806001
 31
0.0
  0
LINE
  5
1249
330
1F
100
AcDbEntity
  8
0
100
AcDbLine
 10
-57.447611539158
 20
314.4682274806001
 30
0.0
 11
-57.86921121545805
 21
314.4682274806001
 31
0.0
  0
LINE
  5
124A
330
1F
100
AcDbEntity
  8
0
100
AcDbLine
 10
-49.86921121545805
 20
314.4682274806001
 30
0.0
 11
-57.447611539158
 21
314.4682274806001
 31
0.0
  0
LINE
  5
124B
330
1F
100
AcDbEntity
  8
0
100
AcDbLine
 10
-66.36921121545805
 20
297.4682315337001
 30
0.0
 11
-41.36921121545805
 21
297.4682315337001
 31
0.0
  0
MTEXT
  5
127D
330
1F
100
AcDbEntity
  8
LENKIMO
100
AcDbMText
 10
-1946.697418177248
 20
37.85137833089993
 30
0.0
 40
100.0
 41
436.1475856205887
 46
0.0
 71
     1
 72
     5
  1
B
 73
     1
 44
1.0
  0
MTEXT
  5
127E
330
1F
100
AcDbEntity
  8
LENKIMO
100
AcDbMText
 10
-1722.337013158466
 20
-285.7713940186636
 30
0.0
 40
100.0
 41
436.1475856205887
 46
0.0
 71
     1
 72
     5
  1
A
 73
     1
 44
1.0
  0
LINE
  5
127F
330
1F
100
AcDbEntity
  8
0
100
AcDbLine
 10
-965.8907690654013
 20
586.7621278995487
 30
0.0
 11
-965.8907690654013
 21
626.7621278995487
 31
0.0
  0
LINE
  5
1280
330
1F
100
AcDbEntity
  8
0
100
AcDbLine
 10
-865.8907690654013
 20
666.7621278995491
 30
0.0
 11
-965.8907690654013
 21
746.7621278995491
 31
0.0
  0
LINE
  5
1281
330
1F
100
AcDbEntity
  8
0
100
AcDbLine
 10
-865.8907690654013
 20
666.7621278995491
 30
0.0
 11
-965.8907690654013
 21
586.7621278995487
 31
0.0
  0
LINE
  5
1282
330
1F
100
AcDbEntity
  8
0
100
AcDbLine
 10
-965.8907690654013
 20
706.7621278995491
 30
0.0
 11
-1065.890769065401
 21
706.7621278995491
 31
0.0
  0
LINE
  5
1283
330
1F
100
AcDbEntity
  8
0
100
AcDbLine
 10
-965.8907690654013
 20
626.7621278995487
 30
0.0
 11
-1065.890769065401
 21
626.7621278995487
 31
0.0
  0
LINE
  5
1284
330
1F
100
AcDbEntity
  8
0
100
AcDbLine
 10
-965.8907690654013
 20
706.7621278995491
 30
0.0
 11
-965.8907690654013
 21
746.7621278995491
 31
0.0
  0
LINE
  5
1285
330
1F
100
AcDbEntity
  8
0
100
AcDbLine
 10
-1065.890769065401
 20
626.7621278995487
 30
0.0
 11
-1065.890769065401
 21
706.7621278995491
 31
0.0
  0
MTEXT
  5
1286
330
1F
100
AcDbEntity
  8
0
100
AcDbMText
 10
-1048.910983001592
 20
687.782558724148
 30
0.0
 40
35.0
 41
20.96613465302437
 46
35.0
 71
     1
 72
     5
  1
{ETA}
 73
     1
 44
1.0
1001
ACAD
1000
ACAD_MTEXT_DEFINED_HEIGHT_BEGIN
1070
    46
1040
35.0
1000
ACAD_MTEXT_DEFINED_HEIGHT_END
  0
MTEXT
  5
1287
330
1F
100
AcDbEntity
  8
LENKIMO
100
AcDbMText
 10
-836.1681032146524
 20
721.5049488015168
 30
0.0
 40
100.0
 41
436.1475856205887
 46
0.0
 71
     1
 72
     5
  1
B
 73
     1
 44
1.0
  0
LINE
  5
1288
330
1F
100
AcDbEntity
  8
0
100
AcDbLine
 10
-349.432462188985
 20
1400.573234319624
 30
0.0
 11
-389.432462188985
 21
1400.573234319624
 31
0.0
  0
LINE
  5
1289
330
1F
100
AcDbEntity
  8
0
100
AcDbLine
 10
-429.432462188985
 20
1500.573234319624
 30
0.0
 11
-509.432462188985
 21
1400.573234319624
 31
0.0
  0
LINE
  5
128A
330
1F
100
AcDbEntity
  8
0
100
AcDbLine
 10
-429.432462188985
 20
1500.573234319624
 30
0.0
 11
-349.432462188985
 21
1400.573234319624
 31
0.0
  0
LINE
  5
128B
330
1F
100
AcDbEntity
  8
0
100
AcDbLine
 10
-469.432462188985
 20
1400.573234319624
 30
0.0
 11
-469.432462188985
 21
1300.573234319624
 31
0.0
  0
LINE
  5
128C
330
1F
100
AcDbEntity
  8
0
100
AcDbLine
 10
-389.432462188985
 20
1400.573234319624
 30
0.0
 11
-389.432462188985
 21
1300.573234319624
 31
0.0
  0
LINE
  5
128D
330
1F
100
AcDbEntity
  8
0
100
AcDbLine
 10
-469.432462188985
 20
1400.573234319624
 30
0.0
 11
-509.432462188985
 21
1400.573234319624
 31
0.0
  0
LINE
  5
128E
330
1F
100
AcDbEntity
  8
0
100
AcDbLine
 10
-389.432462188985
 20
1300.573234319624
 30
0.0
 11
-469.432462188985
 21
1300.573234319624
 31
0.0
  0
MTEXT
  5
128F
330
1F
100
AcDbEntity
  8
0
100
AcDbMText
 10
-450.2428995858149
 20
1311.293718477798
 30
0.0
 40
35.0
 41
20.96613465302437
 46
35.0
 71
     1
 72
     5
  1
{EHA}
 11
6.123233995736766E-17
 21
1.0
 31
0.0
 73
     1
 44
1.0
1001
ACAD
1000
ACAD_MTEXT_DEFINED_HEIGHT_BEGIN
1070
    46
1040
35.0
1000
ACAD_MTEXT_DEFINED_HEIGHT_END
  0
MTEXT
  5
1290
330
1F
100
AcDbEntity
  8
LENKIMO
100
AcDbMText
 10
-460.3844707926442
 20
1289.156269385722
 30
0.0
 40
100.0
 41
436.1475856205887
 46
0.0
 71
     1
 72
     5
  1
A
 73
     1
 44
1.0
  0
ENDSEC
  0
SECTION
  2
OBJECTS
  0
DICTIONARY
  5
C
330
0
100
AcDbDictionary
281
     1
  3
ACAD_COLOR
350
1165
  3
ACAD_DETAILVIEWSTYLE
350
1255
  3
ACAD_GROUP
350
D
  3
ACAD_LAYOUT
350
1A
  3
ACAD_MATERIAL
350
1164
  3
ACAD_MLEADERSTYLE
350
11C9
  3
ACAD_MLINESTYLE
350
17
  3
ACAD_PLOTSETTINGS
350
19
  3
ACAD_PLOTSTYLENAME
350
E
  3
ACAD_SCALELIST
350
1189
  3
ACAD_SECTIONVIEWSTYLE
350
1256
  3
ACAD_TABLESTYLE
350
11C7
  3
ACAD_VISUALSTYLE
350
11AB
  3
ACDB_RECOMPOSE_DATA
350
1296
  3
AcDbVariableDictionary
350
124F
  3
APPDATA
350
11CB
  0
DICTIONARY
  5
1291
330
1F
100
AcDbDictionary
280
     1
281
     1
  3
DIM_BOUNDING_BOXES_V1
360
1292
  0
DICTIONARY
  5
1165
102
{ACAD_REACTORS
330
C
102
}
330
C
100
AcDbDictionary
281
     1
  0
DICTIONARY
  5
1255
102
{ACAD_REACTORS
330
C
102
}
330
C
100
AcDbDictionary
281
     1
  0
DICTIONARY
  5
D
102
{ACAD_REACTORS
330
C
102
}
330
C
100
AcDbDictionary
281
     1
  0
DICTIONARY
  5
1A
102
{ACAD_REACTORS
330
C
102
}
330
C
100
AcDbDictionary
281
     1
  3
Layout1
350
1E
  3
Layout2
350
26
  3
Model
350
22
  0
DICTIONARY
  5
1164
102
{ACAD_REACTORS
330
C
102
}
330
C
100
AcDbDictionary
281
     1
  3
ByBlock
350
11C5
  3
ByLayer
350
11C4
  3
Global
350
11C6
  0
DICTIONARY
  5
11C9
102
{ACAD_REACTORS
330
C
102
}
330
C
100
AcDbDictionary
281
     1
  3
Standard
350
11CA
  0
DICTIONARY
  5
17
102
{ACAD_REACTORS
330
C
102
}
330
C
100
AcDbDictionary
281
     1
  3
Standard
350
18
  0
DICTIONARY
  5
19
102
{ACAD_REACTORS
330
C
102
}
330
C
100
AcDbDictionary
281
     1
  0
ACDBDICTIONARYWDFLT
  5
E
102
{ACAD_REACTORS
330
C
102
}
330
C
100
AcDbDictionary
281
     1
  3
Normal
350
F
100
AcDbDictionaryWithDefault
340
F
  0
DICTIONARY
  5
1189
102
{ACAD_REACTORS
330
C
102
}
330
C
100
AcDbDictionary
281
     1
  3
A0
350
118A
  3
A1
350
118B
  3
A2
350
118C
  3
A3
350
118D
  3
A4
350
118E
  3
A5
350
118F
  3
A6
350
1190
  3
A7
350
1191
  3
A8
350
1192
  3
A9
350
1193
  3
B0
350
1194
  3
B1
350
1195
  3
B2
350
1196
  3
B3
350
1197
  3
B4
350
1198
  3
B5
350
1199
  3
B6
350
119A
  3
B7
350
119B
  3
B8
350
119C
  3
B9
350
119D
  3
C0
350
119E
  3
C1
350
119F
  3
C2
350
11A0
  3
C3
350
11A1
  3
C4
350
11A2
  3
C5
350
11A3
  3
C6
350
11A4
  3
C7
350
11A5
  3
C8
350
11A6
  3
C9
350
11A7
  3
D0
350
11A8
  3
D1
350
11A9
  3
D2
350
11AA
  0
DICTIONARY
  5
1256
102
{ACAD_REACTORS
330
C
102
}
330
C
100
AcDbDictionary
281
     1
  0
DICTIONARY
  5
11C7
102
{ACAD_REACTORS
330
C
102
}
330
C
100
AcDbDictionary
281
     1
  3
Standard
350
11C8
  0
DICTIONARY
  5
11AB
102
{ACAD_REACTORS
330
C
102
}
330
C
100
AcDbDictionary
281
     1
  3
2dWireframe
350
11B0
  3
Basic
350
11B3
  3
Brighten
350
11B7
  3
ColorChange
350
11BB
  3
Conceptual
350
11B5
  3
Dim
350
11B6
  3
EdgeColorOff
350
11BE
  3
Facepattern
350
11BA
  3
Flat
350
11AC
  3
FlatWithEdges
350
11AD
  3
Gouraud
350
11AE
  3
GouraudWithEdges
350
11AF
  3
Hidden
350
11B2
  3
JitterOff
350
11BC
  3
Linepattern
350
11B9
  3
OverhangOff
350
11BD
  3
Realistic
350
11B4
  3
Shaded
350
11C3
  3
Shaded with edges
350
11C2
  3
Shades of Gray
350
11BF
  3
Sketchy
350
11C0
  3
Thicken
350
11B8
  3
Wireframe
350
11B1
  3
X-Ray
350
11C1
  0
XRECORD
  5
1296
102
{ACAD_REACTORS
330
C
102
}
330
C
100
AcDbXrecord
280
     1
 90
        1
330
11C8
  0
DICTIONARY
  5
124F
102
{ACAD_REACTORS
330
C
102
}
330
C
100
AcDbDictionary
281
     1
  3
CANNOSCALE
350
1250
  3
CMLEADERSTYLE
350
1252
  3
CTABLESTYLE
350
1251
  3
MSLTSCALE
350
1253
  3
XCLIPFRAME
350
1254
  0
DICTIONARY
  5
11CB
102
{ACAD_REACTORS
330
C
102
}
330
C
100
AcDbDictionary
281
     1
  0
DICTIONARY
  5
1292
102
{ACAD_REACTORS
330
1291
102
}
330
1291
100
AcDbDictionary
281
     1
  0
LAYOUT
  5
1E
102
{ACAD_REACTORS
330
1A
102
}
330
1A
100
AcDbPlotSettings
  1

  2
none_device
  4

  6

 40
0.0
 41
0.0
 42
0.0
 43
0.0
 44
0.0
 45
0.0
 46
0.0
 47
0.0
 48
0.0
 49
0.0
140
0.0
141
0.0
142
1.0
143
1.0
 70
   688
 72
     0
 73
     0
 74
     5
  7

 75
    16
 76
     0
 77
     2
 78
   300
147
1.0
148
0.0
149
0.0
100
AcDbLayout
  1
Layout1
 70
     1
 71
     1
 10
0.0
 20
0.0
 11
420.0
 21
297.0
 12
0.0
 22
0.0
 32
0.0
 14
1.000000000000000E+20
 24
1.000000000000000E+20
 34
1.000000000000000E+20
 15
-1.000000000000000E+20
 25
-1.000000000000000E+20
 35
-1.000000000000000E+20
146
0.0
 13
0.0
 23
0.0
 33
0.0
 16
1.0
 26
0.0
 36
0.0
 17
0.0
 27
1.0
 37
0.0
 76
     0
330
1B
  0
LAYOUT
  5
26
102
{ACAD_REACTORS
330
1A
102
}
330
1A
100
AcDbPlotSettings
  1

  2
none_device
  4

  6

 40
0.0
 41
0.0
 42
0.0
 43
0.0
 44
0.0
 45
0.0
 46
0.0
 47
0.0
 48
0.0
 49
0.0
140
0.0
141
0.0
142
1.0
143
1.0
 70
   688
 72
     0
 73
     0
 74
     5
  7

 75
    16
 76
     0
 77
     2
 78
   300
147
1.0
148
0.0
149
0.0
100
AcDbLayout
  1
Layout2
 70
     1
 71
     2
 10
0.0
 20
0.0
 11
0.0
 21
0.0
 12
0.0
 22
0.0
 32
0.0
 14
0.0
 24
0.0
 34
0.0
 15
0.0
 25
0.0
 35
0.0
146
0.0
 13
0.0
 23
0.0
 33
0.0
 16
1.0
 26
0.0
 36
0.0
 17
0.0
 27
1.0
 37
0.0
 76
     0
330
23
  0
LAYOUT
  5
22
102
{ACAD_REACTORS
330
1A
102
}
330
1A
100
AcDbPlotSettings
  1

  2
none_device
  4

  6

 40
0.0
 41
0.0
 42
0.0
 43
0.0
 44
0.0
 45
0.0
 46
0.0
 47
0.0
 48
0.0
 49
0.0
140
0.0
141
0.0
142
1.0
143
1.0
 70
  1712
 72
     0
 73
     0
 74
     0
  7

 75
     0
 76
     0
 77
     2
 78
   300
147
1.0
148
0.0
149
0.0
100
AcDbLayout
  1
Model
 70
     1
 71
     0
 10
0.0
 20
0.0
 11
420.0
 21
297.0
 12
0.0
 22
0.0
 32
0.0
 14
-2244.963604654
 24
-770.6955442817999
 34
-0.0000000000000995
 15
-38.86920697620781
 25
1500.573234319624
 35
0.0000000000000995
146
0.0
 13
0.0
 23
0.0
 33
0.0
 16
1.0
 26
0.0
 36
0.0
 17
0.0
 27
1.0
 37
0.0
 76
     0
330
1F
331
1188
  0
MATERIAL
  5
11C5
102
{ACAD_REACTORS
330
1164
102
}
330
1164
100
AcDbMaterial
  1
ByBlock
 72
     1
 94
      127
  0
MATERIAL
  5
11C4
102
{ACAD_REACTORS
330
1164
102
}
330
1164
100
AcDbMaterial
  1
ByLayer
 72
     1
 94
      127
  0
MATERIAL
  5
11C6
102
{ACAD_REACTORS
330
1164
102
}
330
1164
100
AcDbMaterial
  1
Global
 72
     1
 94
      127
  0
MLEADERSTYLE
  5
11CA
102
{ACAD_REACTORS
330
11C9
102
}
330
11C9
100
AcDbMLeaderStyle
170
     2
171
     1
172
     0
 90
        2
 40
0.0
 41
0.0
173
     1
 91
-1056964608
340
14
 92
       -2
290
     1
 42
2.0
291
     1
 43
8.0
  3
Standard
341
0
 44
4.0
300

342
11
174
     1
178
     1
175
     1
176
     0
 93
-1056964608
 45
4.0
292
     0
297
     0
 46
4.0
343
0
 94
-1056964608
 47
1.0
 49
1.0
140
1.0
293
     1
141
0.0
294
     1
177
     0
142
1.0
295
     0
296
     0
143
3.75
1001
ACAD_MLEADERVER
1070
     2
  0
MLINESTYLE
  5
18
102
{ACAD_REACTORS
330
17
102
}
330
17
100
AcDbMlineStyle
  2
STANDARD
 70
     0
  3

 62
   256
 51
90.0
 52
90.0
 71
     2
 49
0.5
 62
   256
  6
BYLAYER
 49
-0.5
 62
   256
  6
BYLAYER
  0
ACDBPLACEHOLDER
  5
F
102
{ACAD_REACTORS
330
E
102
}
330
E
  0
SCALE
  5
118A
102
{ACAD_REACTORS
330
1189
102
}
330
1189
100
AcDbScale
 70
     0
300
1:1
140
1.0
141
1.0
290
     1
  0
SCALE
  5
118B
102
{ACAD_REACTORS
330
1189
102
}
330
1189
100
AcDbScale
 70
     0
300
1:2
140
1.0
141
2.0
290
     0
  0
SCALE
  5
118C
102
{ACAD_REACTORS
330
1189
102
}
330
1189
100
AcDbScale
 70
     0
300
1:4
140
1.0
141
4.0
290
     0
  0
SCALE
  5
118D
102
{ACAD_REACTORS
330
1189
102
}
330
1189
100
AcDbScale
 70
     0
300
1:5
140
1.0
141
5.0
290
     0
  0
SCALE
  5
118E
102
{ACAD_REACTORS
330
1189
102
}
330
1189
100
AcDbScale
 70
     0
300
1:8
140
1.0
141
8.0
290
     0
  0
SCALE
  5
118F
102
{ACAD_REACTORS
330
1189
102
}
330
1189
100
AcDbScale
 70
     0
300
1:10
140
1.0
141
10.0
290
     0
  0
SCALE
  5
1190
102
{ACAD_REACTORS
330
1189
102
}
330
1189
100
AcDbScale
 70
     0
300
1:16
140
1.0
141
16.0
290
     0
  0
SCALE
  5
1191
102
{ACAD_REACTORS
330
1189
102
}
330
1189
100
AcDbScale
 70
     0
300
1:20
140
1.0
141
20.0
290
     0
  0
SCALE
  5
1192
102
{ACAD_REACTORS
330
1189
102
}
330
1189
100
AcDbScale
 70
     0
300
1:30
140
1.0
141
30.0
290
     0
  0
SCALE
  5
1193
102
{ACAD_REACTORS
330
1189
102
}
330
1189
100
AcDbScale
 70
     0
300
1:40
140
1.0
141
40.0
290
     0
  0
SCALE
  5
1194
102
{ACAD_REACTORS
330
1189
102
}
330
1189
100
AcDbScale
 70
     0
300
1:50
140
1.0
141
50.0
290
     0
  0
SCALE
  5
1195
102
{ACAD_REACTORS
330
1189
102
}
330
1189
100
AcDbScale
 70
     0
300
1:100
140
1.0
141
100.0
290
     0
  0
SCALE
  5
1196
102
{ACAD_REACTORS
330
1189
102
}
330
1189
100
AcDbScale
 70
     0
300
2:1
140
2.0
141
1.0
290
     0
  0
SCALE
  5
1197
102
{ACAD_REACTORS
330
1189
102
}
330
1189
100
AcDbScale
 70
     0
300
4:1
140
4.0
141
1.0
290
     0
  0
SCALE
  5
1198
102
{ACAD_REACTORS
330
1189
102
}
330
1189
100
AcDbScale
 70
     0
300
8:1
140
8.0
141
1.0
290
     0
  0
SCALE
  5
1199
102
{ACAD_REACTORS
330
1189
102
}
330
1189
100
AcDbScale
 70
     0
300
10:1
140
10.0
141
1.0
290
     0
  0
SCALE
  5
119A
102
{ACAD_REACTORS
330
1189
102
}
330
1189
100
AcDbScale
 70
     0
300
100:1
140
100.0
141
1.0
290
     0
  0
SCALE
  5
119B
102
{ACAD_REACTORS
330
1189
102
}
330
1189
100
AcDbScale
 70
     0
300
1/128" = 1'-0"
140
0.0078125
141
12.0
290
     0
  0
SCALE
  5
119C
102
{ACAD_REACTORS
330
1189
102
}
330
1189
100
AcDbScale
 70
     0
300
1/64" = 1'-0"
140
0.015625
141
12.0
290
     0
  0
SCALE
  5
119D
102
{ACAD_REACTORS
330
1189
102
}
330
1189
100
AcDbScale
 70
     0
300
1/32" = 1'-0"
140
0.03125
141
12.0
290
     0
  0
SCALE
  5
119E
102
{ACAD_REACTORS
330
1189
102
}
330
1189
100
AcDbScale
 70
     0
300
1/16" = 1'-0"
140
0.0625
141
12.0
290
     0
  0
SCALE
  5
119F
102
{ACAD_REACTORS
330
1189
102
}
330
1189
100
AcDbScale
 70
     0
300
3/32" = 1'-0"
140
0.09375
141
12.0
290
     0
  0
SCALE
  5
11A0
102
{ACAD_REACTORS
330
1189
102
}
330
1189
100
AcDbScale
 70
     0
300
1/8" = 1'-0"
140
0.125
141
12.0
290
     0
  0
SCALE
  5
11A1
102
{ACAD_REACTORS
330
1189
102
}
330
1189
100
AcDbScale
 70
     0
300
3/16" = 1'-0"
140
0.1875
141
12.0
290
     0
  0
SCALE
  5
11A2
102
{ACAD_REACTORS
330
1189
102
}
330
1189
100
AcDbScale
 70
     0
300
1/4" = 1'-0"
140
0.25
141
12.0
290
     0
  0
SCALE
  5
11A3
102
{ACAD_REACTORS
330
1189
102
}
330
1189
100
AcDbScale
 70
     0
300
3/8" = 1'-0"
140
0.375
141
12.0
290
     0
  0
SCALE
  5
11A4
102
{ACAD_REACTORS
330
1189
102
}
330
1189
100
AcDbScale
 70
     0
300
1/2" = 1'-0"
140
0.5
141
12.0
290
     0
  0
SCALE
  5
11A5
102
{ACAD_REACTORS
330
1189
102
}
330
1189
100
AcDbScale
 70
     0
300
3/4" = 1'-0"
140
0.75
141
12.0
290
     0
  0
SCALE
  5
11A6
102
{ACAD_REACTORS
330
1189
102
}
330
1189
100
AcDbScale
 70
     0
300
1" = 1'-0"
140
1.0
141
12.0
290
     0
  0
SCALE
  5
11A7
102
{ACAD_REACTORS
330
1189
102
}
330
1189
100
AcDbScale
 70
     0
300
1-1/2" = 1'-0"
140
1.5
141
12.0
290
     0
  0
SCALE
  5
11A8
102
{ACAD_REACTORS
330
1189
102
}
330
1189
100
AcDbScale
 70
     0
300
3" = 1'-0"
140
3.0
141
12.0
290
     0
  0
SCALE
  5
11A9
102
{ACAD_REACTORS
330
1189
102
}
330
1189
100
AcDbScale
 70
     0
300
6" = 1'-0"
140
6.0
141
12.0
290
     0
  0
SCALE
  5
11AA
102
{ACAD_REACTORS
330
1189
102
}
330
1189
100
AcDbScale
 70
     0
300
1'-0" = 1'-0"
140
12.0
141
12.0
290
     0
  0
TABLESTYLE
  5
11C8
102
{ACAD_REACTORS
330
11C7
102
}
102
{ACAD_XDICTIONARY
360
1293
102
}
330
11C7
100
AcDbTableStyle
  3
Standard
 70
     0
 71
     0
 40
0.06
 41
0.06
280
     0
281
     0
  7
Standard
140
4.5
170
     2
 62
     0
 63
   257
283
     0
 90
        4
 91
        0
  1

274
    -2
284
     1
 64
     0
275
    -2
285
     1
 65
     0
276
    -2
286
     1
 66
     0
277
    -2
287
     1
 67
     0
278
    -2
288
     1
 68
     0
279
    -2
289
     1
 69
     0
  7
Standard
140
6.0
170
     5
 62
     0
 63
   257
283
     0
 90
        4
 91
        0
  1

274
    -2
284
     1
 64
     0
275
    -2
285
     1
 65
     0
276
    -2
286
     1
 66
     0
277
    -2
287
     1
 67
     0
278
    -2
288
     1
 68
     0
279
    -2
289
     1
 69
     0
  7
Standard
140
4.5
170
     5
 62
     0
 63
   257
283
     0
 90
        4
 91
        0
  1

274
    -2
284
     1
 64
     0
275
    -2
285
     1
 65
     0
276
    -2
286
     1
 66
     0
277
    -2
287
     1
 67
     0
278
    -2
288
     1
 68
     0
279
    -2
289
     1
 69
     0
  0
VISUALSTYLE
  5
11B0
102
{ACAD_REACTORS
330
11AB
102
}
330
11AB
100
AcDbVisualStyle
  2
2dWireframe
 70
     4
 71
     0
 72
     2
 73
     0
 90
        0
 40
0.6
 41
30.0
 62
     5
 63
     7
421
 16777215
 74
     1
 91
        4
 64
     7
 65
   257
 75
     1
175
     1
 42
1.0
 92
        0
 66
   257
 43
1.0
 76
     1
 77
     6
 78
     2
 67
     7
 79
     5
170
     0
171
     0
290
     0
174
     0
 93
        1
 44
0.0
173
     0
291
     0
 45
0.0
  0
VISUALSTYLE
  5
11B3
102
{ACAD_REACTORS
330
11AB
102
}
330
11AB
100
AcDbVisualStyle
  2
Basic
 70
     7
 71
     1
 72
     0
 73
     1
 90
        0
 40
0.6
 41
30.0
 62
     5
 63
     7
421
 16777215
 74
     0
 91
        4
 64
     7
 65
   257
 75
     1
175
     1
 42
1.0
 92
        8
 66
     7
 43
1.0
 76
     1
 77
     6
 78
     2
 67
     7
 79
     5
170
     0
171
     0
290
     0
174
     0
 93
        1
 44
0.0
173
     0
291
     1
 45
0.0
  0
VISUALSTYLE
  5
11B7
102
{ACAD_REACTORS
330
11AB
102
}
330
11AB
100
AcDbVisualStyle
  2
Brighten
 70
    12
 71
     2
 72
     2
 73
     0
 90
        0
 40
0.6
 41
30.0
 62
     5
 63
     7
421
 16777215
 74
     1
 91
        4
 64
     7
 65
   257
 75
     1
175
     1
 42
1.0
 92
        8
 66
     7
 43
1.0
 76
     1
 77
     6
 78
     2
 67
     7
 79
     5
170
     0
171
     0
290
     0
174
     0
 93
        1
 44
50.0
173
     0
291
     1
 45
0.0
  0
VISUALSTYLE
  5
11BB
102
{ACAD_REACTORS
330
11AB
102
}
330
11AB
100
AcDbVisualStyle
  2
ColorChange
 70
    16
 71
     2
 72
     2
 73
     3
 90
        0
 40
0.6
 41
30.0
 62
     5
 63
     8
421
  8421504
 74
     1
 91
        4
 64
     7
 65
   257
 75
     1
175
     1
 42
1.0
 92
        8
 66
     8
424
  8421504
 43
1.0
 76
     1
 77
     6
 78
     2
 67
     7
 79
     5
170
     0
171
     0
290
     0
174
     0
 93
        1
 44
0.0
173
     0
291
     1
 45
0.0
  0
VISUALSTYLE
  5
11B5
102
{ACAD_REACTORS
330
11AB
102
}
330
11AB
100
AcDbVisualStyle
  2
Conceptual
 70
     9
 71
     3
 72
     2
 73
     0
 90
        0
 40
0.6
 41
30.0
 62
     5
 63
     7
421
 16777215
 74
     2
 91
        2
 64
     7
 65
   257
 75
     1
175
     1
 42
179.0
 92
        8
 66
     7
 43
1.0
 76
     1
 77
     6
 78
     2
 67
     7
 79
     3
170
     0
171
     0
290
     0
174
     0
 93
        1
 44
0.0
173
     0
291
     0
 45
0.0
  0
VISUALSTYLE
  5
11B6
102
{ACAD_REACTORS
330
11AB
102
}
330
11AB
100
AcDbVisualStyle
  2
Dim
 70
    11
 71
     2
 72
     2
 73
     0
 90
        0
 40
0.6
 41
30.0
 62
     5
 63
     7
421
 16777215
 74
     1
 91
        4
 64
     7
 65
   257
 75
     1
175
     1
 42
1.0
 92
        8
 66
     7
 43
1.0
 76
     1
 77
     6
 78
     2
 67
     7
 79
     5
170
     0
171
     0
290
     0
174
     0
 93
        1
 44
-50.0
173
     0
291
     1
 45
0.0
  0
VISUALSTYLE
  5
11BE
102
{ACAD_REACTORS
330
11AB
102
}
330
11AB
100
AcDbVisualStyle
  2
EdgeColorOff
 70
    22
 71
     2
 72
     2
 73
     0
 90
        0
 40
0.6
 41
30.0
 62
     5
 63
     7
421
 16777215
 74
     1
 91
        4
 64
     7
 65
   257
 75
     1
175
     1
 42
1.0
 92
        8
 66
     7
 43
1.0
 76
     1
 77
     6
 78
     2
 67
     7
 79
     5
170
     0
171
     0
290
     0
174
     0
 93
        1
 44
0.0
173
     0
291
     1
 45
0.0
  0
VISUALSTYLE
  5
11BA
102
{ACAD_REACTORS
330
11AB
102
}
330
11AB
100
AcDbVisualStyle
  2
Facepattern
 70
    15
 71
     2
 72
     2
 73
     0
 90
        0
 40
0.6
 41
30.0
 62
     5
 63
     7
421
 16777215
 74
     1
 91
        4
 64
     7
 65
   257
 75
     1
175
     1
 42
1.0
 92
        8
 66
     7
 43
1.0
 76
     1
 77
     6
 78
     2
 67
     7
 79
     5
170
     0
171
     0
290
     0
174
     0
 93
        1
 44
0.0
173
     0
291
     1
 45
0.0
  0
VISUALSTYLE
  5
11AC
102
{ACAD_REACTORS
330
11AB
102
}
330
11AB
100
AcDbVisualStyle
  2
Flat
 70
     0
 71
     2
 72
     1
 73
     1
 90
        2
 40
0.6
 41
30.0
 62
     5
 63
     7
421
 16777215
 74
     0
 91
        0
 64
     7
 65
   257
 75
     1
175
     1
 42
1.0
 92
        8
 66
     7
 43
1.0
 76
     1
 77
     6
 78
     2
 67
     7
 79
     5
170
     0
171
     0
290
     0
174
     0
 93
       13
 44
0.0
173
     0
291
     1
 45
0.0
  0
VISUALSTYLE
  5
11AD
102
{ACAD_REACTORS
330
11AB
102
}
330
11AB
100
AcDbVisualStyle
  2
FlatWithEdges
 70
     1
 71
     2
 72
     1
 73
     1
 90
        2
 40
0.6
 41
30.0
 62
     5
 63
     7
421
 16777215
 74
     1
 91
        0
 64
     7
 65
   257
 75
     1
175
     1
 42
1.0
 92
        0
 66
   257
 43
1.0
 76
     1
 77
     6
 78
     2
 67
     7
 79
     5
170
     0
171
     0
290
     0
174
     0
 93
       13
 44
0.0
173
     0
291
     1
 45
0.0
  0
VISUALSTYLE
  5
11AE
102
{ACAD_REACTORS
330
11AB
102
}
330
11AB
100
AcDbVisualStyle
  2
Gouraud
 70
     2
 71
     2
 72
     2
 73
     1
 90
        2
 40
0.6
 41
30.0
 62
     5
 63
     7
421
 16777215
 74
     0
 91
        0
 64
     7
 65
   257
 75
     1
175
     1
 42
1.0
 92
        0
 66
     7
 43
1.0
 76
     1
 77
     6
 78
     2
 67
     7
 79
     5
170
     0
171
     0
290
     0
174
     0
 93
       13
 44
0.0
173
     0
291
     1
 45
0.0
  0
VISUALSTYLE
  5
11AF
102
{ACAD_REACTORS
330
11AB
102
}
330
11AB
100
AcDbVisualStyle
  2
GouraudWithEdges
 70
     3
 71
     2
 72
     2
 73
     1
 90
        2
 40
0.6
 41
30.0
 62
     5
 63
     7
421
 16777215
 74
     1
 91
        0
 64
     7
 65
   257
 75
     1
175
     1
 42
1.0
 92
        0
 66
   257
 43
1.0
 76
     1
 77
     6
 78
     2
 67
     7
 79
     5
170
     0
171
     0
290
     0
174
     0
 93
       13
 44
0.0
173
     0
291
     1
 45
0.0
  0
VISUALSTYLE
  5
11B2
102
{ACAD_REACTORS
330
11AB
102
}
330
11AB
100
AcDbVisualStyle
  2
Hidden
 70
     6
 71
     1
 72
     2
 73
     2
 90
        0
 40
0.6
 41
30.0
 62
     5
 63
     7
421
 16777215
 74
     2
 91
        2
 64
     7
 65
   257
 75
     2
175
     1
 42
40.0
 92
        0
 66
   257
 43
1.0
 76
     1
 77
     6
 78
     2
 67
     7
 79
     3
170
     0
171
     0
290
     0
174
     0
 93
        1
 44
0.0
173
     0
291
     0
 45
0.0
  0
VISUALSTYLE
  5
11BC
102
{ACAD_REACTORS
330
11AB
102
}
330
11AB
100
AcDbVisualStyle
  2
JitterOff
 70
    20
 71
     2
 72
     2
 73
     0
 90
        0
 40
0.6
 41
30.0
 62
     5
 63
     7
421
 16777215
 74
     1
 91
        4
 64
     7
 65
   257
 75
     1
175
     1
 42
1.0
 92
       10
 66
     7
 43
1.0
 76
     1
 77
     6
 78
     2
 67
     7
 79
     5
170
     0
171
     0
290
     0
174
     0
 93
        1
 44
0.0
173
     0
291
     1
 45
0.0
  0
VISUALSTYLE
  5
11B9
102
{ACAD_REACTORS
330
11AB
102
}
330
11AB
100
AcDbVisualStyle
  2
Linepattern
 70
    14
 71
     2
 72
     2
 73
     0
 90
        0
 40
0.6
 41
30.0
 62
     5
 63
     7
421
 16777215
 74
     1
 91
        4
 64
     7
 65
   257
 75
     7
175
     7
 42
1.0
 92
        8
 66
     7
 43
1.0
 76
     1
 77
     6
 78
     2
 67
     7
 79
     5
170
     0
171
     0
290
     0
174
     0
 93
        1
 44
0.0
173
     0
291
     1
 45
0.0
  0
VISUALSTYLE
  5
11BD
102
{ACAD_REACTORS
330
11AB
102
}
330
11AB
100
AcDbVisualStyle
  2
OverhangOff
 70
    21
 71
     2
 72
     2
 73
     0
 90
        0
 40
0.6
 41
30.0
 62
     5
 63
     7
421
 16777215
 74
     1
 91
        4
 64
     7
 65
   257
 75
     1
175
     1
 42
1.0
 92
        9
 66
     7
 43
1.0
 76
     1
 77
     6
 78
     2
 67
     7
 79
     5
170
     0
171
     0
290
     0
174
     0
 93
        1
 44
0.0
173
     0
291
     1
 45
0.0
  0
VISUALSTYLE
  5
11B4
102
{ACAD_REACTORS
330
11AB
102
}
330
11AB
100
AcDbVisualStyle
  2
Realistic
 70
     8
 71
     2
 72
     3
 73
     0
 90
        2
 40
0.6
 41
30.0
 62
     5
 63
     7
421
 16777215
 74
     0
 91
        0
 64
     7
 65
   257
 75
     1
175
     1
 42
1.0
 92
        8
 66
   257
 43
1.0
 76
     1
 77
     6
 78
     2
 67
     7
 79
     3
170
     0
171
     0
290
     0
174
     0
 93
       13
 44
0.0
173
     0
291
     0
 45
0.0
  0
VISUALSTYLE
  5
11C3
102
{ACAD_REACTORS
330
11AB
102
}
330
11AB
100
AcDbVisualStyle
  2
Shaded
 70
    27
 71
     2
 72
     2
 73
     1
 90
        2
 40
0.6
 41
30.0
 62
     5
 63
     7
421
 16777215
 74
     0
 91
        4
 64
     7
 65
   257
 75
     1
175
     1
 42
1.0
 92
        8
 66
   257
 43
1.0
 76
     1
 77
     6
 78
     2
 67
     8
425
  7895160
 79
     3
170
     0
171
     0
290
     0
174
     0
 93
        5
 44
0.0
173
     0
291
     0
 45
0.0
  0
VISUALSTYLE
  5
11C2
102
{ACAD_REACTORS
330
11AB
102
}
330
11AB
100
AcDbVisualStyle
  2
Shaded with edges
 70
    26
 71
     2
 72
     2
 73
     1
 90
        2
 40
0.6
 41
30.0
 62
     5
 63
     7
421
 16777215
 74
     1
 91
       10
 64
     7
 65
   257
 75
     2
175
     1
 42
1.0
 92
        8
 66
   257
 43
1.0
 76
     1
 77
     6
 78
     2
 67
     7
 79
     3
170
     0
171
     0
290
     0
174
     0
 93
        5
 44
0.0
173
     0
291
     0
 45
0.0
  0
VISUALSTYLE
  5
11BF
102
{ACAD_REACTORS
330
11AB
102
}
330
11AB
100
AcDbVisualStyle
  2
Shades of Gray
 70
    23
 71
     2
 72
     2
 73
     3
 90
        0
 40
0.6
 41
30.0
 62
     5
 63
     7
421
 16777215
 74
     2
 91
        2
 64
     7
 65
     7
 75
     1
175
     1
 42
40.0
 92
        8
 66
     7
 43
1.0
 76
     1
 77
     6
 78
     2
 67
     7
 79
     3
170
     0
171
     0
290
     0
174
     0
 93
        1
 44
0.0
173
     0
291
     0
 45
0.0
  0
VISUALSTYLE
  5
11C0
102
{ACAD_REACTORS
330
11AB
102
}
330
11AB
100
AcDbVisualStyle
  2
Sketchy
 70
    24
 71
     1
 72
     2
 73
     2
 90
        0
 40
0.6
 41
30.0
 62
     5
 63
     7
421
 16777215
 74
     2
 91
        2
 64
     7
 65
     7
 75
     1
175
     1
 42
40.0
 92
       11
 66
     7
 43
1.0
 76
     1
 77
     6
 78
     2
 67
     7
 79
     6
170
     0
171
     0
290
     0
174
     0
 93
        1
 44
0.0
173
     0
291
     0
 45
0.0
  0
VISUALSTYLE
  5
11B8
102
{ACAD_REACTORS
330
11AB
102
}
330
11AB
100
AcDbVisualStyle
  2
Thicken
 70
    13
 71
     2
 72
     2
 73
     0
 90
        0
 40
0.6
 41
30.0
 62
     5
 63
     7
421
 16777215
 74
     1
 91
        4
 64
     7
 65
   257
 75
     1
175
     1
 42
1.0
 92
       12
 66
     7
 43
1.0
 76
     1
 77
     6
 78
     2
 67
     7
 79
     5
170
     0
171
     0
290
     0
174
     0
 93
        1
 44
0.0
173
     0
291
     1
 45
0.0
  0
VISUALSTYLE
  5
11B1
102
{ACAD_REACTORS
330
11AB
102
}
330
11AB
100
AcDbVisualStyle
  2
Wireframe
 70
     5
 71
     0
 72
     2
 73
     0
 90
        0
 40
0.6
 41
30.0
 62
     5
 63
     7
421
 16777215
 74
     1
 91
        4
 64
     7
 65
   257
 75
     1
175
     1
 42
1.0
 92
        0
 66
   257
 43
1.0
 76
     1
 77
     6
 78
     2
 67
     7
 79
     3
170
     0
171
     0
290
     0
174
     0
 93
        1
 44
0.0
173
     0
291
     0
 45
0.0
  0
VISUALSTYLE
  5
11C1
102
{ACAD_REACTORS
330
11AB
102
}
330
11AB
100
AcDbVisualStyle
  2
X-Ray
 70
    25
 71
     2
 72
     2
 73
     1
 90
        1
 40
0.5
 41
30.0
 62
     5
 63
     7
421
 16777215
 74
     1
 91
        0
 64
     7
 65
   257
 75
     1
175
     1
 42
1.0
 92
        8
 66
     7
 43
1.0
 76
     1
 77
     6
 78
     2
 67
     7
 79
     3
170
     0
171
     0
290
     0
174
     0
 93
       13
 44
0.0
173
     0
291
     0
 45
0.0
  0
DICTIONARYVAR
  5
1250
102
{ACAD_REACTORS
330
124F
102
}
330
124F
100
DictionaryVariables
280
     0
  1
1:1
  0
DICTIONARYVAR
  5
1252
102
{ACAD_REACTORS
330
124F
102
}
330
124F
100
DictionaryVariables
280
     0
  1
Standard
  0
DICTIONARYVAR
  5
1251
102
{ACAD_REACTORS
330
124F
102
}
330
124F
100
DictionaryVariables
280
     0
  1
Standard
  0
DICTIONARYVAR
  5
1253
102
{ACAD_REACTORS
330
124F
102
}
330
124F
100
DictionaryVariables
280
     0
  1
0
  0
DICTIONARYVAR
  5
1254
102
{ACAD_REACTORS
330
124F
102
}
330
124F
100
DictionaryVariables
280
     0
  1
0
  0
DICTIONARY
  5
1293
330
11C8
100
AcDbDictionary
280
     1
281
     1
  3
ACAD_ROUNDTRIP_2008_TABLESTYLE_CELLSTYLEMAP
360
1294
  0
CELLSTYLEMAP
  5
1294
102
{ACAD_REACTORS
330
1293
102
}
330
1293
100
AcDbCellStyleMap
 90
        3
300
CELLSTYLE
  1
TABLEFORMAT_BEGIN
 90
        5
170
     1
 91
        0
 92
    32768
 62
   257
 93
        1
300
CONTENTFORMAT
  1
CONTENTFORMAT_BEGIN
 90
        0
 91
        0
 92
        4
 93
        0
300

 40
0.0
140
1.0
 94
        5
 62
     0
340
11
144
6.0
309
CONTENTFORMAT_END
171
     1
301
MARGIN
  1
CELLMARGIN_BEGIN
 40
1.5
 40
1.5
 40
1.5
 40
1.5
 40
1.5
 40
1.5
309
CELLMARGIN_END
 94
        6
 95
        1
302
GRIDFORMAT
  1
GRIDFORMAT_BEGIN
 90
        0
 91
        1
 62
     0
 92
       -2
340
14
 93
        0
 40
0.045
309
GRIDFORMAT_END
 95
        2
302
GRIDFORMAT
  1
GRIDFORMAT_BEGIN
 90
        0
 91
        1
 62
     0
 92
       -2
340
14
 93
        0
 40
0.045
309
GRIDFORMAT_END
 95
        4
302
GRIDFORMAT
  1
GRIDFORMAT_BEGIN
 90
        0
 91
        1
 62
     0
 92
       -2
340
14
 93
        0
 40
0.045
309
GRIDFORMAT_END
 95
        8
302
GRIDFORMAT
  1
GRIDFORMAT_BEGIN
 90
        0
 91
        1
 62
     0
 92
       -2
340
14
 93
        0
 40
0.045
309
GRIDFORMAT_END
 95
       16
302
GRIDFORMAT
  1
GRIDFORMAT_BEGIN
 90
        0
 91
        1
 62
     0
 92
       -2
340
14
 93
        0
 40
0.045
309
GRIDFORMAT_END
 95
       32
302
GRIDFORMAT
  1
GRIDFORMAT_BEGIN
 90
        0
 91
        1
 62
     0
 92
       -2
340
14
 93
        0
 40
0.045
309
GRIDFORMAT_END
309
TABLEFORMAT_END
  1
CELLSTYLE_BEGIN
 90
        1
 91
        1
300
_TITLE
309
CELLSTYLE_END
300
CELLSTYLE
  1
TABLEFORMAT_BEGIN
 90
        5
170
     1
 91
        0
 92
        0
 62
   257
 93
        1
300
CONTENTFORMAT
  1
CONTENTFORMAT_BEGIN
 90
        0
 91
        0
 92
        4
 93
        0
300

 40
0.0
140
1.0
 94
        5
 62
     0
340
11
144
4.5
309
CONTENTFORMAT_END
171
     1
301
MARGIN
  1
CELLMARGIN_BEGIN
 40
1.5
 40
1.5
 40
1.5
 40
1.5
 40
1.5
 40
1.5
309
CELLMARGIN_END
 94
        6
 95
        1
302
GRIDFORMAT
  1
GRIDFORMAT_BEGIN
 90
        0
 91
        1
 62
     0
 92
       -2
340
14
 93
        0
 40
0.045
309
GRIDFORMAT_END
 95
        2
302
GRIDFORMAT
  1
GRIDFORMAT_BEGIN
 90
        0
 91
        1
 62
     0
 92
       -2
340
14
 93
        0
 40
0.045
309
GRIDFORMAT_END
 95
        4
302
GRIDFORMAT
  1
GRIDFORMAT_BEGIN
 90
        0
 91
        1
 62
     0
 92
       -2
340
14
 93
        0
 40
0.045
309
GRIDFORMAT_END
 95
        8
302
GRIDFORMAT
  1
GRIDFORMAT_BEGIN
 90
        0
 91
        1
 62
     0
 92
       -2
340
14
 93
        0
 40
0.045
309
GRIDFORMAT_END
 95
       16
302
GRIDFORMAT
  1
GRIDFORMAT_BEGIN
 90
        0
 91
        1
 62
     0
 92
       -2
340
14
 93
        0
 40
0.045
309
GRIDFORMAT_END
 95
       32
302
GRIDFORMAT
  1
GRIDFORMAT_BEGIN
 90
        0
 91
        1
 62
     0
 92
       -2
340
14
 93
        0
 40
0.045
309
GRIDFORMAT_END
309
TABLEFORMAT_END
  1
CELLSTYLE_BEGIN
 90
        2
 91
        1
300
_HEADER
309
CELLSTYLE_END
300
CELLSTYLE
  1
TABLEFORMAT_BEGIN
 90
        5
170
     1
 91
        0
 92
        0
 62
   257
 93
        1
300
CONTENTFORMAT
  1
CONTENTFORMAT_BEGIN
 90
        0
 91
        0
 92
        4
 93
        0
300

 40
0.0
140
1.0
 94
        2
 62
     0
340
11
144
4.5
309
CONTENTFORMAT_END
171
     1
301
MARGIN
  1
CELLMARGIN_BEGIN
 40
1.5
 40
1.5
 40
1.5
 40
1.5
 40
1.5
 40
1.5
309
CELLMARGIN_END
 94
        6
 95
        1
302
GRIDFORMAT
  1
GRIDFORMAT_BEGIN
 90
        0
 91
        1
 62
     0
 92
       -2
340
14
 93
        0
 40
0.045
309
GRIDFORMAT_END
 95
        2
302
GRIDFORMAT
  1
GRIDFORMAT_BEGIN
 90
        0
 91
        1
 62
     0
 92
       -2
340
14
 93
        0
 40
0.045
309
GRIDFORMAT_END
 95
        4
302
GRIDFORMAT
  1
GRIDFORMAT_BEGIN
 90
        0
 91
        1
 62
     0
 92
       -2
340
14
 93
        0
 40
0.045
309
GRIDFORMAT_END
 95
        8
302
GRIDFORMAT
  1
GRIDFORMAT_BEGIN
 90
        0
 91
        1
 62
     0
 92
       -2
340
14
 93
        0
 40
0.045
309
GRIDFORMAT_END
 95
       16
302
GRIDFORMAT
  1
GRIDFORMAT_BEGIN
 90
        0
 91
        1
 62
     0
 92
       -2
340
14
 93
        0
 40
0.045
309
GRIDFORMAT_END
 95
       32
302
GRIDFORMAT
  1
GRIDFORMAT_BEGIN
 90
        0
 91
        1
 62
     0
 92
       -2
340
14
 93
        0
 40
0.045
309
GRIDFORMAT_END
309
TABLEFORMAT_END
  1
CELLSTYLE_BEGIN
 90
        3
 91
        2
300
_DATA
309
CELLSTYLE_END
  0
ENDSEC
  0
EOF
