  0
SECTION
  2
HEADER
  9
$ACADVER
  1
AC1015
  9
$ACADMAINTVER
 70
    20
  9
$DWGCODEPAGE
  3
ANSI_1257
  9
$INSBASE
 10
0.0
 20
0.0
 30
0.0
  9
$EXTMIN
 10
-466.9512114806829
 20
-2310.690398012003
 30
0.0
  9
$EXTMAX
 10
1140.875539617438
 20
1095.264040036921
 30
0.0
  9
$LIMMIN
 10
0.0
 20
0.0
  9
$LIMMAX
 10
12.0
 20
9.0
  9
$ORTHOMODE
 70
     1
  9
$REGENMODE
 70
     1
  9
$FILLMODE
 70
     1
  9
$QTEXTMODE
 70
     0
  9
$MIRRTEXT
 70
     0
  9
$LTSCALE
 40
1.0
  9
$ATTMODE
 70
     1
  9
$TEXTSIZE
 40
0.2
  9
$TRACEWID
 40
0.05
  9
$TEXTSTYLE
  7
STANDARD
  9
$CLAYER
  8
0
  9
$CELTYPE
  6
ByLayer
  9
$CECOLOR
 62
   256
  9
$CELTSCALE
 40
1.0
  9
$DISPSILH
 70
     0
  9
$DIMSCALE
 40
1.0
  9
$DIMASZ
 40
0.18
  9
$DIMEXO
 40
0.0625
  9
$DIMDLI
 40
0.38
  9
$DIMRND
 40
0.0
  9
$DIMDLE
 40
0.0
  9
$DIMEXE
 40
0.18
  9
$DIMTP
 40
0.0
  9
$DIMTM
 40
0.0
  9
$DIMTXT
 40
0.18
  9
$DIMCEN
 40
0.09
  9
$DIMTSZ
 40
0.0
  9
$DIMTOL
 70
     0
  9
$DIMLIM
 70
     0
  9
$DIMTIH
 70
     1
  9
$DIMTOH
 70
     1
  9
$DIMSE1
 70
     0
  9
$DIMSE2
 70
     0
  9
$DIMTAD
 70
     0
  9
$DIMZIN
 70
     0
  9
$DIMBLK
  1

  9
$DIMASO
 70
     1
  9
$DIMSHO
 70
     1
  9
$DIMPOST
  1

  9
$DIMAPOST
  1

  9
$DIMALT
 70
     0
  9
$DIMALTD
 70
     2
  9
$DIMALTF
 40
25.4
  9
$DIMLFAC
 40
1.0
  9
$DIMTOFL
 70
     0
  9
$DIMTVP
 40
0.0
  9
$DIMTIX
 70
     0
  9
$DIMSOXD
 70
     0
  9
$DIMSAH
 70
     0
  9
$DIMBLK1
  1

  9
$DIMBLK2
  1

  9
$DIMSTYLE
  2
STANDARD
  9
$DIMCLRD
 70
     0
  9
$DIMCLRE
 70
     0
  9
$DIMCLRT
 70
     0
  9
$DIMTFAC
 40
1.0
  9
$DIMGAP
 40
0.09
  9
$DIMJUST
 70
     0
  9
$DIMSD1
 70
     0
  9
$DIMSD2
 70
     0
  9
$DIMTOLJ
 70
     1
  9
$DIMTZIN
 70
     0
  9
$DIMALTZ
 70
     0
  9
$DIMALTTZ
 70
     0
  9
$DIMUPT
 70
     0
  9
$DIMDEC
 70
     4
  9
$DIMTDEC
 70
     4
  9
$DIMALTU
 70
     2
  9
$DIMALTTD
 70
     2
  9
$DIMTXSTY
  7
STANDARD
  9
$DIMAUNIT
 70
     0
  9
$DIMADEC
 70
     0
  9
$DIMALTRND
 40
0.0
  9
$DIMAZIN
 70
     0
  9
$DIMDSEP
 70
    46
  9
$DIMATFIT
 70
     3
  9
$DIMFRAC
 70
     0
  9
$DIMLDRBLK
  1

  9
$DIMLUNIT
 70
     2
  9
$DIMLWD
 70
    -2
  9
$DIMLWE
 70
    -2
  9
$DIMTMOVE
 70
     0
  9
$LUNITS
 70
     2
  9
$LUPREC
 70
     4
  9
$SKETCHINC
 40
0.1
  9
$FILLETRAD
 40
0.0
  9
$AUNITS
 70
     0
  9
$AUPREC
 70
     0
  9
$MENU
  1
.
  9
$ELEVATION
 40
0.0
  9
$PELEVATION
 40
0.0
  9
$THICKNESS
 40
0.0
  9
$LIMCHECK
 70
     0
  9
$CHAMFERA
 40
0.0
  9
$CHAMFERB
 40
0.0
  9
$CHAMFERC
 40
0.0
  9
$CHAMFERD
 40
0.0
  9
$SKPOLY
 70
     0
  9
$TDCREATE
 40
2453724.351156864
  9
$TDUCREATE
 40
2453724.226156864
  9
$TDUPDATE
 40
2455679.714177303
  9
$TDUUPDATE
 40
2455679.589177303
  9
$TDINDWG
 40
0.0870950579
  9
$TDUSRTIMER
 40
0.0870948727
  9
$USRTIMER
 70
     1
  9
$ANGBASE
 50
0.0
  9
$ANGDIR
 70
     0
  9
$PDMODE
 70
     0
  9
$PDSIZE
 40
0.0
  9
$PLINEWID
 40
0.0
  9
$SPLFRAME
 70
     0
  9
$SPLINETYPE
 70
     6
  9
$SPLINESEGS
 70
     8
  9
$HANDSEED
  5
14F3
  9
$SURFTAB1
 70
     6
  9
$SURFTAB2
 70
     6
  9
$SURFTYPE
 70
     6
  9
$SURFU
 70
     6
  9
$SURFV
 70
     6
  9
$UCSBASE
  2

  9
$UCSNAME
  2

  9
$UCSORG
 10
0.0
 20
0.0
 30
0.0
  9
$UCSXDIR
 10
1.0
 20
0.0
 30
0.0
  9
$UCSYDIR
 10
0.0
 20
1.0
 30
0.0
  9
$UCSORTHOREF
  2

  9
$UCSORTHOVIEW
 70
     0
  9
$UCSORGTOP
 10
0.0
 20
0.0
 30
0.0
  9
$UCSORGBOTTOM
 10
0.0
 20
0.0
 30
0.0
  9
$UCSORGLEFT
 10
0.0
 20
0.0
 30
0.0
  9
$UCSORGRIGHT
 10
0.0
 20
0.0
 30
0.0
  9
$UCSORGFRONT
 10
0.0
 20
0.0
 30
0.0
  9
$UCSORGBACK
 10
0.0
 20
0.0
 30
0.0
  9
$PUCSBASE
  2

  9
$PUCSNAME
  2

  9
$PUCSORG
 10
0.0
 20
0.0
 30
0.0
  9
$PUCSXDIR
 10
1.0
 20
0.0
 30
0.0
  9
$PUCSYDIR
 10
0.0
 20
1.0
 30
0.0
  9
$PUCSORTHOREF
  2

  9
$PUCSORTHOVIEW
 70
     0
  9
$PUCSORGTOP
 10
0.0
 20
0.0
 30
0.0
  9
$PUCSORGBOTTOM
 10
0.0
 20
0.0
 30
0.0
  9
$PUCSORGLEFT
 10
0.0
 20
0.0
 30
0.0
  9
$PUCSORGRIGHT
 10
0.0
 20
0.0
 30
0.0
  9
$PUCSORGFRONT
 10
0.0
 20
0.0
 30
0.0
  9
$PUCSORGBACK
 10
0.0
 20
0.0
 30
0.0
  9
$USERI1
 70
     0
  9
$USERI2
 70
     0
  9
$USERI3
 70
     0
  9
$USERI4
 70
     0
  9
$USERI5
 70
     0
  9
$USERR1
 40
0.0
  9
$USERR2
 40
0.0
  9
$USERR3
 40
0.0
  9
$USERR4
 40
0.0
  9
$USERR5
 40
0.0
  9
$WORLDVIEW
 70
     1
  9
$SHADEDGE
 70
     3
  9
$SHADEDIF
 70
    70
  9
$TILEMODE
 70
     1
  9
$MAXACTVP
 70
    64
  9
$PINSBASE
 10
0.0
 20
0.0
 30
0.0
  9
$PLIMCHECK
 70
     0
  9
$PEXTMIN
 10
0.0
 20
0.0
 30
0.0
  9
$PEXTMAX
 10
0.0
 20
0.0
 30
0.0
  9
$PLIMMIN
 10
0.0
 20
0.0
  9
$PLIMMAX
 10
12.0
 20
9.0
  9
$UNITMODE
 70
     0
  9
$VISRETAIN
 70
     1
  9
$PLINEGEN
 70
     0
  9
$PSLTSCALE
 70
     1
  9
$TREEDEPTH
 70
  3020
  9
$CMLSTYLE
  2
Standard
  9
$CMLJUST
 70
     0
  9
$CMLSCALE
 40
1.0
  9
$PROXYGRAPHICS
 70
     1
  9
$MEASUREMENT
 70
     0
  9
$CELWEIGHT
370
    -1
  9
$ENDCAPS
280
     0
  9
$JOINSTYLE
280
     0
  9
$LWDISPLAY
290
     0
  9
$INSUNITS
 70
     0
  9
$HYPERLINKBASE
  1

  9
$STYLESHEET
  1

  9
$XEDIT
290
     1
  9
$CEPSNTYPE
380
     0
  9
$PSTYLEMODE
290
     1
  9
$FINGERPRINTGUID
  2
{1669876C-3576-4BAE-8B02-A0E4FB692438}
  9
$VERSIONGUID
  2
{0E9BDD46-82AD-4A96-8049-8B4551390778}
  9
$EXTNAMES
290
     1
  9
$PSVPSCALE
 40
0.0
  9
$OLESTARTUP
290
     0
  0
ENDSEC
  0
SECTION
  2
CLASSES
  0
CLASS
  1
ACDBDICTIONARYWDFLT
  2
AcDbDictionaryWithDefault
  3
ObjectDBX Classes
 90
        0
280
     0
281
     0
  0
CLASS
  1
DICTIONARYVAR
  2
AcDbDictionaryVar
  3
ObjectDBX Classes
 90
        0
280
     0
281
     0
  0
CLASS
  1
ACDBPLACEHOLDER
  2
AcDbPlaceHolder
  3
ObjectDBX Classes
 90
        0
280
     0
281
     0
  0
CLASS
  1
LAYOUT
  2
AcDbLayout
  3
ObjectDBX Classes
 90
        0
280
     0
281
     0
  0
ENDSEC
  0
SECTION
  2
TABLES
  0
TABLE
  2
VPORT
  5
1320
330
0
100
AcDbSymbolTable
 70
     2
  0
VPORT
  5
14EB
330
1320
100
AcDbSymbolTableRecord
100
AcDbViewportTableRecord
  2
*Active
 70
     0
 10
0.0
 20
0.0
 11
1.0
 21
1.0
 12
755.7318019209174
 22
320.6189524274323
 13
0.0
 23
0.0
 14
0.5
 24
0.5
 15
0.5
 25
0.5
 16
0.0
 26
0.0
 36
1.0
 17
0.0
 27
0.0
 37
0.0
 40
2521.975103721216
 41
1.948644793152639
 42
50.0
 43
0.0
 44
0.0
 50
0.0
 51
0.0
 71
     0
 72
  1000
 73
     1
 74
     3
 75
     0
 76
     0
 77
     0
 78
     0
281
     0
 65
     1
110
0.0
120
0.0
130
0.0
111
1.0
121
0.0
131
0.0
112
0.0
122
1.0
132
0.0
 79
     0
146
0.0
  0
ENDTAB
  0
TABLE
  2
LTYPE
  5
131D
330
0
100
AcDbSymbolTable
 70
     2
  0
LTYPE
  5
132B
330
131D
100
AcDbSymbolTableRecord
100
AcDbLinetypeTableRecord
  2
ByBlock
 70
     0
  3

 72
    65
 73
     0
 40
0.0
  0
LTYPE
  5
132C
330
131D
100
AcDbSymbolTableRecord
100
AcDbLinetypeTableRecord
  2
ByLayer
 70
     0
  3

 72
    65
 73
     0
 40
0.0
  0
LTYPE
  5
132D
330
131D
100
AcDbSymbolTableRecord
100
AcDbLinetypeTableRecord
  2
CONTINUOUS
 70
     0
  3
Solid line
 72
    65
 73
     0
 40
0.0
  0
LTYPE
  5
133E
330
131D
100
AcDbSymbolTableRecord
100
AcDbLinetypeTableRecord
  2
CENTER2
 70
     0
  3
Center (.5x) ___ _ ___ _ ___ _ ___ _ ___ _ ___
 72
    65
 73
     4
 40
28.575
 49
19.05
 74
     0
 49
-3.174999999999998
 74
     0
 49
3.174999999999998
 74
     0
 49
-3.174999999999998
 74
     0
  0
ENDTAB
  0
TABLE
  2
LAYER
  5
131A
330
0
100
AcDbSymbolTable
 70
     6
  0
LAYER
  5
1328
330
131A
100
AcDbSymbolTableRecord
100
AcDbLayerTableRecord
  2
0
 70
     0
 62
     7
  6
CONTINUOUS
370
    -3
390
1327
  0
LAYER
  5
133C
330
131A
100
AcDbSymbolTableRecord
100
AcDbLayerTableRecord
  2
ASYS
 70
     0
 62
     1
  6
CENTER2
370
    -3
390
1327
  0
LAYER
  5
133F
330
131A
100
AcDbSymbolTableRecord
100
AcDbLayerTableRecord
  2
PAGR
 70
     0
 62
     7
  6
CONTINUOUS
370
    -3
390
1327
  0
LAYER
  5
1340
330
131A
100
AcDbSymbolTableRecord
100
AcDbLayerTableRecord
  2
TEKSTAS
 70
     0
 62
     5
  6
CONTINUOUS
370
    -3
390
1327
  0
LAYER
  5
1341
330
131A
100
AcDbSymbolTableRecord
100
AcDbLayerTableRecord
  2
MATM
 70
     0
 62
     7
  6
CONTINUOUS
370
    -3
390
1327
  0
LAYER
  5
1342
330
131A
100
AcDbSymbolTableRecord
100
AcDbLayerTableRecord
  2
DEFPOINTS
 70
     0
 62
     7
  6
CONTINUOUS
290
     0
370
    -3
390
1327
  0
ENDTAB
  0
TABLE
  2
STYLE
  5
131B
330
0
100
AcDbSymbolTable
 70
     1
  0
STYLE
  5
1329
330
131B
100
AcDbSymbolTableRecord
100
AcDbTextStyleTableRecord
  2
STANDARD
 70
     0
 40
0.0
 41
1.0
 50
0.0
 71
     0
 42
0.2
  3
txt
  4

  0
ENDTAB
  0
TABLE
  2
VIEW
  5
131E
330
0
100
AcDbSymbolTable
 70
     0
  0
ENDTAB
  0
TABLE
  2
UCS
  5
131F
330
0
100
AcDbSymbolTable
 70
     0
  0
ENDTAB
  0
TABLE
  2
APPID
  5
1321
330
0
100
AcDbSymbolTable
 70
     1
  0
APPID
  5
132A
330
1321
100
AcDbSymbolTableRecord
100
AcDbRegAppTableRecord
  2
ACAD
 70
     0
  0
ENDTAB
  0
TABLE
  2
DIMSTYLE
  5
1322
330
0
100
AcDbSymbolTable
 70
     2
100
AcDbDimStyleTable
 71
     1
340
1343
  0
DIMSTYLE
105
1343
330
1322
100
AcDbSymbolTableRecord
100
AcDbDimStyleTableRecord
  2
STANDARD
 70
     0
279
     2
340
1329
  0
DIMSTYLE
105
1344
330
1322
100
AcDbSymbolTableRecord
100
AcDbDimStyleTableRecord
  2
ISO-25
 70
     0
 40
6.0
 41
1.5
 42
0.0
 43
6.75
 44
2.25
 73
     0
 74
     0
 77
     1
 78
     8
140
2.5
141
2.5
143
0.03937007874016
147
0.5
171
     3
172
     1
279
     2
340
1329
  0
ENDTAB
  0
TABLE
  2
BLOCK_RECORD
  5
1319
330
0
100
AcDbSymbolTable
 70
    88
  0
BLOCK_RECORD
  5
1338
330
1319
100
AcDbSymbolTableRecord
100
AcDbBlockTableRecord
  2
*Model_Space
340
133B
  0
BLOCK_RECORD
  5
1334
330
1319
100
AcDbSymbolTableRecord
100
AcDbBlockTableRecord
  2
*Paper_Space
340
1337
  0
BLOCK_RECORD
  5
1346
330
1319
100
AcDbSymbolTableRecord
100
AcDbBlockTableRecord
  2
$MODEL_SPACE
340
0
  0
BLOCK_RECORD
  5
1348
330
1319
100
AcDbSymbolTableRecord
100
AcDbBlockTableRecord
  2
$PAPER_SPACE
340
0
  0
BLOCK_RECORD
  5
134A
330
1319
100
AcDbSymbolTableRecord
100
AcDbBlockTableRecord
  2
*D2
340
0
  0
BLOCK_RECORD
  5
134C
330
1319
100
AcDbSymbolTableRecord
100
AcDbBlockTableRecord
  2
*U3
340
0
102
{BLKREFS
331
90
102
}
  0
BLOCK_RECORD
  5
134E
330
1319
100
AcDbSymbolTableRecord
100
AcDbBlockTableRecord
  2
*D4
340
0
  0
BLOCK_RECORD
  5
1350
330
1319
100
AcDbSymbolTableRecord
100
AcDbBlockTableRecord
  2
*U5
340
0
102
{BLKREFS
331
9C
102
}
  0
BLOCK_RECORD
  5
1352
330
1319
100
AcDbSymbolTableRecord
100
AcDbBlockTableRecord
  2
*D6
340
0
  0
BLOCK_RECORD
  5
1354
330
1319
100
AcDbSymbolTableRecord
100
AcDbBlockTableRecord
  2
*U7
340
0
102
{BLKREFS
331
A8
102
}
  0
BLOCK_RECORD
  5
1356
330
1319
100
AcDbSymbolTableRecord
100
AcDbBlockTableRecord
  2
*D8
340
0
  0
BLOCK_RECORD
  5
1358
330
1319
100
AcDbSymbolTableRecord
100
AcDbBlockTableRecord
  2
*U9
340
0
102
{BLKREFS
331
B4
102
}
  0
BLOCK_RECORD
  5
135A
330
1319
100
AcDbSymbolTableRecord
100
AcDbBlockTableRecord
  2
*D10
340
0
  0
BLOCK_RECORD
  5
135C
330
1319
100
AcDbSymbolTableRecord
100
AcDbBlockTableRecord
  2
*U11
340
0
102
{BLKREFS
331
C0
102
}
  0
BLOCK_RECORD
  5
135E
330
1319
100
AcDbSymbolTableRecord
100
AcDbBlockTableRecord
  2
*D12
340
0
  0
BLOCK_RECORD
  5
1360
330
1319
100
AcDbSymbolTableRecord
100
AcDbBlockTableRecord
  2
*U13
340
0
102
{BLKREFS
331
CE
102
}
  0
BLOCK_RECORD
  5
1362
330
1319
100
AcDbSymbolTableRecord
100
AcDbBlockTableRecord
  2
*D14
340
0
  0
BLOCK_RECORD
  5
1364
330
1319
100
AcDbSymbolTableRecord
100
AcDbBlockTableRecord
  2
*U15
340
0
102
{BLKREFS
331
DA
102
}
  0
BLOCK_RECORD
  5
1366
330
1319
100
AcDbSymbolTableRecord
100
AcDbBlockTableRecord
  2
*D16
340
0
  0
BLOCK_RECORD
  5
1368
330
1319
100
AcDbSymbolTableRecord
100
AcDbBlockTableRecord
  2
*U17
340
0
102
{BLKREFS
331
E8
102
}
  0
BLOCK_RECORD
  5
136A
330
1319
100
AcDbSymbolTableRecord
100
AcDbBlockTableRecord
  2
*D18
340
0
  0
BLOCK_RECORD
  5
136C
330
1319
100
AcDbSymbolTableRecord
100
AcDbBlockTableRecord
  2
*U19
340
0
102
{BLKREFS
331
F6
102
}
  0
BLOCK_RECORD
  5
136E
330
1319
100
AcDbSymbolTableRecord
100
AcDbBlockTableRecord
  2
*D20
340
0
  0
BLOCK_RECORD
  5
1370
330
1319
100
AcDbSymbolTableRecord
100
AcDbBlockTableRecord
  2
*U21
340
0
102
{BLKREFS
331
104
102
}
  0
BLOCK_RECORD
  5
1372
330
1319
100
AcDbSymbolTableRecord
100
AcDbBlockTableRecord
  2
*D22
340
0
  0
BLOCK_RECORD
  5
1374
330
1319
100
AcDbSymbolTableRecord
100
AcDbBlockTableRecord
  2
*U23
340
0
102
{BLKREFS
331
10D
102
}
  0
BLOCK_RECORD
  5
1376
330
1319
100
AcDbSymbolTableRecord
100
AcDbBlockTableRecord
  2
*D24
340
0
  0
BLOCK_RECORD
  5
1378
330
1319
100
AcDbSymbolTableRecord
100
AcDbBlockTableRecord
  2
*U25
340
0
102
{BLKREFS
331
3BD
102
}
  0
BLOCK_RECORD
  5
137A
330
1319
100
AcDbSymbolTableRecord
100
AcDbBlockTableRecord
  2
*D26
340
0
  0
BLOCK_RECORD
  5
137C
330
1319
100
AcDbSymbolTableRecord
100
AcDbBlockTableRecord
  2
*U27
340
0
102
{BLKREFS
331
3E8
102
}
  0
BLOCK_RECORD
  5
137E
330
1319
100
AcDbSymbolTableRecord
100
AcDbBlockTableRecord
  2
*D28
340
0
  0
BLOCK_RECORD
  5
1380
330
1319
100
AcDbSymbolTableRecord
100
AcDbBlockTableRecord
  2
*U29
340
0
102
{BLKREFS
331
2F5
102
}
  0
BLOCK_RECORD
  5
1382
330
1319
100
AcDbSymbolTableRecord
100
AcDbBlockTableRecord
  2
*D30
340
0
  0
BLOCK_RECORD
  5
1384
330
1319
100
AcDbSymbolTableRecord
100
AcDbBlockTableRecord
  2
*U31
340
0
102
{BLKREFS
331
3A1
102
}
  0
BLOCK_RECORD
  5
1386
330
1319
100
AcDbSymbolTableRecord
100
AcDbBlockTableRecord
  2
*D32
340
0
  0
BLOCK_RECORD
  5
1388
330
1319
100
AcDbSymbolTableRecord
100
AcDbBlockTableRecord
  2
*U33
340
0
102
{BLKREFS
331
30B
102
}
  0
BLOCK_RECORD
  5
138A
330
1319
100
AcDbSymbolTableRecord
100
AcDbBlockTableRecord
  2
*D34
340
0
  0
BLOCK_RECORD
  5
138C
330
1319
100
AcDbSymbolTableRecord
100
AcDbBlockTableRecord
  2
*U35
340
0
102
{BLKREFS
331
316
102
}
  0
BLOCK_RECORD
  5
138E
330
1319
100
AcDbSymbolTableRecord
100
AcDbBlockTableRecord
  2
*D36
340
0
  0
BLOCK_RECORD
  5
1390
330
1319
100
AcDbSymbolTableRecord
100
AcDbBlockTableRecord
  2
*U37
340
0
102
{BLKREFS
331
321
102
}
  0
BLOCK_RECORD
  5
1392
330
1319
100
AcDbSymbolTableRecord
100
AcDbBlockTableRecord
  2
*D38
340
0
  0
BLOCK_RECORD
  5
1394
330
1319
100
AcDbSymbolTableRecord
100
AcDbBlockTableRecord
  2
*U39
340
0
102
{BLKREFS
331
32A
102
}
  0
BLOCK_RECORD
  5
1396
330
1319
100
AcDbSymbolTableRecord
100
AcDbBlockTableRecord
  2
*D40
340
0
  0
BLOCK_RECORD
  5
1398
330
1319
100
AcDbSymbolTableRecord
100
AcDbBlockTableRecord
  2
*U41
340
0
102
{BLKREFS
331
335
102
}
  0
BLOCK_RECORD
  5
139A
330
1319
100
AcDbSymbolTableRecord
100
AcDbBlockTableRecord
  2
*D42
340
0
  0
BLOCK_RECORD
  5
139C
330
1319
100
AcDbSymbolTableRecord
100
AcDbBlockTableRecord
  2
*U43
340
0
102
{BLKREFS
331
3C6
102
}
  0
BLOCK_RECORD
  5
139E
330
1319
100
AcDbSymbolTableRecord
100
AcDbBlockTableRecord
  2
*D44
340
0
  0
BLOCK_RECORD
  5
13A0
330
1319
100
AcDbSymbolTableRecord
100
AcDbBlockTableRecord
  2
*U45
340
0
102
{BLKREFS
331
3FA
102
}
  0
BLOCK_RECORD
  5
13A2
330
1319
100
AcDbSymbolTableRecord
100
AcDbBlockTableRecord
  2
*X46
340
0
  0
BLOCK_RECORD
  5
13A4
330
1319
100
AcDbSymbolTableRecord
100
AcDbBlockTableRecord
  2
*U47
340
0
  0
BLOCK_RECORD
  5
13A6
330
1319
100
AcDbSymbolTableRecord
100
AcDbBlockTableRecord
  2
*U48
340
0
  0
BLOCK_RECORD
  5
13A8
330
1319
100
AcDbSymbolTableRecord
100
AcDbBlockTableRecord
  2
*U49
340
0
  0
BLOCK_RECORD
  5
13AA
330
1319
100
AcDbSymbolTableRecord
100
AcDbBlockTableRecord
  2
*U50
340
0
  0
BLOCK_RECORD
  5
13AC
330
1319
100
AcDbSymbolTableRecord
100
AcDbBlockTableRecord
  2
*U51
340
0
  0
BLOCK_RECORD
  5
13AE
330
1319
100
AcDbSymbolTableRecord
100
AcDbBlockTableRecord
  2
*U52
340
0
  0
BLOCK_RECORD
  5
13B0
330
1319
100
AcDbSymbolTableRecord
100
AcDbBlockTableRecord
  2
*U53
340
0
  0
BLOCK_RECORD
  5
13B2
330
1319
100
AcDbSymbolTableRecord
100
AcDbBlockTableRecord
  2
*U54
340
0
  0
BLOCK_RECORD
  5
13B4
330
1319
100
AcDbSymbolTableRecord
100
AcDbBlockTableRecord
  2
*U55
340
0
  0
BLOCK_RECORD
  5
13B6
330
1319
100
AcDbSymbolTableRecord
100
AcDbBlockTableRecord
  2
*U56
340
0
  0
BLOCK_RECORD
  5
13B8
330
1319
100
AcDbSymbolTableRecord
100
AcDbBlockTableRecord
  2
*U57
340
0
  0
BLOCK_RECORD
  5
13BA
330
1319
100
AcDbSymbolTableRecord
100
AcDbBlockTableRecord
  2
*U58
340
0
  0
BLOCK_RECORD
  5
13BC
330
1319
100
AcDbSymbolTableRecord
100
AcDbBlockTableRecord
  2
*U59
340
0
  0
BLOCK_RECORD
  5
13BE
330
1319
100
AcDbSymbolTableRecord
100
AcDbBlockTableRecord
  2
*U60
340
0
  0
BLOCK_RECORD
  5
13C0
330
1319
100
AcDbSymbolTableRecord
100
AcDbBlockTableRecord
  2
*U61
340
0
  0
BLOCK_RECORD
  5
13C2
330
1319
100
AcDbSymbolTableRecord
100
AcDbBlockTableRecord
  2
*U62
340
0
  0
BLOCK_RECORD
  5
13C4
330
1319
100
AcDbSymbolTableRecord
100
AcDbBlockTableRecord
  2
*U63
340
0
  0
BLOCK_RECORD
  5
13C6
330
1319
100
AcDbSymbolTableRecord
100
AcDbBlockTableRecord
  2
*U64
340
0
  0
BLOCK_RECORD
  5
13C8
330
1319
100
AcDbSymbolTableRecord
100
AcDbBlockTableRecord
  2
*U65
340
0
  0
BLOCK_RECORD
  5
13CA
330
1319
100
AcDbSymbolTableRecord
100
AcDbBlockTableRecord
  2
*U66
340
0
  0
BLOCK_RECORD
  5
13CC
330
1319
100
AcDbSymbolTableRecord
100
AcDbBlockTableRecord
  2
*U67
340
0
  0
BLOCK_RECORD
  5
13CE
330
1319
100
AcDbSymbolTableRecord
100
AcDbBlockTableRecord
  2
*U68
340
0
  0
BLOCK_RECORD
  5
13D0
330
1319
100
AcDbSymbolTableRecord
100
AcDbBlockTableRecord
  2
*U69
340
0
  0
BLOCK_RECORD
  5
13D2
330
1319
100
AcDbSymbolTableRecord
100
AcDbBlockTableRecord
  2
*D70
340
0
  0
BLOCK_RECORD
  5
13D4
330
1319
100
AcDbSymbolTableRecord
100
AcDbBlockTableRecord
  2
*U71
340
0
102
{BLKREFS
331
EA5
102
}
  0
BLOCK_RECORD
  5
13D6
330
1319
100
AcDbSymbolTableRecord
100
AcDbBlockTableRecord
  2
*D72
340
0
  0
BLOCK_RECORD
  5
13D8
330
1319
100
AcDbSymbolTableRecord
100
AcDbBlockTableRecord
  2
*U73
340
0
102
{BLKREFS
331
E9D
102
}
  0
BLOCK_RECORD
  5
13DA
330
1319
100
AcDbSymbolTableRecord
100
AcDbBlockTableRecord
  2
*D74
340
0
  0
BLOCK_RECORD
  5
13DC
330
1319
100
AcDbSymbolTableRecord
100
AcDbBlockTableRecord
  2
*U75
340
0
102
{BLKREFS
331
E92
102
}
  0
BLOCK_RECORD
  5
13E0
330
1319
100
AcDbSymbolTableRecord
100
AcDbBlockTableRecord
  2
*D76
340
0
  0
BLOCK_RECORD
  5
13E2
330
1319
100
AcDbSymbolTableRecord
100
AcDbBlockTableRecord
  2
*U77
340
0
102
{BLKREFS
331
109B
102
}
  0
BLOCK_RECORD
  5
13E4
330
1319
100
AcDbSymbolTableRecord
100
AcDbBlockTableRecord
  2
*D78
340
0
  0
BLOCK_RECORD
  5
13E6
330
1319
100
AcDbSymbolTableRecord
100
AcDbBlockTableRecord
  2
*U79
340
0
102
{BLKREFS
331
12BE
102
}
  0
BLOCK_RECORD
  5
13E7
330
1319
100
AcDbSymbolTableRecord
100
AcDbBlockTableRecord
  2
*D80
340
0
  0
BLOCK_RECORD
  5
13E9
330
1319
100
AcDbSymbolTableRecord
100
AcDbBlockTableRecord
  2
*U81
340
0
102
{BLKREFS
331
12C8
102
}
  0
BLOCK_RECORD
  5
13EA
330
1319
100
AcDbSymbolTableRecord
100
AcDbBlockTableRecord
  2
*D82
340
0
  0
BLOCK_RECORD
  5
13EC
330
1319
100
AcDbSymbolTableRecord
100
AcDbBlockTableRecord
  2
*U83
340
0
102
{BLKREFS
331
12A3
102
}
  0
BLOCK_RECORD
  5
13ED
330
1319
100
AcDbSymbolTableRecord
100
AcDbBlockTableRecord
  2
*D84
340
0
  0
BLOCK_RECORD
  5
13EF
330
1319
100
AcDbSymbolTableRecord
100
AcDbBlockTableRecord
  2
*U85
340
0
102
{BLKREFS
331
12AC
102
}
  0
BLOCK_RECORD
  5
13F0
330
1319
100
AcDbSymbolTableRecord
100
AcDbBlockTableRecord
  2
*D86
340
0
  0
BLOCK_RECORD
  5
13F2
330
1319
100
AcDbSymbolTableRecord
100
AcDbBlockTableRecord
  2
*U87
340
0
102
{BLKREFS
331
12B4
102
}
  0
ENDTAB
  0
ENDSEC
  0
SECTION
  2
BLOCKS
  0
BLOCK
  5
1339
330
1338
100
AcDbEntity
  8
0
100
AcDbBlockBegin
  2
*Model_Space
 70
     0
 10
0.0
 20
0.0
 30
0.0
  3
*Model_Space
  1

  0
ENDBLK
  5
133A
330
1338
100
AcDbEntity
  8
0
100
AcDbBlockEnd
  0
BLOCK
  5
1335
330
1334
100
AcDbEntity
 67
     1
  8
0
100
AcDbBlockBegin
  2
*Paper_Space
 70
     0
 10
0.0
 20
0.0
 30
0.0
  3
*Paper_Space
  1

  0
ENDBLK
  5
1336
330
1334
100
AcDbEntity
 67
     1
  8
0
100
AcDbBlockEnd
  0
BLOCK
  5
1347
330
1346
100
AcDbEntity
  8
0
100
AcDbBlockBegin
  2
$MODEL_SPACE
 70
     0
 10
0.0
 20
0.0
 30
0.0
  3
$MODEL_SPACE
  1

  0
ENDBLK
  5
10FE
330
1346
100
AcDbEntity
  8
0
100
AcDbBlockEnd
  0
BLOCK
  5
1349
330
1348
100
AcDbEntity
  8
0
100
AcDbBlockBegin
  2
$PAPER_SPACE
 70
     0
 10
0.0
 20
0.0
 30
0.0
  3
$PAPER_SPACE
  1

  0
ENDBLK
  5
10FA
330
1348
100
AcDbEntity
  8
0
100
AcDbBlockEnd
  0
BLOCK
  5
134B
330
134A
100
AcDbEntity
  8
0
100
AcDbBlockBegin
  2
*D2
 70
     1
 10
0.0
 20
0.0
 30
0.0
  3
*D2
  1

  0
LINE
  5
8B
330
134A
100
AcDbEntity
  8
MATM
 62
     0
100
AcDbLine
 10
644.2459015811646
 20
488.2161046918453
 30
0.0
 11
644.2459015811646
 21
416.7718869241237
 31
0.0
  0
LINE
  5
8C
330
134A
100
AcDbEntity
  8
MATM
 62
     0
100
AcDbLine
 10
308.2459015811646
 20
488.2161046918453
 30
0.0
 11
308.2459015811646
 21
416.7718869241237
 31
0.0
  0
LINE
  5
8D
330
134A
100
AcDbEntity
  8
MATM
 62
     0
100
AcDbLine
 10
635.2459015811646
 20
430.2718869241236
 30
0.0
 11
317.2459015811646
 21
430.2718869241236
 31
0.0
  0
SOLID
  5
8E
330
134A
100
AcDbEntity
  8
MATM
 62
     0
100
AcDbTrace
 10
635.2459015811646
 20
431.7718869241237
 30
0.0
 11
635.2459015811646
 21
428.7718869241238
 31
0.0
 12
644.2459015811646
 22
430.2718869241236
 32
0.0
 13
644.2459015811646
 23
430.2718869241236
 33
0.0
  0
SOLID
  5
8F
330
134A
100
AcDbEntity
  8
MATM
 62
     0
100
AcDbTrace
 10
317.2459015811646
 20
431.7718869241237
 30
0.0
 11
317.2459015811646
 21
428.7718869241238
 31
0.0
 12
308.2459015811646
 22
430.2718869241236
 32
0.0
 13
308.2459015811646
 23
430.2718869241236
 33
0.0
  0
INSERT
  5
90
330
134A
100
AcDbEntity
  8
ASYS
100
AcDbBlockReference
  2
*U3
 10
0.0
 20
0.0
 30
0.0
  0
POINT
  5
91
330
134A
100
AcDbEntity
  8
DEFPOINTS
 62
     0
100
AcDbPoint
 10
644.2459015811646
 20
488.2161046918453
 30
0.0
  0
POINT
  5
92
330
134A
100
AcDbEntity
  8
DEFPOINTS
 62
     0
100
AcDbPoint
 10
308.2459015811646
 20
488.2161046918453
 30
0.0
  0
POINT
  5
93
330
134A
100
AcDbEntity
  8
DEFPOINTS
 62
     0
100
AcDbPoint
 10
308.2459015811646
 20
430.2718869241236
 30
0.0
  0
ENDBLK
  5
94
330
134A
100
AcDbEntity
  8
0
100
AcDbBlockEnd
  0
BLOCK
  5
134D
330
134C
100
AcDbEntity
  8
0
100
AcDbBlockBegin
  2
*U3
 70
     1
 10
0.0
 20
0.0
 30
0.0
  3
*U3
  1

  0
TEXT
  5
62D
330
134C
100
AcDbEntity
  8
MATM
 62
     0
100
AcDbText
 10
443.2140682811606
 20
433.5841770517261
 30
0.0
 40
15.0
  1
B2±
100
AcDbText
  0
TEXT
  5
62E
330
134C
100
AcDbEntity
  8
MATM
 62
     0
100
AcDbText
 10
481.2169522032948
 20
433.5841770517261
 30
0.0
 40
15.0
  1
0.5
100
AcDbText
  0
ENDBLK
  5
630
330
134C
100
AcDbEntity
  8
0
100
AcDbBlockEnd
  0
BLOCK
  5
134F
330
134E
100
AcDbEntity
  8
0
100
AcDbBlockBegin
  2
*D4
 70
     1
 10
0.0
 20
0.0
 30
0.0
  3
*D4
  1

  0
LINE
  5
97
330
134E
100
AcDbEntity
  8
MATM
 62
     0
100
AcDbLine
 10
626.2459015811645
 20
656.2161046918454
 30
0.0
 11
707.7224690644542
 21
656.2161046918454
 31
0.0
  0
LINE
  5
98
330
134E
100
AcDbEntity
  8
MATM
 62
     0
100
AcDbLine
 10
626.2459015811645
 20
470.2161046918454
 30
0.0
 11
707.7224690644542
 21
470.2161046918454
 31
0.0
  0
LINE
  5
99
330
134E
100
AcDbEntity
  8
MATM
 62
     0
100
AcDbLine
 10
694.2224690644542
 20
647.2161046918454
 30
0.0
 11
694.2224690644542
 21
479.2161046918454
 31
0.0
  0
SOLID
  5
9A
330
134E
100
AcDbEntity
  8
MATM
 62
     0
100
AcDbTrace
 10
692.7224690644542
 20
647.2161046918454
 30
0.0
 11
695.7224690644542
 21
647.2161046918454
 31
0.0
 12
694.2224690644542
 22
656.2161046918454
 32
0.0
 13
694.2224690644542
 23
656.2161046918454
 33
0.0
  0
SOLID
  5
9B
330
134E
100
AcDbEntity
  8
MATM
 62
     0
100
AcDbTrace
 10
692.7224690644542
 20
479.2161046918454
 30
0.0
 11
695.7224690644542
 21
479.2161046918454
 31
0.0
 12
694.2224690644542
 22
470.2161046918454
 32
0.0
 13
694.2224690644542
 23
470.2161046918454
 33
0.0
  0
INSERT
  5
9C
330
134E
100
AcDbEntity
  8
ASYS
100
AcDbBlockReference
  2
*U5
 10
0.0
 20
0.0
 30
0.0
  0
POINT
  5
9D
330
134E
100
AcDbEntity
  8
DEFPOINTS
 62
     0
100
AcDbPoint
 10
626.2459015811645
 20
656.2161046918454
 30
0.0
  0
POINT
  5
9E
330
134E
100
AcDbEntity
  8
DEFPOINTS
 62
     0
100
AcDbPoint
 10
626.2459015811645
 20
470.2161046918454
 30
0.0
  0
POINT
  5
9F
330
134E
100
AcDbEntity
  8
DEFPOINTS
 62
     0
100
AcDbPoint
 10
694.2224690644542
 20
470.2161046918454
 30
0.0
  0
ENDBLK
  5
A0
330
134E
100
AcDbEntity
  8
0
100
AcDbBlockEnd
  0
BLOCK
  5
1351
330
1350
100
AcDbEntity
  8
0
100
AcDbBlockBegin
  2
*U5
 70
     1
 10
0.0
 20
0.0
 30
0.0
  3
*U5
  1

  0
TEXT
  5
632
330
1350
100
AcDbEntity
  8
MATM
 62
     0
100
AcDbText
 10
690.9101789368518
 20
529.5678330356771
 30
0.0
 40
15.0
  1
H2±
 50
90.0
100
AcDbText
  0
TEXT
  5
633
330
1350
100
AcDbEntity
  8
MATM
 62
     0
100
AcDbText
 10
690.9101789368518
 20
568.7927789621372
 30
0.0
 40
15.0
  1
0.5
 50
90.0
100
AcDbText
  0
ENDBLK
  5
635
330
1350
100
AcDbEntity
  8
0
100
AcDbBlockEnd
  0
BLOCK
  5
1353
330
1352
100
AcDbEntity
  8
0
100
AcDbBlockBegin
  2
*D6
 70
     1
 10
0.0
 20
0.0
 30
0.0
  3
*D6
  1

  0
LINE
  5
A3
330
1352
100
AcDbEntity
  8
MATM
 62
     0
100
AcDbLine
 10
644.2459015811646
 20
638.2161046918454
 30
0.0
 11
690.3823211409445
 21
638.2161046918454
 31
0.0
  0
LINE
  5
A4
330
1352
100
AcDbEntity
  8
MATM
 62
     0
100
AcDbLine
 10
644.2459015811646
 20
488.2161046918453
 30
0.0
 11
690.3823211409445
 21
488.2161046918453
 31
0.0
  0
LINE
  5
A5
330
1352
100
AcDbEntity
  8
MATM
 62
     0
100
AcDbLine
 10
676.8823211409445
 20
629.2161046918454
 30
0.0
 11
676.8823211409445
 21
497.2161046918451
 31
0.0
  0
SOLID
  5
A6
330
1352
100
AcDbEntity
  8
MATM
 62
     0
100
AcDbTrace
 10
675.3823211409446
 20
629.2161046918454
 30
0.0
 11
678.3823211409445
 21
629.2161046918454
 31
0.0
 12
676.8823211409445
 22
638.2161046918454
 32
0.0
 13
676.8823211409445
 23
638.2161046918454
 33
0.0
  0
SOLID
  5
A7
330
1352
100
AcDbEntity
  8
MATM
 62
     0
100
AcDbTrace
 10
675.3823211409446
 20
497.2161046918451
 30
0.0
 11
678.3823211409445
 21
497.2161046918451
 31
0.0
 12
676.8823211409445
 22
488.2161046918453
 32
0.0
 13
676.8823211409445
 23
488.2161046918453
 33
0.0
  0
INSERT
  5
A8
330
1352
100
AcDbEntity
  8
ASYS
100
AcDbBlockReference
  2
*U7
 10
0.0
 20
0.0
 30
0.0
  0
POINT
  5
A9
330
1352
100
AcDbEntity
  8
DEFPOINTS
 62
     0
100
AcDbPoint
 10
644.2459015811646
 20
638.2161046918454
 30
0.0
  0
POINT
  5
AA
330
1352
100
AcDbEntity
  8
DEFPOINTS
 62
     0
100
AcDbPoint
 10
644.2459015811646
 20
488.2161046918453
 30
0.0
  0
POINT
  5
AB
330
1352
100
AcDbEntity
  8
DEFPOINTS
 62
     0
100
AcDbPoint
 10
676.8823211409445
 20
488.2161046918453
 30
0.0
  0
ENDBLK
  5
AC
330
1352
100
AcDbEntity
  8
0
100
AcDbBlockEnd
  0
BLOCK
  5
1355
330
1354
100
AcDbEntity
  8
0
100
AcDbBlockBegin
  2
*U7
 70
     1
 10
0.0
 20
0.0
 30
0.0
  3
*U7
  1

  0
TEXT
  5
637
330
1354
100
AcDbEntity
  8
MATM
 62
     0
100
AcDbText
 10
673.570031013342
 20
535.1049635331539
 30
0.0
 40
15.0
  1
H±
 50
90.0
100
AcDbText
  0
TEXT
  5
638
330
1354
100
AcDbEntity
  8
MATM
 62
     0
100
AcDbText
 10
673.570031013342
 20
563.2556484646602
 30
0.0
 40
15.0
  1
0.5
 50
90.0
100
AcDbText
  0
ENDBLK
  5
63A
330
1354
100
AcDbEntity
  8
0
100
AcDbBlockEnd
  0
BLOCK
  5
1357
330
1356
100
AcDbEntity
  8
0
100
AcDbBlockBegin
  2
*D8
 70
     1
 10
0.0
 20
0.0
 30
0.0
  3
*D8
  1

  0
LINE
  5
AF
330
1356
100
AcDbEntity
  8
MATM
 62
     0
100
AcDbLine
 10
626.2459015811645
 20
470.2161046918454
 30
0.0
 11
626.2459015811645
 21
432.3492001071626
 31
0.0
  0
LINE
  5
B0
330
1356
100
AcDbEntity
  8
MATM
 62
     0
100
AcDbLine
 10
326.2459015811646
 20
470.2161046918454
 30
0.0
 11
326.2459015811646
 21
432.3492001071626
 31
0.0
  0
LINE
  5
B1
330
1356
100
AcDbEntity
  8
MATM
 62
     0
100
AcDbLine
 10
617.2459015811646
 20
445.8492001071626
 30
0.0
 11
335.2459015811646
 21
445.8492001071626
 31
0.0
  0
SOLID
  5
B2
330
1356
100
AcDbEntity
  8
MATM
 62
     0
100
AcDbTrace
 10
617.2459015811646
 20
447.3492001071623
 30
0.0
 11
617.2459015811646
 21
444.3492001071624
 31
0.0
 12
626.2459015811645
 22
445.8492001071626
 32
0.0
 13
626.2459015811645
 23
445.8492001071626
 33
0.0
  0
SOLID
  5
B3
330
1356
100
AcDbEntity
  8
MATM
 62
     0
100
AcDbTrace
 10
335.2459015811646
 20
447.3492001071623
 30
0.0
 11
335.2459015811646
 21
444.3492001071624
 31
0.0
 12
326.2459015811646
 22
445.8492001071626
 32
0.0
 13
326.2459015811646
 23
445.8492001071626
 33
0.0
  0
INSERT
  5
B4
330
1356
100
AcDbEntity
  8
ASYS
100
AcDbBlockReference
  2
*U9
 10
0.0
 20
0.0
 30
0.0
  0
POINT
  5
B5
330
1356
100
AcDbEntity
  8
DEFPOINTS
 62
     0
100
AcDbPoint
 10
626.2459015811645
 20
470.2161046918454
 30
0.0
  0
POINT
  5
B6
330
1356
100
AcDbEntity
  8
DEFPOINTS
 62
     0
100
AcDbPoint
 10
326.2459015811646
 20
470.2161046918454
 30
0.0
  0
POINT
  5
B7
330
1356
100
AcDbEntity
  8
DEFPOINTS
 62
     0
100
AcDbPoint
 10
326.2459015811646
 20
445.8492001071626
 30
0.0
  0
ENDBLK
  5
B8
330
1356
100
AcDbEntity
  8
0
100
AcDbBlockEnd
  0
BLOCK
  5
1359
330
1358
100
AcDbEntity
  8
0
100
AcDbBlockBegin
  2
*U9
 70
     1
 10
0.0
 20
0.0
 30
0.0
  3
*U9
  1

  0
TEXT
  5
63C
330
1358
100
AcDbEntity
  8
MATM
 62
     0
100
AcDbText
 10
448.7511987786371
 20
449.1614902347651
 30
0.0
 40
15.0
  1
B±
100
AcDbText
  0
TEXT
  5
63D
330
1358
100
AcDbEntity
  8
MATM
 62
     0
100
AcDbText
 10
475.6798217058181
 20
449.1614902347651
 30
0.0
 40
15.0
  1
0.5
100
AcDbText
  0
ENDBLK
  5
63F
330
1358
100
AcDbEntity
  8
0
100
AcDbBlockEnd
  0
BLOCK
  5
135B
330
135A
100
AcDbEntity
  8
0
100
AcDbBlockBegin
  2
*D10
 70
     1
 10
0.0
 20
0.0
 30
0.0
  3
*D10
  1

  0
LINE
  5
BB
330
135A
100
AcDbEntity
  8
MATM
 62
     0
100
AcDbLine
 10
308.2459015811646
 20
274.8291096609976
 30
0.0
 11
282.1803293141648
 21
274.8291096609976
 31
0.0
  0
LINE
  5
BC
330
135A
100
AcDbEntity
  8
MATM
 62
     0
100
AcDbLine
 10
308.2459015811646
 20
404.8291096609974
 30
0.0
 11
282.1803293141648
 21
404.8291096609974
 31
0.0
  0
LINE
  5
BD
330
135A
100
AcDbEntity
  8
MATM
 62
     0
100
AcDbLine
 10
295.6803293141648
 20
283.8291096609976
 30
0.0
 11
295.6803293141648
 21
395.8291096609976
 31
0.0
  0
SOLID
  5
BE
330
135A
100
AcDbEntity
  8
MATM
 62
     0
100
AcDbTrace
 10
294.1803293141648
 20
283.8291096609976
 30
0.0
 11
297.1803293141648
 21
283.8291096609976
 31
0.0
 12
295.6803293141648
 22
274.8291096609976
 32
0.0
 13
295.6803293141648
 23
274.8291096609976
 33
0.0
  0
SOLID
  5
BF
330
135A
100
AcDbEntity
  8
MATM
 62
     0
100
AcDbTrace
 10
294.1803293141648
 20
395.8291096609976
 30
0.0
 11
297.1803293141649
 21
395.8291096609976
 31
0.0
 12
295.6803293141648
 22
404.8291096609974
 32
0.0
 13
295.6803293141648
 23
404.8291096609974
 33
0.0
  0
INSERT
  5
C0
330
135A
100
AcDbEntity
  8
ASYS
100
AcDbBlockReference
  2
*U11
 10
0.0
 20
0.0
 30
0.0
  0
POINT
  5
C1
330
135A
100
AcDbEntity
  8
DEFPOINTS
 62
     0
100
AcDbPoint
 10
308.2459015811646
 20
274.8291096609976
 30
0.0
  0
POINT
  5
C2
330
135A
100
AcDbEntity
  8
DEFPOINTS
 62
     0
100
AcDbPoint
 10
308.2459015811646
 20
404.8291096609974
 30
0.0
  0
POINT
  5
C3
330
135A
100
AcDbEntity
  8
DEFPOINTS
 62
     0
100
AcDbPoint
 10
295.6803293141648
 20
404.8291096609974
 30
0.0
  0
ENDBLK
  5
C4
330
135A
100
AcDbEntity
  8
0
100
AcDbBlockEnd
  0
BLOCK
  5
135D
330
135C
100
AcDbEntity
  8
0
100
AcDbBlockBegin
  2
*U11
 70
     1
 10
0.0
 20
0.0
 30
0.0
  3
*U11
  1

  0
TEXT
  5
641
330
135C
100
AcDbEntity
  8
MATM
 62
     0
100
AcDbText
 10
292.5505528181302
 20
322.314690050327
 30
0.0
 40
15.0
  1
130
 50
90.0
100
AcDbText
  0
ENDBLK
  5
643
330
135C
100
AcDbEntity
  8
0
100
AcDbBlockEnd
  0
BLOCK
  5
135F
330
135E
100
AcDbEntity
  8
0
100
AcDbBlockBegin
  2
*D12
 70
     1
 10
0.0
 20
0.0
 30
0.0
  3
*D12
  1

  0
LINE
  5
C7
330
135E
100
AcDbEntity
  8
MATM
 62
     0
100
AcDbLine
 10
644.2459015811646
 20
404.8291096609976
 30
0.0
 11
669.815344645268
 21
404.8291096609976
 31
0.0
  0
LINE
  5
C8
330
135E
100
AcDbEntity
  8
MATM
 62
     0
100
AcDbLine
 10
644.2459015811646
 20
394.8291096609976
 30
0.0
 11
669.815344645268
 21
394.8291096609976
 31
0.0
  0
LINE
  5
C9
330
135E
100
AcDbEntity
  8
MATM
 62
     0
100
AcDbLine
 10
656.315344645268
 20
413.8291096609976
 30
0.0
 11
656.315344645268
 21
422.8291096609976
 31
0.0
  0
LINE
  5
CA
330
135E
100
AcDbEntity
  8
MATM
 62
     0
100
AcDbLine
 10
656.315344645268
 20
385.8291096609976
 30
0.0
 11
656.315344645268
 21
353.3291096609976
 31
0.0
  0
LINE
  5
CB
330
135E
100
AcDbEntity
  8
MATM
 62
     0
100
AcDbLine
 10
656.315344645268
 20
404.8291096609976
 30
0.0
 11
656.315344645268
 21
394.8291096609976
 31
0.0
  0
SOLID
  5
CC
330
135E
100
AcDbEntity
  8
MATM
 62
     0
100
AcDbTrace
 10
654.815344645268
 20
413.8291096609976
 30
0.0
 11
657.815344645268
 21
413.8291096609976
 31
0.0
 12
656.315344645268
 22
404.8291096609976
 32
0.0
 13
656.315344645268
 23
404.8291096609976
 33
0.0
  0
SOLID
  5
CD
330
135E
100
AcDbEntity
  8
MATM
 62
     0
100
AcDbTrace
 10
654.815344645268
 20
385.8291096609976
 30
0.0
 11
657.815344645268
 21
385.8291096609976
 31
0.0
 12
656.315344645268
 22
394.8291096609976
 32
0.0
 13
656.315344645268
 23
394.8291096609976
 33
0.0
  0
INSERT
  5
CE
330
135E
100
AcDbEntity
  8
ASYS
100
AcDbBlockReference
  2
*U13
 10
0.0
 20
0.0
 30
0.0
  0
POINT
  5
CF
330
135E
100
AcDbEntity
  8
DEFPOINTS
 62
     0
100
AcDbPoint
 10
644.2459015811646
 20
404.8291096609976
 30
0.0
  0
POINT
  5
D0
330
135E
100
AcDbEntity
  8
DEFPOINTS
 62
     0
100
AcDbPoint
 10
644.2459015811646
 20
394.8291096609976
 30
0.0
  0
POINT
  5
D1
330
135E
100
AcDbEntity
  8
DEFPOINTS
 62
     0
100
AcDbPoint
 10
656.315344645268
 20
394.8291096609976
 30
0.0
  0
ENDBLK
  5
D2
330
135E
100
AcDbEntity
  8
0
100
AcDbBlockEnd
  0
BLOCK
  5
1361
330
1360
100
AcDbEntity
  8
0
100
AcDbBlockBegin
  2
*U13
 70
     1
 10
0.0
 20
0.0
 30
0.0
  3
*U13
  1

  0
TEXT
  5
645
330
1360
100
AcDbEntity
  8
MATM
 62
     0
100
AcDbText
 10
653.1855681492332
 20
353.1018205478038
 30
0.0
 40
15.0
  1
10
 50
90.0
100
AcDbText
  0
ENDBLK
  5
647
330
1360
100
AcDbEntity
  8
0
100
AcDbBlockEnd
  0
BLOCK
  5
1363
330
1362
100
AcDbEntity
  8
0
100
AcDbBlockBegin
  2
*D14
 70
     1
 10
0.0
 20
0.0
 30
0.0
  3
*D14
  1

  0
LINE
  5
D5
330
1362
100
AcDbEntity
  8
MATM
 62
     0
100
AcDbLine
 10
585.3407217966767
 20
315.8806237039225
 30
0.0
 11
585.3407217966767
 21
241.182473498312
 31
0.0
  0
LINE
  5
D6
330
1362
100
AcDbEntity
  8
MATM
 62
     0
100
AcDbLine
 10
626.2459015811645
 20
302.3291096609976
 30
0.0
 11
626.2459015811645
 21
241.182473498312
 31
0.0
  0
LINE
  5
D7
330
1362
100
AcDbEntity
  8
MATM
 62
     0
100
AcDbLine
 10
594.3407217966769
 20
254.682473498312
 30
0.0
 11
617.2459015811646
 21
254.682473498312
 31
0.0
  0
SOLID
  5
D8
330
1362
100
AcDbEntity
  8
MATM
 62
     0
100
AcDbTrace
 10
594.3407217966769
 20
256.182473498312
 30
0.0
 11
594.3407217966769
 21
253.182473498312
 31
0.0
 12
585.3407217966767
 22
254.682473498312
 32
0.0
 13
585.3407217966767
 23
254.682473498312
 33
0.0
  0
SOLID
  5
D9
330
1362
100
AcDbEntity
  8
MATM
 62
     0
100
AcDbTrace
 10
617.2459015811646
 20
256.182473498312
 30
0.0
 11
617.2459015811646
 21
253.182473498312
 31
0.0
 12
626.2459015811645
 22
254.682473498312
 32
0.0
 13
626.2459015811645
 23
254.682473498312
 33
0.0
  0
INSERT
  5
DA
330
1362
100
AcDbEntity
  8
ASYS
100
AcDbBlockReference
  2
*U15
 10
0.0
 20
0.0
 30
0.0
  0
POINT
  5
DB
330
1362
100
AcDbEntity
  8
DEFPOINTS
 62
     0
100
AcDbPoint
 10
585.3407217966767
 20
315.8806237039225
 30
0.0
  0
POINT
  5
DC
330
1362
100
AcDbEntity
  8
DEFPOINTS
 62
     0
100
AcDbPoint
 10
626.2459015811645
 20
302.3291096609976
 30
0.0
  0
POINT
  5
DD
330
1362
100
AcDbEntity
  8
DEFPOINTS
 62
     0
100
AcDbPoint
 10
626.2459015811645
 20
254.682473498312
 30
0.0
  0
ENDBLK
  5
DE
330
1362
100
AcDbEntity
  8
0
100
AcDbBlockEnd
  0
BLOCK
  5
1365
330
1364
100
AcDbEntity
  8
0
100
AcDbBlockBegin
  2
*U15
 70
     1
 10
0.0
 20
0.0
 30
0.0
  3
*U15
  1

  0
TEXT
  5
649
330
1364
100
AcDbEntity
  8
MATM
 62
     0
100
AcDbText
 10
594.443275639894
 20
257.8122499943466
 30
0.0
 40
15.0
  1
80
100
AcDbText
  0
ENDBLK
  5
64B
330
1364
100
AcDbEntity
  8
0
100
AcDbBlockEnd
  0
BLOCK
  5
1367
330
1366
100
AcDbEntity
  8
0
100
AcDbBlockBegin
  2
*D16
 70
     1
 10
0.0
 20
0.0
 30
0.0
  3
*D16
  1

  0
LINE
  5
E1
330
1366
100
AcDbEntity
  8
MATM
 62
     0
100
AcDbLine
 10
585.3407217966767
 20
317.5
 30
0.0
 11
672.6221110371032
 21
317.4999999999999
 31
0.0
  0
LINE
  5
E2
330
1366
100
AcDbEntity
  8
MATM
 62
     0
100
AcDbLine
 10
589.1112951638787
 20
302.3291096609976
 30
0.0
 11
672.6221110371032
 21
302.3291096609975
 31
0.0
  0
LINE
  5
E3
330
1366
100
AcDbEntity
  8
MATM
 62
     0
100
AcDbLine
 10
659.1221110371033
 20
326.5
 30
0.0
 11
659.1221110371033
 21
335.4999999999999
 31
0.0
  0
LINE
  5
E4
330
1366
100
AcDbEntity
  8
MATM
 62
     0
100
AcDbLine
 10
659.1221110371033
 20
293.3291096609975
 30
0.0
 11
659.1221110371033
 21
258.3291096609975
 31
0.0
  0
LINE
  5
E5
330
1366
100
AcDbEntity
  8
MATM
 62
     0
100
AcDbLine
 10
659.1221110371033
 20
317.4999999999999
 30
0.0
 11
659.1221110371033
 21
302.3291096609975
 31
0.0
  0
SOLID
  5
E6
330
1366
100
AcDbEntity
  8
MATM
 62
     0
100
AcDbTrace
 10
657.6221110371033
 20
326.5
 30
0.0
 11
660.6221110371032
 21
326.5
 31
0.0
 12
659.1221110371033
 22
317.4999999999999
 32
0.0
 13
659.1221110371033
 23
317.4999999999999
 33
0.0
  0
SOLID
  5
E7
330
1366
100
AcDbEntity
  8
MATM
 62
     0
100
AcDbTrace
 10
657.6221110371033
 20
293.3291096609975
 30
0.0
 11
660.6221110371032
 21
293.3291096609975
 31
0.0
 12
659.1221110371033
 22
302.3291096609975
 32
0.0
 13
659.1221110371033
 23
302.3291096609975
 33
0.0
  0
INSERT
  5
E8
330
1366
100
AcDbEntity
  8
ASYS
100
AcDbBlockReference
  2
*U17
 10
0.0
 20
0.0
 30
0.0
  0
POINT
  5
E9
330
1366
100
AcDbEntity
  8
DEFPOINTS
 62
     0
100
AcDbPoint
 10
585.3407217966767
 20
317.5
 30
0.0
  0
POINT
  5
EA
330
1366
100
AcDbEntity
  8
DEFPOINTS
 62
     0
100
AcDbPoint
 10
589.1112951638787
 20
302.3291096609976
 30
0.0
  0
POINT
  5
EB
330
1366
100
AcDbEntity
  8
DEFPOINTS
 62
     0
100
AcDbPoint
 10
659.1221110371033
 20
302.3291096609975
 30
0.0
  0
ENDBLK
  5
EC
330
1366
100
AcDbEntity
  8
0
100
AcDbBlockEnd
  0
BLOCK
  5
1369
330
1368
100
AcDbEntity
  8
0
100
AcDbBlockBegin
  2
*U17
 70
     1
 10
0.0
 20
0.0
 30
0.0
  3
*U17
  1

  0
TEXT
  5
64D
330
1368
100
AcDbEntity
  8
MATM
 62
     0
100
AcDbText
 10
655.9923345410688
 20
259.6870764958931
 30
0.0
 40
15.0
  1
15
 50
90.0
100
AcDbText
  0
ENDBLK
  5
64F
330
1368
100
AcDbEntity
  8
0
100
AcDbBlockEnd
  0
BLOCK
  5
136B
330
136A
100
AcDbEntity
  8
0
100
AcDbBlockBegin
  2
*D18
 70
     1
 10
0.0
 20
0.0
 30
0.0
  3
*D18
  1

  0
LINE
  5
EF
330
136A
100
AcDbEntity
  8
MATM
 62
     0
100
AcDbLine
 10
326.2459015811646
 20
377.3291096609976
 30
0.0
 11
299.2226853774702
 21
377.3291096609976
 31
0.0
  0
LINE
  5
F0
330
136A
100
AcDbEntity
  8
MATM
 62
     0
100
AcDbLine
 10
328.7767891366857
 20
387.3291096609976
 30
0.0
 11
299.2226853774702
 21
387.3291096609976
 31
0.0
  0
LINE
  5
F1
330
136A
100
AcDbEntity
  8
MATM
 62
     0
100
AcDbLine
 10
312.7226853774701
 20
368.3291096609977
 30
0.0
 11
312.7226853774701
 21
359.3291096609976
 31
0.0
  0
LINE
  5
F2
330
136A
100
AcDbEntity
  8
MATM
 62
     0
100
AcDbLine
 10
312.7226853774701
 20
396.3291096609976
 30
0.0
 11
312.7226853774701
 21
405.3291096609972
 31
0.0
  0
LINE
  5
F3
330
136A
100
AcDbEntity
  8
MATM
 62
     0
100
AcDbLine
 10
312.7226853774701
 20
377.3291096609976
 30
0.0
 11
312.7226853774701
 21
387.3291096609976
 31
0.0
  0
SOLID
  5
F4
330
136A
100
AcDbEntity
  8
MATM
 62
     0
100
AcDbTrace
 10
311.2226853774702
 20
368.3291096609977
 30
0.0
 11
314.2226853774702
 21
368.3291096609977
 31
0.0
 12
312.7226853774701
 22
377.3291096609976
 32
0.0
 13
312.7226853774701
 23
377.3291096609976
 33
0.0
  0
SOLID
  5
F5
330
136A
100
AcDbEntity
  8
MATM
 62
     0
100
AcDbTrace
 10
311.2226853774702
 20
396.3291096609976
 30
0.0
 11
314.2226853774702
 21
396.3291096609976
 31
0.0
 12
312.7226853774701
 22
387.3291096609976
 32
0.0
 13
312.7226853774701
 23
387.3291096609976
 33
0.0
  0
INSERT
  5
F6
330
136A
100
AcDbEntity
  8
ASYS
100
AcDbBlockReference
  2
*U19
 10
0.0
 20
0.0
 30
0.0
  0
POINT
  5
F7
330
136A
100
AcDbEntity
  8
DEFPOINTS
 62
     0
100
AcDbPoint
 10
326.2459015811646
 20
377.3291096609976
 30
0.0
  0
POINT
  5
F8
330
136A
100
AcDbEntity
  8
DEFPOINTS
 62
     0
100
AcDbPoint
 10
328.7767891366857
 20
387.3291096609976
 30
0.0
  0
POINT
  5
F9
330
136A
100
AcDbEntity
  8
DEFPOINTS
 62
     0
100
AcDbPoint
 10
312.7226853774701
 20
387.3291096609976
 30
0.0
  0
ENDBLK
  5
FA
330
136A
100
AcDbEntity
  8
0
100
AcDbBlockEnd
  0
BLOCK
  5
136D
330
136C
100
AcDbEntity
  8
0
100
AcDbBlockBegin
  2
*U19
 70
     1
 10
0.0
 20
0.0
 30
0.0
  3
*U19
  1

  0
TEXT
  5
651
330
136C
100
AcDbEntity
  8
MATM
 62
     0
100
AcDbText
 10
309.5929088814354
 20
370.3518205478037
 30
0.0
 40
15.0
  1
10
 50
90.0
100
AcDbText
  0
ENDBLK
  5
653
330
136C
100
AcDbEntity
  8
0
100
AcDbBlockEnd
  0
BLOCK
  5
136F
330
136E
100
AcDbEntity
  8
0
100
AcDbBlockBegin
  2
*D20
 70
     1
 10
0.0
 20
0.0
 30
0.0
  3
*D20
  1

  0
LINE
  5
FD
330
136E
100
AcDbEntity
  8
MATM
 62
     0
100
AcDbLine
 10
326.2459015811646
 20
385.2087376196296
 30
0.0
 11
326.2459015811646
 21
426.7891011382096
 31
0.0
  0
LINE
  5
FE
330
136E
100
AcDbEntity
  8
MATM
 62
     0
100
AcDbLine
 10
341.2459015811646
 20
385.2087376196296
 30
0.0
 11
341.2459015811646
 21
426.7891011382096
 31
0.0
  0
LINE
  5
FF
330
136E
100
AcDbEntity
  8
MATM
 62
     0
100
AcDbLine
 10
317.2459015811646
 20
413.2891011382096
 30
0.0
 11
308.2459015811646
 21
413.2891011382096
 31
0.0
  0
LINE
  5
100
330
136E
100
AcDbEntity
  8
MATM
 62
     0
100
AcDbLine
 10
350.2459015811646
 20
413.2891011382096
 30
0.0
 11
385.2459015811646
 21
413.2891011382096
 31
0.0
  0
LINE
  5
101
330
136E
100
AcDbEntity
  8
MATM
 62
     0
100
AcDbLine
 10
326.2459015811646
 20
413.2891011382096
 30
0.0
 11
341.2459015811646
 21
413.2891011382096
 31
0.0
  0
SOLID
  5
102
330
136E
100
AcDbEntity
  8
MATM
 62
     0
100
AcDbTrace
 10
317.2459015811646
 20
414.7891011382098
 30
0.0
 11
317.2459015811646
 21
411.7891011382098
 31
0.0
 12
326.2459015811646
 22
413.2891011382096
 32
0.0
 13
326.2459015811646
 23
413.2891011382096
 33
0.0
  0
SOLID
  5
103
330
136E
100
AcDbEntity
  8
MATM
 62
     0
100
AcDbTrace
 10
350.2459015811646
 20
414.7891011382098
 30
0.0
 11
350.2459015811646
 21
411.7891011382098
 31
0.0
 12
341.2459015811646
 22
413.2891011382096
 32
0.0
 13
341.2459015811646
 23
413.2891011382096
 33
0.0
  0
INSERT
  5
104
330
136E
100
AcDbEntity
  8
ASYS
100
AcDbBlockReference
  2
*U21
 10
0.0
 20
0.0
 30
0.0
  0
POINT
  5
105
330
136E
100
AcDbEntity
  8
DEFPOINTS
 62
     0
100
AcDbPoint
 10
326.2459015811646
 20
385.2087376196296
 30
0.0
  0
POINT
  5
106
330
136E
100
AcDbEntity
  8
DEFPOINTS
 62
     0
100
AcDbPoint
 10
341.2459015811646
 20
385.2087376196296
 30
0.0
  0
POINT
  5
107
330
136E
100
AcDbEntity
  8
DEFPOINTS
 62
     0
100
AcDbPoint
 10
341.2459015811646
 20
413.2891011382096
 30
0.0
  0
ENDBLK
  5
108
330
136E
100
AcDbEntity
  8
0
100
AcDbBlockEnd
  0
BLOCK
  5
1371
330
1370
100
AcDbEntity
  8
0
100
AcDbBlockBegin
  2
*U21
 70
     1
 10
0.0
 20
0.0
 30
0.0
  3
*U21
  1

  0
TEXT
  5
655
330
1370
100
AcDbEntity
  8
MATM
 62
     0
100
AcDbText
 10
360.6038684160601
 20
416.4188776342441
 30
0.0
 40
15.0
  1
15
100
AcDbText
  0
ENDBLK
  5
657
330
1370
100
AcDbEntity
  8
0
100
AcDbBlockEnd
  0
BLOCK
  5
1373
330
1372
100
AcDbEntity
  8
0
100
AcDbBlockBegin
  2
*D22
 70
     1
 10
0.0
 20
0.0
 30
0.0
  3
*D22
  1

  0
LINE
  5
10B
330
1372
100
AcDbEntity
  8
MATM
 62
     0
100
AcDbLine
 10
399.9966925790602
 20
432.4861086436754
 30
0.0
 11
350.4430564472319
 21
394.3982215125369
 31
0.0
  0
LINE
  5
10C
330
1372
100
AcDbEntity
  8
MATM
 62
     0
100
AcDbLine
 10
332.048746715097
 20
380.2599978094582
 30
0.0
 11
324.9130231121138
 21
374.7753420625742
 31
0.0
  0
INSERT
  5
10D
330
1372
100
AcDbEntity
  8
ASYS
100
AcDbBlockReference
  2
*U23
 10
0.0
 20
0.0
 30
0.0
  0
LINE
  5
10E
330
1372
100
AcDbEntity
  8
MATM
 62
     0
100
AcDbLine
 10
339.1844703180804
 20
385.7446535563422
 30
0.0
 11
343.3073328442486
 21
388.9135657656528
 31
0.0
  0
SOLID
  5
10F
330
1372
100
AcDbEntity
  8
MATM
 62
     0
100
AcDbTrace
 10
331.1346374239497
 20
381.449285076622
 30
0.0
 11
332.9628560062444
 21
379.0707105422943
 31
0.0
 12
339.1844703180804
 22
385.7446535563422
 32
0.0
 13
339.1844703180804
 23
385.7446535563422
 33
0.0
  0
SOLID
  5
110
330
1372
100
AcDbEntity
  8
MATM
 62
     0
100
AcDbTrace
 10
349.5289471560846
 20
395.5875087797008
 30
0.0
 11
351.3571657383792
 21
393.2089342453729
 31
0.0
 12
343.3073328442486
 22
388.9135657656528
 32
0.0
 13
343.3073328442486
 23
388.9135657656528
 33
0.0
  0
POINT
  5
111
330
1372
100
AcDbEntity
  8
DEFPOINTS
 62
     0
100
AcDbPoint
 10
343.3073328442486
 20
388.9135657656528
 30
0.0
  0
POINT
  5
112
330
1372
100
AcDbEntity
  8
DEFPOINTS
 62
     0
100
AcDbPoint
 10
339.1844703180804
 20
385.7446535563422
 30
0.0
  0
ENDBLK
  5
113
330
1372
100
AcDbEntity
  8
0
100
AcDbBlockEnd
  0
BLOCK
  5
1375
330
1374
100
AcDbEntity
  8
0
100
AcDbBlockBegin
  2
*U23
 70
     1
 10
0.0
 20
0.0
 30
0.0
  3
*U23
  1

  0
TEXT
  5
659
330
1374
100
AcDbEntity
  8
MATM
 62
     0
100
AcDbText
 10
358.4523113416947
 20
408.1516290655422
 30
0.0
 40
15.0
  1
\U+22055,2
 50
37.54657930665921
100
AcDbText
  0
ENDBLK
  5
65B
330
1374
100
AcDbEntity
  8
0
100
AcDbBlockEnd
  0
BLOCK
  5
1377
330
1376
100
AcDbEntity
  8
0
100
AcDbBlockBegin
  2
*D24
 70
     1
 10
0.0
 20
0.0
 30
0.0
  3
*D24
  1

  0
LINE
  5
3B8
330
1376
100
AcDbEntity
  8
PAGR
 62
     0
100
AcDbLine
 10
372.678984180742
 20
232.264040036921
 30
0.0
 11
372.678984180742
 21
199.8305877445796
 31
0.0
  0
LINE
  5
3B9
330
1376
100
AcDbEntity
  8
PAGR
 62
     0
100
AcDbLine
 10
72.67898418074202
 20
232.264040036921
 30
0.0
 11
72.67898418074202
 21
199.8305877445796
 31
0.0
  0
LINE
  5
3BA
330
1376
100
AcDbEntity
  8
PAGR
 62
     0
100
AcDbLine
 10
363.678984180742
 20
213.3305877445796
 30
0.0
 11
81.67898418074202
 21
213.3305877445796
 31
0.0
  0
SOLID
  5
3BB
330
1376
100
AcDbEntity
  8
PAGR
 62
     0
100
AcDbTrace
 10
363.678984180742
 20
214.8305877445796
 30
0.0
 11
363.678984180742
 21
211.8305877445796
 31
0.0
 12
372.678984180742
 22
213.3305877445796
 32
0.0
 13
372.678984180742
 23
213.3305877445796
 33
0.0
  0
SOLID
  5
3BC
330
1376
100
AcDbEntity
  8
PAGR
 62
     0
100
AcDbTrace
 10
81.67898418074202
 20
214.8305877445796
 30
0.0
 11
81.67898418074202
 21
211.8305877445796
 31
0.0
 12
72.67898418074202
 22
213.3305877445796
 32
0.0
 13
72.67898418074202
 23
213.3305877445796
 33
0.0
  0
INSERT
  5
3BD
330
1376
100
AcDbEntity
  8
ASYS
100
AcDbBlockReference
  2
*U25
 10
0.0
 20
0.0
 30
0.0
  0
POINT
  5
3BE
330
1376
100
AcDbEntity
  8
DEFPOINTS
 62
     0
100
AcDbPoint
 10
372.678984180742
 20
232.264040036921
 30
0.0
  0
POINT
  5
3BF
330
1376
100
AcDbEntity
  8
DEFPOINTS
 62
     0
100
AcDbPoint
 10
72.67898418074202
 20
232.264040036921
 30
0.0
  0
POINT
  5
3C0
330
1376
100
AcDbEntity
  8
DEFPOINTS
 62
     0
100
AcDbPoint
 10
72.67898418074202
 20
213.3305877445796
 30
0.0
  0
ENDBLK
  5
261
330
1376
100
AcDbEntity
  8
0
100
AcDbBlockEnd
  0
BLOCK
  5
1379
330
1378
100
AcDbEntity
  8
0
100
AcDbBlockBegin
  2
*U25
 70
     1
 10
0.0
 20
0.0
 30
0.0
  3
*U25
  1

  0
TEXT
  5
82E
330
1378
100
AcDbEntity
  8
PAGR
 62
     0
100
AcDbText
 10
215.7143122268848
 20
216.3305877445796
 30
0.0
 40
15.0
  1
B
100
AcDbText
  0
ENDBLK
  5
830
330
1378
100
AcDbEntity
  8
0
100
AcDbBlockEnd
  0
BLOCK
  5
137B
330
137A
100
AcDbEntity
  8
0
100
AcDbBlockBegin
  2
*D26
 70
     1
 10
0.0
 20
0.0
 30
0.0
  3
*D26
  1

  0
LINE
  5
3E3
330
137A
100
AcDbEntity
  8
PAGR
 62
     0
100
AcDbLine
 10
390.678984180742
 20
250.264040036921
 30
0.0
 11
390.678984180742
 21
178.8198222691993
 31
0.0
  0
LINE
  5
3E4
330
137A
100
AcDbEntity
  8
PAGR
 62
     0
100
AcDbLine
 10
54.67898418074202
 20
250.264040036921
 30
0.0
 11
54.678984180742
 21
178.8198222691993
 31
0.0
  0
LINE
  5
3E5
330
137A
100
AcDbEntity
  8
PAGR
 62
     0
100
AcDbLine
 10
381.678984180742
 20
192.3198222691993
 30
0.0
 11
63.67898418074203
 21
192.3198222691993
 31
0.0
  0
SOLID
  5
3E6
330
137A
100
AcDbEntity
  8
PAGR
 62
     0
100
AcDbTrace
 10
381.678984180742
 20
193.8198222691993
 30
0.0
 11
381.678984180742
 21
190.8198222691993
 31
0.0
 12
390.678984180742
 22
192.3198222691993
 32
0.0
 13
390.678984180742
 23
192.3198222691993
 33
0.0
  0
SOLID
  5
3E7
330
137A
100
AcDbEntity
  8
PAGR
 62
     0
100
AcDbTrace
 10
63.67898418074203
 20
193.8198222691993
 30
0.0
 11
63.67898418074203
 21
190.8198222691993
 31
0.0
 12
54.67898418074202
 22
192.3198222691993
 32
0.0
 13
54.67898418074202
 23
192.3198222691993
 33
0.0
  0
INSERT
  5
3E8
330
137A
100
AcDbEntity
  8
ASYS
100
AcDbBlockReference
  2
*U27
 10
0.0
 20
0.0
 30
0.0
  0
POINT
  5
3E9
330
137A
100
AcDbEntity
  8
DEFPOINTS
 62
     0
100
AcDbPoint
 10
390.678984180742
 20
250.264040036921
 30
0.0
  0
POINT
  5
3EA
330
137A
100
AcDbEntity
  8
DEFPOINTS
 62
     0
100
AcDbPoint
 10
54.67898418074202
 20
250.264040036921
 30
0.0
  0
POINT
  5
3EB
330
137A
100
AcDbEntity
  8
DEFPOINTS
 62
     0
100
AcDbPoint
 10
54.67898418074202
 20
192.3198222691993
 30
0.0
  0
ENDBLK
  5
26D
330
137A
100
AcDbEntity
  8
0
100
AcDbBlockEnd
  0
BLOCK
  5
137D
330
137C
100
AcDbEntity
  8
0
100
AcDbBlockBegin
  2
*U27
 70
     1
 10
0.0
 20
0.0
 30
0.0
  3
*U27
  1

  0
TEXT
  5
836
330
137C
100
AcDbEntity
  8
PAGR
 62
     0
100
AcDbText
 10
198.1836705542099
 20
195.5793752612684
 30
0.0
 40
15.0
  1
B
100
AcDbText
  0
TEXT
  5
837
330
137C
100
AcDbEntity
  8
PAGR
 62
     0
100
AcDbText
 10
212.9565616861494
 20
195.5793752612684
 30
0.0
 40
15.0
  1
+40
100
AcDbText
  0
ENDBLK
  5
839
330
137C
100
AcDbEntity
  8
0
100
AcDbBlockEnd
  0
BLOCK
  5
137F
330
137E
100
AcDbEntity
  8
0
100
AcDbBlockBegin
  2
*D28
 70
     1
 10
0.0
 20
0.0
 30
0.0
  3
*D28
  1

  0
LINE
  5
2F3
330
137E
100
AcDbEntity
  8
MATM
 62
     0
100
AcDbLine
 10
146.4297751786379
 20
194.5340439887506
 30
0.0
 11
96.87613904680931
 21
156.4461568576123
 31
0.0
  0
LINE
  5
2F4
330
137E
100
AcDbEntity
  8
MATM
 62
     0
100
AcDbLine
 10
78.4818293146744
 20
142.3079331545337
 30
0.0
 11
71.34610571169111
 21
136.8232774076497
 31
0.0
  0
INSERT
  5
2F5
330
137E
100
AcDbEntity
  8
ASYS
100
AcDbBlockReference
  2
*U29
 10
0.0
 20
0.0
 30
0.0
  0
LINE
  5
2F6
330
137E
100
AcDbEntity
  8
MATM
 62
     0
100
AcDbLine
 10
85.61755291765773
 20
147.7925889014176
 30
0.0
 11
89.74041544382599
 21
150.9615011107284
 31
0.0
  0
SOLID
  5
2F7
330
137E
100
AcDbEntity
  8
MATM
 62
     0
100
AcDbTrace
 10
77.56772002352706
 20
143.4972204216975
 30
0.0
 11
79.39593860582174
 21
141.1186458873698
 31
0.0
 12
85.61755291765773
 22
147.7925889014176
 32
0.0
 13
85.61755291765773
 23
147.7925889014176
 33
0.0
  0
SOLID
  5
2F8
330
137E
100
AcDbEntity
  8
MATM
 62
     0
100
AcDbTrace
 10
95.962029755662
 20
157.6354441247762
 30
0.0
 11
97.79024833795665
 21
155.2568695904484
 31
0.0
 12
89.74041544382599
 22
150.9615011107284
 32
0.0
 13
89.74041544382599
 23
150.9615011107284
 33
0.0
  0
POINT
  5
2F9
330
137E
100
AcDbEntity
  8
DEFPOINTS
 62
     0
100
AcDbPoint
 10
89.74041544382599
 20
150.9615011107284
 30
0.0
  0
POINT
  5
2FA
330
137E
100
AcDbEntity
  8
DEFPOINTS
 62
     0
100
AcDbPoint
 10
85.61755291765773
 20
147.7925889014176
 30
0.0
  0
ENDBLK
  5
278
330
137E
100
AcDbEntity
  8
0
100
AcDbBlockEnd
  0
BLOCK
  5
1381
330
1380
100
AcDbEntity
  8
0
100
AcDbBlockBegin
  2
*U29
 70
     1
 10
0.0
 20
0.0
 30
0.0
  3
*U29
  1

  0
TEXT
  5
812
330
1380
100
AcDbEntity
  8
MATM
 62
     0
100
AcDbText
 10
104.885393941272
 20
170.1995644106178
 30
0.0
 40
15.0
  1
\U+22055,2
 50
37.54657930665884
100
AcDbText
  0
ENDBLK
  5
814
330
1380
100
AcDbEntity
  8
0
100
AcDbBlockEnd
  0
BLOCK
  5
1383
330
1382
100
AcDbEntity
  8
0
100
AcDbBlockBegin
  2
*D30
 70
     1
 10
0.0
 20
0.0
 30
0.0
  3
*D30
  1

  0
LINE
  5
39C
330
1382
100
AcDbEntity
  8
PAGR
 62
     0
100
AcDbLine
 10
54.67898418074202
 20
36.8770450060731
 30
0.0
 11
28.61341191374214
 21
36.8770450060731
 31
0.0
  0
LINE
  5
39D
330
1382
100
AcDbEntity
  8
PAGR
 62
     0
100
AcDbLine
 10
54.67898418074202
 20
166.8770450060731
 30
0.0
 11
28.61341191374217
 21
166.8770450060731
 31
0.0
  0
LINE
  5
39E
330
1382
100
AcDbEntity
  8
PAGR
 62
     0
100
AcDbLine
 10
42.11341191374215
 20
45.8770450060731
 30
0.0
 11
42.11341191374216
 21
157.8770450060731
 31
0.0
  0
SOLID
  5
39F
330
1382
100
AcDbEntity
  8
PAGR
 62
     0
100
AcDbTrace
 10
40.61341191374213
 20
45.8770450060731
 30
0.0
 11
43.61341191374214
 21
45.8770450060731
 31
0.0
 12
42.11341191374215
 22
36.8770450060731
 32
0.0
 13
42.11341191374215
 23
36.8770450060731
 33
0.0
  0
SOLID
  5
3A0
330
1382
100
AcDbEntity
  8
PAGR
 62
     0
100
AcDbTrace
 10
40.61341191374217
 20
157.8770450060731
 30
0.0
 11
43.61341191374217
 21
157.8770450060731
 31
0.0
 12
42.11341191374216
 22
166.8770450060731
 32
0.0
 13
42.11341191374216
 23
166.8770450060731
 33
0.0
  0
INSERT
  5
3A1
330
1382
100
AcDbEntity
  8
ASYS
100
AcDbBlockReference
  2
*U31
 10
0.0
 20
0.0
 30
0.0
  0
POINT
  5
3A2
330
1382
100
AcDbEntity
  8
DEFPOINTS
 62
     0
100
AcDbPoint
 10
54.67898418074202
 20
36.8770450060731
 30
0.0
  0
POINT
  5
3A3
330
1382
100
AcDbEntity
  8
DEFPOINTS
 62
     0
100
AcDbPoint
 10
54.67898418074202
 20
166.8770450060731
 30
0.0
  0
POINT
  5
3A4
330
1382
100
AcDbEntity
  8
DEFPOINTS
 62
     0
100
AcDbPoint
 10
42.11341191374216
 20
166.8770450060731
 30
0.0
  0
ENDBLK
  5
284
330
1382
100
AcDbEntity
  8
0
100
AcDbBlockEnd
  0
BLOCK
  5
1385
330
1384
100
AcDbEntity
  8
0
100
AcDbBlockBegin
  2
*U31
 70
     1
 10
0.0
 20
0.0
 30
0.0
  3
*U31
  1

  0
TEXT
  5
82A
330
1384
100
AcDbEntity
  8
PAGR
 62
     0
100
AcDbText
 10
38.98363541770753
 20
84.36262539540244
 30
0.0
 40
15.0
  1
130
 50
90.0
100
AcDbText
  0
ENDBLK
  5
82C
330
1384
100
AcDbEntity
  8
0
100
AcDbBlockEnd
  0
BLOCK
  5
1387
330
1386
100
AcDbEntity
  8
0
100
AcDbBlockBegin
  2
*D32
 70
     1
 10
0.0
 20
0.0
 30
0.0
  3
*D32
  1

  0
LINE
  5
304
330
1386
100
AcDbEntity
  8
MATM
 62
     0
100
AcDbLine
 10
72.67898418074202
 20
139.3770450060731
 30
0.0
 11
45.65576797704745
 21
139.3770450060731
 31
0.0
  0
LINE
  5
305
330
1386
100
AcDbEntity
  8
MATM
 62
     0
100
AcDbLine
 10
75.20987173626309
 20
149.3770450060731
 30
0.0
 11
45.65576797704745
 21
149.3770450060731
 31
0.0
  0
LINE
  5
306
330
1386
100
AcDbEntity
  8
MATM
 62
     0
100
AcDbLine
 10
59.15576797704746
 20
130.3770450060731
 30
0.0
 11
59.15576797704746
 21
121.3770450060731
 31
0.0
  0
LINE
  5
307
330
1386
100
AcDbEntity
  8
MATM
 62
     0
100
AcDbLine
 10
59.15576797704748
 20
158.3770450060731
 30
0.0
 11
59.15576797704748
 21
167.3770450060731
 31
0.0
  0
LINE
  5
308
330
1386
100
AcDbEntity
  8
MATM
 62
     0
100
AcDbLine
 10
59.15576797704746
 20
139.3770450060731
 30
0.0
 11
59.15576797704748
 21
149.3770450060731
 31
0.0
  0
SOLID
  5
309
330
1386
100
AcDbEntity
  8
MATM
 62
     0
100
AcDbTrace
 10
57.65576797704746
 20
130.3770450060731
 30
0.0
 11
60.65576797704746
 21
130.3770450060731
 31
0.0
 12
59.15576797704746
 22
139.3770450060731
 32
0.0
 13
59.15576797704746
 23
139.3770450060731
 33
0.0
  0
SOLID
  5
30A
330
1386
100
AcDbEntity
  8
MATM
 62
     0
100
AcDbTrace
 10
57.65576797704746
 20
158.3770450060731
 30
0.0
 11
60.65576797704746
 21
158.3770450060731
 31
0.0
 12
59.15576797704748
 22
149.3770450060731
 32
0.0
 13
59.15576797704748
 23
149.3770450060731
 33
0.0
  0
INSERT
  5
30B
330
1386
100
AcDbEntity
  8
ASYS
100
AcDbBlockReference
  2
*U33
 10
0.0
 20
0.0
 30
0.0
  0
POINT
  5
30C
330
1386
100
AcDbEntity
  8
DEFPOINTS
 62
     0
100
AcDbPoint
 10
72.67898418074202
 20
139.3770450060731
 30
0.0
  0
POINT
  5
30D
330
1386
100
AcDbEntity
  8
DEFPOINTS
 62
     0
100
AcDbPoint
 10
75.20987173626309
 20
149.3770450060731
 30
0.0
  0
POINT
  5
30E
330
1386
100
AcDbEntity
  8
DEFPOINTS
 62
     0
100
AcDbPoint
 10
59.15576797704748
 20
149.3770450060731
 30
0.0
  0
ENDBLK
  5
292
330
1386
100
AcDbEntity
  8
0
100
AcDbBlockEnd
  0
BLOCK
  5
1389
330
1388
100
AcDbEntity
  8
0
100
AcDbBlockBegin
  2
*U33
 70
     1
 10
0.0
 20
0.0
 30
0.0
  3
*U33
  1

  0
TEXT
  5
816
330
1388
100
AcDbEntity
  8
MATM
 62
     0
100
AcDbText
 10
56.02599148101283
 20
132.3997558928792
 30
0.0
 40
15.0
  1
10
 50
90.0
100
AcDbText
  0
ENDBLK
  5
818
330
1388
100
AcDbEntity
  8
0
100
AcDbBlockEnd
  0
BLOCK
  5
138B
330
138A
100
AcDbEntity
  8
0
100
AcDbBlockBegin
  2
*D34
 70
     1
 10
0.0
 20
0.0
 30
0.0
  3
*D34
  1

  0
LINE
  5
30F
330
138A
100
AcDbEntity
  8
MATM
 62
     0
100
AcDbLine
 10
72.67898418074202
 20
147.256672964705
 30
0.0
 11
72.67898418074202
 21
188.8370364832853
 31
0.0
  0
LINE
  5
310
330
138A
100
AcDbEntity
  8
MATM
 62
     0
100
AcDbLine
 10
87.67898418074198
 20
147.256672964705
 30
0.0
 11
87.67898418074198
 21
188.8370364832853
 31
0.0
  0
LINE
  5
311
330
138A
100
AcDbEntity
  8
MATM
 62
     0
100
AcDbLine
 10
63.67898418074203
 20
175.3370364832854
 30
0.0
 11
54.67898418074202
 21
175.3370364832854
 31
0.0
  0
LINE
  5
312
330
138A
100
AcDbEntity
  8
MATM
 62
     0
100
AcDbLine
 10
96.67898418074202
 20
175.3370364832854
 30
0.0
 11
131.678984180742
 21
175.3370364832854
 31
0.0
  0
LINE
  5
313
330
138A
100
AcDbEntity
  8
MATM
 62
     0
100
AcDbLine
 10
72.67898418074202
 20
175.3370364832854
 30
0.0
 11
87.67898418074198
 21
175.3370364832854
 31
0.0
  0
SOLID
  5
314
330
138A
100
AcDbEntity
  8
MATM
 62
     0
100
AcDbTrace
 10
63.67898418074203
 20
176.8370364832851
 30
0.0
 11
63.67898418074203
 21
173.8370364832853
 31
0.0
 12
72.67898418074202
 22
175.3370364832854
 32
0.0
 13
72.67898418074202
 23
175.3370364832854
 33
0.0
  0
SOLID
  5
315
330
138A
100
AcDbEntity
  8
MATM
 62
     0
100
AcDbTrace
 10
96.67898418074202
 20
176.8370364832851
 30
0.0
 11
96.67898418074202
 21
173.8370364832853
 31
0.0
 12
87.67898418074198
 22
175.3370364832854
 32
0.0
 13
87.67898418074198
 23
175.3370364832854
 33
0.0
  0
INSERT
  5
316
330
138A
100
AcDbEntity
  8
ASYS
100
AcDbBlockReference
  2
*U35
 10
0.0
 20
0.0
 30
0.0
  0
POINT
  5
317
330
138A
100
AcDbEntity
  8
DEFPOINTS
 62
     0
100
AcDbPoint
 10
72.67898418074202
 20
147.256672964705
 30
0.0
  0
POINT
  5
318
330
138A
100
AcDbEntity
  8
DEFPOINTS
 62
     0
100
AcDbPoint
 10
87.67898418074198
 20
147.256672964705
 30
0.0
  0
POINT
  5
319
330
138A
100
AcDbEntity
  8
DEFPOINTS
 62
     0
100
AcDbPoint
 10
87.67898418074198
 20
175.3370364832854
 30
0.0
  0
ENDBLK
  5
2A0
330
138A
100
AcDbEntity
  8
0
100
AcDbBlockEnd
  0
BLOCK
  5
138D
330
138C
100
AcDbEntity
  8
0
100
AcDbBlockBegin
  2
*U35
 70
     1
 10
0.0
 20
0.0
 30
0.0
  3
*U35
  1

  0
TEXT
  5
81A
330
138C
100
AcDbEntity
  8
MATM
 62
     0
100
AcDbText
 10
107.0369510156375
 20
178.4668129793199
 30
0.0
 40
15.0
  1
15
100
AcDbText
  0
ENDBLK
  5
81C
330
138C
100
AcDbEntity
  8
0
100
AcDbBlockEnd
  0
BLOCK
  5
138F
330
138E
100
AcDbEntity
  8
0
100
AcDbBlockBegin
  2
*D36
 70
     1
 10
0.0
 20
0.0
 30
0.0
  3
*D36
  1

  0
LINE
  5
31A
330
138E
100
AcDbEntity
  8
MATM
 62
     0
100
AcDbLine
 10
331.7738043962543
 20
79.54793534507553
 30
0.0
 11
419.0551936366808
 21
79.5479353450755
 31
0.0
  0
LINE
  5
31B
330
138E
100
AcDbEntity
  8
MATM
 62
     0
100
AcDbLine
 10
335.5443777634563
 20
64.3770450060731
 30
0.0
 11
419.0551936366808
 21
64.37704500607307
 31
0.0
  0
LINE
  5
31C
330
138E
100
AcDbEntity
  8
MATM
 62
     0
100
AcDbLine
 10
405.5551936366808
 20
88.54793534507548
 30
0.0
 11
405.5551936366808
 21
97.54793534507552
 31
0.0
  0
LINE
  5
31D
330
138E
100
AcDbEntity
  8
MATM
 62
     0
100
AcDbLine
 10
405.5551936366808
 20
55.37704500607308
 30
0.0
 11
405.5551936366808
 21
20.3770450060731
 31
0.0
  0
LINE
  5
31E
330
138E
100
AcDbEntity
  8
MATM
 62
     0
100
AcDbLine
 10
405.5551936366808
 20
79.5479353450755
 30
0.0
 11
405.5551936366808
 21
64.37704500607309
 31
0.0
  0
SOLID
  5
31F
330
138E
100
AcDbEntity
  8
MATM
 62
     0
100
AcDbTrace
 10
404.0551936366808
 20
88.54793534507548
 30
0.0
 11
407.0551936366808
 21
88.54793534507548
 31
0.0
 12
405.5551936366808
 22
79.5479353450755
 32
0.0
 13
405.5551936366808
 23
79.5479353450755
 33
0.0
  0
SOLID
  5
320
330
138E
100
AcDbEntity
  8
MATM
 62
     0
100
AcDbTrace
 10
404.0551936366808
 20
55.37704500607308
 30
0.0
 11
407.0551936366808
 21
55.37704500607308
 31
0.0
 12
405.5551936366808
 22
64.37704500607309
 32
0.0
 13
405.5551936366808
 23
64.37704500607309
 33
0.0
  0
INSERT
  5
321
330
138E
100
AcDbEntity
  8
ASYS
100
AcDbBlockReference
  2
*U37
 10
0.0
 20
0.0
 30
0.0
  0
POINT
  5
322
330
138E
100
AcDbEntity
  8
DEFPOINTS
 62
     0
100
AcDbPoint
 10
331.7738043962543
 20
79.54793534507553
 30
0.0
  0
POINT
  5
323
330
138E
100
AcDbEntity
  8
DEFPOINTS
 62
     0
100
AcDbPoint
 10
335.5443777634563
 20
64.3770450060731
 30
0.0
  0
POINT
  5
324
330
138E
100
AcDbEntity
  8
DEFPOINTS
 62
     0
100
AcDbPoint
 10
405.5551936366808
 20
64.37704500607309
 30
0.0
  0
ENDBLK
  5
2AE
330
138E
100
AcDbEntity
  8
0
100
AcDbBlockEnd
  0
BLOCK
  5
1391
330
1390
100
AcDbEntity
  8
0
100
AcDbBlockBegin
  2
*U37
 70
     1
 10
0.0
 20
0.0
 30
0.0
  3
*U37
  1

  0
TEXT
  5
81E
330
1390
100
AcDbEntity
  8
MATM
 62
     0
100
AcDbText
 10
402.4254171406462
 20
21.73501184096862
 30
0.0
 40
15.0
  1
15
 50
90.0
100
AcDbText
  0
ENDBLK
  5
820
330
1390
100
AcDbEntity
  8
0
100
AcDbBlockEnd
  0
BLOCK
  5
1393
330
1392
100
AcDbEntity
  8
0
100
AcDbBlockBegin
  2
*D38
 70
     1
 10
0.0
 20
0.0
 30
0.0
  3
*D38
  1

  0
LINE
  5
325
330
1392
100
AcDbEntity
  8
MATM
 62
     0
100
AcDbLine
 10
331.7738043962543
 20
77.92855904899806
 30
0.0
 11
331.7738043962543
 21
3.230408843387522
 31
0.0
  0
LINE
  5
326
330
1392
100
AcDbEntity
  8
MATM
 62
     0
100
AcDbLine
 10
372.678984180742
 20
64.3770450060731
 30
0.0
 11
372.678984180742
 21
3.230408843387515
 31
0.0
  0
LINE
  5
327
330
1392
100
AcDbEntity
  8
MATM
 62
     0
100
AcDbLine
 10
340.7738043962543
 20
16.73040884338751
 30
0.0
 11
363.678984180742
 21
16.73040884338751
 31
0.0
  0
SOLID
  5
328
330
1392
100
AcDbEntity
  8
MATM
 62
     0
100
AcDbTrace
 10
340.7738043962543
 20
18.23040884338751
 30
0.0
 11
340.7738043962543
 21
15.23040884338751
 31
0.0
 12
331.7738043962543
 22
16.73040884338751
 32
0.0
 13
331.7738043962543
 23
16.73040884338751
 33
0.0
  0
SOLID
  5
329
330
1392
100
AcDbEntity
  8
MATM
 62
     0
100
AcDbTrace
 10
363.678984180742
 20
18.23040884338751
 30
0.0
 11
363.678984180742
 21
15.23040884338751
 31
0.0
 12
372.678984180742
 22
16.73040884338751
 32
0.0
 13
372.678984180742
 23
16.73040884338751
 33
0.0
  0
INSERT
  5
32A
330
1392
100
AcDbEntity
  8
ASYS
100
AcDbBlockReference
  2
*U39
 10
0.0
 20
0.0
 30
0.0
  0
POINT
  5
32B
330
1392
100
AcDbEntity
  8
DEFPOINTS
 62
     0
100
AcDbPoint
 10
331.7738043962543
 20
77.92855904899806
 30
0.0
  0
POINT
  5
32C
330
1392
100
AcDbEntity
  8
DEFPOINTS
 62
     0
100
AcDbPoint
 10
372.678984180742
 20
64.3770450060731
 30
0.0
  0
POINT
  5
32D
330
1392
100
AcDbEntity
  8
DEFPOINTS
 62
     0
100
AcDbPoint
 10
372.678984180742
 20
16.73040884338751
 30
0.0
  0
ENDBLK
  5
2BA
330
1392
100
AcDbEntity
  8
0
100
AcDbBlockEnd
  0
BLOCK
  5
1395
330
1394
100
AcDbEntity
  8
0
100
AcDbBlockBegin
  2
*U39
 70
     1
 10
0.0
 20
0.0
 30
0.0
  3
*U39
  1

  0
TEXT
  5
822
330
1394
100
AcDbEntity
  8
MATM
 62
     0
100
AcDbText
 10
340.8763582394715
 20
19.86018533942212
 30
0.0
 40
15.0
  1
80
100
AcDbText
  0
ENDBLK
  5
824
330
1394
100
AcDbEntity
  8
0
100
AcDbBlockEnd
  0
BLOCK
  5
1397
330
1396
100
AcDbEntity
  8
0
100
AcDbBlockBegin
  2
*D40
 70
     1
 10
0.0
 20
0.0
 30
0.0
  3
*D40
  1

  0
LINE
  5
32E
330
1396
100
AcDbEntity
  8
MATM
 62
     0
100
AcDbLine
 10
390.678984180742
 20
166.8770450060731
 30
0.0
 11
416.2484272448453
 21
166.8770450060731
 31
0.0
  0
LINE
  5
32F
330
1396
100
AcDbEntity
  8
MATM
 62
     0
100
AcDbLine
 10
390.678984180742
 20
156.8770450060731
 30
0.0
 11
416.2484272448453
 21
156.8770450060731
 31
0.0
  0
LINE
  5
330
330
1396
100
AcDbEntity
  8
MATM
 62
     0
100
AcDbLine
 10
402.7484272448451
 20
175.8770450060731
 30
0.0
 11
402.7484272448451
 21
184.8770450060731
 31
0.0
  0
LINE
  5
331
330
1396
100
AcDbEntity
  8
MATM
 62
     0
100
AcDbLine
 10
402.7484272448451
 20
147.8770450060731
 30
0.0
 11
402.7484272448451
 21
115.3770450060731
 31
0.0
  0
LINE
  5
332
330
1396
100
AcDbEntity
  8
MATM
 62
     0
100
AcDbLine
 10
402.7484272448451
 20
166.8770450060731
 30
0.0
 11
402.7484272448451
 21
156.8770450060731
 31
0.0
  0
SOLID
  5
333
330
1396
100
AcDbEntity
  8
MATM
 62
     0
100
AcDbTrace
 10
401.2484272448451
 20
175.8770450060731
 30
0.0
 11
404.2484272448453
 21
175.8770450060731
 31
0.0
 12
402.7484272448451
 22
166.8770450060731
 32
0.0
 13
402.7484272448451
 23
166.8770450060731
 33
0.0
  0
SOLID
  5
334
330
1396
100
AcDbEntity
  8
MATM
 62
     0
100
AcDbTrace
 10
401.2484272448451
 20
147.8770450060731
 30
0.0
 11
404.2484272448453
 21
147.8770450060731
 31
0.0
 12
402.7484272448451
 22
156.8770450060731
 32
0.0
 13
402.7484272448451
 23
156.8770450060731
 33
0.0
  0
INSERT
  5
335
330
1396
100
AcDbEntity
  8
ASYS
100
AcDbBlockReference
  2
*U41
 10
0.0
 20
0.0
 30
0.0
  0
POINT
  5
336
330
1396
100
AcDbEntity
  8
DEFPOINTS
 62
     0
100
AcDbPoint
 10
390.678984180742
 20
166.8770450060731
 30
0.0
  0
POINT
  5
337
330
1396
100
AcDbEntity
  8
DEFPOINTS
 62
     0
100
AcDbPoint
 10
390.678984180742
 20
156.8770450060731
 30
0.0
  0
POINT
  5
338
330
1396
100
AcDbEntity
  8
DEFPOINTS
 62
     0
100
AcDbPoint
 10
402.7484272448451
 20
156.8770450060731
 30
0.0
  0
ENDBLK
  5
2C8
330
1396
100
AcDbEntity
  8
0
100
AcDbBlockEnd
  0
BLOCK
  5
1399
330
1398
100
AcDbEntity
  8
0
100
AcDbBlockBegin
  2
*U41
 70
     1
 10
0.0
 20
0.0
 30
0.0
  3
*U41
  1

  0
TEXT
  5
826
330
1398
100
AcDbEntity
  8
MATM
 62
     0
100
AcDbText
 10
399.6186507488106
 20
115.1497558928792
 30
0.0
 40
15.0
  1
10
 50
90.0
100
AcDbText
  0
ENDBLK
  5
828
330
1398
100
AcDbEntity
  8
0
100
AcDbBlockEnd
  0
BLOCK
  5
139B
330
139A
100
AcDbEntity
  8
0
100
AcDbBlockBegin
  2
*D42
 70
     1
 10
0.0
 20
0.0
 30
0.0
  3
*D42
  1

  0
LINE
  5
3C1
330
139A
100
AcDbEntity
  8
PAGR
 62
     0
100
AcDbLine
 10
390.678984180742
 20
400.2640400369206
 30
0.0
 11
436.8154037405218
 21
400.2640400369206
 31
0.0
  0
LINE
  5
3C2
330
139A
100
AcDbEntity
  8
PAGR
 62
     0
100
AcDbLine
 10
390.678984180742
 20
250.264040036921
 30
0.0
 11
436.8154037405218
 21
250.264040036921
 31
0.0
  0
LINE
  5
3C3
330
139A
100
AcDbEntity
  8
PAGR
 62
     0
100
AcDbLine
 10
423.3154037405218
 20
391.2640400369209
 30
0.0
 11
423.3154037405218
 21
259.264040036921
 31
0.0
  0
SOLID
  5
3C4
330
139A
100
AcDbEntity
  8
PAGR
 62
     0
100
AcDbTrace
 10
421.8154037405214
 20
391.2640400369209
 30
0.0
 11
424.8154037405218
 21
391.2640400369209
 31
0.0
 12
423.3154037405218
 22
400.2640400369206
 32
0.0
 13
423.3154037405218
 23
400.2640400369206
 33
0.0
  0
SOLID
  5
3C5
330
139A
100
AcDbEntity
  8
PAGR
 62
     0
100
AcDbTrace
 10
421.8154037405214
 20
259.264040036921
 30
0.0
 11
424.8154037405218
 21
259.264040036921
 31
0.0
 12
423.3154037405218
 22
250.264040036921
 32
0.0
 13
423.3154037405218
 23
250.264040036921
 33
0.0
  0
INSERT
  5
3C6
330
139A
100
AcDbEntity
  8
ASYS
100
AcDbBlockReference
  2
*U43
 10
0.0
 20
0.0
 30
0.0
  0
POINT
  5
3C7
330
139A
100
AcDbEntity
  8
DEFPOINTS
 62
     0
100
AcDbPoint
 10
390.678984180742
 20
400.2640400369206
 30
0.0
  0
POINT
  5
3C8
330
139A
100
AcDbEntity
  8
DEFPOINTS
 62
     0
100
AcDbPoint
 10
390.678984180742
 20
250.264040036921
 30
0.0
  0
POINT
  5
3C9
330
139A
100
AcDbEntity
  8
DEFPOINTS
 62
     0
100
AcDbPoint
 10
423.3154037405218
 20
250.264040036921
 30
0.0
  0
ENDBLK
  5
2D4
330
139A
100
AcDbEntity
  8
0
100
AcDbBlockEnd
  0
BLOCK
  5
139D
330
139C
100
AcDbEntity
  8
0
100
AcDbBlockBegin
  2
*U43
 70
     1
 10
0.0
 20
0.0
 30
0.0
  3
*U43
  1

  0
TEXT
  5
832
330
139C
100
AcDbEntity
  8
PAGR
 62
     0
100
AcDbText
 10
420.3154037405218
 20
317.3044149467985
 30
0.0
 40
15.0
  1
H
 50
90.0
100
AcDbText
  0
ENDBLK
  5
834
330
139C
100
AcDbEntity
  8
0
100
AcDbBlockEnd
  0
BLOCK
  5
139F
330
139E
100
AcDbEntity
  8
0
100
AcDbBlockBegin
  2
*D44
 70
     1
 10
0.0
 20
0.0
 30
0.0
  3
*D44
  1

  0
LINE
  5
3F5
330
139E
100
AcDbEntity
  8
PAGR
 62
     0
100
AcDbLine
 10
372.678984180742
 20
418.2640400369208
 30
0.0
 11
463.1621444563426
 21
418.2640400369208
 31
0.0
  0
LINE
  5
3F6
330
139E
100
AcDbEntity
  8
PAGR
 62
     0
100
AcDbLine
 10
372.678984180742
 20
232.264040036921
 30
0.0
 11
463.1621444563424
 21
232.2640400369209
 31
0.0
  0
LINE
  5
3F7
330
139E
100
AcDbEntity
  8
PAGR
 62
     0
100
AcDbLine
 10
449.6621444563423
 20
409.2640400369208
 30
0.0
 11
449.6621444563423
 21
241.2640400369209
 31
0.0
  0
SOLID
  5
3F8
330
139E
100
AcDbEntity
  8
PAGR
 62
     0
100
AcDbTrace
 10
448.1621444563423
 20
409.2640400369208
 30
0.0
 11
451.1621444563424
 21
409.2640400369208
 31
0.0
 12
449.6621444563423
 22
418.2640400369208
 32
0.0
 13
449.6621444563423
 23
418.2640400369208
 33
0.0
  0
SOLID
  5
3F9
330
139E
100
AcDbEntity
  8
PAGR
 62
     0
100
AcDbTrace
 10
448.1621444563423
 20
241.2640400369209
 30
0.0
 11
451.1621444563424
 21
241.2640400369209
 31
0.0
 12
449.6621444563423
 22
232.2640400369209
 32
0.0
 13
449.6621444563423
 23
232.2640400369209
 33
0.0
  0
INSERT
  5
3FA
330
139E
100
AcDbEntity
  8
ASYS
100
AcDbBlockReference
  2
*U45
 10
0.0
 20
0.0
 30
0.0
  0
POINT
  5
3FB
330
139E
100
AcDbEntity
  8
DEFPOINTS
 62
     0
100
AcDbPoint
 10
372.678984180742
 20
418.2640400369208
 30
0.0
  0
POINT
  5
3FC
330
139E
100
AcDbEntity
  8
DEFPOINTS
 62
     0
100
AcDbPoint
 10
372.678984180742
 20
232.264040036921
 30
0.0
  0
POINT
  5
3FD
330
139E
100
AcDbEntity
  8
DEFPOINTS
 62
     0
100
AcDbPoint
 10
449.6621444563423
 20
232.2640400369209
 30
0.0
  0
ENDBLK
  5
2E0
330
139E
100
AcDbEntity
  8
0
100
AcDbBlockEnd
  0
BLOCK
  5
13A1
330
13A0
100
AcDbEntity
  8
0
100
AcDbBlockBegin
  2
*U45
 70
     1
 10
0.0
 20
0.0
 30
0.0
  3
*U45
  1

  0
TEXT
  5
83B
330
13A0
100
AcDbEntity
  8
PAGR
 62
     0
100
AcDbText
 10
446.4025914642729
 20
300.1522880542245
 30
0.0
 40
15.0
  1
H
 50
90.0
100
AcDbText
  0
TEXT
  5
83C
330
13A0
100
AcDbEntity
  8
PAGR
 62
     0
100
AcDbText
 10
446.4025914642729
 20
316.1472411904899
 30
0.0
 40
15.0
  1
+40
 50
90.0
100
AcDbText
  0
ENDBLK
  5
83E
330
13A0
100
AcDbEntity
  8
0
100
AcDbBlockEnd
  0
BLOCK
  5
13A3
330
13A2
100
AcDbEntity
  8
0
100
AcDbBlockBegin
  2
*X46
 70
     1
 10
0.0
 20
0.0
 30
0.0
  3
*X46
  1

  0
LINE
  5
65D
330
13A2
100
AcDbEntity
  8
0
 62
     0
100
AcDbLine
 10
79.86495370107532
 20
116.1665683566864
 30
0.0
 11
79.71864162012038
 21
69.03768580879165
 31
0.0
  0
LINE
  5
65E
330
13A2
100
AcDbEntity
  8
0
 62
     0
100
AcDbLine
 10
79.95147873821053
 20
144.0373243870971
 30
0.0
 11
79.94380787173517
 21
141.5664459552058
 31
0.0
  0
LINE
  5
65F
330
13A2
100
AcDbEntity
  8
0
 62
     0
100
AcDbLine
 10
83.00051131556029
 20
103.4567727860942
 30
0.0
 11
82.89362631993528
 21
69.0278290374592
 31
0.0
  0
LINE
  5
660
330
13A2
100
AcDbEntity
  8
0
 62
     0
100
AcDbLine
 10
83.12646343802541
 20
144.0274676157646
 30
0.0
 11
83.07936548622015
 21
128.8566503846136
 31
0.0
  0
LINE
  5
661
330
13A2
100
AcDbEntity
  8
0
 62
     0
100
AcDbLine
 10
86.13606893004531
 20
90.74697721550222
 30
0.0
 11
86.06861101975018
 21
69.01797226612673
 31
0.0
  0
LINE
  5
662
330
13A2
100
AcDbEntity
  8
0
 62
     0
100
AcDbLine
 10
86.30144813784035
 20
144.0176108444321
 30
0.0
 11
86.21492310070518
 21
116.1468548140216
 31
0.0
  0
LINE
  5
663
330
13A2
100
AcDbEntity
  8
0
 62
     0
100
AcDbLine
 10
89.27162654453033
 20
78.03718164490973
 30
0.0
 11
89.24359571956518
 21
69.00811549479404
 31
0.0
  0
LINE
  5
664
330
13A2
100
AcDbEntity
  8
0
 62
     0
100
AcDbLine
 10
89.47643283765534
 20
144.0077540730996
 30
0.0
 11
89.3504807151902
 21
103.4370592434292
 31
0.0
  0
LINE
  5
665
330
13A2
100
AcDbEntity
  8
0
 62
     0
100
AcDbLine
 10
92.64374667099493
 20
141.527018869876
 30
0.0
 11
92.48603832967518
 21
90.72726367283717
 31
0.0
  0
LINE
  5
666
330
13A2
100
AcDbEntity
  8
0
 62
     0
100
AcDbLine
 10
95.77930428547992
 20
128.8172232992836
 30
0.0
 11
95.62159594416019
 21
78.01746810224472
 31
0.0
  0
LINE
  5
667
330
13A2
100
AcDbEntity
  8
0
 62
     0
100
AcDbLine
 10
98.91486189996497
 20
116.1074277286917
 30
0.0
 11
98.76854981900999
 21
68.97854518079674
 31
0.0
  0
LINE
  5
668
330
13A2
100
AcDbEntity
  8
0
 62
     0
100
AcDbLine
 10
99.00138693710017
 20
143.9781837591022
 30
0.0
 11
98.99371607062478
 21
141.5073053272112
 31
0.0
  0
LINE
  5
669
330
13A2
100
AcDbEntity
  8
0
 62
     0
100
AcDbLine
 10
102.0504195144499
 20
103.3976321580995
 30
0.0
 11
101.9435345188249
 21
68.96868840946429
 31
0.0
  0
LINE
  5
66A
330
13A2
100
AcDbEntity
  8
0
 62
     0
100
AcDbLine
 10
102.176371636915
 20
143.9683269877695
 30
0.0
 11
102.1292736851098
 21
128.7975097566189
 31
0.0
  0
LINE
  5
66B
330
13A2
100
AcDbEntity
  8
0
 62
     0
100
AcDbLine
 10
105.1859771289348
 20
90.68783658750747
 30
0.0
 11
105.1185192186398
 21
68.95883163813184
 31
0.0
  0
LINE
  5
66C
330
13A2
100
AcDbEntity
  8
0
 62
     0
100
AcDbLine
 10
105.35135633673
 20
143.9584702164371
 30
0.0
 11
105.2648312995948
 21
116.0877141860269
 31
0.0
  0
LINE
  5
66D
330
13A2
100
AcDbEntity
  8
0
 62
     0
100
AcDbLine
 10
108.3215347434199
 20
77.9780410169146
 30
0.0
 11
108.2935039184547
 21
68.94897486679915
 31
0.0
  0
LINE
  5
66E
330
13A2
100
AcDbEntity
  8
0
 62
     0
100
AcDbLine
 10
108.5263410365449
 20
143.9486134451048
 30
0.0
 11
108.4003889140797
 21
103.377918615434
 31
0.0
  0
LINE
  5
66F
330
13A2
100
AcDbEntity
  8
0
 62
     0
100
AcDbLine
 10
111.6936548698845
 20
141.4678782418809
 30
0.0
 11
111.5359465285648
 21
90.66812304484207
 31
0.0
  0
LINE
  5
670
330
13A2
100
AcDbEntity
  8
0
 62
     0
100
AcDbLine
 10
114.8292124843695
 20
128.7580826712888
 30
0.0
 11
114.6715041430498
 21
77.95832747425006
 31
0.0
  0
LINE
  5
671
330
13A2
100
AcDbEntity
  8
0
 62
     0
100
AcDbLine
 10
117.9647700988545
 20
116.0482871006967
 30
0.0
 11
117.8184580178996
 21
68.91940455280174
 31
0.0
  0
LINE
  5
672
330
13A2
100
AcDbEntity
  8
0
 62
     0
100
AcDbLine
 10
118.0512951359897
 20
143.9190431311074
 30
0.0
 11
118.0436242695144
 21
141.4481646992161
 31
0.0
  0
LINE
  5
673
330
13A2
100
AcDbEntity
  8
0
 62
     0
100
AcDbLine
 10
121.1003277133395
 20
103.3384915301048
 30
0.0
 11
120.9934427177145
 21
68.90954778146938
 31
0.0
  0
LINE
  5
674
330
13A2
100
AcDbEntity
  8
0
 62
     0
100
AcDbLine
 10
121.2262798358046
 20
143.9091863597748
 30
0.0
 11
121.1791818839994
 21
128.7383691286242
 31
0.0
  0
LINE
  5
675
330
13A2
100
AcDbEntity
  8
0
 62
     0
100
AcDbLine
 10
124.2358853278245
 20
90.62869595951237
 30
0.0
 11
124.1684274175294
 21
68.89969101013694
 31
0.0
  0
LINE
  5
676
330
13A2
100
AcDbEntity
  8
0
 62
     0
100
AcDbLine
 10
124.4012645356196
 20
143.8993295884423
 30
0.0
 11
124.3147394984844
 21
116.0285735580318
 31
0.0
  0
LINE
  5
677
330
13A2
100
AcDbEntity
  8
0
 62
     0
100
AcDbLine
 10
127.3714429423095
 20
77.91890038892018
 30
0.0
 11
127.3434121173443
 21
68.88983423880429
 31
0.0
  0
LINE
  5
678
330
13A2
100
AcDbEntity
  8
0
 62
     0
100
AcDbLine
 10
127.5762492354345
 20
143.8894728171098
 30
0.0
 11
127.4502971129694
 21
103.3187779874396
 31
0.0
  0
LINE
  5
679
330
13A2
100
AcDbEntity
  8
0
 62
     0
100
AcDbLine
 10
130.7435630687741
 20
141.408737613886
 30
0.0
 11
130.5858547274544
 21
90.60898241684716
 31
0.0
  0
LINE
  5
67A
330
13A2
100
AcDbEntity
  8
0
 62
     0
100
AcDbLine
 10
133.8791206832592
 20
128.698942043294
 30
0.0
 11
133.7214123419395
 21
77.89918684625519
 31
0.0
  0
LINE
  5
67B
330
13A2
100
AcDbEntity
  8
0
 62
     0
100
AcDbLine
 10
137.0146782977441
 20
115.9891464727016
 30
0.0
 11
136.8683662167892
 21
68.86026392480683
 31
0.0
  0
LINE
  5
67C
330
13A2
100
AcDbEntity
  8
0
 62
     0
100
AcDbLine
 10
137.1012033348793
 20
143.8599025031124
 30
0.0
 11
137.093532468404
 21
141.389024071221
 31
0.0
  0
LINE
  5
67D
330
13A2
100
AcDbEntity
  8
0
 62
     0
100
AcDbLine
 10
140.1502359122292
 20
103.2793509021093
 30
0.0
 11
140.0433509166042
 21
68.85040715347431
 31
0.0
  0
LINE
  5
67E
330
13A2
100
AcDbEntity
  8
0
 62
     0
100
AcDbLine
 10
140.2761880346943
 20
143.8500457317799
 30
0.0
 11
140.229090082889
 21
128.6792285006287
 31
0.0
  0
LINE
  5
67F
330
13A2
100
AcDbEntity
  8
0
 62
     0
100
AcDbLine
 10
143.2857935267141
 20
90.56955533151699
 30
0.0
 11
143.218335616419
 21
68.8405503821418
 31
0.0
  0
LINE
  5
680
330
13A2
100
AcDbEntity
  8
0
 62
     0
100
AcDbLine
 10
143.4511727345092
 20
143.8401889604474
 30
0.0
 11
143.364647697374
 21
115.9694329300364
 31
0.0
  0
LINE
  5
681
330
13A2
100
AcDbEntity
  8
0
 62
     0
100
AcDbLine
 10
146.4213511411992
 20
77.85975976092506
 30
0.0
 11
146.393320316234
 21
68.83069361080938
 31
0.0
  0
LINE
  5
682
330
13A2
100
AcDbEntity
  8
0
 62
     0
100
AcDbLine
 10
146.626157434324
 20
143.830332189115
 30
0.0
 11
146.500205311859
 21
103.2596373594445
 31
0.0
  0
LINE
  5
683
330
13A2
100
AcDbEntity
  8
0
 62
     0
100
AcDbLine
 10
149.7934712676638
 20
141.3495969858911
 30
0.0
 11
149.635762926344
 21
90.54984178885227
 31
0.0
  0
LINE
  5
684
330
13A2
100
AcDbEntity
  8
0
 62
     0
100
AcDbLine
 10
152.9290288821487
 20
128.6398014152989
 30
0.0
 11
152.7713205408289
 21
77.84004621826006
 31
0.0
  0
LINE
  5
685
330
13A2
100
AcDbEntity
  8
0
 62
     0
100
AcDbLine
 10
156.0645864966337
 20
115.9300058447067
 30
0.0
 11
155.9182744156788
 21
68.80112329681198
 31
0.0
  0
LINE
  5
686
330
13A2
100
AcDbEntity
  8
0
 62
     0
100
AcDbLine
 10
156.151111533769
 20
143.8007618751176
 30
0.0
 11
156.1434406672936
 21
141.3298834432262
 31
0.0
  0
LINE
  5
687
330
13A2
100
AcDbEntity
  8
0
 62
     0
100
AcDbLine
 10
159.2001441111188
 20
103.2202102741146
 30
0.0
 11
159.0932591154938
 21
68.79126652547944
 31
0.0
  0
LINE
  5
688
330
13A2
100
AcDbEntity
  8
0
 62
     0
100
AcDbLine
 10
159.3260962335839
 20
143.7909051037851
 30
0.0
 11
159.2789982817787
 21
128.6200878726341
 31
0.0
  0
LINE
  5
689
330
13A2
100
AcDbEntity
  8
0
 62
     0
100
AcDbLine
 10
162.3357017256037
 20
90.51041470352251
 30
0.0
 11
162.2682438153087
 21
68.78140975414706
 31
0.0
  0
LINE
  5
68A
330
13A2
100
AcDbEntity
  8
0
 62
     0
100
AcDbLine
 10
162.5010809333988
 20
143.7810483324525
 30
0.0
 11
162.4145558962636
 21
115.9102923020419
 31
0.0
  0
LINE
  5
68B
330
13A2
100
AcDbEntity
  8
0
 62
     0
100
AcDbLine
 10
165.4712593400888
 20
77.80061913293057
 30
0.0
 11
165.4432285151236
 21
68.77155298281464
 31
0.0
  0
LINE
  5
68C
330
13A2
100
AcDbEntity
  8
0
 62
     0
100
AcDbLine
 10
165.6760656332138
 20
143.7711915611201
 30
0.0
 11
165.5501135107487
 21
103.20049673145
 31
0.0
  0
LINE
  5
68D
330
13A2
100
AcDbEntity
  8
0
 62
     0
100
AcDbLine
 10
168.8433794665533
 20
141.2904563578962
 30
0.0
 11
168.6856711252336
 21
90.49070116085735
 31
0.0
  0
LINE
  5
68E
330
13A2
100
AcDbEntity
  8
0
 62
     0
100
AcDbLine
 10
171.9789370810384
 20
128.5806607873044
 30
0.0
 11
171.8212287397187
 21
77.78090559026555
 31
0.0
  0
LINE
  5
68F
330
13A2
100
AcDbEntity
  8
0
 62
     0
100
AcDbLine
 10
175.1144946955234
 20
115.870865216712
 30
0.0
 11
174.9681826145684
 21
68.74198266881703
 31
0.0
  0
LINE
  5
690
330
13A2
100
AcDbEntity
  8
0
 62
     0
100
AcDbLine
 10
175.2010197326586
 20
143.7416212471227
 30
0.0
 11
175.1933488661832
 21
141.2707428152314
 31
0.0
  0
LINE
  5
691
330
13A2
100
AcDbEntity
  8
0
 62
     0
100
AcDbLine
 10
178.2500523100084
 20
103.16106964612
 30
0.0
 11
178.1431673143833
 21
68.73212589748455
 31
0.0
  0
LINE
  5
692
330
13A2
100
AcDbEntity
  8
0
 62
     0
100
AcDbLine
 10
178.3760044324735
 20
143.7317644757902
 30
0.0
 11
178.3289064806682
 21
128.5609472446394
 31
0.0
  0
LINE
  5
693
330
13A2
100
AcDbEntity
  8
0
 62
     0
100
AcDbLine
 10
181.3856099244933
 20
90.45127407552765
 30
0.0
 11
181.3181520141984
 21
68.72226912615222
 31
0.0
  0
LINE
  5
694
330
13A2
100
AcDbEntity
  8
0
 62
     0
100
AcDbLine
 10
181.5509891322884
 20
143.7219077044576
 30
0.0
 11
181.4644640951532
 21
115.8511516740471
 31
0.0
  0
LINE
  5
695
330
13A2
100
AcDbEntity
  8
0
 62
     0
100
AcDbLine
 10
184.5211675389784
 20
77.74147850493566
 30
0.0
 11
184.4931367140133
 21
68.71241235481973
 31
0.0
  0
LINE
  5
696
330
13A2
100
AcDbEntity
  8
0
 62
     0
100
AcDbLine
 10
184.7259738321034
 20
143.7120509331252
 30
0.0
 11
184.6000217096383
 21
103.141356103455
 31
0.0
  0
LINE
  5
697
330
13A2
100
AcDbEntity
  8
0
 62
     0
100
AcDbLine
 10
187.8932876654429
 20
141.2313157299011
 30
0.0
 11
187.7355793241232
 21
90.43156053286224
 31
0.0
  0
LINE
  5
698
330
13A2
100
AcDbEntity
  8
0
 62
     0
100
AcDbLine
 10
191.0288452799279
 20
128.5215201593091
 30
0.0
 11
190.8711369386081
 21
77.7217649622703
 31
0.0
  0
LINE
  5
699
330
13A2
100
AcDbEntity
  8
0
 62
     0
100
AcDbLine
 10
194.164402894413
 20
115.8117245887168
 30
0.0
 11
194.0180908134581
 21
68.68284204082211
 31
0.0
  0
LINE
  5
69A
330
13A2
100
AcDbEntity
  8
0
 62
     0
100
AcDbLine
 10
194.2509279315482
 20
143.6824806191278
 30
0.0
 11
194.2432570650729
 21
141.2116021872363
 31
0.0
  0
LINE
  5
69B
330
13A2
100
AcDbEntity
  8
0
 62
     0
100
AcDbLine
 10
197.299960508898
 20
103.1019290181246
 30
0.0
 11
197.1930755132729
 21
68.67298526948964
 31
0.0
  0
LINE
  5
69C
330
13A2
100
AcDbEntity
  8
0
 62
     0
100
AcDbLine
 10
197.4259126313631
 20
143.6726238477953
 30
0.0
 11
197.3788146795579
 21
128.501806616644
 31
0.0
  0
LINE
  5
69D
330
13A2
100
AcDbEntity
  8
0
 62
     0
100
AcDbLine
 10
200.435518123383
 20
90.39213344753241
 30
0.0
 11
200.3680602130879
 21
68.66312849815719
 31
0.0
  0
LINE
  5
69E
330
13A2
100
AcDbEntity
  8
0
 62
     0
100
AcDbLine
 10
200.600897331178
 20
143.6627670764628
 30
0.0
 11
200.5143722940428
 21
115.7920110460518
 31
0.0
  0
LINE
  5
69F
330
13A2
100
AcDbEntity
  8
0
 62
     0
100
AcDbLine
 10
203.5710757378681
 20
77.68233787694035
 30
0.0
 11
203.5430449129029
 21
68.65327172682466
 31
0.0
  0
LINE
  5
6A0
330
13A2
100
AcDbEntity
  8
0
 62
     0
100
AcDbLine
 10
203.7758820309929
 20
143.6529103051302
 30
0.0
 11
203.6499299085279
 21
103.0822154754598
 31
0.0
  0
LINE
  5
6A1
330
13A2
100
AcDbEntity
  8
0
 62
     0
100
AcDbLine
 10
206.9431958643326
 20
141.1721751019066
 30
0.0
 11
206.7854875230129
 21
90.37241990486776
 31
0.0
  0
LINE
  5
6A2
330
13A2
100
AcDbEntity
  8
0
 62
     0
100
AcDbLine
 10
210.0787534788176
 20
128.4623795313145
 30
0.0
 11
209.9210451374978
 21
77.66262433427563
 31
0.0
  0
LINE
  5
6A3
330
13A2
100
AcDbEntity
  8
0
 62
     0
100
AcDbLine
 10
213.2143110933026
 20
115.7525839607222
 30
0.0
 11
213.0679990123477
 21
68.6237014128272
 31
0.0
  0
LINE
  5
6A4
330
13A2
100
AcDbEntity
  8
0
 62
     0
100
AcDbLine
 10
213.3008361304379
 20
143.6233399911328
 30
0.0
 11
213.2931652639625
 21
141.1524615592416
 31
0.0
  0
LINE
  5
6A5
330
13A2
100
AcDbEntity
  8
0
 62
     0
100
AcDbLine
 10
216.3498687077876
 20
103.0427883901299
 30
0.0
 11
216.2429837121626
 21
68.61384464149472
 31
0.0
  0
LINE
  5
6A6
330
13A2
100
AcDbEntity
  8
0
 62
     0
100
AcDbLine
 10
216.4758208302528
 20
143.6134832198004
 30
0.0
 11
216.4287228784475
 21
128.4426659886494
 31
0.0
  0
LINE
  5
6A7
330
13A2
100
AcDbEntity
  8
0
 62
     0
100
AcDbLine
 10
219.4854263222726
 20
90.33299281953802
 30
0.0
 11
219.4179684119776
 21
68.60398787016234
 31
0.0
  0
LINE
  5
6A8
330
13A2
100
AcDbEntity
  8
0
 62
     0
100
AcDbLine
 10
219.6508055300677
 20
143.603626448468
 30
0.0
 11
219.5642804929324
 21
115.7328704180574
 31
0.0
  0
LINE
  5
6A9
330
13A2
100
AcDbEntity
  8
0
 62
     0
100
AcDbLine
 10
222.6209839367577
 20
77.62319724894566
 30
0.0
 11
222.5929531117925
 21
68.59413109882975
 31
0.0
  0
LINE
  5
6AA
330
13A2
100
AcDbEntity
  8
0
 62
     0
100
AcDbLine
 10
222.8257902298827
 20
143.5937696771354
 30
0.0
 11
222.6998381074174
 21
103.0230748474651
 31
0.0
  0
LINE
  5
6AB
330
13A2
100
AcDbEntity
  8
0
 62
     0
100
AcDbLine
 10
225.9931040632222
 20
141.1130344739115
 30
0.0
 11
225.8353957219025
 21
90.3132792768727
 31
0.0
  0
LINE
  5
6AC
330
13A2
100
AcDbEntity
  8
0
 62
     0
100
AcDbLine
 10
229.1286616777072
 20
128.4032389033193
 30
0.0
 11
228.9709533363875
 21
77.60348370628048
 31
0.0
  0
LINE
  5
6AD
330
13A2
100
AcDbEntity
  8
0
 62
     0
100
AcDbLine
 10
232.2642192921923
 20
115.6934433327273
 30
0.0
 11
232.1179072112373
 21
68.56456078483235
 31
0.0
  0
LINE
  5
6AE
330
13A2
100
AcDbEntity
  8
0
 62
     0
100
AcDbLine
 10
232.3507443293276
 20
143.564199363138
 30
0.0
 11
232.3430734628522
 21
141.0933209312467
 31
0.0
  0
LINE
  5
6AF
330
13A2
100
AcDbEntity
  8
0
 62
     0
100
AcDbLine
 10
235.3997769066773
 20
102.983647762135
 30
0.0
 11
235.2928919110522
 21
68.55470401349982
 31
0.0
  0
LINE
  5
6B0
330
13A2
100
AcDbEntity
  8
0
 62
     0
100
AcDbLine
 10
235.5257290291424
 20
143.5543425918054
 30
0.0
 11
235.4786310773371
 21
128.3835253606545
 31
0.0
  0
LINE
  5
6B1
330
13A2
100
AcDbEntity
  8
0
 62
     0
100
AcDbLine
 10
238.5353345211622
 20
90.27385219154314
 30
0.0
 11
238.4678766108671
 21
68.54484724216742
 31
0.0
  0
LINE
  5
6B2
330
13A2
100
AcDbEntity
  8
0
 62
     0
100
AcDbLine
 10
238.7007137289574
 20
143.544485820473
 30
0.0
 11
238.6141886918221
 21
115.6737297900625
 31
0.0
  0
LINE
  5
6B3
330
13A2
100
AcDbEntity
  8
0
 62
     0
100
AcDbLine
 10
241.6708921356473
 20
77.56405662095066
 30
0.0
 11
241.6428613106821
 21
68.53499047083495
 31
0.0
  0
LINE
  5
6B4
330
13A2
100
AcDbEntity
  8
0
 62
     0
100
AcDbLine
 10
241.8756984287723
 20
143.5346290491406
 30
0.0
 11
241.7497463063072
 21
102.9639342194701
 31
0.0
  0
LINE
  5
6B5
330
13A2
100
AcDbEntity
  8
0
 62
     0
100
AcDbLine
 10
245.0430122621118
 20
141.0538938459166
 30
0.0
 11
244.8853039207921
 21
90.25413864887772
 31
0.0
  0
LINE
  5
6B6
330
13A2
100
AcDbEntity
  8
0
 62
     0
100
AcDbLine
 10
248.1785698765968
 20
128.3440982753247
 30
0.0
 11
248.0208615352772
 21
77.54434307828581
 31
0.0
  0
LINE
  5
6B7
330
13A2
100
AcDbEntity
  8
0
 62
     0
100
AcDbLine
 10
251.3141274910817
 20
115.634302704732
 30
0.0
 11
251.1678154101268
 21
68.5054201568376
 31
0.0
  0
LINE
  5
6B8
330
13A2
100
AcDbEntity
  8
0
 62
     0
100
AcDbLine
 10
251.4006525282169
 20
143.505058735143
 30
0.0
 11
251.3929816617416
 21
141.0341803032516
 31
0.0
  0
LINE
  5
6B9
330
13A2
100
AcDbEntity
  8
0
 62
     0
100
AcDbLine
 10
254.4496851055669
 20
102.9245071341396
 30
0.0
 11
254.3428001099419
 21
68.49556338550485
 31
0.0
  0
LINE
  5
6BA
330
13A2
100
AcDbEntity
  8
0
 62
     0
100
AcDbLine
 10
254.575637228032
 20
143.4952019638105
 30
0.0
 11
254.5285392762267
 21
128.3243847326591
 31
0.0
  0
LINE
  5
6BB
330
13A2
100
AcDbEntity
  8
0
 62
     0
100
AcDbLine
 10
257.5852427200519
 20
90.21471156354769
 30
0.0
 11
257.5177848097568
 21
68.48570661417269
 31
0.0
  0
LINE
  5
6BC
330
13A2
100
AcDbEntity
  8
0
 62
     0
100
AcDbLine
 10
257.7506219278468
 20
143.4853451924781
 30
0.0
 11
257.6640968907117
 21
115.6145891620671
 31
0.0
  0
LINE
  5
6BD
330
13A2
100
AcDbEntity
  8
0
 62
     0
100
AcDbLine
 10
260.7208003345368
 20
77.50491599295523
 30
0.0
 11
260.6927695095717
 21
68.47584984284022
 31
0.0
  0
LINE
  5
6BE
330
13A2
100
AcDbEntity
  8
0
 62
     0
100
AcDbLine
 10
260.9256066276618
 20
143.4754884211456
 30
0.0
 11
260.7996545051967
 21
102.9047935914746
 31
0.0
  0
LINE
  5
6BF
330
13A2
100
AcDbEntity
  8
0
 62
     0
100
AcDbLine
 10
264.0929204610015
 20
140.9947532179218
 30
0.0
 11
263.9352121196818
 21
90.19499802088294
 31
0.0
  0
LINE
  5
6C0
330
13A2
100
AcDbEntity
  8
0
 62
     0
100
AcDbLine
 10
267.2284780754865
 20
128.2849576473298
 30
0.0
 11
267.0707697341667
 21
77.48520245029091
 31
0.0
  0
LINE
  5
6C1
330
13A2
100
AcDbEntity
  8
0
 62
     0
100
AcDbLine
 10
270.3640356899715
 20
115.5751620767372
 30
0.0
 11
270.2177236090165
 21
68.44627952884271
 31
0.0
  0
LINE
  5
6C2
330
13A2
100
AcDbEntity
  8
0
 62
     0
100
AcDbLine
 10
270.4505607271066
 20
143.4459181071481
 30
0.0
 11
270.4428898606313
 21
140.9750396752567
 31
0.0
  0
LINE
  5
6C3
330
13A2
100
AcDbEntity
  8
0
 62
     0
100
AcDbLine
 10
273.4995933044565
 20
102.8653665061452
 30
0.0
 11
273.3927083088314
 21
68.43642275751024
 31
0.0
  0
LINE
  5
6C4
330
13A2
100
AcDbEntity
  8
0
 62
     0
100
AcDbLine
 10
273.6255454269216
 20
143.4360613358157
 30
0.0
 11
273.5784474751164
 21
128.2652441046646
 31
0.0
  0
LINE
  5
6C5
330
13A2
100
AcDbEntity
  8
0
 62
     0
100
AcDbLine
 10
276.6351509189415
 20
90.15557093555321
 30
0.0
 11
276.5676930086464
 21
68.42656598617779
 31
0.0
  0
LINE
  5
6C6
330
13A2
100
AcDbEntity
  8
0
 62
     0
100
AcDbLine
 10
276.8005301267365
 20
143.4262045644832
 30
0.0
 11
276.7140050896014
 21
115.5554485340727
 31
0.0
  0
LINE
  5
6C7
330
13A2
100
AcDbEntity
  8
0
 62
     0
100
AcDbLine
 10
279.7707085334264
 20
77.44577536496123
 30
0.0
 11
279.7426777084613
 21
68.41670921484531
 31
0.0
  0
LINE
  5
6C8
330
13A2
100
AcDbEntity
  8
0
 62
     0
100
AcDbLine
 10
279.9755148265514
 20
143.4163477931507
 30
0.0
 11
279.8495627040863
 21
102.8456529634806
 31
0.0
  0
LINE
  5
6C9
330
13A2
100
AcDbEntity
  8
0
 62
     0
100
AcDbLine
 10
283.1428286598911
 20
140.9356125899269
 30
0.0
 11
282.9851203185714
 21
90.13585739288805
 31
0.0
  0
LINE
  5
6CA
330
13A2
100
AcDbEntity
  8
0
 62
     0
100
AcDbLine
 10
286.2783862743761
 20
128.2258170193347
 30
0.0
 11
286.1206779330564
 21
77.42606182229597
 31
0.0
  0
LINE
  5
6CB
330
13A2
100
AcDbEntity
  8
0
 62
     0
100
AcDbLine
 10
289.4139438888612
 20
115.5160214487428
 30
0.0
 11
289.2676318079061
 21
68.38713890084786
 31
0.0
  0
LINE
  5
6CC
330
13A2
100
AcDbEntity
  8
0
 62
     0
100
AcDbLine
 10
289.5004689259963
 20
143.3867774791533
 30
0.0
 11
289.4927980595209
 21
140.9158990472623
 31
0.0
  0
LINE
  5
6CD
330
13A2
100
AcDbEntity
  8
0
 62
     0
100
AcDbLine
 10
292.5495015033463
 20
102.8062258781503
 30
0.0
 11
292.4426165077211
 21
68.37728212951532
 31
0.0
  0
LINE
  5
6CE
330
13A2
100
AcDbEntity
  8
0
 62
     0
100
AcDbLine
 10
292.6754536258112
 20
143.3769207078207
 30
0.0
 11
292.628355674006
 21
128.2061034766697
 31
0.0
  0
LINE
  5
6CF
330
13A2
100
AcDbEntity
  8
0
 62
     0
100
AcDbLine
 10
295.6850591178311
 20
90.09643030755785
 30
0.0
 11
295.617601207536
 21
68.36742535818243
 31
0.0
  0
LINE
  5
6D0
330
13A2
100
AcDbEntity
  8
0
 62
     0
100
AcDbLine
 10
295.8504383256261
 20
143.3670639364883
 30
0.0
 11
295.7639132884909
 21
115.4963079060773
 31
0.0
  0
LINE
  5
6D1
330
13A2
100
AcDbEntity
  8
0
 62
     0
100
AcDbLine
 10
298.8206167323161
 20
77.38663473696587
 30
0.0
 11
298.7925859073509
 21
68.35756858685041
 31
0.0
  0
LINE
  5
6D2
330
13A2
100
AcDbEntity
  8
0
 62
     0
100
AcDbLine
 10
299.0254230254411
 20
143.3572071651558
 30
0.0
 11
298.8994709029759
 21
102.7865123354853
 31
0.0
  0
LINE
  5
6D3
330
13A2
100
AcDbEntity
  8
0
 62
     0
100
AcDbLine
 10
302.1927368587807
 20
140.8764719619325
 30
0.0
 11
302.035028517461
 21
90.07671676489364
 31
0.0
  0
LINE
  5
6D4
330
13A2
100
AcDbEntity
  8
0
 62
     0
100
AcDbLine
 10
305.3282944732657
 20
128.1666763913405
 30
0.0
 11
305.170586131946
 21
77.36692119430165
 31
0.0
  0
LINE
  5
6D5
330
13A2
100
AcDbEntity
  8
0
 62
     0
100
AcDbLine
 10
308.4638520877507
 20
115.4568808207484
 30
0.0
 11
308.3175400067958
 21
68.32799827285295
 31
0.0
  0
LINE
  5
6D6
330
13A2
100
AcDbEntity
  8
0
 62
     0
100
AcDbLine
 10
308.5503771248859
 20
143.3276368511584
 30
0.0
 11
308.5427062584106
 21
140.8567584192678
 31
0.0
  0
LINE
  5
6D7
330
13A2
100
AcDbEntity
  8
0
 62
     0
100
AcDbLine
 10
311.5994097022357
 20
102.7470852501551
 30
0.0
 11
311.4925247066107
 21
68.31814150152054
 31
0.0
  0
LINE
  5
6D8
330
13A2
100
AcDbEntity
  8
0
 62
     0
100
AcDbLine
 10
311.7253618247008
 20
143.317780079826
 30
0.0
 11
311.6782638728955
 21
128.1469628486745
 31
0.0
  0
LINE
  5
6D9
330
13A2
100
AcDbEntity
  8
0
 62
     0
100
AcDbLine
 10
314.7349673167208
 20
90.03728967956304
 30
0.0
 11
314.6675094064257
 21
68.30828473018804
 31
0.0
  0
LINE
  5
6DA
330
13A2
100
AcDbEntity
  8
0
 62
     0
100
AcDbLine
 10
314.9003465245158
 20
143.3079233084934
 30
0.0
 11
314.8138214873808
 21
115.4371672780824
 31
0.0
  0
LINE
  5
6DB
330
13A2
100
AcDbEntity
  8
0
 62
     0
100
AcDbLine
 10
317.8705249312057
 20
77.32749410897094
 30
0.0
 11
317.8424941062406
 21
68.2984279588555
 31
0.0
  0
LINE
  5
6DC
330
13A2
100
AcDbEntity
  8
0
 62
     0
100
AcDbLine
 10
318.0753312243307
 20
143.2980665371609
 30
0.0
 11
317.9493791018655
 21
102.7273717074904
 31
0.0
  0
LINE
  5
6DD
330
13A2
100
AcDbEntity
  8
0
 62
     0
100
AcDbLine
 10
321.2426450576702
 20
140.8173313339371
 30
0.0
 11
321.0849367163505
 21
90.01757613689827
 31
0.0
  0
LINE
  5
6DE
330
13A2
100
AcDbEntity
  8
0
 62
     0
100
AcDbLine
 10
324.3782026721553
 20
128.1075357633442
 30
0.0
 11
324.2204943308356
 21
77.30778056630537
 31
0.0
  0
LINE
  5
6DF
330
13A2
100
AcDbEntity
  8
0
 62
     0
100
AcDbLine
 10
327.5137602866403
 20
115.3977401927521
 30
0.0
 11
327.3674482056854
 21
68.26885764485805
 31
0.0
  0
LINE
  5
6E0
330
13A2
100
AcDbEntity
  8
0
 62
     0
100
AcDbLine
 10
327.6002853237755
 20
143.2684962231635
 30
0.0
 11
327.5926144573002
 21
140.7976177912715
 31
0.0
  0
LINE
  5
6E1
330
13A2
100
AcDbEntity
  8
0
 62
     0
100
AcDbLine
 10
330.6493179011253
 20
102.6879446221601
 30
0.0
 11
330.5424329055003
 21
68.25900087352557
 31
0.0
  0
LINE
  5
6E2
330
13A2
100
AcDbEntity
  8
0
 62
     0
100
AcDbLine
 10
330.7752700235904
 20
143.258639451831
 30
0.0
 11
330.728172071785
 21
128.0878222206795
 31
0.0
  0
LINE
  5
6E3
330
13A2
100
AcDbEntity
  8
0
 62
     0
100
AcDbLine
 10
333.7848755156104
 20
89.97814905156813
 30
0.0
 11
333.7174176053153
 21
68.24914410219314
 31
0.0
  0
LINE
  5
6E4
330
13A2
100
AcDbEntity
  8
0
 62
     0
100
AcDbLine
 10
333.9502547234054
 20
143.2487826804984
 30
0.0
 11
333.8637296862702
 21
115.3780266500875
 31
0.0
  0
LINE
  5
6E5
330
13A2
100
AcDbEntity
  8
0
 62
     0
100
AcDbLine
 10
336.9204331300953
 20
77.26835348097555
 30
0.0
 11
336.8924023051302
 21
68.23928733086059
 31
0.0
  0
LINE
  5
6E6
330
13A2
100
AcDbEntity
  8
0
 62
     0
100
AcDbLine
 10
337.1252394232203
 20
143.238925909166
 30
0.0
 11
336.9992873007551
 21
102.668231079495
 31
0.0
  0
LINE
  5
6E7
330
13A2
100
AcDbEntity
  8
0
 62
     0
100
AcDbLine
 10
340.2925532565599
 20
140.7581907059417
 30
0.0
 11
340.1348449152401
 21
89.95843550890283
 31
0.0
  0
LINE
  5
6E8
330
13A2
100
AcDbEntity
  8
0
 62
     0
100
AcDbLine
 10
343.4281108710451
 20
128.0483951353497
 30
0.0
 11
343.2704025297252
 21
77.24863993831085
 31
0.0
  0
LINE
  5
6E9
330
13A2
100
AcDbEntity
  8
0
 62
     0
100
AcDbLine
 10
346.5636684855299
 20
115.3385995647577
 30
0.0
 11
346.4173564045749
 21
68.20971701686321
 31
0.0
  0
LINE
  5
6EA
330
13A2
100
AcDbEntity
  8
0
 62
     0
100
AcDbLine
 10
346.6501935226651
 20
143.2093555951686
 30
0.0
 11
346.6425226561897
 21
140.738477163277
 31
0.0
  0
LINE
  5
6EB
330
13A2
100
AcDbEntity
  8
0
 62
     0
100
AcDbLine
 10
349.6992261000149
 20
102.6288039941652
 30
0.0
 11
349.5923411043899
 21
68.19986024553073
 31
0.0
  0
LINE
  5
6EC
330
13A2
100
AcDbEntity
  8
0
 62
     0
100
AcDbLine
 10
349.82517822248
 20
143.1994988238361
 30
0.0
 11
349.7780802706748
 21
128.0286815926847
 31
0.0
  0
LINE
  5
6ED
330
13A2
100
AcDbEntity
  8
0
 62
     0
100
AcDbLine
 10
352.8347837145
 20
89.91900842357276
 30
0.0
 11
352.7673258042049
 21
68.19000347419822
 31
0.0
  0
LINE
  5
6EE
330
13A2
100
AcDbEntity
  8
0
 62
     0
100
AcDbLine
 10
353.0001629222951
 20
143.1896420525036
 30
0.0
 11
352.9136378851599
 21
115.3188860220922
 31
0.0
  0
LINE
  5
6EF
330
13A2
100
AcDbEntity
  8
0
 62
     0
100
AcDbLine
 10
355.9703413289849
 20
77.2092128529807
 30
0.0
 11
355.9423105040198
 21
68.18014670286567
 31
0.0
  0
LINE
  5
6F0
330
13A2
100
AcDbEntity
  8
0
 62
     0
100
AcDbLine
 10
356.1751476221099
 20
143.1797852811711
 30
0.0
 11
356.0491954996448
 21
102.6090904515
 31
0.0
  0
LINE
  5
6F1
330
13A2
100
AcDbEntity
  8
0
 62
     0
100
AcDbLine
 10
359.3424614554495
 20
140.6990500779472
 30
0.0
 11
359.1847531141298
 21
89.89929488090842
 31
0.0
  0
LINE
  5
6F2
330
13A2
100
AcDbEntity
  8
0
 62
     0
100
AcDbLine
 10
362.4780190699345
 20
127.9892545073548
 30
0.0
 11
362.3203107286149
 21
77.18949931031595
 31
0.0
  0
LINE
  5
6F3
330
13A2
100
AcDbEntity
  8
0
 62
     0
100
AcDbLine
 10
365.6135766844196
 20
115.2794589367628
 30
0.0
 11
365.4672646034648
 21
68.15057638886829
 31
0.0
  0
LINE
  5
6F4
330
13A2
100
AcDbEntity
  8
0
 62
     0
100
AcDbLine
 10
365.7001017215546
 20
143.1502149671737
 30
0.0
 11
365.6924308550793
 21
140.6793365352822
 31
0.0
  0
LINE
  5
6F5
330
13A2
100
AcDbEntity
  8
0
 62
     0
100
AcDbLine
 10
368.7491342989047
 20
102.5696633661708
 30
0.0
 11
368.6422493032795
 21
68.14071961753583
 31
0.0
  0
LINE
  5
6F6
330
13A2
100
AcDbEntity
  8
0
 62
     0
100
AcDbLine
 10
368.8750864213696
 20
143.1403581958411
 30
0.0
 11
368.8279884695644
 21
127.9695409646902
 31
0.0
  0
LINE
  5
6F7
330
13A2
100
AcDbEntity
  8
0
 62
     0
100
AcDbLine
 10
371.8846919133897
 20
89.85986779557881
 30
0.0
 11
371.8172340030946
 21
68.13086284620337
 31
0.0
  0
LINE
  5
6F8
330
13A2
100
AcDbEntity
  8
0
 62
     0
100
AcDbLine
 10
372.0500711211848
 20
143.1305014245088
 30
0.0
 11
371.9635460840495
 21
115.2597453940982
 31
0.0
  0
LINE
  5
6F9
330
13A2
100
AcDbEntity
  8
0
 62
     0
100
AcDbLine
 10
375.0202495278745
 20
77.15007222498629
 30
0.0
 11
374.9922187029095
 21
68.12100607487082
 31
0.0
  0
LINE
  5
6FA
330
13A2
100
AcDbEntity
  8
0
 62
     0
100
AcDbLine
 10
375.2250558209996
 20
143.1206446531762
 30
0.0
 11
375.0991036985344
 21
102.5499498235057
 31
0.0
  0
LINE
  5
6FB
330
13A2
100
AcDbEntity
  8
0
 62
     0
100
AcDbLine
 10
314.6758266887254
 20
70.98738148067456
 30
0.0
 11
365.4755818857641
 21
70.82967313935481
 31
0.0
  0
LINE
  5
6FC
330
13A2
100
AcDbEntity
  8
0
 62
     0
100
AcDbLine
 10
238.476193893167
 20
71.22394399265416
 30
0.0
 11
289.275949090206
 21
71.06623565133443
 31
0.0
  0
LINE
  5
6FD
330
13A2
100
AcDbEntity
  8
0
 62
     0
100
AcDbLine
 10
162.2765610976087
 20
71.46050650463377
 30
0.0
 11
213.0763162946476
 21
71.30279816331402
 31
0.0
  0
LINE
  5
6FE
330
13A2
100
AcDbEntity
  8
0
 62
     0
100
AcDbLine
 10
86.07692830205037
 20
71.69706901661334
 30
0.0
 11
136.8766834990892
 21
71.53936067529362
 31
0.0
  0
LINE
  5
6FF
330
13A2
100
AcDbEntity
  8
0
 62
     0
100
AcDbLine
 10
301.9857446607979
 20
74.20179326581943
 30
0.0
 11
352.7854998578368
 21
74.0440849244997
 31
0.0
  0
LINE
  5
700
330
13A2
100
AcDbEntity
  8
0
 62
     0
100
AcDbLine
 10
225.7861118652396
 20
74.43835577779904
 30
0.0
 11
276.5858670622785
 21
74.28064743647931
 31
0.0
  0
LINE
  5
701
330
13A2
100
AcDbEntity
  8
0
 62
     0
100
AcDbLine
 10
149.5864790696812
 20
74.67491828977864
 30
0.0
 11
200.3862342667201
 21
74.51720994845891
 31
0.0
  0
LINE
  5
702
330
13A2
100
AcDbEntity
  8
0
 62
     0
100
AcDbLine
 10
77.81700470976909
 20
74.89772733117634
 30
0.0
 11
124.1866014711617
 21
74.75377246043851
 31
0.0
  0
LINE
  5
703
330
13A2
100
AcDbEntity
  8
0
 62
     0
100
AcDbLine
 10
365.4952954284288
 20
77.17964253898469
 30
0.0
 11
377.8254157943234
 21
77.14136355863063
 31
0.0
  0
LINE
  5
704
330
13A2
100
AcDbEntity
  8
0
 62
     0
100
AcDbLine
 10
289.2956626328705
 20
77.41620505096427
 30
0.0
 11
340.0954178299094
 21
77.25849670964454
 31
0.0
  0
LINE
  5
705
330
13A2
100
AcDbEntity
  8
0
 62
     0
100
AcDbLine
 10
213.0960298373123
 20
77.65276756294389
 30
0.0
 11
263.8957850343511
 21
77.49505922162413
 31
0.0
  0
LINE
  5
706
330
13A2
100
AcDbEntity
  8
0
 62
     0
100
AcDbLine
 10
136.8963970417539
 20
77.88933007492349
 30
0.0
 11
187.6961522387928
 21
77.73162173360373
 31
0.0
  0
LINE
  5
707
330
13A2
100
AcDbEntity
  8
0
 62
     0
100
AcDbLine
 10
77.82686148110156
 20
78.07271203099126
 30
0.0
 11
111.4965194432344
 21
77.96818424558335
 31
0.0
  0
LINE
  5
708
330
13A2
100
AcDbEntity
  8
0
 62
     0
100
AcDbLine
 10
352.8052134005018
 20
80.3940543241295
 30
0.0
 11
377.835272565656
 21
80.31634825844554
 31
0.0
  0
LINE
  5
709
330
13A2
100
AcDbEntity
  8
0
 62
     0
100
AcDbLine
 10
276.6055806049435
 20
80.63061683610909
 30
0.0
 11
327.4053358019823
 21
80.47290849478939
 31
0.0
  0
LINE
  5
70A
330
13A2
100
AcDbEntity
  8
0
 62
     0
100
AcDbLine
 10
200.4059478093852
 20
80.86717934808872
 30
0.0
 11
251.205703006424
 21
80.70947100676898
 31
0.0
  0
LINE
  5
70B
330
13A2
100
AcDbEntity
  8
0
 62
     0
100
AcDbLine
 10
124.2063150138269
 20
81.10374186006829
 30
0.0
 11
175.0060702108656
 21
80.94603351874857
 31
0.0
  0
LINE
  5
70C
330
13A2
100
AcDbEntity
  8
0
 62
     0
100
AcDbLine
 10
77.83671825243408
 20
81.24769673080614
 30
0.0
 11
98.80643741530745
 21
81.1825960307282
 31
0.0
  0
LINE
  5
70D
330
13A2
100
AcDbEntity
  8
0
 62
     0
100
AcDbLine
 10
340.1151313725745
 20
83.6084661092744
 30
0.0
 11
377.8451293369885
 21
83.49133295826048
 31
0.0
  0
LINE
  5
70E
330
13A2
100
AcDbEntity
  8
0
 62
     0
100
AcDbLine
 10
263.9154985770161
 20
83.84502862125399
 30
0.0
 11
314.7152537740552
 21
83.68732027993427
 31
0.0
  0
LINE
  5
70F
330
13A2
100
AcDbEntity
  8
0
 62
     0
100
AcDbLine
 10
187.7158657814579
 20
84.0815911332336
 30
0.0
 11
238.5156209784968
 21
83.92388279191386
 31
0.0
  0
LINE
  5
710
330
13A2
100
AcDbEntity
  8
0
 62
     0
100
AcDbLine
 10
111.5162329858996
 20
84.3181536452132
 30
0.0
 11
162.3159881829384
 21
84.16044530389347
 31
0.0
  0
LINE
  5
711
330
13A2
100
AcDbEntity
  8
0
 62
     0
100
AcDbLine
 10
77.84657502376655
 20
84.4226814306211
 30
0.0
 11
86.11635538738012
 21
84.39700781587307
 31
0.0
  0
LINE
  5
712
330
13A2
100
AcDbEntity
  8
0
 62
     0
100
AcDbLine
 10
327.4250493446475
 20
86.82287789441923
 30
0.0
 11
377.854986108321
 21
86.66631765807542
 31
0.0
  0
LINE
  5
713
330
13A2
100
AcDbEntity
  8
0
 62
     0
100
AcDbLine
 10
251.2254165490892
 20
87.05944040639883
 30
0.0
 11
302.025171746128
 21
86.9017320650791
 31
0.0
  0
LINE
  5
714
330
13A2
100
AcDbEntity
  8
0
 62
     0
100
AcDbLine
 10
175.0257837535308
 20
87.29600291837844
 30
0.0
 11
225.8255389505697
 21
87.1382945770587
 31
0.0
  0
LINE
  5
715
330
13A2
100
AcDbEntity
  8
0
 62
     0
100
AcDbLine
 10
98.8261509579725
 20
87.53256543035803
 30
0.0
 11
149.6259061550114
 21
87.37485708903831
 31
0.0
  0
LINE
  5
716
330
13A2
100
AcDbEntity
  8
0
 62
     0
100
AcDbLine
 10
314.7349673167199
 20
90.03728967956414
 30
0.0
 11
365.5347225137588
 21
89.8795813382444
 31
0.0
  0
LINE
  5
717
330
13A2
100
AcDbEntity
  8
0
 62
     0
100
AcDbLine
 10
238.5353345211616
 20
90.27385219154371
 30
0.0
 11
289.3350897182005
 21
90.11614385022401
 31
0.0
  0
LINE
  5
718
330
13A2
100
AcDbEntity
  8
0
 62
     0
100
AcDbLine
 10
162.3357017256031
 20
90.51041470352327
 30
0.0
 11
213.1354569226421
 21
90.35270636220356
 31
0.0
  0
LINE
  5
719
330
13A2
100
AcDbEntity
  8
0
 62
     0
100
AcDbLine
 10
86.1360689300449
 20
90.74697721550291
 30
0.0
 11
136.9358241270838
 21
90.58926887418319
 31
0.0
  0
LINE
  5
71A
330
13A2
100
AcDbEntity
  8
0
 62
     0
100
AcDbLine
 10
302.0448852887929
 20
93.25170146470894
 30
0.0
 11
352.8446404858319
 21
93.09399312338923
 31
0.0
  0
LINE
  5
71B
330
13A2
100
AcDbEntity
  8
0
 62
     0
100
AcDbLine
 10
225.8452524932346
 20
93.48826397668856
 30
0.0
 11
276.6450076902735
 21
93.33055563536881
 31
0.0
  0
LINE
  5
71C
330
13A2
100
AcDbEntity
  8
0
 62
     0
100
AcDbLine
 10
149.6456196976762
 20
93.72482648866816
 30
0.0
 11
200.4453748947151
 21
93.56711814734842
 31
0.0
  0
LINE
  5
71D
330
13A2
100
AcDbEntity
  8
0
 62
     0
100
AcDbLine
 10
77.876145337764
 20
93.94763553006589
 30
0.0
 11
124.2457420991568
 21
93.80368065932804
 31
0.0
  0
LINE
  5
71E
330
13A2
100
AcDbEntity
  8
0
 62
     0
100
AcDbLine
 10
365.5544360564233
 20
96.22955073787426
 30
0.0
 11
377.8845564223183
 21
96.19127175752019
 31
0.0
  0
LINE
  5
71F
330
13A2
100
AcDbEntity
  8
0
 62
     0
100
AcDbLine
 10
289.3548032608651
 20
96.46611324985386
 30
0.0
 11
340.1545584579039
 21
96.30840490853413
 31
0.0
  0
LINE
  5
720
330
13A2
100
AcDbEntity
  8
0
 62
     0
100
AcDbLine
 10
213.1551704653068
 20
96.70267576183343
 30
0.0
 11
263.9549256623457
 21
96.54496742051373
 31
0.0
  0
LINE
  5
721
330
13A2
100
AcDbEntity
  8
0
 62
     0
100
AcDbLine
 10
136.9555376697485
 20
96.93923827381304
 30
0.0
 11
187.7552928667873
 21
96.7815299324933
 31
0.0
  0
LINE
  5
722
330
13A2
100
AcDbEntity
  8
0
 62
     0
100
AcDbLine
 10
77.88600210909645
 20
97.12262022988079
 30
0.0
 11
111.555660071229
 21
97.01809244447293
 31
0.0
  0
LINE
  5
723
330
13A2
100
AcDbEntity
  8
0
 62
     0
100
AcDbLine
 10
352.8643540284964
 20
99.44396252301908
 30
0.0
 11
377.8944131936508
 21
99.36625645733506
 31
0.0
  0
LINE
  5
724
330
13A2
100
AcDbEntity
  8
0
 62
     0
100
AcDbLine
 10
276.6647212329381
 20
99.68052503499869
 30
0.0
 11
327.4644764299769
 21
99.52281669367891
 31
0.0
  0
LINE
  5
725
330
13A2
100
AcDbEntity
  8
0
 62
     0
100
AcDbLine
 10
200.4650884373798
 20
99.91708754697828
 30
0.0
 11
251.2648436344186
 21
99.75937920565854
 31
0.0
  0
LINE
  5
726
330
13A2
100
AcDbEntity
  8
0
 62
     0
100
AcDbLine
 10
124.2654556418214
 20
100.1536500589579
 30
0.0
 11
175.0652108388603
 21
99.99594171763815
 31
0.0
  0
LINE
  5
727
330
13A2
100
AcDbEntity
  8
0
 62
     0
100
AcDbLine
 10
77.89585888042886
 20
100.2976049296957
 30
0.0
 11
98.86557804330202
 21
100.2325042296177
 31
0.0
  0
LINE
  5
728
330
13A2
100
AcDbEntity
  8
0
 62
     0
100
AcDbLine
 10
340.1742720005691
 20
102.6583743081639
 30
0.0
 11
377.9042699649832
 21
102.54124115715
 31
0.0
  0
LINE
  5
729
330
13A2
100
AcDbEntity
  8
0
 62
     0
100
AcDbLine
 10
263.9746392050108
 20
102.8949368201435
 30
0.0
 11
314.7743944020497
 21
102.7372284788238
 31
0.0
  0
LINE
  5
72A
330
13A2
100
AcDbEntity
  8
0
 62
     0
100
AcDbLine
 10
187.7750064094525
 20
103.1314993321231
 30
0.0
 11
238.5747616064914
 21
102.9737909908033
 31
0.0
  0
LINE
  5
72B
330
13A2
100
AcDbEntity
  8
0
 62
     0
100
AcDbLine
 10
111.5753736138941
 20
103.3680618441027
 30
0.0
 11
162.375128810933
 21
103.210353502783
 31
0.0
  0
LINE
  5
72C
330
13A2
100
AcDbEntity
  8
0
 62
     0
100
AcDbLine
 10
77.90571565176145
 20
103.4725896295106
 30
0.0
 11
86.17549601537472
 21
103.4469160147626
 31
0.0
  0
LINE
  5
72D
330
13A2
100
AcDbEntity
  8
0
 62
     0
100
AcDbLine
 10
327.4841899726419
 20
105.8727860933088
 30
0.0
 11
377.9141267363157
 21
105.7162258569649
 31
0.0
  0
LINE
  5
72E
330
13A2
100
AcDbEntity
  8
0
 62
     0
100
AcDbLine
 10
251.2845571770836
 20
106.1093486052884
 30
0.0
 11
302.0843123741225
 21
105.9516402639687
 31
0.0
  0
LINE
  5
72F
330
13A2
100
AcDbEntity
  8
0
 62
     0
100
AcDbLine
 10
175.0849243815253
 20
106.345911117268
 30
0.0
 11
225.8846795785642
 21
106.1882027759482
 31
0.0
  0
LINE
  5
730
330
13A2
100
AcDbEntity
  8
0
 62
     0
100
AcDbLine
 10
98.88529158596696
 20
106.5824736292476
 30
0.0
 11
149.6850467830058
 21
106.4247652879279
 31
0.0
  0
LINE
  5
731
330
13A2
100
AcDbEntity
  8
0
 62
     0
100
AcDbLine
 10
314.7941079447147
 20
109.0871978784536
 30
0.0
 11
365.5938631417535
 21
108.9294895371339
 31
0.0
  0
LINE
  5
732
330
13A2
100
AcDbEntity
  8
0
 62
     0
100
AcDbLine
 10
238.5944751491564
 20
109.3237603904332
 30
0.0
 11
289.3942303461953
 21
109.1660520491135
 31
0.0
  0
LINE
  5
733
330
13A2
100
AcDbEntity
  8
0
 62
     0
100
AcDbLine
 10
162.394842353598
 20
109.5603229024128
 30
0.0
 11
213.1945975506369
 21
109.4026145610931
 31
0.0
  0
LINE
  5
734
330
13A2
100
AcDbEntity
  8
0
 62
     0
100
AcDbLine
 10
86.1952095580397
 20
109.7968854143924
 30
0.0
 11
136.9949647550786
 21
109.6391770730727
 31
0.0
  0
LINE
  5
735
330
13A2
100
AcDbEntity
  8
0
 62
     0
100
AcDbLine
 10
302.1040259167875
 20
112.3016096635985
 30
0.0
 11
352.9037811138263
 21
112.1439013222788
 31
0.0
  0
LINE
  5
736
330
13A2
100
AcDbEntity
  8
0
 62
     0
100
AcDbLine
 10
225.9043931212291
 20
112.5381721755781
 30
0.0
 11
276.704148318268
 21
112.3804638342584
 31
0.0
  0
LINE
  5
737
330
13A2
100
AcDbEntity
  8
0
 62
     0
100
AcDbLine
 10
149.7047603256708
 20
112.7747346875577
 30
0.0
 11
200.5045155227097
 21
112.617026346238
 31
0.0
  0
LINE
  5
738
330
13A2
100
AcDbEntity
  8
0
 62
     0
100
AcDbLine
 10
77.93528596575891
 20
112.9975437289554
 30
0.0
 11
124.3048827271513
 21
112.8535888582176
 31
0.0
  0
LINE
  5
739
330
13A2
100
AcDbEntity
  8
0
 62
     0
100
AcDbLine
 10
365.6135766844185
 20
115.2794589367637
 30
0.0
 11
377.9436970503129
 21
115.2411799564097
 31
0.0
  0
LINE
  5
73A
330
13A2
100
AcDbEntity
  8
0
 62
     0
100
AcDbLine
 10
289.4139438888601
 20
115.5160214487433
 30
0.0
 11
340.2136990858991
 21
115.3583131074236
 31
0.0
  0
LINE
  5
73B
330
13A2
100
AcDbEntity
  8
0
 62
     0
100
AcDbLine
 10
213.2143110933019
 20
115.7525839607229
 30
0.0
 11
264.0140662903408
 21
115.5948756194032
 31
0.0
  0
LINE
  5
73C
330
13A2
100
AcDbEntity
  8
0
 62
     0
100
AcDbLine
 10
137.0146782977436
 20
115.9891464727025
 30
0.0
 11
187.8144334947825
 21
115.8314381313828
 31
0.0
  0
LINE
  5
73D
330
13A2
100
AcDbEntity
  8
0
 62
     0
100
AcDbLine
 10
77.94514273709137
 20
116.1725284287703
 30
0.0
 11
111.6148006992241
 21
116.0680006433624
 31
0.0
  0
LINE
  5
73E
330
13A2
100
AcDbEntity
  8
0
 62
     0
100
AcDbLine
 10
352.9234946564912
 20
118.4938707219086
 30
0.0
 11
377.9535538216456
 21
118.4161646562246
 31
0.0
  0
LINE
  5
73F
330
13A2
100
AcDbEntity
  8
0
 62
     0
100
AcDbLine
 10
276.723861860933
 20
118.7304332338882
 30
0.0
 11
327.5236170579718
 21
118.5727248925685
 31
0.0
  0
LINE
  5
740
330
13A2
100
AcDbEntity
  8
0
 62
     0
100
AcDbLine
 10
200.5242290653746
 20
118.9669957458678
 30
0.0
 11
251.3239842624135
 21
118.8092874045481
 31
0.0
  0
LINE
  5
741
330
13A2
100
AcDbEntity
  8
0
 62
     0
100
AcDbLine
 10
124.3245962698163
 20
119.2035582578474
 30
0.0
 11
175.1243514668552
 21
119.0458499165277
 31
0.0
  0
LINE
  5
742
330
13A2
100
AcDbEntity
  8
0
 62
     0
100
AcDbLine
 10
77.95499950842378
 20
119.3475131285853
 30
0.0
 11
98.92471867129692
 21
119.2824124285072
 31
0.0
  0
LINE
  5
743
330
13A2
100
AcDbEntity
  8
0
 62
     0
100
AcDbLine
 10
340.233412628564
 20
121.7082825070535
 30
0.0
 11
377.9634105929781
 21
121.5911493560394
 31
0.0
  0
LINE
  5
744
330
13A2
100
AcDbEntity
  8
0
 62
     0
100
AcDbLine
 10
264.0337798330057
 20
121.9448450190331
 30
0.0
 11
314.8335350300446
 21
121.7871366777133
 31
0.0
  0
LINE
  5
745
330
13A2
100
AcDbEntity
  8
0
 62
     0
100
AcDbLine
 10
187.8341470374472
 20
122.1814075310126
 30
0.0
 11
238.6339022344863
 21
122.0236991896929
 31
0.0
  0
LINE
  5
746
330
13A2
100
AcDbEntity
  8
0
 62
     0
100
AcDbLine
 10
111.634514241889
 20
122.4179700429923
 30
0.0
 11
162.4342694389279
 21
122.2602617016725
 31
0.0
  0
LINE
  5
747
330
13A2
100
AcDbEntity
  8
0
 62
     0
100
AcDbLine
 10
77.96485627975634
 20
122.5224978284002
 30
0.0
 11
86.23463664336961
 21
122.4968242136521
 31
0.0
  0
LINE
  5
748
330
13A2
100
AcDbEntity
  8
0
 62
     0
100
AcDbLine
 10
327.5433306006369
 20
124.9226942921983
 30
0.0
 11
377.9732673643105
 21
124.7661340558544
 31
0.0
  0
LINE
  5
749
330
13A2
100
AcDbEntity
  8
0
 62
     0
100
AcDbLine
 10
251.3436978050785
 20
125.1592568041779
 30
0.0
 11
302.1434530021175
 21
125.0015484628582
 31
0.0
  0
LINE
  5
74A
330
13A2
100
AcDbEntity
  8
0
 62
     0
100
AcDbLine
 10
175.1440650095202
 20
125.3958193161575
 30
0.0
 11
225.9438202065592
 21
125.2381109748378
 31
0.0
  0
LINE
  5
74B
330
13A2
100
AcDbEntity
  8
0
 62
     0
100
AcDbLine
 10
98.94443221396194
 20
125.6323818281371
 30
0.0
 11
149.7441874110008
 21
125.4746734868174
 31
0.0
  0
LINE
  5
74C
330
13A2
100
AcDbEntity
  8
0
 62
     0
100
AcDbLine
 10
314.8532485727095
 20
128.1371060773432
 30
0.0
 11
365.6530037697483
 21
127.9793977360234
 31
0.0
  0
LINE
  5
74D
330
13A2
100
AcDbEntity
  8
0
 62
     0
100
AcDbLine
 10
238.6536157771512
 20
128.3736685893228
 30
0.0
 11
289.4533709741901
 21
128.215960248003
 31
0.0
  0
LINE
  5
74E
330
13A2
100
AcDbEntity
  8
0
 62
     0
100
AcDbLine
 10
162.4539829815929
 20
128.6102311013024
 30
0.0
 11
213.2537381786318
 21
128.4525227599826
 31
0.0
  0
LINE
  5
74F
330
13A2
100
AcDbEntity
  8
0
 62
     0
100
AcDbLine
 10
86.25435018603459
 20
128.846793613282
 30
0.0
 11
137.0541053830734
 21
128.6890852719622
 31
0.0
  0
LINE
  5
750
330
13A2
100
AcDbEntity
  8
0
 62
     0
100
AcDbLine
 10
302.1631665447825
 20
131.351517862488
 30
0.0
 11
352.9629217418214
 21
131.1938095211683
 31
0.0
  0
LINE
  5
751
330
13A2
100
AcDbEntity
  8
0
 62
     0
100
AcDbLine
 10
225.9635337492241
 20
131.5880803744676
 30
0.0
 11
276.763288946263
 21
131.4303720331479
 31
0.0
  0
LINE
  5
752
330
13A2
100
AcDbEntity
  8
0
 62
     0
100
AcDbLine
 10
149.7639009536658
 20
131.8246428864472
 30
0.0
 11
200.5636561507047
 21
131.6669345451275
 31
0.0
  0
LINE
  5
753
330
13A2
100
AcDbEntity
  8
0
 62
     0
100
AcDbLine
 10
77.99442659375381
 20
132.0474519278448
 30
0.0
 11
124.3640233551464
 21
131.903497057107
 31
0.0
  0
LINE
  5
754
330
13A2
100
AcDbEntity
  8
0
 62
     0
100
AcDbLine
 10
365.6727173124132
 20
134.3293671356533
 30
0.0
 11
378.002837678308
 21
134.2910881552992
 31
0.0
  0
LINE
  5
755
330
13A2
100
AcDbEntity
  8
0
 62
     0
100
AcDbLine
 10
289.473084516855
 20
134.5659296476329
 30
0.0
 11
340.2728397138939
 21
134.4082213063132
 31
0.0
  0
LINE
  5
756
330
13A2
100
AcDbEntity
  8
0
 62
     0
100
AcDbLine
 10
213.2734517212967
 20
134.8024921596125
 30
0.0
 11
264.0732069183356
 21
134.6447838182928
 31
0.0
  0
LINE
  5
757
330
13A2
100
AcDbEntity
  8
0
 62
     0
100
AcDbLine
 10
137.0738189257384
 20
135.0390546715921
 30
0.0
 11
187.8735741227773
 21
134.8813463302724
 31
0.0
  0
LINE
  5
758
330
13A2
100
AcDbEntity
  8
0
 62
     0
100
AcDbLine
 10
78.00428336508628
 20
135.2224366276599
 30
0.0
 11
111.6739413272189
 21
135.117908842252
 31
0.0
  0
LINE
  5
759
330
13A2
100
AcDbEntity
  8
0
 62
     0
100
AcDbLine
 10
352.9826352844862
 20
137.5437789207981
 30
0.0
 11
378.0126944496406
 21
137.4660728551142
 31
0.0
  0
LINE
  5
75A
330
13A2
100
AcDbEntity
  8
0
 62
     0
100
AcDbLine
 10
276.7830024889278
 20
137.7803414327777
 30
0.0
 11
327.5827576859668
 21
137.622633091458
 31
0.0
  0
LINE
  5
75B
330
13A2
100
AcDbEntity
  8
0
 62
     0
100
AcDbLine
 10
200.5833696933695
 20
138.0169039447573
 30
0.0
 11
251.3831248904084
 21
137.8591956034376
 31
0.0
  0
LINE
  5
75C
330
13A2
100
AcDbEntity
  8
0
 62
     0
100
AcDbLine
 10
124.3837368978112
 20
138.2534664567369
 30
0.0
 11
175.18349209485
 21
138.0957581154172
 31
0.0
  0
LINE
  5
75D
330
13A2
100
AcDbEntity
  8
0
 62
     0
100
AcDbLine
 10
78.01414013641873
 20
138.3974213274748
 30
0.0
 11
98.98385929929176
 21
138.3323206273968
 31
0.0
  0
LINE
  5
75E
330
13A2
100
AcDbEntity
  8
0
 62
     0
100
AcDbLine
 10
340.2925532565591
 20
140.7581907059428
 30
0.0
 11
378.0225512209731
 21
140.6410575549291
 31
0.0
  0
LINE
  5
75F
330
13A2
100
AcDbEntity
  8
0
 62
     0
100
AcDbLine
 10
264.0929204610008
 20
140.9947532179226
 30
0.0
 11
314.8926756580397
 21
140.8370448766029
 31
0.0
  0
LINE
  5
760
330
13A2
100
AcDbEntity
  8
0
 62
     0
100
AcDbLine
 10
187.8932876654424
 20
141.2313157299021
 30
0.0
 11
238.6930428624812
 21
141.0736073885825
 31
0.0
  0
LINE
  5
761
330
13A2
100
AcDbEntity
  8
0
 62
     0
100
AcDbLine
 10
111.6936548698841
 20
141.4678782418818
 30
0.0
 11
162.493410066923
 21
141.3101699005621
 31
0.0
  0
LINE
  5
762
330
13A2
100
AcDbEntity
  8
0
 62
     0
100
AcDbLine
 10
78.02399690775121
 20
141.5724060272897
 30
0.0
 11
86.29377727136469
 21
141.5467324125417
 31
0.0
  0
ENDBLK
  5
764
330
13A2
100
AcDbEntity
  8
0
100
AcDbBlockEnd
  0
BLOCK
  5
13A5
330
13A4
100
AcDbEntity
  8
0
100
AcDbBlockBegin
  2
*U47
 70
     1
 10
0.0
 20
0.0
 30
0.0
  3
*U47
  1

  0
SOLID
  5
766
330
13A4
100
AcDbEntity
  8
MATM
100
AcDbTrace
 10
77.42291640662398
 20
257.5013400124356
 30
0.0
 11
68.91412673631567
 21
254.2073305488102
 31
0.0
 12
75.89465443624229
 22
260.0828929074749
 32
0.0
 13
75.89465443624229
 23
260.0828929074749
 33
0.0
  0
LWPOLYLINE
  5
767
330
13A4
100
AcDbEntity
  8
MATM
100
AcDbPolyline
 90
        2
 70
     0
 43
0.0
 10
76.65878542143315
 20
258.7921164599553
 10
416.4874943600762
 20
459.9684291021786
  0
ENDBLK
  5
76C
330
13A4
100
AcDbEntity
  8
0
100
AcDbBlockEnd
  0
BLOCK
  5
13A7
330
13A6
100
AcDbEntity
  8
0
100
AcDbBlockBegin
  2
*U48
 70
     1
 10
0.0
 20
0.0
 30
0.0
  3
*U48
  1

  0
SOLID
  5
76E
330
13A6
100
AcDbEntity
  8
MATM
100
AcDbTrace
 10
78.03810219675253
 20
404.1519067511622
 30
0.0
 11
68.91412673631567
 21
404.2073305488099
 31
0.0
 12
77.56288961974991
 22
407.1140298084737
 32
0.0
 13
77.56288961974991
 23
407.1140298084737
 33
0.0
  0
LWPOLYLINE
  5
76F
330
13A6
100
AcDbEntity
  8
MATM
100
AcDbPolyline
 90
        2
 70
     0
 43
0.0
 10
77.80049590825122
 20
405.6329682798181
 10
416.4874943600762
 20
459.9684291021786
  0
ENDBLK
  5
774
330
13A6
100
AcDbEntity
  8
0
100
AcDbBlockEnd
  0
BLOCK
  5
13A9
330
13A8
100
AcDbEntity
  8
0
100
AcDbBlockBegin
  2
*U49
 70
     1
 10
0.0
 20
0.0
 30
0.0
  3
*U49
  1

  0
SOLID
  5
776
330
13A8
100
AcDbEntity
  8
MATM
100
AcDbTrace
 10
113.7593439762897
 20
429.0248216279122
 30
0.0
 11
107.6953671140018
 21
422.2073305488102
 31
0.0
 12
111.2204832553761
 22
430.6230037951892
 32
0.0
 13
111.2204832553761
 23
430.6230037951892
 33
0.0
  0
LWPOLYLINE
  5
777
330
13A8
100
AcDbEntity
  8
MATM
100
AcDbPolyline
 90
        3
 70
     0
 43
0.0
 10
112.4899136158329
 20
429.8239127115508
 10
132.4609725625942
 20
461.5497936237193
 10
159.5483521654005
 20
461.5497936237193
  0
ENDBLK
  5
77D
330
13A8
100
AcDbEntity
  8
0
100
AcDbBlockEnd
  0
BLOCK
  5
13AB
330
13AA
100
AcDbEntity
  8
0
100
AcDbBlockBegin
  2
*U50
 70
     1
 10
0.0
 20
0.0
 30
0.0
  3
*U50
  1

  0
SOLID
  5
77F
330
13AA
100
AcDbEntity
  8
MATM
100
AcDbTrace
 10
86.54774734378994
 20
51.78434183448738
 30
0.0
 11
92.91412673631564
 21
58.32033551796229
 31
0.0
 12
89.01165769478321
 22
50.07286709547767
 32
0.0
 13
89.01165769478321
 23
50.07286709547767
 33
0.0
  0
LWPOLYLINE
  5
780
330
13AA
100
AcDbEntity
  8
MATM
100
AcDbPolyline
 90
        3
 70
     0
 43
0.0
 10
87.77970251928655
 20
50.92860446498253
 10
52.40381263853578
 20
-0.0000007116350389
 10
43.43347755275772
 20
-0.0000007116350389
  0
ENDBLK
  5
786
330
13AA
100
AcDbEntity
  8
0
100
AcDbBlockEnd
  0
BLOCK
  5
13AD
330
13AC
100
AcDbEntity
  8
0
100
AcDbBlockBegin
  2
*U51
 70
     1
 10
0.0
 20
0.0
 30
0.0
  3
*U51
  1

  0
TEXT
  5
788
330
13AC
100
AcDbEntity
  8
MATM
100
AcDbText
 10
24.1285027870764
 20
-1.270728901973899
 30
0.0
 40
5.0
  1
11,12
100
AcDbText
  0
ENDBLK
  5
78A
330
13AC
100
AcDbEntity
  8
0
100
AcDbBlockEnd
  0
BLOCK
  5
13AF
330
13AE
100
AcDbEntity
  8
0
100
AcDbBlockBegin
  2
*U52
 70
     1
 10
0.0
 20
0.0
 30
0.0
  3
*U52
  1

  0
SOLID
  5
78C
330
13AE
100
AcDbEntity
  8
MATM
100
AcDbTrace
 10
60.91229071337242
 20
132.6164890831541
 30
0.0
 11
64.91597710431438
 21
124.4176784814274
 31
0.0
 12
58.46963248529576
 22
130.8748172481607
 32
0.0
 13
58.46963248529576
 23
130.8748172481607
 33
0.0
  0
LWPOLYLINE
  5
78D
330
13AE
100
AcDbEntity
  8
MATM
100
AcDbPolyline
 90
        3
 70
     0
 43
0.0
 10
59.6909615993341
 20
131.7456531656574
 10
22.06915333251072
 20
184.5094503814661
 10
15.26591664596435
 20
184.5094503814661
  0
ENDBLK
  5
793
330
13AE
100
AcDbEntity
  8
0
100
AcDbBlockEnd
  0
BLOCK
  5
13B1
330
13B0
100
AcDbEntity
  8
0
100
AcDbBlockBegin
  2
*U53
 70
     1
 10
0.0
 20
0.0
 30
0.0
  3
*U53
  1

  0
TEXT
  5
795
330
13B0
100
AcDbEntity
  8
MATM
100
AcDbText
 10
5.146233877399103
 20
182.0959680454892
 30
0.0
 40
5.0
  1
10
100
AcDbText
  0
ENDBLK
  5
797
330
13B0
100
AcDbEntity
  8
0
100
AcDbBlockEnd
  0
BLOCK
  5
13B3
330
13B2
100
AcDbEntity
  8
0
100
AcDbBlockBegin
  2
*U54
 70
     1
 10
0.0
 20
0.0
 30
0.0
  3
*U54
  1

  0
SOLID
  5
799
330
13B2
100
AcDbEntity
  8
MATM
  6
Continuous
100
AcDbTrace
 10
11.73096194283766
 20
116.053820699834
 30
0.0
 11
11.73091857844251
 21
116.0410961953935
 31
0.0
 12
15.46473968145972
 22
116.0410961953935
 32
0.0
 13
15.46473968145972
 23
116.0410961953935
 33
0.0
  0
SOLID
  5
79A
330
13B2
100
AcDbEntity
  8
MATM
  6
Continuous
100
AcDbTrace
 10
-11.73091857844251
 20
116.0410961953935
 30
0.0
 11
-15.46473968145972
 21
116.0410961953935
 31
0.0
 12
-11.69615167165597
 22
105.8393706031227
 32
0.0
 13
-11.69615167165597
 23
105.8393706031227
 33
0.0
210
0.0
220
0.0
230
-1.0
  0
LINE
  5
79B
330
13B2
100
AcDbEntity
  8
MATM
  6
Continuous
100
AcDbLine
 10
11.73096194283766
 20
116.053820699834
 30
0.0
 11
11.73091857844251
 21
116.0410961953935
 31
0.0
  0
LINE
  5
79C
330
13B2
100
AcDbEntity
  8
MATM
  6
Continuous
100
AcDbLine
 10
15.46473968145972
 20
116.0410961953935
 30
0.0
 11
11.73096194283766
 21
116.053820699834
 31
0.0
  0
LINE
  5
79D
330
13B2
100
AcDbEntity
  8
MATM
  6
Continuous
100
AcDbLine
 10
15.46473968145972
 20
116.0410961953935
 30
0.0
 11
11.69615167165597
 21
105.8393706031227
 31
0.0
  0
LINE
  5
79E
330
13B2
100
AcDbEntity
  8
MATM
  6
Continuous
100
AcDbLine
 10
11.69615167165597
 20
105.8393706031227
 30
0.0
 11
11.73091857844251
 21
116.0410961953935
 31
0.0
  0
ENDBLK
  5
7A0
330
13B2
100
AcDbEntity
  8
0
100
AcDbBlockEnd
  0
BLOCK
  5
13B5
330
13B4
100
AcDbEntity
  8
0
100
AcDbBlockBegin
  2
*U55
 70
     1
 10
0.0
 20
0.0
 30
0.0
  3
*U55
  1

  0
SOLID
  5
7A2
330
13B4
100
AcDbEntity
  8
MATM
  6
Continuous
100
AcDbTrace
 10
8.057927264045018
 20
116.0537171587239
 30
0.0
 11
8.057927264045018
 21
116.0537171587239
 31
0.0
 12
11.79172668480169
 22
116.0537171587239
 32
0.0
 13
11.79172668480169
 23
116.0537171587239
 33
0.0
  0
SOLID
  5
7A3
330
13B4
100
AcDbEntity
  8
MATM
  6
Continuous
100
AcDbTrace
 10
-8.057927264045018
 20
116.0537171587239
 30
0.0
 11
-11.79172668480169
 21
116.0537171587239
 31
0.0
 12
-11.79172668480169
 22
105.839207746462
 32
0.0
 13
-11.79172668480169
 23
105.839207746462
 33
0.0
210
0.0
220
0.0
230
-1.0
  0
LINE
  5
7A4
330
13B4
100
AcDbEntity
  8
MATM
  6
Continuous
100
AcDbLine
 10
8.057927264045018
 20
116.0537171587239
 30
0.0
 11
11.79172668480169
 21
116.0537171587239
 31
0.0
  0
LINE
  5
7A5
330
13B4
100
AcDbEntity
  8
MATM
  6
Continuous
100
AcDbLine
 10
11.79172668480169
 20
116.0537171587239
 30
0.0
 11
11.79172668480169
 21
105.839207746462
 31
0.0
  0
LINE
  5
7A6
330
13B4
100
AcDbEntity
  8
MATM
  6
Continuous
100
AcDbLine
 10
11.79172668480169
 20
105.839207746462
 30
0.0
 11
8.057927264045018
 21
116.0537171587239
 31
0.0
  0
ENDBLK
  5
7A8
330
13B4
100
AcDbEntity
  8
0
100
AcDbBlockEnd
  0
BLOCK
  5
13B7
330
13B6
100
AcDbEntity
  8
0
100
AcDbBlockBegin
  2
*U56
 70
     1
 10
0.0
 20
0.0
 30
0.0
  3
*U56
  1

  0
TEXT
  5
7AA
330
13B6
100
AcDbEntity
  8
MATM
100
AcDbText
 10
0.2347846088158337
 20
121.617938604465
 30
0.0
 40
10.0
  1
A
100
AcDbText
  0
ENDBLK
  5
7AC
330
13B6
100
AcDbEntity
  8
0
100
AcDbBlockEnd
  0
BLOCK
  5
13B9
330
13B8
100
AcDbEntity
  8
0
100
AcDbBlockBegin
  2
*U57
 70
     1
 10
0.0
 20
0.0
 30
0.0
  3
*U57
  1

  0
TEXT
  5
7AE
330
13B8
100
AcDbEntity
  8
MATM
100
AcDbText
 10
145.6174145442314
 20
465.2396511479365
 30
0.0
 40
10.0
  1
1
100
AcDbText
  0
ENDBLK
  5
7B0
330
13B8
100
AcDbEntity
  8
0
100
AcDbBlockEnd
  0
BLOCK
  5
13BB
330
13BA
100
AcDbEntity
  8
0
100
AcDbBlockBegin
  2
*U58
 70
     1
 10
0.0
 20
0.0
 30
0.0
  3
*U58
  1

  0
TEXT
  5
7B2
330
13BA
100
AcDbEntity
  8
MATM
100
AcDbText
 10
455.1374928675803
 20
192.8986201936
 30
0.0
 40
10.0
  1
2, 8 vnt
100
AcDbText
  0
TEXT
  5
7B3
330
13BA
100
AcDbEntity
  8
MATM
100
AcDbText
 10
499.8671251675084
 20
192.8986201936
 30
0.0
 40
10.0
  1
.
100
AcDbText
  0
TEXT
  5
7B4
330
13BA
100
AcDbEntity
  8
MATM
100
AcDbText
 10
455.2095909209331
 20
176.2319535269333
 30
0.0
 40
10.0
  1
Kampas E, S=2 mm
100
AcDbText
  0
ENDBLK
  5
7B6
330
13BA
100
AcDbEntity
  8
0
100
AcDbBlockEnd
  0
BLOCK
  5
13BD
330
13BC
100
AcDbEntity
  8
0
100
AcDbBlockBegin
  2
*U59
 70
     1
 10
0.0
 20
0.0
 30
0.0
  3
*U59
  1

  0
SOLID
  5
7B8
330
13BC
100
AcDbEntity
  8
MATM
100
AcDbTrace
 10
390.5213057652463
 20
239.1920915350827
 30
0.0
 11
384.4730215077682
 21
246.0235084847894
 31
0.0
 12
392.4099661674497
 22
241.522963021276
 32
0.0
 13
392.4099661674497
 23
241.522963021276
 33
0.0
  0
LWPOLYLINE
  5
7B9
330
13BC
100
AcDbEntity
  8
MATM
100
AcDbPolyline
 90
        3
 70
     0
 43
0.0
 10
391.465635966348
 20
240.3575272781794
 10
443.8658746450003
 20
197.8986201936
 10
455.4547243023318
 20
197.8986201936
  0
ENDBLK
  5
7BF
330
13BC
100
AcDbEntity
  8
0
100
AcDbBlockEnd
  0
BLOCK
  5
13BF
330
13BE
100
AcDbEntity
  8
0
100
AcDbBlockBegin
  2
*U60
 70
     1
 10
0.0
 20
0.0
 30
0.0
  3
*U60
  1

  0
TEXT
  5
7C1
330
13BE
100
AcDbEntity
  8
MATM
100
AcDbText
 10
493.4211964625537
 20
121.617938604465
 30
0.0
 40
10.0
  1
A
100
AcDbText
  0
ENDBLK
  5
7C3
330
13BE
100
AcDbEntity
  8
0
100
AcDbBlockEnd
  0
BLOCK
  5
13C1
330
13C0
100
AcDbEntity
  8
0
100
AcDbBlockBegin
  2
*U61
 70
     1
 10
0.0
 20
0.0
 30
0.0
  3
*U61
  1

  0
SOLID
  5
7C5
330
13C0
100
AcDbEntity
  8
MATM
100
AcDbTrace
 10
331.3258480347232
 20
73.98310411346653
 30
0.0
 11
335.1745909856154
 21
82.25578068746347
 31
0.0
 12
334.2169184344462
 22
73.18203486312294
 32
0.0
 13
334.2169184344462
 23
73.18203486312294
 33
0.0
  0
LWPOLYLINE
  5
7C6
330
13C0
100
AcDbEntity
  8
MATM
100
AcDbPolyline
 90
        4
 70
     0
 43
0.0
 10
332.7713832345847
 20
73.58256948829474
 10
320.1604531214862
 20
28.0695420598713
 10
322.8979746059386
 20
9.824252050335415
 10
313.8979746059385
 20
9.824252050335415
  0
ENDBLK
  5
7CD
330
13C0
100
AcDbEntity
  8
0
100
AcDbBlockEnd
  0
BLOCK
  5
13C3
330
13C2
100
AcDbEntity
  8
0
100
AcDbBlockBegin
  2
*U62
 70
     1
 10
0.0
 20
0.0
 30
0.0
  3
*U62
  1

  0
TEXT
  5
7CF
330
13C2
100
AcDbEntity
  8
MATM
100
AcDbText
 10
304.1720751516728
 20
16.74709165133369
 30
0.0
 40
10.0
  1
3
100
AcDbText
  0
ENDBLK
  5
7D1
330
13C2
100
AcDbEntity
  8
0
100
AcDbBlockEnd
  0
BLOCK
  5
13C5
330
13C4
100
AcDbEntity
  8
0
100
AcDbBlockBegin
  2
*U63
 70
     1
 10
0.0
 20
0.0
 30
0.0
  3
*U63
  1

  0
SOLID
  5
7D3
330
13C4
100
AcDbEntity
  8
MATM
100
AcDbTrace
 10
386.2706281283369
 20
159.7031590494778
 30
0.0
 11
385.9141267363157
 21
168.8203355179623
 31
0.0
 12
389.2082798807091
 22
160.3116014722136
 32
0.0
 13
389.2082798807091
 23
160.3116014722136
 33
0.0
  0
LWPOLYLINE
  5
7D4
330
13C4
100
AcDbEntity
  8
MATM
100
AcDbPolyline
 90
        3
 70
     0
 43
0.0
 10
387.739454004523
 20
160.0073802608457
 10
398.2561509049473
 20
109.2311820138757
 10
430.1025307163863
 20
109.2311820138757
  0
ENDBLK
  5
7DA
330
13C4
100
AcDbEntity
  8
0
100
AcDbBlockEnd
  0
BLOCK
  5
13C7
330
13C6
100
AcDbEntity
  8
0
100
AcDbBlockBegin
  2
*U64
 70
     1
 10
0.0
 20
0.0
 30
0.0
  3
*U64
  1

  0
TEXT
  5
7DC
330
13C6
100
AcDbEntity
  8
MATM
100
AcDbText
 10
400.7867529567317
 20
120.1081473268968
 30
0.0
 40
5.0
  1
kont.suvir.
100
AcDbText
  0
ENDBLK
  5
7DE
330
13C6
100
AcDbEntity
  8
0
100
AcDbBlockEnd
  0
BLOCK
  5
13C9
330
13C8
100
AcDbEntity
  8
0
100
AcDbBlockBegin
  2
*U65
 70
     1
 10
0.0
 20
0.0
 30
0.0
  3
*U65
  1

  0
SOLID
  5
7E6
330
13C8
100
AcDbEntity
  8
MATM
  6
Continuous
100
AcDbTrace
 10
504.9173737965753
 20
116.053820699834
 30
0.0
 11
504.9173304321803
 21
116.0410961953935
 31
0.0
 12
508.6511515351975
 22
116.0410961953935
 32
0.0
 13
508.6511515351975
 23
116.0410961953935
 33
0.0
  0
SOLID
  5
7E7
330
13C8
100
AcDbEntity
  8
MATM
  6
Continuous
100
AcDbTrace
 10
-504.9173304321803
 20
116.0410961953935
 30
0.0
 11
-508.6511515351975
 21
116.0410961953935
 31
0.0
 12
-504.8825635253938
 22
105.8393706031227
 32
0.0
 13
-504.8825635253938
 23
105.8393706031227
 33
0.0
210
0.0
220
0.0
230
-1.0
  0
LINE
  5
7E8
330
13C8
100
AcDbEntity
  8
MATM
  6
Continuous
100
AcDbLine
 10
504.9173737965753
 20
116.053820699834
 30
0.0
 11
504.9173304321803
 21
116.0410961953935
 31
0.0
  0
LINE
  5
7E9
330
13C8
100
AcDbEntity
  8
MATM
  6
Continuous
100
AcDbLine
 10
508.6511515351975
 20
116.0410961953935
 30
0.0
 11
504.9173737965753
 21
116.053820699834
 31
0.0
  0
LINE
  5
7EA
330
13C8
100
AcDbEntity
  8
MATM
  6
Continuous
100
AcDbLine
 10
508.6511515351975
 20
116.0410961953935
 30
0.0
 11
504.8825635253938
 21
105.8393706031227
 31
0.0
  0
LINE
  5
7EB
330
13C8
100
AcDbEntity
  8
MATM
  6
Continuous
100
AcDbLine
 10
504.8825635253938
 20
105.8393706031227
 30
0.0
 11
504.9173304321803
 21
116.0410961953935
 31
0.0
  0
ENDBLK
  5
7ED
330
13C8
100
AcDbEntity
  8
0
100
AcDbBlockEnd
  0
BLOCK
  5
13CB
330
13CA
100
AcDbEntity
  8
0
100
AcDbBlockBegin
  2
*U66
 70
     1
 10
0.0
 20
0.0
 30
0.0
  3
*U66
  1

  0
SOLID
  5
7EF
330
13CA
100
AcDbEntity
  8
MATM
  6
Continuous
100
AcDbTrace
 10
501.2443391177828
 20
116.0537171587239
 30
0.0
 11
501.2443391177828
 21
116.0537171587239
 31
0.0
 12
504.9781385385395
 22
116.0537171587239
 32
0.0
 13
504.9781385385395
 23
116.0537171587239
 33
0.0
  0
SOLID
  5
7F0
330
13CA
100
AcDbEntity
  8
MATM
  6
Continuous
100
AcDbTrace
 10
-501.2443391177828
 20
116.0537171587239
 30
0.0
 11
-504.9781385385395
 21
116.0537171587239
 31
0.0
 12
-504.9781385385395
 22
105.839207746462
 32
0.0
 13
-504.9781385385395
 23
105.839207746462
 33
0.0
210
0.0
220
0.0
230
-1.0
  0
LINE
  5
7F1
330
13CA
100
AcDbEntity
  8
MATM
  6
Continuous
100
AcDbLine
 10
501.2443391177828
 20
116.0537171587239
 30
0.0
 11
504.9781385385395
 21
116.0537171587239
 31
0.0
  0
LINE
  5
7F2
330
13CA
100
AcDbEntity
  8
MATM
  6
Continuous
100
AcDbLine
 10
504.9781385385395
 20
116.0537171587239
 30
0.0
 11
504.9781385385395
 21
105.839207746462
 31
0.0
  0
LINE
  5
7F3
330
13CA
100
AcDbEntity
  8
MATM
  6
Continuous
100
AcDbLine
 10
504.9781385385395
 20
105.839207746462
 30
0.0
 11
501.2443391177828
 21
116.0537171587239
 31
0.0
  0
ENDBLK
  5
7F5
330
13CA
100
AcDbEntity
  8
0
100
AcDbBlockEnd
  0
BLOCK
  5
13CD
330
13CC
100
AcDbEntity
  8
0
100
AcDbBlockBegin
  2
*U67
 70
     1
 10
0.0
 20
0.0
 30
0.0
  3
*U67
  1

  0
SOLID
  5
7F7
330
13CC
100
AcDbEntity
  8
MATM
100
AcDbTrace
 10
389.6792530801546
 20
262.9023910030341
 30
0.0
 11
386.9141267363157
 21
254.2073305488103
 31
0.0
 12
386.7097671845233
 22
263.3291854683752
 32
0.0
 13
386.7097671845233
 23
263.3291854683752
 33
0.0
  0
LWPOLYLINE
  5
7F8
330
13CC
100
AcDbEntity
  8
MATM
100
AcDbPolyline
 90
        2
 70
     0
 43
0.0
 10
388.1945101323391
 20
263.1157882357046
 10
416.4874943600762
 20
459.9684291021786
  0
ENDBLK
  5
7FD
330
13CC
100
AcDbEntity
  8
0
100
AcDbBlockEnd
  0
BLOCK
  5
13CF
330
13CE
100
AcDbEntity
  8
0
100
AcDbBlockBegin
  2
*U68
 70
     1
 10
0.0
 20
0.0
 30
0.0
  3
*U68
  1

  0
SOLID
  5
7FF
330
13CE
100
AcDbEntity
  8
MATM
100
AcDbTrace
 10
384.7982874069702
 20
419.1955132331154
 30
0.0
 11
377.9141267363157
 21
413.2073305488102
 31
0.0
 12
382.484057310944
 22
421.1045284406625
 32
0.0
 13
382.484057310944
 23
421.1045284406625
 33
0.0
  0
LWPOLYLINE
  5
800
330
13CE
100
AcDbEntity
  8
MATM
100
AcDbPolyline
 90
        3
 70
     0
 43
0.0
 10
383.6411723589571
 20
420.1500208368888
 10
416.4874943600762
 20
459.9684291021786
 10
433.1365219745957
 20
459.9684291021786
  0
ENDBLK
  5
806
330
13CE
100
AcDbEntity
  8
0
100
AcDbBlockEnd
  0
BLOCK
  5
13D1
330
13D0
100
AcDbEntity
  8
0
100
AcDbBlockBegin
  2
*U69
 70
     1
 10
0.0
 20
0.0
 30
0.0
  3
*U69
  1

  0
TEXT
  5
808
330
13D0
100
AcDbEntity
  8
MATM
100
AcDbText
 10
433.0896582399166
 20
459.8422575088116
 30
0.0
 40
5.0
  1
hermetikas
100
AcDbText
  0
ENDBLK
  5
80A
330
13D0
100
AcDbEntity
  8
0
100
AcDbBlockEnd
  0
BLOCK
  5
13D3
330
13D2
100
AcDbEntity
  8
0
100
AcDbBlockBegin
  2
*D70
 70
     1
 10
0.0
 20
0.0
 30
0.0
  3
*D70
  1

  0
LINE
  5
EA1
330
13D2
100
AcDbEntity
  8
PAGR
 62
     0
100
AcDbLine
 10
54.67898418074202
 20
36.8770450060731
 30
0.0
 11
28.61341191374213
 21
36.8770450060731
 31
0.0
  0
LINE
  5
EA2
330
13D2
100
AcDbEntity
  8
PAGR
 62
     0
100
AcDbLine
 10
54.67898418074202
 20
166.8770450060731
 30
0.0
 11
28.61341191374215
 21
166.8770450060731
 31
0.0
  0
LINE
  5
EA3
330
13D2
100
AcDbEntity
  8
PAGR
 62
     0
100
AcDbLine
 10
42.11341191374212
 20
45.8770450060731
 30
0.0
 11
42.11341191374215
 21
82.62704500607298
 31
0.0
  0
LINE
  5
EA4
330
13D2
100
AcDbEntity
  8
PAGR
 62
     0
100
AcDbLine
 10
42.11341191374216
 20
157.8770450060731
 30
0.0
 11
42.11341191374215
 21
121.127045006073
 31
0.0
  0
INSERT
  5
EA5
330
13D2
100
AcDbEntity
  8
ASYS
100
AcDbBlockReference
  2
*U71
 10
0.0
 20
0.0
 30
0.0
  0
SOLID
  5
EA6
330
13D2
100
AcDbEntity
  8
PAGR
 62
     0
100
AcDbTrace
 10
40.61341191374213
 20
45.8770450060731
 30
0.0
 11
43.61341191374211
 21
45.8770450060731
 31
0.0
 12
42.11341191374212
 22
36.8770450060731
 32
0.0
 13
42.11341191374212
 23
36.8770450060731
 33
0.0
  0
SOLID
  5
EA7
330
13D2
100
AcDbEntity
  8
PAGR
 62
     0
100
AcDbTrace
 10
40.61341191374213
 20
157.8770450060731
 30
0.0
 11
43.61341191374214
 21
157.8770450060731
 31
0.0
 12
42.11341191374216
 22
166.8770450060731
 32
0.0
 13
42.11341191374216
 23
166.8770450060731
 33
0.0
  0
POINT
  5
EA8
330
13D2
100
AcDbEntity
  8
DEFPOINTS
 62
     0
100
AcDbPoint
 10
54.67898418074202
 20
36.8770450060731
 30
0.0
  0
POINT
  5
EA9
330
13D2
100
AcDbEntity
  8
DEFPOINTS
 62
     0
100
AcDbPoint
 10
54.67898418074202
 20
166.8770450060731
 30
0.0
  0
POINT
  5
EAA
330
13D2
100
AcDbEntity
  8
DEFPOINTS
 62
     0
100
AcDbPoint
 10
42.11341191374216
 20
166.8770450060731
 30
0.0
  0
ENDBLK
  5
E11
330
13D2
100
AcDbEntity
  8
0
100
AcDbBlockEnd
  0
BLOCK
  5
13D5
330
13D4
100
AcDbEntity
  8
0
100
AcDbBlockBegin
  2
*U71
 70
     1
 10
0.0
 20
0.0
 30
0.0
  3
*U71
  1

  0
TEXT
  5
F14
330
13D4
100
AcDbEntity
  8
PAGR
 62
     0
100
AcDbText
 10
49.61341191374215
 20
85.62704500607299
 30
0.0
 40
15.0
  1
130
 50
90.0
100
AcDbText
  0
ENDBLK
  5
F16
330
13D4
100
AcDbEntity
  8
0
100
AcDbBlockEnd
  0
BLOCK
  5
13D7
330
13D6
100
AcDbEntity
  8
0
100
AcDbBlockBegin
  2
*D72
 70
     1
 10
0.0
 20
0.0
 30
0.0
  3
*D72
  1

  0
LINE
  5
E98
330
13D6
100
AcDbEntity
  8
PAGR
 62
     0
100
AcDbLine
 10
372.678984180742
 20
418.2640400369208
 30
0.0
 11
463.1621444563424
 21
418.2640400369208
 31
0.0
  0
LINE
  5
E99
330
13D6
100
AcDbEntity
  8
PAGR
 62
     0
100
AcDbLine
 10
372.678984180742
 20
232.264040036921
 30
0.0
 11
463.1621444563424
 21
232.2640400369209
 31
0.0
  0
LINE
  5
E9A
330
13D6
100
AcDbEntity
  8
PAGR
 62
     0
100
AcDbLine
 10
449.6621444563423
 20
409.2640400369208
 30
0.0
 11
449.6621444563423
 21
241.2640400369209
 31
0.0
  0
SOLID
  5
E9B
330
13D6
100
AcDbEntity
  8
PAGR
 62
     0
100
AcDbTrace
 10
448.1621444563423
 20
409.2640400369208
 30
0.0
 11
451.1621444563424
 21
409.2640400369208
 31
0.0
 12
449.6621444563423
 22
418.2640400369208
 32
0.0
 13
449.6621444563423
 23
418.2640400369208
 33
0.0
  0
SOLID
  5
E9C
330
13D6
100
AcDbEntity
  8
PAGR
 62
     0
100
AcDbTrace
 10
448.1621444563423
 20
241.2640400369209
 30
0.0
 11
451.1621444563424
 21
241.2640400369209
 31
0.0
 12
449.6621444563423
 22
232.2640400369209
 32
0.0
 13
449.6621444563423
 23
232.2640400369209
 33
0.0
  0
INSERT
  5
E9D
330
13D6
100
AcDbEntity
  8
ASYS
100
AcDbBlockReference
  2
*U73
 10
0.0
 20
0.0
 30
0.0
  0
POINT
  5
E9E
330
13D6
100
AcDbEntity
  8
DEFPOINTS
 62
     0
100
AcDbPoint
 10
372.678984180742
 20
418.2640400369208
 30
0.0
  0
POINT
  5
E9F
330
13D6
100
AcDbEntity
  8
DEFPOINTS
 62
     0
100
AcDbPoint
 10
372.678984180742
 20
232.264040036921
 30
0.0
  0
POINT
  5
EA0
330
13D6
100
AcDbEntity
  8
DEFPOINTS
 62
     0
100
AcDbPoint
 10
449.6621444563423
 20
232.2640400369209
 30
0.0
  0
ENDBLK
  5
E1F
330
13D6
100
AcDbEntity
  8
0
100
AcDbBlockEnd
  0
BLOCK
  5
13D9
330
13D8
100
AcDbEntity
  8
0
100
AcDbBlockBegin
  2
*U73
 70
     1
 10
0.0
 20
0.0
 30
0.0
  3
*U73
  1

  0
TEXT
  5
F0F
330
13D8
100
AcDbEntity
  8
PAGR
 62
     0
100
AcDbText
 10
446.4025914642729
 20
300.8390220124076
 30
0.0
 40
15.0
  1
H
 50
90.0
100
AcDbText
  0
TEXT
  5
F10
330
13D8
100
AcDbEntity
  8
PAGR
 62
     0
100
AcDbText
 10
446.4025914642729
 20
315.8390220124076
 30
0.0
 40
15.0
  1
+40
 50
90.0
100
AcDbText
  0
ENDBLK
  5
F12
330
13D8
100
AcDbEntity
  8
0
100
AcDbBlockEnd
  0
BLOCK
  5
13DB
330
13DA
100
AcDbEntity
  8
0
100
AcDbBlockBegin
  2
*D74
 70
     1
 10
0.0
 20
0.0
 30
0.0
  3
*D74
  1

  0
LINE
  5
E8E
330
13DA
100
AcDbEntity
  8
PAGR
 62
     0
100
AcDbLine
 10
390.678984180742
 20
400.2640400369206
 30
0.0
 11
436.8154037405218
 21
400.2640400369206
 31
0.0
  0
LINE
  5
E8F
330
13DA
100
AcDbEntity
  8
PAGR
 62
     0
100
AcDbLine
 10
390.678984180742
 20
250.264040036921
 30
0.0
 11
436.8154037405218
 21
250.264040036921
 31
0.0
  0
LINE
  5
E90
330
13DA
100
AcDbEntity
  8
PAGR
 62
     0
100
AcDbLine
 10
423.3154037405218
 20
391.2640400369209
 30
0.0
 11
423.3154037405218
 21
333.2640400369211
 31
0.0
  0
LINE
  5
E91
330
13DA
100
AcDbEntity
  8
PAGR
 62
     0
100
AcDbLine
 10
423.3154037405218
 20
259.264040036921
 30
0.0
 11
423.3154037405218
 21
317.2640400369211
 31
0.0
  0
INSERT
  5
E92
330
13DA
100
AcDbEntity
  8
ASYS
100
AcDbBlockReference
  2
*U75
 10
0.0
 20
0.0
 30
0.0
  0
SOLID
  5
E93
330
13DA
100
AcDbEntity
  8
PAGR
 62
     0
100
AcDbTrace
 10
421.8154037405214
 20
391.2640400369209
 30
0.0
 11
424.8154037405218
 21
391.2640400369209
 31
0.0
 12
423.3154037405218
 22
400.2640400369206
 32
0.0
 13
423.3154037405218
 23
400.2640400369206
 33
0.0
  0
SOLID
  5
E94
330
13DA
100
AcDbEntity
  8
PAGR
 62
     0
100
AcDbTrace
 10
421.8154037405214
 20
259.264040036921
 30
0.0
 11
424.8154037405218
 21
259.264040036921
 31
0.0
 12
423.3154037405218
 22
250.264040036921
 32
0.0
 13
423.3154037405218
 23
250.264040036921
 33
0.0
  0
POINT
  5
E95
330
13DA
100
AcDbEntity
  8
DEFPOINTS
 62
     0
100
AcDbPoint
 10
390.678984180742
 20
400.2640400369206
 30
0.0
  0
POINT
  5
E96
330
13DA
100
AcDbEntity
  8
DEFPOINTS
 62
     0
100
AcDbPoint
 10
390.678984180742
 20
250.264040036921
 30
0.0
  0
POINT
  5
E97
330
13DA
100
AcDbEntity
  8
DEFPOINTS
 62
     0
100
AcDbPoint
 10
423.3154037405218
 20
250.264040036921
 30
0.0
  0
ENDBLK
  5
E2C
330
13DA
100
AcDbEntity
  8
0
100
AcDbBlockEnd
  0
BLOCK
  5
13DD
330
13DC
100
AcDbEntity
  8
0
100
AcDbBlockBegin
  2
*U75
 70
     1
 10
0.0
 20
0.0
 30
0.0
  3
*U75
  1

  0
TEXT
  5
F0B
330
13DC
100
AcDbEntity
  8
PAGR
 62
     0
100
AcDbText
 10
430.8154037405214
 20
320.2640400369211
 30
0.0
 40
15.0
  1
H
 50
90.0
100
AcDbText
  0
ENDBLK
  5
F0D
330
13DC
100
AcDbEntity
  8
0
100
AcDbBlockEnd
  0
BLOCK
  5
13E1
330
13E0
100
AcDbEntity
  8
0
100
AcDbBlockBegin
  2
*D76
 70
     1
 10
0.0
 20
0.0
 30
0.0
  3
*D76
  1

  0
LINE
  5
1097
330
13E0
100
AcDbEntity
  8
PAGR
 62
     0
100
AcDbLine
 10
54.67898418074202
 20
36.8770450060731
 30
0.0
 11
28.61341191374213
 21
36.8770450060731
 31
0.0
  0
LINE
  5
1098
330
13E0
100
AcDbEntity
  8
PAGR
 62
     0
100
AcDbLine
 10
54.67898418074202
 20
166.8770450060731
 30
0.0
 11
28.61341191374215
 21
166.8770450060731
 31
0.0
  0
LINE
  5
1099
330
13E0
100
AcDbEntity
  8
PAGR
 62
     0
100
AcDbLine
 10
42.11341191374212
 20
45.8770450060731
 30
0.0
 11
42.11341191374215
 21
86.21094331115774
 31
0.0
  0
LINE
  5
109A
330
13E0
100
AcDbEntity
  8
PAGR
 62
     0
100
AcDbLine
 10
42.11341191374216
 20
157.8770450060731
 30
0.0
 11
42.11341191374215
 21
117.5431467009882
 31
0.0
  0
INSERT
  5
109B
330
13E0
100
AcDbEntity
  8
ASYS
100
AcDbBlockReference
  2
*U77
 10
0.0
 20
0.0
 30
0.0
  0
SOLID
  5
109C
330
13E0
100
AcDbEntity
  8
PAGR
 62
     0
100
AcDbTrace
 10
40.61341191374213
 20
45.8770450060731
 30
0.0
 11
43.61341191374211
 21
45.8770450060731
 31
0.0
 12
42.11341191374212
 22
36.8770450060731
 32
0.0
 13
42.11341191374212
 23
36.8770450060731
 33
0.0
  0
SOLID
  5
109D
330
13E0
100
AcDbEntity
  8
PAGR
 62
     0
100
AcDbTrace
 10
40.61341191374213
 20
157.8770450060731
 30
0.0
 11
43.61341191374214
 21
157.8770450060731
 31
0.0
 12
42.11341191374216
 22
166.8770450060731
 32
0.0
 13
42.11341191374216
 23
166.8770450060731
 33
0.0
  0
POINT
  5
109E
330
13E0
100
AcDbEntity
  8
DEFPOINTS
 62
     0
100
AcDbPoint
 10
54.67898418074202
 20
36.8770450060731
 30
0.0
  0
POINT
  5
109F
330
13E0
100
AcDbEntity
  8
DEFPOINTS
 62
     0
100
AcDbPoint
 10
54.67898418074202
 20
166.8770450060731
 30
0.0
  0
POINT
  5
10A0
330
13E0
100
AcDbEntity
  8
DEFPOINTS
 62
     0
100
AcDbPoint
 10
42.11341191374216
 20
166.8770450060731
 30
0.0
  0
ENDBLK
  5
1046
330
13E0
100
AcDbEntity
  8
0
100
AcDbBlockEnd
  0
BLOCK
  5
13E3
330
13E2
100
AcDbEntity
  8
0
100
AcDbBlockBegin
  2
*U77
 70
     1
 10
0.0
 20
0.0
 30
0.0
  3
*U77
  1

  0
TEXT
  5
10DA
330
13E2
100
AcDbEntity
  8
PAGR
 62
     0
100
AcDbText
 10
49.53714072730146
 20
86.87196026031029
 30
0.0
 40
15.0
  1
95
 50
90.0
100
AcDbText
  0
ENDBLK
  5
10DC
330
13E2
100
AcDbEntity
  8
0
100
AcDbBlockEnd
  0
BLOCK
  5
13E5
330
13E4
100
AcDbEntity
  8
0
100
AcDbBlockBegin
  2
*D78
 70
     1
 10
0.0
 20
0.0
 30
0.0
  3
*D78
  1

  0
LINE
  5
12BA
330
13E4
100
AcDbEntity
  8
PAGR
 62
     0
100
AcDbLine
 10
54.67898418074202
 20
36.8770450060731
 30
0.0
 11
28.61341191374213
 21
36.8770450060731
 31
0.0
  0
LINE
  5
12BB
330
13E4
100
AcDbEntity
  8
PAGR
 62
     0
100
AcDbLine
 10
54.67898418074202
 20
166.8770450060731
 30
0.0
 11
28.61341191374215
 21
166.8770450060731
 31
0.0
  0
LINE
  5
12BC
330
13E4
100
AcDbEntity
  8
PAGR
 62
     0
100
AcDbLine
 10
42.11341191374212
 20
45.8770450060731
 30
0.0
 11
42.11341191374215
 21
82.47873992132722
 31
0.0
  0
LINE
  5
12BD
330
13E4
100
AcDbEntity
  8
PAGR
 62
     0
100
AcDbLine
 10
42.11341191374216
 20
157.8770450060731
 30
0.0
 11
42.11341191374215
 21
121.2753500908187
 31
0.0
  0
INSERT
  5
12BE
330
13E4
100
AcDbEntity
  8
ASYS
100
AcDbBlockReference
  2
*U79
 10
0.0
 20
0.0
 30
0.0
  0
SOLID
  5
12BF
330
13E4
100
AcDbEntity
  8
PAGR
 62
     0
100
AcDbTrace
 10
40.61341191374213
 20
45.8770450060731
 30
0.0
 11
43.61341191374211
 21
45.8770450060731
 31
0.0
 12
42.11341191374212
 22
36.8770450060731
 32
0.0
 13
42.11341191374212
 23
36.8770450060731
 33
0.0
  0
SOLID
  5
12C0
330
13E4
100
AcDbEntity
  8
PAGR
 62
     0
100
AcDbTrace
 10
40.61341191374213
 20
157.8770450060731
 30
0.0
 11
43.61341191374214
 21
157.8770450060731
 31
0.0
 12
42.11341191374216
 22
166.8770450060731
 32
0.0
 13
42.11341191374216
 23
166.8770450060731
 33
0.0
  0
POINT
  5
12C1
330
13E4
100
AcDbEntity
  8
DEFPOINTS
 62
     0
100
AcDbPoint
 10
54.67898418074202
 20
36.8770450060731
 30
0.0
  0
POINT
  5
12C2
330
13E4
100
AcDbEntity
  8
DEFPOINTS
 62
     0
100
AcDbPoint
 10
54.67898418074202
 20
166.8770450060731
 30
0.0
  0
POINT
  5
12C3
330
13E4
100
AcDbEntity
  8
DEFPOINTS
 62
     0
100
AcDbPoint
 10
42.11341191374216
 20
166.8770450060731
 30
0.0
  0
ENDBLK
  5
11EE
330
13E4
100
AcDbEntity
  8
0
100
AcDbBlockEnd
  0
BLOCK
  5
13F6
330
13E6
100
AcDbEntity
  8
0
100
AcDbBlockBegin
  2
*U79
 70
     1
 10
0.0
 20
0.0
 30
0.0
  3
*U79
  1

  0
TEXT
  5
1311
330
13E6
100
AcDbEntity
  8
PAGR
 62
     0
100
AcDbText
 10
49.53714072730146
 20
83.09907890437809
 30
0.0
 40
15.0
  1
160
 50
90.0
100
AcDbText
  0
ENDBLK
  5
1313
330
13E6
100
AcDbEntity
  8
0
100
AcDbBlockEnd
  0
BLOCK
  5
13E8
330
13E7
100
AcDbEntity
  8
0
100
AcDbBlockBegin
  2
*D80
 70
     1
 10
0.0
 20
0.0
 30
0.0
  3
*D80
  1

  0
LINE
  5
12C4
330
13E7
100
AcDbEntity
  8
PAGR
 62
     0
100
AcDbLine
 10
390.678984180742
 20
250.264040036921
 30
0.0
 11
390.678984180742
 21
178.8198222691993
 31
0.0
  0
LINE
  5
12C5
330
13E7
100
AcDbEntity
  8
PAGR
 62
     0
100
AcDbLine
 10
54.67898418074202
 20
250.264040036921
 30
0.0
 11
54.67898418074202
 21
178.8198222691993
 31
0.0
  0
LINE
  5
12C6
330
13E7
100
AcDbEntity
  8
PAGR
 62
     0
100
AcDbLine
 10
381.678984180742
 20
192.3198222691993
 30
0.0
 11
250.1040022052553
 21
192.3198222691993
 31
0.0
  0
LINE
  5
12C7
330
13E7
100
AcDbEntity
  8
PAGR
 62
     0
100
AcDbLine
 10
63.67898418074203
 20
192.3198222691993
 30
0.0
 11
195.2539661562284
 21
192.3198222691993
 31
0.0
  0
INSERT
  5
12C8
330
13E7
100
AcDbEntity
  8
ASYS
100
AcDbBlockReference
  2
*U81
 10
0.0
 20
0.0
 30
0.0
  0
SOLID
  5
12C9
330
13E7
100
AcDbEntity
  8
PAGR
 62
     0
100
AcDbTrace
 10
381.678984180742
 20
193.8198222691993
 30
0.0
 11
381.678984180742
 21
190.8198222691993
 31
0.0
 12
390.678984180742
 22
192.3198222691993
 32
0.0
 13
390.678984180742
 23
192.3198222691993
 33
0.0
  0
SOLID
  5
12CA
330
13E7
100
AcDbEntity
  8
PAGR
 62
     0
100
AcDbTrace
 10
63.67898418074203
 20
193.8198222691993
 30
0.0
 11
63.67898418074203
 21
190.8198222691993
 31
0.0
 12
54.67898418074202
 22
192.3198222691993
 32
0.0
 13
54.67898418074202
 23
192.3198222691993
 33
0.0
  0
POINT
  5
12CB
330
13E7
100
AcDbEntity
  8
DEFPOINTS
 62
     0
100
AcDbPoint
 10
390.678984180742
 20
250.264040036921
 30
0.0
  0
POINT
  5
12CC
330
13E7
100
AcDbEntity
  8
DEFPOINTS
 62
     0
100
AcDbPoint
 10
54.67898418074202
 20
250.264040036921
 30
0.0
  0
POINT
  5
12CD
330
13E7
100
AcDbEntity
  8
DEFPOINTS
 62
     0
100
AcDbPoint
 10
54.67898418074202
 20
192.3198222691993
 30
0.0
  0
ENDBLK
  5
11FC
330
13E7
100
AcDbEntity
  8
0
100
AcDbBlockEnd
  0
BLOCK
  5
13F7
330
13E9
100
AcDbEntity
  8
0
100
AcDbBlockBegin
  2
*U81
 70
     1
 10
0.0
 20
0.0
 30
0.0
  3
*U81
  1

  0
TEXT
  5
1315
330
13E9
100
AcDbEntity
  8
PAGR
 62
     0
100
AcDbText
 10
198.2539661562286
 20
184.9495987652339
 30
0.0
 40
15.0
  1
B
100
AcDbText
  0
TEXT
  5
1316
330
13E9
100
AcDbEntity
  8
PAGR
 62
     0
100
AcDbText
 10
213.2539661562286
 20
184.9495987652339
 30
0.0
 40
15.0
  1
+40
100
AcDbText
  0
ENDBLK
  5
1318
330
13E9
100
AcDbEntity
  8
0
100
AcDbBlockEnd
  0
BLOCK
  5
13EB
330
13EA
100
AcDbEntity
  8
0
100
AcDbBlockBegin
  2
*D82
 70
     1
 10
0.0
 20
0.0
 30
0.0
  3
*D82
  1

  0
LINE
  5
129E
330
13EA
100
AcDbEntity
  8
PAGR
 62
     0
100
AcDbLine
 10
372.678984180742
 20
232.264040036921
 30
0.0
 11
372.678984180742
 21
199.8305877445796
 31
0.0
  0
LINE
  5
129F
330
13EA
100
AcDbEntity
  8
PAGR
 62
     0
100
AcDbLine
 10
72.67898418074202
 20
232.264040036921
 30
0.0
 11
72.67898418074202
 21
199.8305877445796
 31
0.0
  0
LINE
  5
12A0
330
13EA
100
AcDbEntity
  8
PAGR
 62
     0
100
AcDbLine
 10
363.678984180742
 20
213.3305877445796
 30
0.0
 11
81.67898418074202
 21
213.3305877445796
 31
0.0
  0
SOLID
  5
12A1
330
13EA
100
AcDbEntity
  8
PAGR
 62
     0
100
AcDbTrace
 10
363.678984180742
 20
214.8305877445796
 30
0.0
 11
363.678984180742
 21
211.8305877445796
 31
0.0
 12
372.678984180742
 22
213.3305877445796
 32
0.0
 13
372.678984180742
 23
213.3305877445796
 33
0.0
  0
SOLID
  5
12A2
330
13EA
100
AcDbEntity
  8
PAGR
 62
     0
100
AcDbTrace
 10
81.67898418074202
 20
214.8305877445796
 30
0.0
 11
81.67898418074202
 21
211.8305877445796
 31
0.0
 12
72.67898418074202
 22
213.3305877445796
 32
0.0
 13
72.67898418074202
 23
213.3305877445796
 33
0.0
  0
INSERT
  5
12A3
330
13EA
100
AcDbEntity
  8
ASYS
100
AcDbBlockReference
  2
*U83
 10
0.0
 20
0.0
 30
0.0
  0
POINT
  5
12A4
330
13EA
100
AcDbEntity
  8
DEFPOINTS
 62
     0
100
AcDbPoint
 10
372.678984180742
 20
232.264040036921
 30
0.0
  0
POINT
  5
12A5
330
13EA
100
AcDbEntity
  8
DEFPOINTS
 62
     0
100
AcDbPoint
 10
72.67898418074202
 20
232.264040036921
 30
0.0
  0
POINT
  5
12A6
330
13EA
100
AcDbEntity
  8
DEFPOINTS
 62
     0
100
AcDbPoint
 10
72.67898418074202
 20
213.3305877445796
 30
0.0
  0
ENDBLK
  5
1226
330
13EA
100
AcDbEntity
  8
0
100
AcDbBlockEnd
  0
BLOCK
  5
13F3
330
13EC
100
AcDbEntity
  8
0
100
AcDbBlockBegin
  2
*U83
 70
     1
 10
0.0
 20
0.0
 30
0.0
  3
*U83
  1

  0
TEXT
  5
1304
330
13EC
100
AcDbEntity
  8
PAGR
 62
     0
100
AcDbText
 10
217.678984180742
 20
216.3305877445796
 30
0.0
 40
15.0
  1
B
100
AcDbText
  0
ENDBLK
  5
1306
330
13EC
100
AcDbEntity
  8
0
100
AcDbBlockEnd
  0
BLOCK
  5
13EE
330
13ED
100
AcDbEntity
  8
0
100
AcDbBlockBegin
  2
*D84
 70
     1
 10
0.0
 20
0.0
 30
0.0
  3
*D84
  1

  0
LINE
  5
12A7
330
13ED
100
AcDbEntity
  8
PAGR
 62
     0
100
AcDbLine
 10
372.678984180742
 20
418.2640400369208
 30
0.0
 11
463.1621444563424
 21
418.2640400369208
 31
0.0
  0
LINE
  5
12A8
330
13ED
100
AcDbEntity
  8
PAGR
 62
     0
100
AcDbLine
 10
372.678984180742
 20
232.264040036921
 30
0.0
 11
463.1621444563423
 21
232.2640400369209
 31
0.0
  0
LINE
  5
12A9
330
13ED
100
AcDbEntity
  8
PAGR
 62
     0
100
AcDbLine
 10
449.6621444563423
 20
409.2640400369208
 30
0.0
 11
449.6621444563423
 21
241.2640400369209
 31
0.0
  0
SOLID
  5
12AA
330
13ED
100
AcDbEntity
  8
PAGR
 62
     0
100
AcDbTrace
 10
448.1621444563423
 20
409.2640400369208
 30
0.0
 11
451.1621444563424
 21
409.2640400369208
 31
0.0
 12
449.6621444563423
 22
418.2640400369208
 32
0.0
 13
449.6621444563423
 23
418.2640400369208
 33
0.0
  0
SOLID
  5
12AB
330
13ED
100
AcDbEntity
  8
PAGR
 62
     0
100
AcDbTrace
 10
448.1621444563423
 20
241.2640400369209
 30
0.0
 11
451.1621444563423
 21
241.2640400369209
 31
0.0
 12
449.6621444563423
 22
232.2640400369209
 32
0.0
 13
449.6621444563423
 23
232.2640400369209
 33
0.0
  0
INSERT
  5
12AC
330
13ED
100
AcDbEntity
  8
ASYS
100
AcDbBlockReference
  2
*U85
 10
0.0
 20
0.0
 30
0.0
  0
POINT
  5
12AD
330
13ED
100
AcDbEntity
  8
DEFPOINTS
 62
     0
100
AcDbPoint
 10
372.678984180742
 20
418.2640400369208
 30
0.0
  0
POINT
  5
12AE
330
13ED
100
AcDbEntity
  8
DEFPOINTS
 62
     0
100
AcDbPoint
 10
372.678984180742
 20
232.264040036921
 30
0.0
  0
POINT
  5
12AF
330
13ED
100
AcDbEntity
  8
DEFPOINTS
 62
     0
100
AcDbPoint
 10
449.6621444563423
 20
232.2640400369209
 30
0.0
  0
ENDBLK
  5
1244
330
13ED
100
AcDbEntity
  8
0
100
AcDbBlockEnd
  0
BLOCK
  5
13F4
330
13EF
100
AcDbEntity
  8
0
100
AcDbBlockBegin
  2
*U85
 70
     1
 10
0.0
 20
0.0
 30
0.0
  3
*U85
  1

  0
TEXT
  5
1308
330
13EF
100
AcDbEntity
  8
PAGR
 62
     0
100
AcDbText
 10
446.4025914642729
 20
300.8390220124076
 30
0.0
 40
15.0
  1
H
 50
90.0
100
AcDbText
  0
TEXT
  5
1309
330
13EF
100
AcDbEntity
  8
PAGR
 62
     0
100
AcDbText
 10
446.4025914642729
 20
315.8390220124076
 30
0.0
 40
15.0
  1
+40
 50
90.0
100
AcDbText
  0
ENDBLK
  5
130B
330
13EF
100
AcDbEntity
  8
0
100
AcDbBlockEnd
  0
BLOCK
  5
13F1
330
13F0
100
AcDbEntity
  8
0
100
AcDbBlockBegin
  2
*D86
 70
     1
 10
0.0
 20
0.0
 30
0.0
  3
*D86
  1

  0
LINE
  5
12B0
330
13F0
100
AcDbEntity
  8
PAGR
 62
     0
100
AcDbLine
 10
390.678984180742
 20
400.2640400369206
 30
0.0
 11
436.8154037405218
 21
400.2640400369206
 31
0.0
  0
LINE
  5
12B1
330
13F0
100
AcDbEntity
  8
PAGR
 62
     0
100
AcDbLine
 10
390.678984180742
 20
250.264040036921
 30
0.0
 11
436.8154037405218
 21
250.264040036921
 31
0.0
  0
LINE
  5
12B2
330
13F0
100
AcDbEntity
  8
PAGR
 62
     0
100
AcDbLine
 10
423.3154037405218
 20
391.2640400369208
 30
0.0
 11
423.3154037405218
 21
333.2640400369211
 31
0.0
  0
LINE
  5
12B3
330
13F0
100
AcDbEntity
  8
PAGR
 62
     0
100
AcDbLine
 10
423.3154037405218
 20
259.264040036921
 30
0.0
 11
423.3154037405218
 21
317.2640400369211
 31
0.0
  0
INSERT
  5
12B4
330
13F0
100
AcDbEntity
  8
ASYS
100
AcDbBlockReference
  2
*U87
 10
0.0
 20
0.0
 30
0.0
  0
SOLID
  5
12B5
330
13F0
100
AcDbEntity
  8
PAGR
 62
     0
100
AcDbTrace
 10
421.8154037405214
 20
391.2640400369208
 30
0.0
 11
424.8154037405218
 21
391.2640400369208
 31
0.0
 12
423.3154037405218
 22
400.2640400369206
 32
0.0
 13
423.3154037405218
 23
400.2640400369206
 33
0.0
  0
SOLID
  5
12B6
330
13F0
100
AcDbEntity
  8
PAGR
 62
     0
100
AcDbTrace
 10
421.8154037405214
 20
259.264040036921
 30
0.0
 11
424.8154037405218
 21
259.264040036921
 31
0.0
 12
423.3154037405218
 22
250.264040036921
 32
0.0
 13
423.3154037405218
 23
250.264040036921
 33
0.0
  0
POINT
  5
12B7
330
13F0
100
AcDbEntity
  8
DEFPOINTS
 62
     0
100
AcDbPoint
 10
390.678984180742
 20
400.2640400369206
 30
0.0
  0
POINT
  5
12B8
330
13F0
100
AcDbEntity
  8
DEFPOINTS
 62
     0
100
AcDbPoint
 10
390.678984180742
 20
250.264040036921
 30
0.0
  0
POINT
  5
12B9
330
13F0
100
AcDbEntity
  8
DEFPOINTS
 62
     0
100
AcDbPoint
 10
423.3154037405218
 20
250.264040036921
 30
0.0
  0
ENDBLK
  5
1251
330
13F0
100
AcDbEntity
  8
0
100
AcDbBlockEnd
  0
BLOCK
  5
13F5
330
13F2
100
AcDbEntity
  8
0
100
AcDbBlockBegin
  2
*U87
 70
     1
 10
0.0
 20
0.0
 30
0.0
  3
*U87
  1

  0
TEXT
  5
130D
330
13F2
100
AcDbEntity
  8
PAGR
 62
     0
100
AcDbText
 10
430.8154037405214
 20
320.2640400369211
 30
0.0
 40
15.0
  1
H
 50
90.0
100
AcDbText
  0
ENDBLK
  5
130F
330
13F2
100
AcDbEntity
  8
0
100
AcDbBlockEnd
  0
ENDSEC
  0
SECTION
  2
ENTITIES
  0
LINE
  5
1BE
330
1338
100
AcDbEntity
  8
PAGR
100
AcDbLine
 10
721.7857771925354
 20
-283.1644521787269
 30
0.0
 11
-278.2142228074647
 21
-283.1644521787255
 31
0.0
  0
LINE
  5
1C2
102
{ACAD_REACTORS
330
14AB
102
}
330
1338
100
AcDbEntity
  8
PAGR
100
AcDbLine
 10
721.7857771925362
 20
-160.664452178727
 30
0.0
 11
-278.2142228074647
 21
-160.6644521787255
 31
0.0
  0
LINE
  5
1C4
330
1338
100
AcDbEntity
  8
PAGR
100
AcDbLine
 10
71.78577719253536
 20
-293.1644521787255
 30
0.0
 11
721.7857771925352
 21
-293.1644521787255
 31
0.0
  0
LINE
  5
1C5
330
1338
100
AcDbEntity
  8
PAGR
100
AcDbLine
 10
721.7857771925362
 20
-143.164452178727
 30
0.0
 11
-278.2142228074647
 21
-143.1644521787255
 31
0.0
  0
LINE
  5
1C6
330
1338
100
AcDbEntity
  8
PAGR
100
AcDbLine
 10
-281.0961763427869
 20
-133.1644521787255
 30
0.0
 11
721.7857771925352
 21
-133.1644521787255
 31
0.0
  0
LINE
  5
1CB
330
1338
100
AcDbEntity
  8
PAGR
100
AcDbLine
 10
722.6789841807422
 20
75.2640400369209
 30
0.0
 11
-277.321015819258
 21
75.26404003692102
 31
0.0
  0
LINE
  5
1CC
330
1338
100
AcDbEntity
  8
PAGR
100
AcDbLine
 10
-277.321015819258
 20
575.2640400369207
 30
0.0
 11
722.6789841807422
 21
575.2640400369207
 31
0.0
  0
LINE
  5
1D1
102
{ACAD_REACTORS
330
14AB
102
}
330
1338
100
AcDbEntity
  8
PAGR
100
AcDbLine
 10
-278.2142228074647
 20
-291.1644521787255
 30
0.0
 11
-278.2142228074647
 21
-135.1644521787255
 31
0.0
  0
LINE
  5
1D4
330
1338
100
AcDbEntity
  8
PAGR
100
AcDbLine
 10
-281.0961763427869
 20
-293.1644521787255
 30
0.0
 11
-299.0961763427869
 21
-293.1644521787254
 31
0.0
  0
LINE
  5
1D5
330
1338
100
AcDbEntity
  8
PAGR
100
AcDbLine
 10
-297.096176342787
 20
-291.1644521787254
 30
0.0
 11
-278.2142228074647
 21
-291.1644521787255
 31
0.0
  0
LINE
  5
1D8
330
1338
100
AcDbEntity
  8
PAGR
100
AcDbLine
 10
-299.0961763427869
 20
-293.1644521787254
 30
0.0
 11
-299.0961763427869
 21
-283.1644521787254
 31
0.0
  0
LINE
  5
1DA
330
1338
100
AcDbEntity
  8
PAGR
100
AcDbLine
 10
-297.0961763427869
 20
-283.1644521787254
 30
0.0
 11
-297.096176342787
 21
-291.1644521787254
 31
0.0
  0
LINE
  5
1DE
330
1338
100
AcDbEntity
  8
PAGR
100
AcDbLine
 10
-299.0961763427869
 20
-283.1644521787254
 30
0.0
 11
-297.0961763427869
 21
-283.1644521787254
 31
0.0
  0
LINE
  5
1F6
330
1338
100
AcDbEntity
  8
PAGR
100
AcDbLine
 10
-281.0961763427869
 20
-133.1644521787255
 30
0.0
 11
-299.0961763427869
 21
-133.1644521787256
 31
0.0
  0
LINE
  5
1F7
330
1338
100
AcDbEntity
  8
PAGR
100
AcDbLine
 10
-297.096176342787
 20
-135.1644521787256
 30
0.0
 11
-278.2142228074647
 21
-135.1644521787255
 31
0.0
  0
LINE
  5
1FA
330
1338
100
AcDbEntity
  8
PAGR
100
AcDbLine
 10
-299.0961763427869
 20
-133.1644521787255
 30
0.0
 11
-298.0961763427869
 21
-133.1644521787255
 31
0.0
  0
LINE
  5
1FC
330
1338
100
AcDbEntity
  8
PAGR
100
AcDbLine
 10
-297.0961763427869
 20
-135.1644521787256
 30
0.0
 11
-297.0961763427869
 21
-143.1644521787255
 31
0.0
  0
LINE
  5
1FD
330
1338
100
AcDbEntity
  8
PAGR
100
AcDbLine
 10
-299.0961763427869
 20
-133.1644521787255
 30
0.0
 11
-298.0961763427869
 21
-133.1644521787255
 31
0.0
  0
LINE
  5
1FE
330
1338
100
AcDbEntity
  8
PAGR
100
AcDbLine
 10
-299.0961763427869
 20
-143.1644521787255
 30
0.0
 11
-299.0961763427869
 21
-133.1644521787255
 31
0.0
  0
LINE
  5
20B
330
1338
100
AcDbEntity
  8
PAGR
100
AcDbLine
 10
-277.321015819258
 20
75.26404003692102
 30
0.0
 11
-277.321015819258
 21
575.2640400369207
 31
0.0
  0
LINE
  5
227
330
1338
100
AcDbEntity
  8
PAGR
100
AcDbLine
 10
738.903823657213
 20
-291.1644521787254
 30
0.0
 11
738.9038236572131
 21
-283.1644521787254
 31
0.0
  0
LINE
  5
228
330
1338
100
AcDbEntity
  8
PAGR
100
AcDbLine
 10
740.903823657213
 20
-293.1644521787254
 30
0.0
 11
740.903823657213
 21
-283.1644521787254
 31
0.0
  0
LINE
  5
229
330
1338
100
AcDbEntity
  8
PAGR
100
AcDbLine
 10
740.903823657213
 20
-283.1644521787254
 30
0.0
 11
740.903823657213
 21
-293.1644521787254
 31
0.0
  0
LINE
  5
22A
102
{ACAD_REACTORS
330
14AB
102
}
330
1338
100
AcDbEntity
  8
PAGR
100
AcDbLine
 10
721.7857771925355
 20
-291.1644521787255
 30
0.0
 11
721.7857771925363
 21
-135.1644521787255
 31
0.0
  0
LINE
  5
22F
330
1338
100
AcDbEntity
  8
PAGR
100
AcDbLine
 10
738.903823657213
 20
-291.1644521787254
 30
0.0
 11
721.7857771925355
 21
-291.1644521787255
 31
0.0
  0
LINE
  5
230
330
1338
100
AcDbEntity
  8
PAGR
100
AcDbLine
 10
721.7857771925352
 20
-293.1644521787255
 30
0.0
 11
740.903823657213
 21
-293.1644521787254
 31
0.0
  0
LINE
  5
231
330
1338
100
AcDbEntity
  8
PAGR
100
AcDbLine
 10
740.903823657213
 20
-283.1644521787254
 30
0.0
 11
738.903823657213
 21
-283.1644521787254
 31
0.0
  0
LINE
  5
237
330
1338
100
AcDbEntity
  8
PAGR
100
AcDbLine
 10
740.903823657213
 20
-143.1644521787255
 30
0.0
 11
740.903823657213
 21
-133.1644521787255
 31
0.0
  0
LINE
  5
238
330
1338
100
AcDbEntity
  8
PAGR
100
AcDbLine
 10
740.903823657213
 20
-133.1644521787255
 30
0.0
 11
739.903823657213
 21
-133.1644521787255
 31
0.0
  0
LINE
  5
239
330
1338
100
AcDbEntity
  8
PAGR
100
AcDbLine
 10
740.903823657213
 20
-133.1644521787255
 30
0.0
 11
739.903823657213
 21
-133.1644521787255
 31
0.0
  0
LINE
  5
23A
330
1338
100
AcDbEntity
  8
PAGR
100
AcDbLine
 10
740.903823657213
 20
-133.1644521787256
 30
0.0
 11
740.903823657213
 21
-143.1644521787255
 31
0.0
  0
LINE
  5
23B
330
1338
100
AcDbEntity
  8
PAGR
100
AcDbLine
 10
738.903823657213
 20
-135.1644521787256
 30
0.0
 11
738.903823657213
 21
-143.1644521787255
 31
0.0
  0
LINE
  5
23E
330
1338
100
AcDbEntity
  8
PAGR
100
AcDbLine
 10
721.7857771925352
 20
-133.1644521787255
 30
0.0
 11
740.903823657213
 21
-133.1644521787256
 31
0.0
  0
LINE
  5
23F
330
1338
100
AcDbEntity
  8
PAGR
100
AcDbLine
 10
738.903823657213
 20
-135.1644521787256
 30
0.0
 11
721.7857771925363
 21
-135.1644521787255
 31
0.0
  0
LINE
  5
24B
330
1338
100
AcDbEntity
  8
PAGR
100
AcDbLine
 10
722.6789841807422
 20
575.2640400369207
 30
0.0
 11
722.6789841807422
 21
75.26404003692102
 31
0.0
  0
LINE
  5
3DC
330
1338
100
AcDbEntity
  8
PAGR
100
AcDbLine
 10
-299.0961763427869
 20
-143.1644521787255
 30
0.0
 11
-297.0961763427869
 21
-143.1644521787255
 31
0.0
  0
LINE
  5
3DD
330
1338
100
AcDbEntity
  8
PAGR
100
AcDbLine
 10
738.903823657213
 20
-143.1644521787255
 30
0.0
 11
740.903823657213
 21
-143.1117116411497
 31
0.0
  0
LINE
  5
3DE
330
1338
100
AcDbEntity
  8
ASYS
100
AcDbLine
 10
222.678984180742
 20
610.8788681377421
 30
0.0
 11
222.678984180742
 21
35.21407429584588
 31
0.0
  0
LINE
  5
3DF
102
{ACAD_REACTORS
330
14AB
102
}
330
1338
100
AcDbEntity
  8
ASYS
100
AcDbLine
 10
221.7857771925354
 20
-125.3094170408288
 30
0.0
 11
221.7857771925354
 21
-303.2640886787608
 31
0.0
  0
LINE
  5
EAB
330
1338
100
AcDbEntity
  8
ASYS
100
AcDbLine
 10
-324.9355793688883
 20
325.2640400369209
 30
0.0
 11
761.3689801301516
 21
325.264040036921
 31
0.0
  0
LINE
  5
140A
330
1338
100
AcDbEntity
  8
0
100
AcDbLine
 10
-281.0961763427869
 20
-293.1644521787255
 30
0.0
 11
143.6077725097684
 21
-293.1644521787255
 31
0.0
  0
LINE
  5
140C
102
{ACAD_REACTORS
330
14AB
102
}
330
1338
100
AcDbEntity
  8
PAGR
100
AcDbLine
 10
721.7857771925355
 20
-265.6644521787269
 30
0.0
 11
-278.2142228074647
 21
-265.6644521787255
 31
0.0
  0
LINE
  5
141B
330
1338
100
AcDbEntity
  8
0
100
AcDbLine
 10
742.6789841807417
 20
55.2640400369209
 30
0.0
 11
742.6789841807422
 21
595.2640400369207
 31
0.0
  0
LINE
  5
141D
330
1338
100
AcDbEntity
  8
0
100
AcDbLine
 10
-297.321015819258
 20
55.2640400369209
 30
0.0
 11
-297.321015819258
 21
595.2640400369208
 31
0.0
  0
LINE
  5
141F
330
1338
100
AcDbEntity
  8
0
100
AcDbLine
 10
742.6789841807422
 20
595.2640400369207
 30
0.0
 11
-297.321015819258
 21
595.2640400369208
 31
0.0
  0
LINE
  5
1421
330
1338
100
AcDbEntity
  8
0
100
AcDbLine
 10
742.6789841807417
 20
55.2640400369209
 30
0.0
 11
-297.321015819258
 21
55.26404003692089
 31
0.0
  0
MTEXT
  5
1426
330
1338
100
AcDbEntity
  8
0
100
AcDbMText
 10
160.081949587321
 20
646.2070568511734
 30
0.0
 40
15.0
 41
170.9588586716891
 71
     1
 72
     5
  1
{\fTxt|b0|i0|c186|p2;LJ/E 100x50}
 73
     1
 44
1.0
1001
ACAD
1000
MTEXTBEGIN
1070
    73
1070
     1
1070
    44
1040
1.0
1070
    74
1070
     0
1000
MTEXTEND
  0
HATCH
  5
14AB
330
1338
100
AcDbEntity
  8
ASYS
100
AcDbHatch
 10
0.0
 20
0.0
 30
0.0
210
0.0
220
0.0
230
1.0
  2
ANSI34
 70
     0
 71
     1
 91
        2
 92
        7
 72
     0
 73
     1
 93
        4
 10
221.7857771925354
 20
-265.6644521787261
 10
221.7857771925354
 20
-160.6644521787263
 10
-278.2142228074646
 20
-160.6644521787256
 10
-278.2142228074647
 20
-265.6644521787254
 97
        4
330
1C2
330
1D1
330
140C
330
3DF
 92
        7
 72
     0
 73
     1
 93
        4
 10
721.7857771925355
 20
-265.6644521787269
 10
721.7857771925362
 20
-160.664452178727
 10
221.7857771925354
 20
-160.6644521787262
 10
221.7857771925354
 20
-265.6644521787261
 97
        4
330
1C2
330
3DF
330
140C
330
22A
 75
     0
 76
     1
 52
0.0
 41
20.0
 77
     0
 78
     4
 53
45.0
 43
0.0
 44
0.0
 45
-10.60660171779821
 46
10.60660171779821
 79
     0
 53
45.0
 43
3.535533899999999
 44
0.0
 45
-10.60660171779821
 46
10.60660171779821
 79
     0
 53
45.0
 43
7.071067819999998
 44
0.0
 45
-10.60660171779821
 46
10.60660171779821
 79
     0
 53
45.0
 43
10.60660172
 44
0.0
 45
-10.60660171779821
 46
10.60660171779821
 79
     0
 47
1.375821279132547
 98
        2
 10
153.5063775699709
 20
-222.8316191894369
 10
298.0678624782413
 20
-221.4557977993509
  0
LINE
  5
14BE
102
{ACAD_REACTORS
330
14EA
102
}
330
1338
100
AcDbEntity
  8
PAGR
100
AcDbLine
 10
1103.275903117403
 20
576.1459935722432
 30
0.0
 11
1103.275903117403
 21
76.14599357224324
 31
0.0
  0
LINE
  5
14BF
330
1338
100
AcDbEntity
  8
0
100
AcDbLine
 10
1130.775903117402
 20
73.26404003692096
 30
0.0
 11
1130.775903117402
 21
497.9679888894761
 31
0.0
  0
LINE
  5
14C0
102
{ACAD_REACTORS
330
14EA
102
}
330
1338
100
AcDbEntity
  8
ASYS
100
AcDbLine
 10
962.9208679795061
 20
325.2640400369209
 30
0.0
 11
1140.875539617438
 21
325.2640400369209
 31
0.0
  0
LINE
  5
14C1
330
1338
100
AcDbEntity
  8
PAGR
100
AcDbLine
 10
980.7759031174027
 20
593.2640400369207
 30
0.0
 11
980.7231625798268
 21
595.2640400369207
 31
0.0
  0
LINE
  5
14C2
330
1338
100
AcDbEntity
  8
PAGR
100
AcDbLine
 10
980.7759031174027
 20
55.26404003692096
 30
0.0
 11
980.7759031174027
 21
57.26404003692096
 31
0.0
  0
LINE
  5
14C3
330
1338
100
AcDbEntity
  8
PAGR
100
AcDbLine
 10
972.7759031174027
 20
593.2640400369207
 30
0.0
 11
972.7759031174027
 21
576.1459935722439
 31
0.0
  0
LINE
  5
14C4
330
1338
100
AcDbEntity
  8
PAGR
100
AcDbLine
 10
970.7759031174028
 20
576.1459935722427
 30
0.0
 11
970.7759031174028
 21
595.2640400369207
 31
0.0
  0
LINE
  5
14C5
330
1338
100
AcDbEntity
  8
PAGR
100
AcDbLine
 10
972.7759031174027
 20
593.2640400369207
 30
0.0
 11
980.7759031174027
 21
593.2640400369207
 31
0.0
  0
LINE
  5
14C6
330
1338
100
AcDbEntity
  8
PAGR
100
AcDbLine
 10
970.7759031174028
 20
595.2640400369207
 30
0.0
 11
980.7759031174027
 21
595.2640400369207
 31
0.0
  0
LINE
  5
14C7
330
1338
100
AcDbEntity
  8
PAGR
100
AcDbLine
 10
970.7759031174028
 20
595.2640400369207
 30
0.0
 11
970.7759031174028
 21
594.2640400369207
 31
0.0
  0
LINE
  5
14C8
330
1338
100
AcDbEntity
  8
PAGR
100
AcDbLine
 10
970.7759031174028
 20
595.2640400369207
 30
0.0
 11
970.7759031174028
 21
594.2640400369207
 31
0.0
  0
LINE
  5
14C9
330
1338
100
AcDbEntity
  8
PAGR
100
AcDbLine
 10
980.7759031174027
 20
595.2640400369207
 30
0.0
 11
970.7759031174028
 21
595.2640400369207
 31
0.0
  0
LINE
  5
14CA
330
1338
100
AcDbEntity
  8
PAGR
100
AcDbLine
 10
1120.775903117402
 20
595.2640400369207
 30
0.0
 11
1120.775903117402
 21
593.2640400369207
 31
0.0
  0
LINE
  5
14CB
330
1338
100
AcDbEntity
  8
PAGR
100
AcDbLine
 10
1130.775903117402
 20
576.1459935722427
 30
0.0
 11
1130.775903117402
 21
595.2640400369207
 31
0.0
  0
LINE
  5
14CC
330
1338
100
AcDbEntity
  8
PAGR
100
AcDbLine
 10
1128.775903117402
 20
593.2640400369207
 30
0.0
 11
1128.775903117403
 21
576.145993572243
 31
0.0
  0
LINE
  5
14CD
102
{ACAD_REACTORS
330
14EA
102
}
330
1338
100
AcDbEntity
  8
PAGR
100
AcDbLine
 10
1128.775903117403
 20
576.145993572243
 30
0.0
 11
972.7759031174027
 21
576.1459935722439
 31
0.0
  0
LINE
  5
14CE
330
1338
100
AcDbEntity
  8
PAGR
100
AcDbLine
 10
1120.775903117402
 20
595.2640400369207
 30
0.0
 11
1130.775903117402
 21
595.2640400369207
 31
0.0
  0
LINE
  5
14CF
330
1338
100
AcDbEntity
  8
PAGR
100
AcDbLine
 10
1130.775903117402
 20
595.2640400369207
 30
0.0
 11
1120.775903117402
 21
595.2640400369207
 31
0.0
  0
LINE
  5
14D0
330
1338
100
AcDbEntity
  8
PAGR
100
AcDbLine
 10
1128.775903117402
 20
593.2640400369207
 30
0.0
 11
1120.775903117402
 21
593.2640400369207
 31
0.0
  0
LINE
  5
14D1
330
1338
100
AcDbEntity
  8
PAGR
100
AcDbLine
 10
980.7759031174027
 20
55.26404003692096
 30
0.0
 11
970.7759031174028
 21
55.26404003692096
 31
0.0
  0
LINE
  5
14D2
330
1338
100
AcDbEntity
  8
PAGR
100
AcDbLine
 10
970.7759031174028
 20
55.26404003692096
 30
0.0
 11
970.7759031174028
 21
56.26404003692096
 31
0.0
  0
LINE
  5
14D3
330
1338
100
AcDbEntity
  8
PAGR
100
AcDbLine
 10
972.7759031174027
 20
57.26404003692096
 30
0.0
 11
980.7759031174027
 21
57.26404003692096
 31
0.0
  0
LINE
  5
14D4
330
1338
100
AcDbEntity
  8
PAGR
100
AcDbLine
 10
970.7759031174028
 20
55.26404003692096
 30
0.0
 11
970.7759031174028
 21
56.26404003692096
 31
0.0
  0
LINE
  5
14D5
330
1338
100
AcDbEntity
  8
PAGR
100
AcDbLine
 10
972.7759031174027
 20
57.26404003692096
 30
0.0
 11
972.7759031174027
 21
76.14599357224324
 31
0.0
  0
LINE
  5
14D6
330
1338
100
AcDbEntity
  8
PAGR
100
AcDbLine
 10
970.7759031174028
 20
73.26404003692096
 30
0.0
 11
970.7759031174028
 21
55.26404003692096
 31
0.0
  0
LINE
  5
14D7
330
1338
100
AcDbEntity
  8
PAGR
100
AcDbLine
 10
1120.775903117402
 20
55.26404003692096
 30
0.0
 11
1120.775903117402
 21
57.26404003692096
 31
0.0
  0
LINE
  5
14D8
330
1338
100
AcDbEntity
  8
PAGR
100
AcDbLine
 10
1120.775903117402
 20
57.26404003692096
 30
0.0
 11
1128.775903117402
 21
57.26404003692096
 31
0.0
  0
LINE
  5
14D9
330
1338
100
AcDbEntity
  8
PAGR
100
AcDbLine
 10
1130.775903117402
 20
55.26404003692096
 30
0.0
 11
1120.775903117402
 21
55.26404003692096
 31
0.0
  0
LINE
  5
14DA
330
1338
100
AcDbEntity
  8
PAGR
100
AcDbLine
 10
1128.775903117402
 20
57.26404003692096
 30
0.0
 11
1128.775903117403
 21
76.14599357224324
 31
0.0
  0
LINE
  5
14DB
330
1338
100
AcDbEntity
  8
PAGR
100
AcDbLine
 10
1130.775903117402
 20
73.26404003692096
 30
0.0
 11
1130.775903117402
 21
55.26404003692096
 31
0.0
  0
LINE
  5
14DC
102
{ACAD_REACTORS
330
14EA
102
}
330
1338
100
AcDbEntity
  8
PAGR
100
AcDbLine
 10
1128.775903117403
 20
76.14599357224324
 30
0.0
 11
972.7759031174027
 21
76.14599357224324
 31
0.0
  0
LINE
  5
14DD
330
1338
100
AcDbEntity
  8
PAGR
100
AcDbLine
 10
970.7759031174028
 20
73.26404003692096
 30
0.0
 11
970.7759031174029
 21
595.2640400369207
 31
0.0
  0
LINE
  5
14DE
330
1338
100
AcDbEntity
  8
PAGR
100
AcDbLine
 10
980.7759031174033
 20
576.145993572244
 30
0.0
 11
980.7759031174027
 21
76.14599357224324
 31
0.0
  0
LINE
  5
14DF
330
1338
100
AcDbEntity
  8
PAGR
100
AcDbLine
 10
1130.775903117402
 20
426.1459935722432
 30
0.0
 11
1130.775903117402
 21
595.2640400369207
 31
0.0
  0
LINE
  5
14E0
102
{ACAD_REACTORS
330
14EA
102
}
330
1338
100
AcDbEntity
  8
PAGR
100
AcDbLine
 10
998.2759031174033
 20
576.1459935722438
 30
0.0
 11
998.2759031174028
 21
76.14599357224324
 31
0.0
  0
LINE
  5
14E1
330
1338
100
AcDbEntity
  8
PAGR
100
AcDbLine
 10
1120.775903117403
 20
576.1459935722431
 30
0.0
 11
1120.775903117403
 21
76.14599357224324
 31
0.0
  0
HATCH
  5
14EA
330
1338
100
AcDbEntity
  8
ASYS
100
AcDbHatch
 10
0.0
 20
0.0
 30
0.0
210
0.0
220
0.0
230
1.0
  2
ANSI34
 70
     0
 71
     1
 91
        2
 92
        7
 72
     0
 73
     1
 93
        4
 10
1103.275903117403
 20
576.1459935722431
 10
998.2759031174035
 20
576.1459935722438
 10
998.2759031174031
 20
325.2640400369209
 10
1103.275903117403
 20
325.2640400369209
 97
        4
330
14CD
330
14E0
330
14C0
330
14BE
 92
        7
 72
     0
 73
     1
 93
        4
 10
998.2759031174026
 20
76.14599357224324
 10
1103.275903117402
 20
76.14599357224323
 10
1103.275903117403
 20
325.2640400369208
 10
998.2759031174028
 20
325.2640400369208
 97
        4
330
14C0
330
14E0
330
14DC
330
14BE
 75
     0
 76
     1
 52
0.0
 41
20.0
 77
     0
 78
     4
 53
45.0
 43
0.0
 44
0.0
 45
-10.60660171779821
 46
10.60660171779821
 79
     0
 53
45.0
 43
3.5355339
 44
0.0
 45
-10.60660171779821
 46
10.60660171779821
 79
     0
 53
45.0
 43
7.071067819999999
 44
0.0
 45
-10.60660171779821
 46
10.60660171779821
 79
     0
 53
45.0
 43
10.60660172
 44
0.0
 45
-10.60660171779821
 46
10.60660171779821
 79
     0
 47
3.592557127807999
 98
        2
 10
1100.856612874559
 20
455.3398478742438
 10
1043.33581741256
 20
279.3045432712297
  0
ENDSEC
  0
SECTION
  2
OBJECTS
  0
DICTIONARY
  5
1324
330
0
100
AcDbDictionary
281
     1
  3
ACAD_COLOR
350
1333
  3
ACAD_GROUP
350
1325
  3
ACAD_LAYOUT
350
1331
  3
ACAD_MATERIAL
350
1332
  3
ACAD_MLINESTYLE
350
132E
  3
ACAD_PLOTSETTINGS
350
1330
  3
ACAD_PLOTSTYLENAME
350
1326
  3
ACDBHEADERROUNDTRIPXREC
350
14EC
  3
AcDbVariableDictionary
350
13F9
  0
DICTIONARY
  5
1333
102
{ACAD_REACTORS
330
1324
102
}
330
1324
100
AcDbDictionary
281
     1
  0
DICTIONARY
  5
1325
102
{ACAD_REACTORS
330
1324
102
}
330
1324
100
AcDbDictionary
281
     1
  0
DICTIONARY
  5
1331
102
{ACAD_REACTORS
330
1324
102
}
330
1324
100
AcDbDictionary
281
     1
  3
Layout1
350
1337
  3
Model
350
133B
  0
DICTIONARY
  5
1332
102
{ACAD_REACTORS
330
1324
102
}
330
1324
100
AcDbDictionary
281
     1
  0
DICTIONARY
  5
132E
102
{ACAD_REACTORS
330
1324
102
}
330
1324
100
AcDbDictionary
281
     1
  3
Standard
350
132F
  0
DICTIONARY
  5
1330
102
{ACAD_REACTORS
330
1324
102
}
330
1324
100
AcDbDictionary
281
     1
  0
ACDBDICTIONARYWDFLT
  5
1326
102
{ACAD_REACTORS
330
1324
102
}
330
1324
100
AcDbDictionary
281
     1
  3
Normal
350
1327
100
AcDbDictionaryWithDefault
340
1327
  0
DICTIONARY
  5
14EC
102
{ACAD_REACTORS
330
1324
102
}
330
1324
100
AcDbDictionary
281
     1
  3
COLORDICT
350
14EE
  3
MATERIALDICT
350
14ED
  0
DICTIONARY
  5
13F9
102
{ACAD_REACTORS
330
1324
102
}
330
1324
100
AcDbDictionary
281
     1
  3
DIMASSOC
350
13FA
  3
PROJECTNAME
350
13FB
  0
LAYOUT
  5
1337
102
{ACAD_XDICTIONARY
360
14EF
102
}
102
{ACAD_REACTORS
330
1331
102
}
330
1331
100
AcDbPlotSettings
  1

  2
\\tornado\MINOLTA Sekretoriatas
  4

  6

 40
0.0
 41
0.0
 42
0.0
 43
0.0
 44
0.0
 45
0.0
 46
0.0
 47
0.0
 48
0.0
 49
0.0
140
0.0
141
0.0
142
1.0
143
1.0
 70
   688
 72
     0
 73
     0
 74
     5
  7

 75
    16
147
1.0
148
0.0
149
0.0
100
AcDbLayout
  1
Layout1
 70
     1
 71
     1
 10
0.0
 20
0.0
 11
12.0
 21
9.0
 12
0.0
 22
0.0
 32
0.0
 14
0.0
 24
0.0
 34
0.0
 15
0.0
 25
0.0
 35
0.0
146
0.0
 13
0.0
 23
0.0
 33
0.0
 16
1.0
 26
0.0
 36
0.0
 17
0.0
 27
1.0
 37
0.0
 76
     0
330
1334
  0
LAYOUT
  5
133B
102
{ACAD_XDICTIONARY
360
14F1
102
}
102
{ACAD_REACTORS
330
1331
102
}
330
1331
100
AcDbPlotSettings
  1

  2
\\tornado\MINOLTA Sekretoriatas
  4

  6

 40
0.0
 41
0.0
 42
0.0
 43
0.0
 44
0.0
 45
0.0
 46
0.0
 47
0.0
 48
0.0
 49
0.0
140
0.0
141
0.0
142
1.0
143
1.0
 70
  1712
 72
     0
 73
     0
 74
     0
  7

 75
     0
147
1.0
148
0.0
149
0.0
100
AcDbLayout
  1
Model
 70
     1
 71
     0
 10
0.0
 20
0.0
 11
12.0
 21
9.0
 12
0.0
 22
0.0
 32
0.0
 14
0.0
 24
0.0
 34
0.0
 15
0.0
 25
0.0
 35
0.0
146
0.0
 13
0.0
 23
0.0
 33
0.0
 16
1.0
 26
0.0
 36
0.0
 17
0.0
 27
1.0
 37
0.0
 76
     0
330
1338
  0
MLINESTYLE
  5
132F
102
{ACAD_REACTORS
330
132E
102
}
330
132E
100
AcDbMlineStyle
  2
STANDARD
 70
     0
  3

 62
   256
 51
90.0
 52
90.0
 71
     2
 49
0.5
 62
   256
  6
BYLAYER
 49
-0.5
 62
   256
  6
BYLAYER
  0
ACDBPLACEHOLDER
  5
1327
102
{ACAD_REACTORS
330
1326
102
}
330
1326
  0
XRECORD
  5
14EE
102
{ACAD_REACTORS
330
14EC
102
}
330
14EC
100
AcDbXrecord
280
     1
340
1333
  0
XRECORD
  5
14ED
102
{ACAD_REACTORS
330
14EC
102
}
330
14EC
100
AcDbXrecord
280
     1
340
1332
  0
DICTIONARYVAR
  5
13FA
102
{ACAD_REACTORS
330
13F9
102
}
330
13F9
100
DictionaryVariables
280
     0
  1
1
  0
DICTIONARYVAR
  5
13FB
102
{ACAD_REACTORS
330
13F9
102
}
330
13F9
100
DictionaryVariables
280
     0
  1

  0
DICTIONARY
  5
14EF
330
1337
100
AcDbDictionary
280
     1
281
     1
  3
ACAD_XREC_ROUNDTRIP
360
14F0
  0
DICTIONARY
  5
14F1
330
133B
100
AcDbDictionary
280
     1
281
     1
  3
ACAD_XREC_ROUNDTRIP
360
14F2
  0
XRECORD
  5
14F0
102
{ACAD_REACTORS
330
14EF
102
}
330
14EF
100
AcDbXrecord
280
     1
102
SHADEPLOT
 70
     0
102
SHADEPLOTRESLEVEL
 70
     2
102
SHADEPLOTCUSTOMDPI
 70
   300
  0
XRECORD
  5
14F2
102
{ACAD_REACTORS
330
14F1
102
}
330
14F1
100
AcDbXrecord
280
     1
102
SHADEPLOT
 70
     0
102
SHADEPLOTRESLEVEL
 70
     2
102
SHADEPLOTCUSTOMDPI
 70
   300
  0
ENDSEC
  0
EOF
