  0
SECTION
  2
HEADER
  9
$ACADVER
  1
AC1015
  9
$ACADMAINTVER
 70
     6
  9
$DWGCODEPAGE
  3
ANSI_1257
  9
$INSBASE
 10
0.0
 20
0.0
 30
0.0
  9
$EXTMIN
 10
0.0
 20
0.0
 30
0.0
  9
$EXTMAX
 10
420.0
 20
297.0
 30
0.0
  9
$LIMMIN
 10
0.0
 20
0.0
  9
$LIMMAX
 10
420.0
 20
297.0
  9
$ORTHOMODE
 70
     0
  9
$REGENMODE
 70
     1
  9
$FILLMODE
 70
     1
  9
$QTEXTMODE
 70
     0
  9
$MIRRTEXT
 70
     1
  9
$LTSCALE
 40
1.0
  9
$ATTMODE
 70
     1
  9
$TEXTSIZE
 40
5.6444444444
  9
$TRACEWID
 40
1.0
  9
$TEXTSTYLE
  7
Standard
  9
$CLAYER
  8
0
  9
$CELTYPE
  6
ByLayer
  9
$CECOLOR
 62
   256
  9
$CELTSCALE
 40
1.0
  9
$DISPSILH
 70
     0
  9
$DIMSCALE
 40
1.0
  9
$DIMASZ
 40
3.175
  9
$DIMEXO
 40
1.0
  9
$DIMDLI
 40
3.75
  9
$DIMRND
 40
0.0
  9
$DIMDLE
 40
0.0
  9
$DIMEXE
 40
1.0
  9
$DIMTP
 40
0.0
  9
$DIMTM
 40
0.0
  9
$DIMTXT
 40
4.9388888889
  9
$DIMCEN
 40
2.5
  9
$DIMTSZ
 40
0.0
  9
$DIMTOL
 70
     0
  9
$DIMLIM
 70
     0
  9
$DIMTIH
 70
     1
  9
$DIMTOH
 70
     1
  9
$DIMSE1
 70
     0
  9
$DIMSE2
 70
     0
  9
$DIMTAD
 70
     1
  9
$DIMZIN
 70
     0
  9
$DIMBLK
  1

  9
$DIMASO
 70
     1
  9
$DIMSHO
 70
     1
  9
$DIMPOST
  1

  9
$DIMAPOST
  1

  9
$DIMALT
 70
     0
  9
$DIMALTD
 70
     3
  9
$DIMALTF
 40
0.0393700787
  9
$DIMLFAC
 40
1.0
  9
$DIMTOFL
 70
     1
  9
$DIMTVP
 40
0.0
  9
$DIMTIX
 70
     0
  9
$DIMSOXD
 70
     0
  9
$DIMSAH
 70
     0
  9
$DIMBLK1
  1

  9
$DIMBLK2
  1

  9
$DIMSTYLE
  2
ISO-25
  9
$DIMCLRD
 70
     0
  9
$DIMCLRE
 70
     0
  9
$DIMCLRT
 70
     0
  9
$DIMTFAC
 40
1.0
  9
$DIMGAP
 40
1.524
  9
$DIMJUST
 70
     0
  9
$DIMSD1
 70
     0
  9
$DIMSD2
 70
     0
  9
$DIMTOLJ
 70
     0
  9
$DIMTZIN
 70
     0
  9
$DIMALTZ
 70
     0
  9
$DIMALTTZ
 70
     0
  9
$DIMUPT
 70
     0
  9
$DIMDEC
 70
     1
  9
$DIMTDEC
 70
     1
  9
$DIMALTU
 70
     2
  9
$DIMALTTD
 70
     3
  9
$DIMTXSTY
  7
Standard
  9
$DIMAUNIT
 70
     0
  9
$DIMADEC
 70
     1
  9
$DIMALTRND
 40
0.0
  9
$DIMAZIN
 70
     0
  9
$DIMDSEP
 70
    44
  9
$DIMATFIT
 70
     3
  9
$DIMFRAC
 70
     0
  9
$DIMLDRBLK
  1

  9
$DIMLUNIT
 70
     2
  9
$DIMLWD
 70
    -2
  9
$DIMLWE
 70
    -2
  9
$DIMTMOVE
 70
     0
  9
$LUNITS
 70
     2
  9
$LUPREC
 70
     1
  9
$SKETCHINC
 40
1.0
  9
$FILLETRAD
 40
10.0
  9
$AUNITS
 70
     0
  9
$AUPREC
 70
     1
  9
$MENU
  1
.
  9
$ELEVATION
 40
0.0
  9
$PELEVATION
 40
0.0
  9
$THICKNESS
 40
0.0
  9
$LIMCHECK
 70
     0
  9
$CHAMFERA
 40
0.0
  9
$CHAMFERB
 40
0.0
  9
$CHAMFERC
 40
0.0
  9
$CHAMFERD
 40
0.0
  9
$SKPOLY
 70
     0
  9
$TDCREATE
 40
2459179.662121354
  9
$TDUCREATE
 40
2459179.578788021
  9
$TDUPDATE
 40
2459179.66212184
  9
$TDUUPDATE
 40
2459179.578788507
  9
$TDINDWG
 40
0.0000000116
  9
$TDUSRTIMER
 40
0.0000000116
  9
$USRTIMER
 70
     1
  9
$ANGBASE
 50
0.0
  9
$ANGDIR
 70
     0
  9
$PDMODE
 70
     0
  9
$PDSIZE
 40
-1.0
  9
$PLINEWID
 40
0.0
  9
$SPLFRAME
 70
     0
  9
$SPLINETYPE
 70
     6
  9
$SPLINESEGS
 70
     8
  9
$HANDSEED
  5
283
  9
$SURFTAB1
 70
     6
  9
$SURFTAB2
 70
     6
  9
$SURFTYPE
 70
     6
  9
$SURFU
 70
     6
  9
$SURFV
 70
     6
  9
$UCSBASE
  2

  9
$UCSNAME
  2

  9
$UCSORG
 10
0.0
 20
0.0
 30
0.0
  9
$UCSXDIR
 10
1.0
 20
0.0
 30
0.0
  9
$UCSYDIR
 10
0.0
 20
1.0
 30
0.0
  9
$UCSORTHOREF
  2

  9
$UCSORTHOVIEW
 70
     0
  9
$UCSORGTOP
 10
0.0
 20
0.0
 30
0.0
  9
$UCSORGBOTTOM
 10
0.0
 20
0.0
 30
0.0
  9
$UCSORGLEFT
 10
0.0
 20
0.0
 30
0.0
  9
$UCSORGRIGHT
 10
0.0
 20
0.0
 30
0.0
  9
$UCSORGFRONT
 10
0.0
 20
0.0
 30
0.0
  9
$UCSORGBACK
 10
0.0
 20
0.0
 30
0.0
  9
$PUCSBASE
  2

  9
$PUCSNAME
  2

  9
$PUCSORG
 10
0.0
 20
0.0
 30
0.0
  9
$PUCSXDIR
 10
1.0
 20
0.0
 30
0.0
  9
$PUCSYDIR
 10
0.0
 20
1.0
 30
0.0
  9
$PUCSORTHOREF
  2

  9
$PUCSORTHOVIEW
 70
     0
  9
$PUCSORGTOP
 10
0.0
 20
0.0
 30
0.0
  9
$PUCSORGBOTTOM
 10
0.0
 20
0.0
 30
0.0
  9
$PUCSORGLEFT
 10
0.0
 20
0.0
 30
0.0
  9
$PUCSORGRIGHT
 10
0.0
 20
0.0
 30
0.0
  9
$PUCSORGFRONT
 10
0.0
 20
0.0
 30
0.0
  9
$PUCSORGBACK
 10
0.0
 20
0.0
 30
0.0
  9
$USERI1
 70
     0
  9
$USERI2
 70
     0
  9
$USERI3
 70
     0
  9
$USERI4
 70
     0
  9
$USERI5
 70
     0
  9
$USERR1
 40
0.0
  9
$USERR2
 40
0.0
  9
$USERR3
 40
0.0
  9
$USERR4
 40
0.0
  9
$USERR5
 40
0.0
  9
$WORLDVIEW
 70
     1
  9
$SHADEDGE
 70
     3
  9
$SHADEDIF
 70
    70
  9
$TILEMODE
 70
     1
  9
$MAXACTVP
 70
    64
  9
$PINSBASE
 10
0.0
 20
0.0
 30
0.0
  9
$PLIMCHECK
 70
     0
  9
$PEXTMIN
 10
1.0000000000E+20
 20
1.0000000000E+20
 30
1.0000000000E+20
  9
$PEXTMAX
 10
-1.0000000000E+20
 20
-1.0000000000E+20
 30
-1.0000000000E+20
  9
$PLIMMIN
 10
0.0
 20
0.0
  9
$PLIMMAX
 10
420.0
 20
297.0
  9
$UNITMODE
 70
     0
  9
$VISRETAIN
 70
     1
  9
$PLINEGEN
 70
     0
  9
$PSLTSCALE
 70
     1
  9
$TREEDEPTH
 70
  3020
  9
$CMLSTYLE
  2
Standard
  9
$CMLJUST
 70
     0
  9
$CMLSCALE
 40
20.0
  9
$PROXYGRAPHICS
 70
     1
  9
$MEASUREMENT
 70
     1
  9
$CELWEIGHT
370
    -1
  9
$ENDCAPS
280
     0
  9
$JOINSTYLE
280
     0
  9
$LWDISPLAY
290
     1
  9
$INSUNITS
 70
     4
  9
$HYPERLINKBASE
  1

  9
$STYLESHEET
  1

  9
$XEDIT
290
     1
  9
$CEPSNTYPE
380
     0
  9
$PSTYLEMODE
290
     1
  9
$FINGERPRINTGUID
  2
{03a22668-5f11-43fd-97aa-0886910941de}
  9
$VERSIONGUID
  2
{FAEB1C32-E019-11D5-929B-00C0DF256EC4}
  9
$EXTNAMES
290
     1
  9
$PSVPSCALE
 40
0.0
  9
$OLESTARTUP
290
     0
  0
ENDSEC
  0
SECTION
  2
CLASSES
  0
CLASS
  1
ACDBDICTIONARYWDFLT
  2
AcDbDictionaryWithDefault
  3
ObjectDBX Classes
 90
        0
280
     0
281
     0
  0
CLASS
  1
VISUALSTYLE
  2
AcDbVisualStyle
  3
ObjectDBX Classes
 90
     4095
280
     0
281
     0
  0
CLASS
  1
MATERIAL
  2
AcDbMaterial
  3
ObjectDBX Classes
 90
     1153
280
     0
281
     0
  0
CLASS
  1
SCALE
  2
AcDbScale
  3
ObjectDBX Classes
 90
     1153
280
     0
281
     0
  0
CLASS
  1
TABLESTYLE
  2
AcDbTableStyle
  3
ObjectDBX Classes
 90
     4095
280
     0
281
     0
  0
CLASS
  1
MLEADERSTYLE
  2
AcDbMLeaderStyle
  3
ACDB_MLEADERSTYLE_CLASS
 90
     4095
280
     0
281
     0
  0
CLASS
  1
SUN
  2
AcDbSun
  3
SCENEOE
 90
     1153
280
     0
281
     0
  0
CLASS
  1
ACDBPLACEHOLDER
  2
AcDbPlaceHolder
  3
ObjectDBX Classes
 90
        0
280
     0
281
     0
  0
CLASS
  1
LAYOUT
  2
AcDbLayout
  3
ObjectDBX Classes
 90
        0
280
     0
281
     0
  0
ENDSEC
  0
SECTION
  2
TABLES
  0
TABLE
  2
VPORT
  5
8
330
0
100
AcDbSymbolTable
 70
     1
  0
VPORT
  5
29
330
8
100
AcDbSymbolTableRecord
100
AcDbViewportTableRecord
  2
*Active
 70
     0
 10
0.0
 20
0.0
 11
1.0
 21
1.0
 12
210.0
 22
148.5
 13
0.0
 23
0.0
 14
10.0
 24
10.0
 15
10.0
 25
10.0
 16
0.0
 26
0.0
 36
1.0
 17
0.0
 27
0.0
 37
0.0
 40
297.0
 41
1.4141414141
 42
50.0
 43
0.0
 44
0.0
 50
0.0
 51
0.0
 71
     0
 72
  2000
 73
     1
 74
     3
 75
     0
 76
     0
 77
     0
 78
     0
281
     0
 65
     1
110
0.0
120
0.0
130
0.0
111
1.0
121
0.0
131
0.0
112
0.0
122
1.0
132
0.0
 79
     0
146
0.0
  0
ENDTAB
  0
TABLE
  2
LTYPE
  5
5
330
0
100
AcDbSymbolTable
 70
     6
  0
LTYPE
  5
14
330
5
100
AcDbSymbolTableRecord
100
AcDbLinetypeTableRecord
  2
ByBlock
 70
     0
  3

 72
    65
 73
     0
 40
0.0
  0
LTYPE
  5
15
330
5
100
AcDbSymbolTableRecord
100
AcDbLinetypeTableRecord
  2
ByLayer
 70
     0
  3

 72
    65
 73
     0
 40
0.0
  0
LTYPE
  5
16
330
5
100
AcDbSymbolTableRecord
100
AcDbLinetypeTableRecord
  2
Continuous
 70
     0
  3
Solid line
 72
    65
 73
     0
 40
0.0
  0
LTYPE
  5
6E
330
5
100
AcDbSymbolTableRecord
100
AcDbLinetypeTableRecord
  2
HIDDEN
 70
     0
  3
Hidden __ __ __ __ __ __ __ __ __ __ __ __ __ __
 72
    65
 73
     2
 40
1.905
 49
1.27
 74
     0
 49
-0.635
 74
     0
  0
LTYPE
  5
6F
330
5
100
AcDbSymbolTableRecord
100
AcDbLinetypeTableRecord
  2
PHANTOM
 70
     0
  3
Phantom ______  __  __  ______  __  __  ______
 72
    65
 73
     6
 40
12.7
 49
6.35
 74
     0
 49
-1.27
 74
     0
 49
1.27
 74
     0
 49
-1.27
 74
     0
 49
1.27
 74
     0
 49
-1.27
 74
     0
  0
LTYPE
  5
70
330
5
100
AcDbSymbolTableRecord
100
AcDbLinetypeTableRecord
  2
CENTER
 70
     0
  3
Center ____ _ ____ _ ____ _ ____ _ ____ _ ____
 72
    65
 73
     4
 40
10.16
 49
6.35
 74
     0
 49
-1.27
 74
     0
 49
1.27
 74
     0
 49
-1.27
 74
     0
  0
LTYPE
  5
71
330
5
100
AcDbSymbolTableRecord
100
AcDbLinetypeTableRecord
  2
CENTERX2
 70
     0
  3
Center (2x) ________  __  ________  __  _____
 72
    65
 73
     4
 40
20.32
 49
12.7
 74
     0
 49
-2.54
 74
     0
 49
2.54
 74
     0
 49
-2.54
 74
     0
  0
LTYPE
  5
72
330
5
100
AcDbSymbolTableRecord
100
AcDbLinetypeTableRecord
  2
DOT2
 70
     0
  3
Dot (.5x) ........................................
 72
    65
 73
     2
 40
0.635
 49
0.0
 74
     0
 49
-0.635
 74
     0
  0
ENDTAB
  0
TABLE
  2
LAYER
  5
2
330
0
100
AcDbSymbolTable
 70
     2
  0
LAYER
  5
10
330
2
100
AcDbSymbolTableRecord
100
AcDbLayerTableRecord
  2
0
 70
     0
 62
     7
  6
Continuous
370
    -3
390
F
  0
LAYER
  5
73
330
2
100
AcDbSymbolTableRecord
100
AcDbLayerTableRecord
  2
LENKIMO
 70
     0
 62
     1
  6
CENTERX2
370
    -3
390
F
  0
ENDTAB
  0
TABLE
  2
STYLE
  5
3
330
0
100
AcDbSymbolTable
 70
     1
  0
STYLE
  5
11
330
3
100
AcDbSymbolTableRecord
100
AcDbTextStyleTableRecord
  2
Standard
 70
     0
 40
0.0
 41
1.0
 50
0.0
 71
     0
 42
5.6444444444
  3
txt
  4

  0
ENDTAB
  0
TABLE
  2
VIEW
  5
6
330
0
100
AcDbSymbolTable
 70
     0
  0
ENDTAB
  0
TABLE
  2
UCS
  5
7
330
0
100
AcDbSymbolTable
 70
     0
  0
ENDTAB
  0
TABLE
  2
APPID
  5
9
330
0
100
AcDbSymbolTable
 70
     1
  0
APPID
  5
12
330
9
100
AcDbSymbolTableRecord
100
AcDbRegAppTableRecord
  2
ACAD
 70
     0
  0
ENDTAB
  0
TABLE
  2
DIMSTYLE
  5
A
330
0
100
AcDbSymbolTable
 70
     1
100
AcDbDimStyleTable
  0
DIMSTYLE
105
27
330
A
100
AcDbSymbolTableRecord
100
AcDbDimStyleTableRecord
  2
ISO-25
 70
     0
 41
2.5
 42
0.625
 43
3.75
 44
1.25
 73
     0
 74
     0
 77
     1
 78
     8
140
2.5
141
2.5
143
0.0393700787
147
0.625
171
     3
172
     1
178
     0
271
     2
272
     2
274
     3
278
    44
283
     0
284
     8
340
11
  0
ENDTAB
  0
TABLE
  2
BLOCK_RECORD
  5
1
330
0
100
AcDbSymbolTable
 70
     3
  0
BLOCK_RECORD
  5
1F
330
1
100
AcDbSymbolTableRecord
100
AcDbBlockTableRecord
  2
*Model_Space
340
22
  0
BLOCK_RECORD
  5
1B
330
1
100
AcDbSymbolTableRecord
100
AcDbBlockTableRecord
  2
*Paper_Space
340
1E
  0
BLOCK_RECORD
  5
23
330
1
100
AcDbSymbolTableRecord
100
AcDbBlockTableRecord
  2
*Paper_Space0
340
26
  0
BLOCK_RECORD
  5
74
330
1
100
AcDbSymbolTableRecord
100
AcDbBlockTableRecord
  2
Block11_2
340
0
  0
BLOCK_RECORD
  5
276
330
1
100
AcDbSymbolTableRecord
100
AcDbBlockTableRecord
  2
SW_CENTERMARKSYMBOL_0
340
0
102
{BLKREFS
331
281
102
}
  0
ENDTAB
  0
ENDSEC
  0
SECTION
  2
BLOCKS
  0
BLOCK
  5
20
330
1F
100
AcDbEntity
  8
0
100
AcDbBlockBegin
  2
*Model_Space
 70
     0
 10
0.0
 20
0.0
 30
0.0
  3
*Model_Space
  1

  0
ENDBLK
  5
21
330
1F
100
AcDbEntity
  8
0
100
AcDbBlockEnd
  0
BLOCK
  5
1C
330
1B
100
AcDbEntity
 67
     1
  8
0
100
AcDbBlockBegin
  2
*Paper_Space
 70
     0
 10
0.0
 20
0.0
 30
0.0
  3
*Paper_Space
  1

  0
ENDBLK
  5
1D
330
1B
100
AcDbEntity
 67
     1
  8
0
100
AcDbBlockEnd
  0
BLOCK
  5
24
330
23
100
AcDbEntity
  8
0
100
AcDbBlockBegin
  2
*Paper_Space0
 70
     0
 10
0.0
 20
0.0
 30
0.0
  3
*Paper_Space0
  1

  0
ENDBLK
  5
25
330
23
100
AcDbEntity
  8
0
100
AcDbBlockEnd
  0
BLOCK
  5
75
330
74
100
AcDbEntity
  8
0
100
AcDbBlockBegin
  2
Block11_2
 70
     0
 10
0.0
 20
0.0
 30
0.0
  3
Block11_2
  1

  0
LINE
  5
77
330
74
100
AcDbEntity
  8
0
  6
Continuous
100
AcDbLine
 10
-15.7956326374
 20
2.3055746011
 30
0.0
 11
-18.0649288667
 21
1.8146036087
 31
0.0
  0
LINE
  5
78
330
74
100
AcDbEntity
  8
0
  6
Continuous
100
AcDbLine
 10
-15.6988785554
 20
-9.1195335787
 30
0.0
 11
-10.2261014967
 21
-7.9354771524
 31
0.0
  0
LINE
  5
79
330
74
100
AcDbEntity
  8
0
  6
Continuous
100
AcDbLine
 10
-10.2261014967
 20
-7.9354771524
 30
0.0
 11
-10.6655808869
 21
-5.9041780766
 31
0.0
  0
LINE
  5
7A
330
74
100
AcDbEntity
  8
0
  6
Continuous
100
AcDbLine
 10
-10.6655808869
 20
-5.9041780766
 30
0.0
 11
-13.8699456036
 21
-6.5974547429
 31
0.0
  0
LINE
  5
7B
330
74
100
AcDbEntity
  8
0
  6
Continuous
100
AcDbLine
 10
-8.296070931
 20
1.802048972
 30
0.0
 11
-6.9198111955
 21
2.0998080743
 31
0.0
  0
LINE
  5
7C
330
74
100
AcDbEntity
  8
0
  6
Continuous
100
AcDbLine
 10
-5.4333831358
 20
-4.7719736412
 30
0.0
 11
-6.8095376466
 21
-5.0697099777
 31
0.0
  0
LINE
  5
7D
330
74
100
AcDbEntity
  8
0
  6
Continuous
100
AcDbLine
 10
-11.0044904538
 20
3.3421566929
 30
0.0
 11
-8.6388294738
 21
-7.5920647278
 31
0.0
  0
LINE
  5
7E
330
74
100
AcDbEntity
  8
0
  6
Continuous
100
AcDbLine
 10
-8.6388294738
 20
-7.5920647278
 30
0.0
 11
-8.6384401425
 21
-7.5919804944
 31
0.0
  0
LINE
  5
7F
330
74
100
AcDbEntity
  8
0
  6
Continuous
100
AcDbLine
 10
-8.6384401425
 20
-7.5919804944
 30
0.0
 11
-4.4940245505
 21
-6.6953201952
 31
0.0
  0
LINE
  5
80
330
74
100
AcDbEntity
  8
0
  6
Continuous
100
AcDbLine
 10
-6.8595855671
 20
4.238922853
 30
0.0
 11
-11.0044904538
 21
3.3421566929
 31
0.0
  0
LINE
  5
81
330
74
100
AcDbEntity
  8
0
  6
Continuous
100
AcDbLine
 10
-32.9933593229
 20
-3.3005605139
 30
0.0
 11
-32.8591663041
 21
-3.2715273367
 31
0.0
  0
LINE
  5
82
330
74
100
AcDbEntity
  8
0
  6
Continuous
100
AcDbLine
 10
-31.5697721187
 20
-3.9678201523
 30
0.0
 11
-29.2969561243
 21
-3.4760876451
 31
0.0
  0
LINE
  5
83
330
74
100
AcDbEntity
  8
0
  6
Continuous
100
AcDbLine
 10
-33.2794920496
 20
-1.2667721217
 30
0.0
 11
-33.3448839193
 21
-1.2809199049
 31
0.0
  0
LINE
  5
84
330
74
100
AcDbEntity
  8
0
  6
Continuous
100
AcDbLine
 10
-31.3289079349
 20
-10.5856399919
 30
0.0
 11
-31.4650581325
 21
-10.6150966123
 31
0.0
  0
LINE
  5
85
330
74
100
AcDbEntity
  8
0
  6
Continuous
100
AcDbLine
 10
-32.8822392925
 20
-9.9377601564
 30
0.0
 11
-35.1888692339
 21
-10.4368084414
 31
0.0
  0
LINE
  5
86
330
74
100
AcDbEntity
  8
0
  6
Continuous
100
AcDbLine
 10
-31.5949683304
 20
-12.7295787952
 30
0.0
 11
-30.2063920476
 21
-12.4291549603
 31
0.0
  0
LINE
  5
87
330
74
100
AcDbEntity
  8
0
  6
Continuous
100
AcDbLine
 10
6.262509235
 20
-4.3681026205
 30
0.0
 11
8.6370616994
 21
-3.8543590356
 31
0.0
  0
LINE
  5
88
330
74
100
AcDbEntity
  8
0
  6
Continuous
100
AcDbLine
 10
8.6370616994
 20
-3.8543590356
 30
0.0
 11
3.9059396663
 21
6.5680857621
 31
0.0
  0
LINE
  5
89
330
74
100
AcDbEntity
  8
0
  6
Continuous
100
AcDbLine
 10
3.9059396663
 20
6.5680857621
 30
0.0
 11
0.0
 21
5.7230206493
 31
0.0
  0
LINE
  5
8A
330
74
100
AcDbEntity
  8
0
  6
Continuous
100
AcDbLine
 10
0.0
 20
5.7230206493
 30
0.0
 11
0.0
 21
-5.7230206493
 31
0.0
  0
LINE
  5
8B
330
74
100
AcDbEntity
  8
0
  6
Continuous
100
AcDbLine
 10
0.0
 20
-5.7230206493
 30
0.0
 11
2.3746576891
 21
-5.2092542987
 31
0.0
  0
LINE
  5
8C
330
74
100
AcDbEntity
  8
0
  6
Continuous
100
AcDbLine
 10
2.3746576891
 20
-5.2092542987
 30
0.0
 11
2.3747844598
 21
-3.0912381741
 31
0.0
  0
LINE
  5
8D
330
74
100
AcDbEntity
  8
0
  6
Continuous
100
AcDbLine
 10
2.3747844598
 20
-3.0912381741
 30
0.0
 11
4.0318309599
 21
-2.7327297722
 31
0.0
  0
LINE
  5
8E
330
74
100
AcDbEntity
  8
0
  6
Continuous
100
AcDbLine
 10
4.0318309599
 20
-2.7327297722
 30
0.0
 11
3.5923515697
 21
-0.7014306964
 31
0.0
  0
LINE
  5
8F
330
74
100
AcDbEntity
  8
0
  6
Continuous
100
AcDbLine
 10
3.5923515697
 20
-0.7014306964
 30
0.0
 11
2.3750284336
 21
-0.9648032524
 31
0.0
  0
LINE
  5
90
330
74
100
AcDbEntity
  8
0
  6
Continuous
100
AcDbLine
 10
2.3750284336
 20
-0.9648032524
 30
0.0
 11
2.3752084601
 21
4.1936873712
 31
0.0
  0
LINE
  5
91
330
74
100
AcDbEntity
  8
0
  6
Continuous
100
AcDbLine
 10
2.3752084601
 20
4.1936873712
 30
0.0
 11
6.262509235
 21
-4.3681026205
 31
0.0
  0
LINE
  5
92
330
74
100
AcDbEntity
  8
0
  6
Continuous
100
AcDbLine
 10
-53.0629352118
 20
-11.4801779454
 30
0.0
 11
-50.7945341276
 21
-8.0228043203
 31
0.0
  0
LINE
  5
93
330
74
100
AcDbEntity
  8
0
  6
Continuous
100
AcDbLine
 10
-50.7945341276
 20
-8.0228043203
 30
0.0
 11
-54.2891069366
 21
-5.8122833411
 31
0.0
  0
LINE
  5
94
330
74
100
AcDbEntity
  8
0
  6
Continuous
100
AcDbLine
 10
-54.2891069366
 20
-5.8122833411
 30
0.0
 11
-51.4073820962
 21
-5.1888110564
 31
0.0
  0
LINE
  5
95
330
74
100
AcDbEntity
  8
0
  6
Continuous
100
AcDbLine
 10
-51.4073820962
 20
-5.1888110564
 30
0.0
 11
-47.9127327975
 21
-7.3992273667
 31
0.0
  0
LINE
  5
96
330
74
100
AcDbEntity
  8
0
  6
Continuous
100
AcDbLine
 10
-47.9127327975
 20
-7.3992273667
 30
0.0
 11
-50.1813587974
 21
-10.8569360435
 31
0.0
  0
LINE
  5
97
330
74
100
AcDbEntity
  8
0
  6
Continuous
100
AcDbLine
 10
-50.1813587974
 20
-10.8569360435
 30
0.0
 11
-53.0628942334
 21
-11.4803673498
 31
0.0
  0
LINE
  5
98
330
74
100
AcDbEntity
  8
0
  6
Continuous
100
AcDbLine
 10
-53.0628942334
 20
-11.4803673498
 30
0.0
 11
-53.0629352118
 21
-11.4801779454
 31
0.0
  0
LINE
  5
99
330
74
100
AcDbEntity
  8
0
  6
Continuous
100
AcDbLine
 10
-42.7624916815
 20
-3.31845567
 30
0.0
 11
-45.0307950789
 21
-6.7757971452
 31
0.0
  0
LINE
  5
9A
330
74
100
AcDbEntity
  8
0
  6
Continuous
100
AcDbLine
 10
-45.0307950789
 20
-6.7757971452
 30
0.0
 11
-48.5254573289
 21
-4.5652955168
 31
0.0
  0
LINE
  5
9B
330
74
100
AcDbEntity
  8
0
  6
Continuous
100
AcDbLine
 10
-48.5254573289
 20
-4.5652955168
 30
0.0
 11
-48.5257466967
 21
-4.5653581227
 31
0.0
  0
LINE
  5
9C
330
74
100
AcDbEntity
  8
0
  6
Continuous
100
AcDbLine
 10
-48.5257466967
 20
-4.5653581227
 30
0.0
 11
-47.9126146215
 21
-7.399289919
 31
0.0
  0
LINE
  5
9D
330
74
100
AcDbEntity
  8
0
  6
Continuous
100
AcDbLine
 10
-47.9126146215
 20
-7.399289919
 30
0.0
 11
-44.4177372167
 21
-9.6098441329
 31
0.0
  0
LINE
  5
9E
330
74
100
AcDbEntity
  8
0
  6
Continuous
100
AcDbLine
 10
-44.4177372167
 20
-9.6098441329
 30
0.0
 11
-42.1490649772
 21
-6.1523237222
 31
0.0
  0
LINE
  5
9F
330
74
100
AcDbEntity
  8
0
  6
Continuous
100
AcDbLine
 10
-42.1490649772
 20
-6.1523237222
 30
0.0
 11
-42.7621970524
 21
-3.3183919259
 31
0.0
  0
LINE
  5
A0
330
74
100
AcDbEntity
  8
0
  6
Continuous
100
AcDbLine
 10
-42.7621970524
 20
-3.3183919259
 30
0.0
 11
-42.7624916815
 21
-3.31845567
 31
0.0
  0
LINE
  5
A1
330
74
100
AcDbEntity
  8
0
  6
Continuous
100
AcDbLine
 10
-41.535889647
 20
-8.9864554454
 30
0.0
 11
-43.8045413973
 21
-12.4440705583
 31
0.0
  0
LINE
  5
A2
330
74
100
AcDbEntity
  8
0
  6
Continuous
100
AcDbLine
 10
-43.8045413973
 20
-12.4440705583
 30
0.0
 11
-40.3564529382
 21
-14.625159785
 31
0.0
  0
LINE
  5
A3
330
74
100
AcDbEntity
  8
0
  6
Continuous
100
AcDbLine
 10
-40.3564529382
 20
-14.625159785
 30
0.0
 11
-43.2382724808
 21
-15.2486525588
 31
0.0
  0
LINE
  5
A4
330
74
100
AcDbEntity
  8
0
  6
Continuous
100
AcDbLine
 10
-43.2382724808
 20
-15.2486525588
 30
0.0
 11
-46.686243472
 21
-13.0676480676
 31
0.0
  0
LINE
  5
A5
330
74
100
AcDbEntity
  8
0
  6
Continuous
100
AcDbLine
 10
-46.686243472
 20
-13.0676480676
 30
0.0
 11
-44.4177144509
 21
-9.6099493576
 31
0.0
  0
LINE
  5
A6
330
74
100
AcDbEntity
  8
0
  6
Continuous
100
AcDbLine
 10
-44.4177144509
 20
-9.6099493576
 30
0.0
 11
-41.535889647
 21
-8.9864554454
 31
0.0
  0
LINE
  5
A7
330
74
100
AcDbEntity
  8
0
  6
Continuous
100
AcDbLine
 10
-51.8063383656
 20
-17.1023866618
 30
0.0
 11
-49.5681857438
 21
-13.6910572443
 31
0.0
  0
LINE
  5
A8
330
74
100
AcDbEntity
  8
0
  6
Continuous
100
AcDbLine
 10
-49.5681857438
 20
-13.6910572443
 30
0.0
 11
-46.1199973213
 21
-15.8721248435
 31
0.0
  0
LINE
  5
A9
330
74
100
AcDbEntity
  8
0
  6
Continuous
100
AcDbLine
 10
-46.1199973213
 20
-15.8721248435
 30
0.0
 11
-46.0813956519
 21
-15.8637732234
 31
0.0
  0
LINE
  5
AA
330
74
100
AcDbEntity
  8
0
  6
Continuous
100
AcDbLine
 10
-46.0813956519
 20
-15.8637732234
 30
0.0
 11
-46.6863662012
 21
-13.0675644704
 31
0.0
  0
LINE
  5
AB
330
74
100
AcDbEntity
  8
0
  6
Continuous
100
AcDbLine
 10
-46.6863662012
 20
-13.0675644704
 30
0.0
 11
-50.1813587974
 21
-10.8569360435
 31
0.0
  0
LINE
  5
AC
330
74
100
AcDbEntity
  8
0
  6
Continuous
100
AcDbLine
 10
-50.1813587974
 20
-10.8569360435
 30
0.0
 11
-52.4497621582
 21
-14.3142991462
 31
0.0
  0
LINE
  5
AD
330
74
100
AcDbEntity
  8
0
  6
Continuous
100
AcDbLine
 10
-52.4497621582
 20
-14.3142991462
 30
0.0
 11
-51.8447506306
 21
-17.1106973035
 31
0.0
  0
LINE
  5
AE
330
74
100
AcDbEntity
  8
0
  6
Continuous
100
AcDbLine
 10
-51.8447506306
 20
-17.1106973035
 30
0.0
 11
-51.8063383656
 21
-17.1023866618
 31
0.0
  0
LINE
  5
AF
330
74
100
AcDbEntity
  8
0
  6
Continuous
100
AcDbLine
 10
-20.0432683672
 20
-10.0594590717
 30
0.0
 11
-17.6687053803
 21
-9.5457132103
 31
0.0
  0
LINE
  5
B0
330
74
100
AcDbEntity
  8
0
  6
Continuous
100
AcDbLine
 10
-17.6687053803
 20
-9.5457132103
 30
0.0
 11
-22.3998379359
 21
0.8767293109
 31
0.0
  0
LINE
  5
B1
330
74
100
AcDbEntity
  8
0
  6
Continuous
100
AcDbLine
 10
-22.3998379359
 20
0.8767293109
 30
0.0
 11
-26.3058670432
 21
0.0316448472
 31
0.0
  0
LINE
  5
B2
330
74
100
AcDbEntity
  8
0
  6
Continuous
100
AcDbLine
 10
-26.3058670432
 20
0.0316448472
 30
0.0
 11
-26.3056723775
 21
-11.4143543348
 31
0.0
  0
LINE
  5
B3
330
74
100
AcDbEntity
  8
0
  6
Continuous
100
AcDbLine
 10
-26.3056723775
 20
-11.4143543348
 30
0.0
 11
-23.9311146519
 21
-10.9006096116
 31
0.0
  0
LINE
  5
B4
330
74
100
AcDbEntity
  8
0
  6
Continuous
100
AcDbLine
 10
-23.9311146519
 20
-10.9006096116
 30
0.0
 11
-23.9309931424
 21
-8.7825946253
 31
0.0
  0
LINE
  5
B5
330
74
100
AcDbEntity
  8
0
  6
Continuous
100
AcDbLine
 10
-23.9309931424
 20
-8.7825946253
 30
0.0
 11
-22.2738308951
 21
-8.4240611811
 31
0.0
  0
LINE
  5
B6
330
74
100
AcDbEntity
  8
0
  6
Continuous
100
AcDbLine
 10
-22.2738308951
 20
-8.4240611811
 30
0.0
 11
-22.7133102854
 21
-6.3927621053
 31
0.0
  0
LINE
  5
B7
330
74
100
AcDbEntity
  8
0
  6
Continuous
100
AcDbLine
 10
-22.7133102854
 20
-6.3927621053
 30
0.0
 11
-23.9308333483
 21
-6.6561779162
 31
0.0
  0
LINE
  5
B8
330
74
100
AcDbEntity
  8
0
  6
Continuous
100
AcDbLine
 10
-23.9308333483
 20
-6.6561779162
 30
0.0
 11
-23.9305586196
 21
-1.4976668035
 31
0.0
  0
LINE
  5
B9
330
74
100
AcDbEntity
  8
0
  6
Continuous
100
AcDbLine
 10
-23.9305586196
 20
-1.4976668035
 30
0.0
 11
-20.0432683672
 21
-10.0594590717
 31
0.0
  0
SPLINE
  5
BA
330
74
100
AcDbEntity
  8
0
100
AcDbSpline
210
0.0
220
0.0
230
1.0
 70
     8
 71
     3
 72
     8
 73
     4
 74
     0
 42
0.00000001
 43
0.00000001
 40
0.0
 40
0.0
 40
0.0
 40
0.0
 40
1.0
 40
1.0
 40
1.0
 40
1.0
 10
-13.86994560355125
 20
-6.597454742918429
 30
0.0
 10
-13.88373254946556
 20
-6.53373068413859
 30
0.0
 10
-15.11365515797402
 20
-0.8489574873494021
 30
0.0
 10
-15.79563263740206
 20
2.305574601061459
 30
0.0
  0
SPLINE
  5
BB
330
74
100
AcDbEntity
  8
0
100
AcDbSpline
210
0.0
220
0.0
230
1.0
 70
     8
 71
     3
 72
     8
 73
     4
 74
     0
 42
0.00000001
 43
0.00000001
 40
2.0
 40
2.0
 40
2.0
 40
2.0
 40
3.0
 40
3.0
 40
3.0
 40
3.0
 10
-18.06492886668426
 20
1.814603608696524
 30
0.0
 10
-17.24003965005502
 20
-1.995739949107536
 30
0.0
 10
-15.71186186991051
 20
-9.059523950669432
 30
0.0
 10
-15.69887855542093
 20
-9.119533578677906
 30
0.0
  0
SPLINE
  5
BC
330
74
100
AcDbEntity
  8
0
100
AcDbSpline
210
0.0
220
0.0
230
1.0
 70
     8
 71
     3
 72
     8
 73
     4
 74
     0
 42
0.00000001
 43
0.00000001
 40
0.0
 40
0.0
 40
0.0
 40
0.0
 40
1.0
 40
1.0
 40
1.0
 40
1.0
 10
-6.809537646582547
 20
-5.069709977697404
 30
0.0
 10
-7.284290309572815
 20
-2.875375801708635
 30
0.0
 10
-7.897830097865885
 20
-0.0390758678013329
 30
0.0
 10
-8.296070930952649
 20
1.80204897196991
 30
0.0
  0
SPLINE
  5
BD
330
74
100
AcDbEntity
  8
0
100
AcDbSpline
210
0.0
220
0.0
230
1.0
 70
     8
 71
     3
 72
     8
 73
     4
 74
     0
 42
0.00000001
 43
0.00000001
 40
2.0
 40
2.0
 40
2.0
 40
2.0
 40
3.0
 40
3.0
 40
3.0
 40
3.0
 10
-6.919811195494074
 20
2.099808074263809
 30
0.0
 10
-6.228016878711183
 20
2.249480443098069
 30
0.0
 10
-5.547633595833446
 20
1.815851349115847
 30
0.0
 10
-5.399398884916104
 20
1.130701970100344
 30
0.0
  0
SPLINE
  5
BE
330
74
100
AcDbEntity
  8
0
100
AcDbSpline
210
0.0
220
0.0
230
1.0
 70
     8
 71
     3
 72
     8
 73
     4
 74
     0
 42
0.00000001
 43
0.00000001
 40
3.0
 40
3.0
 40
3.0
 40
3.0
 40
4.0
 40
4.0
 40
4.0
 40
4.0
 10
-5.399398884916104
 20
1.130701970100344
 30
0.0
 10
-5.107009087764085
 20
-0.2207405274728672
 30
0.0
 10
-4.711497421058354
 20
-2.048334586467611
 30
0.0
 10
-4.449160707297047
 20
-3.260870000165379
 30
0.0
  0
SPLINE
  5
BF
330
74
100
AcDbEntity
  8
0
100
AcDbSpline
210
0.0
220
0.0
230
1.0
 70
     8
 71
     3
 72
     8
 73
     4
 74
     0
 42
0.00000001
 43
0.00000001
 40
4.0
 40
4.0
 40
4.0
 40
4.0
 40
5.0
 40
5.0
 40
5.0
 40
5.0
 10
-4.449160707297047
 20
-3.260870000165379
 30
0.0
 10
-4.300905507193207
 20
-3.946114081381999
 30
0.0
 10
-4.741570606399121
 20
-4.622385452066122
 30
0.0
 10
-5.433383135791953
 20
-4.771973641166296
 30
0.0
  0
SPLINE
  5
C0
330
74
100
AcDbEntity
  8
0
100
AcDbSpline
210
0.0
220
0.0
230
1.0
 70
     8
 71
     3
 72
     8
 73
     4
 74
     0
 42
0.00000001
 43
0.00000001
 40
3.0
 40
3.0
 40
3.0
 40
3.0
 40
4.0
 40
4.0
 40
4.0
 40
4.0
 10
-4.494024550545999
 20
-6.695320195210662
 30
0.0
 10
-2.825524345390513
 20
-6.334333740063992
 30
0.0
 10
-1.762658323115034
 20
-4.702068307882374
 30
0.0
 10
-2.120071189640999
 20
-3.049576315093403
 30
0.0
  0
SPLINE
  5
C1
330
74
100
AcDbEntity
  8
0
100
AcDbSpline
210
0.0
220
0.0
230
1.0
 70
     8
 71
     3
 72
     8
 73
     4
 74
     0
 42
0.00000001
 43
0.00000001
 40
4.0
 40
4.0
 40
4.0
 40
4.0
 40
5.0
 40
5.0
 40
5.0
 40
5.0
 10
-2.120071189640999
 20
-3.049576315093403
 30
0.0
 10
-2.485983017556096
 20
-1.358310753073632
 30
0.0
 10
-2.867352798370483
 20
0.4044023583376265
 30
0.0
 10
-3.190995488197396
 20
1.900704823656681
 30
0.0
  0
SPLINE
  5
C2
330
74
100
AcDbEntity
  8
0
100
AcDbSpline
210
0.0
220
0.0
230
1.0
 70
     8
 71
     3
 72
     8
 73
     4
 74
     0
 42
0.00000001
 43
0.00000001
 40
5.0
 40
5.0
 40
5.0
 40
5.0
 40
6.0
 40
6.0
 40
6.0
 40
6.0
 10
-3.190995488197396
 20
1.900704823656681
 30
0.0
 10
-3.54857504695031
 20
3.553458157285876
 30
0.0
 10
-5.190901218780231
 20
4.599949148191988
 30
0.0
 10
-6.859585567104196
 20
4.238922852960538
 30
0.0
  0
SPLINE
  5
C3
330
74
100
AcDbEntity
  8
0
100
AcDbSpline
210
0.0
220
0.0
230
1.0
 70
     8
 71
     3
 72
     8
 73
     4
 74
     0
 42
0.00000001
 43
0.00000001
 40
0.0
 40
0.0
 40
0.0
 40
0.0
 40
1.0
 40
1.0
 40
1.0
 40
1.0
 10
-30.23703582864644
 20
-6.251438951366732
 30
0.0
 10
-30.9104300186728
 20
-6.015603382360459
 30
0.0
 10
-31.40848551125485
 20
-5.893156856121871
 30
0.0
 10
-32.67210357750635
 20
-5.496689523479785
 30
0.0
  0
SPLINE
  5
C4
330
74
100
AcDbEntity
  8
0
100
AcDbSpline
210
0.0
220
0.0
230
1.0
 70
     8
 71
     3
 72
     8
 73
     4
 74
     0
 42
0.00000001
 43
0.00000001
 40
1.0
 40
1.0
 40
1.0
 40
1.0
 40
2.0
 40
2.0
 40
2.0
 40
2.0
 10
-32.67210357750635
 20
-5.496689523479785
 30
0.0
 10
-33.03332194555517
 20
-5.383421617718132
 30
0.0
 10
-33.81210282496122
 20
-5.206692347750555
 30
0.0
 10
-33.94849250952588
 20
-4.576291363356936
 30
0.0
  0
SPLINE
  5
C5
330
74
100
AcDbEntity
  8
0
100
AcDbSpline
210
0.0
220
0.0
230
1.0
 70
     8
 71
     3
 72
     8
 73
     4
 74
     0
 42
0.00000001
 43
0.00000001
 40
2.0
 40
2.0
 40
2.0
 40
2.0
 40
3.0
 40
3.0
 40
3.0
 40
3.0
 10
-33.94849250952588
 20
-4.576291363356936
 30
0.0
 10
-34.11622381965225
 20
-3.801027578894063
 30
0.0
 10
-33.67528356585564
 20
-3.448097454184924
 30
0.0
 10
-32.99335932290604
 20
-3.30056051389548
 30
0.0
  0
SPLINE
  5
C6
330
74
100
AcDbEntity
  8
0
100
AcDbSpline
210
0.0
220
0.0
230
1.0
 70
     8
 71
     3
 72
     8
 73
     4
 74
     0
 42
0.00000001
 43
0.00000001
 40
4.0
 40
4.0
 40
4.0
 40
4.0
 40
5.0
 40
5.0
 40
5.0
 40
5.0
 10
-32.85916630414497
 20
-3.271527336675416
 30
0.0
 10
-32.2786944245911
 20
-3.14594000653005
 30
0.0
 10
-31.77109773641243
 20
-3.328116480283148
 30
0.0
 10
-31.56977211870437
 20
-3.967820152272103
 30
0.0
  0
SPLINE
  5
C7
330
74
100
AcDbEntity
  8
0
100
AcDbSpline
210
0.0
220
0.0
230
1.0
 70
     8
 71
     3
 72
     8
 73
     4
 74
     0
 42
0.00000001
 43
0.00000001
 40
6.0
 40
6.0
 40
6.0
 40
6.0
 40
7.0
 40
7.0
 40
7.0
 40
7.0
 10
-29.29695612428625
 20
-3.476087645143529
 30
0.0
 10
-29.68810071971012
 20
-1.866802583842748
 30
0.0
 10
-30.87776107222441
 20
-0.7599478056671497
 30
0.0
 10
-33.27949204955325
 20
-1.266772121690862
 30
0.0
  0
SPLINE
  5
C8
330
74
100
AcDbEntity
  8
0
100
AcDbSpline
210
0.0
220
0.0
230
1.0
 70
     8
 71
     3
 72
     8
 73
     4
 74
     0
 42
0.00000001
 43
0.00000001
 40
8.0
 40
8.0
 40
8.0
 40
8.0
 40
9.0
 40
9.0
 40
9.0
 40
9.0
 10
-33.34488391931659
 20
-1.280919904944554
 30
0.0
 10
-35.81152992452102
 20
-1.828202838410209
 30
0.0
 10
-36.33378487826545
 20
-3.54465012997844
 30
0.0
 10
-36.09207577942843
 20
-4.962606301827474
 30
0.0
  0
SPLINE
  5
C9
330
74
100
AcDbEntity
  8
0
100
AcDbSpline
210
0.0
220
0.0
230
1.0
 70
     8
 71
     3
 72
     8
 73
     4
 74
     0
 42
0.00000001
 43
0.00000001
 40
9.0
 40
9.0
 40
9.0
 40
9.0
 40
10.0
 40
10.0
 40
10.0
 40
10.0
 10
-36.09207577942843
 20
-4.962606301827474
 30
0.0
 10
-35.83736690020325
 20
-6.457652824126185
 30
0.0
 10
-34.96800490008025
 20
-7.196828812263726
 30
0.0
 10
-33.99931718292642
 20
-7.502708028683521
 30
0.0
  0
SPLINE
  5
CA
330
74
100
AcDbEntity
  8
0
100
AcDbSpline
210
0.0
220
0.0
230
1.0
 70
     8
 71
     3
 72
     8
 73
     4
 74
     0
 42
0.00000001
 43
0.00000001
 40
10.0
 40
10.0
 40
10.0
 40
10.0
 40
11.0
 40
11.0
 40
11.0
 40
11.0
 10
-33.99931718292642
 20
-7.502708028683521
 30
0.0
 10
-33.40907414696034
 20
-7.689011641945549
 30
0.0
 10
-32.48616403135102
 20
-7.975318844696811
 30
0.0
 10
-31.47547483016511
 20
-8.271505052332133
 30
0.0
  0
SPLINE
  5
CB
330
74
100
AcDbEntity
  8
0
100
AcDbSpline
210
0.0
220
0.0
230
1.0
 70
     8
 71
     3
 72
     8
 73
     4
 74
     0
 42
0.00000001
 43
0.00000001
 40
11.0
 40
11.0
 40
11.0
 40
11.0
 40
12.0
 40
12.0
 40
12.0
 40
12.0
 10
-31.47547483016511
 20
-8.271505052332133
 30
0.0
 10
-31.11213516930565
 20
-8.377980375833697
 30
0.0
 10
-30.40258052645035
 20
-8.55729511966404
 30
0.0
 10
-30.28870163819746
 20
-9.336631754491275
 30
0.0
  0
SPLINE
  5
CC
330
74
100
AcDbEntity
  8
0
100
AcDbSpline
210
0.0
220
0.0
230
1.0
 70
     8
 71
     3
 72
     8
 73
     4
 74
     0
 42
0.00000001
 43
0.00000001
 40
12.0
 40
12.0
 40
12.0
 40
12.0
 40
13.0
 40
13.0
 40
13.0
 40
13.0
 10
-30.28870163819746
 20
-9.336631754491275
 30
0.0
 10
-30.1883718252622
 20
-10.02498578462436
 30
0.0
 10
-30.64014408852681
 20
-10.43662327702193
 30
0.0
 10
-31.32890793487913
 20
-10.58563999188937
 30
0.0
  0
SPLINE
  5
CD
330
74
100
AcDbEntity
  8
0
100
AcDbSpline
210
0.0
220
0.0
230
1.0
 70
     8
 71
     3
 72
     8
 73
     4
 74
     0
 42
0.00000001
 43
0.00000001
 40
14.0
 40
14.0
 40
14.0
 40
14.0
 40
15.0
 40
15.0
 40
15.0
 40
15.0
 10
-31.46505813246006
 20
-10.61509661229636
 30
0.0
 10
-32.05208024758041
 20
-10.74210111117219
 30
0.0
 10
-32.71260096537058
 20
-10.55064660173623
 30
0.0
 10
-32.8822392924921
 20
-9.937760156430087
 30
0.0
  0
SPLINE
  5
CE
330
74
100
AcDbEntity
  8
0
100
AcDbSpline
210
0.0
220
0.0
230
1.0
 70
     8
 71
     3
 72
     8
 73
     4
 74
     0
 42
0.00000001
 43
0.00000001
 40
16.0
 40
16.0
 40
16.0
 40
16.0
 40
17.0
 40
17.0
 40
17.0
 40
17.0
 10
-35.1888692338865
 20
-10.43680844141459
 30
0.0
 10
-34.81471685749703
 20
-11.8843133271045
 30
0.0
 10
-33.72975075395794
 20
-12.95131992706823
 30
0.0
 10
-31.59496833044066
 20
-12.72957879515504
 30
0.0
  0
SPLINE
  5
CF
330
74
100
AcDbEntity
  8
0
100
AcDbSpline
210
0.0
220
0.0
230
1.0
 70
     8
 71
     3
 72
     8
 73
     4
 74
     0
 42
0.00000001
 43
0.00000001
 40
18.0
 40
18.0
 40
18.0
 40
18.0
 40
19.0
 40
19.0
 40
19.0
 40
19.0
 10
-30.20639204762402
 20
-12.42915496033268
 30
0.0
 10
-28.36320980349184
 20
-11.79454394754582
 30
0.0
 10
-27.78707037380765
 20
-10.41512978795686
 30
0.0
 10
-27.91988511866083
 20
-9.073464993912006
 30
0.0
  0
SPLINE
  5
D0
330
74
100
AcDbEntity
  8
0
100
AcDbSpline
210
0.0
220
0.0
230
1.0
 70
     8
 71
     3
 72
     8
 73
     4
 74
     0
 42
0.00000001
 43
0.00000001
 40
19.0
 40
19.0
 40
19.0
 40
19.0
 40
20.0
 40
20.0
 40
20.0
 40
20.0
 10
-27.91988511866083
 20
-9.073464993912006
 30
0.0
 10
-28.12563217330358
 20
-6.994152508733083
 30
0.0
 10
-29.51271678483619
 20
-6.50510505043454
 30
0.0
 10
-30.23703582864644
 20
-6.251438951366732
 30
0.0
  0
HATCH
  5
D1
330
74
100
AcDbEntity
  8
0
100
AcDbHatch
 10
0.0
 20
0.0
 30
0.0
210
0.0
220
0.0
230
1.0
  2
SOLID
 70
     1
 71
     0
 91
        1
 92
        0
 93
        7
 72
     1
 10
-53.06293521179145
 20
-11.48017794540906
 11
-53.0628942334185
 21
-11.48036734981106
 72
     1
 10
-53.0628942334185
 20
-11.48036734981106
 11
-50.18135879739363
 21
-10.85693604353014
 72
     1
 10
-50.18135879739363
 20
-10.85693604353014
 11
-47.91273279754322
 21
-7.399227366744369
 72
     1
 10
-47.91273279754322
 20
-7.399227366744369
 11
-51.40738209617635
 21
-5.188811056417426
 72
     1
 10
-51.40738209617635
 20
-5.188811056417426
 11
-54.28910693660305
 21
-5.812283341071309
 72
     1
 10
-54.28910693660305
 20
-5.812283341071309
 11
-50.79453412756107
 21
-8.022804320319173
 72
     1
 10
-50.79453412756107
 20
-8.022804320319173
 11
-53.06293521179145
 21
-11.48017794540906
 97
        0
 75
     0
 76
     1
 98
        1
 10
0.0
 20
0.0
  0
HATCH
  5
D2
330
74
100
AcDbEntity
  8
0
100
AcDbHatch
 10
0.0
 20
0.0
 30
0.0
210
0.0
220
0.0
230
1.0
  2
SOLID
 70
     1
 71
     0
 91
        1
 92
        0
 93
        6
 72
     1
 10
-41.53588964704281
 20
-8.986455445432597
 11
-44.41771445090438
 21
-9.609949357561213
 72
     1
 10
-44.41771445090438
 20
-9.609949357561213
 11
-46.68624347197728
 21
-13.06764806762683
 72
     1
 10
-46.68624347197728
 20
-13.06764806762683
 11
-43.23827248082917
 21
-15.24865255879992
 72
     1
 10
-43.23827248082917
 20
-15.24865255879992
 11
-40.35645293820115
 21
-14.62515978495947
 72
     1
 10
-40.35645293820115
 20
-14.62515978495947
 11
-43.80454139731328
 21
-12.44407055830516
 72
     1
 10
-43.80454139731328
 20
-12.44407055830516
 11
-41.53588964704281
 21
-8.986455445432597
 97
        0
 75
     0
 76
     1
 98
        1
 10
0.0
 20
0.0
  0
HATCH
  5
D3
330
74
100
AcDbEntity
  8
0
100
AcDbHatch
 10
0.0
 20
0.0
 30
0.0
210
0.0
220
0.0
230
1.0
  2
SOLID
 70
     1
 71
     0
 91
        1
 92
        0
 93
       20
 72
     4
 94
        3
 73
     1
 74
     0
 95
        8
 96
        4
 40
18.0
 40
18.0
 40
18.0
 40
18.0
 40
19.0
 40
19.0
 40
19.0
 40
19.0
 10
-30.20639204762402
 20
-12.42915496033267
 42
1.0
 10
-28.36320980349188
 20
-11.79454394754584
 42
1.0
 10
-27.78707037380775
 20
-10.41512978795687
 42
1.0
 10
-27.91988511866085
 20
-9.073464993912015
 42
1.0
 72
     4
 94
        3
 73
     1
 74
     0
 95
        8
 96
        4
 40
19.0
 40
19.0
 40
19.0
 40
19.0
 40
20.0
 40
20.0
 40
20.0
 40
20.0
 10
-27.91988511866085
 20
-9.073464993912015
 42
1.0
 10
-28.1256321733036
 20
-6.994152508733093
 42
1.0
 10
-29.51271678483624
 20
-6.505105050434554
 42
1.0
 10
-30.23703582864647
 20
-6.251438951366739
 42
1.0
 72
     4
 94
        3
 73
     1
 74
     0
 95
        8
 96
        4
 40
0.0
 40
0.0
 40
0.0
 40
0.0
 40
1.0
 40
1.0
 40
1.0
 40
1.0
 10
-30.23703582864647
 20
-6.251438951366739
 42
1.0
 10
-30.91043001867278
 20
-6.015603382360466
 42
1.0
 10
-31.40848551125484
 20
-5.893156856121866
 42
1.0
 10
-32.67210357750633
 20
-5.496689523479784
 42
1.0
 72
     4
 94
        3
 73
     1
 74
     0
 95
        8
 96
        4
 40
1.0
 40
1.0
 40
1.0
 40
1.0
 40
2.0
 40
2.0
 40
2.0
 40
2.0
 10
-32.67210357750633
 20
-5.496689523479784
 42
1.0
 10
-33.03332194555515
 20
-5.383421617718138
 42
1.0
 10
-33.81210282496121
 20
-5.206692347750558
 42
1.0
 10
-33.94849250952591
 20
-4.576291363356954
 42
1.0
 72
     4
 94
        3
 73
     1
 74
     0
 95
        8
 96
        4
 40
2.0
 40
2.0
 40
2.0
 40
2.0
 40
3.0
 40
3.0
 40
3.0
 40
3.0
 10
-33.94849250952591
 20
-4.576291363356954
 42
1.0
 10
-34.11622381965228
 20
-3.801027578894066
 42
1.0
 10
-33.67528356585566
 20
-3.448097454184939
 42
1.0
 10
-32.99335932290605
 20
-3.300560513895483
 42
1.0
 72
     1
 10
-32.99335932290605
 20
-3.300560513895483
 11
-32.85916630414502
 21
-3.271527336675422
 72
     4
 94
        3
 73
     1
 74
     0
 95
        8
 96
        4
 40
4.0
 40
4.0
 40
4.0
 40
4.0
 40
5.0
 40
5.0
 40
5.0
 40
5.0
 10
-32.85916630414502
 20
-3.271527336675422
 42
1.0
 10
-32.27869442459117
 20
-3.145940006530068
 42
1.0
 10
-31.77109773641243
 20
-3.328116480283154
 42
1.0
 10
-31.5697721187044
 20
-3.967820152272114
 42
1.0
 72
     1
 10
-31.5697721187044
 20
-3.967820152272114
 11
-29.29695612428624
 21
-3.476087645143523
 72
     4
 94
        3
 73
     1
 74
     0
 95
        8
 96
        4
 40
6.0
 40
6.0
 40
6.0
 40
6.0
 40
7.0
 40
7.0
 40
7.0
 40
7.0
 10
-29.2969561242863
 20
-3.476087645143538
 42
1.0
 10
-29.6881007197101
 20
-1.866802583842747
 42
1.0
 10
-30.87776107222446
 20
-0.7599478056671519
 42
1.0
 10
-33.27949204955327
 20
-1.266772121690873
 42
1.0
 72
     1
 10
-33.27949204955321
 20
-1.266772121690857
 11
-33.3448839193166
 21
-1.280919904944549
 72
     4
 94
        3
 73
     1
 74
     0
 95
        8
 96
        4
 40
8.0
 40
8.0
 40
8.0
 40
8.0
 40
9.0
 40
9.0
 40
9.0
 40
9.0
 10
-33.34488391931666
 20
-1.280919904944565
 42
1.0
 10
-35.8115299245211
 20
-1.828202838410234
 42
1.0
 10
-36.3337848782655
 20
-3.544650129978449
 42
1.0
 10
-36.09207577942846
 20
-4.962606301827486
 42
1.0
 72
     4
 94
        3
 73
     1
 74
     0
 95
        8
 96
        4
 40
9.0
 40
9.0
 40
9.0
 40
9.0
 40
10.0
 40
10.0
 40
10.0
 40
10.0
 10
-36.09207577942846
 20
-4.962606301827486
 42
1.0
 10
-35.83736690020323
 20
-6.457652824126184
 42
1.0
 10
-34.96800490008029
 20
-7.196828812263736
 42
1.0
 10
-33.99931718292643
 20
-7.502708028683525
 42
1.0
 72
     4
 94
        3
 73
     1
 74
     0
 95
        8
 96
        4
 40
10.0
 40
10.0
 40
10.0
 40
10.0
 40
11.0
 40
11.0
 40
11.0
 40
11.0
 10
-33.99931718292643
 20
-7.502708028683525
 42
1.0
 10
-33.40907414696031
 20
-7.689011641945555
 42
1.0
 10
-32.48616403135106
 20
-7.975318844696822
 42
1.0
 10
-31.47547483016516
 20
-8.27150505233215
 42
1.0
 72
     4
 94
        3
 73
     1
 74
     0
 95
        8
 96
        4
 40
11.0
 40
11.0
 40
11.0
 40
11.0
 40
12.0
 40
12.0
 40
12.0
 40
12.0
 10
-31.47547483016516
 20
-8.27150505233215
 42
1.0
 10
-31.11213516930568
 20
-8.377980375833708
 42
1.0
 10
-30.40258052645039
 20
-8.557295119664056
 42
1.0
 10
-30.28870163819752
 20
-9.336631754491272
 42
1.0
 72
     4
 94
        3
 73
     1
 74
     0
 95
        8
 96
        4
 40
12.0
 40
12.0
 40
12.0
 40
12.0
 40
13.0
 40
13.0
 40
13.0
 40
13.0
 10
-30.28870163819752
 20
-9.336631754491272
 42
1.0
 10
-30.18837182526216
 20
-10.02498578462435
 42
1.0
 10
-30.64014408852681
 20
-10.43662327702195
 42
1.0
 10
-31.32890793487914
 20
-10.58563999188937
 42
1.0
 72
     1
 10
-31.32890793487914
 20
-10.58563999188937
 11
-31.46505813246008
 21
-10.61509661229637
 72
     4
 94
        3
 73
     1
 74
     0
 95
        8
 96
        4
 40
14.0
 40
14.0
 40
14.0
 40
14.0
 40
15.0
 40
15.0
 40
15.0
 40
15.0
 10
-31.46505813246008
 20
-10.61509661229637
 42
1.0
 10
-32.05208024758041
 20
-10.7421011111722
 42
1.0
 10
-32.71260096537064
 20
-10.55064660173623
 42
1.0
 10
-32.88223929249212
 20
-9.937760156430087
 42
1.0
 72
     1
 10
-32.88223929249212
 20
-9.937760156430087
 11
-35.18886923388655
 21
-10.43680844141459
 72
     4
 94
        3
 73
     1
 74
     0
 95
        8
 96
        4
 40
16.0
 40
16.0
 40
16.0
 40
16.0
 40
17.0
 40
17.0
 40
17.0
 40
17.0
 10
-35.18886923388649
 20
-10.43680844141459
 42
1.0
 10
-34.81471685749708
 20
-11.88431332710451
 42
1.0
 10
-33.72975075395801
 20
-12.95131992706824
 42
1.0
 10
-31.59496833044075
 20
-12.72957879515506
 42
1.0
 72
     1
 10
-31.59496833044068
 20
-12.72957879515504
 11
-30.20639204762409
 21
-12.42915496033269
 97
        0
 75
     0
 76
     1
 98
        1
 10
0.0
 20
0.0
  0
HATCH
  5
D4
330
74
100
AcDbEntity
  8
0
100
AcDbHatch
 10
0.0
 20
0.0
 30
0.0
210
0.0
220
0.0
230
1.0
  2
SOLID
 70
     1
 71
     0
 91
        1
 92
        0
 93
       11
 72
     1
 10
-23.93083334830058
 20
-6.656177916224847
 11
-23.9305586195879
 21
-1.497666803489873
 72
     1
 10
-23.9305586195879
 20
-1.497666803489873
 11
-20.04326836721582
 21
-10.05945907169815
 72
     1
 10
-20.04326836721582
 20
-10.05945907169815
 11
-17.66870538033285
 21
-9.545713210289948
 72
     1
 10
-17.66870538033285
 20
-9.545713210289948
 11
-22.39983793591613
 21
0.8767293108990284
 72
     1
 10
-22.39983793591613
 20
0.8767293108990277
 11
-26.30586704316552
 21
0.0316448471579831
 72
     1
 10
-26.30586704316552
 20
0.0316448471579831
 11
-26.30567237753049
 21
-11.41435433475813
 72
     1
 10
-26.30567237753049
 20
-11.41435433475813
 11
-23.93111465188077
 21
-10.90060961163804
 72
     1
 10
-23.93111465188077
 20
-10.90060961163804
 11
-23.93099314235586
 21
-8.782594625323274
 72
     1
 10
-23.93099314235586
 20
-8.782594625323274
 11
-22.27383089514867
 21
-8.42406118111162
 72
     1
 10
-22.27383089514867
 20
-8.42406118111162
 11
-22.7133102853523
 21
-6.392762105309743
 72
     1
 10
-22.7133102853523
 20
-6.392762105309743
 11
-23.93083334830058
 21
-6.656177916224847
 97
        0
 75
     0
 76
     1
 98
        1
 10
0.0
 20
0.0
  0
HATCH
  5
D5
330
74
100
AcDbEntity
  8
0
100
AcDbHatch
 10
0.0
 20
0.0
 30
0.0
210
0.0
220
0.0
230
1.0
  2
SOLID
 70
     1
 71
     0
 91
        1
 92
        0
 93
        6
 72
     1
 10
-15.79563263740209
 20
2.305574601061446
 11
-18.06492886668423
 21
1.814603608696526
 72
     4
 94
        3
 73
     1
 74
     0
 95
        8
 96
        4
 40
2.0
 40
2.0
 40
2.0
 40
2.0
 40
3.0
 40
3.0
 40
3.0
 40
3.0
 10
-18.06492886668423
 20
1.814603608696526
 42
1.0
 10
-17.240039650055
 20
-1.995739949107533
 42
1.0
 10
-15.71186186991055
 20
-9.059523950669437
 42
1.0
 10
-15.69887855542098
 20
-9.119533578677919
 42
1.0
 72
     1
 10
-15.69887855542092
 20
-9.119533578677903
 11
-10.22610149671526
 21
-7.93547715235816
 72
     1
 10
-10.22610149671526
 20
-7.93547715235816
 11
-10.66558088691882
 21
-5.904178076556605
 72
     1
 10
-10.66558088691882
 20
-5.904178076556605
 11
-13.86994560355126
 21
-6.597454742918437
 72
     4
 94
        3
 73
     1
 74
     0
 95
        8
 96
        4
 40
0.0
 40
0.0
 40
0.0
 40
0.0
 40
1.0
 40
1.0
 40
1.0
 40
1.0
 10
-13.86994560355126
 20
-6.597454742918437
 42
1.0
 10
-13.88373254946556
 20
-6.533730684138598
 42
1.0
 10
-15.1136551579741
 20
-0.8489574873494129
 42
1.0
 10
-15.79563263740209
 20
2.305574601061446
 42
1.0
 97
        0
 75
     0
 76
     1
 98
        1
 10
0.0
 20
0.0
  0
HATCH
  5
D6
330
74
100
AcDbEntity
  8
0
100
AcDbHatch
 10
0.0
 20
0.0
 30
0.0
210
0.0
220
0.0
230
1.0
  2
SOLID
 70
     1
 71
     0
 91
        1
 92
        0
 93
       11
 72
     1
 10
2.375028433631206
 20
-0.9648032523823513
 11
2.375208460142868
 21
4.193687371166118
 72
     1
 10
2.375208460142868
 20
4.193687371166118
 11
6.262509234981617
 21
-4.368102620465918
 72
     1
 10
6.262509234981617
 20
-4.368102620465917
 11
8.637061699398163
 21
-3.854359035633896
 72
     1
 10
8.637061699398163
 20
-3.854359035633896
 11
3.905939666281055
 21
6.568085762131229
 72
     1
 10
3.905939666281055
 20
6.56808576213123
 11
-0.0000000000001235
 21
5.723020649288631
 72
     1
 10
-0.0000000000001234
 20
5.723020649288631
 11
-0.000000000000185
 21
-5.723020649288538
 72
     1
 10
-0.000000000000185
 20
-5.723020649288538
 11
2.37465768908423
 21
-5.20925429869377
 72
     1
 10
2.37465768908423
 20
-5.20925429869377
 11
2.374784459841949
 21
-3.091238174090979
 72
     1
 10
2.374784459841949
 20
-3.091238174090979
 11
4.031830959914354
 21
-2.732729772218408
 72
     1
 10
4.031830959914354
 20
-2.732729772218408
 11
3.592351569710606
 21
-0.701430696416514
 72
     1
 10
3.592351569710606
 20
-0.7014306964165138
 11
2.375028433631206
 21
-0.9648032523823513
 97
        0
 75
     0
 76
     1
 98
        1
 10
0.0
 20
0.0
  0
HATCH
  5
D7
330
74
100
AcDbEntity
  8
0
100
AcDbHatch
 10
0.0
 20
0.0
 30
0.0
210
0.0
220
0.0
230
1.0
  2
SOLID
 70
     1
 71
     0
 91
        1
 92
        0
 93
        8
 72
     1
 10
-42.14906497721024
 20
-6.152323722221632
 11
-42.76219705242848
 21
-3.318391925879333
 72
     1
 10
-42.76219705242848
 20
-3.318391925879333
 11
-42.76249168149826
 21
-3.318455670015027
 72
     1
 10
-42.76249168149826
 20
-3.318455670015027
 11
-45.03079507887072
 21
-6.775797145163721
 72
     1
 10
-45.03079507887072
 20
-6.775797145163721
 11
-48.52545732888054
 21
-4.565295516814268
 72
     1
 10
-48.52545732888054
 20
-4.565295516814268
 11
-48.52574669671678
 21
-4.565358122661792
 72
     1
 10
-48.52574669671678
 20
-4.565358122661792
 11
-47.91261462149855
 21
-7.39928991900409
 72
     1
 10
-47.91261462149855
 20
-7.39928991900409
 11
-44.41773721666716
 21
-9.60984413289331
 72
     1
 10
-44.41773721666716
 20
-9.60984413289331
 11
-42.14906497721024
 21
-6.152323722221632
 97
        0
 75
     0
 76
     1
 98
        1
 10
0.0
 20
0.0
  0
HATCH
  5
D8
330
74
100
AcDbEntity
  8
0
100
AcDbHatch
 10
0.0
 20
0.0
 30
0.0
210
0.0
220
0.0
230
1.0
  2
SOLID
 70
     1
 71
     0
 91
        1
 92
        0
 93
        8
 72
     1
 10
-46.11999732125613
 20
-15.87212484345383
 11
-46.08139565189786
 21
-15.8637732233933
 72
     1
 10
-46.08139565189786
 20
-15.8637732233933
 11
-46.68636620117444
 21
-13.06756447043367
 72
     1
 10
-46.68636620117444
 20
-13.06756447043367
 11
-50.18135879739361
 21
-10.85693604353009
 72
     1
 10
-50.18135879739361
 20
-10.85693604353009
 11
-52.44976215820033
 21
-14.31429914615315
 72
     1
 10
-52.44976215820033
 20
-14.31429914615315
 11
-51.84475063055083
 21
-17.11069730351469
 72
     1
 10
-51.84475063055083
 20
-17.11069730351469
 11
-51.80633836559459
 21
-17.1023866618271
 72
     1
 10
-51.80633836559459
 20
-17.1023866618271
 11
-49.56818574380249
 21
-13.69105724427409
 72
     1
 10
-49.56818574380249
 20
-13.69105724427409
 11
-46.11999732125613
 21
-15.87212484345383
 97
        0
 75
     0
 76
     1
 98
        1
 10
0.0
 20
0.0
  0
HATCH
  5
D9
330
74
100
AcDbEntity
  8
0
100
AcDbHatch
 10
0.0
 20
0.0
 30
0.0
210
0.0
220
0.0
230
1.0
  2
SOLID
 70
     1
 71
     0
 91
        2
 92
        0
 93
        7
 72
     1
 10
-6.859585567104196
 20
4.238922852960538
 11
-11.00449045380928
 21
3.342156692939393
 72
     1
 10
-11.00449045380928
 20
3.342156692939393
 11
-8.638829473816639
 21
-7.592064727757185
 72
     1
 10
-8.638829473816639
 20
-7.592064727757185
 11
-8.63844014254617
 21
-7.591980494435086
 72
     1
 10
-8.63844014254617
 20
-7.591980494435086
 11
-4.494024550545999
 21
-6.695320195210662
 72
     4
 94
        3
 73
     1
 74
     0
 95
        8
 96
        4
 40
3.0
 40
3.0
 40
3.0
 40
3.0
 40
4.0
 40
4.0
 40
4.0
 40
4.0
 10
-4.494024550545999
 20
-6.695320195210662
 42
1.0
 10
-2.825524345390513
 20
-6.334333740063992
 42
1.0
 10
-1.762658323115034
 20
-4.702068307882374
 42
1.0
 10
-2.120071189640999
 20
-3.049576315093403
 42
1.0
 72
     4
 94
        3
 73
     1
 74
     0
 95
        8
 96
        4
 40
4.0
 40
4.0
 40
4.0
 40
4.0
 40
5.0
 40
5.0
 40
5.0
 40
5.0
 10
-2.120071189640999
 20
-3.049576315093403
 42
1.0
 10
-2.485983017556096
 20
-1.358310753073632
 42
1.0
 10
-2.867352798370483
 20
0.4044023583376265
 42
1.0
 10
-3.190995488197396
 20
1.900704823656681
 42
1.0
 72
     4
 94
        3
 73
     1
 74
     0
 95
        8
 96
        4
 40
5.0
 40
5.0
 40
5.0
 40
5.0
 40
6.0
 40
6.0
 40
6.0
 40
6.0
 10
-3.190995488197396
 20
1.900704823656681
 42
1.0
 10
-3.54857504695031
 20
3.553458157285876
 42
1.0
 10
-5.190901218780231
 20
4.599949148191988
 42
1.0
 10
-6.859585567104196
 20
4.238922852960538
 42
1.0
 97
        0
 92
        0
 93
        6
 72
     4
 94
        3
 73
     1
 74
     0
 95
        8
 96
        4
 40
2.0
 40
2.0
 40
2.0
 40
2.0
 40
3.0
 40
3.0
 40
3.0
 40
3.0
 10
-6.919811195494074
 20
2.099808074263809
 42
1.0
 10
-6.228016878711183
 20
2.249480443098069
 42
1.0
 10
-5.547633595833446
 20
1.815851349115847
 42
1.0
 10
-5.399398884916104
 20
1.130701970100344
 42
1.0
 72
     4
 94
        3
 73
     1
 74
     0
 95
        8
 96
        4
 40
3.0
 40
3.0
 40
3.0
 40
3.0
 40
4.0
 40
4.0
 40
4.0
 40
4.0
 10
-5.399398884916104
 20
1.130701970100344
 42
1.0
 10
-5.107009087764085
 20
-0.2207405274728672
 42
1.0
 10
-4.711497421058354
 20
-2.048334586467611
 42
1.0
 10
-4.449160707297047
 20
-3.260870000165379
 42
1.0
 72
     4
 94
        3
 73
     1
 74
     0
 95
        8
 96
        4
 40
4.0
 40
4.0
 40
4.0
 40
4.0
 40
5.0
 40
5.0
 40
5.0
 40
5.0
 10
-4.449160707297047
 20
-3.260870000165379
 42
1.0
 10
-4.300905507193207
 20
-3.946114081381999
 42
1.0
 10
-4.741570606399121
 20
-4.622385452066122
 42
1.0
 10
-5.433383135791953
 20
-4.771973641166296
 42
1.0
 72
     1
 10
-5.433383135791953
 20
-4.771973641166296
 11
-6.809537646582547
 21
-5.069709977697404
 72
     4
 94
        3
 73
     1
 74
     0
 95
        8
 96
        4
 40
0.0
 40
0.0
 40
0.0
 40
0.0
 40
1.0
 40
1.0
 40
1.0
 40
1.0
 10
-6.809537646582547
 20
-5.069709977697404
 42
1.0
 10
-7.284290309572815
 20
-2.875375801708635
 42
1.0
 10
-7.897830097865885
 20
-0.0390758678013329
 42
1.0
 10
-8.296070930952649
 20
1.80204897196991
 42
1.0
 72
     1
 10
-8.296070930952649
 20
1.80204897196991
 11
-6.919811195494074
 21
2.099808074263809
 97
        0
 75
     0
 76
     1
 98
        1
 10
0.0
 20
0.0
  0
ENDBLK
  5
76
330
74
100
AcDbEntity
  8
0
100
AcDbBlockEnd
  0
BLOCK
  5
277
330
276
100
AcDbEntity
  8
0
100
AcDbBlockBegin
  2
SW_CENTERMARKSYMBOL_0
 70
     0
 10
0.0
 20
0.0
 30
0.0
  3
SW_CENTERMARKSYMBOL_0
  1

  0
LINE
  5
279
330
276
100
AcDbEntity
  8
0
  6
Continuous
 62
     0
370
    18
100
AcDbLine
 10
0.0
 20
0.0
 30
0.0
 11
0.0
 21
2.5
 31
0.0
  0
LINE
  5
27A
330
276
100
AcDbEntity
  8
0
  6
Continuous
 62
     0
370
    18
100
AcDbLine
 10
0.0
 20
0.0
 30
0.0
 11
-2.5
 21
0.0
 31
0.0
  0
LINE
  5
27B
330
276
100
AcDbEntity
  8
0
  6
Continuous
 62
     0
370
    18
100
AcDbLine
 10
0.0
 20
0.0
 30
0.0
 11
0.0
 21
-2.5
 31
0.0
  0
LINE
  5
27C
330
276
100
AcDbEntity
  8
0
  6
Continuous
 62
     0
370
    18
100
AcDbLine
 10
0.0
 20
0.0
 30
0.0
 11
2.5
 21
0.0
 31
0.0
  0
LINE
  5
27D
330
276
100
AcDbEntity
  8
0
  6
Continuous
 62
     0
370
    18
100
AcDbLine
 10
0.0
 20
5.0
 30
0.0
 11
0.0
 21
51.9
 31
0.0
  0
LINE
  5
27E
330
276
100
AcDbEntity
  8
0
  6
Continuous
 62
     0
370
    18
100
AcDbLine
 10
-5.0
 20
0.0
 30
0.0
 11
-51.9
 21
0.0
 31
0.0
  0
LINE
  5
27F
330
276
100
AcDbEntity
  8
0
  6
Continuous
 62
     0
370
    18
100
AcDbLine
 10
0.0
 20
-5.0
 30
0.0
 11
0.0
 21
-51.9
 31
0.0
  0
LINE
  5
280
330
276
100
AcDbEntity
  8
0
  6
Continuous
 62
     0
370
    18
100
AcDbLine
 10
5.0
 20
0.0
 30
0.0
 11
51.9
 21
0.0
 31
0.0
  0
ENDBLK
  5
278
330
276
100
AcDbEntity
  8
0
100
AcDbBlockEnd
  0
ENDSEC
  0
SECTION
  2
ENTITIES
  0
LINE
  5
DA
330
1F
100
AcDbEntity
  8
0
100
AcDbLine
 10
219.3837026887
 20
291.1663813325
 30
0.0
 11
204.6729528567
 21
291.1663813325
 31
0.0
  0
LINE
  5
DB
330
1F
100
AcDbEntity
  8
0
100
AcDbLine
 10
198.018892373
 20
291.1663813325
 30
0.0
 11
82.6729528567
 21
291.1663813325
 31
0.0
  0
LINE
  5
DC
330
1F
100
AcDbEntity
  8
0
100
AcDbLine
 10
76.018892373
 20
291.1663813325
 30
0.0
 11
-16.5433818269
 21
291.1663813325
 31
0.0
  0
ARC
  5
DD
330
1F
100
AcDbEntity
  8
0
100
AcDbCircle
 10
-43.8798395691
 20
90.4663813325
 30
0.0
 40
0.2000000000000028
100
AcDbArc
 50
90.0
 51
180.0
  0
ARC
  5
DE
330
1F
100
AcDbEntity
  8
0
100
AcDbCircle
 10
-33.2798395691
 20
90.4663813325
 30
0.0
 40
0.2000000000000028
100
AcDbArc
 50
0.0
 51
90.0
  0
LINE
  5
DF
330
1F
100
AcDbEntity
  8
0
100
AcDbLine
 10
-44.0798395691
 20
90.4663813325
 30
0.0
 11
-44.0798395691
 21
89.8663813325
 31
0.0
  0
LINE
  5
E0
330
1F
100
AcDbEntity
  8
0
100
AcDbLine
 10
-33.0798395691
 20
89.8663813325
 30
0.0
 11
-33.0798395691
 21
90.4663813325
 31
0.0
  0
ARC
  5
E1
330
1F
100
AcDbEntity
  8
0
100
AcDbCircle
 10
-43.8798395691
 20
89.8663813325
 30
0.0
 40
0.2000000000000028
100
AcDbArc
 50
180.0
 51
270.0
  0
ARC
  5
E2
330
1F
100
AcDbEntity
  8
0
100
AcDbCircle
 10
-33.2798395691
 20
89.8663813325
 30
0.0
 40
0.2000000000000028
100
AcDbArc
 50
270.0
 51
0.0
  0
ARC
  5
E3
330
1F
100
AcDbEntity
  8
0
100
AcDbCircle
 10
-38.9699771066
 20
96.6568627136
 30
0.0
 40
7.999999999999998
100
AcDbArc
 50
287.1467397277
 51
299.0955287963
  0
ARC
  5
E4
330
1F
100
AcDbEntity
  8
0
100
AcDbCircle
 10
-38.1897020316
 20
96.6568627136
 30
0.0
 40
8.000000000000002
100
AcDbArc
 50
240.9044712037
 51
252.8515803462
  0
LINE
  5
E5
330
1F
100
AcDbEntity
  8
0
100
AcDbLine
 10
-33.0798395691
 20
291.8663813325
 30
0.0
 11
-33.0798395691
 21
292.4663813325
 31
0.0
  0
ARC
  5
E6
330
1F
100
AcDbEntity
  8
0
100
AcDbCircle
 10
-33.2798395691
 20
291.8663813325
 30
0.0
 40
0.2000000000000028
100
AcDbArc
 50
270.0
 51
0.0
  0
ARC
  5
E7
330
1F
100
AcDbEntity
  8
0
100
AcDbCircle
 10
-33.2798395691
 20
292.4663813325
 30
0.0
 40
0.2000000000000028
100
AcDbArc
 50
0.0
 51
90.0
  0
ARC
  5
E8
330
1F
100
AcDbEntity
  8
0
100
AcDbCircle
 10
-38.1897020316
 20
285.6758999513
 30
0.0
 40
7.999999999999997
100
AcDbArc
 50
107.1467397277
 51
119.0955287963
  0
ARC
  5
E9
330
1F
100
AcDbEntity
  8
0
100
AcDbCircle
 10
-38.9699771066
 20
285.6758999513
 30
0.0
 40
7.999999999999986
100
AcDbArc
 50
60.9044712037
 51
72.8515803462
  0
LINE
  5
EA
330
1F
100
AcDbEntity
  8
0
100
AcDbLine
 10
-36.4798395691
 20
291.1823793306
 30
0.0
 11
-36.4798395691
 21
291.6663813325
 31
0.0
  0
ARC
  5
EB
330
1F
100
AcDbEntity
  8
0
100
AcDbCircle
 10
236.1201604309
 20
90.4663813325
 30
0.0
 40
0.2000000000000171
100
AcDbArc
 50
90.0
 51
180.0
  0
ARC
  5
EC
330
1F
100
AcDbEntity
  8
0
100
AcDbCircle
 10
246.7201604309
 20
90.4663813325
 30
0.0
 40
0.2000000000000171
100
AcDbArc
 50
0.0
 51
90.0
  0
LINE
  5
ED
330
1F
100
AcDbEntity
  8
0
100
AcDbLine
 10
235.9201604309
 20
90.4663813325
 30
0.0
 11
235.9201604309
 21
89.8663813325
 31
0.0
  0
LINE
  5
EE
330
1F
100
AcDbEntity
  8
0
100
AcDbLine
 10
246.9201604309
 20
89.8663813325
 30
0.0
 11
246.9201604309
 21
90.4663813325
 31
0.0
  0
ARC
  5
EF
330
1F
100
AcDbEntity
  8
0
100
AcDbCircle
 10
236.1201604309
 20
89.8663813325
 30
0.0
 40
0.2000000000000171
100
AcDbArc
 50
180.0
 51
270.0
  0
ARC
  5
F0
330
1F
100
AcDbEntity
  8
0
100
AcDbCircle
 10
246.7201604309
 20
89.8663813325
 30
0.0
 40
0.2000000000000171
100
AcDbArc
 50
270.0
 51
0.0
  0
ARC
  5
F1
330
1F
100
AcDbEntity
  8
0
100
AcDbCircle
 10
241.0300228934
 20
96.6568627136
 30
0.0
 40
8.000000000000005
100
AcDbArc
 50
287.1467397277
 51
299.0955287963
  0
ARC
  5
F2
330
1F
100
AcDbEntity
  8
0
100
AcDbCircle
 10
241.8102979684
 20
96.6568627136
 30
0.0
 40
8.000000000000005
100
AcDbArc
 50
240.9044712037
 51
252.8515803462
  0
ARC
  5
F3
330
1F
100
AcDbEntity
  8
0
100
AcDbCircle
 10
246.7201604309
 20
291.8663813325
 30
0.0
 40
0.2000000000000171
100
AcDbArc
 50
270.0
 51
0.0
  0
ARC
  5
F4
330
1F
100
AcDbEntity
  8
0
100
AcDbCircle
 10
236.1201604309
 20
291.8663813325
 30
0.0
 40
0.2000000000000171
100
AcDbArc
 50
180.0
 51
270.0
  0
LINE
  5
F5
330
1F
100
AcDbEntity
  8
0
100
AcDbLine
 10
246.9201604309
 20
291.8663813325
 30
0.0
 11
246.9201604309
 21
292.4663813325
 31
0.0
  0
LINE
  5
F6
330
1F
100
AcDbEntity
  8
0
100
AcDbLine
 10
235.9201604309
 20
292.4663813325
 30
0.0
 11
235.9201604309
 21
291.8663813325
 31
0.0
  0
ARC
  5
F7
330
1F
100
AcDbEntity
  8
0
100
AcDbCircle
 10
246.7201604309
 20
292.4663813325
 30
0.0
 40
0.2000000000000171
100
AcDbArc
 50
0.0
 51
90.0
  0
ARC
  5
F8
330
1F
100
AcDbEntity
  8
0
100
AcDbCircle
 10
236.1201604309
 20
292.4663813325
 30
0.0
 40
0.2000000000000171
100
AcDbArc
 50
90.0
 51
180.0
  0
ARC
  5
F9
330
1F
100
AcDbEntity
  8
0
100
AcDbCircle
 10
241.8102979684
 20
285.6758999513
 30
0.0
 40
7.999999999999997
100
AcDbArc
 50
107.1467397277
 51
119.0955287963
  0
ARC
  5
FA
330
1F
100
AcDbEntity
  8
0
100
AcDbCircle
 10
241.0300228934
 20
285.6758999513
 30
0.0
 40
7.999999999999993
100
AcDbArc
 50
60.9044712037
 51
72.8515803462
  0
LINE
  5
FB
330
1F
100
AcDbEntity
  8
0
100
AcDbLine
 10
243.5201604309
 20
291.1823793306
 30
0.0
 11
243.5201604309
 21
291.6663813325
 31
0.0
  0
LINE
  5
FC
330
1F
100
AcDbEntity
  8
0
100
AcDbLine
 10
239.3201604309
 20
291.6663813325
 30
0.0
 11
239.3201604309
 21
291.1823793306
 31
0.0
  0
ARC
  5
FD
330
1F
100
AcDbEntity
  8
0
100
AcDbCircle
 10
336.0848466442
 20
248.0663813325
 30
0.0
 40
0.5000000000000294
100
AcDbArc
 50
4.9871394293
 51
180.0
  0
ARC
  5
FE
330
1F
100
AcDbEntity
  8
0
100
AcDbCircle
 10
336.0848466442
 20
134.2663813325
 30
0.0
 40
0.500000000000032
100
AcDbArc
 50
180.0
 51
355.0128605707
  0
ARC
  5
FF
330
1F
100
AcDbEntity
  8
0
100
AcDbCircle
 10
331.8848466442
 20
248.0663813325
 30
0.0
 40
0.500000000000032
100
AcDbArc
 50
4.9871394293
 51
180.0
  0
ARC
  5
100
330
1F
100
AcDbEntity
  8
0
100
AcDbCircle
 10
331.8848466442
 20
134.2663813325
 30
0.0
 40
0.5000000000000568
100
AcDbArc
 50
180.0
 51
355.0128605707
  0
LINE
  5
101
330
1F
100
AcDbEntity
  8
0
100
AcDbLine
 10
332.3829537622
 20
134.2229152648
 30
0.0
 11
333.0649275002
 21
142.0381143663
 31
0.0
  0
LINE
  5
102
330
1F
100
AcDbEntity
  8
0
100
AcDbLine
 10
333.0649275002
 20
240.2946482986
 30
0.0
 11
332.3829537622
 21
248.1098474001
 31
0.0
  0
LINE
  5
103
330
1F
100
AcDbEntity
  8
0
100
AcDbLine
 10
336.5829537622
 20
134.2229152648
 30
0.0
 11
337.2649275002
 21
142.0381143663
 31
0.0
  0
LINE
  5
104
330
1F
100
AcDbEntity
  8
0
100
AcDbLine
 10
337.2649275002
 20
240.2946482986
 30
0.0
 11
336.5829537622
 21
248.1098474001
 31
0.0
  0
ARC
  5
105
330
1F
100
AcDbEntity
  8
0
100
AcDbCircle
 10
337.5139810592
 20
240.3163813325
 30
0.0
 40
0.2500000000000443
100
AcDbArc
 50
184.9871394293
 51
270.0
  0
ARC
  5
106
330
1F
100
AcDbEntity
  8
0
100
AcDbCircle
 10
337.5139810592
 20
142.0163813325
 30
0.0
 40
0.2500000000000284
100
AcDbArc
 50
90.0
 51
175.0128605707
  0
ARC
  5
107
330
1F
100
AcDbEntity
  8
0
100
AcDbCircle
 10
333.3139810592
 20
240.3163813325
 30
0.0
 40
0.2500000000000467
100
AcDbArc
 50
184.9871394293
 51
270.0
  0
ARC
  5
108
330
1F
100
AcDbEntity
  8
0
100
AcDbCircle
 10
333.3139810592
 20
142.0163813325
 30
0.0
 40
0.25
100
AcDbArc
 50
90.0
 51
175.0128605707
  0
LINE
  5
109
330
1F
100
AcDbEntity
  8
0
100
AcDbLine
 10
338.6348466442
 20
240.0663813325
 30
0.0
 11
337.5139810592
 21
240.0663813325
 31
0.0
  0
LINE
  5
10A
330
1F
100
AcDbEntity
  8
0
100
AcDbLine
 10
337.5139810592
 20
142.2663813325
 30
0.0
 11
338.6348466442
 21
142.2663813325
 31
0.0
  0
LINE
  5
10B
330
1F
100
AcDbEntity
  8
0
100
AcDbLine
 10
335.5848466442
 20
240.0663813325
 30
0.0
 11
333.3139810592
 21
240.0663813325
 31
0.0
  0
LINE
  5
10C
330
1F
100
AcDbEntity
  8
0
100
AcDbLine
 10
333.3139810592
 20
142.2663813325
 30
0.0
 11
335.5848466442
 21
142.2663813325
 31
0.0
  0
ARC
  5
10D
330
1F
100
AcDbEntity
  8
0
100
AcDbCircle
 10
-133.2445257824
 20
134.2663813325
 30
0.0
 40
0.5000000000000037
100
AcDbArc
 50
184.9871394293
 51
0.0
  0
ARC
  5
10E
330
1F
100
AcDbEntity
  8
0
100
AcDbCircle
 10
-133.2445257824
 20
248.0663813325
 30
0.0
 40
0.5000000000000011
100
AcDbArc
 50
0.0
 51
175.0128605707
  0
ARC
  5
10F
330
1F
100
AcDbEntity
  8
0
100
AcDbCircle
 10
-129.0445257824
 20
134.2663813325
 30
0.0
 40
0.5000000000000011
100
AcDbArc
 50
184.9871394293
 51
0.0
  0
ARC
  5
110
330
1F
100
AcDbEntity
  8
0
100
AcDbCircle
 10
-129.0445257824
 20
248.0663813325
 30
0.0
 40
0.500000000000032
100
AcDbArc
 50
0.0
 51
175.0128605707
  0
LINE
  5
111
330
1F
100
AcDbEntity
  8
0
100
AcDbLine
 10
-129.5426329004
 20
248.1098474001
 30
0.0
 11
-130.2246066384
 21
240.2946482986
 31
0.0
  0
LINE
  5
112
330
1F
100
AcDbEntity
  8
0
100
AcDbLine
 10
-130.2246066384
 20
142.0381143663
 30
0.0
 11
-129.5426329004
 21
134.2229152648
 31
0.0
  0
LINE
  5
113
330
1F
100
AcDbEntity
  8
0
100
AcDbLine
 10
-133.7426329004
 20
248.1098474001
 30
0.0
 11
-134.4246066384
 21
240.2946482986
 31
0.0
  0
LINE
  5
114
330
1F
100
AcDbEntity
  8
0
100
AcDbLine
 10
-134.4246066384
 20
142.0381143663
 30
0.0
 11
-133.7426329004
 21
134.2229152648
 31
0.0
  0
ARC
  5
115
330
1F
100
AcDbEntity
  8
0
100
AcDbCircle
 10
-134.6736601974
 20
142.0163813325
 30
0.0
 40
0.2500000000000284
100
AcDbArc
 50
4.9871394293
 51
90.0
  0
ARC
  5
116
330
1F
100
AcDbEntity
  8
0
100
AcDbCircle
 10
-134.6736601974
 20
240.3163813325
 30
0.0
 40
0.25
100
AcDbArc
 50
270.0
 51
355.0128605707
  0
ARC
  5
117
330
1F
100
AcDbEntity
  8
0
100
AcDbCircle
 10
-130.4736601974
 20
142.0163813325
 30
0.0
 40
0.250000000000016
100
AcDbArc
 50
4.9871394293
 51
90.0
  0
ARC
  5
118
330
1F
100
AcDbEntity
  8
0
100
AcDbCircle
 10
-130.4736601974
 20
240.3163813325
 30
0.0
 40
0.25
100
AcDbArc
 50
270.0
 51
355.0128605707
  0
LINE
  5
119
330
1F
100
AcDbEntity
  8
0
100
AcDbLine
 10
-132.7445257824
 20
142.2663813325
 30
0.0
 11
-130.4736601974
 21
142.2663813325
 31
0.0
  0
LINE
  5
11A
330
1F
100
AcDbEntity
  8
0
100
AcDbLine
 10
-130.4736601974
 20
240.0663813325
 30
0.0
 11
-132.7445257824
 21
240.0663813325
 31
0.0
  0
LINE
  5
11B
330
1F
100
AcDbEntity
  8
0
100
AcDbLine
 10
-135.7945257824
 20
142.2663813325
 30
0.0
 11
-134.6736601974
 21
142.2663813325
 31
0.0
  0
LINE
  5
11C
330
1F
100
AcDbEntity
  8
0
100
AcDbLine
 10
-134.6736601974
 20
240.0663813325
 30
0.0
 11
-135.7945257824
 21
240.0663813325
 31
0.0
  0
ARC
  5
11D
330
1F
100
AcDbEntity
  8
0
100
AcDbCircle
 10
254.6314685756
 20
290.4663813325
 30
0.0
 40
2.750000000000012
100
AcDbArc
 50
8.8498830984
 51
171.1501169016
  0
ARC
  5
11E
330
1F
100
AcDbEntity
  8
0
100
AcDbCircle
 10
254.6314685756
 20
91.8663813325
 30
0.0
 40
2.750000000000018
100
AcDbArc
 50
188.8498830984
 51
351.1501169016
  0
ARC
  5
11F
330
1F
100
AcDbEntity
  8
0
100
AcDbCircle
 10
251.4201604309
 20
290.9663813325
 30
0.0
 40
0.5
100
AcDbArc
 50
270.0
 51
351.1501169016
  0
ARC
  5
120
330
1F
100
AcDbEntity
  8
0
100
AcDbCircle
 10
251.4201604309
 20
91.3663813325
 30
0.0
 40
0.5000000000000363
100
AcDbArc
 50
8.8498830984
 51
90.0
  0
ARC
  5
121
330
1F
100
AcDbEntity
  8
0
100
AcDbCircle
 10
257.8427767202
 20
290.9663813325
 30
0.0
 40
0.5000000000000103
100
AcDbArc
 50
188.8498830984
 51
270.0
  0
ARC
  5
122
330
1F
100
AcDbEntity
  8
0
100
AcDbCircle
 10
257.8427767202
 20
91.3663813325
 30
0.0
 40
0.5000000000000142
100
AcDbArc
 50
90.0
 51
171.1501169016
  0
ARC
  5
123
330
1F
100
AcDbEntity
  8
0
100
AcDbCircle
 10
257.4201604309
 20
281.7163813325
 30
0.0
 40
8.75000000000002
100
AcDbArc
 50
20.0
 51
87.231593822
  0
ARC
  5
124
330
1F
100
AcDbEntity
  8
0
100
AcDbCircle
 10
257.4201604309
 20
100.6163813325
 30
0.0
 40
8.750000000000032
100
AcDbArc
 50
272.768406178
 51
340.0
  0
LINE
  5
125
330
1F
100
AcDbEntity
  8
0
100
AcDbLine
 10
265.6424708628
 20
97.6237050784
 30
0.0
 11
280.1353057819
 21
137.4424417624
 31
0.0
  0
LINE
  5
126
330
1F
100
AcDbEntity
  8
0
100
AcDbLine
 10
280.1353057819
 20
244.8903209025
 30
0.0
 11
265.6424708628
 21
284.7090575866
 31
0.0
  0
ARC
  5
127
330
1F
100
AcDbEntity
  8
0
100
AcDbCircle
 10
282.9543836442
 20
245.9163813325
 30
0.0
 40
2.999999999999956
100
AcDbArc
 50
200.0
 51
255.0144580231
  0
ARC
  5
128
330
1F
100
AcDbEntity
  8
0
100
AcDbCircle
 10
282.9543836442
 20
136.4163813325
 30
0.0
 40
3.000000000000009
100
AcDbArc
 50
90.0
 51
160.0
  0
ARC
  5
129
330
1F
100
AcDbEntity
  8
0
100
AcDbCircle
 10
299.6348466442
 20
240.5663813325
 30
0.0
 40
2.750000000000016
100
AcDbArc
 50
8.8498830984
 51
171.1501169016
  0
ARC
  5
12A
330
1F
100
AcDbEntity
  8
0
100
AcDbCircle
 10
299.6348466442
 20
141.7663813325
 30
0.0
 40
2.750000000000016
100
AcDbArc
 50
188.8498830984
 51
351.1501169016
  0
LINE
  5
12B
330
1F
100
AcDbEntity
  8
0
100
AcDbLine
 10
292.3873963461
 20
242.9163813325
 30
0.0
 11
283.3266969974
 21
242.9163813325
 31
0.0
  0
LINE
  5
12C
330
1F
100
AcDbEntity
  8
0
100
AcDbLine
 10
282.9543836442
 20
139.4163813325
 30
0.0
 11
292.3873963461
 21
139.4163813325
 31
0.0
  0
LINE
  5
12D
330
1F
100
AcDbEntity
  8
0
100
AcDbLine
 10
292.3873963461
 20
139.4163813325
 30
0.0
 11
293.7441694787
 21
141.7663813325
 31
0.0
  0
LINE
  5
12E
330
1F
100
AcDbEntity
  8
0
100
AcDbLine
 10
293.7441694787
 20
240.5663813325
 30
0.0
 11
292.3873963461
 21
242.9163813325
 31
0.0
  0
ARC
  5
12F
330
1F
100
AcDbEntity
  8
0
100
AcDbCircle
 10
302.8461547889
 20
241.0663813325
 30
0.0
 40
0.500000000000006
100
AcDbArc
 50
188.8498830984
 51
270.0
  0
ARC
  5
130
330
1F
100
AcDbEntity
  8
0
100
AcDbCircle
 10
302.8461547889
 20
141.2663813325
 30
0.0
 40
0.5000000000000103
100
AcDbArc
 50
90.0
 51
171.1501169016
  0
ARC
  5
131
330
1F
100
AcDbEntity
  8
0
100
AcDbCircle
 10
296.4235384996
 20
241.0663813325
 30
0.0
 40
0.5000000000000622
100
AcDbArc
 50
270.0
 51
351.1501169016
  0
ARC
  5
132
330
1F
100
AcDbEntity
  8
0
100
AcDbCircle
 10
296.4235384996
 20
141.2663813325
 30
0.0
 40
0.5000000000000665
100
AcDbArc
 50
8.8498830984
 51
90.0
  0
LINE
  5
133
330
1F
100
AcDbEntity
  8
0
100
AcDbLine
 10
296.4235384996
 20
240.5663813325
 30
0.0
 11
293.7441694787
 21
240.5663813325
 31
0.0
  0
LINE
  5
134
330
1F
100
AcDbEntity
  8
0
100
AcDbLine
 10
293.7441694787
 20
141.7663813325
 30
0.0
 11
296.4235384996
 21
141.7663813325
 31
0.0
  0
LINE
  5
135
330
1F
100
AcDbEntity
  8
0
100
AcDbLine
 10
343.3348466442
 20
240.5663813325
 30
0.0
 11
338.6348466442
 21
240.5663813325
 31
0.0
  0
LINE
  5
136
330
1F
100
AcDbEntity
  8
0
100
AcDbLine
 10
338.6348466442
 20
141.7663813325
 30
0.0
 11
343.3348466442
 21
141.7663813325
 31
0.0
  0
LINE
  5
137
330
1F
100
AcDbEntity
  8
0
100
AcDbLine
 10
325.9756689673
 20
141.7663813325
 30
0.0
 11
331.3848466442
 21
143.8134874487
 31
0.0
  0
LINE
  5
138
330
1F
100
AcDbEntity
  8
0
100
AcDbLine
 10
331.3848466442
 20
238.5192752162
 30
0.0
 11
325.9756689673
 21
240.5663813325
 31
0.0
  0
ARC
  5
139
330
1F
100
AcDbEntity
  8
0
100
AcDbCircle
 10
343.3348466442
 20
239.2663813325
 30
0.0
 40
1.299999999983754
100
AcDbArc
 50
0.0
 51
90.0
  0
ARC
  5
13A
330
1F
100
AcDbEntity
  8
0
100
AcDbCircle
 10
343.3348466442
 20
143.0663813324
 30
0.0
 40
1.299999999983754
100
AcDbArc
 50
270.0
 51
0.0
  0
LINE
  5
13B
330
1F
100
AcDbEntity
  8
0
100
AcDbLine
 10
325.9756689673
 20
240.5663813325
 30
0.0
 11
302.8461547889
 21
240.5663813325
 31
0.0
  0
LINE
  5
13C
330
1F
100
AcDbEntity
  8
0
100
AcDbLine
 10
302.8461547889
 20
141.7663813325
 30
0.0
 11
325.9756689673
 21
141.7663813325
 31
0.0
  0
ARC
  5
13D
330
1F
100
AcDbEntity
  8
0
100
AcDbCircle
 10
-51.7911477138
 20
91.8663813325
 30
0.0
 40
2.750000000000004
100
AcDbArc
 50
188.8498830984
 51
351.1501169016
  0
ARC
  5
13E
330
1F
100
AcDbEntity
  8
0
100
AcDbCircle
 10
-51.7911477138
 20
290.4663813325
 30
0.0
 40
2.749999999999998
100
AcDbArc
 50
8.8498830984
 51
171.1501169016
  0
ARC
  5
13F
330
1F
100
AcDbEntity
  8
0
100
AcDbCircle
 10
-48.5798395691
 20
91.3663813325
 30
0.0
 40
0.5
100
AcDbArc
 50
90.0
 51
171.1501169016
  0
ARC
  5
140
330
1F
100
AcDbEntity
  8
0
100
AcDbCircle
 10
-48.5798395691
 20
290.9663813325
 30
0.0
 40
0.5
100
AcDbArc
 50
188.8498830984
 51
270.0
  0
ARC
  5
141
330
1F
100
AcDbEntity
  8
0
100
AcDbCircle
 10
-55.0024558584
 20
91.3663813325
 30
0.0
 40
0.5000000000000142
100
AcDbArc
 50
8.8498830984
 51
90.0
  0
ARC
  5
142
330
1F
100
AcDbEntity
  8
0
100
AcDbCircle
 10
-55.0024558584
 20
290.9663813325
 30
0.0
 40
0.5
100
AcDbArc
 50
270.0
 51
351.1501169016
  0
ARC
  5
143
330
1F
100
AcDbEntity
  8
0
100
AcDbCircle
 10
-54.5798395691
 20
100.6163813325
 30
0.0
 40
8.75000000000001
100
AcDbArc
 50
200.0
 51
267.231593822
  0
ARC
  5
144
330
1F
100
AcDbEntity
  8
0
100
AcDbCircle
 10
-54.5798395691
 20
281.7163813325
 30
0.0
 40
8.750000000000021
100
AcDbArc
 50
92.768406178
 51
160.0
  0
LINE
  5
145
330
1F
100
AcDbEntity
  8
0
100
AcDbLine
 10
-62.802150001
 20
284.7090575866
 30
0.0
 11
-77.2949849201
 21
244.8903209025
 31
0.0
  0
LINE
  5
146
330
1F
100
AcDbEntity
  8
0
100
AcDbLine
 10
-77.2949849201
 20
137.4424417624
 30
0.0
 11
-62.802150001
 21
97.6237050784
 31
0.0
  0
ARC
  5
147
330
1F
100
AcDbEntity
  8
0
100
AcDbCircle
 10
-80.1140627824
 20
136.4163813325
 30
0.0
 40
3.0
100
AcDbArc
 50
20.0
 51
90.0
  0
ARC
  5
148
330
1F
100
AcDbEntity
  8
0
100
AcDbCircle
 10
-80.1140627824
 20
245.9163813325
 30
0.0
 40
3.0
100
AcDbArc
 50
270.0
 51
340.0
  0
ARC
  5
149
330
1F
100
AcDbEntity
  8
0
100
AcDbCircle
 10
-96.7945257824
 20
141.7663813325
 30
0.0
 40
2.750000000000002
100
AcDbArc
 50
188.8498830984
 51
351.1501169016
  0
ARC
  5
14A
330
1F
100
AcDbEntity
  8
0
100
AcDbCircle
 10
-96.7945257824
 20
240.5663813325
 30
0.0
 40
2.750000000000006
100
AcDbArc
 50
8.8498830984
 51
171.1501169016
  0
LINE
  5
14B
330
1F
100
AcDbEntity
  8
0
100
AcDbLine
 10
-89.5470754843
 20
139.4163813325
 30
0.0
 11
-80.1140627824
 21
139.4163813325
 31
0.0
  0
LINE
  5
14C
330
1F
100
AcDbEntity
  8
0
100
AcDbLine
 10
-80.1140627824
 20
242.9163813325
 30
0.0
 11
-82.6733030026
 21
242.9163813325
 31
0.0
  0
LINE
  5
14D
330
1F
100
AcDbEntity
  8
0
100
AcDbLine
 10
-88.215467308
 20
242.9163813325
 30
0.0
 11
-89.5470754843
 21
242.9163813325
 31
0.0
  0
LINE
  5
14E
330
1F
100
AcDbEntity
  8
0
100
AcDbLine
 10
-89.5470754843
 20
242.9163813325
 30
0.0
 11
-90.9038486169
 21
240.5663813325
 31
0.0
  0
LINE
  5
14F
330
1F
100
AcDbEntity
  8
0
100
AcDbLine
 10
-90.9038486169
 20
141.7663813325
 30
0.0
 11
-89.5470754843
 21
139.4163813325
 31
0.0
  0
ARC
  5
150
330
1F
100
AcDbEntity
  8
0
100
AcDbCircle
 10
-93.5832176378
 20
141.2663813325
 30
0.0
 40
0.5000000000000103
100
AcDbArc
 50
90.0
 51
171.1501169016
  0
ARC
  5
151
330
1F
100
AcDbEntity
  8
0
100
AcDbCircle
 10
-93.5832176378
 20
241.0663813325
 30
0.0
 40
0.5
100
AcDbArc
 50
188.8498830984
 51
270.0
  0
ARC
  5
152
330
1F
100
AcDbEntity
  8
0
100
AcDbCircle
 10
-100.0058339271
 20
141.2663813325
 30
0.0
 40
0.5
100
AcDbArc
 50
8.8498830984
 51
90.0
  0
ARC
  5
153
330
1F
100
AcDbEntity
  8
0
100
AcDbCircle
 10
-100.0058339271
 20
241.0663813325
 30
0.0
 40
0.5000000000000201
100
AcDbArc
 50
270.0
 51
351.1501169016
  0
LINE
  5
154
330
1F
100
AcDbEntity
  8
0
100
AcDbLine
 10
-123.1353481055
 20
240.5663813325
 30
0.0
 11
-128.5445257824
 21
238.5192752162
 31
0.0
  0
LINE
  5
155
330
1F
100
AcDbEntity
  8
0
100
AcDbLine
 10
-128.5445257824
 20
143.8134874487
 30
0.0
 11
-123.1353481055
 21
141.7663813325
 31
0.0
  0
ARC
  5
156
330
1F
100
AcDbEntity
  8
0
100
AcDbCircle
 10
-140.4945257824
 20
143.0663813324
 30
0.0
 40
1.299999999983754
100
AcDbArc
 50
180.0
 51
270.0
  0
ARC
  5
157
330
1F
100
AcDbEntity
  8
0
100
AcDbCircle
 10
-140.4945257824
 20
239.2663813325
 30
0.0
 40
1.299999999983754
100
AcDbArc
 50
90.0
 51
180.0
  0
LINE
  5
158
330
1F
100
AcDbEntity
  8
0
100
AcDbLine
 10
-140.4945257824
 20
141.7663813325
 30
0.0
 11
-135.7945257824
 21
141.7663813325
 31
0.0
  0
LINE
  5
159
330
1F
100
AcDbEntity
  8
0
100
AcDbLine
 10
-135.7945257824
 20
240.5663813325
 30
0.0
 11
-140.4945257824
 21
240.5663813325
 31
0.0
  0
LINE
  5
15A
330
1F
100
AcDbEntity
  8
0
100
AcDbLine
 10
-93.5832176378
 20
141.7663813325
 30
0.0
 11
-90.9038486169
 21
141.7663813325
 31
0.0
  0
LINE
  5
15B
330
1F
100
AcDbEntity
  8
0
100
AcDbLine
 10
-90.9038486169
 20
240.5663813325
 30
0.0
 11
-93.5832176378
 21
240.5663813325
 31
0.0
  0
LINE
  5
15C
330
1F
100
AcDbEntity
  8
0
100
AcDbLine
 10
-123.1353481055
 20
141.7663813325
 30
0.0
 11
-100.0058339271
 21
141.7663813325
 31
0.0
  0
LINE
  5
15D
330
1F
100
AcDbEntity
  8
0
100
AcDbLine
 10
-100.0058339271
 20
240.5663813325
 30
0.0
 11
-123.1353481055
 21
240.5663813325
 31
0.0
  0
LINE
  5
15E
330
1F
100
AcDbEntity
  8
0
100
AcDbLine
 10
135.2203397959
 20
89.0163813344
 30
0.0
 11
139.5632389704
 21
89.0163813344
 31
0.0
  0
LINE
  5
15F
330
1F
100
AcDbEntity
  8
0
100
AcDbLine
 10
78.5632389704
 20
293.3163813305
 30
0.0
 11
74.2203397959
 21
293.3163813305
 31
0.0
  0
LINE
  5
160
330
1F
100
AcDbEntity
  8
0
100
AcDbLine
 10
200.5632389704
 20
293.3163813305
 30
0.0
 11
196.2203397959
 21
293.3163813305
 31
0.0
  0
LINE
  5
161
330
1F
100
AcDbEntity
  8
0
100
AcDbLine
 10
-43.4367610296
 20
293.3163813305
 30
0.0
 11
-47.7796602041
 21
293.3163813305
 31
0.0
  0
LINE
  5
162
330
1F
100
AcDbEntity
  8
0
100
AcDbLine
 10
13.2203397959
 20
89.0163813344
 30
0.0
 11
17.5632389704
 21
89.0163813344
 31
0.0
  0
SPLINE
  5
163
330
1F
100
AcDbEntity
  8
0
100
AcDbSpline
210
0.0
220
0.0
230
1.0
 70
     8
 71
     3
 72
    57
 73
    53
 74
     0
 42
0.00000001
 43
0.00000001
 40
0.0
 40
0.0
 40
0.0
 40
0.0
 40
0.0136560290269713
 40
0.0272419335125915
 40
0.0381671541340996
 40
0.0474990198842661
 40
0.0568103328364475
 40
0.0661299781657783
 40
0.0754488935473305
 40
0.0914611277716823
 40
0.1068908801360702
 40
0.1207473612969507
 40
0.1342970006107874
 40
0.159430254968719
 40
0.184296534657807
 40
0.208735740524614
 40
0.2331577995450741
 40
0.2576142567868432
 40
0.2881594874705394
 40
0.3187401097127832
 40
0.3493010448434306
 40
0.379891496320531
 40
0.4043512666416752
 40
0.4288385278104107
 40
0.4541397468331526
 40
0.4795668316032629
 40
0.5008033776395993
 40
0.5257911254825407
 40
0.5510260539934468
 40
0.5757304674018157
 40
0.6002378684515628
 40
0.6247255643041189
 40
0.6553661895479586
 40
0.6859894146330638
 40
0.7166381512219215
 40
0.7472835942876926
 40
0.7816147343757835
 40
0.8159798473182828
 40
0.8268202565801114
 40
0.838070252470703
 40
0.8498500190588584
 40
0.8618379147012845
 40
0.8718738543714663
 40
0.8819288120642775
 40
0.8944977791862972
 40
0.9097478993240855
 40
0.9244010936243644
 40
0.9383189670113411
 40
0.9521405048063678
 40
0.9663601085717827
 40
0.9820436843259527
 40
1.0
 40
1.0
 40
1.0
 40
1.0
 10
74.34778300743722
 20
291.6991230631731
 30
0.0
 10
74.57225293416644
 20
291.680576987048
 30
0.0
 10
75.02004012087029
 20
291.643580070029
 30
0.0
 10
75.64852268776757
 20
291.3934579246832
 30
0.0
 10
76.24506311175351
 20
291.0551959897744
 30
0.0
 10
76.80559422771873
 20
290.6372224004012
 30
0.0
 10
77.33064946826015
 20
290.1630522073101
 30
0.0
 10
77.86358848377945
 20
289.6025468962615
 30
0.0
 10
78.53012332065299
 20
288.8022519187901
 30
0.0
 10
79.3238753427974
 20
287.6910070984252
 30
0.0
 10
80.21498546066613
 20
286.2208292700042
 30
0.0
 10
81.0646482703052
 20
284.6257946390513
 30
0.0
 10
82.11850787857054
 20
282.4357906375587
 30
0.0
 10
83.39589219515767
 20
279.4102253199933
 30
0.0
 10
84.89410604939026
 20
275.3167941759888
 30
0.0
 10
86.38716786320866
 20
270.7539422917487
 30
0.0
 10
87.86608179024346
 20
265.7423497903733
 30
0.0
 10
89.47852619217956
 20
259.8349777031929
 30
0.0
 10
91.20817797665882
 20
252.9289229260505
 30
0.0
 10
93.07148179716107
 20
244.9606705217206
 30
0.0
 10
94.92727655846147
 20
236.4894796545445
 30
0.0
 10
96.6675306442286
 20
228.1933228042647
 30
0.0
 10
98.27667532899073
 20
220.2233190393945
 30
0.0
 10
99.78660036512662
 20
212.6102323132791
 30
0.0
 10
101.3076041335947
 20
204.7632354937709
 30
0.0
 10
102.7713350615377
 20
197.174211913127
 30
0.0
 10
104.2214168467532
 20
189.5867561482205
 30
0.0
 10
105.6723503412703
 20
182.0248779162455
 30
0.0
 10
107.1923999028231
 20
174.1510649301853
 30
0.0
 10
108.70071423622
 20
166.4301017154638
 30
0.0
 10
110.1986314704374
 20
158.9330560046671
 30
0.0
 10
111.8100832936417
 20
151.0354669035691
 30
0.0
 10
113.554265425318
 20
142.8343623009633
 30
0.0
 10
115.4160224506837
 20
134.4851722421799
 30
0.0
 10
117.2843667661564
 20
126.6543350822482
 30
0.0
 10
119.2255694323793
 20
119.1196280082489
 30
0.0
 10
121.2439056151701
 20
112.0412994917399
 30
0.0
 10
122.8661421898247
 20
107.0702405034004
 30
0.0
 10
124.0174883104256
 20
103.8951582520567
 30
0.0
 10
124.7074420430239
 20
102.0940547302633
 30
0.0
 10
125.4241470135924
 20
100.3471279877914
 30
0.0
 10
126.1177535072691
 20
98.77784560041128
 30
0.0
 10
126.7769695123369
 20
97.39350919687061
 30
0.0
 10
127.4494818565335
 20
96.0809633474249
 30
0.0
 10
128.2353757244325
 20
94.67941854781218
 30
0.0
 10
129.1249022246614
 20
93.29014580916868
 30
0.0
 10
130.0532679860637
 20
92.05845729155459
 30
0.0
 10
130.9602833692547
 20
91.05842346056568
 30
0.0
 10
131.8704174773176
 20
90.25313512506614
 30
0.0
 10
132.8125077548592
 20
89.63378220386797
 30
0.0
 10
133.9327384592986
 20
89.12971395014655
 30
0.0
 10
134.7722182544257
 20
89.05582291966853
 30
0.0
 10
135.2203161395051
 20
89.01638133372956
 30
0.0
  0
SPLINE
  5
164
330
1F
100
AcDbEntity
  8
0
100
AcDbSpline
210
0.0
220
0.0
230
1.0
 70
     8
 71
     3
 72
    52
 73
    48
 74
     0
 42
0.00000001
 43
0.00000001
 40
0.0
 40
0.0
 40
0.0
 40
0.0
 40
0.0149373661157823
 40
0.0297980279461653
 40
0.0417483555265189
 40
0.0519558246947698
 40
0.0621408126082131
 40
0.0723349147208024
 40
0.0825282183950467
 40
0.1000428710417532
 40
0.1169203879017049
 40
0.1320770144560032
 40
0.1468980083750851
 40
0.1743895010545424
 40
0.2015889689906219
 40
0.2283212910214552
 40
0.2550348573275393
 40
0.2817860494195974
 40
0.3151973209475177
 40
0.3486473048028955
 40
0.3820757543166923
 40
0.415536489678193
 40
0.4422913057138931
 40
0.4690761920470794
 40
0.496751409416038
 40
0.5245643024406461
 40
0.5477934609722249
 40
0.5751257943468546
 40
0.6027285012046425
 40
0.6297509150430699
 40
0.6565578309703332
 40
0.6833431927734666
 40
0.7168588096764227
 40
0.750355393774091
 40
0.7838798831047492
 40
0.8174007698830069
 40
0.8549531804450448
 40
0.8925427515142336
 40
0.9044003099354267
 40
0.9167058862553699
 40
0.9295909413426259
 40
0.942703654109642
 40
0.9536812600354434
 40
0.9646796684336356
 40
0.9784279742718844
 40
0.9951090041201535
 40
1.0
 40
1.0
 40
1.0
 40
1.0
 10
196.3477830074371
 20
291.6991230631731
 30
0.0
 10
196.5722529341664
 20
291.680576987048
 30
0.0
 10
197.0200401208702
 20
291.6435800700289
 30
0.0
 10
197.6485226877677
 20
291.3934579246832
 30
0.0
 10
198.2450631117534
 20
291.0551959897743
 30
0.0
 10
198.8055942277187
 20
290.6372224004013
 30
0.0
 10
199.3306494682602
 20
290.1630522073101
 30
0.0
 10
199.8635884837795
 20
289.6025468962615
 30
0.0
 10
200.5301233206528
 20
288.8022519187901
 30
0.0
 10
201.3238753427974
 20
287.6910070984252
 30
0.0
 10
202.214985460666
 20
286.2208292700042
 30
0.0
 10
203.0646482703052
 20
284.6257946390514
 30
0.0
 10
204.1185078785705
 20
282.4357906375587
 30
0.0
 10
205.3958921951575
 20
279.4102253199934
 30
0.0
 10
206.8941060493903
 20
275.316794175989
 30
0.0
 10
208.3871678632087
 20
270.7539422917488
 30
0.0
 10
209.8660817902435
 20
265.7423497903733
 30
0.0
 10
211.4785261921795
 20
259.8349777031927
 30
0.0
 10
213.2081779766589
 20
252.9289229260504
 30
0.0
 10
215.0714817971611
 20
244.9606705217207
 30
0.0
 10
216.9272765584615
 20
236.4894796545443
 30
0.0
 10
218.6675306442286
 20
228.1933228042648
 30
0.0
 10
220.2766753289907
 20
220.2233190393945
 30
0.0
 10
221.7866003651268
 20
212.610232313279
 30
0.0
 10
223.3076041335946
 20
204.7632354937708
 30
0.0
 10
224.7713350615377
 20
197.1742119131266
 30
0.0
 10
226.2214168467532
 20
189.5867561482212
 30
0.0
 10
227.6723503412702
 20
182.0248779162422
 30
0.0
 10
229.1923999028237
 20
174.1510649301972
 30
0.0
 10
230.7007142362177
 20
166.4301017154202
 30
0.0
 10
232.1986314704455
 20
158.9330560048281
 30
0.0
 10
233.8100832936087
 20
151.0354669029043
 30
0.0
 10
235.554265425477
 20
142.834362304147
 30
0.0
 10
237.4160224500945
 20
134.4851722303889
 30
0.0
 10
239.284366768356
 20
126.6543351262686
 30
0.0
 10
241.2255694237546
 20
119.1196278356431
 30
0.0
 10
243.2439056517121
 20
112.0413002230496
 30
0.0
 10
244.8661420931999
 20
107.0702385696515
 30
0.0
 10
246.0174884132051
 20
103.8951603089763
 30
0.0
 10
246.707441620257
 20
102.0940462694474
 30
0.0
 10
247.4241486889413
 20
100.3471615164912
 30
0.0
 10
248.1177475799799
 20
98.77772697778093
 30
0.0
 10
248.7769876679919
 20
97.39387254535389
 30
0.0
 10
249.4494063448653
 20
96.07945213505181
 30
0.0
 10
250.2357704598205
 20
94.68731837329891
 30
0.0
 10
250.9103991525491
 20
93.59798398642731
 30
0.0
 10
251.3286038762734
 20
93.05317740587493
 30
0.0
 10
251.4234228611221
 20
92.92965415523639
 30
0.0
  0
SPLINE
  5
165
330
1F
100
AcDbEntity
  8
0
100
AcDbSpline
210
0.0
220
0.0
230
1.0
 70
     8
 71
     3
 72
    17
 73
    13
 74
     0
 42
0.00000001
 43
0.00000001
 40
0.0
 40
0.0
 40
0.0
 40
0.0
 40
0.0345752041201219
 40
0.0828023460637838
 40
0.1131836291387972
 40
0.1508021097825307
 40
0.2010260586185402
 40
0.2722762323026536
 40
0.4231162912856397
 40
0.6237250125880605
 40
0.848957849958526
 40
1.0
 40
1.0
 40
1.0
 40
1.0
 10
195.7602986876907
 20
293.2906172409081
 30
0.0
 10
195.7130311984864
 20
293.2861394452295
 30
0.0
 10
195.5998327634153
 20
293.2754158068065
 30
0.0
 10
195.4392413238897
 20
293.2498566297833
 30
0.0
 10
195.2321158306637
 20
293.2075897598485
 30
0.0
 10
195.0376733098063
 20
293.1569322058662
 30
0.0
 10
194.8309891977677
 20
293.0984214181396
 30
0.0
 10
194.4748201812577
 20
292.9788308883662
 30
0.0
 10
193.9492787973906
 20
292.7527084599947
 30
0.0
 10
193.2438602688854
 20
292.3375895387132
 30
0.0
 10
192.5481518516548
 20
291.8136063144406
 30
0.0
 10
192.0958342644159
 20
291.3631849104318
 30
0.0
 10
191.9142675295446
 20
291.1823793305707
 30
0.0
  0
SPLINE
  5
166
330
1F
100
AcDbEntity
  8
0
100
AcDbSpline
210
0.0
220
0.0
230
1.0
 70
     8
 71
     3
 72
     9
 73
     5
 74
     0
 42
0.00000001
 43
0.00000001
 40
0.0
 40
0.0
 40
0.0
 40
0.0
 40
0.7270249716240049
 40
1.0
 40
1.0
 40
1.0
 40
1.0
 10
196.2203161395051
 20
293.316381331178
 30
0.0
 10
196.1122383460564
 20
293.315174728452
 30
0.0
 10
195.9635807377663
 20
293.3135150843229
 30
0.0
 10
195.803890213173
 20
293.2955274232106
 30
0.0
 10
195.7602986876907
 20
293.2906172409081
 30
0.0
  0
SPLINE
  5
167
330
1F
100
AcDbEntity
  8
0
100
AcDbSpline
210
0.0
220
0.0
230
1.0
 70
     8
 71
     3
 72
    17
 73
    13
 74
     0
 42
0.00000001
 43
0.00000001
 40
0.0
 40
0.0
 40
0.0
 40
0.0
 40
0.0345752041200894
 40
0.082802346063753
 40
0.1131836291387499
 40
0.1508021097825023
 40
0.2010260586184945
 40
0.2722762323026288
 40
0.4231162912856034
 40
0.6237250125880492
 40
0.8489578499584945
 40
1.0
 40
1.0
 40
1.0
 40
1.0
 10
73.76029868769052
 20
293.290617240908
 30
0.0
 10
73.71303119848623
 20
293.2861394452294
 30
0.0
 10
73.59983276341515
 20
293.2754158068064
 30
0.0
 10
73.43924132388973
 20
293.2498566297834
 30
0.0
 10
73.23211583066353
 20
293.2075897598484
 30
0.0
 10
73.03767330980645
 20
293.1569322058662
 30
0.0
 10
72.83098919776774
 20
293.0984214181395
 30
0.0
 10
72.47482018125781
 20
292.9788308883662
 30
0.0
 10
71.9492787973905
 20
292.7527084599946
 30
0.0
 10
71.24386026888526
 20
292.3375895387132
 30
0.0
 10
70.54815185165491
 20
291.8136063144406
 30
0.0
 10
70.09583426441594
 20
291.3631849104318
 30
0.0
 10
69.91426752954456
 20
291.1823793305707
 30
0.0
  0
SPLINE
  5
168
330
1F
100
AcDbEntity
  8
0
100
AcDbSpline
210
0.0
220
0.0
230
1.0
 70
     8
 71
     3
 72
     9
 73
     5
 74
     0
 42
0.00000001
 43
0.00000001
 40
0.0
 40
0.0
 40
0.0
 40
0.0
 40
0.7270249716236765
 40
1.0
 40
1.0
 40
1.0
 40
1.0
 10
74.22031613950509
 20
293.316381331178
 30
0.0
 10
74.11223834605639
 20
293.3151747284521
 30
0.0
 10
73.96358073776636
 20
293.3135150843229
 30
0.0
 10
73.80389021317285
 20
293.2955274232106
 30
0.0
 10
73.76029868769052
 20
293.290617240908
 30
0.0
  0
LINE
  5
169
330
1F
100
AcDbEntity
  8
0
100
AcDbLine
 10
-48.2089923933
 20
293.2429588859
 30
0.0
 11
-48.5712988389
 21
293.1809954653
 31
0.0
  0
LINE
  5
16A
330
1F
100
AcDbEntity
  8
0
100
AcDbLine
 10
-47.7796838605
 20
293.3163813312
 30
0.0
 11
-48.2089923933
 21
293.2429588859
 31
0.0
  0
SPLINE
  5
16B
330
1F
100
AcDbEntity
  8
0
100
AcDbSpline
210
0.0
220
0.0
230
1.0
 70
     8
 71
     3
 72
    57
 73
    53
 74
     0
 42
0.00000001
 43
0.00000001
 40
0.0
 40
0.0
 40
0.0
 40
0.0
 40
0.0136560290269733
 40
0.0272419335125933
 40
0.0381671541341017
 40
0.0474990198842682
 40
0.0568103328364495
 40
0.0661299781657795
 40
0.0754488935473316
 40
0.0914611277716839
 40
0.1068908801360719
 40
0.1207473612969524
 40
0.1342970006107897
 40
0.1594302549687214
 40
0.1842965346578084
 40
0.2087357405246157
 40
0.2331577995450751
 40
0.2576142567868457
 40
0.2881594874705408
 40
0.318740109712785
 40
0.3493010448434318
 40
0.3798914963205327
 40
0.4043512666416759
 40
0.4288385278104123
 40
0.4541397468331536
 40
0.4795668316032639
 40
0.5008033776396001
 40
0.5257911254825418
 40
0.5510260539934476
 40
0.5757304674018174
 40
0.6002378684515636
 40
0.6247255643041209
 40
0.6553661895479592
 40
0.6859894146330645
 40
0.7166381512219216
 40
0.7472835942876934
 40
0.7816147343757844
 40
0.8159798473182837
 40
0.8268202565801126
 40
0.8380702524707033
 40
0.8498500190588582
 40
0.8618379147012856
 40
0.8718738543714671
 40
0.8819288120642784
 40
0.8944977791862986
 40
0.9097478993240853
 40
0.9244010936243642
 40
0.9383189670113428
 40
0.9521405048063676
 40
0.966360108571783
 40
0.9820436843259521
 40
1.0
 40
1.0
 40
1.0
 40
1.0
 10
-47.65221699256289
 20
291.6991230631731
 30
0.0
 10
-47.42774706583364
 20
291.680576987048
 30
0.0
 10
-46.97995987912976
 20
291.643580070029
 30
0.0
 10
-46.35147731223235
 20
291.3934579246832
 30
0.0
 10
-45.7549368882465
 20
291.0551959897744
 30
0.0
 10
-45.19440577228121
 20
290.6372224004012
 30
0.0
 10
-44.6693505317399
 20
290.1630522073101
 30
0.0
 10
-44.13641151622053
 20
289.6025468962616
 30
0.0
 10
-43.46987667934707
 20
288.8022519187901
 30
0.0
 10
-42.67612465720261
 20
287.6910070984252
 30
0.0
 10
-41.78501453933395
 20
286.2208292700041
 30
0.0
 10
-40.93535172969476
 20
284.6257946390513
 30
0.0
 10
-39.88149212142941
 20
282.4357906375586
 30
0.0
 10
-38.60410780484233
 20
279.4102253199932
 30
0.0
 10
-37.10589395060973
 20
275.3167941759888
 30
0.0
 10
-35.61283213679131
 20
270.7539422917487
 30
0.0
 10
-34.13391820975656
 20
265.7423497903733
 30
0.0
 10
-32.52147380782044
 20
259.8349777031928
 30
0.0
 10
-30.79182202334116
 20
252.9289229260504
 30
0.0
 10
-28.92851820283884
 20
244.9606705217206
 30
0.0
 10
-27.07272344153852
 20
236.4894796545443
 30
0.0
 10
-25.33246935577144
 20
228.1933228042647
 30
0.0
 10
-23.72332467100921
 20
220.2233190393945
 30
0.0
 10
-22.21339963487334
 20
212.6102323132791
 30
0.0
 10
-20.69239586640521
 20
204.7632354937708
 30
0.0
 10
-19.22866493846237
 20
197.174211913127
 30
0.0
 10
-17.77858315324676
 20
189.5867561482205
 30
0.0
 10
-16.32764965872978
 20
182.0248779162454
 30
0.0
 10
-14.80760009717681
 20
174.1510649301852
 30
0.0
 10
-13.2992857637801
 20
166.4301017154637
 30
0.0
 10
-11.80136852956246
 20
158.9330560046668
 30
0.0
 10
-10.18991670635834
 20
151.0354669035689
 30
0.0
 10
-8.445734574682021
 20
142.8343623009631
 30
0.0
 10
-6.583977549316334
 20
134.48517224218
 30
0.0
 10
-4.715633233843677
 20
126.6543350822481
 30
0.0
 10
-2.774430567620764
 20
119.119628008249
 30
0.0
 10
-0.756094384829778
 20
112.0412994917398
 30
0.0
 10
0.8661421898247534
 20
107.0702405034003
 30
0.0
 10
2.017488310425683
 20
103.8951582520566
 30
0.0
 10
2.707442043023839
 20
102.0940547302634
 30
0.0
 10
3.424147013592477
 20
100.3471279877914
 30
0.0
 10
4.117753507269145
 20
98.77784560041128
 30
0.0
 10
4.776969512337012
 20
97.3935091968705
 30
0.0
 10
5.449481856533573
 20
96.08096334742481
 30
0.0
 10
6.235375724432488
 20
94.67941854781219
 30
0.0
 10
7.124902224661459
 20
93.29014580916873
 30
0.0
 10
8.053267986063748
 20
92.05845729155457
 30
0.0
 10
8.960283369254709
 20
91.05842346056566
 30
0.0
 10
9.87041747731761
 20
90.25313512506618
 30
0.0
 10
10.81250775485913
 20
89.6337822038679
 30
0.0
 10
11.93273845929862
 20
89.12971395014661
 30
0.0
 10
12.77221825442569
 20
89.05582291966853
 30
0.0
 10
13.22031613950515
 20
89.01638133372956
 30
0.0
  0
SPLINE
  5
16C
330
1F
100
AcDbEntity
  8
0
100
AcDbSpline
210
0.0
220
0.0
230
1.0
 70
     8
 71
     3
 72
     9
 73
     5
 74
     0
 42
0.00000001
 43
0.00000001
 40
0.0
 40
0.0
 40
0.0
 40
0.0
 40
0.4999707712094525
 40
1.0
 40
1.0
 40
1.0
 40
1.0
 10
83.94201510295437
 20
289.9199762608737
 30
0.0
 10
83.68255149687043
 20
290.1747644355185
 30
0.0
 10
83.16359394769954
 20
290.6843705751503
 30
0.0
 10
82.64473138001867
 20
291.1940865450003
 30
0.0
 10
82.38528493045291
 20
291.4489594283067
 30
0.0
  0
SPLINE
  5
16D
330
1F
100
AcDbEntity
  8
0
100
AcDbSpline
210
0.0
220
0.0
230
1.0
 70
     8
 71
     3
 72
     9
 73
     5
 74
     0
 42
0.00000001
 43
0.00000001
 40
0.0
 40
0.0
 40
0.0
 40
0.0
 40
0.4999707712094755
 40
1.0
 40
1.0
 40
1.0
 40
1.0
 10
205.9420151029544
 20
289.9199762608737
 30
0.0
 10
205.6825514968704
 20
290.1747644355185
 30
0.0
 10
205.1635939476995
 20
290.6843705751502
 30
0.0
 10
204.6447313800186
 20
291.1940865450003
 30
0.0
 10
204.3852849304529
 20
291.4489594283067
 30
0.0
  0
SPLINE
  5
16E
330
1F
100
AcDbEntity
  8
0
100
AcDbSpline
210
0.0
220
0.0
230
1.0
 70
     8
 71
     3
 72
     9
 73
     5
 74
     0
 42
0.00000001
 43
0.00000001
 40
0.0
 40
0.0
 40
0.0
 40
0.0
 40
0.4999707712094526
 40
1.0
 40
1.0
 40
1.0
 40
1.0
 10
-38.05798489704562
 20
289.9199762608737
 30
0.0
 10
-38.31744850312954
 20
290.1747644355185
 30
0.0
 10
-38.83640605230043
 20
290.6843705751503
 30
0.0
 10
-39.35526861998135
 20
291.1940865450003
 30
0.0
 10
-39.61471506954709
 20
291.4489594283067
 30
0.0
  0
LINE
  5
16F
330
1F
100
AcDbEntity
  8
0
100
AcDbLine
 10
135.2200790345
 20
90.1163813351
 30
0.0
 11
138.9200849902
 21
90.1163813351
 31
0.0
  0
LINE
  5
170
330
1F
100
AcDbEntity
  8
0
100
AcDbLine
 10
13.2200790345
 20
90.1163813351
 30
0.0
 11
16.9200849902
 21
90.1163813351
 31
0.0
  0
LINE
  5
171
330
1F
100
AcDbEntity
  8
0
100
AcDbLine
 10
19.420225297
 20
90.6663813325
 30
0.0
 11
131.4404050616
 21
90.6663813325
 31
0.0
  0
LINE
  5
172
330
1F
100
AcDbEntity
  8
0
100
AcDbLine
 10
141.420225297
 20
90.6663813325
 30
0.0
 11
251.4201604309
 21
90.6663813325
 31
0.0
  0
LINE
  5
173
330
1F
100
AcDbEntity
  8
0
100
AcDbLine
 10
75.9912175562
 20
291.1823793306
 30
0.0
 11
-39.3433332993
 21
291.1823793306
 31
0.0
  0
LINE
  5
174
330
1F
100
AcDbEntity
  8
0
100
AcDbLine
 10
197.9912175562
 20
291.1823793306
 30
0.0
 11
82.6566667007
 21
291.1823793306
 31
0.0
  0
LINE
  5
175
330
1F
100
AcDbEntity
  8
0
100
AcDbLine
 10
251.4201604309
 20
291.1823793306
 30
0.0
 11
204.6566667007
 21
291.1823793306
 31
0.0
  0
LINE
  5
176
330
1F
100
AcDbEntity
  8
0
100
AcDbLine
 10
-46.0087824438
 20
291.1823793306
 30
0.0
 11
-48.5798395691
 21
291.1823793306
 31
0.0
  0
LINE
  5
177
330
1F
100
AcDbEntity
  8
0
100
AcDbLine
 10
-48.5798395691
 20
90.6663813325
 30
0.0
 11
-38.6858595691
 21
90.6663813325
 31
0.0
  0
LINE
  5
178
330
1F
100
AcDbEntity
  8
0
100
AcDbLine
 10
-33.204361713
 20
90.6663813325
 30
0.0
 11
9.4404050616
 21
90.6663813325
 31
0.0
  0
LINE
  5
179
330
1F
100
AcDbEntity
  8
0
100
AcDbLine
 10
-88.2018290277
 20
243.0107082086
 30
0.0
 11
-88.5763625592
 21
242.969802442
 31
0.0
  0
LINE
  5
17A
330
1F
100
AcDbEntity
  8
0
100
AcDbLine
 10
-87.6920854709
 20
243.0663813304
 30
0.0
 11
-88.2018290277
 21
243.0107082086
 31
0.0
  0
LINE
  5
17B
330
1F
100
AcDbEntity
  8
0
100
AcDbLine
 10
282.3874423908
 20
243.0663812991
 30
0.0
 11
282.0176339445
 21
243.0663812991
 31
0.0
  0
LINE
  5
17C
330
1F
100
AcDbEntity
  8
0
100
AcDbLine
 10
-83.6125576092
 20
243.0663812991
 30
0.0
 11
-87.692950828
 21
243.0663812991
 31
0.0
  0
LINE
  5
17D
330
1F
100
AcDbEntity
  8
0
100
AcDbLine
 10
289.6133884249
 20
239.61595175
 30
0.0
 11
289.5269707601
 21
239.6968101631
 31
0.0
  0
LINE
  5
17E
330
1F
100
AcDbEntity
  8
0
100
AcDbLine
 10
-83.6369463504
 20
242.9663813325
 30
0.0
 11
-87.6798395692
 21
242.9663813325
 31
0.0
  0
LINE
  5
17F
330
1F
100
AcDbEntity
  8
0
100
AcDbLine
 10
-38.5798395691
 20
90.6663813325
 30
0.0
 11
-33.2798395691
 21
90.6663813325
 31
0.0
  0
LINE
  5
180
330
1F
100
AcDbEntity
  8
0
100
AcDbLine
 10
-43.8798395691
 20
90.6663813325
 30
0.0
 11
-38.5798395691
 21
90.6663813325
 31
0.0
  0
LINE
  5
181
330
1F
100
AcDbEntity
  8
0
100
AcDbLine
 10
-38.5798395691
 20
89.6663813325
 30
0.0
 11
-33.2798395691
 21
89.6663813325
 31
0.0
  0
LINE
  5
182
330
1F
100
AcDbEntity
  8
0
100
AcDbLine
 10
-43.8798395691
 20
89.6663813325
 30
0.0
 11
-38.5798395691
 21
89.6663813325
 31
0.0
  0
LINE
  5
183
330
1F
100
AcDbEntity
  8
0
100
AcDbLine
 10
-40.5419155984
 20
89.0272038113
 30
0.0
 11
-39.5798395691
 21
88.7991282919
 31
0.0
  0
LINE
  5
184
330
1F
100
AcDbEntity
  8
0
100
AcDbLine
 10
-37.5798395691
 20
88.7991282919
 30
0.0
 11
-36.6177635398
 21
89.0272038113
 31
0.0
  0
SPLINE
  5
185
330
1F
100
AcDbEntity
  8
0
100
AcDbSpline
210
0.0
220
0.0
230
1.0
 70
     8
 71
     3
 72
    12
 73
     8
 74
     0
 42
0.00000001
 43
0.00000001
 40
0.0
 40
0.0
 40
0.0
 40
0.0
 40
0.2174770912066508
 40
0.4353705208257712
 40
0.6490388720033423
 40
0.8610609605882532
 40
1.0
 40
1.0
 40
1.0
 40
1.0
 10
-38.09379183674982
 20
88.79912829187248
 30
0.0
 10
-38.08718319837826
 20
88.79015072626169
 30
0.0
 10
-38.0739532700497
 20
88.7721784083774
 30
0.0
 10
-37.98306528209347
 20
88.76050977959926
 30
0.0
 10
-37.85172742674459
 20
88.7634939269845
 30
0.0
 10
-37.70950276257493
 20
88.77830283884575
 30
0.0
 10
-37.61661293793239
 20
88.79322205090476
 30
0.0
 10
-37.57983956909627
 20
88.79912829187249
 30
0.0
  0
LINE
  5
186
330
1F
100
AcDbEntity
  8
0
100
AcDbLine
 10
-38.1177635398
 20
89.0272038113
 30
0.0
 11
-38.0937918367
 21
88.7991282919
 31
0.0
  0
LINE
  5
187
330
1F
100
AcDbEntity
  8
0
100
AcDbLine
 10
-39.0419155984
 20
89.0272038113
 30
0.0
 11
-38.1177635398
 21
89.0272038113
 31
0.0
  0
LINE
  5
188
330
1F
100
AcDbEntity
  8
0
100
AcDbLine
 10
-39.0658873014
 20
88.7991282919
 30
0.0
 11
-39.0419155984
 21
89.0272038113
 31
0.0
  0
SPLINE
  5
189
330
1F
100
AcDbEntity
  8
0
100
AcDbSpline
210
0.0
220
0.0
230
1.0
 70
     8
 71
     3
 72
    12
 73
     8
 74
     0
 42
0.00000001
 43
0.00000001
 40
0.0
 40
0.0
 40
0.0
 40
0.0
 40
0.2174770912066789
 40
0.4353705208258697
 40
0.6490388720034573
 40
0.8610609605884169
 40
0.9999999999999999
 40
0.9999999999999999
 40
0.9999999999999999
 40
0.9999999999999999
 10
-39.57983956909628
 20
88.79912829187249
 30
0.0
 10
-39.52206692893628
 20
88.79015072626171
 30
0.0
 10
-39.40641104860251
 20
88.77217840837746
 30
0.0
 10
-39.25230618555
 20
88.76050977959926
 30
0.0
 10
-39.13705386389074
 20
88.76349392698447
 30
0.0
 10
-39.0763423189967
 20
88.77830283884578
 30
0.0
 10
-39.06885241595509
 20
88.79322205090475
 30
0.0
 10
-39.06588730144273
 20
88.79912829187245
 30
0.0
  0
LINE
  5
18A
330
1F
100
AcDbEntity
  8
0
100
AcDbLine
 10
-33.2798395691
 20
291.6663813325
 30
0.0
 11
-39.9370529096
 21
291.6663813325
 31
0.0
  0
LINE
  5
18B
330
1F
100
AcDbEntity
  8
0
100
AcDbLine
 10
-33.2798395691
 20
292.6663813325
 30
0.0
 11
-41.9894059837
 21
292.6663813325
 31
0.0
  0
LINE
  5
18C
330
1F
100
AcDbEntity
  8
0
100
AcDbLine
 10
-39.5798395691
 20
293.533634373
 30
0.0
 11
-40.5419155984
 21
293.3055588536
 31
0.0
  0
SPLINE
  5
18D
330
1F
100
AcDbEntity
  8
0
100
AcDbSpline
210
0.0
220
0.0
230
1.0
 70
     8
 71
     3
 72
    12
 73
     8
 74
     0
 42
0.00000001
 43
0.00000001
 40
0.0
 40
0.0
 40
0.0
 40
0.0
 40
0.2174770912066502
 40
0.435370520825771
 40
0.6490388720033418
 40
0.8610609605882508
 40
1.0
 40
1.0
 40
1.0
 40
1.0
 10
-39.06588730144273
 20
293.5336343730351
 30
0.0
 10
-39.0724959398143
 20
293.5426119386458
 30
0.0
 10
-39.08572586814288
 20
293.5605842565301
 30
0.0
 10
-39.17661385609905
 20
293.5722528853083
 30
0.0
 10
-39.30795171144796
 20
293.569268737923
 30
0.0
 10
-39.45017637561762
 20
293.5544598260618
 30
0.0
 10
-39.54306620026018
 20
293.5395406140028
 30
0.0
 10
-39.57983956909628
 20
293.5336343730351
 30
0.0
  0
LINE
  5
18E
330
1F
100
AcDbEntity
  8
0
100
AcDbLine
 10
-39.0419155984
 20
293.3055588536
 30
0.0
 11
-39.0658873014
 21
293.533634373
 31
0.0
  0
LINE
  5
18F
330
1F
100
AcDbEntity
  8
0
100
AcDbLine
 10
-38.1177635398
 20
293.3055588536
 30
0.0
 11
-39.0419155984
 21
293.3055588536
 31
0.0
  0
LINE
  5
190
330
1F
100
AcDbEntity
  8
0
100
AcDbLine
 10
-38.0937918367
 20
293.533634373
 30
0.0
 11
-38.1177635398
 21
293.3055588536
 31
0.0
  0
SPLINE
  5
191
330
1F
100
AcDbEntity
  8
0
100
AcDbSpline
210
0.0
220
0.0
230
1.0
 70
     8
 71
     3
 72
    12
 73
     8
 74
     0
 42
0.00000001
 43
0.00000001
 40
0.0
 40
0.0
 40
0.0
 40
0.0
 40
0.2174770912066368
 40
0.4353705208257865
 40
0.6490388720033331
 40
0.8610609605882493
 40
1.0
 40
1.0
 40
1.0
 40
1.0
 10
-37.5798395690963
 20
293.5336343730351
 30
0.0
 10
-37.63761220925627
 20
293.5426119386458
 30
0.0
 10
-37.75326808959004
 20
293.5605842565301
 30
0.0
 10
-37.90737295264257
 20
293.5722528853083
 30
0.0
 10
-38.02262527430178
 20
293.569268737923
 30
0.0
 10
-38.08333681919581
 20
293.5544598260618
 30
0.0
 10
-38.09082672223749
 20
293.5395406140028
 30
0.0
 10
-38.09379183674982
 20
293.5336343730351
 30
0.0
  0
LINE
  5
192
330
1F
100
AcDbEntity
  8
0
100
AcDbLine
 10
-36.6177635398
 20
293.3055588536
 30
0.0
 11
-37.5798395691
 21
293.533634373
 31
0.0
  0
LINE
  5
193
330
1F
100
AcDbEntity
  8
0
100
AcDbLine
 10
243.3822364602
 20
190.7043053032
 30
0.0
 11
242.4201604309
 21
190.6803336001
 31
0.0
  0
LINE
  5
194
330
1F
100
AcDbEntity
  8
0
100
AcDbLine
 10
243.3822364602
 20
191.6284573617
 30
0.0
 11
243.3822364602
 21
190.7043053032
 31
0.0
  0
LINE
  5
195
330
1F
100
AcDbEntity
  8
0
100
AcDbLine
 10
242.4201604309
 20
191.6524290648
 30
0.0
 11
243.3822364602
 21
191.6284573617
 31
0.0
  0
SPLINE
  5
196
330
1F
100
AcDbEntity
  8
0
100
AcDbSpline
210
0.0
220
0.0
230
1.0
 70
     8
 71
     3
 72
    12
 73
     8
 74
     0
 42
0.00000001
 43
0.00000001
 40
0.0
 40
0.0
 40
0.0
 40
0.0
 40
0.217477091206651
 40
0.4353705208257714
 40
0.6490388720033421
 40
0.8610609605882532
 40
1.0
 40
1.0
 40
1.0
 40
1.0
 10
241.9062081632503
 20
192.166381332452
 30
0.0
 10
241.9128168016218
 20
192.108608692292
 30
0.0
 10
241.9260467299504
 20
191.9929528119582
 30
0.0
 10
242.0169347179066
 20
191.8388479489057
 30
0.0
 10
242.1482725732555
 20
191.7235956272465
 30
0.0
 10
242.2904972374251
 20
191.6628840823524
 30
0.0
 10
242.3833870620677
 20
191.6553941793108
 30
0.0
 10
242.4201604309038
 20
191.6524290647984
 30
0.0
  0
LINE
  5
197
330
1F
100
AcDbEntity
  8
0
100
AcDbLine
 10
241.8822364602
 20
193.1284573617
 30
0.0
 11
241.9062081633
 21
192.1663813325
 31
0.0
  0
LINE
  5
198
330
1F
100
AcDbEntity
  8
0
100
AcDbLine
 10
240.9580844016
 20
193.1284573617
 30
0.0
 11
241.8822364602
 21
193.1284573617
 31
0.0
  0
LINE
  5
199
330
1F
100
AcDbEntity
  8
0
100
AcDbLine
 10
240.9341126986
 20
192.1663813325
 30
0.0
 11
240.9580844016
 21
193.1284573617
 31
0.0
  0
SPLINE
  5
19A
330
1F
100
AcDbEntity
  8
0
100
AcDbSpline
210
0.0
220
0.0
230
1.0
 70
     8
 71
     3
 72
    12
 73
     8
 74
     0
 42
0.00000001
 43
0.00000001
 40
0.0
 40
0.0
 40
0.0
 40
0.0
 40
0.2174770912066369
 40
0.4353705208257855
 40
0.6490388720033321
 40
0.8610609605882488
 40
1.0
 40
1.0
 40
1.0
 40
1.0
 10
240.4201604309038
 20
191.6524290647984
 30
0.0
 10
240.4779330710638
 20
191.65903770317
 30
0.0
 10
240.5935889513975
 20
191.6722676314986
 30
0.0
 10
240.7476938144501
 20
191.7631556194548
 30
0.0
 10
240.8629461361093
 20
191.8944934748037
 30
0.0
 10
240.9236576810033
 20
192.0367181389734
 30
0.0
 10
240.931147584045
 20
192.1296079636159
 30
0.0
 10
240.9341126985574
 20
192.166381332452
 30
0.0
  0
LINE
  5
19B
330
1F
100
AcDbEntity
  8
0
100
AcDbLine
 10
239.4580844016
 20
191.6284573617
 30
0.0
 11
240.4201604309
 21
191.6524290648
 31
0.0
  0
LINE
  5
19C
330
1F
100
AcDbEntity
  8
0
100
AcDbLine
 10
239.4580844016
 20
190.7043053032
 30
0.0
 11
239.4580844016
 21
191.6284573617
 31
0.0
  0
LINE
  5
19D
330
1F
100
AcDbEntity
  8
0
100
AcDbLine
 10
240.4201604309
 20
190.6803336001
 30
0.0
 11
239.4580844016
 21
190.7043053032
 31
0.0
  0
SPLINE
  5
19E
330
1F
100
AcDbEntity
  8
0
100
AcDbSpline
210
0.0
220
0.0
230
1.0
 70
     8
 71
     3
 72
    12
 73
     8
 74
     0
 42
0.00000001
 43
0.00000001
 40
0.0
 40
0.0
 40
0.0
 40
0.0
 40
0.2174770912066489
 40
0.4353705208257695
 40
0.6490388720033402
 40
0.8610609605882509
 40
1.0
 40
1.0
 40
1.0
 40
1.0
 10
240.9341126985574
 20
190.166381332452
 30
0.0
 10
240.9275040601858
 20
190.224153972612
 30
0.0
 10
240.9142741318572
 20
190.3398098529457
 30
0.0
 10
240.823386143901
 20
190.4939147159983
 30
0.0
 10
240.6920482885522
 20
190.6091670376575
 30
0.0
 10
240.5498236243824
 20
190.6698785825515
 30
0.0
 10
240.4569337997399
 20
190.6773684855932
 30
0.0
 10
240.4201604309038
 20
190.6803336001056
 30
0.0
  0
LINE
  5
19F
330
1F
100
AcDbEntity
  8
0
100
AcDbLine
 10
240.9580844016
 20
189.2043053032
 30
0.0
 11
240.9341126986
 21
190.1663813325
 31
0.0
  0
LINE
  5
1A0
330
1F
100
AcDbEntity
  8
0
100
AcDbLine
 10
241.8822364602
 20
189.2043053032
 30
0.0
 11
240.9580844016
 21
189.2043053032
 31
0.0
  0
LINE
  5
1A1
330
1F
100
AcDbEntity
  8
0
100
AcDbLine
 10
241.9062081633
 20
190.1663813325
 30
0.0
 11
241.8822364602
 21
189.2043053032
 31
0.0
  0
SPLINE
  5
1A2
330
1F
100
AcDbEntity
  8
0
100
AcDbSpline
210
0.0
220
0.0
230
1.0
 70
     8
 71
     3
 72
    12
 73
     8
 74
     0
 42
0.00000001
 43
0.00000001
 40
0.0
 40
0.0
 40
0.0
 40
0.0
 40
0.2174770912066808
 40
0.4353705208258711
 40
0.6490388720034581
 40
0.8610609605884161
 40
1.0
 40
1.0
 40
1.0
 40
1.0
 10
242.4201604309038
 20
190.6803336001056
 30
0.0
 10
242.3623877907438
 20
190.673724961734
 30
0.0
 10
242.2467319104101
 20
190.6604950334054
 30
0.0
 10
242.0926270473576
 20
190.5696070454492
 30
0.0
 10
241.9773747256982
 20
190.4382691901003
 30
0.0
 10
241.9166631808043
 20
190.2960445259307
 30
0.0
 10
241.9091732777626
 20
190.2031547012882
 30
0.0
 10
241.9062081632503
 20
190.1663813324521
 30
0.0
  0
CIRCLE
  5
1A3
330
1F
100
AcDbEntity
  8
0
100
AcDbCircle
 10
241.4201604309
 20
191.1663813325
 30
0.0
 40
3.5
  0
ARC
  5
1A4
330
1F
100
AcDbEntity
  8
0
100
AcDbCircle
 10
242.4201604309
 20
192.1663813325
 30
0.0
 40
0.71020847053137
100
AcDbArc
 50
180.0
 51
270.0
  0
ARC
  5
1A5
330
1F
100
AcDbEntity
  8
0
100
AcDbCircle
 10
240.4201604309
 20
192.1663813325
 30
0.0
 40
0.7102084705313416
100
AcDbArc
 50
270.0
 51
0.0
  0
ARC
  5
1A6
330
1F
100
AcDbEntity
  8
0
100
AcDbCircle
 10
240.4201604309
 20
190.1663813325
 30
0.0
 40
0.7102084705313416
100
AcDbArc
 50
0.0
 51
90.0
  0
ARC
  5
1A7
330
1F
100
AcDbEntity
  8
0
100
AcDbCircle
 10
242.4201604309
 20
190.1663813325
 30
0.0
 40
0.71020847053137
100
AcDbArc
 50
90.0
 51
180.0
  0
LINE
  5
1A8
330
1F
100
AcDbEntity
  8
0
100
AcDbLine
 10
241.7099519604
 20
192.9561728619
 30
0.0
 11
241.7099519604
 21
192.1663813325
 31
0.0
  0
LINE
  5
1A9
330
1F
100
AcDbEntity
  8
0
100
AcDbLine
 10
241.7099519604
 20
192.9561728619
 30
0.0
 11
241.8822364602
 21
193.1284573617
 31
0.0
  0
LINE
  5
1AA
330
1F
100
AcDbEntity
  8
0
100
AcDbLine
 10
241.1303689014
 20
192.9561728619
 30
0.0
 11
240.9580844016
 21
193.1284573617
 31
0.0
  0
LINE
  5
1AB
330
1F
100
AcDbEntity
  8
0
100
AcDbLine
 10
241.1303689014
 20
192.1663813325
 30
0.0
 11
241.1303689014
 21
192.9561728619
 31
0.0
  0
LINE
  5
1AC
330
1F
100
AcDbEntity
  8
0
100
AcDbLine
 10
243.2099519604
 20
191.4561728619
 30
0.0
 11
243.3822364602
 21
191.6284573617
 31
0.0
  0
LINE
  5
1AD
330
1F
100
AcDbEntity
  8
0
100
AcDbLine
 10
242.4201604309
 20
191.4561728619
 30
0.0
 11
243.2099519604
 21
191.4561728619
 31
0.0
  0
LINE
  5
1AE
330
1F
100
AcDbEntity
  8
0
100
AcDbLine
 10
241.7099519604
 20
189.376589803
 30
0.0
 11
241.8822364602
 21
189.2043053032
 31
0.0
  0
LINE
  5
1AF
330
1F
100
AcDbEntity
  8
0
100
AcDbLine
 10
241.7099519604
 20
190.1663813325
 30
0.0
 11
241.7099519604
 21
189.376589803
 31
0.0
  0
LINE
  5
1B0
330
1F
100
AcDbEntity
  8
0
100
AcDbLine
 10
239.6303689014
 20
191.4561728619
 30
0.0
 11
240.4201604309
 21
191.4561728619
 31
0.0
  0
LINE
  5
1B1
330
1F
100
AcDbEntity
  8
0
100
AcDbLine
 10
239.6303689014
 20
191.4561728619
 30
0.0
 11
239.4580844016
 21
191.6284573617
 31
0.0
  0
LINE
  5
1B2
330
1F
100
AcDbEntity
  8
0
100
AcDbLine
 10
239.6303689014
 20
190.876589803
 30
0.0
 11
239.4580844016
 21
190.7043053032
 31
0.0
  0
LINE
  5
1B3
330
1F
100
AcDbEntity
  8
0
100
AcDbLine
 10
240.4201604309
 20
190.876589803
 30
0.0
 11
239.6303689014
 21
190.876589803
 31
0.0
  0
LINE
  5
1B4
330
1F
100
AcDbEntity
  8
0
100
AcDbLine
 10
243.2099519604
 20
190.876589803
 30
0.0
 11
242.4201604309
 21
190.876589803
 31
0.0
  0
LINE
  5
1B5
330
1F
100
AcDbEntity
  8
0
100
AcDbLine
 10
243.2099519604
 20
190.876589803
 30
0.0
 11
243.3822364602
 21
190.7043053032
 31
0.0
  0
LINE
  5
1B6
330
1F
100
AcDbEntity
  8
0
100
AcDbLine
 10
241.1303689014
 20
189.376589803
 30
0.0
 11
241.1303689014
 21
190.1663813325
 31
0.0
  0
LINE
  5
1B7
330
1F
100
AcDbEntity
  8
0
100
AcDbLine
 10
241.1303689014
 20
189.376589803
 30
0.0
 11
240.9580844016
 21
189.2043053032
 31
0.0
  0
LINE
  5
1B8
330
1F
100
AcDbEntity
  8
0
100
AcDbLine
 10
241.1303689014
 20
192.9561728619
 30
0.0
 11
241.7099519604
 21
192.9561728619
 31
0.0
  0
LINE
  5
1B9
330
1F
100
AcDbEntity
  8
0
100
AcDbLine
 10
243.2099519604
 20
191.4561728619
 30
0.0
 11
243.2099519604
 21
190.876589803
 31
0.0
  0
LINE
  5
1BA
330
1F
100
AcDbEntity
  8
0
100
AcDbLine
 10
239.6303689014
 20
190.876589803
 30
0.0
 11
239.6303689014
 21
191.4561728619
 31
0.0
  0
LINE
  5
1BB
330
1F
100
AcDbEntity
  8
0
100
AcDbLine
 10
241.7099519604
 20
189.376589803
 30
0.0
 11
241.1303689014
 21
189.376589803
 31
0.0
  0
CIRCLE
  5
1BC
330
1F
100
AcDbEntity
  8
0
100
AcDbCircle
 10
241.4201604309
 20
191.1663813325
 30
0.0
 40
5.5
  0
LINE
  5
1BD
330
1F
100
AcDbEntity
  8
0
100
AcDbLine
 10
-40.5419155984
 20
191.6284573617
 30
0.0
 11
-39.5798395691
 21
191.6524290648
 31
0.0
  0
LINE
  5
1BE
330
1F
100
AcDbEntity
  8
0
100
AcDbLine
 10
-40.5419155984
 20
190.7043053032
 30
0.0
 11
-40.5419155984
 21
191.6284573617
 31
0.0
  0
LINE
  5
1BF
330
1F
100
AcDbEntity
  8
0
100
AcDbLine
 10
-39.5798395691
 20
190.6803336001
 30
0.0
 11
-40.5419155984
 21
190.7043053032
 31
0.0
  0
SPLINE
  5
1C0
330
1F
100
AcDbEntity
  8
0
100
AcDbSpline
210
0.0
220
0.0
230
1.0
 70
     8
 71
     3
 72
    12
 73
     8
 74
     0
 42
0.00000001
 43
0.00000001
 40
0.0
 40
0.0
 40
0.0
 40
0.0
 40
0.2174770912066492
 40
0.4353705208257698
 40
0.6490388720033402
 40
0.8610609605882509
 40
1.0
 40
1.0
 40
1.0
 40
1.0
 10
-39.06588730144273
 20
190.166381332452
 30
0.0
 10
-39.0724959398143
 20
190.224153972612
 30
0.0
 10
-39.08572586814288
 20
190.3398098529457
 30
0.0
 10
-39.17661385609908
 20
190.4939147159983
 30
0.0
 10
-39.30795171144791
 20
190.6091670376575
 30
0.0
 10
-39.45017637561768
 20
190.6698785825515
 30
0.0
 10
-39.54306620026016
 20
190.6773684855932
 30
0.0
 10
-39.57983956909628
 20
190.6803336001056
 30
0.0
  0
LINE
  5
1C1
330
1F
100
AcDbEntity
  8
0
100
AcDbLine
 10
-39.0419155984
 20
189.2043053032
 30
0.0
 11
-39.0658873014
 21
190.1663813325
 31
0.0
  0
LINE
  5
1C2
330
1F
100
AcDbEntity
  8
0
100
AcDbLine
 10
-38.1177635398
 20
189.2043053032
 30
0.0
 11
-39.0419155984
 21
189.2043053032
 31
0.0
  0
LINE
  5
1C3
330
1F
100
AcDbEntity
  8
0
100
AcDbLine
 10
-38.0937918367
 20
190.1663813325
 30
0.0
 11
-38.1177635398
 21
189.2043053032
 31
0.0
  0
SPLINE
  5
1C4
330
1F
100
AcDbEntity
  8
0
100
AcDbSpline
210
0.0
220
0.0
230
1.0
 70
     8
 71
     3
 72
    12
 73
     8
 74
     0
 42
0.00000001
 43
0.00000001
 40
0.0
 40
0.0
 40
0.0
 40
0.0
 40
0.2174770912066389
 40
0.4353705208257872
 40
0.649038872003333
 40
0.8610609605882502
 40
1.0
 40
1.0
 40
1.0
 40
1.0
 10
-37.57983956909627
 20
190.6803336001056
 30
0.0
 10
-37.63761220925627
 20
190.673724961734
 30
0.0
 10
-37.75326808958998
 20
190.6604950334054
 30
0.0
 10
-37.90737295264252
 20
190.5696070454492
 30
0.0
 10
-38.02262527430187
 20
190.4382691901003
 30
0.0
 10
-38.08333681919579
 20
190.2960445259307
 30
0.0
 10
-38.09082672223749
 20
190.2031547012881
 30
0.0
 10
-38.09379183674982
 20
190.166381332452
 30
0.0
  0
LINE
  5
1C5
330
1F
100
AcDbEntity
  8
0
100
AcDbLine
 10
-36.6177635398
 20
190.7043053032
 30
0.0
 11
-37.5798395691
 21
190.6803336001
 31
0.0
  0
LINE
  5
1C6
330
1F
100
AcDbEntity
  8
0
100
AcDbLine
 10
-36.6177635398
 20
191.6284573617
 30
0.0
 11
-36.6177635398
 21
190.7043053032
 31
0.0
  0
LINE
  5
1C7
330
1F
100
AcDbEntity
  8
0
100
AcDbLine
 10
-37.5798395691
 20
191.6524290648
 30
0.0
 11
-36.6177635398
 21
191.6284573617
 31
0.0
  0
SPLINE
  5
1C8
330
1F
100
AcDbEntity
  8
0
100
AcDbSpline
210
0.0
220
0.0
230
1.0
 70
     8
 71
     3
 72
    12
 73
     8
 74
     0
 42
0.00000001
 43
0.00000001
 40
0.0
 40
0.0
 40
0.0
 40
0.0
 40
0.2174770912066502
 40
0.4353705208257701
 40
0.6490388720033403
 40
0.8610609605882508
 40
0.9999999999999999
 40
0.9999999999999999
 40
0.9999999999999999
 40
0.9999999999999999
 10
-38.09379183674985
 20
192.166381332452
 30
0.0
 10
-38.08718319837828
 20
192.108608692292
 30
0.0
 10
-38.07395327004973
 20
191.9929528119582
 30
0.0
 10
-37.9830652820935
 20
191.8388479489057
 30
0.0
 10
-37.85172742674456
 20
191.7235956272465
 30
0.0
 10
-37.70950276257498
 20
191.6628840823524
 30
0.0
 10
-37.61661293793239
 20
191.6553941793108
 30
0.0
 10
-37.57983956909627
 20
191.6524290647984
 30
0.0
  0
LINE
  5
1C9
330
1F
100
AcDbEntity
  8
0
100
AcDbLine
 10
-38.1177635398
 20
193.1284573617
 30
0.0
 11
-38.0937918367
 21
192.1663813325
 31
0.0
  0
LINE
  5
1CA
330
1F
100
AcDbEntity
  8
0
100
AcDbLine
 10
-39.0419155984
 20
193.1284573617
 30
0.0
 11
-38.1177635398
 21
193.1284573617
 31
0.0
  0
LINE
  5
1CB
330
1F
100
AcDbEntity
  8
0
100
AcDbLine
 10
-39.0658873014
 20
192.1663813325
 30
0.0
 11
-39.0419155984
 21
193.1284573617
 31
0.0
  0
SPLINE
  5
1CC
330
1F
100
AcDbEntity
  8
0
100
AcDbSpline
210
0.0
220
0.0
230
1.0
 70
     8
 71
     3
 72
    12
 73
     8
 74
     0
 42
0.00000001
 43
0.00000001
 40
0.0
 40
0.0
 40
0.0
 40
0.0
 40
0.2174770912066788
 40
0.4353705208258695
 40
0.6490388720034572
 40
0.8610609605884147
 40
1.0
 40
1.0
 40
1.0
 40
1.0
 10
-39.57983956909628
 20
191.6524290647984
 30
0.0
 10
-39.52206692893628
 20
191.65903770317
 30
0.0
 10
-39.40641104860249
 20
191.6722676314986
 30
0.0
 10
-39.25230618555006
 20
191.7631556194548
 30
0.0
 10
-39.13705386389071
 20
191.8944934748037
 30
0.0
 10
-39.07634231899676
 20
192.0367181389733
 30
0.0
 10
-39.06885241595509
 20
192.1296079636158
 30
0.0
 10
-39.06588730144273
 20
192.1663813324518
 30
0.0
  0
CIRCLE
  5
1CD
330
1F
100
AcDbEntity
  8
0
100
AcDbCircle
 10
-38.5798395691
 20
191.1663813325
 30
0.0
 40
3.5
  0
ARC
  5
1CE
330
1F
100
AcDbEntity
  8
0
100
AcDbCircle
 10
-37.5798395691
 20
192.1663813325
 30
0.0
 40
0.7102084705313558
100
AcDbArc
 50
180.0
 51
270.0
  0
ARC
  5
1CF
330
1F
100
AcDbEntity
  8
0
100
AcDbCircle
 10
-39.5798395691
 20
192.1663813325
 30
0.0
 40
0.7102084705313558
100
AcDbArc
 50
270.0
 51
0.0
  0
ARC
  5
1D0
330
1F
100
AcDbEntity
  8
0
100
AcDbCircle
 10
-37.5798395691
 20
190.1663813325
 30
0.0
 40
0.7102084705313558
100
AcDbArc
 50
90.0
 51
180.0
  0
ARC
  5
1D1
330
1F
100
AcDbEntity
  8
0
100
AcDbCircle
 10
-39.5798395691
 20
190.1663813325
 30
0.0
 40
0.7102084705313558
100
AcDbArc
 50
0.0
 51
90.0
  0
LINE
  5
1D2
330
1F
100
AcDbEntity
  8
0
100
AcDbLine
 10
-38.8696310986
 20
192.9561728619
 30
0.0
 11
-39.0419155984
 21
193.1284573617
 31
0.0
  0
LINE
  5
1D3
330
1F
100
AcDbEntity
  8
0
100
AcDbLine
 10
-38.8696310986
 20
192.1663813325
 30
0.0
 11
-38.8696310986
 21
192.9561728619
 31
0.0
  0
LINE
  5
1D4
330
1F
100
AcDbEntity
  8
0
100
AcDbLine
 10
-38.2900480396
 20
192.9561728619
 30
0.0
 11
-38.2900480396
 21
192.1663813325
 31
0.0
  0
LINE
  5
1D5
330
1F
100
AcDbEntity
  8
0
100
AcDbLine
 10
-38.2900480396
 20
192.9561728619
 30
0.0
 11
-38.1177635398
 21
193.1284573617
 31
0.0
  0
LINE
  5
1D6
330
1F
100
AcDbEntity
  8
0
100
AcDbLine
 10
-36.7900480396
 20
191.4561728619
 30
0.0
 11
-36.6177635398
 21
191.6284573617
 31
0.0
  0
LINE
  5
1D7
330
1F
100
AcDbEntity
  8
0
100
AcDbLine
 10
-37.5798395691
 20
191.4561728619
 30
0.0
 11
-36.7900480396
 21
191.4561728619
 31
0.0
  0
LINE
  5
1D8
330
1F
100
AcDbEntity
  8
0
100
AcDbLine
 10
-40.3696310986
 20
191.4561728619
 30
0.0
 11
-39.5798395691
 21
191.4561728619
 31
0.0
  0
LINE
  5
1D9
330
1F
100
AcDbEntity
  8
0
100
AcDbLine
 10
-40.3696310986
 20
191.4561728619
 30
0.0
 11
-40.5419155984
 21
191.6284573617
 31
0.0
  0
LINE
  5
1DA
330
1F
100
AcDbEntity
  8
0
100
AcDbLine
 10
-40.3696310986
 20
190.876589803
 30
0.0
 11
-40.5419155984
 21
190.7043053032
 31
0.0
  0
LINE
  5
1DB
330
1F
100
AcDbEntity
  8
0
100
AcDbLine
 10
-39.5798395691
 20
190.876589803
 30
0.0
 11
-40.3696310986
 21
190.876589803
 31
0.0
  0
LINE
  5
1DC
330
1F
100
AcDbEntity
  8
0
100
AcDbLine
 10
-36.7900480396
 20
190.876589803
 30
0.0
 11
-37.5798395691
 21
190.876589803
 31
0.0
  0
LINE
  5
1DD
330
1F
100
AcDbEntity
  8
0
100
AcDbLine
 10
-36.7900480396
 20
190.876589803
 30
0.0
 11
-36.6177635398
 21
190.7043053032
 31
0.0
  0
LINE
  5
1DE
330
1F
100
AcDbEntity
  8
0
100
AcDbLine
 10
-38.8696310986
 20
189.376589803
 30
0.0
 11
-38.8696310986
 21
190.1663813325
 31
0.0
  0
LINE
  5
1DF
330
1F
100
AcDbEntity
  8
0
100
AcDbLine
 10
-38.8696310986
 20
189.376589803
 30
0.0
 11
-39.0419155984
 21
189.2043053032
 31
0.0
  0
LINE
  5
1E0
330
1F
100
AcDbEntity
  8
0
100
AcDbLine
 10
-38.2900480396
 20
189.376589803
 30
0.0
 11
-38.1177635398
 21
189.2043053032
 31
0.0
  0
LINE
  5
1E1
330
1F
100
AcDbEntity
  8
0
100
AcDbLine
 10
-38.2900480396
 20
190.1663813325
 30
0.0
 11
-38.2900480396
 21
189.376589803
 31
0.0
  0
LINE
  5
1E2
330
1F
100
AcDbEntity
  8
0
100
AcDbLine
 10
-38.8696310986
 20
192.9561728619
 30
0.0
 11
-38.2900480396
 21
192.9561728619
 31
0.0
  0
LINE
  5
1E3
330
1F
100
AcDbEntity
  8
0
100
AcDbLine
 10
-36.7900480396
 20
191.4561728619
 30
0.0
 11
-36.7900480396
 21
190.876589803
 31
0.0
  0
LINE
  5
1E4
330
1F
100
AcDbEntity
  8
0
100
AcDbLine
 10
-40.3696310986
 20
190.876589803
 30
0.0
 11
-40.3696310986
 21
191.4561728619
 31
0.0
  0
LINE
  5
1E5
330
1F
100
AcDbEntity
  8
0
100
AcDbLine
 10
-38.2900480396
 20
189.376589803
 30
0.0
 11
-38.8696310986
 21
189.376589803
 31
0.0
  0
CIRCLE
  5
1E6
330
1F
100
AcDbEntity
  8
0
100
AcDbCircle
 10
-38.5798395691
 20
191.1663813325
 30
0.0
 40
5.5
  0
LINE
  5
1E7
330
1F
100
AcDbEntity
  8
0
100
AcDbLine
 10
236.1201604309
 20
90.6663813325
 30
0.0
 11
246.7201604309
 21
90.6663813325
 31
0.0
  0
LINE
  5
1E8
330
1F
100
AcDbEntity
  8
0
100
AcDbLine
 10
236.1201604309
 20
89.6663813325
 30
0.0
 11
246.7201604309
 21
89.6663813325
 31
0.0
  0
LINE
  5
1E9
330
1F
100
AcDbEntity
  8
0
100
AcDbLine
 10
242.4201604309
 20
88.7991282919
 30
0.0
 11
243.3822364602
 21
89.0272038113
 31
0.0
  0
SPLINE
  5
1EA
330
1F
100
AcDbEntity
  8
0
100
AcDbSpline
210
0.0
220
0.0
230
1.0
 70
     8
 71
     3
 72
    12
 73
     8
 74
     0
 42
0.00000001
 43
0.00000001
 40
0.0
 40
0.0
 40
0.0
 40
0.0
 40
0.2174770912066511
 40
0.4353705208257715
 40
0.6490388720033424
 40
0.8610609605882532
 40
1.0
 40
1.0
 40
1.0
 40
1.0
 10
241.9062081632503
 20
88.79912829187248
 30
0.0
 10
241.9128168016218
 20
88.7901507262617
 30
0.0
 10
241.9260467299503
 20
88.77217840837746
 30
0.0
 10
242.0169347179067
 20
88.7605097795992
 30
0.0
 10
242.1482725732554
 20
88.76349392698454
 30
0.0
 10
242.2904972374251
 20
88.77830283884578
 30
0.0
 10
242.3833870620677
 20
88.79322205090476
 30
0.0
 10
242.4201604309038
 20
88.79912829187249
 30
0.0
  0
LINE
  5
1EB
330
1F
100
AcDbEntity
  8
0
100
AcDbLine
 10
241.8822364602
 20
89.0272038113
 30
0.0
 11
241.9062081633
 21
88.7991282919
 31
0.0
  0
LINE
  5
1EC
330
1F
100
AcDbEntity
  8
0
100
AcDbLine
 10
240.9580844016
 20
89.0272038113
 30
0.0
 11
241.8822364602
 21
89.0272038113
 31
0.0
  0
LINE
  5
1ED
330
1F
100
AcDbEntity
  8
0
100
AcDbLine
 10
240.9341126986
 20
88.7991282919
 30
0.0
 11
240.9580844016
 21
89.0272038113
 31
0.0
  0
SPLINE
  5
1EE
330
1F
100
AcDbEntity
  8
0
100
AcDbSpline
210
0.0
220
0.0
230
1.0
 70
     8
 71
     3
 72
    12
 73
     8
 74
     0
 42
0.00000001
 43
0.00000001
 40
0.0
 40
0.0
 40
0.0
 40
0.0
 40
0.2174770912066371
 40
0.4353705208257859
 40
0.6490388720033324
 40
0.8610609605882511
 40
1.0
 40
1.0
 40
1.0
 40
1.0
 10
240.4201604309038
 20
88.79912829187249
 30
0.0
 10
240.4779330710638
 20
88.79015072626171
 30
0.0
 10
240.5935889513975
 20
88.77217840837748
 30
0.0
 10
240.7476938144501
 20
88.76050977959925
 30
0.0
 10
240.8629461361093
 20
88.7634939269845
 30
0.0
 10
240.9236576810034
 20
88.77830283884573
 30
0.0
 10
240.931147584045
 20
88.79322205090476
 30
0.0
 10
240.9341126985574
 20
88.79912829187248
 30
0.0
  0
LINE
  5
1EF
330
1F
100
AcDbEntity
  8
0
100
AcDbLine
 10
239.4580844016
 20
89.0272038113
 30
0.0
 11
240.4201604309
 21
88.7991282919
 31
0.0
  0
LINE
  5
1F0
330
1F
100
AcDbEntity
  8
0
100
AcDbLine
 10
241.4201604309
 20
291.6663813325
 30
0.0
 11
236.1201604309
 21
291.6663813325
 31
0.0
  0
LINE
  5
1F1
330
1F
100
AcDbEntity
  8
0
100
AcDbLine
 10
246.7201604309
 20
291.6663813325
 30
0.0
 11
241.4201604309
 21
291.6663813325
 31
0.0
  0
LINE
  5
1F2
330
1F
100
AcDbEntity
  8
0
100
AcDbLine
 10
241.4201604309
 20
292.6663813325
 30
0.0
 11
236.1201604309
 21
292.6663813325
 31
0.0
  0
LINE
  5
1F3
330
1F
100
AcDbEntity
  8
0
100
AcDbLine
 10
246.7201604309
 20
292.6663813325
 30
0.0
 11
241.4201604309
 21
292.6663813325
 31
0.0
  0
LINE
  5
1F4
330
1F
100
AcDbEntity
  8
0
100
AcDbLine
 10
243.3822364602
 20
293.3055588536
 30
0.0
 11
242.4201604309
 21
293.533634373
 31
0.0
  0
LINE
  5
1F5
330
1F
100
AcDbEntity
  8
0
100
AcDbLine
 10
240.4201604309
 20
293.533634373
 30
0.0
 11
239.4580844016
 21
293.3055588536
 31
0.0
  0
SPLINE
  5
1F6
330
1F
100
AcDbEntity
  8
0
100
AcDbSpline
210
0.0
220
0.0
230
1.0
 70
     8
 71
     3
 72
    12
 73
     8
 74
     0
 42
0.00000001
 43
0.00000001
 40
0.0
 40
0.0
 40
0.0
 40
0.0
 40
0.2174770912066499
 40
0.4353705208257709
 40
0.6490388720033418
 40
0.8610609605882508
 40
1.0
 40
1.0
 40
1.0
 40
1.0
 10
240.9341126985574
 20
293.5336343730351
 30
0.0
 10
240.9275040601858
 20
293.5426119386458
 30
0.0
 10
240.9142741318572
 20
293.5605842565301
 30
0.0
 10
240.823386143901
 20
293.5722528853083
 30
0.0
 10
240.6920482885521
 20
293.569268737923
 30
0.0
 10
240.5498236243825
 20
293.5544598260618
 30
0.0
 10
240.4569337997399
 20
293.5395406140028
 30
0.0
 10
240.4201604309038
 20
293.5336343730351
 30
0.0
  0
LINE
  5
1F7
330
1F
100
AcDbEntity
  8
0
100
AcDbLine
 10
240.9580844016
 20
293.3055588536
 30
0.0
 11
240.9341126986
 21
293.533634373
 31
0.0
  0
LINE
  5
1F8
330
1F
100
AcDbEntity
  8
0
100
AcDbLine
 10
241.8822364602
 20
293.3055588536
 30
0.0
 11
240.9580844016
 21
293.3055588536
 31
0.0
  0
LINE
  5
1F9
330
1F
100
AcDbEntity
  8
0
100
AcDbLine
 10
241.9062081633
 20
293.533634373
 30
0.0
 11
241.8822364602
 21
293.3055588536
 31
0.0
  0
SPLINE
  5
1FA
330
1F
100
AcDbEntity
  8
0
100
AcDbSpline
210
0.0
220
0.0
230
1.0
 70
     8
 71
     3
 72
    12
 73
     8
 74
     0
 42
0.00000001
 43
0.00000001
 40
0.0
 40
0.0
 40
0.0
 40
0.0
 40
0.2174770912066787
 40
0.4353705208258703
 40
0.6490388720034581
 40
0.8610609605884151
 40
0.9999999999999999
 40
0.9999999999999999
 40
0.9999999999999999
 40
0.9999999999999999
 10
242.4201604309038
 20
293.5336343730351
 30
0.0
 10
242.3623877907438
 20
293.5426119386458
 30
0.0
 10
242.2467319104101
 20
293.5605842565301
 30
0.0
 10
242.0926270473575
 20
293.5722528853083
 30
0.0
 10
241.9773747256983
 20
293.5692687379231
 30
0.0
 10
241.9166631808043
 20
293.5544598260618
 30
0.0
 10
241.9091732777626
 20
293.5395406140028
 30
0.0
 10
241.9062081632503
 20
293.5336343730351
 30
0.0
  0
LINE
  5
1FB
330
1F
100
AcDbEntity
  8
0
100
AcDbLine
 10
335.5848466442
 20
136.1409358757
 30
0.0
 11
335.5848466442
 21
134.2663813325
 31
0.0
  0
LINE
  5
1FC
330
1F
100
AcDbEntity
  8
0
100
AcDbLine
 10
335.5848466442
 20
248.0663813325
 30
0.0
 11
335.5848466442
 21
136.1409358757
 31
0.0
  0
LINE
  5
1FD
330
1F
100
AcDbEntity
  8
0
100
AcDbLine
 10
331.3848466442
 20
136.1409358757
 30
0.0
 11
331.3848466442
 21
134.2663813325
 31
0.0
  0
LINE
  5
1FE
330
1F
100
AcDbEntity
  8
0
100
AcDbLine
 10
331.3848466442
 20
248.0663813325
 30
0.0
 11
331.3848466442
 21
136.1409358757
 31
0.0
  0
LINE
  5
1FF
330
1F
100
AcDbEntity
  8
0
100
AcDbLine
 10
-132.7445257824
 20
134.2663813325
 30
0.0
 11
-132.7445257824
 21
248.0663813325
 31
0.0
  0
LINE
  5
200
330
1F
100
AcDbEntity
  8
0
100
AcDbLine
 10
-128.5445257824
 20
134.2663813325
 30
0.0
 11
-128.5445257824
 21
248.0663813325
 31
0.0
  0
LINE
  5
201
330
1F
100
AcDbEntity
  8
0
100
AcDbLine
 10
257.8427767202
 20
290.4663813325
 30
0.0
 11
257.8427767202
 21
91.8663813325
 31
0.0
  0
LINE
  5
202
330
1F
100
AcDbEntity
  8
0
100
AcDbLine
 10
257.4201604309
 20
290.4663813325
 30
0.0
 11
257.4201604309
 21
91.8663813325
 31
0.0
  0
LINE
  5
203
330
1F
100
AcDbEntity
  8
0
100
AcDbLine
 10
292.3873963461
 20
242.9163813325
 30
0.0
 11
292.3873963461
 21
139.4163813325
 31
0.0
  0
LINE
  5
204
330
1F
100
AcDbEntity
  8
0
100
AcDbLine
 10
293.7441694787
 20
240.5663813325
 30
0.0
 11
293.7441694787
 21
141.7663813325
 31
0.0
  0
LINE
  5
205
330
1F
100
AcDbEntity
  8
0
100
AcDbLine
 10
338.6348466442
 20
240.5663813325
 30
0.0
 11
338.6348466442
 21
141.7663813325
 31
0.0
  0
LINE
  5
206
330
1F
100
AcDbEntity
  8
0
100
AcDbLine
 10
325.9756689673
 20
240.5663813325
 30
0.0
 11
325.9756689673
 21
141.7663813325
 31
0.0
  0
LINE
  5
207
330
1F
100
AcDbEntity
  8
0
100
AcDbLine
 10
344.6348466442
 20
239.2663813244
 30
0.0
 11
344.6348466442
 21
143.0663813324
 31
0.0
  0
LINE
  5
208
330
1F
100
AcDbEntity
  8
0
100
AcDbLine
 10
-55.0024558584
 20
91.8663813325
 30
0.0
 11
-55.0024558584
 21
290.4663813325
 31
0.0
  0
LINE
  5
209
330
1F
100
AcDbEntity
  8
0
100
AcDbLine
 10
-54.5798395691
 20
91.8663813325
 30
0.0
 11
-54.5798395691
 21
290.4663813325
 31
0.0
  0
LINE
  5
20A
330
1F
100
AcDbEntity
  8
0
100
AcDbLine
 10
-89.5470754843
 20
139.4163813325
 30
0.0
 11
-89.5470754843
 21
242.9163813325
 31
0.0
  0
LINE
  5
20B
330
1F
100
AcDbEntity
  8
0
100
AcDbLine
 10
-90.9038486169
 20
141.7663813325
 30
0.0
 11
-90.9038486169
 21
240.5663813325
 31
0.0
  0
LINE
  5
20C
330
1F
100
AcDbEntity
  8
0
100
AcDbLine
 10
-123.1353481055
 20
141.7663813325
 30
0.0
 11
-123.1353481055
 21
240.5663813325
 31
0.0
  0
LINE
  5
20D
330
1F
100
AcDbEntity
  8
0
100
AcDbLine
 10
-141.7945257824
 20
143.0663813324
 30
0.0
 11
-141.7945257824
 21
239.2663813244
 31
0.0
  0
LINE
  5
20E
330
1F
100
AcDbEntity
  8
0
100
AcDbLine
 10
-135.7945257824
 20
141.7663813325
 30
0.0
 11
-135.7945257824
 21
240.5663813325
 31
0.0
  0
SPLINE
  5
20F
330
1F
100
AcDbEntity
  8
0
100
AcDbSpline
210
0.0
220
0.0
230
1.0
 70
     8
 71
     3
 72
    10
 73
     6
 74
     0
 42
0.00000001
 43
0.00000001
 40
0.0
 40
0.0
 40
0.0
 40
0.0
 40
0.2937711004273891
 40
0.8606166617023413
 40
1.0
 40
1.0
 40
1.0
 40
1.0
 10
-43.43684212132057
 20
293.1712391528056
 30
0.0
 10
-43.07903930069798
 20
293.191302402721
 30
0.0
 10
-42.03083861457238
 20
293.2500786647154
 30
0.0
 10
-40.80974766629655
 20
292.6063575926502
 30
0.0
 10
-39.94899903228499
 20
291.6022174136229
 30
0.0
 10
-39.77911924102143
 20
291.4040374604147
 30
0.0
  0
SPLINE
  5
210
330
1F
100
AcDbEntity
  8
0
100
AcDbSpline
210
0.0
220
0.0
230
1.0
 70
     8
 71
     3
 72
    10
 73
     6
 74
     0
 42
0.00000001
 43
0.00000001
 40
0.0
 40
0.0
 40
0.0
 40
0.0
 40
0.1857924103381571
 40
0.9999687934277361
 40
1.0
 40
1.0
 40
1.0
 40
1.0
 10
17.5627766263841
 20
89.12005653127514
 30
0.0
 10
17.72133777043607
 20
89.09047253694419
 30
0.0
 10
18.57474289938393
 20
88.93124605905932
 30
0.0
 10
19.43105152693239
 20
89.22955264325901
 30
0.0
 10
20.12591419860528
 20
89.90430961882127
 30
0.0
 10
20.12594083098068
 20
89.90433548059484
 30
0.0
  0
SPLINE
  5
211
330
1F
100
AcDbEntity
  8
0
100
AcDbSpline
210
0.0
220
0.0
230
1.0
 70
     8
 71
     3
 72
    10
 73
     6
 74
     0
 42
0.00000001
 43
0.00000001
 40
0.0
 40
0.0
 40
0.0
 40
0.0
 40
0.2937711004273902
 40
0.8606166617023407
 40
0.9999999999999999
 40
0.9999999999999999
 40
0.9999999999999999
 40
0.9999999999999999
 10
78.56315787867943
 20
293.1712391528056
 30
0.0
 10
78.92096069930199
 20
293.191302402721
 30
0.0
 10
79.96916138542763
 20
293.2500786647154
 30
0.0
 10
81.19025233370353
 20
292.6063575926502
 30
0.0
 10
82.05100096771503
 20
291.6022174136229
 30
0.0
 10
82.22088075897857
 20
291.4040374604147
 30
0.0
  0
SPLINE
  5
212
330
1F
100
AcDbEntity
  8
0
100
AcDbSpline
210
0.0
220
0.0
230
1.0
 70
     8
 71
     3
 72
    10
 73
     6
 74
     0
 42
0.00000001
 43
0.00000001
 40
0.0
 40
0.0
 40
0.0
 40
0.0
 40
0.185792410338155
 40
0.9999687934277243
 40
1.0
 40
1.0
 40
1.0
 40
1.0
 10
139.5627766263841
 20
89.12005653127514
 30
0.0
 10
139.7213377704354
 20
89.09047253694582
 30
0.0
 10
140.5747428993795
 20
88.93124605906986
 30
0.0
 10
141.4310515269849
 20
89.22955264313613
 30
0.0
 10
142.1259141986053
 20
89.9043096188213
 30
0.0
 10
142.1259408309807
 20
89.90433548059488
 30
0.0
  0
SPLINE
  5
213
330
1F
100
AcDbEntity
  8
0
100
AcDbSpline
210
0.0
220
0.0
230
1.0
 70
     8
 71
     3
 72
    10
 73
     6
 74
     0
 42
0.00000001
 43
0.00000001
 40
0.0
 40
0.0
 40
0.0
 40
0.0
 40
0.293771100427391
 40
0.8606166617023426
 40
0.9999999999999999
 40
0.9999999999999999
 40
0.9999999999999999
 40
0.9999999999999999
 10
200.5631578786794
 20
293.1712391528056
 30
0.0
 10
200.920960699302
 20
293.191302402721
 30
0.0
 10
201.9691613854276
 20
293.2500786647154
 30
0.0
 10
203.1902523337036
 20
292.6063575926502
 30
0.0
 10
204.051000967715
 20
291.602217413623
 30
0.0
 10
204.2208807589786
 20
291.4040374604147
 30
0.0
  0
SPLINE
  5
214
330
1F
100
AcDbEntity
  8
0
100
AcDbSpline
210
0.0
220
0.0
230
1.0
 70
     8
 71
     3
 72
    10
 73
     6
 74
     0
 42
0.00000001
 43
0.00000001
 40
0.0
 40
0.0
 40
0.0
 40
0.0
 40
0.0063783276319292
 40
0.7917966950550788
 40
1.0
 40
1.0
 40
1.0
 40
1.0
 10
-42.2654251838864
 20
293.1043188571454
 30
0.0
 10
-42.2597831159141
 20
293.1043740863049
 30
0.0
 10
-41.559384667993
 20
293.1112301571197
 30
0.0
 10
-40.67223483852145
 20
292.5533104270694
 30
0.0
 10
-39.793065854593
 20
291.5435013515586
 30
0.0
 10
-39.60884494521733
 20
291.3319061410962
 30
0.0
  0
SPLINE
  5
215
330
1F
100
AcDbEntity
  8
0
100
AcDbSpline
210
0.0
220
0.0
230
1.0
 70
     8
 71
     3
 72
    10
 73
     6
 74
     0
 42
0.00000001
 43
0.00000001
 40
0.0
 40
0.0
 40
0.0
 40
0.0
 40
0.1469400678873995
 40
0.7831271782817568
 40
1.0
 40
1.0
 40
1.0
 40
1.0
 10
17.7337714005051
 20
89.19409149932451
 30
0.0
 10
17.89426421884847
 20
89.1631853058792
 30
0.0
 10
18.74962171099311
 20
88.99846862640418
 30
0.0
 10
19.84498166966128
 20
89.4746286284525
 30
0.0
 10
20.77643323177304
 20
90.42481589688617
 30
0.0
 10
21.01323550200603
 20
90.66638133245367
 30
0.0
  0
SPLINE
  5
216
330
1F
100
AcDbEntity
  8
0
100
AcDbSpline
210
0.0
220
0.0
230
1.0
 70
     8
 71
     3
 72
    10
 73
     6
 74
     0
 42
0.00000001
 43
0.00000001
 40
0.0
 40
0.0
 40
0.0
 40
0.0
 40
0.0063783276319353
 40
0.7917966950550737
 40
0.9999999999999999
 40
0.9999999999999999
 40
0.9999999999999999
 40
0.9999999999999999
 10
79.73457481611354
 20
293.1043188571454
 30
0.0
 10
79.74021688408587
 20
293.1043740863049
 30
0.0
 10
80.44061533200919
 20
293.111230157119
 30
0.0
 10
81.32776516147821
 20
292.5533104270696
 30
0.0
 10
82.20693414540702
 20
291.5435013515586
 30
0.0
 10
82.39115505478273
 20
291.3319061410962
 30
0.0
  0
SPLINE
  5
217
330
1F
100
AcDbEntity
  8
0
100
AcDbSpline
210
0.0
220
0.0
230
1.0
 70
     8
 71
     3
 72
    10
 73
     6
 74
     0
 42
0.00000001
 43
0.00000001
 40
0.0
 40
0.0
 40
0.0
 40
0.0
 40
0.1469400678874062
 40
0.7831271782817514
 40
1.0
 40
1.0
 40
1.0
 40
1.0
 10
139.733771400505
 20
89.19409149932453
 30
0.0
 10
139.8942642188484
 20
89.16318530587921
 30
0.0
 10
140.7496217109932
 20
88.99846862640416
 30
0.0
 10
141.8449816696613
 20
89.47462862845256
 30
0.0
 10
142.7764332317731
 20
90.4248158968862
 30
0.0
 10
143.0132355020061
 20
90.66638133245371
 30
0.0
  0
SPLINE
  5
218
330
1F
100
AcDbEntity
  8
0
100
AcDbSpline
210
0.0
220
0.0
230
1.0
 70
     8
 71
     3
 72
    10
 73
     6
 74
     0
 42
0.00000001
 43
0.00000001
 40
0.0
 40
0.0
 40
0.0
 40
0.0
 40
0.0063783276319349
 40
0.7917966950550765
 40
1.0
 40
1.0
 40
1.0
 40
1.0
 10
201.7345748161136
 20
293.1043188571454
 30
0.0
 10
201.7402168840859
 20
293.1043740863049
 30
0.0
 10
202.4406153320072
 20
293.1112301571189
 30
0.0
 10
203.3277651614785
 20
292.5533104270696
 30
0.0
 10
204.206934145407
 20
291.5435013515586
 30
0.0
 10
204.3911550547827
 20
291.3319061410962
 30
0.0
  0
SPLINE
  5
219
330
1F
100
AcDbEntity
  8
0
100
AcDbSpline
210
0.0
220
0.0
230
1.0
 70
    24
 71
     3
 72
    10
 73
     6
 74
     0
 42
0.00000001
 43
0.00000001
 40
0.0
 40
0.0
 40
0.0
 40
0.0
 40
0.432431144655151
 40
0.7159304837768568
 40
1.0
 40
1.0
 40
1.0
 40
1.0
 10
251.4201604309036
 20
103.1712915742777
 30
0.0
 10
251.4201604309038
 20
103.0866323279447
 30
0.0
 10
251.420160430904
 20
102.9464709729349
 30
0.0
 10
251.4201604309036
 20
102.7749182282727
 30
0.0
 10
251.4201604309038
 20
102.684625085103
 30
0.0
 10
251.4201604309038
 20
102.6394331594769
 30
0.0
  0
LINE
  5
21A
330
1F
100
AcDbEntity
  8
0
100
AcDbLine
 10
-48.1489456946
 20
293.2039659875
 30
0.0
 11
-47.7794693118
 21
293.1820703447
 31
0.0
  0
LINE
  5
21B
330
1F
100
AcDbEntity
  8
0
100
AcDbLine
 10
13.1596496444
 20
89.1292920268
 30
0.0
 11
13.222488734
 21
89.1196561102
 31
0.0
  0
LINE
  5
21C
330
1F
100
AcDbEntity
  8
0
100
AcDbLine
 10
73.8300209904
 20
293.2052124487
 30
0.0
 11
74.2205306882
 21
293.1820703447
 31
0.0
  0
LINE
  5
21D
330
1F
100
AcDbEntity
  8
0
100
AcDbLine
 10
135.1596496444
 20
89.1292920268
 30
0.0
 11
135.222488734
 21
89.1196561102
 31
0.0
  0
LINE
  5
21E
330
1F
100
AcDbEntity
  8
0
100
AcDbLine
 10
195.8300209904
 20
293.2052124487
 30
0.0
 11
196.2205306882
 21
293.1820703447
 31
0.0
  0
SPLINE
  5
21F
330
1F
100
AcDbEntity
  8
0
100
AcDbSpline
210
0.0
220
0.0
230
1.0
 70
    24
 71
     3
 72
    10
 73
     6
 74
     0
 42
0.00000001
 43
0.00000001
 40
0.0
 40
0.0
 40
0.0
 40
0.0
 40
0.3805397955002465
 40
0.689525903836837
 40
1.0
 40
1.0
 40
1.0
 40
1.0
 10
251.4201604309038
 20
102.6394331594769
 30
0.0
 10
251.4201604309038
 20
101.2563401978832
 30
0.0
 10
251.4201604309038
 20
98.7502201134396
 30
0.0
 10
251.4201604309039
 20
95.76418775326938
 30
0.0
 10
251.4201604309038
 20
94.28178103406147
 30
0.0
 10
251.4201604309037
 20
93.53879725084339
 30
0.0
  0
LINE
  5
220
330
1F
100
AcDbEntity
  8
0
100
AcDbLine
 10
-47.7797306666
 20
291.5841893356
 30
0.0
 11
-47.6212450997
 21
291.5749443884
 31
0.0
  0
LINE
  5
221
330
1F
100
AcDbEntity
  8
0
100
AcDbLine
 10
74.2202693334
 20
291.5841893356
 30
0.0
 11
74.3787549003
 21
291.5749443884
 31
0.0
  0
LINE
  5
222
330
1F
100
AcDbEntity
  8
0
100
AcDbLine
 10
196.2202693334
 20
291.5841893356
 30
0.0
 11
196.3787549003
 21
291.5749443884
 31
0.0
  0
SPLINE
  5
223
330
1F
100
AcDbEntity
  8
0
100
AcDbSpline
210
0.0
220
0.0
230
1.0
 70
    24
 71
     3
 72
    10
 73
     6
 74
     0
 42
0.00000001
 43
0.00000001
 40
0.0
 40
0.0
 40
0.0
 40
0.0
 40
0.457934955661924
 40
0.9163097786785427
 40
1.0
 40
1.0
 40
1.0
 40
1.0
 10
251.4201604309037
 20
93.53879725084339
 30
0.0
 10
251.4201604309038
 20
93.40341904477211
 30
0.0
 10
251.420160430904
 20
93.13253259570472
 30
0.0
 10
251.4201604309028
 20
92.9090231339608
 30
0.0
 10
251.4201604309041
 20
92.92486956414454
 30
0.0
 10
251.4201604309043
 20
92.9273161178618
 30
0.0
  0
SPLINE
  5
224
330
1F
100
AcDbEntity
  8
0
100
AcDbSpline
210
0.0
220
0.0
230
1.0
 70
    24
 71
     3
 72
    20
 73
    16
 74
     0
 42
0.00000001
 43
0.00000001
 40
0.0
 40
0.0
 40
0.0
 40
0.0
 40
0.1109132114808132
 40
0.3019829206638309
 40
0.3976363004024212
 40
0.431395779913563
 40
0.4483496937927094
 40
0.4559921871060056
 40
0.4637074465828314
 40
0.4704649908617903
 40
0.4796104558246598
 40
0.4963625365885514
 40
0.5520776950739515
 40
0.813799594464904
 40
1.0
 40
1.0
 40
1.0
 40
1.0
 10
-48.57983956909629
 20
293.227925462959
 30
0.0
 10
-48.57983956909617
 20
293.2316363407803
 30
0.0
 10
-48.57983956909598
 20
293.2417399317571
 30
0.0
 10
-48.57983956909786
 20
293.1250441810432
 30
0.0
 10
-48.57983956909393
 20
292.9266338034818
 30
0.0
 10
-48.57983956909606
 20
292.7556977620137
 30
0.0
 10
-48.57983956909617
 20
292.6515898592162
 30
0.0
 10
-48.57983956909629
 20
292.5756371538268
 30
0.0
 10
-48.57983956909631
 20
292.5153976704037
 30
0.0
 10
-48.57983956909603
 20
292.4517747492159
 30
0.0
 10
-48.57983956909634
 20
292.3757738708674
 30
0.0
 10
-48.5798395690962
 20
292.2339912485613
 30
0.0
 10
-48.57983956909379
 20
291.9076224961277
 30
0.0
 10
-48.5798395690969
 20
291.7349115885224
 30
0.0
 10
-48.57983956909651
 20
291.6614146587017
 30
0.0
 10
-48.57983956909626
 20
291.6308621320969
 30
0.0
  0
LINE
  5
225
330
1F
100
AcDbEntity
  8
0
100
AcDbLine
 10
-39.209726491
 20
290.7637841325
 30
0.0
 11
-38.9901011222
 21
290.6437354379
 31
0.0
  0
SPLINE
  5
226
330
1F
100
AcDbEntity
  8
0
100
AcDbSpline
210
0.0
220
0.0
230
1.0
 70
     8
 71
     3
 72
     9
 73
     5
 74
     0
 42
0.00000001
 43
0.00000001
 40
0.0
 40
0.0
 40
0.0
 40
0.0
 40
0.8151620382901829
 40
1.0
 40
1.0
 40
1.0
 40
1.0
 10
19.25060019006179
 20
90.69410157376632
 30
0.0
 10
19.40662545586172
 20
90.63517733485894
 30
0.0
 10
19.59802944484926
 20
90.56289202698204
 30
0.0
 10
19.78975468224881
 20
90.65023671783095
 30
0.0
 10
19.8251927843381
 20
90.66638133245365
 30
0.0
  0
LINE
  5
227
330
1F
100
AcDbEntity
  8
0
100
AcDbLine
 10
82.790273509
 20
290.7637841325
 30
0.0
 11
83.0098988778
 21
290.6437354379
 31
0.0
  0
SPLINE
  5
228
330
1F
100
AcDbEntity
  8
0
100
AcDbSpline
210
0.0
220
0.0
230
1.0
 70
     8
 71
     3
 72
     9
 73
     5
 74
     0
 42
0.00000001
 43
0.00000001
 40
0.0
 40
0.0
 40
0.0
 40
0.0
 40
0.8151620382901491
 40
1.0
 40
1.0
 40
1.0
 40
1.0
 10
141.2506001900618
 20
90.6941015737663
 30
0.0
 10
141.4066254558617
 20
90.63517733485888
 30
0.0
 10
141.5980294448492
 20
90.56289202698196
 30
0.0
 10
141.7897546822489
 20
90.65023671783095
 30
0.0
 10
141.8251927843381
 20
90.66638133245367
 30
0.0
  0
LINE
  5
229
330
1F
100
AcDbEntity
  8
0
100
AcDbLine
 10
204.790273509
 20
290.7637841325
 30
0.0
 11
205.0098988778
 21
290.6437354379
 31
0.0
  0
SPLINE
  5
22A
330
1F
100
AcDbEntity
  8
0
100
AcDbSpline
210
0.0
220
0.0
230
1.0
 70
    24
 71
     3
 72
    10
 73
     6
 74
     0
 42
0.00000001
 43
0.00000001
 40
0.0
 40
0.0
 40
0.0
 40
0.0
 40
0.2667456773294286
 40
0.5334913411663571
 40
1.0
 40
1.0
 40
1.0
 40
1.0
 10
251.4201604309036
 20
108.6695486991565
 30
0.0
 10
251.4201604309036
 20
108.1634007529279
 30
0.0
 10
251.4201604309036
 20
107.1511048860726
 30
0.0
 10
251.4201604309038
 20
105.3013667153946
 30
0.0
 10
251.4201604309038
 20
103.999537246645
 30
0.0
 10
251.4201604309036
 20
103.1712915742777
 30
0.0
  0
LINE
  5
22B
330
1F
100
AcDbEntity
  8
0
100
AcDbLine
 10
-17.2803370353
 20
191.1662731883
 30
0.0
 11
-16.9510788826
 21
189.443339398
 31
0.0
  0
LINE
  5
22C
330
1F
100
AcDbEntity
  8
0
100
AcDbLine
 10
104.7196629647
 20
191.1662731883
 30
0.0
 11
105.0489211174
 21
189.443339398
 31
0.0
  0
LINE
  5
22D
330
1F
100
AcDbEntity
  8
0
100
AcDbLine
 10
226.7196629647
 20
191.1662731883
 30
0.0
 11
227.0489211174
 21
189.443339398
 31
0.0
  0
SPLINE
  5
22E
330
1F
100
AcDbEntity
  8
0
100
AcDbSpline
210
0.0
220
0.0
230
1.0
 70
     8
 71
     3
 72
     9
 73
     5
 74
     0
 42
0.00000001
 43
0.00000001
 40
0.0
 40
0.0
 40
0.0
 40
0.0
 40
0.6647448408358309
 40
1.0
 40
1.0
 40
1.0
 40
1.0
 10
-39.67174832724218
 20
291.0401886128741
 30
0.0
 10
-39.27482058406135
 20
290.89571084188
 30
0.0
 10
-38.67770764869541
 20
290.6783676417244
 30
0.0
 10
-38.08130633493476
 20
289.9703746805974
 30
0.0
 10
-37.88135971756421
 20
289.7330163877277
 30
0.0
  0
SPLINE
  5
22F
330
1F
100
AcDbEntity
  8
0
100
AcDbSpline
210
0.0
220
0.0
230
1.0
 70
     8
 71
     3
 72
     9
 73
     5
 74
     0
 42
0.00000001
 43
0.00000001
 40
0.0
 40
0.0
 40
0.0
 40
0.0
 40
0.6647448408358365
 40
1.0
 40
1.0
 40
1.0
 40
1.0
 10
82.32825167275782
 20
291.0401886128741
 30
0.0
 10
82.72517941593867
 20
290.89571084188
 30
0.0
 10
83.32229235130461
 20
290.6783676417244
 30
0.0
 10
83.91869366506523
 20
289.9703746805974
 30
0.0
 10
84.11864028243576
 20
289.7330163877277
 30
0.0
  0
LINE
  5
230
330
1F
100
AcDbEntity
  8
0
100
AcDbLine
 10
141.4214221942
 20
90.7681497449
 30
0.0
 11
141.6617264595
 21
90.7318960464
 31
0.0
  0
SPLINE
  5
231
330
1F
100
AcDbEntity
  8
0
100
AcDbSpline
210
0.0
220
0.0
230
1.0
 70
     8
 71
     3
 72
     9
 73
     5
 74
     0
 42
0.00000001
 43
0.00000001
 40
0.0
 40
0.0
 40
0.0
 40
0.0
 40
0.6647448408358267
 40
1.0
 40
1.0
 40
1.0
 40
1.0
 10
204.3282516727578
 20
291.0401886128741
 30
0.0
 10
204.7251794159387
 20
290.89571084188
 30
0.0
 10
205.3222923513047
 20
290.6783676417244
 30
0.0
 10
205.9186936650652
 20
289.9703746805974
 30
0.0
 10
206.1186402824358
 20
289.7330163877277
 30
0.0
  0
SPLINE
  5
232
330
1F
100
AcDbEntity
  8
0
100
AcDbSpline
210
0.0
220
0.0
230
1.0
 70
    24
 71
     3
 72
    10
 73
     6
 74
     0
 42
0.00000001
 43
0.00000001
 40
0.0
 40
0.0
 40
0.0
 40
0.0
 40
0.4401375369708718
 40
0.7196374877722919
 40
1.0
 40
1.0
 40
1.0
 40
1.0
 10
251.4201604309037
 20
109.2557027708382
 30
0.0
 10
251.4201604309038
 20
109.1758436242142
 30
0.0
 10
251.4201604309038
 20
109.0452716306332
 30
0.0
 10
251.4201604309039
 20
108.8489732880379
 30
0.0
 10
251.4201604309037
 20
108.7294182935813
 30
0.0
 10
251.4201604309036
 20
108.6695486991565
 30
0.0
  0
LINE
  5
233
330
1F
100
AcDbEntity
  8
0
100
AcDbLine
 10
-48.5798395691
 20
291.6308621321
 30
0.0
 11
-48.5798395691
 21
291.5163813325
 31
0.0
  0
SPLINE
  5
234
330
1F
100
AcDbEntity
  8
0
100
AcDbSpline
210
0.0
220
0.0
230
1.0
 70
    24
 71
     3
 72
    10
 73
     6
 74
     0
 42
0.00000001
 43
0.00000001
 40
0.0
 40
0.0
 40
0.0
 40
0.0
 40
0.191853449129919
 40
0.7897213214493901
 40
1.0
 40
1.0
 40
1.0
 40
1.0
 10
251.4201604309036
 20
92.57323216216176
 30
0.0
 10
251.4201604309036
 20
92.3110183604383
 30
0.0
 10
251.4201604309038
 20
91.23167456475235
 30
0.0
 10
251.4201604309038
 20
90.64481432289189
 30
0.0
 10
251.4201604309038
 20
90.78352926360571
 30
0.0
 10
251.4201604309039
 20
90.81962271026721
 30
0.0
  0
SPLINE
  5
235
330
1F
100
AcDbEntity
  8
0
100
AcDbSpline
210
0.0
220
0.0
230
1.0
 70
    24
 71
     3
 72
    29
 73
    25
 74
     0
 42
0.00000001
 43
0.00000001
 40
0.0
 40
0.0
 40
0.0
 40
0.0
 40
0.0389238134109921
 40
0.0853877373641165
 40
0.1317039667159362
 40
0.1780201960677553
 40
0.2244841200208791
 40
0.2708003493726983
 40
0.3171165787245178
 40
0.3635805026776419
 40
0.4098967320294614
 40
0.4562129613812804
 40
0.5026768853344041
 40
0.548993114686223
 40
0.5953093440380426
 40
0.6417732679911666
 40
0.6880894973429861
 40
0.7344057266948055
 40
0.7808696506479296
 40
0.827185879999749
 40
0.8735021093515685
 40
0.9199660333046924
 40
0.9662822626565117
 40
1.0
 40
1.0
 40
1.0
 40
1.0
 10
251.4201604309038
 20
291.0968518920582
 30
0.0
 10
251.4201604309038
 20
290.7324684297745
 30
0.0
 10
251.4201604309038
 20
289.9331151123392
 30
0.0
 10
251.4201604309038
 20
287.193567884772
 30
0.0
 10
251.4201604309038
 20
283.2336794900706
 30
0.0
 10
251.4201604309039
 20
278.0473186031628
 30
0.0
 10
251.4201604309038
 20
271.7872898443
 30
0.0
 10
251.4201604309039
 20
264.5169491153766
 30
0.0
 10
251.4201604309038
 20
256.298442352396
 30
0.0
 10
251.4201604309038
 20
247.2686618684982
 30
0.0
 10
251.4201604309038
 20
237.5366402796904
 30
0.0
 10
251.4201604309038
 20
227.2047686528682
 30
0.0
 10
251.4201604309038
 20
216.4253688522564
 30
0.0
 10
251.4201604309039
 20
205.3283186291033
 30
0.0
 10
251.4201604309038
 20
194.0480708905813
 30
0.0
 10
251.4201604309038
 20
182.7343120166517
 30
0.0
 10
251.4201604309039
 20
171.5233337109439
 30
0.0
 10
251.4201604309038
 20
160.5665382194586
 30
0.0
 10
251.4201604309038
 20
149.9937039473781
 30
0.0
 10
251.4201604309036
 20
139.9337091324928
 30
0.0
 10
251.4201604309039
 20
130.5320810906061
 30
0.0
 10
251.4201604309036
 20
121.9055679765966
 30
0.0
 10
251.4201604309038
 20
114.7896047152624
 30
0.0
 10
251.4201604309037
 20
110.8960355801215
 30
0.0
 10
251.4201604309037
 20
109.2557027708382
 30
0.0
  0
SPLINE
  5
236
330
1F
100
AcDbEntity
  8
0
100
AcDbSpline
210
0.0
220
0.0
230
1.0
 70
    24
 71
     3
 72
    35
 73
    31
 74
     0
 42
0.00000001
 43
0.00000001
 40
0.0
 40
0.0
 40
0.0
 40
0.0
 40
0.0046463757534987
 40
0.0416756405538261
 40
0.078587200648309
 40
0.1154987607427918
 40
0.1525280255431192
 40
0.189439585637602
 40
0.2263511457320847
 40
0.2633804105324119
 40
0.3002919706268946
 40
0.3372035307213776
 40
0.3742327955217051
 40
0.4111443556161881
 40
0.4480559157106707
 40
0.4850851805109979
 40
0.5219967406054804
 40
0.5589083006999636
 40
0.5959375655002913
 40
0.6328491255947745
 40
0.6697606856892572
 40
0.7067899504895845
 40
0.7437015105840674
 40
0.7806130706785502
 40
0.8176423354788775
 40
0.8545538955733604
 40
0.8914654556678433
 40
0.9284947204681707
 40
0.9654062805626535
 40
0.9999999999999999
 40
0.9999999999999999
 40
0.9999999999999999
 40
0.9999999999999999
 10
-48.57983956909626
 20
291.1057278304635
 30
0.0
 10
-48.57983956909623
 20
291.081451384304
 30
0.0
 10
-48.5798395690962
 20
290.8637039403293
 30
0.0
 10
-48.57983956909626
 20
289.2533938818189
 30
0.0
 10
-48.57983956909623
 20
286.226718206989
 30
0.0
 10
-48.57983956909634
 20
281.8447492994817
 30
0.0
 10
-48.5798395690962
 20
276.3656905102602
 30
0.0
 10
-48.57983956909626
 20
269.8128549142637
 30
0.0
 10
-48.57983956909626
 20
262.2450798398444
 30
0.0
 10
-48.57983956909623
 20
253.7912089484955
 30
0.0
 10
-48.57983956909626
 20
244.5539250060352
 30
0.0
 10
-48.57983956909626
 20
234.6259833753811
 30
0.0
 10
-48.57983956909626
 20
224.1578152883995
 30
0.0
 10
-48.57983956909626
 20
213.2755365592828
 30
0.0
 10
-48.57983956909629
 20
202.107258859436
 30
0.0
 10
-48.57983956909626
 20
190.8048576647936
 30
0.0
 10
-48.57983956909626
 20
179.5045166070761
 30
0.0
 10
-48.57983956909629
 20
168.3550312694773
 30
0.0
 10
-48.5798395690962
 20
157.4926595405443
 30
0.0
 10
-48.57983956909626
 20
147.0482837668425
 30
0.0
 10
-48.57983956909626
 20
137.1746085942
 30
0.0
 10
-48.57983956909631
 20
127.9769248480819
 30
0.0
 10
-48.57983956909626
 20
119.5660066552157
 30
0.0
 10
-48.57983956909629
 20
112.0814425567119
 30
0.0
 10
-48.57983956909623
 20
105.5849710789722
 30
0.0
 10
-48.57983956909634
 20
100.157433657262
 30
0.0
 10
-48.57983956909617
 20
95.89962603104549
 30
0.0
 10
-48.57983956909629
 20
92.85991509075674
 30
0.0
 10
-48.57983956909629
 20
90.98170412982297
 30
0.0
 10
-48.57983956909623
 20
90.7993697551266
 30
0.0
 10
-48.57983956909626
 20
90.71115774835826
 30
0.0
  0
LINE
  5
237
330
1F
100
AcDbEntity
  8
0
100
AcDbLine
 10
-48.5798395691
 20
291.1663813325
 30
0.0
 11
-45.981107627
 21
291.1663813325
 31
0.0
  0
SPLINE
  5
238
330
1F
100
AcDbEntity
  8
0
100
AcDbSpline
210
0.0
220
0.0
230
1.0
 70
     8
 71
     3
 72
    10
 73
     6
 74
     0
 42
0.00000001
 43
0.00000001
 40
0.0
 40
0.0
 40
0.0
 40
0.0
 40
0.0615185514772743
 40
0.6524837422732707
 40
1.0
 40
1.0
 40
1.0
 40
1.0
 10
-83.61223823078795
 20
243.0223283740382
 30
0.0
 10
-83.52126911724089
 20
243.0365419777879
 30
0.0
 10
-82.55642410361314
 20
243.1872956145864
 30
0.0
 10
-81.07638666271494
 20
242.7766977726641
 30
0.0
 10
-79.68904815257937
 20
241.9224576358627
 30
0.0
 10
-79.17532176192846
 20
241.6061356286366
 30
0.0
  0
SPLINE
  5
239
330
1F
100
AcDbEntity
  8
0
100
AcDbSpline
210
0.0
220
0.0
230
1.0
 70
     8
 71
     3
 72
    11
 73
     7
 74
     0
 42
0.00000001
 43
0.00000001
 40
0.0
 40
0.0
 40
0.0
 40
0.0
 40
0.0390702757908843
 40
0.4143907674598223
 40
0.7895716597415744
 40
1.0
 40
1.0
 40
1.0
 40
1.0
 10
282.387761769212
 20
243.0223283740382
 30
0.0
 10
282.4787311385127
 20
243.0367366194653
 30
0.0
 10
283.4435788647386
 20
243.1895546828
 30
0.0
 10
285.2834452294949
 20
242.5578609429574
 30
0.0
 10
287.5200640742963
 20
241.4463488542278
 30
0.0
 10
288.8830636332361
 20
240.1140148299292
 30
0.0
 10
289.3728334644194
 20
239.6352641172963
 30
0.0
  0
SPLINE
  5
23A
330
1F
100
AcDbEntity
  8
0
100
AcDbSpline
210
0.0
220
0.0
230
1.0
 70
     8
 71
     3
 72
     9
 73
     5
 74
     0
 42
0.00000001
 43
0.00000001
 40
0.0
 40
0.0
 40
0.0
 40
0.0
 40
0.3396074820553049
 40
0.9999999999999999
 40
0.9999999999999999
 40
0.9999999999999999
 40
0.9999999999999999
 10
-83.45573245192826
 20
242.9613455079909
 30
0.0
 10
-83.39320170290279
 20
242.975178581745
 30
0.0
 10
-83.20907516762446
 20
243.0159111170544
 30
0.0
 10
-83.0248930964137
 20
242.9559675895293
 30
0.0
 10
-82.90326063464651
 20
242.9163813324526
 30
0.0
  0
SPLINE
  5
23B
330
1F
100
AcDbEntity
  8
0
100
AcDbSpline
210
0.0
220
0.0
230
1.0
 70
     8
 71
     3
 72
     9
 73
     5
 74
     0
 42
0.00000001
 43
0.00000001
 40
0.0
 40
0.0
 40
0.0
 40
0.0
 40
0.0360813871811401
 40
1.0
 40
1.0
 40
1.0
 40
1.0
 10
-80.65440902588917
 20
242.4550394694845
 30
0.0
 10
-80.63976643366836
 20
242.4521308906677
 30
0.0
 10
-80.2339452232109
 20
242.3715192777568
 30
0.0
 10
-79.82842151895433
 20
242.0713987739812
 30
0.0
 10
-79.43752967248219
 20
241.7821070343034
 30
0.0
  0
SPLINE
  5
23C
330
1F
100
AcDbEntity
  8
0
100
AcDbSpline
210
0.0
220
0.0
230
1.0
 70
     8
 71
     3
 72
    10
 73
     6
 74
     0
 42
0.00000001
 43
0.00000001
 40
0.0
 40
0.0
 40
0.0
 40
0.0
 40
0.0104970371771865
 40
0.6453582734296665
 40
1.0
 40
1.0
 40
1.0
 40
1.0
 10
285.3455909741108
 20
242.4550394694845
 30
0.0
 10
285.3602334985768
 20
242.452070746087
 30
0.0
 10
286.2604564994591
 20
242.2695535106308
 30
0.0
 10
287.6542982942267
 20
241.3697873340492
 30
0.0
 10
289.0336795718362
 20
240.0551448028759
 30
0.0
 10
289.5280552091712
 20
239.5839717851134
 30
0.0
  0
LINE
  5
23D
330
1F
100
AcDbEntity
  8
0
100
AcDbLine
 10
-88.1474968554
 20
242.9754784138
 30
0.0
 11
-87.6928623228
 21
242.9369880865
 31
0.0
  0
LINE
  5
23E
330
1F
100
AcDbEntity
  8
0
100
AcDbLine
 10
-88.5798395691
 20
243.0120814682
 30
0.0
 11
-88.5798395691
 21
242.8570030102
 31
0.0
  0
LINE
  5
23F
330
1F
100
AcDbEntity
  8
0
100
AcDbLine
 10
291.4201604309
 20
231.6761479482
 30
0.0
 11
291.4201604309
 21
230.4183635451
 31
0.0
  0
SPLINE
  5
240
330
1F
100
AcDbEntity
  8
0
100
AcDbSpline
210
0.0
220
0.0
230
1.0
 70
    24
 71
     3
 72
    10
 73
     6
 74
     0
 42
0.00000001
 43
0.00000001
 40
0.0
 40
0.0
 40
0.0
 40
0.0
 40
0.3745029717797295
 40
0.6865756290523519
 40
1.0
 40
1.0
 40
1.0
 40
1.0
 10
291.4201604309038
 20
237.5525515247218
 30
0.0
 10
291.4201604309038
 20
236.9136595430547
 30
0.0
 10
291.4201604309038
 20
235.7423800145505
 30
0.0
 10
291.4201604309039
 20
233.7566702689143
 30
0.0
 10
291.4201604309038
 20
232.370653793094
 30
0.0
 10
291.4201604309038
 20
231.6761479482092
 30
0.0
  0
LINE
  5
241
330
1F
100
AcDbEntity
  8
0
100
AcDbLine
 10
291.4201604309
 20
237.7125505532
 30
0.0
 11
291.4201604309
 21
237.6966178956
 31
0.0
  0
SPLINE
  5
242
330
1F
100
AcDbEntity
  8
0
100
AcDbSpline
210
0.0
220
0.0
230
1.0
 70
     8
 71
     3
 72
     9
 73
     5
 74
     0
 42
0.00000001
 43
0.00000001
 40
0.0
 40
0.0
 40
0.0
 40
0.0
 40
0.430272451153816
 40
1.0
 40
1.0
 40
1.0
 40
1.0
 10
-83.50671105700604
 20
242.9394307863116
 30
0.0
 10
-83.45647608554829
 20
242.950255515928
 30
0.0
 10
-83.33972454516258
 20
242.9754133655355
 30
0.0
 10
-83.22290790554645
 20
242.9378068183826
 30
0.0
 10
-83.15635424779344
 20
242.9163813324526
 30
0.0
  0
SPLINE
  5
243
330
1F
100
AcDbEntity
  8
0
100
AcDbSpline
210
0.0
220
0.0
230
1.0
 70
     8
 71
     3
 72
    10
 73
     6
 74
     0
 42
0.00000001
 43
0.00000001
 40
0.0
 40
0.0
 40
0.0
 40
0.0
 40
0.2078042192364712
 40
0.9845247476411735
 40
1.0
 40
1.0
 40
1.0
 40
1.0
 10
289.2525935407824
 20
239.7234965840412
 30
0.0
 10
288.9886527939562
 20
239.9913759984701
 30
0.0
 10
287.7381671295362
 20
241.2605220911623
 30
0.0
 10
286.4679511836693
 20
242.1002851460874
 30
0.0
 10
285.4614386556578
 20
242.3012111074118
 30
0.0
 10
285.4417768046968
 20
242.3051361219504
 30
0.0
  0
LINE
  5
244
330
1F
100
AcDbEntity
  8
0
100
AcDbLine
 10
-79.5663153619
 20
241.6942187025
 30
0.0
 11
-80.3925647173
 21
242.2031068341
 31
0.0
  0
SPLINE
  5
245
330
1F
100
AcDbEntity
  8
0
100
AcDbSpline
210
0.0
220
0.0
230
1.0
 70
     8
 71
     3
 72
     9
 73
     5
 74
     0
 42
0.00000001
 43
0.00000001
 40
0.0
 40
0.0
 40
0.0
 40
0.0
 40
0.9999638215233256
 40
1.0
 40
1.0
 40
1.0
 40
1.0
 10
-83.50671105700607
 20
242.9394307863116
 30
0.0
 10
-83.55012268186404
 20
242.9574439207402
 30
0.0
 10
-83.59353587734522
 20
242.9754577068803
 30
0.0
 10
-83.63694949167031
 20
242.966380675703
 30
0.0
 10
-83.63695106230878
 20
242.9663803473099
 30
0.0
  0
SPLINE
  5
246
330
1F
100
AcDbEntity
  8
0
100
AcDbSpline
210
0.0
220
0.0
230
1.0
 70
    24
 71
     3
 72
     9
 73
     5
 74
     0
 42
0.00000001
 43
0.00000001
 40
0.0
 40
0.0
 40
0.0
 40
0.0
 40
0.3697540404356188
 40
1.0
 40
1.0
 40
1.0
 40
1.0
 10
291.4201604309039
 20
230.2126448190271
 30
0.0
 10
291.4201604309039
 20
230.4135416753714
 30
0.0
 10
291.4201604309037
 20
230.9568673307386
 30
0.0
 10
291.4201604309037
 20
231.3629646256241
 30
0.0
 10
291.4201604309037
 20
231.6189058049158
 30
0.0
  0
LINE
  5
247
330
1F
100
AcDbEntity
  8
0
100
AcDbLine
 10
291.4201604309
 20
231.6189058049
 30
0.0
 11
291.4201604309
 21
237.4332824637
 31
0.0
  0
LWPOLYLINE
  5
248
330
1F
100
AcDbEntity
  8
0
100
AcDbPolyline
 90
        3
 70
   128
 43
0.0
 10
651.0041705428
 20
89.0124400749
 10
651.2026230817
 20
89.0765137863
 10
651.3935610506
 20
89.1436229854
  0
LWPOLYLINE
  5
249
330
1F
100
AcDbEntity
  8
0
100
AcDbPolyline
 90
        3
 70
   128
 43
0.0
 10
646.6779362768
 20
89.1436229854
 10
646.8686797711
 20
89.0765793894
 10
647.0671026493
 20
89.0125092317
  0
LWPOLYLINE
  5
24A
330
1F
100
AcDbEntity
  8
0
100
AcDbPolyline
 90
        3
 70
   128
 43
0.0
 10
651.3935610506
 20
293.1891396795
 10
651.2028175563
 20
293.2561832755
 10
651.0043946781
 20
293.3202534332
  0
LWPOLYLINE
  5
24B
330
1F
100
AcDbEntity
  8
0
100
AcDbPolyline
 90
        3
 70
   128
 43
0.0
 10
751.1896899213
 20
193.1348032115
 10
751.1256162099
 20
193.3332557504
 10
751.0585070108
 20
193.5241937193
  0
LWPOLYLINE
  5
24C
330
1F
100
AcDbEntity
  8
0
100
AcDbPolyline
 90
        3
 70
   128
 43
0.0
 10
751.0585070108
 20
188.8085689456
 10
751.1255506067
 20
188.9993124399
 10
751.1896207645
 20
189.1977353181
  0
LWPOLYLINE
  5
24D
330
1F
100
AcDbEntity
  8
0
100
AcDbPolyline
 90
        3
 70
   128
 43
0.0
 10
546.8818074061
 20
189.1979594534
 10
546.9458811175
 20
188.9995069145
 10
547.0129903166
 20
188.8085689456
  0
LWPOLYLINE
  5
24E
330
1F
100
AcDbEntity
  8
0
100
AcDbPolyline
 90
        3
 70
   128
 43
0.0
 10
547.0129903166
 20
193.5241937193
 10
546.9459467207
 20
193.3334502251
 10
546.881876563
 20
193.1350273468
  0
CIRCLE
  5
24F
330
1F
100
AcDbEntity
  8
0
100
AcDbCircle
 10
649.0357486637
 20
191.1663813325
 30
0.0
 40
57.40000000000011
  0
CIRCLE
  5
250
330
1F
100
AcDbEntity
  8
0
100
AcDbCircle
 10
649.0357486637
 20
191.1663813325
 30
0.0
 40
102.05
  0
LINE
  5
251
330
1F
100
AcDbEntity
  8
0
100
AcDbLine
 10
649.497824693
 20
89.0272038113
 30
0.0
 11
649.5217963961
 21
88.7991282919
 31
0.0
  0
LINE
  5
252
330
1F
100
AcDbEntity
  8
0
100
AcDbLine
 10
648.5736726344
 20
89.0272038113
 30
0.0
 11
649.497824693
 21
89.0272038113
 31
0.0
  0
LINE
  5
253
330
1F
100
AcDbEntity
  8
0
100
AcDbLine
 10
648.5497009314
 20
88.7991282919
 30
0.0
 11
648.5736726344
 21
89.0272038113
 31
0.0
  0
SPLINE
  5
254
330
1F
100
AcDbEntity
  8
0
100
AcDbSpline
210
0.0
220
0.0
230
1.0
 70
     8
 71
     3
 72
    12
 73
     8
 74
     0
 42
0.00000001
 43
0.00000001
 40
0.0
 40
0.0
 40
0.0
 40
0.0
 40
0.217477091206651
 40
0.4353705208257721
 40
0.6490388720033425
 40
0.8610609605882511
 40
1.0
 40
1.0
 40
1.0
 40
1.0
 10
648.035748663706
 20
88.79912829187253
 30
0.0
 10
648.0935213038659
 20
88.79015072626173
 30
0.0
 10
648.2091771841998
 20
88.77217840837746
 30
0.0
 10
648.3632820472523
 20
88.76050977959929
 30
0.0
 10
648.4785343689116
 20
88.76349392698452
 30
0.0
 10
648.5392459138056
 20
88.7783028388458
 30
0.0
 10
648.5467358168472
 20
88.79322205090477
 30
0.0
 10
648.5497009313596
 20
88.79912829187252
 30
0.0
  0
LINE
  5
255
330
1F
100
AcDbEntity
  8
0
100
AcDbLine
 10
647.0736726344
 20
89.0272038113
 30
0.0
 11
648.0357486637
 21
88.7991282919
 31
0.0
  0
LINE
  5
256
330
1F
100
AcDbEntity
  8
0
100
AcDbLine
 10
650.0357486637
 20
88.7991282919
 30
0.0
 11
650.997824693
 21
89.0272038113
 31
0.0
  0
SPLINE
  5
257
330
1F
100
AcDbEntity
  8
0
100
AcDbSpline
210
0.0
220
0.0
230
1.0
 70
     8
 71
     3
 72
    12
 73
     8
 74
     0
 42
0.00000001
 43
0.00000001
 40
0.0
 40
0.0
 40
0.0
 40
0.0
 40
0.2174770912066793
 40
0.4353705208258715
 40
0.6490388720034603
 40
0.8610609605884167
 40
1.0
 40
1.0
 40
1.0
 40
1.0
 10
649.5217963960524
 20
88.79912829187249
 30
0.0
 10
649.5284050344239
 20
88.79015072626171
 30
0.0
 10
649.5416349627526
 20
88.77217840837744
 30
0.0
 10
649.6325229507088
 20
88.76050977959925
 30
0.0
 10
649.7638608060578
 20
88.76349392698451
 30
0.0
 10
649.9060854702274
 20
88.77830283884575
 30
0.0
 10
649.9989752948699
 20
88.79322205090475
 30
0.0
 10
650.0357486637058
 20
88.79912829187245
 30
0.0
  0
LINE
  5
258
330
1F
100
AcDbEntity
  8
0
100
AcDbLine
 10
648.5736726344
 20
293.3055588536
 30
0.0
 11
648.5497009314
 21
293.533634373
 31
0.0
  0
LINE
  5
259
330
1F
100
AcDbEntity
  8
0
100
AcDbLine
 10
649.497824693
 20
293.3055588536
 30
0.0
 11
648.5736726344
 21
293.3055588536
 31
0.0
  0
LINE
  5
25A
330
1F
100
AcDbEntity
  8
0
100
AcDbLine
 10
649.5217963961
 20
293.533634373
 30
0.0
 11
649.497824693
 21
293.3055588536
 31
0.0
  0
SPLINE
  5
25B
330
1F
100
AcDbEntity
  8
0
100
AcDbSpline
210
0.0
220
0.0
230
1.0
 70
     8
 71
     3
 72
    12
 73
     8
 74
     0
 42
0.00000001
 43
0.00000001
 40
0.0
 40
0.0
 40
0.0
 40
0.0
 40
0.2174770912066498
 40
0.4353705208257714
 40
0.6490388720033421
 40
0.8610609605882509
 40
0.9999999999999999
 40
0.9999999999999999
 40
0.9999999999999999
 40
0.9999999999999999
 10
650.0357486637093
 20
293.5336343730351
 30
0.0
 10
649.9779760235494
 20
293.5426119386458
 30
0.0
 10
649.8623201432157
 20
293.5605842565301
 30
0.0
 10
649.7082152801631
 20
293.5722528853083
 30
0.0
 10
649.5929629585039
 20
293.5692687379231
 30
0.0
 10
649.5322514136099
 20
293.5544598260618
 30
0.0
 10
649.5247615105682
 20
293.5395406140028
 30
0.0
 10
649.5217963960558
 20
293.5336343730351
 30
0.0
  0
LINE
  5
25C
330
1F
100
AcDbEntity
  8
0
100
AcDbLine
 10
650.997824693
 20
293.3055588536
 30
0.0
 11
650.0357486637
 21
293.533634373
 31
0.0
  0
LINE
  5
25D
330
1F
100
AcDbEntity
  8
0
100
AcDbLine
 10
648.0357486637
 20
293.533634373
 30
0.0
 11
647.0736726344
 21
293.3055588536
 31
0.0
  0
SPLINE
  5
25E
330
1F
100
AcDbEntity
  8
0
100
AcDbSpline
210
0.0
220
0.0
230
1.0
 70
     8
 71
     3
 72
    12
 73
     8
 74
     0
 42
0.00000001
 43
0.00000001
 40
0.0
 40
0.0
 40
0.0
 40
0.0
 40
0.217477091206679
 40
0.4353705208258711
 40
0.6490388720034596
 40
0.8610609605884152
 40
1.0
 40
1.0
 40
1.0
 40
1.0
 10
648.549700931363
 20
293.5336343730351
 30
0.0
 10
648.5430922929913
 20
293.5426119386458
 30
0.0
 10
648.5298623646628
 20
293.5605842565301
 30
0.0
 10
648.4389743767066
 20
293.5722528853083
 30
0.0
 10
648.3076365213577
 20
293.569268737923
 30
0.0
 10
648.1654118571881
 20
293.5544598260618
 30
0.0
 10
648.0725220325456
 20
293.5395406140028
 30
0.0
 10
648.0357486637095
 20
293.5336343730351
 30
0.0
  0
LINE
  5
25F
330
1F
100
AcDbEntity
  8
0
100
AcDbLine
 10
751.1749261849
 20
191.6284573617
 30
0.0
 11
751.4030017043
 21
191.6524290648
 31
0.0
  0
LINE
  5
260
330
1F
100
AcDbEntity
  8
0
100
AcDbLine
 10
751.1749261849
 20
190.7043053032
 30
0.0
 11
751.1749261849
 21
191.6284573617
 31
0.0
  0
LINE
  5
261
330
1F
100
AcDbEntity
  8
0
100
AcDbLine
 10
751.4030017043
 20
190.6803336001
 30
0.0
 11
751.1749261849
 21
190.7043053032
 31
0.0
  0
SPLINE
  5
262
330
1F
100
AcDbEntity
  8
0
100
AcDbSpline
210
0.0
220
0.0
230
1.0
 70
     8
 71
     3
 72
    12
 73
     8
 74
     0
 42
0.00000001
 43
0.00000001
 40
0.0
 40
0.0
 40
0.0
 40
0.0
 40
0.2174770912066492
 40
0.4353705208257708
 40
0.6490388720033418
 40
0.8610609605882509
 40
1.0
 40
1.0
 40
1.0
 40
1.0
 10
751.4030017042894
 20
190.166381332452
 30
0.0
 10
751.4119792699003
 20
190.224153972612
 30
0.0
 10
751.4299515877844
 20
190.3398098529457
 30
0.0
 10
751.4416202165627
 20
190.4939147159983
 30
0.0
 10
751.4386360691774
 20
190.6091670376575
 30
0.0
 10
751.4238271573162
 20
190.6698785825515
 30
0.0
 10
751.4089079452572
 20
190.6773684855932
 30
0.0
 10
751.4030017042894
 20
190.6803336001056
 30
0.0
  0
LINE
  5
263
330
1F
100
AcDbEntity
  8
0
100
AcDbLine
 10
751.1749261849
 20
189.2043053032
 30
0.0
 11
751.4030017043
 21
190.1663813325
 31
0.0
  0
LINE
  5
264
330
1F
100
AcDbEntity
  8
0
100
AcDbLine
 10
751.4030017043
 20
192.1663813325
 30
0.0
 11
751.1749261849
 21
193.1284573617
 31
0.0
  0
SPLINE
  5
265
330
1F
100
AcDbEntity
  8
0
100
AcDbSpline
210
0.0
220
0.0
230
1.0
 70
     8
 71
     3
 72
    12
 73
     8
 74
     0
 42
0.00000001
 43
0.00000001
 40
0.0
 40
0.0
 40
0.0
 40
0.0
 40
0.2174770912066788
 40
0.4353705208258705
 40
0.6490388720034589
 40
0.8610609605884147
 40
1.0
 40
1.0
 40
1.0
 40
1.0
 10
751.4030017042894
 20
191.6524290647984
 30
0.0
 10
751.4119792699003
 20
191.65903770317
 30
0.0
 10
751.4299515877844
 20
191.6722676314986
 30
0.0
 10
751.4416202165627
 20
191.7631556194548
 30
0.0
 10
751.4386360691775
 20
191.8944934748037
 30
0.0
 10
751.4238271573163
 20
192.0367181389733
 30
0.0
 10
751.4089079452572
 20
192.1296079636158
 30
0.0
 10
751.4030017042895
 20
192.1663813324518
 30
0.0
  0
LINE
  5
266
330
1F
100
AcDbEntity
  8
0
100
AcDbLine
 10
546.8965711425
 20
190.7043053032
 30
0.0
 11
546.6684956231
 21
190.6803336001
 31
0.0
  0
LINE
  5
267
330
1F
100
AcDbEntity
  8
0
100
AcDbLine
 10
546.8965711425
 20
191.6284573618
 30
0.0
 11
546.8965711425
 21
190.7043053032
 31
0.0
  0
LINE
  5
268
330
1F
100
AcDbEntity
  8
0
100
AcDbLine
 10
546.6684956231
 20
191.6524290648
 30
0.0
 11
546.8965711425
 21
191.6284573618
 31
0.0
  0
SPLINE
  5
269
330
1F
100
AcDbEntity
  8
0
100
AcDbSpline
210
0.0
220
0.0
230
1.0
 70
     8
 71
     3
 72
    12
 73
     8
 74
     0
 42
0.00000001
 43
0.00000001
 40
0.0
 40
0.0
 40
0.0
 40
0.0
 40
0.2174770912066495
 40
0.4353705208257713
 40
0.6490388720033419
 40
0.8610609605882508
 40
0.9999999999999999
 40
0.9999999999999999
 40
0.9999999999999999
 40
0.9999999999999999
 10
546.6684956231269
 20
192.1663813324549
 30
0.0
 10
546.6595180575162
 20
192.1086086922949
 30
0.0
 10
546.6415457396319
 20
191.9929528119611
 30
0.0
 10
546.6298771108536
 20
191.8388479489086
 30
0.0
 10
546.6328612582389
 20
191.7235956272493
 30
0.0
 10
546.6476701701002
 20
191.6628840823553
 30
0.0
 10
546.6625893821591
 20
191.6553941793136
 30
0.0
 10
546.6684956231269
 20
191.6524290648013
 30
0.0
  0
LINE
  5
26A
330
1F
100
AcDbEntity
  8
0
100
AcDbLine
 10
546.8965711425
 20
193.1284573618
 30
0.0
 11
546.6684956231
 21
192.1663813325
 31
0.0
  0
LINE
  5
26B
330
1F
100
AcDbEntity
  8
0
100
AcDbLine
 10
546.6684956231
 20
190.1663813325
 30
0.0
 11
546.8965711425
 21
189.2043053032
 31
0.0
  0
SPLINE
  5
26C
330
1F
100
AcDbEntity
  8
0
100
AcDbSpline
210
0.0
220
0.0
230
1.0
 70
     8
 71
     3
 72
    12
 73
     8
 74
     0
 42
0.00000001
 43
0.00000001
 40
0.0
 40
0.0
 40
0.0
 40
0.0
 40
0.2174770912066789
 40
0.4353705208258709
 40
0.649038872003459
 40
0.861060960588415
 40
1.0
 40
1.0
 40
1.0
 40
1.0
 10
546.6684956231269
 20
190.6803336001084
 30
0.0
 10
546.6595180575162
 20
190.6737249617368
 30
0.0
 10
546.6415457396319
 20
190.6604950334083
 30
0.0
 10
546.6298771108536
 20
190.5696070454521
 30
0.0
 10
546.6328612582388
 20
190.4382691901031
 30
0.0
 10
546.6476701701001
 20
190.2960445259336
 30
0.0
 10
546.662589382159
 20
190.2031547012911
 30
0.0
 10
546.6684956231268
 20
190.166381332455
 30
0.0
  0
CIRCLE
  5
26D
330
1F
100
AcDbEntity
  8
0
100
AcDbCircle
 10
649.0357486637
 20
191.1663813325
 30
0.0
 40
45.60000000000028
  0
CIRCLE
  5
26E
330
1F
100
AcDbEntity
  8
0
100
AcDbCircle
 10
649.0357486637
 20
191.1663813325
 30
0.0
 40
49.40000000000026
  0
CIRCLE
  5
26F
330
1F
100
AcDbEntity
  8
0
100
AcDbCircle
 10
649.0357486637
 20
191.1663813325
 30
0.0
 40
99.30000000000001
  0
SPLINE
  5
270
330
1F
100
AcDbEntity
  8
0
100
AcDbSpline
210
0.0
220
0.0
230
1.0
 70
     8
 71
     3
 72
    10
 73
     6
 74
     0
 42
0.00000001
 43
0.00000001
 40
0.0
 40
0.0
 40
0.0
 40
0.0
 40
0.4880823606017939
 40
0.9766239527379282
 40
1.0
 40
1.0
 40
1.0
 40
1.0
 10
644.8236184937991
 20
293.2295013094159
 30
0.0
 10
645.337455979584
 20
293.2330835813702
 30
0.0
 10
646.3656144154133
 20
293.2402514958006
 30
0.0
 10
647.4332022749545
 20
293.1881137367532
 30
0.0
 10
647.9535160897527
 20
293.0425335238838
 30
0.0
 10
647.9772755373468
 20
293.0358857944942
 30
0.0
  0
SPLINE
  5
271
330
1F
100
AcDbEntity
  8
0
100
AcDbSpline
210
0.0
220
0.0
230
1.0
 70
     8
 71
     3
 72
    13
 73
     9
 74
     0
 42
0.00000001
 43
0.00000001
 40
0.0
 40
0.0
 40
0.0
 40
0.0
 40
0.1891382960347118
 40
0.3783830363699616
 40
0.5675904856556332
 40
0.7567417120652719
 40
0.946027926161258
 40
0.9999999999999999
 40
0.9999999999999999
 40
0.9999999999999999
 40
0.9999999999999999
 10
644.8236184937977
 20
293.2295013094158
 30
0.0
 10
648.4010983110475
 20
293.2688024012986
 30
0.0
 10
655.5580712995045
 20
293.3474267031508
 30
0.0
 10
666.2308935487487
 20
292.0325379781923
 30
0.0
 10
676.7226618200434
 20
289.7058598606012
 30
0.0
 10
686.8685354806269
 20
286.1970944746388
 30
0.0
 10
694.4002215186367
 20
282.9402542771505
 30
0.0
 10
698.3283932267153
 20
280.5491812390987
 30
0.0
 10
699.1999424564648
 20
280.0186703502028
 30
0.0
  0
SPLINE
  5
272
330
1F
100
AcDbEntity
  8
0
100
AcDbSpline
210
0.0
220
0.0
230
1.0
 70
     8
 71
     3
 72
    12
 73
     8
 74
     0
 42
0.00000001
 43
0.00000001
 40
0.0
 40
0.0
 40
0.0
 40
0.0
 40
0.0522806792859466
 40
0.2902503587510879
 40
0.5283051590686137
 40
0.7662044235627691
 40
1.0
 40
1.0
 40
1.0
 40
1.0
 10
740.0919911521704
 20
237.2400715246227
 30
0.0
 10
740.4819732472236
 20
236.5380573501715
 30
0.0
 10
742.6470645303065
 20
232.6406354198184
 30
0.0
 10
745.5586567831238
 20
225.0248620612113
 30
0.0
 10
748.6844425323379
 20
214.5169737777652
 30
0.0
 10
750.6521677373817
 20
203.7577182911879
 30
0.0
 10
750.9918336377191
 20
196.5168889143295
 30
0.0
 10
751.1601890617653
 20
192.9279713957414
 30
0.0
  0
SPLINE
  5
273
330
1F
100
AcDbEntity
  8
0
100
AcDbSpline
210
0.0
220
0.0
230
1.0
 70
     8
 71
     3
 72
    14
 73
    10
 74
     0
 42
0.00000001
 43
0.00000001
 40
0.0
 40
0.0
 40
0.0
 40
0.0
 40
0.1102736959985729
 40
0.2791390823076675
 40
0.4481099232859308
 40
0.6169555479142745
 40
0.7858849143001109
 40
0.9548021896627161
 40
0.9999999999999999
 40
0.9999999999999999
 40
0.9999999999999999
 40
0.9999999999999999
 10
751.0278595306015
 20
188.9302085387451
 30
0.0
 10
750.9796672415767
 20
186.5430268862474
 30
0.0
 10
750.8576766688401
 20
180.5002830592103
 30
0.0
 10
749.3254312784561
 20
170.8913764807392
 30
0.0
 10
746.608159693328
 20
160.2602057702072
 30
0.0
 10
742.7383086572485
 20
149.9685851282476
 30
0.0
 10
737.730809742631
 20
140.2101228537009
 30
0.0
 10
733.3725702228999
 20
133.1156010882073
 30
0.0
 10
730.4132615121237
 20
129.5489609278314
 30
0.0
 10
729.788577485765
 20
128.796074577096
 30
0.0
  0
SPLINE
  5
274
330
1F
100
AcDbEntity
  8
0
100
AcDbSpline
210
0.0
220
0.0
230
1.0
 70
     8
 71
     3
 72
    10
 73
     6
 74
     0
 42
0.00000001
 43
0.00000001
 40
0.0
 40
0.0
 40
0.0
 40
0.0
 40
0.4339359471705924
 40
0.7166836561914314
 40
1.0
 40
1.0
 40
1.0
 40
1.0
 10
621.4193698515452
 20
289.4364376151517
 30
0.0
 10
621.5425744155885
 20
289.4915766208753
 30
0.0
 10
621.7460576669621
 20
289.582643573218
 30
0.0
 10
622.0409974577451
 20
289.6817701233481
 30
0.0
 10
622.2102102440942
 20
289.7300121874119
 30
0.0
 10
622.2949016278952
 20
289.7541574500195
 30
0.0
  0
SPLINE
  5
275
330
1F
100
AcDbEntity
  8
0
100
AcDbSpline
210
0.0
220
0.0
230
1.0
 70
     8
 71
     3
 72
    10
 73
     6
 74
     0
 42
0.00000001
 43
0.00000001
 40
0.0
 40
0.0
 40
0.0
 40
0.0
 40
0.3806784773286669
 40
0.68959628698029
 40
1.0
 40
1.0
 40
1.0
 40
1.0
 10
622.2949016278952
 20
289.7541574500195
 30
0.0
 10
625.1111658018857
 20
290.4427345379555
 30
0.0
 10
630.2128078257997
 20
291.6900869138301
 30
0.0
 10
637.7581226300766
 20
292.7898426198869
 30
0.0
 10
642.46468913894
 20
293.0827141894667
 30
0.0
 10
644.8236184937991
 20
293.2295013094159
 30
0.0
  0
INSERT
  5
281
330
1F
100
AcDbEntity
  8
0
  6
Continuous
 62
     7
370
    18
100
AcDbBlockReference
  2
SW_CENTERMARKSYMBOL_0
 10
649.0357486637
 20
191.1663813325
 30
0.0
  0
ENDSEC
  0
SECTION
  2
OBJECTS
  0
DICTIONARY
  5
C
330
0
100
AcDbDictionary
281
     1
  3
ACAD_GROUP
350
D
  3
ACAD_LAYOUT
350
1A
  3
ACAD_MLINESTYLE
350
17
  3
ACAD_PLOTSETTINGS
350
19
  3
ACAD_PLOTSTYLENAME
350
E
  3
ACAD_SCALELIST
350
47
  3
DWGPROPS
350
282
  0
DICTIONARY
  5
D
102
{ACAD_REACTORS
330
C
102
}
330
C
100
AcDbDictionary
281
     1
  0
DICTIONARY
  5
1A
102
{ACAD_REACTORS
330
C
102
}
330
C
100
AcDbDictionary
281
     1
  3
Layout1
350
1E
  3
Layout2
350
26
  3
Model
350
22
  0
DICTIONARY
  5
17
102
{ACAD_REACTORS
330
C
102
}
330
C
100
AcDbDictionary
281
     1
  3
Standard
350
18
  0
DICTIONARY
  5
19
102
{ACAD_REACTORS
330
C
102
}
330
C
100
AcDbDictionary
281
     1
  0
ACDBDICTIONARYWDFLT
  5
E
102
{ACAD_REACTORS
330
C
102
}
330
C
100
AcDbDictionary
281
     1
  3
Normal
350
F
100
AcDbDictionaryWithDefault
340
F
  0
DICTIONARY
  5
47
102
{ACAD_REACTORS
330
C
102
}
330
C
100
AcDbDictionary
281
     1
  3
A0
350
48
  3
A1
350
49
  3
A2
350
4A
  3
A3
350
4B
  3
A4
350
4C
  3
A5
350
4D
  3
A6
350
4E
  3
A7
350
4F
  3
A8
350
50
  3
A9
350
51
  3
B0
350
52
  3
B1
350
53
  3
B2
350
54
  3
B3
350
55
  3
B4
350
56
  3
B5
350
57
  3
B6
350
58
  3
B7
350
59
  3
B8
350
5A
  3
B9
350
5B
  3
C0
350
5C
  3
C1
350
5D
  3
C2
350
5E
  3
C3
350
5F
  3
C4
350
60
  3
C5
350
61
  3
C6
350
62
  3
C7
350
63
  3
C8
350
64
  3
C9
350
65
  3
D0
350
66
  3
D1
350
67
  3
D2
350
68
  0
XRECORD
  5
282
102
{ACAD_REACTORS
330
C
102
}
330
C
100
AcDbXrecord
280
     1
  1
DWGPROPS COOKIE
  2

  3

  4

  6

  7

  8
Emilis.Masalas
  9

300
=
301
=
302
=
303
=
304
=
305
=
306
=
307
=
308
=
309
=
 40
0.0
 41
2459179.578788021
 42
2459179.578788507
  1

 90
        0
  0
LAYOUT
  5
1E
102
{ACAD_REACTORS
330
1A
102
}
330
1A
100
AcDbPlotSettings
  1

  2
none_device
  4

  6

 40
0.0
 41
0.0
 42
0.0
 43
0.0
 44
0.0
 45
0.0
 46
0.0
 47
0.0
 48
0.0
 49
0.0
140
0.0
141
0.0
142
1.0
143
1.0
 70
   688
 72
     1
 73
     0
 74
     5
  7

 75
    16
147
1.0
148
0.0
149
0.0
100
AcDbLayout
  1
Layout1
 70
     1
 71
     1
 10
0.0
 20
0.0
 11
420.0
 21
297.0
 12
0.0
 22
0.0
 32
0.0
 14
1.0000000000E+20
 24
1.0000000000E+20
 34
1.0000000000E+20
 15
-1.0000000000E+20
 25
-1.0000000000E+20
 35
-1.0000000000E+20
146
0.0
 13
0.0
 23
0.0
 33
0.0
 16
1.0
 26
0.0
 36
0.0
 17
0.0
 27
1.0
 37
0.0
 76
     0
330
1B
  0
LAYOUT
  5
26
102
{ACAD_REACTORS
330
1A
102
}
330
1A
100
AcDbPlotSettings
  1

  2
none_device
  4

  6

 40
0.0
 41
0.0
 42
0.0
 43
0.0
 44
0.0
 45
0.0
 46
0.0
 47
0.0
 48
0.0
 49
0.0
140
0.0
141
0.0
142
1.0
143
1.0
 70
   688
 72
     1
 73
     0
 74
     5
  7

 75
    16
147
1.0
148
0.0
149
0.0
100
AcDbLayout
  1
Layout2
 70
     1
 71
     2
 10
0.0
 20
0.0
 11
0.0
 21
0.0
 12
0.0
 22
0.0
 32
0.0
 14
0.0
 24
0.0
 34
0.0
 15
0.0
 25
0.0
 35
0.0
146
0.0
 13
0.0
 23
0.0
 33
0.0
 16
1.0
 26
0.0
 36
0.0
 17
0.0
 27
1.0
 37
0.0
 76
     0
330
23
  0
LAYOUT
  5
22
102
{ACAD_REACTORS
330
1A
102
}
330
1A
100
AcDbPlotSettings
  1

  2
none_device
  4
Letter_(8.50_x_11.00_Inches)
  6

 40
6.35
 41
6.35
 42
6.35000508
 43
6.35000508
 44
215.9
 45
279.4
 46
0.0
 47
0.0
 48
0.0
 49
0.0
140
0.0
141
0.0
142
1.0
143
1.0
 70
  1712
 72
     1
 73
     0
 74
     0
  7

 75
     0
147
1.0
148
0.0
149
0.0
100
AcDbLayout
  1
Model
 70
     1
 71
     0
 10
0.0
 20
0.0
 11
420.0
 21
297.0
 12
0.0
 22
0.0
 32
0.0
 14
0.0
 24
0.0
 34
0.0
 15
420.0
 25
297.0
 35
0.0
146
0.0
 13
0.0
 23
0.0
 33
0.0
 16
1.0
 26
0.0
 36
0.0
 17
0.0
 27
1.0
 37
0.0
 76
     0
330
1F
331
29
  0
MLINESTYLE
  5
18
102
{ACAD_REACTORS
330
17
102
}
330
17
100
AcDbMlineStyle
  2
Standard
 70
     0
  3

 62
   256
 51
90.0
 52
90.0
 71
     2
 49
0.5
 62
   256
  6
BYLAYER
 49
-0.5
 62
   256
  6
BYLAYER
  0
ACDBPLACEHOLDER
  5
F
102
{ACAD_REACTORS
330
E
102
}
330
E
  0
SCALE
  5
48
102
{ACAD_REACTORS
330
47
102
}
330
47
100
AcDbScale
 70
     0
300
1:1
140
1.0
141
1.0
290
     1
  0
SCALE
  5
49
102
{ACAD_REACTORS
330
47
102
}
330
47
100
AcDbScale
 70
     0
300
1:2
140
1.0
141
2.0
290
     0
  0
SCALE
  5
4A
102
{ACAD_REACTORS
330
47
102
}
330
47
100
AcDbScale
 70
     0
300
1:4
140
1.0
141
4.0
290
     0
  0
SCALE
  5
4B
102
{ACAD_REACTORS
330
47
102
}
330
47
100
AcDbScale
 70
     0
300
1:5
140
1.0
141
5.0
290
     0
  0
SCALE
  5
4C
102
{ACAD_REACTORS
330
47
102
}
330
47
100
AcDbScale
 70
     0
300
1:8
140
1.0
141
8.0
290
     0
  0
SCALE
  5
4D
102
{ACAD_REACTORS
330
47
102
}
330
47
100
AcDbScale
 70
     0
300
1:10
140
1.0
141
10.0
290
     0
  0
SCALE
  5
4E
102
{ACAD_REACTORS
330
47
102
}
330
47
100
AcDbScale
 70
     0
300
1:16
140
1.0
141
16.0
290
     0
  0
SCALE
  5
4F
102
{ACAD_REACTORS
330
47
102
}
330
47
100
AcDbScale
 70
     0
300
1:20
140
1.0
141
20.0
290
     0
  0
SCALE
  5
50
102
{ACAD_REACTORS
330
47
102
}
330
47
100
AcDbScale
 70
     0
300
1:30
140
1.0
141
30.0
290
     0
  0
SCALE
  5
51
102
{ACAD_REACTORS
330
47
102
}
330
47
100
AcDbScale
 70
     0
300
1:40
140
1.0
141
40.0
290
     0
  0
SCALE
  5
52
102
{ACAD_REACTORS
330
47
102
}
330
47
100
AcDbScale
 70
     0
300
1:50
140
1.0
141
50.0
290
     0
  0
SCALE
  5
53
102
{ACAD_REACTORS
330
47
102
}
330
47
100
AcDbScale
 70
     0
300
1:100
140
1.0
141
100.0
290
     0
  0
SCALE
  5
54
102
{ACAD_REACTORS
330
47
102
}
330
47
100
AcDbScale
 70
     0
300
2:1
140
2.0
141
1.0
290
     0
  0
SCALE
  5
55
102
{ACAD_REACTORS
330
47
102
}
330
47
100
AcDbScale
 70
     0
300
4:1
140
4.0
141
1.0
290
     0
  0
SCALE
  5
56
102
{ACAD_REACTORS
330
47
102
}
330
47
100
AcDbScale
 70
     0
300
8:1
140
8.0
141
1.0
290
     0
  0
SCALE
  5
57
102
{ACAD_REACTORS
330
47
102
}
330
47
100
AcDbScale
 70
     0
300
10:1
140
10.0
141
1.0
290
     0
  0
SCALE
  5
58
102
{ACAD_REACTORS
330
47
102
}
330
47
100
AcDbScale
 70
     0
300
100:1
140
100.0
141
1.0
290
     0
  0
SCALE
  5
59
102
{ACAD_REACTORS
330
47
102
}
330
47
100
AcDbScale
 70
     0
300
1/128" = 1'-0"
140
0.0078125
141
12.0
290
     0
  0
SCALE
  5
5A
102
{ACAD_REACTORS
330
47
102
}
330
47
100
AcDbScale
 70
     0
300
1/64" = 1'-0"
140
0.015625
141
12.0
290
     0
  0
SCALE
  5
5B
102
{ACAD_REACTORS
330
47
102
}
330
47
100
AcDbScale
 70
     0
300
1/32" = 1'-0"
140
0.03125
141
12.0
290
     0
  0
SCALE
  5
5C
102
{ACAD_REACTORS
330
47
102
}
330
47
100
AcDbScale
 70
     0
300
1/16" = 1'-0"
140
0.0625
141
12.0
290
     0
  0
SCALE
  5
5D
102
{ACAD_REACTORS
330
47
102
}
330
47
100
AcDbScale
 70
     0
300
3/32" = 1'-0"
140
0.09375
141
12.0
290
     0
  0
SCALE
  5
5E
102
{ACAD_REACTORS
330
47
102
}
330
47
100
AcDbScale
 70
     0
300
1/8" = 1'-0"
140
0.125
141
12.0
290
     0
  0
SCALE
  5
5F
102
{ACAD_REACTORS
330
47
102
}
330
47
100
AcDbScale
 70
     0
300
3/16" = 1'-0"
140
0.1875
141
12.0
290
     0
  0
SCALE
  5
60
102
{ACAD_REACTORS
330
47
102
}
330
47
100
AcDbScale
 70
     0
300
1/4" = 1'-0"
140
0.25
141
12.0
290
     0
  0
SCALE
  5
61
102
{ACAD_REACTORS
330
47
102
}
330
47
100
AcDbScale
 70
     0
300
3/8" = 1'-0"
140
0.375
141
12.0
290
     0
  0
SCALE
  5
62
102
{ACAD_REACTORS
330
47
102
}
330
47
100
AcDbScale
 70
     0
300
1/2" = 1'-0"
140
0.5
141
12.0
290
     0
  0
SCALE
  5
63
102
{ACAD_REACTORS
330
47
102
}
330
47
100
AcDbScale
 70
     0
300
3/4" = 1'-0"
140
0.75
141
12.0
290
     0
  0
SCALE
  5
64
102
{ACAD_REACTORS
330
47
102
}
330
47
100
AcDbScale
 70
     0
300
1" = 1'-0"
140
1.0
141
12.0
290
     0
  0
SCALE
  5
65
102
{ACAD_REACTORS
330
47
102
}
330
47
100
AcDbScale
 70
     0
300
1-1/2" = 1'-0"
140
1.5
141
12.0
290
     0
  0
SCALE
  5
66
102
{ACAD_REACTORS
330
47
102
}
330
47
100
AcDbScale
 70
     0
300
3" = 1'-0"
140
3.0
141
12.0
290
     0
  0
SCALE
  5
67
102
{ACAD_REACTORS
330
47
102
}
330
47
100
AcDbScale
 70
     0
300
6" = 1'-0"
140
6.0
141
12.0
290
     0
  0
SCALE
  5
68
102
{ACAD_REACTORS
330
47
102
}
330
47
100
AcDbScale
 70
     0
300
1'-0" = 1'-0"
140
12.0
141
12.0
290
     0
  0
ENDSEC
  0
EOF
