  0
SECTION
  2
HEADER
  9
$ACADVER
  1
AC1015
  9
$ACADMAINTVER
 70
     6
  9
$DWGCODEPAGE
  3
ANSI_1257
  9
$INSBASE
 10
0.0
 20
0.0
 30
0.0
  9
$EXTMIN
 10
0.0
 20
0.0
 30
0.0
  9
$EXTMAX
 10
420.0
 20
297.0
 30
0.0
  9
$LIMMIN
 10
0.0
 20
0.0
  9
$LIMMAX
 10
420.0
 20
297.0
  9
$ORTHOMODE
 70
     0
  9
$REGENMODE
 70
     1
  9
$FILLMODE
 70
     1
  9
$QTEXTMODE
 70
     0
  9
$MIRRTEXT
 70
     1
  9
$LTSCALE
 40
1.0
  9
$ATTMODE
 70
     1
  9
$TEXTSIZE
 40
5.6444444444
  9
$TRACEWID
 40
1.0
  9
$TEXTSTYLE
  7
Standard
  9
$CLAYER
  8
0
  9
$CELTYPE
  6
ByLayer
  9
$CECOLOR
 62
   256
  9
$CELTSCALE
 40
1.0
  9
$DISPSILH
 70
     0
  9
$DIMSCALE
 40
1.0
  9
$DIMASZ
 40
3.175
  9
$DIMEXO
 40
1.0
  9
$DIMDLI
 40
3.75
  9
$DIMRND
 40
0.0
  9
$DIMDLE
 40
0.0
  9
$DIMEXE
 40
1.0
  9
$DIMTP
 40
0.0
  9
$DIMTM
 40
0.0
  9
$DIMTXT
 40
4.9388888889
  9
$DIMCEN
 40
2.5
  9
$DIMTSZ
 40
0.0
  9
$DIMTOL
 70
     0
  9
$DIMLIM
 70
     0
  9
$DIMTIH
 70
     1
  9
$DIMTOH
 70
     1
  9
$DIMSE1
 70
     0
  9
$DIMSE2
 70
     0
  9
$DIMTAD
 70
     1
  9
$DIMZIN
 70
     0
  9
$DIMBLK
  1

  9
$DIMASO
 70
     1
  9
$DIMSHO
 70
     1
  9
$DIMPOST
  1

  9
$DIMAPOST
  1

  9
$DIMALT
 70
     0
  9
$DIMALTD
 70
     3
  9
$DIMALTF
 40
0.0393700787
  9
$DIMLFAC
 40
1.0
  9
$DIMTOFL
 70
     1
  9
$DIMTVP
 40
0.0
  9
$DIMTIX
 70
     0
  9
$DIMSOXD
 70
     0
  9
$DIMSAH
 70
     0
  9
$DIMBLK1
  1

  9
$DIMBLK2
  1

  9
$DIMSTYLE
  2
ISO-25
  9
$DIMCLRD
 70
     0
  9
$DIMCLRE
 70
     0
  9
$DIMCLRT
 70
     0
  9
$DIMTFAC
 40
1.0
  9
$DIMGAP
 40
1.524
  9
$DIMJUST
 70
     0
  9
$DIMSD1
 70
     0
  9
$DIMSD2
 70
     0
  9
$DIMTOLJ
 70
     0
  9
$DIMTZIN
 70
     0
  9
$DIMALTZ
 70
     0
  9
$DIMALTTZ
 70
     0
  9
$DIMUPT
 70
     0
  9
$DIMDEC
 70
     1
  9
$DIMTDEC
 70
     1
  9
$DIMALTU
 70
     2
  9
$DIMALTTD
 70
     3
  9
$DIMTXSTY
  7
Standard
  9
$DIMAUNIT
 70
     0
  9
$DIMADEC
 70
     1
  9
$DIMALTRND
 40
0.0
  9
$DIMAZIN
 70
     0
  9
$DIMDSEP
 70
    44
  9
$DIMATFIT
 70
     3
  9
$DIMFRAC
 70
     0
  9
$DIMLDRBLK
  1

  9
$DIMLUNIT
 70
     2
  9
$DIMLWD
 70
    -2
  9
$DIMLWE
 70
    -2
  9
$DIMTMOVE
 70
     0
  9
$LUNITS
 70
     2
  9
$LUPREC
 70
     1
  9
$SKETCHINC
 40
1.0
  9
$FILLETRAD
 40
10.0
  9
$AUNITS
 70
     0
  9
$AUPREC
 70
     1
  9
$MENU
  1
.
  9
$ELEVATION
 40
0.0
  9
$PELEVATION
 40
0.0
  9
$THICKNESS
 40
0.0
  9
$LIMCHECK
 70
     0
  9
$CHAMFERA
 40
0.0
  9
$CHAMFERB
 40
0.0
  9
$CHAMFERC
 40
0.0
  9
$CHAMFERD
 40
0.0
  9
$SKPOLY
 70
     0
  9
$TDCREATE
 40
2459179.669163646
  9
$TDUCREATE
 40
2459179.585830313
  9
$TDUPDATE
 40
2459179.66916441
  9
$TDUUPDATE
 40
2459179.585831076
  9
$TDINDWG
 40
0.0000000116
  9
$TDUSRTIMER
 40
0.0000000116
  9
$USRTIMER
 70
     1
  9
$ANGBASE
 50
0.0
  9
$ANGDIR
 70
     0
  9
$PDMODE
 70
     0
  9
$PDSIZE
 40
-1.0
  9
$PLINEWID
 40
0.0
  9
$SPLFRAME
 70
     0
  9
$SPLINETYPE
 70
     6
  9
$SPLINESEGS
 70
     8
  9
$HANDSEED
  5
28E
  9
$SURFTAB1
 70
     6
  9
$SURFTAB2
 70
     6
  9
$SURFTYPE
 70
     6
  9
$SURFU
 70
     6
  9
$SURFV
 70
     6
  9
$UCSBASE
  2

  9
$UCSNAME
  2

  9
$UCSORG
 10
0.0
 20
0.0
 30
0.0
  9
$UCSXDIR
 10
1.0
 20
0.0
 30
0.0
  9
$UCSYDIR
 10
0.0
 20
1.0
 30
0.0
  9
$UCSORTHOREF
  2

  9
$UCSORTHOVIEW
 70
     0
  9
$UCSORGTOP
 10
0.0
 20
0.0
 30
0.0
  9
$UCSORGBOTTOM
 10
0.0
 20
0.0
 30
0.0
  9
$UCSORGLEFT
 10
0.0
 20
0.0
 30
0.0
  9
$UCSORGRIGHT
 10
0.0
 20
0.0
 30
0.0
  9
$UCSORGFRONT
 10
0.0
 20
0.0
 30
0.0
  9
$UCSORGBACK
 10
0.0
 20
0.0
 30
0.0
  9
$PUCSBASE
  2

  9
$PUCSNAME
  2

  9
$PUCSORG
 10
0.0
 20
0.0
 30
0.0
  9
$PUCSXDIR
 10
1.0
 20
0.0
 30
0.0
  9
$PUCSYDIR
 10
0.0
 20
1.0
 30
0.0
  9
$PUCSORTHOREF
  2

  9
$PUCSORTHOVIEW
 70
     0
  9
$PUCSORGTOP
 10
0.0
 20
0.0
 30
0.0
  9
$PUCSORGBOTTOM
 10
0.0
 20
0.0
 30
0.0
  9
$PUCSORGLEFT
 10
0.0
 20
0.0
 30
0.0
  9
$PUCSORGRIGHT
 10
0.0
 20
0.0
 30
0.0
  9
$PUCSORGFRONT
 10
0.0
 20
0.0
 30
0.0
  9
$PUCSORGBACK
 10
0.0
 20
0.0
 30
0.0
  9
$USERI1
 70
     0
  9
$USERI2
 70
     0
  9
$USERI3
 70
     0
  9
$USERI4
 70
     0
  9
$USERI5
 70
     0
  9
$USERR1
 40
0.0
  9
$USERR2
 40
0.0
  9
$USERR3
 40
0.0
  9
$USERR4
 40
0.0
  9
$USERR5
 40
0.0
  9
$WORLDVIEW
 70
     1
  9
$SHADEDGE
 70
     3
  9
$SHADEDIF
 70
    70
  9
$TILEMODE
 70
     1
  9
$MAXACTVP
 70
    64
  9
$PINSBASE
 10
0.0
 20
0.0
 30
0.0
  9
$PLIMCHECK
 70
     0
  9
$PEXTMIN
 10
1.0000000000E+20
 20
1.0000000000E+20
 30
1.0000000000E+20
  9
$PEXTMAX
 10
-1.0000000000E+20
 20
-1.0000000000E+20
 30
-1.0000000000E+20
  9
$PLIMMIN
 10
0.0
 20
0.0
  9
$PLIMMAX
 10
420.0
 20
297.0
  9
$UNITMODE
 70
     0
  9
$VISRETAIN
 70
     1
  9
$PLINEGEN
 70
     0
  9
$PSLTSCALE
 70
     1
  9
$TREEDEPTH
 70
  3020
  9
$CMLSTYLE
  2
Standard
  9
$CMLJUST
 70
     0
  9
$CMLSCALE
 40
20.0
  9
$PROXYGRAPHICS
 70
     1
  9
$MEASUREMENT
 70
     1
  9
$CELWEIGHT
370
    -1
  9
$ENDCAPS
280
     0
  9
$JOINSTYLE
280
     0
  9
$LWDISPLAY
290
     1
  9
$INSUNITS
 70
     4
  9
$HYPERLINKBASE
  1

  9
$STYLESHEET
  1

  9
$XEDIT
290
     1
  9
$CEPSNTYPE
380
     0
  9
$PSTYLEMODE
290
     1
  9
$FINGERPRINTGUID
  2
{158e11bc-15f7-49ed-b5ea-ddb096b911f2}
  9
$VERSIONGUID
  2
{FAEB1C32-E019-11D5-929B-00C0DF256EC4}
  9
$EXTNAMES
290
     1
  9
$PSVPSCALE
 40
0.0
  9
$OLESTARTUP
290
     0
  0
ENDSEC
  0
SECTION
  2
CLASSES
  0
CLASS
  1
ACDBDICTIONARYWDFLT
  2
AcDbDictionaryWithDefault
  3
ObjectDBX Classes
 90
        0
280
     0
281
     0
  0
CLASS
  1
VISUALSTYLE
  2
AcDbVisualStyle
  3
ObjectDBX Classes
 90
     4095
280
     0
281
     0
  0
CLASS
  1
MATERIAL
  2
AcDbMaterial
  3
ObjectDBX Classes
 90
     1153
280
     0
281
     0
  0
CLASS
  1
SCALE
  2
AcDbScale
  3
ObjectDBX Classes
 90
     1153
280
     0
281
     0
  0
CLASS
  1
TABLESTYLE
  2
AcDbTableStyle
  3
ObjectDBX Classes
 90
     4095
280
     0
281
     0
  0
CLASS
  1
MLEADERSTYLE
  2
AcDbMLeaderStyle
  3
ACDB_MLEADERSTYLE_CLASS
 90
     4095
280
     0
281
     0
  0
CLASS
  1
SUN
  2
AcDbSun
  3
SCENEOE
 90
     1153
280
     0
281
     0
  0
CLASS
  1
ACDBPLACEHOLDER
  2
AcDbPlaceHolder
  3
ObjectDBX Classes
 90
        0
280
     0
281
     0
  0
CLASS
  1
LAYOUT
  2
AcDbLayout
  3
ObjectDBX Classes
 90
        0
280
     0
281
     0
  0
ENDSEC
  0
SECTION
  2
TABLES
  0
TABLE
  2
VPORT
  5
8
330
0
100
AcDbSymbolTable
 70
     1
  0
VPORT
  5
29
330
8
100
AcDbSymbolTableRecord
100
AcDbViewportTableRecord
  2
*Active
 70
     0
 10
0.0
 20
0.0
 11
1.0
 21
1.0
 12
210.0
 22
148.5
 13
0.0
 23
0.0
 14
10.0
 24
10.0
 15
10.0
 25
10.0
 16
0.0
 26
0.0
 36
1.0
 17
0.0
 27
0.0
 37
0.0
 40
297.0
 41
1.4141414141
 42
50.0
 43
0.0
 44
0.0
 50
0.0
 51
0.0
 71
     0
 72
  2000
 73
     1
 74
     3
 75
     0
 76
     0
 77
     0
 78
     0
281
     0
 65
     1
110
0.0
120
0.0
130
0.0
111
1.0
121
0.0
131
0.0
112
0.0
122
1.0
132
0.0
 79
     0
146
0.0
  0
ENDTAB
  0
TABLE
  2
LTYPE
  5
5
330
0
100
AcDbSymbolTable
 70
     6
  0
LTYPE
  5
14
330
5
100
AcDbSymbolTableRecord
100
AcDbLinetypeTableRecord
  2
ByBlock
 70
     0
  3

 72
    65
 73
     0
 40
0.0
  0
LTYPE
  5
15
330
5
100
AcDbSymbolTableRecord
100
AcDbLinetypeTableRecord
  2
ByLayer
 70
     0
  3

 72
    65
 73
     0
 40
0.0
  0
LTYPE
  5
16
330
5
100
AcDbSymbolTableRecord
100
AcDbLinetypeTableRecord
  2
Continuous
 70
     0
  3
Solid line
 72
    65
 73
     0
 40
0.0
  0
LTYPE
  5
6E
330
5
100
AcDbSymbolTableRecord
100
AcDbLinetypeTableRecord
  2
HIDDEN
 70
     0
  3
Hidden __ __ __ __ __ __ __ __ __ __ __ __ __ __
 72
    65
 73
     2
 40
1.905
 49
1.27
 74
     0
 49
-0.635
 74
     0
  0
LTYPE
  5
6F
330
5
100
AcDbSymbolTableRecord
100
AcDbLinetypeTableRecord
  2
PHANTOM
 70
     0
  3
Phantom ______  __  __  ______  __  __  ______
 72
    65
 73
     6
 40
12.7
 49
6.35
 74
     0
 49
-1.27
 74
     0
 49
1.27
 74
     0
 49
-1.27
 74
     0
 49
1.27
 74
     0
 49
-1.27
 74
     0
  0
LTYPE
  5
70
330
5
100
AcDbSymbolTableRecord
100
AcDbLinetypeTableRecord
  2
CENTER
 70
     0
  3
Center ____ _ ____ _ ____ _ ____ _ ____ _ ____
 72
    65
 73
     4
 40
10.16
 49
6.35
 74
     0
 49
-1.27
 74
     0
 49
1.27
 74
     0
 49
-1.27
 74
     0
  0
LTYPE
  5
71
330
5
100
AcDbSymbolTableRecord
100
AcDbLinetypeTableRecord
  2
CENTERX2
 70
     0
  3
Center (2x) ________  __  ________  __  _____
 72
    65
 73
     4
 40
20.32
 49
12.7
 74
     0
 49
-2.54
 74
     0
 49
2.54
 74
     0
 49
-2.54
 74
     0
  0
LTYPE
  5
72
330
5
100
AcDbSymbolTableRecord
100
AcDbLinetypeTableRecord
  2
DOT2
 70
     0
  3
Dot (.5x) ........................................
 72
    65
 73
     2
 40
0.635
 49
0.0
 74
     0
 49
-0.635
 74
     0
  0
ENDTAB
  0
TABLE
  2
LAYER
  5
2
330
0
100
AcDbSymbolTable
 70
     2
  0
LAYER
  5
10
330
2
100
AcDbSymbolTableRecord
100
AcDbLayerTableRecord
  2
0
 70
     0
 62
     7
  6
Continuous
370
    -3
390
F
  0
LAYER
  5
73
330
2
100
AcDbSymbolTableRecord
100
AcDbLayerTableRecord
  2
LENKIMO
 70
     0
 62
     1
  6
CENTERX2
370
    -3
390
F
  0
ENDTAB
  0
TABLE
  2
STYLE
  5
3
330
0
100
AcDbSymbolTable
 70
     1
  0
STYLE
  5
11
330
3
100
AcDbSymbolTableRecord
100
AcDbTextStyleTableRecord
  2
Standard
 70
     0
 40
0.0
 41
1.0
 50
0.0
 71
     0
 42
5.6444444444
  3
txt
  4

  0
ENDTAB
  0
TABLE
  2
VIEW
  5
6
330
0
100
AcDbSymbolTable
 70
     0
  0
ENDTAB
  0
TABLE
  2
UCS
  5
7
330
0
100
AcDbSymbolTable
 70
     0
  0
ENDTAB
  0
TABLE
  2
APPID
  5
9
330
0
100
AcDbSymbolTable
 70
     1
  0
APPID
  5
12
330
9
100
AcDbSymbolTableRecord
100
AcDbRegAppTableRecord
  2
ACAD
 70
     0
  0
ENDTAB
  0
TABLE
  2
DIMSTYLE
  5
A
330
0
100
AcDbSymbolTable
 70
     1
100
AcDbDimStyleTable
  0
DIMSTYLE
105
27
330
A
100
AcDbSymbolTableRecord
100
AcDbDimStyleTableRecord
  2
ISO-25
 70
     0
 41
2.5
 42
0.625
 43
3.75
 44
1.25
 73
     0
 74
     0
 77
     1
 78
     8
140
2.5
141
2.5
143
0.0393700787
147
0.625
171
     3
172
     1
178
     0
271
     2
272
     2
274
     3
278
    44
283
     0
284
     8
340
11
  0
ENDTAB
  0
TABLE
  2
BLOCK_RECORD
  5
1
330
0
100
AcDbSymbolTable
 70
     3
  0
BLOCK_RECORD
  5
1F
330
1
100
AcDbSymbolTableRecord
100
AcDbBlockTableRecord
  2
*Model_Space
340
22
  0
BLOCK_RECORD
  5
1B
330
1
100
AcDbSymbolTableRecord
100
AcDbBlockTableRecord
  2
*Paper_Space
340
1E
  0
BLOCK_RECORD
  5
23
330
1
100
AcDbSymbolTableRecord
100
AcDbBlockTableRecord
  2
*Paper_Space0
340
26
  0
BLOCK_RECORD
  5
74
330
1
100
AcDbSymbolTableRecord
100
AcDbBlockTableRecord
  2
Block11_2
340
0
  0
BLOCK_RECORD
  5
281
330
1
100
AcDbSymbolTableRecord
100
AcDbBlockTableRecord
  2
SW_CENTERMARKSYMBOL_0
340
0
102
{BLKREFS
331
28C
102
}
  0
ENDTAB
  0
ENDSEC
  0
SECTION
  2
BLOCKS
  0
BLOCK
  5
20
330
1F
100
AcDbEntity
  8
0
100
AcDbBlockBegin
  2
*Model_Space
 70
     0
 10
0.0
 20
0.0
 30
0.0
  3
*Model_Space
  1

  0
ENDBLK
  5
21
330
1F
100
AcDbEntity
  8
0
100
AcDbBlockEnd
  0
BLOCK
  5
1C
330
1B
100
AcDbEntity
 67
     1
  8
0
100
AcDbBlockBegin
  2
*Paper_Space
 70
     0
 10
0.0
 20
0.0
 30
0.0
  3
*Paper_Space
  1

  0
ENDBLK
  5
1D
330
1B
100
AcDbEntity
 67
     1
  8
0
100
AcDbBlockEnd
  0
BLOCK
  5
24
330
23
100
AcDbEntity
  8
0
100
AcDbBlockBegin
  2
*Paper_Space0
 70
     0
 10
0.0
 20
0.0
 30
0.0
  3
*Paper_Space0
  1

  0
ENDBLK
  5
25
330
23
100
AcDbEntity
  8
0
100
AcDbBlockEnd
  0
BLOCK
  5
75
330
74
100
AcDbEntity
  8
0
100
AcDbBlockBegin
  2
Block11_2
 70
     0
 10
0.0
 20
0.0
 30
0.0
  3
Block11_2
  1

  0
LINE
  5
77
330
74
100
AcDbEntity
  8
0
  6
Continuous
100
AcDbLine
 10
-15.7956326374
 20
2.3055746011
 30
0.0
 11
-18.0649288667
 21
1.8146036087
 31
0.0
  0
LINE
  5
78
330
74
100
AcDbEntity
  8
0
  6
Continuous
100
AcDbLine
 10
-15.6988785554
 20
-9.1195335787
 30
0.0
 11
-10.2261014967
 21
-7.9354771524
 31
0.0
  0
LINE
  5
79
330
74
100
AcDbEntity
  8
0
  6
Continuous
100
AcDbLine
 10
-10.2261014967
 20
-7.9354771524
 30
0.0
 11
-10.6655808869
 21
-5.9041780766
 31
0.0
  0
LINE
  5
7A
330
74
100
AcDbEntity
  8
0
  6
Continuous
100
AcDbLine
 10
-10.6655808869
 20
-5.9041780766
 30
0.0
 11
-13.8699456036
 21
-6.5974547429
 31
0.0
  0
LINE
  5
7B
330
74
100
AcDbEntity
  8
0
  6
Continuous
100
AcDbLine
 10
-8.296070931
 20
1.802048972
 30
0.0
 11
-6.9198111955
 21
2.0998080743
 31
0.0
  0
LINE
  5
7C
330
74
100
AcDbEntity
  8
0
  6
Continuous
100
AcDbLine
 10
-5.4333831358
 20
-4.7719736412
 30
0.0
 11
-6.8095376466
 21
-5.0697099777
 31
0.0
  0
LINE
  5
7D
330
74
100
AcDbEntity
  8
0
  6
Continuous
100
AcDbLine
 10
-11.0044904538
 20
3.3421566929
 30
0.0
 11
-8.6388294738
 21
-7.5920647278
 31
0.0
  0
LINE
  5
7E
330
74
100
AcDbEntity
  8
0
  6
Continuous
100
AcDbLine
 10
-8.6388294738
 20
-7.5920647278
 30
0.0
 11
-8.6384401425
 21
-7.5919804944
 31
0.0
  0
LINE
  5
7F
330
74
100
AcDbEntity
  8
0
  6
Continuous
100
AcDbLine
 10
-8.6384401425
 20
-7.5919804944
 30
0.0
 11
-4.4940245505
 21
-6.6953201952
 31
0.0
  0
LINE
  5
80
330
74
100
AcDbEntity
  8
0
  6
Continuous
100
AcDbLine
 10
-6.8595855671
 20
4.238922853
 30
0.0
 11
-11.0044904538
 21
3.3421566929
 31
0.0
  0
LINE
  5
81
330
74
100
AcDbEntity
  8
0
  6
Continuous
100
AcDbLine
 10
-32.9933593229
 20
-3.3005605139
 30
0.0
 11
-32.8591663041
 21
-3.2715273367
 31
0.0
  0
LINE
  5
82
330
74
100
AcDbEntity
  8
0
  6
Continuous
100
AcDbLine
 10
-31.5697721187
 20
-3.9678201523
 30
0.0
 11
-29.2969561243
 21
-3.4760876451
 31
0.0
  0
LINE
  5
83
330
74
100
AcDbEntity
  8
0
  6
Continuous
100
AcDbLine
 10
-33.2794920496
 20
-1.2667721217
 30
0.0
 11
-33.3448839193
 21
-1.2809199049
 31
0.0
  0
LINE
  5
84
330
74
100
AcDbEntity
  8
0
  6
Continuous
100
AcDbLine
 10
-31.3289079349
 20
-10.5856399919
 30
0.0
 11
-31.4650581325
 21
-10.6150966123
 31
0.0
  0
LINE
  5
85
330
74
100
AcDbEntity
  8
0
  6
Continuous
100
AcDbLine
 10
-32.8822392925
 20
-9.9377601564
 30
0.0
 11
-35.1888692339
 21
-10.4368084414
 31
0.0
  0
LINE
  5
86
330
74
100
AcDbEntity
  8
0
  6
Continuous
100
AcDbLine
 10
-31.5949683304
 20
-12.7295787952
 30
0.0
 11
-30.2063920476
 21
-12.4291549603
 31
0.0
  0
LINE
  5
87
330
74
100
AcDbEntity
  8
0
  6
Continuous
100
AcDbLine
 10
6.262509235
 20
-4.3681026205
 30
0.0
 11
8.6370616994
 21
-3.8543590356
 31
0.0
  0
LINE
  5
88
330
74
100
AcDbEntity
  8
0
  6
Continuous
100
AcDbLine
 10
8.6370616994
 20
-3.8543590356
 30
0.0
 11
3.9059396663
 21
6.5680857621
 31
0.0
  0
LINE
  5
89
330
74
100
AcDbEntity
  8
0
  6
Continuous
100
AcDbLine
 10
3.9059396663
 20
6.5680857621
 30
0.0
 11
0.0
 21
5.7230206493
 31
0.0
  0
LINE
  5
8A
330
74
100
AcDbEntity
  8
0
  6
Continuous
100
AcDbLine
 10
0.0
 20
5.7230206493
 30
0.0
 11
0.0
 21
-5.7230206493
 31
0.0
  0
LINE
  5
8B
330
74
100
AcDbEntity
  8
0
  6
Continuous
100
AcDbLine
 10
0.0
 20
-5.7230206493
 30
0.0
 11
2.3746576891
 21
-5.2092542987
 31
0.0
  0
LINE
  5
8C
330
74
100
AcDbEntity
  8
0
  6
Continuous
100
AcDbLine
 10
2.3746576891
 20
-5.2092542987
 30
0.0
 11
2.3747844598
 21
-3.0912381741
 31
0.0
  0
LINE
  5
8D
330
74
100
AcDbEntity
  8
0
  6
Continuous
100
AcDbLine
 10
2.3747844598
 20
-3.0912381741
 30
0.0
 11
4.0318309599
 21
-2.7327297722
 31
0.0
  0
LINE
  5
8E
330
74
100
AcDbEntity
  8
0
  6
Continuous
100
AcDbLine
 10
4.0318309599
 20
-2.7327297722
 30
0.0
 11
3.5923515697
 21
-0.7014306964
 31
0.0
  0
LINE
  5
8F
330
74
100
AcDbEntity
  8
0
  6
Continuous
100
AcDbLine
 10
3.5923515697
 20
-0.7014306964
 30
0.0
 11
2.3750284336
 21
-0.9648032524
 31
0.0
  0
LINE
  5
90
330
74
100
AcDbEntity
  8
0
  6
Continuous
100
AcDbLine
 10
2.3750284336
 20
-0.9648032524
 30
0.0
 11
2.3752084601
 21
4.1936873712
 31
0.0
  0
LINE
  5
91
330
74
100
AcDbEntity
  8
0
  6
Continuous
100
AcDbLine
 10
2.3752084601
 20
4.1936873712
 30
0.0
 11
6.262509235
 21
-4.3681026205
 31
0.0
  0
LINE
  5
92
330
74
100
AcDbEntity
  8
0
  6
Continuous
100
AcDbLine
 10
-53.0629352118
 20
-11.4801779454
 30
0.0
 11
-50.7945341276
 21
-8.0228043203
 31
0.0
  0
LINE
  5
93
330
74
100
AcDbEntity
  8
0
  6
Continuous
100
AcDbLine
 10
-50.7945341276
 20
-8.0228043203
 30
0.0
 11
-54.2891069366
 21
-5.8122833411
 31
0.0
  0
LINE
  5
94
330
74
100
AcDbEntity
  8
0
  6
Continuous
100
AcDbLine
 10
-54.2891069366
 20
-5.8122833411
 30
0.0
 11
-51.4073820962
 21
-5.1888110564
 31
0.0
  0
LINE
  5
95
330
74
100
AcDbEntity
  8
0
  6
Continuous
100
AcDbLine
 10
-51.4073820962
 20
-5.1888110564
 30
0.0
 11
-47.9127327975
 21
-7.3992273667
 31
0.0
  0
LINE
  5
96
330
74
100
AcDbEntity
  8
0
  6
Continuous
100
AcDbLine
 10
-47.9127327975
 20
-7.3992273667
 30
0.0
 11
-50.1813587974
 21
-10.8569360435
 31
0.0
  0
LINE
  5
97
330
74
100
AcDbEntity
  8
0
  6
Continuous
100
AcDbLine
 10
-50.1813587974
 20
-10.8569360435
 30
0.0
 11
-53.0628942334
 21
-11.4803673498
 31
0.0
  0
LINE
  5
98
330
74
100
AcDbEntity
  8
0
  6
Continuous
100
AcDbLine
 10
-53.0628942334
 20
-11.4803673498
 30
0.0
 11
-53.0629352118
 21
-11.4801779454
 31
0.0
  0
LINE
  5
99
330
74
100
AcDbEntity
  8
0
  6
Continuous
100
AcDbLine
 10
-42.7624916815
 20
-3.31845567
 30
0.0
 11
-45.0307950789
 21
-6.7757971452
 31
0.0
  0
LINE
  5
9A
330
74
100
AcDbEntity
  8
0
  6
Continuous
100
AcDbLine
 10
-45.0307950789
 20
-6.7757971452
 30
0.0
 11
-48.5254573289
 21
-4.5652955168
 31
0.0
  0
LINE
  5
9B
330
74
100
AcDbEntity
  8
0
  6
Continuous
100
AcDbLine
 10
-48.5254573289
 20
-4.5652955168
 30
0.0
 11
-48.5257466967
 21
-4.5653581227
 31
0.0
  0
LINE
  5
9C
330
74
100
AcDbEntity
  8
0
  6
Continuous
100
AcDbLine
 10
-48.5257466967
 20
-4.5653581227
 30
0.0
 11
-47.9126146215
 21
-7.399289919
 31
0.0
  0
LINE
  5
9D
330
74
100
AcDbEntity
  8
0
  6
Continuous
100
AcDbLine
 10
-47.9126146215
 20
-7.399289919
 30
0.0
 11
-44.4177372167
 21
-9.6098441329
 31
0.0
  0
LINE
  5
9E
330
74
100
AcDbEntity
  8
0
  6
Continuous
100
AcDbLine
 10
-44.4177372167
 20
-9.6098441329
 30
0.0
 11
-42.1490649772
 21
-6.1523237222
 31
0.0
  0
LINE
  5
9F
330
74
100
AcDbEntity
  8
0
  6
Continuous
100
AcDbLine
 10
-42.1490649772
 20
-6.1523237222
 30
0.0
 11
-42.7621970524
 21
-3.3183919259
 31
0.0
  0
LINE
  5
A0
330
74
100
AcDbEntity
  8
0
  6
Continuous
100
AcDbLine
 10
-42.7621970524
 20
-3.3183919259
 30
0.0
 11
-42.7624916815
 21
-3.31845567
 31
0.0
  0
LINE
  5
A1
330
74
100
AcDbEntity
  8
0
  6
Continuous
100
AcDbLine
 10
-41.535889647
 20
-8.9864554454
 30
0.0
 11
-43.8045413973
 21
-12.4440705583
 31
0.0
  0
LINE
  5
A2
330
74
100
AcDbEntity
  8
0
  6
Continuous
100
AcDbLine
 10
-43.8045413973
 20
-12.4440705583
 30
0.0
 11
-40.3564529382
 21
-14.625159785
 31
0.0
  0
LINE
  5
A3
330
74
100
AcDbEntity
  8
0
  6
Continuous
100
AcDbLine
 10
-40.3564529382
 20
-14.625159785
 30
0.0
 11
-43.2382724808
 21
-15.2486525588
 31
0.0
  0
LINE
  5
A4
330
74
100
AcDbEntity
  8
0
  6
Continuous
100
AcDbLine
 10
-43.2382724808
 20
-15.2486525588
 30
0.0
 11
-46.686243472
 21
-13.0676480676
 31
0.0
  0
LINE
  5
A5
330
74
100
AcDbEntity
  8
0
  6
Continuous
100
AcDbLine
 10
-46.686243472
 20
-13.0676480676
 30
0.0
 11
-44.4177144509
 21
-9.6099493576
 31
0.0
  0
LINE
  5
A6
330
74
100
AcDbEntity
  8
0
  6
Continuous
100
AcDbLine
 10
-44.4177144509
 20
-9.6099493576
 30
0.0
 11
-41.535889647
 21
-8.9864554454
 31
0.0
  0
LINE
  5
A7
330
74
100
AcDbEntity
  8
0
  6
Continuous
100
AcDbLine
 10
-51.8063383656
 20
-17.1023866618
 30
0.0
 11
-49.5681857438
 21
-13.6910572443
 31
0.0
  0
LINE
  5
A8
330
74
100
AcDbEntity
  8
0
  6
Continuous
100
AcDbLine
 10
-49.5681857438
 20
-13.6910572443
 30
0.0
 11
-46.1199973213
 21
-15.8721248435
 31
0.0
  0
LINE
  5
A9
330
74
100
AcDbEntity
  8
0
  6
Continuous
100
AcDbLine
 10
-46.1199973213
 20
-15.8721248435
 30
0.0
 11
-46.0813956519
 21
-15.8637732234
 31
0.0
  0
LINE
  5
AA
330
74
100
AcDbEntity
  8
0
  6
Continuous
100
AcDbLine
 10
-46.0813956519
 20
-15.8637732234
 30
0.0
 11
-46.6863662012
 21
-13.0675644704
 31
0.0
  0
LINE
  5
AB
330
74
100
AcDbEntity
  8
0
  6
Continuous
100
AcDbLine
 10
-46.6863662012
 20
-13.0675644704
 30
0.0
 11
-50.1813587974
 21
-10.8569360435
 31
0.0
  0
LINE
  5
AC
330
74
100
AcDbEntity
  8
0
  6
Continuous
100
AcDbLine
 10
-50.1813587974
 20
-10.8569360435
 30
0.0
 11
-52.4497621582
 21
-14.3142991462
 31
0.0
  0
LINE
  5
AD
330
74
100
AcDbEntity
  8
0
  6
Continuous
100
AcDbLine
 10
-52.4497621582
 20
-14.3142991462
 30
0.0
 11
-51.8447506306
 21
-17.1106973035
 31
0.0
  0
LINE
  5
AE
330
74
100
AcDbEntity
  8
0
  6
Continuous
100
AcDbLine
 10
-51.8447506306
 20
-17.1106973035
 30
0.0
 11
-51.8063383656
 21
-17.1023866618
 31
0.0
  0
LINE
  5
AF
330
74
100
AcDbEntity
  8
0
  6
Continuous
100
AcDbLine
 10
-20.0432683672
 20
-10.0594590717
 30
0.0
 11
-17.6687053803
 21
-9.5457132103
 31
0.0
  0
LINE
  5
B0
330
74
100
AcDbEntity
  8
0
  6
Continuous
100
AcDbLine
 10
-17.6687053803
 20
-9.5457132103
 30
0.0
 11
-22.3998379359
 21
0.8767293109
 31
0.0
  0
LINE
  5
B1
330
74
100
AcDbEntity
  8
0
  6
Continuous
100
AcDbLine
 10
-22.3998379359
 20
0.8767293109
 30
0.0
 11
-26.3058670432
 21
0.0316448472
 31
0.0
  0
LINE
  5
B2
330
74
100
AcDbEntity
  8
0
  6
Continuous
100
AcDbLine
 10
-26.3058670432
 20
0.0316448472
 30
0.0
 11
-26.3056723775
 21
-11.4143543348
 31
0.0
  0
LINE
  5
B3
330
74
100
AcDbEntity
  8
0
  6
Continuous
100
AcDbLine
 10
-26.3056723775
 20
-11.4143543348
 30
0.0
 11
-23.9311146519
 21
-10.9006096116
 31
0.0
  0
LINE
  5
B4
330
74
100
AcDbEntity
  8
0
  6
Continuous
100
AcDbLine
 10
-23.9311146519
 20
-10.9006096116
 30
0.0
 11
-23.9309931424
 21
-8.7825946253
 31
0.0
  0
LINE
  5
B5
330
74
100
AcDbEntity
  8
0
  6
Continuous
100
AcDbLine
 10
-23.9309931424
 20
-8.7825946253
 30
0.0
 11
-22.2738308951
 21
-8.4240611811
 31
0.0
  0
LINE
  5
B6
330
74
100
AcDbEntity
  8
0
  6
Continuous
100
AcDbLine
 10
-22.2738308951
 20
-8.4240611811
 30
0.0
 11
-22.7133102854
 21
-6.3927621053
 31
0.0
  0
LINE
  5
B7
330
74
100
AcDbEntity
  8
0
  6
Continuous
100
AcDbLine
 10
-22.7133102854
 20
-6.3927621053
 30
0.0
 11
-23.9308333483
 21
-6.6561779162
 31
0.0
  0
LINE
  5
B8
330
74
100
AcDbEntity
  8
0
  6
Continuous
100
AcDbLine
 10
-23.9308333483
 20
-6.6561779162
 30
0.0
 11
-23.9305586196
 21
-1.4976668035
 31
0.0
  0
LINE
  5
B9
330
74
100
AcDbEntity
  8
0
  6
Continuous
100
AcDbLine
 10
-23.9305586196
 20
-1.4976668035
 30
0.0
 11
-20.0432683672
 21
-10.0594590717
 31
0.0
  0
SPLINE
  5
BA
330
74
100
AcDbEntity
  8
0
100
AcDbSpline
210
0.0
220
0.0
230
1.0
 70
     8
 71
     3
 72
     8
 73
     4
 74
     0
 42
0.00000001
 43
0.00000001
 40
0.0
 40
0.0
 40
0.0
 40
0.0
 40
1.0
 40
1.0
 40
1.0
 40
1.0
 10
-13.86994560355125
 20
-6.597454742918429
 30
0.0
 10
-13.88373254946556
 20
-6.53373068413859
 30
0.0
 10
-15.11365515797402
 20
-0.8489574873494021
 30
0.0
 10
-15.79563263740206
 20
2.305574601061459
 30
0.0
  0
SPLINE
  5
BB
330
74
100
AcDbEntity
  8
0
100
AcDbSpline
210
0.0
220
0.0
230
1.0
 70
     8
 71
     3
 72
     8
 73
     4
 74
     0
 42
0.00000001
 43
0.00000001
 40
2.0
 40
2.0
 40
2.0
 40
2.0
 40
3.0
 40
3.0
 40
3.0
 40
3.0
 10
-18.06492886668426
 20
1.814603608696524
 30
0.0
 10
-17.24003965005502
 20
-1.995739949107536
 30
0.0
 10
-15.71186186991051
 20
-9.059523950669432
 30
0.0
 10
-15.69887855542093
 20
-9.119533578677906
 30
0.0
  0
SPLINE
  5
BC
330
74
100
AcDbEntity
  8
0
100
AcDbSpline
210
0.0
220
0.0
230
1.0
 70
     8
 71
     3
 72
     8
 73
     4
 74
     0
 42
0.00000001
 43
0.00000001
 40
0.0
 40
0.0
 40
0.0
 40
0.0
 40
1.0
 40
1.0
 40
1.0
 40
1.0
 10
-6.809537646582547
 20
-5.069709977697404
 30
0.0
 10
-7.284290309572815
 20
-2.875375801708635
 30
0.0
 10
-7.897830097865885
 20
-0.0390758678013329
 30
0.0
 10
-8.296070930952649
 20
1.80204897196991
 30
0.0
  0
SPLINE
  5
BD
330
74
100
AcDbEntity
  8
0
100
AcDbSpline
210
0.0
220
0.0
230
1.0
 70
     8
 71
     3
 72
     8
 73
     4
 74
     0
 42
0.00000001
 43
0.00000001
 40
2.0
 40
2.0
 40
2.0
 40
2.0
 40
3.0
 40
3.0
 40
3.0
 40
3.0
 10
-6.919811195494074
 20
2.099808074263809
 30
0.0
 10
-6.228016878711183
 20
2.249480443098069
 30
0.0
 10
-5.547633595833446
 20
1.815851349115847
 30
0.0
 10
-5.399398884916104
 20
1.130701970100344
 30
0.0
  0
SPLINE
  5
BE
330
74
100
AcDbEntity
  8
0
100
AcDbSpline
210
0.0
220
0.0
230
1.0
 70
     8
 71
     3
 72
     8
 73
     4
 74
     0
 42
0.00000001
 43
0.00000001
 40
3.0
 40
3.0
 40
3.0
 40
3.0
 40
4.0
 40
4.0
 40
4.0
 40
4.0
 10
-5.399398884916104
 20
1.130701970100344
 30
0.0
 10
-5.107009087764085
 20
-0.2207405274728672
 30
0.0
 10
-4.711497421058354
 20
-2.048334586467611
 30
0.0
 10
-4.449160707297047
 20
-3.260870000165379
 30
0.0
  0
SPLINE
  5
BF
330
74
100
AcDbEntity
  8
0
100
AcDbSpline
210
0.0
220
0.0
230
1.0
 70
     8
 71
     3
 72
     8
 73
     4
 74
     0
 42
0.00000001
 43
0.00000001
 40
4.0
 40
4.0
 40
4.0
 40
4.0
 40
5.0
 40
5.0
 40
5.0
 40
5.0
 10
-4.449160707297047
 20
-3.260870000165379
 30
0.0
 10
-4.300905507193207
 20
-3.946114081381999
 30
0.0
 10
-4.741570606399121
 20
-4.622385452066122
 30
0.0
 10
-5.433383135791953
 20
-4.771973641166296
 30
0.0
  0
SPLINE
  5
C0
330
74
100
AcDbEntity
  8
0
100
AcDbSpline
210
0.0
220
0.0
230
1.0
 70
     8
 71
     3
 72
     8
 73
     4
 74
     0
 42
0.00000001
 43
0.00000001
 40
3.0
 40
3.0
 40
3.0
 40
3.0
 40
4.0
 40
4.0
 40
4.0
 40
4.0
 10
-4.494024550545999
 20
-6.695320195210662
 30
0.0
 10
-2.825524345390513
 20
-6.334333740063992
 30
0.0
 10
-1.762658323115034
 20
-4.702068307882374
 30
0.0
 10
-2.120071189640999
 20
-3.049576315093403
 30
0.0
  0
SPLINE
  5
C1
330
74
100
AcDbEntity
  8
0
100
AcDbSpline
210
0.0
220
0.0
230
1.0
 70
     8
 71
     3
 72
     8
 73
     4
 74
     0
 42
0.00000001
 43
0.00000001
 40
4.0
 40
4.0
 40
4.0
 40
4.0
 40
5.0
 40
5.0
 40
5.0
 40
5.0
 10
-2.120071189640999
 20
-3.049576315093403
 30
0.0
 10
-2.485983017556096
 20
-1.358310753073632
 30
0.0
 10
-2.867352798370483
 20
0.4044023583376265
 30
0.0
 10
-3.190995488197396
 20
1.900704823656681
 30
0.0
  0
SPLINE
  5
C2
330
74
100
AcDbEntity
  8
0
100
AcDbSpline
210
0.0
220
0.0
230
1.0
 70
     8
 71
     3
 72
     8
 73
     4
 74
     0
 42
0.00000001
 43
0.00000001
 40
5.0
 40
5.0
 40
5.0
 40
5.0
 40
6.0
 40
6.0
 40
6.0
 40
6.0
 10
-3.190995488197396
 20
1.900704823656681
 30
0.0
 10
-3.54857504695031
 20
3.553458157285876
 30
0.0
 10
-5.190901218780231
 20
4.599949148191988
 30
0.0
 10
-6.859585567104196
 20
4.238922852960538
 30
0.0
  0
SPLINE
  5
C3
330
74
100
AcDbEntity
  8
0
100
AcDbSpline
210
0.0
220
0.0
230
1.0
 70
     8
 71
     3
 72
     8
 73
     4
 74
     0
 42
0.00000001
 43
0.00000001
 40
0.0
 40
0.0
 40
0.0
 40
0.0
 40
1.0
 40
1.0
 40
1.0
 40
1.0
 10
-30.23703582864644
 20
-6.251438951366732
 30
0.0
 10
-30.9104300186728
 20
-6.015603382360459
 30
0.0
 10
-31.40848551125485
 20
-5.893156856121871
 30
0.0
 10
-32.67210357750635
 20
-5.496689523479785
 30
0.0
  0
SPLINE
  5
C4
330
74
100
AcDbEntity
  8
0
100
AcDbSpline
210
0.0
220
0.0
230
1.0
 70
     8
 71
     3
 72
     8
 73
     4
 74
     0
 42
0.00000001
 43
0.00000001
 40
1.0
 40
1.0
 40
1.0
 40
1.0
 40
2.0
 40
2.0
 40
2.0
 40
2.0
 10
-32.67210357750635
 20
-5.496689523479785
 30
0.0
 10
-33.03332194555517
 20
-5.383421617718132
 30
0.0
 10
-33.81210282496122
 20
-5.206692347750555
 30
0.0
 10
-33.94849250952588
 20
-4.576291363356936
 30
0.0
  0
SPLINE
  5
C5
330
74
100
AcDbEntity
  8
0
100
AcDbSpline
210
0.0
220
0.0
230
1.0
 70
     8
 71
     3
 72
     8
 73
     4
 74
     0
 42
0.00000001
 43
0.00000001
 40
2.0
 40
2.0
 40
2.0
 40
2.0
 40
3.0
 40
3.0
 40
3.0
 40
3.0
 10
-33.94849250952588
 20
-4.576291363356936
 30
0.0
 10
-34.11622381965225
 20
-3.801027578894063
 30
0.0
 10
-33.67528356585564
 20
-3.448097454184924
 30
0.0
 10
-32.99335932290604
 20
-3.30056051389548
 30
0.0
  0
SPLINE
  5
C6
330
74
100
AcDbEntity
  8
0
100
AcDbSpline
210
0.0
220
0.0
230
1.0
 70
     8
 71
     3
 72
     8
 73
     4
 74
     0
 42
0.00000001
 43
0.00000001
 40
4.0
 40
4.0
 40
4.0
 40
4.0
 40
5.0
 40
5.0
 40
5.0
 40
5.0
 10
-32.85916630414497
 20
-3.271527336675416
 30
0.0
 10
-32.2786944245911
 20
-3.14594000653005
 30
0.0
 10
-31.77109773641243
 20
-3.328116480283148
 30
0.0
 10
-31.56977211870437
 20
-3.967820152272103
 30
0.0
  0
SPLINE
  5
C7
330
74
100
AcDbEntity
  8
0
100
AcDbSpline
210
0.0
220
0.0
230
1.0
 70
     8
 71
     3
 72
     8
 73
     4
 74
     0
 42
0.00000001
 43
0.00000001
 40
6.0
 40
6.0
 40
6.0
 40
6.0
 40
7.0
 40
7.0
 40
7.0
 40
7.0
 10
-29.29695612428625
 20
-3.476087645143529
 30
0.0
 10
-29.68810071971012
 20
-1.866802583842748
 30
0.0
 10
-30.87776107222441
 20
-0.7599478056671497
 30
0.0
 10
-33.27949204955325
 20
-1.266772121690862
 30
0.0
  0
SPLINE
  5
C8
330
74
100
AcDbEntity
  8
0
100
AcDbSpline
210
0.0
220
0.0
230
1.0
 70
     8
 71
     3
 72
     8
 73
     4
 74
     0
 42
0.00000001
 43
0.00000001
 40
8.0
 40
8.0
 40
8.0
 40
8.0
 40
9.0
 40
9.0
 40
9.0
 40
9.0
 10
-33.34488391931659
 20
-1.280919904944554
 30
0.0
 10
-35.81152992452102
 20
-1.828202838410209
 30
0.0
 10
-36.33378487826545
 20
-3.54465012997844
 30
0.0
 10
-36.09207577942843
 20
-4.962606301827474
 30
0.0
  0
SPLINE
  5
C9
330
74
100
AcDbEntity
  8
0
100
AcDbSpline
210
0.0
220
0.0
230
1.0
 70
     8
 71
     3
 72
     8
 73
     4
 74
     0
 42
0.00000001
 43
0.00000001
 40
9.0
 40
9.0
 40
9.0
 40
9.0
 40
10.0
 40
10.0
 40
10.0
 40
10.0
 10
-36.09207577942843
 20
-4.962606301827474
 30
0.0
 10
-35.83736690020325
 20
-6.457652824126185
 30
0.0
 10
-34.96800490008025
 20
-7.196828812263726
 30
0.0
 10
-33.99931718292642
 20
-7.502708028683521
 30
0.0
  0
SPLINE
  5
CA
330
74
100
AcDbEntity
  8
0
100
AcDbSpline
210
0.0
220
0.0
230
1.0
 70
     8
 71
     3
 72
     8
 73
     4
 74
     0
 42
0.00000001
 43
0.00000001
 40
10.0
 40
10.0
 40
10.0
 40
10.0
 40
11.0
 40
11.0
 40
11.0
 40
11.0
 10
-33.99931718292642
 20
-7.502708028683521
 30
0.0
 10
-33.40907414696034
 20
-7.689011641945549
 30
0.0
 10
-32.48616403135102
 20
-7.975318844696811
 30
0.0
 10
-31.47547483016511
 20
-8.271505052332133
 30
0.0
  0
SPLINE
  5
CB
330
74
100
AcDbEntity
  8
0
100
AcDbSpline
210
0.0
220
0.0
230
1.0
 70
     8
 71
     3
 72
     8
 73
     4
 74
     0
 42
0.00000001
 43
0.00000001
 40
11.0
 40
11.0
 40
11.0
 40
11.0
 40
12.0
 40
12.0
 40
12.0
 40
12.0
 10
-31.47547483016511
 20
-8.271505052332133
 30
0.0
 10
-31.11213516930565
 20
-8.377980375833697
 30
0.0
 10
-30.40258052645035
 20
-8.55729511966404
 30
0.0
 10
-30.28870163819746
 20
-9.336631754491275
 30
0.0
  0
SPLINE
  5
CC
330
74
100
AcDbEntity
  8
0
100
AcDbSpline
210
0.0
220
0.0
230
1.0
 70
     8
 71
     3
 72
     8
 73
     4
 74
     0
 42
0.00000001
 43
0.00000001
 40
12.0
 40
12.0
 40
12.0
 40
12.0
 40
13.0
 40
13.0
 40
13.0
 40
13.0
 10
-30.28870163819746
 20
-9.336631754491275
 30
0.0
 10
-30.1883718252622
 20
-10.02498578462436
 30
0.0
 10
-30.64014408852681
 20
-10.43662327702193
 30
0.0
 10
-31.32890793487913
 20
-10.58563999188937
 30
0.0
  0
SPLINE
  5
CD
330
74
100
AcDbEntity
  8
0
100
AcDbSpline
210
0.0
220
0.0
230
1.0
 70
     8
 71
     3
 72
     8
 73
     4
 74
     0
 42
0.00000001
 43
0.00000001
 40
14.0
 40
14.0
 40
14.0
 40
14.0
 40
15.0
 40
15.0
 40
15.0
 40
15.0
 10
-31.46505813246006
 20
-10.61509661229636
 30
0.0
 10
-32.05208024758041
 20
-10.74210111117219
 30
0.0
 10
-32.71260096537058
 20
-10.55064660173623
 30
0.0
 10
-32.8822392924921
 20
-9.937760156430087
 30
0.0
  0
SPLINE
  5
CE
330
74
100
AcDbEntity
  8
0
100
AcDbSpline
210
0.0
220
0.0
230
1.0
 70
     8
 71
     3
 72
     8
 73
     4
 74
     0
 42
0.00000001
 43
0.00000001
 40
16.0
 40
16.0
 40
16.0
 40
16.0
 40
17.0
 40
17.0
 40
17.0
 40
17.0
 10
-35.1888692338865
 20
-10.43680844141459
 30
0.0
 10
-34.81471685749703
 20
-11.8843133271045
 30
0.0
 10
-33.72975075395794
 20
-12.95131992706823
 30
0.0
 10
-31.59496833044066
 20
-12.72957879515504
 30
0.0
  0
SPLINE
  5
CF
330
74
100
AcDbEntity
  8
0
100
AcDbSpline
210
0.0
220
0.0
230
1.0
 70
     8
 71
     3
 72
     8
 73
     4
 74
     0
 42
0.00000001
 43
0.00000001
 40
18.0
 40
18.0
 40
18.0
 40
18.0
 40
19.0
 40
19.0
 40
19.0
 40
19.0
 10
-30.20639204762402
 20
-12.42915496033268
 30
0.0
 10
-28.36320980349184
 20
-11.79454394754582
 30
0.0
 10
-27.78707037380765
 20
-10.41512978795686
 30
0.0
 10
-27.91988511866083
 20
-9.073464993912006
 30
0.0
  0
SPLINE
  5
D0
330
74
100
AcDbEntity
  8
0
100
AcDbSpline
210
0.0
220
0.0
230
1.0
 70
     8
 71
     3
 72
     8
 73
     4
 74
     0
 42
0.00000001
 43
0.00000001
 40
19.0
 40
19.0
 40
19.0
 40
19.0
 40
20.0
 40
20.0
 40
20.0
 40
20.0
 10
-27.91988511866083
 20
-9.073464993912006
 30
0.0
 10
-28.12563217330358
 20
-6.994152508733083
 30
0.0
 10
-29.51271678483619
 20
-6.50510505043454
 30
0.0
 10
-30.23703582864644
 20
-6.251438951366732
 30
0.0
  0
HATCH
  5
D1
330
74
100
AcDbEntity
  8
0
100
AcDbHatch
 10
0.0
 20
0.0
 30
0.0
210
0.0
220
0.0
230
1.0
  2
SOLID
 70
     1
 71
     0
 91
        1
 92
        0
 93
        7
 72
     1
 10
-53.06293521179145
 20
-11.48017794540906
 11
-53.0628942334185
 21
-11.48036734981106
 72
     1
 10
-53.0628942334185
 20
-11.48036734981106
 11
-50.18135879739363
 21
-10.85693604353014
 72
     1
 10
-50.18135879739363
 20
-10.85693604353014
 11
-47.91273279754322
 21
-7.399227366744369
 72
     1
 10
-47.91273279754322
 20
-7.399227366744369
 11
-51.40738209617635
 21
-5.188811056417426
 72
     1
 10
-51.40738209617635
 20
-5.188811056417426
 11
-54.28910693660305
 21
-5.812283341071309
 72
     1
 10
-54.28910693660305
 20
-5.812283341071309
 11
-50.79453412756107
 21
-8.022804320319173
 72
     1
 10
-50.79453412756107
 20
-8.022804320319173
 11
-53.06293521179145
 21
-11.48017794540906
 97
        0
 75
     0
 76
     1
 98
        1
 10
0.0
 20
0.0
  0
HATCH
  5
D2
330
74
100
AcDbEntity
  8
0
100
AcDbHatch
 10
0.0
 20
0.0
 30
0.0
210
0.0
220
0.0
230
1.0
  2
SOLID
 70
     1
 71
     0
 91
        1
 92
        0
 93
        6
 72
     1
 10
-41.53588964704281
 20
-8.986455445432597
 11
-44.41771445090438
 21
-9.609949357561213
 72
     1
 10
-44.41771445090438
 20
-9.609949357561213
 11
-46.68624347197728
 21
-13.06764806762683
 72
     1
 10
-46.68624347197728
 20
-13.06764806762683
 11
-43.23827248082917
 21
-15.24865255879992
 72
     1
 10
-43.23827248082917
 20
-15.24865255879992
 11
-40.35645293820115
 21
-14.62515978495947
 72
     1
 10
-40.35645293820115
 20
-14.62515978495947
 11
-43.80454139731328
 21
-12.44407055830516
 72
     1
 10
-43.80454139731328
 20
-12.44407055830516
 11
-41.53588964704281
 21
-8.986455445432597
 97
        0
 75
     0
 76
     1
 98
        1
 10
0.0
 20
0.0
  0
HATCH
  5
D3
330
74
100
AcDbEntity
  8
0
100
AcDbHatch
 10
0.0
 20
0.0
 30
0.0
210
0.0
220
0.0
230
1.0
  2
SOLID
 70
     1
 71
     0
 91
        1
 92
        0
 93
       20
 72
     4
 94
        3
 73
     1
 74
     0
 95
        8
 96
        4
 40
18.0
 40
18.0
 40
18.0
 40
18.0
 40
19.0
 40
19.0
 40
19.0
 40
19.0
 10
-30.20639204762402
 20
-12.42915496033267
 42
1.0
 10
-28.36320980349188
 20
-11.79454394754584
 42
1.0
 10
-27.78707037380775
 20
-10.41512978795687
 42
1.0
 10
-27.91988511866085
 20
-9.073464993912015
 42
1.0
 72
     4
 94
        3
 73
     1
 74
     0
 95
        8
 96
        4
 40
19.0
 40
19.0
 40
19.0
 40
19.0
 40
20.0
 40
20.0
 40
20.0
 40
20.0
 10
-27.91988511866085
 20
-9.073464993912015
 42
1.0
 10
-28.1256321733036
 20
-6.994152508733093
 42
1.0
 10
-29.51271678483624
 20
-6.505105050434554
 42
1.0
 10
-30.23703582864647
 20
-6.251438951366739
 42
1.0
 72
     4
 94
        3
 73
     1
 74
     0
 95
        8
 96
        4
 40
0.0
 40
0.0
 40
0.0
 40
0.0
 40
1.0
 40
1.0
 40
1.0
 40
1.0
 10
-30.23703582864647
 20
-6.251438951366739
 42
1.0
 10
-30.91043001867278
 20
-6.015603382360466
 42
1.0
 10
-31.40848551125484
 20
-5.893156856121866
 42
1.0
 10
-32.67210357750633
 20
-5.496689523479784
 42
1.0
 72
     4
 94
        3
 73
     1
 74
     0
 95
        8
 96
        4
 40
1.0
 40
1.0
 40
1.0
 40
1.0
 40
2.0
 40
2.0
 40
2.0
 40
2.0
 10
-32.67210357750633
 20
-5.496689523479784
 42
1.0
 10
-33.03332194555515
 20
-5.383421617718138
 42
1.0
 10
-33.81210282496121
 20
-5.206692347750558
 42
1.0
 10
-33.94849250952591
 20
-4.576291363356954
 42
1.0
 72
     4
 94
        3
 73
     1
 74
     0
 95
        8
 96
        4
 40
2.0
 40
2.0
 40
2.0
 40
2.0
 40
3.0
 40
3.0
 40
3.0
 40
3.0
 10
-33.94849250952591
 20
-4.576291363356954
 42
1.0
 10
-34.11622381965228
 20
-3.801027578894066
 42
1.0
 10
-33.67528356585566
 20
-3.448097454184939
 42
1.0
 10
-32.99335932290605
 20
-3.300560513895483
 42
1.0
 72
     1
 10
-32.99335932290605
 20
-3.300560513895483
 11
-32.85916630414502
 21
-3.271527336675422
 72
     4
 94
        3
 73
     1
 74
     0
 95
        8
 96
        4
 40
4.0
 40
4.0
 40
4.0
 40
4.0
 40
5.0
 40
5.0
 40
5.0
 40
5.0
 10
-32.85916630414502
 20
-3.271527336675422
 42
1.0
 10
-32.27869442459117
 20
-3.145940006530068
 42
1.0
 10
-31.77109773641243
 20
-3.328116480283154
 42
1.0
 10
-31.5697721187044
 20
-3.967820152272114
 42
1.0
 72
     1
 10
-31.5697721187044
 20
-3.967820152272114
 11
-29.29695612428624
 21
-3.476087645143523
 72
     4
 94
        3
 73
     1
 74
     0
 95
        8
 96
        4
 40
6.0
 40
6.0
 40
6.0
 40
6.0
 40
7.0
 40
7.0
 40
7.0
 40
7.0
 10
-29.2969561242863
 20
-3.476087645143538
 42
1.0
 10
-29.6881007197101
 20
-1.866802583842747
 42
1.0
 10
-30.87776107222446
 20
-0.7599478056671519
 42
1.0
 10
-33.27949204955327
 20
-1.266772121690873
 42
1.0
 72
     1
 10
-33.27949204955321
 20
-1.266772121690857
 11
-33.3448839193166
 21
-1.280919904944549
 72
     4
 94
        3
 73
     1
 74
     0
 95
        8
 96
        4
 40
8.0
 40
8.0
 40
8.0
 40
8.0
 40
9.0
 40
9.0
 40
9.0
 40
9.0
 10
-33.34488391931666
 20
-1.280919904944565
 42
1.0
 10
-35.8115299245211
 20
-1.828202838410234
 42
1.0
 10
-36.3337848782655
 20
-3.544650129978449
 42
1.0
 10
-36.09207577942846
 20
-4.962606301827486
 42
1.0
 72
     4
 94
        3
 73
     1
 74
     0
 95
        8
 96
        4
 40
9.0
 40
9.0
 40
9.0
 40
9.0
 40
10.0
 40
10.0
 40
10.0
 40
10.0
 10
-36.09207577942846
 20
-4.962606301827486
 42
1.0
 10
-35.83736690020323
 20
-6.457652824126184
 42
1.0
 10
-34.96800490008029
 20
-7.196828812263736
 42
1.0
 10
-33.99931718292643
 20
-7.502708028683525
 42
1.0
 72
     4
 94
        3
 73
     1
 74
     0
 95
        8
 96
        4
 40
10.0
 40
10.0
 40
10.0
 40
10.0
 40
11.0
 40
11.0
 40
11.0
 40
11.0
 10
-33.99931718292643
 20
-7.502708028683525
 42
1.0
 10
-33.40907414696031
 20
-7.689011641945555
 42
1.0
 10
-32.48616403135106
 20
-7.975318844696822
 42
1.0
 10
-31.47547483016516
 20
-8.27150505233215
 42
1.0
 72
     4
 94
        3
 73
     1
 74
     0
 95
        8
 96
        4
 40
11.0
 40
11.0
 40
11.0
 40
11.0
 40
12.0
 40
12.0
 40
12.0
 40
12.0
 10
-31.47547483016516
 20
-8.27150505233215
 42
1.0
 10
-31.11213516930568
 20
-8.377980375833708
 42
1.0
 10
-30.40258052645039
 20
-8.557295119664056
 42
1.0
 10
-30.28870163819752
 20
-9.336631754491272
 42
1.0
 72
     4
 94
        3
 73
     1
 74
     0
 95
        8
 96
        4
 40
12.0
 40
12.0
 40
12.0
 40
12.0
 40
13.0
 40
13.0
 40
13.0
 40
13.0
 10
-30.28870163819752
 20
-9.336631754491272
 42
1.0
 10
-30.18837182526216
 20
-10.02498578462435
 42
1.0
 10
-30.64014408852681
 20
-10.43662327702195
 42
1.0
 10
-31.32890793487914
 20
-10.58563999188937
 42
1.0
 72
     1
 10
-31.32890793487914
 20
-10.58563999188937
 11
-31.46505813246008
 21
-10.61509661229637
 72
     4
 94
        3
 73
     1
 74
     0
 95
        8
 96
        4
 40
14.0
 40
14.0
 40
14.0
 40
14.0
 40
15.0
 40
15.0
 40
15.0
 40
15.0
 10
-31.46505813246008
 20
-10.61509661229637
 42
1.0
 10
-32.05208024758041
 20
-10.7421011111722
 42
1.0
 10
-32.71260096537064
 20
-10.55064660173623
 42
1.0
 10
-32.88223929249212
 20
-9.937760156430087
 42
1.0
 72
     1
 10
-32.88223929249212
 20
-9.937760156430087
 11
-35.18886923388655
 21
-10.43680844141459
 72
     4
 94
        3
 73
     1
 74
     0
 95
        8
 96
        4
 40
16.0
 40
16.0
 40
16.0
 40
16.0
 40
17.0
 40
17.0
 40
17.0
 40
17.0
 10
-35.18886923388649
 20
-10.43680844141459
 42
1.0
 10
-34.81471685749708
 20
-11.88431332710451
 42
1.0
 10
-33.72975075395801
 20
-12.95131992706824
 42
1.0
 10
-31.59496833044075
 20
-12.72957879515506
 42
1.0
 72
     1
 10
-31.59496833044068
 20
-12.72957879515504
 11
-30.20639204762409
 21
-12.42915496033269
 97
        0
 75
     0
 76
     1
 98
        1
 10
0.0
 20
0.0
  0
HATCH
  5
D4
330
74
100
AcDbEntity
  8
0
100
AcDbHatch
 10
0.0
 20
0.0
 30
0.0
210
0.0
220
0.0
230
1.0
  2
SOLID
 70
     1
 71
     0
 91
        1
 92
        0
 93
       11
 72
     1
 10
-23.93083334830058
 20
-6.656177916224847
 11
-23.9305586195879
 21
-1.497666803489873
 72
     1
 10
-23.9305586195879
 20
-1.497666803489873
 11
-20.04326836721582
 21
-10.05945907169815
 72
     1
 10
-20.04326836721582
 20
-10.05945907169815
 11
-17.66870538033285
 21
-9.545713210289948
 72
     1
 10
-17.66870538033285
 20
-9.545713210289948
 11
-22.39983793591613
 21
0.8767293108990284
 72
     1
 10
-22.39983793591613
 20
0.8767293108990277
 11
-26.30586704316552
 21
0.0316448471579831
 72
     1
 10
-26.30586704316552
 20
0.0316448471579831
 11
-26.30567237753049
 21
-11.41435433475813
 72
     1
 10
-26.30567237753049
 20
-11.41435433475813
 11
-23.93111465188077
 21
-10.90060961163804
 72
     1
 10
-23.93111465188077
 20
-10.90060961163804
 11
-23.93099314235586
 21
-8.782594625323274
 72
     1
 10
-23.93099314235586
 20
-8.782594625323274
 11
-22.27383089514867
 21
-8.42406118111162
 72
     1
 10
-22.27383089514867
 20
-8.42406118111162
 11
-22.7133102853523
 21
-6.392762105309743
 72
     1
 10
-22.7133102853523
 20
-6.392762105309743
 11
-23.93083334830058
 21
-6.656177916224847
 97
        0
 75
     0
 76
     1
 98
        1
 10
0.0
 20
0.0
  0
HATCH
  5
D5
330
74
100
AcDbEntity
  8
0
100
AcDbHatch
 10
0.0
 20
0.0
 30
0.0
210
0.0
220
0.0
230
1.0
  2
SOLID
 70
     1
 71
     0
 91
        1
 92
        0
 93
        6
 72
     1
 10
-15.79563263740209
 20
2.305574601061446
 11
-18.06492886668423
 21
1.814603608696526
 72
     4
 94
        3
 73
     1
 74
     0
 95
        8
 96
        4
 40
2.0
 40
2.0
 40
2.0
 40
2.0
 40
3.0
 40
3.0
 40
3.0
 40
3.0
 10
-18.06492886668423
 20
1.814603608696526
 42
1.0
 10
-17.240039650055
 20
-1.995739949107533
 42
1.0
 10
-15.71186186991055
 20
-9.059523950669437
 42
1.0
 10
-15.69887855542098
 20
-9.119533578677919
 42
1.0
 72
     1
 10
-15.69887855542092
 20
-9.119533578677903
 11
-10.22610149671526
 21
-7.93547715235816
 72
     1
 10
-10.22610149671526
 20
-7.93547715235816
 11
-10.66558088691882
 21
-5.904178076556605
 72
     1
 10
-10.66558088691882
 20
-5.904178076556605
 11
-13.86994560355126
 21
-6.597454742918437
 72
     4
 94
        3
 73
     1
 74
     0
 95
        8
 96
        4
 40
0.0
 40
0.0
 40
0.0
 40
0.0
 40
1.0
 40
1.0
 40
1.0
 40
1.0
 10
-13.86994560355126
 20
-6.597454742918437
 42
1.0
 10
-13.88373254946556
 20
-6.533730684138598
 42
1.0
 10
-15.1136551579741
 20
-0.8489574873494129
 42
1.0
 10
-15.79563263740209
 20
2.305574601061446
 42
1.0
 97
        0
 75
     0
 76
     1
 98
        1
 10
0.0
 20
0.0
  0
HATCH
  5
D6
330
74
100
AcDbEntity
  8
0
100
AcDbHatch
 10
0.0
 20
0.0
 30
0.0
210
0.0
220
0.0
230
1.0
  2
SOLID
 70
     1
 71
     0
 91
        1
 92
        0
 93
       11
 72
     1
 10
2.375028433631206
 20
-0.9648032523823513
 11
2.375208460142868
 21
4.193687371166118
 72
     1
 10
2.375208460142868
 20
4.193687371166118
 11
6.262509234981617
 21
-4.368102620465918
 72
     1
 10
6.262509234981617
 20
-4.368102620465917
 11
8.637061699398163
 21
-3.854359035633896
 72
     1
 10
8.637061699398163
 20
-3.854359035633896
 11
3.905939666281055
 21
6.568085762131229
 72
     1
 10
3.905939666281055
 20
6.56808576213123
 11
-0.0000000000001235
 21
5.723020649288631
 72
     1
 10
-0.0000000000001234
 20
5.723020649288631
 11
-0.000000000000185
 21
-5.723020649288538
 72
     1
 10
-0.000000000000185
 20
-5.723020649288538
 11
2.37465768908423
 21
-5.20925429869377
 72
     1
 10
2.37465768908423
 20
-5.20925429869377
 11
2.374784459841949
 21
-3.091238174090979
 72
     1
 10
2.374784459841949
 20
-3.091238174090979
 11
4.031830959914354
 21
-2.732729772218408
 72
     1
 10
4.031830959914354
 20
-2.732729772218408
 11
3.592351569710606
 21
-0.701430696416514
 72
     1
 10
3.592351569710606
 20
-0.7014306964165138
 11
2.375028433631206
 21
-0.9648032523823513
 97
        0
 75
     0
 76
     1
 98
        1
 10
0.0
 20
0.0
  0
HATCH
  5
D7
330
74
100
AcDbEntity
  8
0
100
AcDbHatch
 10
0.0
 20
0.0
 30
0.0
210
0.0
220
0.0
230
1.0
  2
SOLID
 70
     1
 71
     0
 91
        1
 92
        0
 93
        8
 72
     1
 10
-42.14906497721024
 20
-6.152323722221632
 11
-42.76219705242848
 21
-3.318391925879333
 72
     1
 10
-42.76219705242848
 20
-3.318391925879333
 11
-42.76249168149826
 21
-3.318455670015027
 72
     1
 10
-42.76249168149826
 20
-3.318455670015027
 11
-45.03079507887072
 21
-6.775797145163721
 72
     1
 10
-45.03079507887072
 20
-6.775797145163721
 11
-48.52545732888054
 21
-4.565295516814268
 72
     1
 10
-48.52545732888054
 20
-4.565295516814268
 11
-48.52574669671678
 21
-4.565358122661792
 72
     1
 10
-48.52574669671678
 20
-4.565358122661792
 11
-47.91261462149855
 21
-7.39928991900409
 72
     1
 10
-47.91261462149855
 20
-7.39928991900409
 11
-44.41773721666716
 21
-9.60984413289331
 72
     1
 10
-44.41773721666716
 20
-9.60984413289331
 11
-42.14906497721024
 21
-6.152323722221632
 97
        0
 75
     0
 76
     1
 98
        1
 10
0.0
 20
0.0
  0
HATCH
  5
D8
330
74
100
AcDbEntity
  8
0
100
AcDbHatch
 10
0.0
 20
0.0
 30
0.0
210
0.0
220
0.0
230
1.0
  2
SOLID
 70
     1
 71
     0
 91
        1
 92
        0
 93
        8
 72
     1
 10
-46.11999732125613
 20
-15.87212484345383
 11
-46.08139565189786
 21
-15.8637732233933
 72
     1
 10
-46.08139565189786
 20
-15.8637732233933
 11
-46.68636620117444
 21
-13.06756447043367
 72
     1
 10
-46.68636620117444
 20
-13.06756447043367
 11
-50.18135879739361
 21
-10.85693604353009
 72
     1
 10
-50.18135879739361
 20
-10.85693604353009
 11
-52.44976215820033
 21
-14.31429914615315
 72
     1
 10
-52.44976215820033
 20
-14.31429914615315
 11
-51.84475063055083
 21
-17.11069730351469
 72
     1
 10
-51.84475063055083
 20
-17.11069730351469
 11
-51.80633836559459
 21
-17.1023866618271
 72
     1
 10
-51.80633836559459
 20
-17.1023866618271
 11
-49.56818574380249
 21
-13.69105724427409
 72
     1
 10
-49.56818574380249
 20
-13.69105724427409
 11
-46.11999732125613
 21
-15.87212484345383
 97
        0
 75
     0
 76
     1
 98
        1
 10
0.0
 20
0.0
  0
HATCH
  5
D9
330
74
100
AcDbEntity
  8
0
100
AcDbHatch
 10
0.0
 20
0.0
 30
0.0
210
0.0
220
0.0
230
1.0
  2
SOLID
 70
     1
 71
     0
 91
        2
 92
        0
 93
        7
 72
     1
 10
-6.859585567104196
 20
4.238922852960538
 11
-11.00449045380928
 21
3.342156692939393
 72
     1
 10
-11.00449045380928
 20
3.342156692939393
 11
-8.638829473816639
 21
-7.592064727757185
 72
     1
 10
-8.638829473816639
 20
-7.592064727757185
 11
-8.63844014254617
 21
-7.591980494435086
 72
     1
 10
-8.63844014254617
 20
-7.591980494435086
 11
-4.494024550545999
 21
-6.695320195210662
 72
     4
 94
        3
 73
     1
 74
     0
 95
        8
 96
        4
 40
3.0
 40
3.0
 40
3.0
 40
3.0
 40
4.0
 40
4.0
 40
4.0
 40
4.0
 10
-4.494024550545999
 20
-6.695320195210662
 42
1.0
 10
-2.825524345390513
 20
-6.334333740063992
 42
1.0
 10
-1.762658323115034
 20
-4.702068307882374
 42
1.0
 10
-2.120071189640999
 20
-3.049576315093403
 42
1.0
 72
     4
 94
        3
 73
     1
 74
     0
 95
        8
 96
        4
 40
4.0
 40
4.0
 40
4.0
 40
4.0
 40
5.0
 40
5.0
 40
5.0
 40
5.0
 10
-2.120071189640999
 20
-3.049576315093403
 42
1.0
 10
-2.485983017556096
 20
-1.358310753073632
 42
1.0
 10
-2.867352798370483
 20
0.4044023583376265
 42
1.0
 10
-3.190995488197396
 20
1.900704823656681
 42
1.0
 72
     4
 94
        3
 73
     1
 74
     0
 95
        8
 96
        4
 40
5.0
 40
5.0
 40
5.0
 40
5.0
 40
6.0
 40
6.0
 40
6.0
 40
6.0
 10
-3.190995488197396
 20
1.900704823656681
 42
1.0
 10
-3.54857504695031
 20
3.553458157285876
 42
1.0
 10
-5.190901218780231
 20
4.599949148191988
 42
1.0
 10
-6.859585567104196
 20
4.238922852960538
 42
1.0
 97
        0
 92
        0
 93
        6
 72
     4
 94
        3
 73
     1
 74
     0
 95
        8
 96
        4
 40
2.0
 40
2.0
 40
2.0
 40
2.0
 40
3.0
 40
3.0
 40
3.0
 40
3.0
 10
-6.919811195494074
 20
2.099808074263809
 42
1.0
 10
-6.228016878711183
 20
2.249480443098069
 42
1.0
 10
-5.547633595833446
 20
1.815851349115847
 42
1.0
 10
-5.399398884916104
 20
1.130701970100344
 42
1.0
 72
     4
 94
        3
 73
     1
 74
     0
 95
        8
 96
        4
 40
3.0
 40
3.0
 40
3.0
 40
3.0
 40
4.0
 40
4.0
 40
4.0
 40
4.0
 10
-5.399398884916104
 20
1.130701970100344
 42
1.0
 10
-5.107009087764085
 20
-0.2207405274728672
 42
1.0
 10
-4.711497421058354
 20
-2.048334586467611
 42
1.0
 10
-4.449160707297047
 20
-3.260870000165379
 42
1.0
 72
     4
 94
        3
 73
     1
 74
     0
 95
        8
 96
        4
 40
4.0
 40
4.0
 40
4.0
 40
4.0
 40
5.0
 40
5.0
 40
5.0
 40
5.0
 10
-4.449160707297047
 20
-3.260870000165379
 42
1.0
 10
-4.300905507193207
 20
-3.946114081381999
 42
1.0
 10
-4.741570606399121
 20
-4.622385452066122
 42
1.0
 10
-5.433383135791953
 20
-4.771973641166296
 42
1.0
 72
     1
 10
-5.433383135791953
 20
-4.771973641166296
 11
-6.809537646582547
 21
-5.069709977697404
 72
     4
 94
        3
 73
     1
 74
     0
 95
        8
 96
        4
 40
0.0
 40
0.0
 40
0.0
 40
0.0
 40
1.0
 40
1.0
 40
1.0
 40
1.0
 10
-6.809537646582547
 20
-5.069709977697404
 42
1.0
 10
-7.284290309572815
 20
-2.875375801708635
 42
1.0
 10
-7.897830097865885
 20
-0.0390758678013329
 42
1.0
 10
-8.296070930952649
 20
1.80204897196991
 42
1.0
 72
     1
 10
-8.296070930952649
 20
1.80204897196991
 11
-6.919811195494074
 21
2.099808074263809
 97
        0
 75
     0
 76
     1
 98
        1
 10
0.0
 20
0.0
  0
ENDBLK
  5
76
330
74
100
AcDbEntity
  8
0
100
AcDbBlockEnd
  0
BLOCK
  5
282
330
281
100
AcDbEntity
  8
0
100
AcDbBlockBegin
  2
SW_CENTERMARKSYMBOL_0
 70
     0
 10
0.0
 20
0.0
 30
0.0
  3
SW_CENTERMARKSYMBOL_0
  1

  0
LINE
  5
284
330
281
100
AcDbEntity
  8
0
  6
Continuous
 62
     0
370
    18
100
AcDbLine
 10
0.0
 20
0.0
 30
0.0
 11
0.0
 21
2.5
 31
0.0
  0
LINE
  5
285
330
281
100
AcDbEntity
  8
0
  6
Continuous
 62
     0
370
    18
100
AcDbLine
 10
0.0
 20
0.0
 30
0.0
 11
-2.5
 21
0.0
 31
0.0
  0
LINE
  5
286
330
281
100
AcDbEntity
  8
0
  6
Continuous
 62
     0
370
    18
100
AcDbLine
 10
0.0
 20
0.0
 30
0.0
 11
0.0
 21
-2.5
 31
0.0
  0
LINE
  5
287
330
281
100
AcDbEntity
  8
0
  6
Continuous
 62
     0
370
    18
100
AcDbLine
 10
0.0
 20
0.0
 30
0.0
 11
2.5
 21
0.0
 31
0.0
  0
LINE
  5
288
330
281
100
AcDbEntity
  8
0
  6
Continuous
 62
     0
370
    18
100
AcDbLine
 10
0.0
 20
5.0
 30
0.0
 11
0.0
 21
60.6
 31
0.0
  0
LINE
  5
289
330
281
100
AcDbEntity
  8
0
  6
Continuous
 62
     0
370
    18
100
AcDbLine
 10
-5.0
 20
0.0
 30
0.0
 11
-60.6
 21
0.0
 31
0.0
  0
LINE
  5
28A
330
281
100
AcDbEntity
  8
0
  6
Continuous
 62
     0
370
    18
100
AcDbLine
 10
0.0
 20
-5.0
 30
0.0
 11
0.0
 21
-60.6
 31
0.0
  0
LINE
  5
28B
330
281
100
AcDbEntity
  8
0
  6
Continuous
 62
     0
370
    18
100
AcDbLine
 10
5.0
 20
0.0
 30
0.0
 11
60.6
 21
0.0
 31
0.0
  0
ENDBLK
  5
283
330
281
100
AcDbEntity
  8
0
100
AcDbBlockEnd
  0
ENDSEC
  0
SECTION
  2
ENTITIES
  0
ARC
  5
DA
330
1F
100
AcDbEntity
  8
0
100
AcDbCircle
 10
-137.7400267396
 20
304.3874490765
 30
0.0
 40
0.1999999999999886
100
AcDbArc
 50
0.0
 51
90.0
  0
ARC
  5
DB
330
1F
100
AcDbEntity
  8
0
100
AcDbCircle
 10
-137.7400267396
 20
303.7874490765
 30
0.0
 40
0.1999999999999886
100
AcDbArc
 50
270.0
 51
0.0
  0
LINE
  5
DC
330
1F
100
AcDbEntity
  8
0
100
AcDbLine
 10
-137.5400267396
 20
303.7874490765
 30
0.0
 11
-137.5400267396
 21
304.3874490765
 31
0.0
  0
ARC
  5
DD
330
1F
100
AcDbEntity
  8
0
100
AcDbCircle
 10
-142.6498892022
 20
297.5969676954
 30
0.0
 40
8.000000000000043
100
AcDbArc
 50
107.1467397277
 51
119.0955287963
  0
ARC
  5
DE
330
1F
100
AcDbEntity
  8
0
100
AcDbCircle
 10
-143.4301642771
 20
297.5969676954
 30
0.0
 40
8.000000000000028
100
AcDbArc
 50
60.9044712037
 51
72.8515803462
  0
LINE
  5
DF
330
1F
100
AcDbEntity
  8
0
100
AcDbLine
 10
-140.9400267396
 20
303.4520461621
 30
0.0
 11
-140.9400267396
 21
303.5874490765
 31
0.0
  0
ARC
  5
E0
330
1F
100
AcDbEntity
  8
0
100
AcDbCircle
 10
142.2599732604
 20
303.7874490765
 30
0.0
 40
0.1999999999999886
100
AcDbArc
 50
270.0
 51
0.0
  0
ARC
  5
E1
330
1F
100
AcDbEntity
  8
0
100
AcDbCircle
 10
131.6599732604
 20
303.7874490765
 30
0.0
 40
0.1999999999999886
100
AcDbArc
 50
180.0
 51
270.0
  0
ARC
  5
E2
330
1F
100
AcDbEntity
  8
0
100
AcDbCircle
 10
142.2599732604
 20
304.3874490765
 30
0.0
 40
0.1999999999999886
100
AcDbArc
 50
0.0
 51
90.0
  0
ARC
  5
E3
330
1F
100
AcDbEntity
  8
0
100
AcDbCircle
 10
131.6599732604
 20
304.3874490765
 30
0.0
 40
0.1999999999999886
100
AcDbArc
 50
90.0
 51
180.0
  0
LINE
  5
E4
330
1F
100
AcDbEntity
  8
0
100
AcDbLine
 10
142.4599732604
 20
303.7874490765
 30
0.0
 11
142.4599732604
 21
304.3874490765
 31
0.0
  0
LINE
  5
E5
330
1F
100
AcDbEntity
  8
0
100
AcDbLine
 10
131.4599732604
 20
304.3874490765
 30
0.0
 11
131.4599732604
 21
303.7874490765
 31
0.0
  0
ARC
  5
E6
330
1F
100
AcDbEntity
  8
0
100
AcDbCircle
 10
137.3501107978
 20
297.5969676954
 30
0.0
 40
8.000000000000043
100
AcDbArc
 50
107.1467397277
 51
119.0955287963
  0
ARC
  5
E7
330
1F
100
AcDbEntity
  8
0
100
AcDbCircle
 10
136.5698357229
 20
297.5969676954
 30
0.0
 40
8.000000000000028
100
AcDbArc
 50
60.9044712037
 51
72.8515803462
  0
LINE
  5
E8
330
1F
100
AcDbEntity
  8
0
100
AcDbLine
 10
139.0599732604
 20
303.4520461621
 30
0.0
 11
139.0599732604
 21
303.5874490765
 31
0.0
  0
LINE
  5
E9
330
1F
100
AcDbEntity
  8
0
100
AcDbLine
 10
134.8599732604
 20
303.5874490765
 30
0.0
 11
134.8599732604
 21
303.4520461621
 31
0.0
  0
ARC
  5
EA
330
1F
100
AcDbEntity
  8
0
100
AcDbCircle
 10
-148.3400267396
 20
78.3874490765
 30
0.0
 40
0.2000000000000171
100
AcDbArc
 50
90.0
 51
180.0
  0
ARC
  5
EB
330
1F
100
AcDbEntity
  8
0
100
AcDbCircle
 10
-137.7400267396
 20
78.3874490765
 30
0.0
 40
0.2000000000000028
100
AcDbArc
 50
0.0
 51
90.0
  0
LINE
  5
EC
330
1F
100
AcDbEntity
  8
0
100
AcDbLine
 10
-148.5400267396
 20
78.3874490765
 30
0.0
 11
-148.5400267396
 21
77.7874490765
 31
0.0
  0
LINE
  5
ED
330
1F
100
AcDbEntity
  8
0
100
AcDbLine
 10
-137.5400267396
 20
77.7874490765
 30
0.0
 11
-137.5400267396
 21
78.3874490765
 31
0.0
  0
ARC
  5
EE
330
1F
100
AcDbEntity
  8
0
100
AcDbCircle
 10
-148.3400267396
 20
77.7874490765
 30
0.0
 40
0.2000000000000171
100
AcDbArc
 50
180.0
 51
270.0
  0
ARC
  5
EF
330
1F
100
AcDbEntity
  8
0
100
AcDbCircle
 10
-137.7400267396
 20
77.7874490765
 30
0.0
 40
0.1999999999999886
100
AcDbArc
 50
270.0
 51
0.0
  0
ARC
  5
F0
330
1F
100
AcDbEntity
  8
0
100
AcDbCircle
 10
-143.4301642771
 20
84.5779304576
 30
0.0
 40
7.999999999999997
100
AcDbArc
 50
287.1467397277
 51
299.0955287963
  0
ARC
  5
F1
330
1F
100
AcDbEntity
  8
0
100
AcDbCircle
 10
-142.6498892022
 20
84.5779304576
 30
0.0
 40
8.000000000000005
100
AcDbArc
 50
240.9044712037
 51
252.8515803462
  0
ARC
  5
F2
330
1F
100
AcDbEntity
  8
0
100
AcDbCircle
 10
131.6599732604
 20
78.3874490765
 30
0.0
 40
0.2000000000000028
100
AcDbArc
 50
90.0
 51
180.0
  0
ARC
  5
F3
330
1F
100
AcDbEntity
  8
0
100
AcDbCircle
 10
142.2599732604
 20
78.3874490765
 30
0.0
 40
0.2000000000000028
100
AcDbArc
 50
0.0
 51
90.0
  0
LINE
  5
F4
330
1F
100
AcDbEntity
  8
0
100
AcDbLine
 10
131.4599732604
 20
78.3874490765
 30
0.0
 11
131.4599732604
 21
77.7874490765
 31
0.0
  0
LINE
  5
F5
330
1F
100
AcDbEntity
  8
0
100
AcDbLine
 10
142.4599732604
 20
77.7874490765
 30
0.0
 11
142.4599732604
 21
78.3874490765
 31
0.0
  0
ARC
  5
F6
330
1F
100
AcDbEntity
  8
0
100
AcDbCircle
 10
131.6599732604
 20
77.7874490765
 30
0.0
 40
0.1999999999999886
100
AcDbArc
 50
180.0
 51
270.0
  0
ARC
  5
F7
330
1F
100
AcDbEntity
  8
0
100
AcDbCircle
 10
142.2599732604
 20
77.7874490765
 30
0.0
 40
0.1999999999999886
100
AcDbArc
 50
270.0
 51
0.0
  0
ARC
  5
F8
330
1F
100
AcDbEntity
  8
0
100
AcDbCircle
 10
136.5698357229
 20
84.5779304576
 30
0.0
 40
7.999999999999991
100
AcDbArc
 50
287.1467397277
 51
299.0955287963
  0
ARC
  5
F9
330
1F
100
AcDbEntity
  8
0
100
AcDbCircle
 10
137.3501107978
 20
84.5779304576
 30
0.0
 40
8.000000000000005
100
AcDbArc
 50
240.9044712037
 51
252.8515803462
  0
ARC
  5
FA
330
1F
100
AcDbEntity
  8
0
100
AcDbCircle
 10
-240.5845291311
 20
121.6874490765
 30
0.0
 40
0.5000000000000024
100
AcDbArc
 50
184.9871394293
 51
0.0
  0
ARC
  5
FB
330
1F
100
AcDbEntity
  8
0
100
AcDbCircle
 10
-240.5845291311
 20
260.4874490765
 30
0.0
 40
0.5000000000000037
100
AcDbArc
 50
0.0
 51
175.0128605707
  0
ARC
  5
FC
330
1F
100
AcDbEntity
  8
0
100
AcDbCircle
 10
-236.3845291311
 20
121.6874490765
 30
0.0
 40
0.500000000000032
100
AcDbArc
 50
184.9871394293
 51
0.0
  0
ARC
  5
FD
330
1F
100
AcDbEntity
  8
0
100
AcDbCircle
 10
-236.3845291311
 20
260.4874490765
 30
0.0
 40
0.5000000000000037
100
AcDbArc
 50
0.0
 51
175.0128605707
  0
LINE
  5
FE
330
1F
100
AcDbEntity
  8
0
100
AcDbLine
 10
-236.882636249
 20
260.5309151442
 30
0.0
 11
-237.5646099871
 21
252.7157160427
 31
0.0
  0
LINE
  5
FF
330
1F
100
AcDbEntity
  8
0
100
AcDbLine
 10
-237.5646099871
 20
129.4591821104
 30
0.0
 11
-236.882636249
 21
121.6439830088
 31
0.0
  0
LINE
  5
100
330
1F
100
AcDbEntity
  8
0
100
AcDbLine
 10
-241.082636249
 20
260.5309151442
 30
0.0
 11
-241.7646099871
 21
252.7157160427
 31
0.0
  0
LINE
  5
101
330
1F
100
AcDbEntity
  8
0
100
AcDbLine
 10
-241.7646099871
 20
129.4591821104
 30
0.0
 11
-241.082636249
 21
121.6439830088
 31
0.0
  0
ARC
  5
102
330
1F
100
AcDbEntity
  8
0
100
AcDbCircle
 10
-237.8136635461
 20
129.4374490765
 30
0.0
 40
0.25
100
AcDbArc
 50
4.9871394293
 51
90.0
  0
ARC
  5
103
330
1F
100
AcDbEntity
  8
0
100
AcDbCircle
 10
-237.8136635461
 20
252.7374490765
 30
0.0
 40
0.2500000000000284
100
AcDbArc
 50
270.0
 51
355.0128605707
  0
ARC
  5
104
330
1F
100
AcDbEntity
  8
0
100
AcDbCircle
 10
-242.0136635461
 20
129.4374490765
 30
0.0
 40
0.25
100
AcDbArc
 50
4.9871394293
 51
90.0
  0
ARC
  5
105
330
1F
100
AcDbEntity
  8
0
100
AcDbCircle
 10
-242.0136635461
 20
252.7374490765
 30
0.0
 40
0.2500000000000284
100
AcDbArc
 50
270.0
 51
355.0128605707
  0
LINE
  5
106
330
1F
100
AcDbEntity
  8
0
100
AcDbLine
 10
-240.0845291311
 20
129.6874490765
 30
0.0
 11
-237.8136635461
 21
129.6874490765
 31
0.0
  0
LINE
  5
107
330
1F
100
AcDbEntity
  8
0
100
AcDbLine
 10
-237.8136635461
 20
252.4874490765
 30
0.0
 11
-240.0845291311
 21
252.4874490765
 31
0.0
  0
LINE
  5
108
330
1F
100
AcDbEntity
  8
0
100
AcDbLine
 10
-243.1345291311
 20
129.6874490765
 30
0.0
 11
-242.0136635461
 21
129.6874490765
 31
0.0
  0
LINE
  5
109
330
1F
100
AcDbEntity
  8
0
100
AcDbLine
 10
-242.0136635461
 20
252.4874490765
 30
0.0
 11
-243.1345291311
 21
252.4874490765
 31
0.0
  0
ARC
  5
10A
330
1F
100
AcDbEntity
  8
0
100
AcDbCircle
 10
234.5044756518
 20
260.4874490765
 30
0.0
 40
0.5000000000000037
100
AcDbArc
 50
4.9871394293
 51
180.0
  0
ARC
  5
10B
330
1F
100
AcDbEntity
  8
0
100
AcDbCircle
 10
234.5044756518
 20
121.6874490765
 30
0.0
 40
0.5000000000000024
100
AcDbArc
 50
180.0
 51
355.0128605707
  0
ARC
  5
10C
330
1F
100
AcDbEntity
  8
0
100
AcDbCircle
 10
230.3044756518
 20
260.4874490765
 30
0.0
 40
0.5000000000000037
100
AcDbArc
 50
4.9871394293
 51
180.0
  0
ARC
  5
10D
330
1F
100
AcDbEntity
  8
0
100
AcDbCircle
 10
230.3044756518
 20
121.6874490765
 30
0.0
 40
0.5000000000000037
100
AcDbArc
 50
180.0
 51
355.0128605707
  0
LINE
  5
10E
330
1F
100
AcDbEntity
  8
0
100
AcDbLine
 10
230.8025827697
 20
121.6439830088
 30
0.0
 11
231.4845565078
 21
129.4591821104
 31
0.0
  0
LINE
  5
10F
330
1F
100
AcDbEntity
  8
0
100
AcDbLine
 10
231.4845565078
 20
252.7157160427
 30
0.0
 11
230.8025827697
 21
260.5309151442
 31
0.0
  0
LINE
  5
110
330
1F
100
AcDbEntity
  8
0
100
AcDbLine
 10
235.0025827697
 20
121.6439830088
 30
0.0
 11
235.6845565078
 21
129.4591821104
 31
0.0
  0
LINE
  5
111
330
1F
100
AcDbEntity
  8
0
100
AcDbLine
 10
235.6845565078
 20
252.7157160427
 30
0.0
 11
235.0025827697
 21
260.5309151442
 31
0.0
  0
ARC
  5
112
330
1F
100
AcDbEntity
  8
0
100
AcDbCircle
 10
231.7336100668
 20
252.7374490765
 30
0.0
 40
0.2500000000000284
100
AcDbArc
 50
184.9871394293
 51
270.0
  0
ARC
  5
113
330
1F
100
AcDbEntity
  8
0
100
AcDbCircle
 10
231.7336100668
 20
129.4374490765
 30
0.0
 40
0.25
100
AcDbArc
 50
90.0
 51
175.0128605707
  0
ARC
  5
114
330
1F
100
AcDbEntity
  8
0
100
AcDbCircle
 10
235.9336100668
 20
252.7374490765
 30
0.0
 40
0.2500000000000284
100
AcDbArc
 50
184.9871394293
 51
270.0
  0
ARC
  5
115
330
1F
100
AcDbEntity
  8
0
100
AcDbCircle
 10
235.9336100668
 20
129.4374490765
 30
0.0
 40
0.25
100
AcDbArc
 50
90.0
 51
175.0128605707
  0
LINE
  5
116
330
1F
100
AcDbEntity
  8
0
100
AcDbLine
 10
234.0044756518
 20
252.4874490765
 30
0.0
 11
231.7336100668
 21
252.4874490765
 31
0.0
  0
LINE
  5
117
330
1F
100
AcDbEntity
  8
0
100
AcDbLine
 10
231.7336100668
 20
129.6874490765
 30
0.0
 11
234.0044756518
 21
129.6874490765
 31
0.0
  0
LINE
  5
118
330
1F
100
AcDbEntity
  8
0
100
AcDbLine
 10
237.0544756518
 20
252.4874490765
 30
0.0
 11
235.9336100668
 21
252.4874490765
 31
0.0
  0
LINE
  5
119
330
1F
100
AcDbEntity
  8
0
100
AcDbLine
 10
235.9336100668
 20
129.6874490765
 30
0.0
 11
237.0544756518
 21
129.6874490765
 31
0.0
  0
ARC
  5
11A
330
1F
100
AcDbEntity
  8
0
100
AcDbCircle
 10
-156.2513348843
 20
79.8374490765
 30
0.0
 40
2.750000000000018
100
AcDbArc
 50
188.8498830984
 51
351.1501169016
  0
ARC
  5
11B
330
1F
100
AcDbEntity
  8
0
100
AcDbCircle
 10
-156.2513348843
 20
302.3374490765
 30
0.0
 40
2.750000000000012
100
AcDbArc
 50
8.8498830984
 51
171.1501169016
  0
ARC
  5
11C
330
1F
100
AcDbEntity
  8
0
100
AcDbCircle
 10
-153.0400267396
 20
79.3374490765
 30
0.0
 40
0.500000000000006
100
AcDbArc
 50
90.0
 51
171.1501169016
  0
ARC
  5
11D
330
1F
100
AcDbEntity
  8
0
100
AcDbCircle
 10
-153.0400267396
 20
302.8374490765
 30
0.0
 40
0.5
100
AcDbArc
 50
188.8498830984
 51
270.0
  0
ARC
  5
11E
330
1F
100
AcDbEntity
  8
0
100
AcDbCircle
 10
-159.462643029
 20
79.3374490765
 30
0.0
 40
0.500000000000006
100
AcDbArc
 50
8.8498830984
 51
90.0
  0
ARC
  5
11F
330
1F
100
AcDbEntity
  8
0
100
AcDbCircle
 10
-159.462643029
 20
302.8374490765
 30
0.0
 40
0.5000000000000298
100
AcDbArc
 50
270.0
 51
351.1501169016
  0
ARC
  5
120
330
1F
100
AcDbEntity
  8
0
100
AcDbCircle
 10
-161.0400267396
 20
88.5874490765
 30
0.0
 40
8.75
100
AcDbArc
 50
200.0
 51
270.0
  0
ARC
  5
121
330
1F
100
AcDbEntity
  8
0
100
AcDbCircle
 10
-161.0400267396
 20
293.5874490765
 30
0.0
 40
8.750000000000057
100
AcDbArc
 50
90.0
 51
160.0
  0
LINE
  5
122
330
1F
100
AcDbEntity
  8
0
100
AcDbLine
 10
-161.0400267396
 20
79.8374490765
 30
0.0
 11
-159.462643029
 21
79.8374490765
 31
0.0
  0
LINE
  5
123
330
1F
100
AcDbEntity
  8
0
100
AcDbLine
 10
-159.462643029
 20
302.3374490765
 30
0.0
 11
-161.0400267396
 21
302.3374490765
 31
0.0
  0
LINE
  5
124
330
1F
100
AcDbEntity
  8
0
100
AcDbLine
 10
-169.2623371715
 20
296.5801253306
 30
0.0
 11
-183.5549884618
 21
257.3113886465
 31
0.0
  0
LINE
  5
125
330
1F
100
AcDbEntity
  8
0
100
AcDbLine
 10
-183.5549884618
 20
124.8635095065
 30
0.0
 11
-169.2623371715
 21
85.5947728224
 31
0.0
  0
ARC
  5
126
330
1F
100
AcDbEntity
  8
0
100
AcDbCircle
 10
-186.3740663241
 20
123.8374490765
 30
0.0
 40
2.999999999999987
100
AcDbArc
 50
20.0
 51
90.0
  0
ARC
  5
127
330
1F
100
AcDbEntity
  8
0
100
AcDbCircle
 10
-186.3740663241
 20
258.3374490765
 30
0.0
 40
3.0
100
AcDbArc
 50
270.0
 51
340.0
  0
ARC
  5
128
330
1F
100
AcDbEntity
  8
0
100
AcDbCircle
 10
-204.1345291311
 20
129.1874490765
 30
0.0
 40
2.750000000000012
100
AcDbArc
 50
188.8498830984
 51
351.1501169016
  0
ARC
  5
129
330
1F
100
AcDbEntity
  8
0
100
AcDbCircle
 10
-204.1345291311
 20
252.9874490765
 30
0.0
 40
2.750000000000016
100
AcDbArc
 50
8.8498830984
 51
171.1501169016
  0
LINE
  5
12A
330
1F
100
AcDbEntity
  8
0
100
AcDbLine
 10
-195.807079026
 20
126.8374490765
 30
0.0
 11
-186.3740663241
 21
126.8374490765
 31
0.0
  0
LINE
  5
12B
330
1F
100
AcDbEntity
  8
0
100
AcDbLine
 10
-186.3740663241
 20
255.3374490765
 30
0.0
 11
-189.2673450449
 21
255.3374490765
 31
0.0
  0
LINE
  5
12C
330
1F
100
AcDbEntity
  8
0
100
AcDbLine
 10
-194.6756544713
 20
255.3374490765
 30
0.0
 11
-195.807079026
 21
255.3374490765
 31
0.0
  0
LINE
  5
12D
330
1F
100
AcDbEntity
  8
0
100
AcDbLine
 10
-195.807079026
 20
255.3374490765
 30
0.0
 11
-197.1638521586
 21
252.9874490765
 31
0.0
  0
LINE
  5
12E
330
1F
100
AcDbEntity
  8
0
100
AcDbLine
 10
-197.1638521586
 20
129.1874490765
 30
0.0
 11
-195.807079026
 21
126.8374490765
 31
0.0
  0
ARC
  5
12F
330
1F
100
AcDbEntity
  8
0
100
AcDbCircle
 10
-207.3458372757
 20
128.6874490765
 30
0.0
 40
0.5
100
AcDbArc
 50
8.8498830984
 51
90.0
  0
ARC
  5
130
330
1F
100
AcDbEntity
  8
0
100
AcDbCircle
 10
-207.3458372757
 20
253.4874490765
 30
0.0
 40
0.500000000000006
100
AcDbArc
 50
270.0
 51
351.1501169016
  0
ARC
  5
131
330
1F
100
AcDbEntity
  8
0
100
AcDbCircle
 10
-200.9232209864
 20
128.6874490765
 30
0.0
 40
0.5000000000000103
100
AcDbArc
 50
90.0
 51
171.1501169016
  0
ARC
  5
132
330
1F
100
AcDbEntity
  8
0
100
AcDbCircle
 10
-200.9232209864
 20
253.4874490765
 30
0.0
 40
0.5000000000000341
100
AcDbArc
 50
188.8498830984
 51
270.0
  0
ARC
  5
133
330
1F
100
AcDbEntity
  8
0
100
AcDbCircle
 10
-247.8345291311
 20
130.4874490765
 30
0.0
 40
1.299999999983754
100
AcDbArc
 50
180.0
 51
270.0
  0
ARC
  5
134
330
1F
100
AcDbEntity
  8
0
100
AcDbCircle
 10
-247.8345291311
 20
251.6874490765
 30
0.0
 40
1.299999999983754
100
AcDbArc
 50
90.0
 51
180.0
  0
LINE
  5
135
330
1F
100
AcDbEntity
  8
0
100
AcDbLine
 10
-247.8345291311
 20
129.1874490765
 30
0.0
 11
-243.1345291311
 21
129.1874490765
 31
0.0
  0
LINE
  5
136
330
1F
100
AcDbEntity
  8
0
100
AcDbLine
 10
-243.1345291311
 20
252.9874490765
 30
0.0
 11
-247.8345291311
 21
252.9874490765
 31
0.0
  0
LINE
  5
137
330
1F
100
AcDbEntity
  8
0
100
AcDbLine
 10
-230.4753514542
 20
252.9874490765
 30
0.0
 11
-235.8845291311
 21
250.9403429602
 31
0.0
  0
LINE
  5
138
330
1F
100
AcDbEntity
  8
0
100
AcDbLine
 10
-235.8845291311
 20
131.2345551928
 30
0.0
 11
-230.4753514542
 21
129.1874490765
 31
0.0
  0
LINE
  5
139
330
1F
100
AcDbEntity
  8
0
100
AcDbLine
 10
-230.4753514542
 20
129.1874490765
 30
0.0
 11
-207.3458372757
 21
129.1874490765
 31
0.0
  0
LINE
  5
13A
330
1F
100
AcDbEntity
  8
0
100
AcDbLine
 10
-207.3458372757
 20
252.9874490765
 30
0.0
 11
-230.4753514542
 21
252.9874490765
 31
0.0
  0
LINE
  5
13B
330
1F
100
AcDbEntity
  8
0
100
AcDbLine
 10
-200.9232209864
 20
129.1874490765
 30
0.0
 11
-197.1638521586
 21
129.1874490765
 31
0.0
  0
LINE
  5
13C
330
1F
100
AcDbEntity
  8
0
100
AcDbLine
 10
-197.1638521586
 20
252.9874490765
 30
0.0
 11
-200.9232209864
 21
252.9874490765
 31
0.0
  0
ARC
  5
13D
330
1F
100
AcDbEntity
  8
0
100
AcDbCircle
 10
150.171281405
 20
302.3374490765
 30
0.0
 40
2.750000000000012
100
AcDbArc
 50
8.8498830984
 51
171.1501169016
  0
ARC
  5
13E
330
1F
100
AcDbEntity
  8
0
100
AcDbCircle
 10
150.171281405
 20
79.8374490765
 30
0.0
 40
2.750000000000014
100
AcDbArc
 50
188.8498830984
 51
351.1501169016
  0
ARC
  5
13F
330
1F
100
AcDbEntity
  8
0
100
AcDbCircle
 10
146.9599732604
 20
302.8374490765
 30
0.0
 40
0.5
100
AcDbArc
 50
270.0
 51
351.1501169016
  0
ARC
  5
140
330
1F
100
AcDbEntity
  8
0
100
AcDbCircle
 10
146.9599732604
 20
79.3374490765
 30
0.0
 40
0.500000000000006
100
AcDbArc
 50
8.8498830984
 51
90.0
  0
ARC
  5
141
330
1F
100
AcDbEntity
  8
0
100
AcDbCircle
 10
153.3825895497
 20
302.8374490765
 30
0.0
 40
0.5000000000000298
100
AcDbArc
 50
188.8498830984
 51
270.0
  0
ARC
  5
142
330
1F
100
AcDbEntity
  8
0
100
AcDbCircle
 10
153.3825895497
 20
79.3374490765
 30
0.0
 40
0.5000000000000341
100
AcDbArc
 50
90.0
 51
171.1501169016
  0
LINE
  5
143
330
1F
100
AcDbEntity
  8
0
100
AcDbLine
 10
154.9599732604
 20
302.3374490765
 30
0.0
 11
153.3825895497
 21
302.3374490765
 31
0.0
  0
LINE
  5
144
330
1F
100
AcDbEntity
  8
0
100
AcDbLine
 10
153.3825895497
 20
79.8374490765
 30
0.0
 11
154.9599732604
 21
79.8374490765
 31
0.0
  0
ARC
  5
145
330
1F
100
AcDbEntity
  8
0
100
AcDbCircle
 10
154.9599732604
 20
293.5874490765
 30
0.0
 40
8.750000000000057
100
AcDbArc
 50
20.0
 51
90.0
  0
ARC
  5
146
330
1F
100
AcDbEntity
  8
0
100
AcDbCircle
 10
154.9599732604
 20
88.5874490765
 30
0.0
 40
8.75
100
AcDbArc
 50
270.0
 51
340.0
  0
LINE
  5
147
330
1F
100
AcDbEntity
  8
0
100
AcDbLine
 10
163.1822836922
 20
85.5947728224
 30
0.0
 11
177.4749349825
 21
124.8635095065
 31
0.0
  0
LINE
  5
148
330
1F
100
AcDbEntity
  8
0
100
AcDbLine
 10
177.4749349825
 20
257.3113886465
 30
0.0
 11
163.1822836922
 21
296.5801253306
 31
0.0
  0
ARC
  5
149
330
1F
100
AcDbEntity
  8
0
100
AcDbCircle
 10
180.2940128448
 20
258.3374490765
 30
0.0
 40
3.0
100
AcDbArc
 50
200.0
 51
270.0
  0
ARC
  5
14A
330
1F
100
AcDbEntity
  8
0
100
AcDbCircle
 10
180.2940128448
 20
123.8374490765
 30
0.0
 40
2.999999999999987
100
AcDbArc
 50
90.0
 51
160.0
  0
ARC
  5
14B
330
1F
100
AcDbEntity
  8
0
100
AcDbCircle
 10
198.0544756518
 20
252.9874490765
 30
0.0
 40
2.750000000000016
100
AcDbArc
 50
8.8498830984
 51
171.1501169016
  0
ARC
  5
14C
330
1F
100
AcDbEntity
  8
0
100
AcDbCircle
 10
198.0544756518
 20
129.1874490765
 30
0.0
 40
2.750000000000007
100
AcDbArc
 50
188.8498830984
 51
351.1501169016
  0
LINE
  5
14D
330
1F
100
AcDbEntity
  8
0
100
AcDbLine
 10
189.7270255467
 20
255.3374490765
 30
0.0
 11
180.2940128448
 21
255.3374490765
 31
0.0
  0
LINE
  5
14E
330
1F
100
AcDbEntity
  8
0
100
AcDbLine
 10
180.2940128448
 20
126.8374490765
 30
0.0
 11
189.7270255467
 21
126.8374490765
 31
0.0
  0
LINE
  5
14F
330
1F
100
AcDbEntity
  8
0
100
AcDbLine
 10
189.7270255467
 20
126.8374490765
 30
0.0
 11
191.0837986793
 21
129.1874490765
 31
0.0
  0
LINE
  5
150
330
1F
100
AcDbEntity
  8
0
100
AcDbLine
 10
191.0837986793
 20
252.9874490765
 30
0.0
 11
189.7270255467
 21
255.3374490765
 31
0.0
  0
ARC
  5
151
330
1F
100
AcDbEntity
  8
0
100
AcDbCircle
 10
194.8431675071
 20
253.4874490765
 30
0.0
 40
0.5000000000000341
100
AcDbArc
 50
270.0
 51
351.1501169016
  0
ARC
  5
152
330
1F
100
AcDbEntity
  8
0
100
AcDbCircle
 10
194.8431675071
 20
128.6874490765
 30
0.0
 40
0.5
100
AcDbArc
 50
8.8498830984
 51
90.0
  0
ARC
  5
153
330
1F
100
AcDbEntity
  8
0
100
AcDbCircle
 10
201.2657837965
 20
253.4874490765
 30
0.0
 40
0.500000000000006
100
AcDbArc
 50
188.8498830984
 51
270.0
  0
ARC
  5
154
330
1F
100
AcDbEntity
  8
0
100
AcDbCircle
 10
201.2657837965
 20
128.6874490765
 30
0.0
 40
0.5000000000000103
100
AcDbArc
 50
90.0
 51
171.1501169016
  0
ARC
  5
155
330
1F
100
AcDbEntity
  8
0
100
AcDbCircle
 10
241.7544756518
 20
251.6874490765
 30
0.0
 40
1.299999999983783
100
AcDbArc
 50
0.0
 51
90.0
  0
ARC
  5
156
330
1F
100
AcDbEntity
  8
0
100
AcDbCircle
 10
241.7544756518
 20
130.4874490765
 30
0.0
 40
1.299999999983754
100
AcDbArc
 50
270.0
 51
0.0
  0
LINE
  5
157
330
1F
100
AcDbEntity
  8
0
100
AcDbLine
 10
241.7544756518
 20
252.9874490765
 30
0.0
 11
237.0544756518
 21
252.9874490765
 31
0.0
  0
LINE
  5
158
330
1F
100
AcDbEntity
  8
0
100
AcDbLine
 10
237.0544756518
 20
129.1874490765
 30
0.0
 11
241.7544756518
 21
129.1874490765
 31
0.0
  0
LINE
  5
159
330
1F
100
AcDbEntity
  8
0
100
AcDbLine
 10
224.3952979749
 20
129.1874490765
 30
0.0
 11
229.8044756518
 21
131.2345551928
 31
0.0
  0
LINE
  5
15A
330
1F
100
AcDbEntity
  8
0
100
AcDbLine
 10
229.8044756518
 20
250.9403429602
 30
0.0
 11
224.3952979749
 21
252.9874490765
 31
0.0
  0
LINE
  5
15B
330
1F
100
AcDbEntity
  8
0
100
AcDbLine
 10
224.3952979749
 20
252.9874490765
 30
0.0
 11
201.2657837965
 21
252.9874490765
 31
0.0
  0
LINE
  5
15C
330
1F
100
AcDbEntity
  8
0
100
AcDbLine
 10
201.2657837965
 20
129.1874490765
 30
0.0
 11
224.3952979749
 21
129.1874490765
 31
0.0
  0
LINE
  5
15D
330
1F
100
AcDbEntity
  8
0
100
AcDbLine
 10
194.8431675071
 20
252.9874490765
 30
0.0
 11
191.0837986793
 21
252.9874490765
 31
0.0
  0
LINE
  5
15E
330
1F
100
AcDbEntity
  8
0
100
AcDbLine
 10
191.0837986793
 20
129.1874490765
 30
0.0
 11
194.8431675071
 21
129.1874490765
 31
0.0
  0
LINE
  5
15F
330
1F
100
AcDbEntity
  8
0
100
AcDbLine
 10
30.7601526255
 20
76.9374490787
 30
0.0
 11
35.1030518
 21
76.9374490787
 31
0.0
  0
LINE
  5
160
330
1F
100
AcDbEntity
  8
0
100
AcDbLine
 10
-25.8969482
 20
305.2374490743
 30
0.0
 11
-30.2398473745
 21
305.2374490743
 31
0.0
  0
LINE
  5
161
330
1F
100
AcDbEntity
  8
0
100
AcDbLine
 10
96.1030518
 20
305.2374490743
 30
0.0
 11
91.7601526255
 21
305.2374490743
 31
0.0
  0
LINE
  5
162
330
1F
100
AcDbEntity
  8
0
100
AcDbLine
 10
-147.8969482
 20
305.2374490743
 30
0.0
 11
-152.2398473745
 21
305.2374490743
 31
0.0
  0
LINE
  5
163
330
1F
100
AcDbEntity
  8
0
100
AcDbLine
 10
-91.2398473745
 20
76.9374490787
 30
0.0
 11
-86.8969482
 21
76.9374490787
 31
0.0
  0
SPLINE
  5
164
330
1F
100
AcDbEntity
  8
0
100
AcDbSpline
210
0.0
220
0.0
230
1.0
 70
     8
 71
     3
 72
    56
 73
    52
 74
     0
 42
0.00000001
 43
0.00000001
 40
0.0
 40
0.0
 40
0.0
 40
0.0
 40
0.0133728940065575
 40
0.0270062174116034
 40
0.0379740088488715
 40
0.0474084152867292
 40
0.0570071965008021
 40
0.0668023424676557
 40
0.0766979063222395
 40
0.0867289945072477
 40
0.0946290794248138
 40
0.1024746855234713
 40
0.1124189999834818
 40
0.1238631452225719
 40
0.1349648987002636
 40
0.1599068278118782
 40
0.1843930104465327
 40
0.2089078461259248
 40
0.2334038832255284
 40
0.2579326971619643
 40
0.2885671286954949
 40
0.3192350919740272
 40
0.349882068254929
 40
0.3805575466028118
 40
0.4009945265884963
 40
0.4214574095829556
 40
0.4420729345027328
 40
0.4638870158050932
 40
0.4841980882413141
 40
0.5018189136796949
 40
0.5268453201193936
 40
0.5521498511570797
 40
0.5769233014668241
 40
0.6014927694357999
 40
0.6260416161771009
 40
0.65675766875772
 40
0.687454866698522
 40
0.7181766296459556
 40
0.7488926093222982
 40
0.7734830895173525
 40
0.7980653644663883
 40
0.8226764442732027
 40
0.847796083144026
 40
0.8734887011639131
 40
0.8933269238505995
 40
0.9118349847027586
 40
0.9319863120902265
 40
0.9483383562898063
 40
0.9647155639887277
 40
0.982088817148732
 40
1.0
 40
1.0
 40
1.0
 40
1.0
 10
-30.09836785681524
 20
303.6156943315086
 30
0.0
 10
-29.88221054217673
 20
303.59523919137
 30
0.0
 10
-29.44568637385732
 20
303.5539305590352
 30
0.0
 10
-28.83194994946048
 20
303.2760459960688
 30
0.0
 10
-28.24013830184508
 20
302.8983979712852
 30
0.0
 10
-27.67628225154451
 20
302.4267180178338
 30
0.0
 10
-27.13791204713165
 20
301.8800243155874
 30
0.0
 10
-26.58087036407925
 20
301.2188674883055
 30
0.0
 10
-26.00922054007631
 20
300.4405036134742
 30
0.0
 10
-25.4697465044078
 20
299.6115032139735
 30
0.0
 10
-24.96575221857573
 20
298.7579252958983
 30
0.0
 10
-24.45804306195101
 20
297.8280263797712
 30
0.0
 10
-23.8788883166309
 20
296.6750378469229
 30
0.0
 10
-23.23110430121109
 20
295.2705068154798
 30
0.0
 10
-22.28110719499032
 20
293.0332798345088
 30
0.0
 10
-21.06589350618531
 20
289.8066923222622
 30
0.0
 10
-19.58041331755551
 20
285.2667304670601
 30
0.0
 10
-18.09501784618219
 20
280.1944184817403
 30
0.0
 10
-16.61503202886687
 20
274.5893539757148
 30
0.0
 10
-15.00165737793751
 20
267.9828164781856
 30
0.0
 10
-13.27132909156088
 20
260.2600767713094
 30
0.0
 10
-11.40739504249919
 20
251.3493722314379
 30
0.0
 10
-9.55143697457295
 20
241.8767932747602
 30
0.0
 10
-7.893344385655012
 20
233.041147286119
 30
0.0
 10
-6.449750417064874
 20
225.063146484037
 30
0.0
 10
-5.202579293289182
 20
218.066983857966
 30
0.0
 10
-3.931625737693042
 20
210.7994404694245
 30
0.0
 10
-2.663883455802244
 20
203.4623429925458
 30
0.0
 10
-1.452515487524352
 20
196.4257040140286
 30
0.0
 10
-0.1821823522971488
 20
188.9903507236389
 30
0.0
 10
1.193998539966086
 20
180.9693351147012
 30
0.0
 10
2.713644292229587
 20
172.1653793992037
 30
0.0
 10
4.221821697119437
 20
163.52907182061
 30
0.0
 10
5.719720900169001
 20
155.1434506394505
 30
0.0
 10
7.330720136378463
 20
146.3106498118819
 30
0.0
 10
9.074547927583799
 20
137.1379861607244
 30
0.0
 10
10.93548132934059
 20
127.7997253244598
 30
0.0
 10
12.80339028617153
 20
119.0412875701458
 30
0.0
 10
14.54371588845023
 20
111.4768227455376
 30
0.0
 10
16.1643944376224
 20
105.0254189220604
 30
0.0
 10
17.65779468174231
 20
99.568208781792
 30
0.0
 10
19.17065073204735
 20
94.61014012596316
 30
0.0
 10
20.70117748291524
 20
90.15589986626756
 30
0.0
 10
22.14841652531045
 20
86.56143267680883
 30
0.0
 10
23.45971574335922
 20
83.78964583721388
 30
0.0
 10
24.67375034208237
 20
81.6281676290358
 30
0.0
 10
25.83891304784427
 20
79.95312656549547
 30
0.0
 10
26.97594054651254
 20
78.68026334550939
 30
0.0
 10
28.06166716679301
 20
77.79104460627144
 30
0.0
 10
29.24340757360246
 20
77.1245680766074
 30
0.0
 10
30.13296530450382
 20
77.02203073023693
 30
0.0
 10
30.58452505651016
 20
76.96998043930022
 30
0.0
  0
SPLINE
  5
165
330
1F
100
AcDbEntity
  8
0
100
AcDbSpline
210
0.0
220
0.0
230
1.0
 70
     8
 71
     3
 72
    52
 73
    48
 74
     0
 42
0.00000001
 43
0.00000001
 40
0.0
 40
0.0
 40
0.0
 40
0.0
 40
0.0145813919211513
 40
0.0294467480407267
 40
0.0414056901648375
 40
0.0516926764930322
 40
0.0621588920167006
 40
0.0728392176214329
 40
0.0836290357994374
 40
0.0945666255350277
 40
0.1031806349137709
 40
0.1117352422655839
 40
0.1225782166028899
 40
0.1350565602472752
 40
0.147161570456052
 40
0.1743574820865297
 40
0.2010564617893369
 40
0.2277866838899988
 40
0.2544964085979999
 40
0.2812418721598032
 40
0.3146447131793408
 40
0.3480841161813063
 40
0.3815006356071669
 40
0.4149482328093908
 40
0.4372320866042315
 40
0.4595441842423816
 40
0.482022717936597
 40
0.5058081206111169
 40
0.5279546886902653
 40
0.5471678942660585
 40
0.5744559173743247
 40
0.6020471989817742
 40
0.6290594065135541
 40
0.6558491979808436
 40
0.6826165046963337
 40
0.716108342792795
 40
0.7495796223704678
 40
0.783077686875104
 40
0.8165694454789877
 40
0.8433821480307053
 40
0.8701859038347735
 40
0.8970210675689636
 40
0.9244107484498336
 40
0.9524251881548643
 40
0.9740561754244775
 40
0.9942367951806459
 40
1.0
 40
1.0
 40
1.0
 40
1.0
 10
91.90163214318488
 20
303.6156943315086
 30
0.0
 10
92.11778945782338
 20
303.59523919137
 30
0.0
 10
92.55431362614274
 20
303.5539305590352
 30
0.0
 10
93.16805005053952
 20
303.2760459960687
 30
0.0
 10
93.75986169815491
 20
302.8983979712852
 30
0.0
 10
94.32371774845555
 20
302.4267180178338
 30
0.0
 10
94.86208795286838
 20
301.8800243155874
 30
0.0
 10
95.41912963592074
 20
301.2188674883055
 30
0.0
 10
95.99077945992374
 20
300.4405036134742
 30
0.0
 10
96.5302534955923
 20
299.6115032139736
 30
0.0
 10
97.03424778142413
 20
298.7579252958983
 30
0.0
 10
97.54195693804897
 20
297.8280263797714
 30
0.0
 10
98.12111168336918
 20
296.675037846923
 30
0.0
 10
98.76889569878892
 20
295.27050681548
 30
0.0
 10
99.71889280500966
 20
293.033279834509
 30
0.0
 10
100.9341064938146
 20
289.8066923222622
 30
0.0
 10
102.4195866824445
 20
285.2667304670602
 30
0.0
 10
103.9049821538177
 20
280.1944184817403
 30
0.0
 10
105.3849679711331
 20
274.589353975715
 30
0.0
 10
106.9983426220625
 20
267.9828164781857
 30
0.0
 10
108.728670908439
 20
260.2600767713094
 30
0.0
 10
110.5926049575009
 20
251.349372231438
 30
0.0
 10
112.448563025427
 20
241.8767932747603
 30
0.0
 10
114.1066556143451
 20
233.0411472861192
 30
0.0
 10
115.5502495829349
 20
225.0631464840371
 30
0.0
 10
116.7974207067108
 20
218.0669838579658
 30
0.0
 10
118.068374262307
 20
210.7994404694255
 30
0.0
 10
119.3361165441976
 20
203.4623429925417
 30
0.0
 10
120.5474845124764
 20
196.4257040140422
 30
0.0
 10
121.8178176477
 20
188.9903507235884
 30
0.0
 10
123.1939985399828
 20
180.969335114983
 30
0.0
 10
124.7136442921676
 20
172.16537939816
 30
0.0
 10
126.2218216973441
 20
163.5290718243962
 30
0.0
 10
127.7197208993379
 20
155.1434506254458
 30
0.0
 10
129.3307201398074
 20
146.3106498696612
 30
0.0
 10
131.0745479111634
 20
137.1379858840359
 30
0.0
 10
132.9354813901497
 20
127.7997263491112
 30
0.0
 10
134.8033900591614
 20
119.0412837449576
 30
0.0
 10
136.5437166640433
 20
111.4768358145151
 30
0.0
 10
138.1643921777738
 20
105.0253808429228
 30
0.0
 10
139.6578031793912
 20
99.56835196975841
 30
0.0
 10
141.1706186823275
 20
94.60960007843256
 30
0.0
 10
142.7013010309711
 20
90.15798168860059
 30
0.0
 10
144.1479896511023
 20
86.5542397165144
 30
0.0
 10
145.4608769463637
 20
83.8092124611661
 30
0.0
 10
146.3623987401361
 20
82.12970815046127
 30
0.0
 10
146.866956974123
 20
81.4216576224118
 30
0.0
 10
146.9790403887057
 20
81.26437008742546
 30
0.0
  0
SPLINE
  5
166
330
1F
100
AcDbEntity
  8
0
100
AcDbSpline
210
0.0
220
0.0
230
1.0
 70
     8
 71
     3
 72
    17
 73
    13
 74
     0
 42
0.00000001
 43
0.00000001
 40
0.0
 40
0.0
 40
0.0
 40
0.0
 40
0.0160982345072528
 40
0.0702671109679981
 40
0.1075069944582314
 40
0.1294618605329931
 40
0.1814293399784669
 40
0.2843729358203211
 40
0.4235399307062047
 40
0.6055219475858936
 40
0.8288997912195232
 40
0.9999999999999999
 40
0.9999999999999999
 40
0.9999999999999999
 40
0.9999999999999999
 10
91.27815278757295
 20
305.2076077405452
 30
0.0
 10
91.25973238726563
 20
305.2058555743566
 30
0.0
 10
91.17932926530307
 20
305.1982075520873
 30
0.0
 10
91.04305917466142
 20
305.1749096003534
 30
0.0
 10
90.90115646473677
 20
305.1489250734862
 30
0.0
 10
90.6945280222031
 20
305.0966344790289
 30
0.0
 10
90.50083075438286
 20
305.0407540833467
 30
0.0
 10
90.16499211975494
 20
304.928340875104
 30
0.0
 10
89.7206072516472
 20
304.7343686632024
 30
0.0
 10
89.15497441882543
 20
304.4131003303618
 30
0.0
 10
88.56949488786856
 20
303.9949754092422
 30
0.0
 10
88.17103841333103
 20
303.6162945321698
 30
0.0
 10
87.9982126108153
 20
303.4520461621229
 30
0.0
  0
SPLINE
  5
167
330
1F
100
AcDbEntity
  8
0
100
AcDbSpline
210
0.0
220
0.0
230
1.0
 70
     8
 71
     3
 72
     9
 73
     5
 74
     0
 42
0.00000001
 43
0.00000001
 40
0.0
 40
0.0
 40
0.0
 40
0.0
 40
0.6154249315274128
 40
1.0
 40
1.0
 40
1.0
 40
1.0
 10
91.76012896903035
 20
305.2374490750914
 30
0.0
 10
91.66426941997462
 20
305.2360343407195
 30
0.0
 10
91.50850785728035
 20
305.2337355479677
 30
0.0
 10
91.34213546263544
 20
305.214864915369
 30
0.0
 10
91.27815278757295
 20
305.2076077405452
 30
0.0
  0
SPLINE
  5
168
330
1F
100
AcDbEntity
  8
0
100
AcDbSpline
210
0.0
220
0.0
230
1.0
 70
     8
 71
     3
 72
    17
 73
    13
 74
     0
 42
0.00000001
 43
0.00000001
 40
0.0
 40
0.0
 40
0.0
 40
0.0
 40
0.0160982345073598
 40
0.0702671109680869
 40
0.1075069944583273
 40
0.1294618605330849
 40
0.1814293399785422
 40
0.2843729358203939
 40
0.423539930706261
 40
0.6055219475859382
 40
0.8288997912195609
 40
1.0
 40
1.0
 40
1.0
 40
1.0
 10
-30.72184721242668
 20
305.2076077405452
 30
0.0
 10
-30.74026761273412
 20
305.2058555743566
 30
0.0
 10
-30.8206707346968
 20
305.1982075520874
 30
0.0
 10
-30.9569408253385
 20
305.1749096003535
 30
0.0
 10
-31.09884353526337
 20
305.1489250734861
 30
0.0
 10
-31.30547197779673
 20
305.0966344790289
 30
0.0
 10
-31.4991692456173
 20
305.0407540833466
 30
0.0
 10
-31.83500788024497
 20
304.928340875104
 30
0.0
 10
-32.27939274835288
 20
304.7343686632024
 30
0.0
 10
-32.84502558117467
 20
304.4131003303615
 30
0.0
 10
-33.43050511213146
 20
303.9949754092423
 30
0.0
 10
-33.828961586669
 20
303.6162945321698
 30
0.0
 10
-34.00178738918469
 20
303.4520461621229
 30
0.0
  0
SPLINE
  5
169
330
1F
100
AcDbEntity
  8
0
100
AcDbSpline
210
0.0
220
0.0
230
1.0
 70
     8
 71
     3
 72
     9
 73
     5
 74
     0
 42
0.00000001
 43
0.00000001
 40
0.0
 40
0.0
 40
0.0
 40
0.0
 40
0.6154249315281057
 40
1.0
 40
1.0
 40
1.0
 40
1.0
 10
-30.23987103096966
 20
305.2374490750914
 30
0.0
 10
-30.33573058002541
 20
305.2360343407195
 30
0.0
 10
-30.49149214271956
 20
305.2337355479677
 30
0.0
 10
-30.65786453736434
 20
305.214864915369
 30
0.0
 10
-30.72184721242669
 20
305.2076077405452
 30
0.0
  0
LINE
  5
16A
330
1F
100
AcDbEntity
  8
0
100
AcDbLine
 10
-152.6855488724
 20
305.1529390938
 30
0.0
 11
-153.0307744452
 21
305.0874769954
 31
0.0
  0
LINE
  5
16B
330
1F
100
AcDbEntity
  8
0
100
AcDbLine
 10
-152.239871031
 20
305.2374490751
 30
0.0
 11
-152.6855488724
 21
305.1529390938
 31
0.0
  0
SPLINE
  5
16C
330
1F
100
AcDbEntity
  8
0
100
AcDbSpline
210
0.0
220
0.0
230
1.0
 70
     8
 71
     3
 72
    56
 73
    52
 74
     0
 42
0.00000001
 43
0.00000001
 40
0.0
 40
0.0
 40
0.0
 40
0.0
 40
0.0133728940065572
 40
0.0270062174116033
 40
0.0379740088488713
 40
0.0474084152867288
 40
0.0570071965008025
 40
0.066802342467656
 40
0.0766979063222395
 40
0.0867289945072477
 40
0.0946290794248137
 40
0.1024746855234712
 40
0.1124189999834814
 40
0.1238631452225716
 40
0.1349648987002631
 40
0.159906827811878
 40
0.1843930104465327
 40
0.2089078461259248
 40
0.2334038832255275
 40
0.2579326971619634
 40
0.2885671286954945
 40
0.3192350919740273
 40
0.3498820682549286
 40
0.3805575466028109
 40
0.4009945265884954
 40
0.4214574095829557
 40
0.4420729345027325
 40
0.4638870158050928
 40
0.4841980882413132
 40
0.5018189136796946
 40
0.5268453201193936
 40
0.5521498511570799
 40
0.5769233014668252
 40
0.6014927694357995
 40
0.6260416161771009
 40
0.6567576687577197
 40
0.6874548666985216
 40
0.7181766296459554
 40
0.7488926093222982
 40
0.7734830895173538
 40
0.7980653644663896
 40
0.8226764442732021
 40
0.8477960831440261
 40
0.873488701163912
 40
0.8933269238506
 40
0.9118349847027586
 40
0.9319863120902265
 40
0.9483383562898055
 40
0.9647155639887269
 40
0.9820888171487318
 40
0.9999999999999999
 40
0.9999999999999999
 40
0.9999999999999999
 40
0.9999999999999999
 10
-152.0983678568152
 20
303.6156943315086
 30
0.0
 10
-151.8822105421767
 20
303.59523919137
 30
0.0
 10
-151.4456863738573
 20
303.5539305590352
 30
0.0
 10
-150.8319499494605
 20
303.2760459960688
 30
0.0
 10
-150.240138301845
 20
302.8983979712852
 30
0.0
 10
-149.6762822515445
 20
302.4267180178338
 30
0.0
 10
-149.1379120471316
 20
301.8800243155874
 30
0.0
 10
-148.5808703640792
 20
301.2188674883054
 30
0.0
 10
-148.0092205400762
 20
300.4405036134742
 30
0.0
 10
-147.4697465044078
 20
299.6115032139735
 30
0.0
 10
-146.9657522185756
 20
298.7579252958982
 30
0.0
 10
-146.4580430619511
 20
297.8280263797712
 30
0.0
 10
-145.878888316631
 20
296.6750378469229
 30
0.0
 10
-145.231104301211
 20
295.2705068154797
 30
0.0
 10
-144.2811071949904
 20
293.0332798345088
 30
0.0
 10
-143.0658935061853
 20
289.8066923222622
 30
0.0
 10
-141.5804133175554
 20
285.2667304670601
 30
0.0
 10
-140.0950178461823
 20
280.1944184817402
 30
0.0
 10
-138.6150320288669
 20
274.5893539757149
 30
0.0
 10
-137.0016573779376
 20
267.9828164781856
 30
0.0
 10
-135.2713290915608
 20
260.2600767713095
 30
0.0
 10
-133.4073950424992
 20
251.3493722314378
 30
0.0
 10
-131.5514369745729
 20
241.8767932747602
 30
0.0
 10
-129.8933443856551
 20
233.0411472861191
 30
0.0
 10
-128.4497504170648
 20
225.063146484037
 30
0.0
 10
-127.2025792932893
 20
218.0669838579659
 30
0.0
 10
-125.931625737693
 20
210.7994404694244
 30
0.0
 10
-124.6638834558022
 20
203.4623429925458
 30
0.0
 10
-123.4525154875243
 20
196.4257040140287
 30
0.0
 10
-122.1821823522971
 20
188.9903507236389
 30
0.0
 10
-120.8060014600339
 20
180.9693351147011
 30
0.0
 10
-119.2863557077703
 20
172.1653793992035
 30
0.0
 10
-117.7781783028806
 20
163.5290718206097
 30
0.0
 10
-116.280279099831
 20
155.1434506394503
 30
0.0
 10
-114.6692798636215
 20
146.3106498118819
 30
0.0
 10
-112.9254520724162
 20
137.1379861607243
 30
0.0
 10
-111.0645186706594
 20
127.7997253244599
 30
0.0
 10
-109.1966097138287
 20
119.0412875701457
 30
0.0
 10
-107.4562841115497
 20
111.4768227455374
 30
0.0
 10
-105.8356055623776
 20
105.0254189220602
 30
0.0
 10
-104.3422053182577
 20
99.56820878179175
 30
0.0
 10
-102.8293492679525
 20
94.61014012596313
 30
0.0
 10
-101.2988225170847
 20
90.15589986626762
 30
0.0
 10
-99.8515834746896
 20
86.5614326768088
 30
0.0
 10
-98.54028425664083
 20
83.78964583721383
 30
0.0
 10
-97.3262496579176
 20
81.62816762903576
 30
0.0
 10
-96.16108695215577
 20
79.95312656549548
 30
0.0
 10
-95.02405945348754
 20
78.68026334550936
 30
0.0
 10
-93.938332833207
 20
77.79104460627151
 30
0.0
 10
-92.75659242639763
 20
77.12456807660747
 30
0.0
 10
-91.8670346954962
 20
77.02203073023698
 30
0.0
 10
-91.41547494348985
 20
76.96998043930023
 30
0.0
  0
SPLINE
  5
16D
330
1F
100
AcDbEntity
  8
0
100
AcDbSpline
210
0.0
220
0.0
230
1.0
 70
     8
 71
     3
 72
     9
 73
     5
 74
     0
 42
0.00000001
 43
0.00000001
 40
0.0
 40
0.0
 40
0.0
 40
0.0
 40
0.5624745354071898
 40
1.0
 40
1.0
 40
1.0
 40
1.0
 10
-20.90258766597228
 20
302.0250289689949
 30
0.0
 10
-21.19248108597161
 20
302.3107371233059
 30
0.0
 10
-21.70787049784867
 20
302.8186857259998
 30
0.0
 10
-22.2231936820175
 20
303.3267109986268
 30
0.0
 10
-22.44866069758642
 20
303.5489849920578
 30
0.0
  0
SPLINE
  5
16E
330
1F
100
AcDbEntity
  8
0
100
AcDbSpline
210
0.0
220
0.0
230
1.0
 70
     8
 71
     3
 72
     9
 73
     5
 74
     0
 42
0.00000001
 43
0.00000001
 40
0.0
 40
0.0
 40
0.0
 40
0.0
 40
0.562474535407208
 40
1.0
 40
1.0
 40
1.0
 40
1.0
 10
101.0974123340278
 20
302.0250289689949
 30
0.0
 10
100.8075189140284
 20
302.3107371233059
 30
0.0
 10
100.2921295021513
 20
302.8186857259998
 30
0.0
 10
99.77680631798249
 20
303.3267109986267
 30
0.0
 10
99.55133930241361
 20
303.5489849920578
 30
0.0
  0
SPLINE
  5
16F
330
1F
100
AcDbEntity
  8
0
100
AcDbSpline
210
0.0
220
0.0
230
1.0
 70
     8
 71
     3
 72
     9
 73
     5
 74
     0
 42
0.00000001
 43
0.00000001
 40
0.0
 40
0.0
 40
0.0
 40
0.0
 40
0.5624745354071721
 40
1.0
 40
1.0
 40
1.0
 40
1.0
 10
-142.9025876659723
 20
302.0250289689949
 30
0.0
 10
-143.1924810859716
 20
302.3107371233059
 30
0.0
 10
-143.7078704978487
 20
302.8186857259998
 30
0.0
 10
-144.2231936820175
 20
303.3267109986267
 30
0.0
 10
-144.4486606975864
 20
303.5489849920578
 30
0.0
  0
SPLINE
  5
170
330
1F
100
AcDbEntity
  8
0
100
AcDbSpline
210
0.0
220
0.0
230
1.0
 70
     8
 71
     3
 72
    13
 73
     9
 74
     0
 42
0.00000001
 43
0.00000001
 40
0.0
 40
0.0
 40
0.0
 40
0.0
 40
0.0809287519222572
 40
0.3120991986800115
 40
0.5233197817577425
 40
0.709007318737334
 40
0.8692262041385274
 40
1.0
 40
1.0
 40
1.0
 40
1.0
 10
-7.85921672716322
 20
235.477705982117
 30
0.0
 10
-7.694253789275023
 20
234.6015477994342
 30
0.0
 10
-7.058079382727088
 20
231.2226711920831
 30
0.0
 10
-5.995803703205881
 20
225.316644569786
 30
0.0
 10
-4.713864905086042
 20
218.1339938149474
 30
0.0
 10
-3.580032495597262
 20
211.6504332446405
 30
0.0
 10
-2.611271540505636
 20
206.052482419
 30
0.0
 10
-2.017964198257472
 20
202.6109674096225
 30
0.0
 10
-1.751328443290706
 20
201.0643306373929
 30
0.0
  0
SPLINE
  5
171
330
1F
100
AcDbEntity
  8
0
100
AcDbSpline
210
0.0
220
0.0
230
1.0
 70
     8
 71
     3
 72
     9
 73
     5
 74
     0
 42
0.00000001
 43
0.00000001
 40
0.0
 40
0.0
 40
0.0
 40
0.0
 40
0.9592625931957625
 40
1.0
 40
1.0
 40
1.0
 40
1.0
 10
-29.74958000726293
 20
304.7010930384914
 30
0.0
 10
-29.91266383106667
 20
304.723620954504
 30
0.0
 10
-30.08267340400375
 20
304.7471055729729
 30
0.0
 10
-30.22146686482327
 20
304.6642093771987
 30
0.0
 10
-30.22712095049844
 20
304.6608324011489
 30
0.0
  0
SPLINE
  5
172
330
1F
100
AcDbEntity
  8
0
100
AcDbSpline
210
0.0
220
0.0
230
1.0
 70
     8
 71
     3
 72
     9
 73
     5
 74
     0
 42
0.00000001
 43
0.00000001
 40
0.0
 40
0.0
 40
0.0
 40
0.0
 40
0.3720121913498948
 40
1.0
 40
1.0
 40
1.0
 40
1.0
 10
-29.4292190460484
 20
304.0105245676755
 30
0.0
 10
-29.27463111135965
 20
303.9698971631733
 30
0.0
 10
-28.85908576557997
 20
303.8606872892852
 30
0.0
 10
-28.39756161861912
 20
303.6697688223026
 30
0.0
 10
-28.10773008093006
 20
303.5498743525914
 30
0.0
  0
LINE
  5
173
330
1F
100
AcDbEntity
  8
0
100
AcDbLine
 10
-29.7495800073
 20
304.1012849753
 30
0.0
 11
-29.429219046
 21
304.0105245677
 31
0.0
  0
SPLINE
  5
174
330
1F
100
AcDbEntity
  8
0
100
AcDbSpline
210
0.0
220
0.0
230
1.0
 70
     8
 71
     3
 72
     9
 73
     5
 74
     0
 42
0.00000001
 43
0.00000001
 40
0.0
 40
0.0
 40
0.0
 40
0.0
 40
0.3720121913498289
 40
1.0
 40
1.0
 40
1.0
 40
1.0
 10
-151.4292190460482
 20
304.0105245676754
 30
0.0
 10
-151.2746311113595
 20
303.9698971631732
 30
0.0
 10
-150.8590857655799
 20
303.8606872892852
 30
0.0
 10
-150.3975616186191
 20
303.6697688223026
 30
0.0
 10
-150.1077300809301
 20
303.5498743525914
 30
0.0
  0
LINE
  5
175
330
1F
100
AcDbEntity
  8
0
100
AcDbLine
 10
-151.7495800073
 20
304.1012849753
 30
0.0
 11
-151.429219046
 21
304.0105245677
 31
0.0
  0
LINE
  5
176
330
1F
100
AcDbEntity
  8
0
100
AcDbLine
 10
-28.3352082583
 20
304.5507222225
 30
0.0
 11
-29.2879758106
 21
304.5507222225
 31
0.0
  0
LINE
  5
177
330
1F
100
AcDbEntity
  8
0
100
AcDbLine
 10
-150.3352082583
 20
304.5507222225
 30
0.0
 11
-151.2879758106
 21
304.5507222225
 31
0.0
  0
LWPOLYLINE
  5
178
330
1F
100
AcDbEntity
  8
0
100
AcDbPolyline
 90
        2
 70
   128
 43
0.0
 10
0.2600417167
 20
191.0874490823
 10
0.2600417167
 20
191.0874490823
  0
LWPOLYLINE
  5
179
330
1F
100
AcDbEntity
  8
0
100
AcDbPolyline
 90
        2
 70
   128
 43
0.0
 10
-121.7399582833
 20
191.0874490823
 10
-121.7399582833
 20
191.0874490823
  0
LINE
  5
17A
330
1F
100
AcDbEntity
  8
0
100
AcDbLine
 10
-29.6951604651
 20
304.1374490736
 30
0.0
 11
-30.2401081359
 21
304.1374490736
 31
0.0
  0
LINE
  5
17B
330
1F
100
AcDbEntity
  8
0
100
AcDbLine
 10
-151.6951604651
 20
304.1374490736
 30
0.0
 11
-152.2401081359
 21
304.1374490736
 31
0.0
  0
LINE
  5
17C
330
1F
100
AcDbEntity
  8
0
100
AcDbLine
 10
-85.0399618743
 20
78.5874490765
 30
0.0
 11
27.1525906042
 21
78.5874490765
 31
0.0
  0
LINE
  5
17D
330
1F
100
AcDbEntity
  8
0
100
AcDbLine
 10
36.9600381257
 20
78.5874490765
 30
0.0
 11
146.9599732604
 21
78.5874490765
 31
0.0
  0
LINE
  5
17E
330
1F
100
AcDbEntity
  8
0
100
AcDbLine
 10
-28.3273666597
 20
303.4520461621
 30
0.0
 11
-144.6447988283
 21
303.4520461621
 31
0.0
  0
LINE
  5
17F
330
1F
100
AcDbEntity
  8
0
100
AcDbLine
 10
92.6989387017
 20
303.4520461621
 30
0.0
 11
-22.3503253094
 21
303.4520461621
 31
0.0
  0
LINE
  5
180
330
1F
100
AcDbEntity
  8
0
100
AcDbLine
 10
-22.4820819704
 20
303.4520461621
 30
0.0
 11
-22.6447988283
 21
303.4520461621
 31
0.0
  0
LINE
  5
181
330
1F
100
AcDbEntity
  8
0
100
AcDbLine
 10
146.9599732604
 20
303.4520461621
 30
0.0
 11
99.6496746906
 21
303.4520461621
 31
0.0
  0
LINE
  5
182
330
1F
100
AcDbEntity
  8
0
100
AcDbLine
 10
99.5179180296
 20
303.4520461621
 30
0.0
 11
99.3552011717
 21
303.4520461621
 31
0.0
  0
LINE
  5
183
330
1F
100
AcDbEntity
  8
0
100
AcDbLine
 10
-150.3273666597
 20
303.4520461621
 30
0.0
 11
-153.0400267396
 21
303.4520461621
 31
0.0
  0
LINE
  5
184
330
1F
100
AcDbEntity
  8
0
100
AcDbLine
 10
-153.0400267396
 20
78.5874490765
 30
0.0
 11
-143.1460467396
 21
78.5874490765
 31
0.0
  0
LINE
  5
185
330
1F
100
AcDbEntity
  8
0
100
AcDbLine
 10
-137.6645488835
 20
78.5874490765
 30
0.0
 11
-94.8474093958
 21
78.5874490765
 31
0.0
  0
LINE
  5
186
330
1F
100
AcDbEntity
  8
0
100
AcDbLine
 10
-194.5474075676
 20
255.4342967964
 30
0.0
 11
-195.0318841735
 21
255.3691278755
 31
0.0
  0
LINE
  5
187
330
1F
100
AcDbEntity
  8
0
100
AcDbLine
 10
-194.1522646893
 20
255.4874490738
 30
0.0
 11
-194.5474075676
 21
255.4342967964
 31
0.0
  0
LINE
  5
188
330
1F
100
AcDbEntity
  8
0
100
AcDbLine
 10
-190.0722637232
 20
255.4874490726
 30
0.0
 11
-194.152656942
 21
255.4874490726
 31
0.0
  0
LINE
  5
189
330
1F
100
AcDbEntity
  8
0
100
AcDbLine
 10
181.8802928633
 20
252.5905899895
 30
0.0
 11
181.7969346293
 21
252.6703424452
 31
0.0
  0
LINE
  5
18A
330
1F
100
AcDbEntity
  8
0
100
AcDbLine
 10
-190.0971335209
 20
255.3874490765
 30
0.0
 11
-190.1134713703
 21
255.3874490765
 31
0.0
  0
LINE
  5
18B
330
1F
100
AcDbEntity
  8
0
100
AcDbLine
 10
-137.7400267396
 20
304.5874490765
 30
0.0
 11
-145.9910534814
 21
304.5874490765
 31
0.0
  0
LINE
  5
18C
330
1F
100
AcDbEntity
  8
0
100
AcDbLine
 10
-137.7400267396
 20
303.5874490765
 30
0.0
 11
-144.6518068965
 21
303.5874490765
 31
0.0
  0
LINE
  5
18D
330
1F
100
AcDbEntity
  8
0
100
AcDbLine
 10
-144.0400267396
 20
305.4547021171
 30
0.0
 11
-145.0021027689
 21
305.2266265977
 31
0.0
  0
SPLINE
  5
18E
330
1F
100
AcDbEntity
  8
0
100
AcDbSpline
210
0.0
220
0.0
230
1.0
 70
     8
 71
     3
 72
    12
 73
     8
 74
     0
 42
0.00000001
 43
0.00000001
 40
0.0
 40
0.0
 40
0.0
 40
0.0
 40
0.2174770912066499
 40
0.4353705208257708
 40
0.6490388720033415
 40
0.8610609605882507
 40
1.0
 40
1.0
 40
1.0
 40
1.0
 10
-143.526074471985
 20
305.4547021170983
 30
0.0
 10
-143.5326831103566
 20
305.4636796827091
 30
0.0
 10
-143.5459130386852
 20
305.4816520005934
 30
0.0
 10
-143.6368010266413
 20
305.4933206293715
 30
0.0
 10
-143.7681388819903
 20
305.4903364819863
 30
0.0
 10
-143.9103635461599
 20
305.4755275701251
 30
0.0
 10
-144.0032533708025
 20
305.4606083580661
 30
0.0
 10
-144.0400267396386
 20
305.4547021170983
 30
0.0
  0
LINE
  5
18F
330
1F
100
AcDbEntity
  8
0
100
AcDbLine
 10
-143.5021027689
 20
305.2266265977
 30
0.0
 11
-143.526074472
 21
305.4547021171
 31
0.0
  0
LINE
  5
190
330
1F
100
AcDbEntity
  8
0
100
AcDbLine
 10
-142.5779507103
 20
305.2266265977
 30
0.0
 11
-143.5021027689
 21
305.2266265977
 31
0.0
  0
LINE
  5
191
330
1F
100
AcDbEntity
  8
0
100
AcDbLine
 10
-142.5539790073
 20
305.4547021171
 30
0.0
 11
-142.5779507103
 21
305.2266265977
 31
0.0
  0
SPLINE
  5
192
330
1F
100
AcDbEntity
  8
0
100
AcDbSpline
210
0.0
220
0.0
230
1.0
 70
     8
 71
     3
 72
    12
 73
     8
 74
     0
 42
0.00000001
 43
0.00000001
 40
0.0
 40
0.0
 40
0.0
 40
0.0
 40
0.2174770912066368
 40
0.4353705208257866
 40
0.6490388720033332
 40
0.8610609605882494
 40
0.9999999999999999
 40
0.9999999999999999
 40
0.9999999999999999
 40
0.9999999999999999
 10
-142.0400267396386
 20
305.4547021170983
 30
0.0
 10
-142.0977993797985
 20
305.463679682709
 30
0.0
 10
-142.2134552601323
 20
305.4816520005933
 30
0.0
 10
-142.3675601231848
 20
305.4933206293715
 30
0.0
 10
-142.482812444844
 20
305.4903364819863
 30
0.0
 10
-142.5435239897382
 20
305.475527570125
 30
0.0
 10
-142.5510138927797
 20
305.4606083580661
 30
0.0
 10
-142.5539790072921
 20
305.4547021170983
 30
0.0
  0
LINE
  5
193
330
1F
100
AcDbEntity
  8
0
100
AcDbLine
 10
-141.0779507103
 20
305.2266265977
 30
0.0
 11
-142.0400267396
 21
305.4547021171
 31
0.0
  0
LINE
  5
194
330
1F
100
AcDbEntity
  8
0
100
AcDbLine
 10
138.9220492897
 20
190.6253730472
 30
0.0
 11
137.9599732604
 21
190.6014013442
 31
0.0
  0
LINE
  5
195
330
1F
100
AcDbEntity
  8
0
100
AcDbLine
 10
138.9220492897
 20
191.5495251058
 30
0.0
 11
138.9220492897
 21
190.6253730472
 31
0.0
  0
LINE
  5
196
330
1F
100
AcDbEntity
  8
0
100
AcDbLine
 10
137.9599732604
 20
191.5734968089
 30
0.0
 11
138.9220492897
 21
191.5495251058
 31
0.0
  0
SPLINE
  5
197
330
1F
100
AcDbEntity
  8
0
100
AcDbSpline
210
0.0
220
0.0
230
1.0
 70
     8
 71
     3
 72
    12
 73
     8
 74
     0
 42
0.00000001
 43
0.00000001
 40
0.0
 40
0.0
 40
0.0
 40
0.0
 40
0.2174770912066505
 40
0.4353705208257717
 40
0.6490388720033424
 40
0.8610609605882533
 40
1.0
 40
1.0
 40
1.0
 40
1.0
 10
137.446020992708
 20
192.087449076515
 30
0.0
 10
137.4526296310795
 20
192.029676436355
 30
0.0
 10
137.4658595594081
 20
191.9140205560213
 30
0.0
 10
137.5567475473643
 20
191.7599156929687
 30
0.0
 10
137.6880854027132
 20
191.6446633713095
 30
0.0
 10
137.8303100668829
 20
191.5839518264155
 30
0.0
 10
137.9231998915254
 20
191.5764619233738
 30
0.0
 10
137.9599732603615
 20
191.5734968088614
 30
0.0
  0
LINE
  5
198
330
1F
100
AcDbEntity
  8
0
100
AcDbLine
 10
137.4220492897
 20
193.0495251058
 30
0.0
 11
137.4460209927
 21
192.0874490765
 31
0.0
  0
LINE
  5
199
330
1F
100
AcDbEntity
  8
0
100
AcDbLine
 10
136.4978972311
 20
193.0495251058
 30
0.0
 11
137.4220492897
 21
193.0495251058
 31
0.0
  0
LINE
  5
19A
330
1F
100
AcDbEntity
  8
0
100
AcDbLine
 10
136.473925528
 20
192.0874490765
 30
0.0
 11
136.4978972311
 21
193.0495251058
 31
0.0
  0
SPLINE
  5
19B
330
1F
100
AcDbEntity
  8
0
100
AcDbSpline
210
0.0
220
0.0
230
1.0
 70
     8
 71
     3
 72
    12
 73
     8
 74
     0
 42
0.00000001
 43
0.00000001
 40
0.0
 40
0.0
 40
0.0
 40
0.0
 40
0.2174770912066369
 40
0.4353705208257856
 40
0.6490388720033322
 40
0.8610609605882489
 40
0.9999999999999999
 40
0.9999999999999999
 40
0.9999999999999999
 40
0.9999999999999999
 10
135.9599732603615
 20
191.5734968088614
 30
0.0
 10
136.0177459005215
 20
191.580105447233
 30
0.0
 10
136.1334017808553
 20
191.5933353755616
 30
0.0
 10
136.2875066439078
 20
191.6842233635178
 30
0.0
 10
136.402758965567
 20
191.8155612188667
 30
0.0
 10
136.463470510461
 20
191.9577858830364
 30
0.0
 10
136.4709604135027
 20
192.0506757076789
 30
0.0
 10
136.4739255280151
 20
192.087449076515
 30
0.0
  0
LINE
  5
19C
330
1F
100
AcDbEntity
  8
0
100
AcDbLine
 10
134.9978972311
 20
191.5495251058
 30
0.0
 11
135.9599732604
 21
191.5734968089
 31
0.0
  0
LINE
  5
19D
330
1F
100
AcDbEntity
  8
0
100
AcDbLine
 10
134.9978972311
 20
190.6253730472
 30
0.0
 11
134.9978972311
 21
191.5495251058
 31
0.0
  0
LINE
  5
19E
330
1F
100
AcDbEntity
  8
0
100
AcDbLine
 10
135.9599732604
 20
190.6014013442
 30
0.0
 11
134.9978972311
 21
190.6253730472
 31
0.0
  0
SPLINE
  5
19F
330
1F
100
AcDbEntity
  8
0
100
AcDbSpline
210
0.0
220
0.0
230
1.0
 70
     8
 71
     3
 72
    12
 73
     8
 74
     0
 42
0.00000001
 43
0.00000001
 40
0.0
 40
0.0
 40
0.0
 40
0.0
 40
0.2174770912066491
 40
0.4353705208257697
 40
0.6490388720033402
 40
0.8610609605882508
 40
0.9999999999999999
 40
0.9999999999999999
 40
0.9999999999999999
 40
0.9999999999999999
 10
136.4739255280151
 20
190.087449076515
 30
0.0
 10
136.4673168896436
 20
190.145221716675
 30
0.0
 10
136.4540869613149
 20
190.2608775970087
 30
0.0
 10
136.3631989733587
 20
190.4149824600613
 30
0.0
 10
136.2318611180098
 20
190.5302347817205
 30
0.0
 10
136.0896364538402
 20
190.5909463266146
 30
0.0
 10
135.9967466291976
 20
190.5984362296562
 30
0.0
 10
135.9599732603615
 20
190.6014013441686
 30
0.0
  0
LINE
  5
1A0
330
1F
100
AcDbEntity
  8
0
100
AcDbLine
 10
136.4978972311
 20
189.1253730472
 30
0.0
 11
136.473925528
 21
190.0874490765
 31
0.0
  0
LINE
  5
1A1
330
1F
100
AcDbEntity
  8
0
100
AcDbLine
 10
137.4220492897
 20
189.1253730472
 30
0.0
 11
136.4978972311
 21
189.1253730472
 31
0.0
  0
LINE
  5
1A2
330
1F
100
AcDbEntity
  8
0
100
AcDbLine
 10
137.4460209927
 20
190.0874490765
 30
0.0
 11
137.4220492897
 21
189.1253730472
 31
0.0
  0
SPLINE
  5
1A3
330
1F
100
AcDbEntity
  8
0
100
AcDbSpline
210
0.0
220
0.0
230
1.0
 70
     8
 71
     3
 72
    12
 73
     8
 74
     0
 42
0.00000001
 43
0.00000001
 40
0.0
 40
0.0
 40
0.0
 40
0.0
 40
0.2174770912066813
 40
0.435370520825872
 40
0.6490388720034598
 40
0.8610609605884183
 40
1.0
 40
1.0
 40
1.0
 40
1.0
 10
137.9599732603616
 20
190.6014013441686
 30
0.0
 10
137.9022006202015
 20
190.594792705797
 30
0.0
 10
137.7865447398678
 20
190.5815627774684
 30
0.0
 10
137.6324398768153
 20
190.4906747895122
 30
0.0
 10
137.5171875551559
 20
190.3593369341633
 30
0.0
 10
137.456476010262
 20
190.2171122699937
 30
0.0
 10
137.4489861072203
 20
190.1242224453512
 30
0.0
 10
137.446020992708
 20
190.0874490765152
 30
0.0
  0
CIRCLE
  5
1A4
330
1F
100
AcDbEntity
  8
0
100
AcDbCircle
 10
136.9599732604
 20
191.0874490765
 30
0.0
 40
3.5
  0
ARC
  5
1A5
330
1F
100
AcDbEntity
  8
0
100
AcDbCircle
 10
137.9599732604
 20
192.0874490765
 30
0.0
 40
0.71020847053137
100
AcDbArc
 50
180.0
 51
270.0
  0
ARC
  5
1A6
330
1F
100
AcDbEntity
  8
0
100
AcDbCircle
 10
135.9599732604
 20
192.0874490765
 30
0.0
 40
0.71020847053137
100
AcDbArc
 50
270.0
 51
0.0
  0
ARC
  5
1A7
330
1F
100
AcDbEntity
  8
0
100
AcDbCircle
 10
135.9599732604
 20
190.0874490765
 30
0.0
 40
0.7102084705313416
100
AcDbArc
 50
0.0
 51
90.0
  0
ARC
  5
1A8
330
1F
100
AcDbEntity
  8
0
100
AcDbCircle
 10
137.9599732604
 20
190.0874490765
 30
0.0
 40
0.7102084705313416
100
AcDbArc
 50
90.0
 51
180.0
  0
LINE
  5
1A9
330
1F
100
AcDbEntity
  8
0
100
AcDbLine
 10
137.2497647898
 20
192.877240606
 30
0.0
 11
137.2497647898
 21
192.0874490765
 31
0.0
  0
LINE
  5
1AA
330
1F
100
AcDbEntity
  8
0
100
AcDbLine
 10
137.2497647898
 20
192.877240606
 30
0.0
 11
137.4220492897
 21
193.0495251058
 31
0.0
  0
LINE
  5
1AB
330
1F
100
AcDbEntity
  8
0
100
AcDbLine
 10
136.6701817309
 20
192.877240606
 30
0.0
 11
136.4978972311
 21
193.0495251058
 31
0.0
  0
LINE
  5
1AC
330
1F
100
AcDbEntity
  8
0
100
AcDbLine
 10
136.6701817309
 20
192.0874490765
 30
0.0
 11
136.6701817309
 21
192.877240606
 31
0.0
  0
LINE
  5
1AD
330
1F
100
AcDbEntity
  8
0
100
AcDbLine
 10
138.7497647898
 20
191.377240606
 30
0.0
 11
138.9220492897
 21
191.5495251058
 31
0.0
  0
LINE
  5
1AE
330
1F
100
AcDbEntity
  8
0
100
AcDbLine
 10
137.9599732604
 20
191.377240606
 30
0.0
 11
138.7497647898
 21
191.377240606
 31
0.0
  0
LINE
  5
1AF
330
1F
100
AcDbEntity
  8
0
100
AcDbLine
 10
137.2497647898
 20
189.297657547
 30
0.0
 11
137.4220492897
 21
189.1253730472
 31
0.0
  0
LINE
  5
1B0
330
1F
100
AcDbEntity
  8
0
100
AcDbLine
 10
137.2497647898
 20
190.0874490765
 30
0.0
 11
137.2497647898
 21
189.297657547
 31
0.0
  0
LINE
  5
1B1
330
1F
100
AcDbEntity
  8
0
100
AcDbLine
 10
135.1701817309
 20
191.377240606
 30
0.0
 11
135.9599732604
 21
191.377240606
 31
0.0
  0
LINE
  5
1B2
330
1F
100
AcDbEntity
  8
0
100
AcDbLine
 10
135.1701817309
 20
191.377240606
 30
0.0
 11
134.9978972311
 21
191.5495251058
 31
0.0
  0
LINE
  5
1B3
330
1F
100
AcDbEntity
  8
0
100
AcDbLine
 10
138.7497647898
 20
190.797657547
 30
0.0
 11
137.9599732604
 21
190.797657547
 31
0.0
  0
LINE
  5
1B4
330
1F
100
AcDbEntity
  8
0
100
AcDbLine
 10
138.7497647898
 20
190.797657547
 30
0.0
 11
138.9220492897
 21
190.6253730472
 31
0.0
  0
LINE
  5
1B5
330
1F
100
AcDbEntity
  8
0
100
AcDbLine
 10
136.6701817309
 20
189.297657547
 30
0.0
 11
136.6701817309
 21
190.0874490765
 31
0.0
  0
LINE
  5
1B6
330
1F
100
AcDbEntity
  8
0
100
AcDbLine
 10
136.6701817309
 20
189.297657547
 30
0.0
 11
136.4978972311
 21
189.1253730472
 31
0.0
  0
LINE
  5
1B7
330
1F
100
AcDbEntity
  8
0
100
AcDbLine
 10
135.1701817309
 20
190.797657547
 30
0.0
 11
134.9978972311
 21
190.6253730472
 31
0.0
  0
LINE
  5
1B8
330
1F
100
AcDbEntity
  8
0
100
AcDbLine
 10
135.9599732604
 20
190.797657547
 30
0.0
 11
135.1701817309
 21
190.797657547
 31
0.0
  0
LINE
  5
1B9
330
1F
100
AcDbEntity
  8
0
100
AcDbLine
 10
136.6701817309
 20
192.877240606
 30
0.0
 11
137.2497647898
 21
192.877240606
 31
0.0
  0
LINE
  5
1BA
330
1F
100
AcDbEntity
  8
0
100
AcDbLine
 10
138.7497647898
 20
191.377240606
 30
0.0
 11
138.7497647898
 21
190.797657547
 31
0.0
  0
LINE
  5
1BB
330
1F
100
AcDbEntity
  8
0
100
AcDbLine
 10
135.1701817309
 20
190.797657547
 30
0.0
 11
135.1701817309
 21
191.377240606
 31
0.0
  0
LINE
  5
1BC
330
1F
100
AcDbEntity
  8
0
100
AcDbLine
 10
137.2497647898
 20
189.297657547
 30
0.0
 11
136.6701817309
 21
189.297657547
 31
0.0
  0
CIRCLE
  5
1BD
330
1F
100
AcDbEntity
  8
0
100
AcDbCircle
 10
136.9599732604
 20
191.0874490765
 30
0.0
 40
5.5
  0
LINE
  5
1BE
330
1F
100
AcDbEntity
  8
0
100
AcDbLine
 10
136.9599732604
 20
303.5874490765
 30
0.0
 11
131.6599732604
 21
303.5874490765
 31
0.0
  0
LINE
  5
1BF
330
1F
100
AcDbEntity
  8
0
100
AcDbLine
 10
142.2599732604
 20
303.5874490765
 30
0.0
 11
136.9599732604
 21
303.5874490765
 31
0.0
  0
LINE
  5
1C0
330
1F
100
AcDbEntity
  8
0
100
AcDbLine
 10
136.9599732604
 20
304.5874490765
 30
0.0
 11
131.6599732604
 21
304.5874490765
 31
0.0
  0
LINE
  5
1C1
330
1F
100
AcDbEntity
  8
0
100
AcDbLine
 10
142.2599732604
 20
304.5874490765
 30
0.0
 11
136.9599732604
 21
304.5874490765
 31
0.0
  0
LINE
  5
1C2
330
1F
100
AcDbEntity
  8
0
100
AcDbLine
 10
138.9220492897
 20
305.2266265977
 30
0.0
 11
137.9599732604
 21
305.4547021171
 31
0.0
  0
LINE
  5
1C3
330
1F
100
AcDbEntity
  8
0
100
AcDbLine
 10
135.9599732604
 20
305.4547021171
 30
0.0
 11
134.9978972311
 21
305.2266265977
 31
0.0
  0
SPLINE
  5
1C4
330
1F
100
AcDbEntity
  8
0
100
AcDbSpline
210
0.0
220
0.0
230
1.0
 70
     8
 71
     3
 72
    12
 73
     8
 74
     0
 42
0.00000001
 43
0.00000001
 40
0.0
 40
0.0
 40
0.0
 40
0.0
 40
0.2174770912066496
 40
0.4353705208257707
 40
0.6490388720033415
 40
0.8610609605882507
 40
1.0
 40
1.0
 40
1.0
 40
1.0
 10
136.4739255280151
 20
305.4547021170983
 30
0.0
 10
136.4673168896435
 20
305.463679682709
 30
0.0
 10
136.4540869613149
 20
305.4816520005933
 30
0.0
 10
136.3631989733587
 20
305.4933206293715
 30
0.0
 10
136.2318611180099
 20
305.4903364819863
 30
0.0
 10
136.0896364538402
 20
305.475527570125
 30
0.0
 10
135.9967466291976
 20
305.460608358066
 30
0.0
 10
135.9599732603615
 20
305.4547021170983
 30
0.0
  0
LINE
  5
1C5
330
1F
100
AcDbEntity
  8
0
100
AcDbLine
 10
136.4978972311
 20
305.2266265977
 30
0.0
 11
136.473925528
 21
305.4547021171
 31
0.0
  0
LINE
  5
1C6
330
1F
100
AcDbEntity
  8
0
100
AcDbLine
 10
137.4220492897
 20
305.2266265977
 30
0.0
 11
136.4978972311
 21
305.2266265977
 31
0.0
  0
LINE
  5
1C7
330
1F
100
AcDbEntity
  8
0
100
AcDbLine
 10
137.4460209927
 20
305.4547021171
 30
0.0
 11
137.4220492897
 21
305.2266265977
 31
0.0
  0
SPLINE
  5
1C8
330
1F
100
AcDbEntity
  8
0
100
AcDbSpline
210
0.0
220
0.0
230
1.0
 70
     8
 71
     3
 72
    12
 73
     8
 74
     0
 42
0.00000001
 43
0.00000001
 40
0.0
 40
0.0
 40
0.0
 40
0.0
 40
0.2174770912066787
 40
0.4353705208258705
 40
0.6490388720034583
 40
0.8610609605884154
 40
1.0
 40
1.0
 40
1.0
 40
1.0
 10
137.9599732603615
 20
305.4547021170983
 30
0.0
 10
137.9022006202016
 20
305.463679682709
 30
0.0
 10
137.7865447398678
 20
305.4816520005933
 30
0.0
 10
137.6324398768153
 20
305.4933206293716
 30
0.0
 10
137.5171875551561
 20
305.4903364819863
 30
0.0
 10
137.456476010262
 20
305.4755275701251
 30
0.0
 10
137.4489861072203
 20
305.4606083580661
 30
0.0
 10
137.446020992708
 20
305.4547021170983
 30
0.0
  0
LINE
  5
1C9
330
1F
100
AcDbEntity
  8
0
100
AcDbLine
 10
-145.0021027689
 20
191.5495251058
 30
0.0
 11
-144.0400267396
 21
191.5734968089
 31
0.0
  0
LINE
  5
1CA
330
1F
100
AcDbEntity
  8
0
100
AcDbLine
 10
-145.0021027689
 20
190.6253730472
 30
0.0
 11
-145.0021027689
 21
191.5495251058
 31
0.0
  0
LINE
  5
1CB
330
1F
100
AcDbEntity
  8
0
100
AcDbLine
 10
-144.0400267396
 20
190.6014013442
 30
0.0
 11
-145.0021027689
 21
190.6253730472
 31
0.0
  0
SPLINE
  5
1CC
330
1F
100
AcDbEntity
  8
0
100
AcDbSpline
210
0.0
220
0.0
230
1.0
 70
     8
 71
     3
 72
    12
 73
     8
 74
     0
 42
0.00000001
 43
0.00000001
 40
0.0
 40
0.0
 40
0.0
 40
0.0
 40
0.2174770912066494
 40
0.4353705208257699
 40
0.6490388720033402
 40
0.8610609605882509
 40
1.0
 40
1.0
 40
1.0
 40
1.0
 10
-143.526074471985
 20
190.087449076515
 30
0.0
 10
-143.5326831103565
 20
190.145221716675
 30
0.0
 10
-143.5459130386852
 20
190.2608775970087
 30
0.0
 10
-143.6368010266414
 20
190.4149824600613
 30
0.0
 10
-143.7681388819902
 20
190.5302347817205
 30
0.0
 10
-143.91036354616
 20
190.5909463266146
 30
0.0
 10
-144.0032533708024
 20
190.5984362296562
 30
0.0
 10
-144.0400267396386
 20
190.6014013441686
 30
0.0
  0
LINE
  5
1CD
330
1F
100
AcDbEntity
  8
0
100
AcDbLine
 10
-143.5021027689
 20
189.1253730472
 30
0.0
 11
-143.526074472
 21
190.0874490765
 31
0.0
  0
LINE
  5
1CE
330
1F
100
AcDbEntity
  8
0
100
AcDbLine
 10
-142.5779507103
 20
189.1253730472
 30
0.0
 11
-143.5021027689
 21
189.1253730472
 31
0.0
  0
LINE
  5
1CF
330
1F
100
AcDbEntity
  8
0
100
AcDbLine
 10
-142.5539790073
 20
190.0874490765
 30
0.0
 11
-142.5779507103
 21
189.1253730472
 31
0.0
  0
SPLINE
  5
1D0
330
1F
100
AcDbEntity
  8
0
100
AcDbSpline
210
0.0
220
0.0
230
1.0
 70
     8
 71
     3
 72
    12
 73
     8
 74
     0
 42
0.00000001
 43
0.00000001
 40
0.0
 40
0.0
 40
0.0
 40
0.0
 40
0.2174770912066393
 40
0.435370520825788
 40
0.6490388720033345
 40
0.8610609605882522
 40
0.9999999999999999
 40
0.9999999999999999
 40
0.9999999999999999
 40
0.9999999999999999
 10
-142.0400267396386
 20
190.6014013441686
 30
0.0
 10
-142.0977993797985
 20
190.594792705797
 30
0.0
 10
-142.2134552601323
 20
190.5815627774684
 30
0.0
 10
-142.3675601231849
 20
190.4906747895122
 30
0.0
 10
-142.4828124448441
 20
190.3593369341633
 30
0.0
 10
-142.5435239897381
 20
190.2171122699937
 30
0.0
 10
-142.5510138927797
 20
190.1242224453511
 30
0.0
 10
-142.5539790072921
 20
190.087449076515
 30
0.0
  0
LINE
  5
1D1
330
1F
100
AcDbEntity
  8
0
100
AcDbLine
 10
-141.0779507103
 20
190.6253730472
 30
0.0
 11
-142.0400267396
 21
190.6014013442
 31
0.0
  0
LINE
  5
1D2
330
1F
100
AcDbEntity
  8
0
100
AcDbLine
 10
-141.0779507103
 20
191.5495251058
 30
0.0
 11
-141.0779507103
 21
190.6253730472
 31
0.0
  0
LINE
  5
1D3
330
1F
100
AcDbEntity
  8
0
100
AcDbLine
 10
-142.0400267396
 20
191.5734968089
 30
0.0
 11
-141.0779507103
 21
191.5495251058
 31
0.0
  0
SPLINE
  5
1D4
330
1F
100
AcDbEntity
  8
0
100
AcDbSpline
210
0.0
220
0.0
230
1.0
 70
     8
 71
     3
 72
    12
 73
     8
 74
     0
 42
0.00000001
 43
0.00000001
 40
0.0
 40
0.0
 40
0.0
 40
0.0
 40
0.2174770912066502
 40
0.4353705208257715
 40
0.6490388720033425
 40
0.8610609605882533
 40
1.0
 40
1.0
 40
1.0
 40
1.0
 10
-142.5539790072921
 20
192.087449076515
 30
0.0
 10
-142.5473703689206
 20
192.029676436355
 30
0.0
 10
-142.534140440592
 20
191.9140205560213
 30
0.0
 10
-142.4432524526358
 20
191.7599156929687
 30
0.0
 10
-142.3119145972869
 20
191.6446633713095
 30
0.0
 10
-142.1696899331172
 20
191.5839518264155
 30
0.0
 10
-142.0768001084747
 20
191.5764619233738
 30
0.0
 10
-142.0400267396386
 20
191.5734968088614
 30
0.0
  0
LINE
  5
1D5
330
1F
100
AcDbEntity
  8
0
100
AcDbLine
 10
-142.5779507103
 20
193.0495251058
 30
0.0
 11
-142.5539790073
 21
192.0874490765
 31
0.0
  0
LINE
  5
1D6
330
1F
100
AcDbEntity
  8
0
100
AcDbLine
 10
-143.5021027689
 20
193.0495251058
 30
0.0
 11
-142.5779507103
 21
193.0495251058
 31
0.0
  0
LINE
  5
1D7
330
1F
100
AcDbEntity
  8
0
100
AcDbLine
 10
-143.526074472
 20
192.0874490765
 30
0.0
 11
-143.5021027689
 21
193.0495251058
 31
0.0
  0
SPLINE
  5
1D8
330
1F
100
AcDbEntity
  8
0
100
AcDbSpline
210
0.0
220
0.0
230
1.0
 70
     8
 71
     3
 72
    12
 73
     8
 74
     0
 42
0.00000001
 43
0.00000001
 40
0.0
 40
0.0
 40
0.0
 40
0.0
 40
0.2174770912066788
 40
0.4353705208258695
 40
0.6490388720034573
 40
0.8610609605884149
 40
1.0
 40
1.0
 40
1.0
 40
1.0
 10
-144.0400267396386
 20
191.5734968088614
 30
0.0
 10
-143.9822540994786
 20
191.580105447233
 30
0.0
 10
-143.8665982191448
 20
191.5933353755616
 30
0.0
 10
-143.7124933560924
 20
191.6842233635178
 30
0.0
 10
-143.5972410344331
 20
191.8155612188667
 30
0.0
 10
-143.536529489539
 20
191.9577858830363
 30
0.0
 10
-143.5290395864974
 20
192.0506757076788
 30
0.0
 10
-143.526074471985
 20
192.0874490765149
 30
0.0
  0
CIRCLE
  5
1D9
330
1F
100
AcDbEntity
  8
0
100
AcDbCircle
 10
-143.0400267396
 20
191.0874490765
 30
0.0
 40
3.5
  0
ARC
  5
1DA
330
1F
100
AcDbEntity
  8
0
100
AcDbCircle
 10
-142.0400267396
 20
192.0874490765
 30
0.0
 40
0.71020847053137
100
AcDbArc
 50
180.0
 51
270.0
  0
ARC
  5
1DB
330
1F
100
AcDbEntity
  8
0
100
AcDbCircle
 10
-144.0400267396
 20
192.0874490765
 30
0.0
 40
0.71020847053137
100
AcDbArc
 50
270.0
 51
0.0
  0
ARC
  5
1DC
330
1F
100
AcDbEntity
  8
0
100
AcDbCircle
 10
-142.0400267396
 20
190.0874490765
 30
0.0
 40
0.7102084705313416
100
AcDbArc
 50
90.0
 51
180.0
  0
ARC
  5
1DD
330
1F
100
AcDbEntity
  8
0
100
AcDbCircle
 10
-144.0400267396
 20
190.0874490765
 30
0.0
 40
0.71020847053137
100
AcDbArc
 50
0.0
 51
90.0
  0
LINE
  5
1DE
330
1F
100
AcDbEntity
  8
0
100
AcDbLine
 10
-143.3298182691
 20
192.877240606
 30
0.0
 11
-143.5021027689
 21
193.0495251058
 31
0.0
  0
LINE
  5
1DF
330
1F
100
AcDbEntity
  8
0
100
AcDbLine
 10
-143.3298182691
 20
192.0874490765
 30
0.0
 11
-143.3298182691
 21
192.877240606
 31
0.0
  0
LINE
  5
1E0
330
1F
100
AcDbEntity
  8
0
100
AcDbLine
 10
-142.7502352102
 20
192.877240606
 30
0.0
 11
-142.7502352102
 21
192.0874490765
 31
0.0
  0
LINE
  5
1E1
330
1F
100
AcDbEntity
  8
0
100
AcDbLine
 10
-142.7502352102
 20
192.877240606
 30
0.0
 11
-142.5779507103
 21
193.0495251058
 31
0.0
  0
LINE
  5
1E2
330
1F
100
AcDbEntity
  8
0
100
AcDbLine
 10
-141.2502352102
 20
191.377240606
 30
0.0
 11
-141.0779507103
 21
191.5495251058
 31
0.0
  0
LINE
  5
1E3
330
1F
100
AcDbEntity
  8
0
100
AcDbLine
 10
-142.0400267396
 20
191.377240606
 30
0.0
 11
-141.2502352102
 21
191.377240606
 31
0.0
  0
LINE
  5
1E4
330
1F
100
AcDbEntity
  8
0
100
AcDbLine
 10
-144.8298182691
 20
191.377240606
 30
0.0
 11
-144.0400267396
 21
191.377240606
 31
0.0
  0
LINE
  5
1E5
330
1F
100
AcDbEntity
  8
0
100
AcDbLine
 10
-144.8298182691
 20
191.377240606
 30
0.0
 11
-145.0021027689
 21
191.5495251058
 31
0.0
  0
LINE
  5
1E6
330
1F
100
AcDbEntity
  8
0
100
AcDbLine
 10
-144.8298182691
 20
190.797657547
 30
0.0
 11
-145.0021027689
 21
190.6253730472
 31
0.0
  0
LINE
  5
1E7
330
1F
100
AcDbEntity
  8
0
100
AcDbLine
 10
-144.0400267396
 20
190.797657547
 30
0.0
 11
-144.8298182691
 21
190.797657547
 31
0.0
  0
LINE
  5
1E8
330
1F
100
AcDbEntity
  8
0
100
AcDbLine
 10
-141.2502352102
 20
190.797657547
 30
0.0
 11
-142.0400267396
 21
190.797657547
 31
0.0
  0
LINE
  5
1E9
330
1F
100
AcDbEntity
  8
0
100
AcDbLine
 10
-141.2502352102
 20
190.797657547
 30
0.0
 11
-141.0779507103
 21
190.6253730472
 31
0.0
  0
LINE
  5
1EA
330
1F
100
AcDbEntity
  8
0
100
AcDbLine
 10
-142.7502352102
 20
189.297657547
 30
0.0
 11
-142.5779507103
 21
189.1253730472
 31
0.0
  0
LINE
  5
1EB
330
1F
100
AcDbEntity
  8
0
100
AcDbLine
 10
-142.7502352102
 20
190.0874490765
 30
0.0
 11
-142.7502352102
 21
189.297657547
 31
0.0
  0
LINE
  5
1EC
330
1F
100
AcDbEntity
  8
0
100
AcDbLine
 10
-143.3298182691
 20
189.297657547
 30
0.0
 11
-143.3298182691
 21
190.0874490765
 31
0.0
  0
LINE
  5
1ED
330
1F
100
AcDbEntity
  8
0
100
AcDbLine
 10
-143.3298182691
 20
189.297657547
 30
0.0
 11
-143.5021027689
 21
189.1253730472
 31
0.0
  0
LINE
  5
1EE
330
1F
100
AcDbEntity
  8
0
100
AcDbLine
 10
-143.3298182691
 20
192.877240606
 30
0.0
 11
-142.7502352102
 21
192.877240606
 31
0.0
  0
LINE
  5
1EF
330
1F
100
AcDbEntity
  8
0
100
AcDbLine
 10
-141.2502352102
 20
191.377240606
 30
0.0
 11
-141.2502352102
 21
190.797657547
 31
0.0
  0
LINE
  5
1F0
330
1F
100
AcDbEntity
  8
0
100
AcDbLine
 10
-144.8298182691
 20
190.797657547
 30
0.0
 11
-144.8298182691
 21
191.377240606
 31
0.0
  0
LINE
  5
1F1
330
1F
100
AcDbEntity
  8
0
100
AcDbLine
 10
-142.7502352102
 20
189.297657547
 30
0.0
 11
-143.3298182691
 21
189.297657547
 31
0.0
  0
CIRCLE
  5
1F2
330
1F
100
AcDbEntity
  8
0
100
AcDbCircle
 10
-143.0400267396
 20
191.0874490765
 30
0.0
 40
5.5
  0
LINE
  5
1F3
330
1F
100
AcDbEntity
  8
0
100
AcDbLine
 10
-143.0400267396
 20
78.5874490765
 30
0.0
 11
-137.7400267396
 21
78.5874490765
 31
0.0
  0
LINE
  5
1F4
330
1F
100
AcDbEntity
  8
0
100
AcDbLine
 10
-148.3400267396
 20
78.5874490765
 30
0.0
 11
-143.0400267396
 21
78.5874490765
 31
0.0
  0
LINE
  5
1F5
330
1F
100
AcDbEntity
  8
0
100
AcDbLine
 10
-143.0400267396
 20
77.5874490765
 30
0.0
 11
-137.7400267396
 21
77.5874490765
 31
0.0
  0
LINE
  5
1F6
330
1F
100
AcDbEntity
  8
0
100
AcDbLine
 10
-148.3400267396
 20
77.5874490765
 30
0.0
 11
-143.0400267396
 21
77.5874490765
 31
0.0
  0
LINE
  5
1F7
330
1F
100
AcDbEntity
  8
0
100
AcDbLine
 10
-145.0021027689
 20
76.9482715553
 30
0.0
 11
-144.0400267396
 21
76.7201960359
 31
0.0
  0
LINE
  5
1F8
330
1F
100
AcDbEntity
  8
0
100
AcDbLine
 10
-142.0400267396
 20
76.7201960359
 30
0.0
 11
-141.0779507103
 21
76.9482715553
 31
0.0
  0
SPLINE
  5
1F9
330
1F
100
AcDbEntity
  8
0
100
AcDbSpline
210
0.0
220
0.0
230
1.0
 70
     8
 71
     3
 72
    12
 73
     8
 74
     0
 42
0.00000001
 43
0.00000001
 40
0.0
 40
0.0
 40
0.0
 40
0.0
 40
0.2174770912066504
 40
0.4353705208257718
 40
0.6490388720033428
 40
0.8610609605882534
 40
1.0
 40
1.0
 40
1.0
 40
1.0
 10
-142.5539790072921
 20
76.72019603593571
 30
0.0
 10
-142.5473703689206
 20
76.71121847032492
 30
0.0
 10
-142.534140440592
 20
76.69324615244064
 30
0.0
 10
-142.4432524526358
 20
76.68157752366247
 30
0.0
 10
-142.3119145972868
 20
76.68456167104773
 30
0.0
 10
-142.1696899331172
 20
76.69937058290897
 30
0.0
 10
-142.0768001084747
 20
76.71428979496798
 30
0.0
 10
-142.0400267396386
 20
76.72019603593571
 30
0.0
  0
LINE
  5
1FA
330
1F
100
AcDbEntity
  8
0
100
AcDbLine
 10
-142.5779507103
 20
76.9482715553
 30
0.0
 11
-142.5539790073
 21
76.7201960359
 31
0.0
  0
LINE
  5
1FB
330
1F
100
AcDbEntity
  8
0
100
AcDbLine
 10
-143.5021027689
 20
76.9482715553
 30
0.0
 11
-142.5779507103
 21
76.9482715553
 31
0.0
  0
LINE
  5
1FC
330
1F
100
AcDbEntity
  8
0
100
AcDbLine
 10
-143.526074472
 20
76.7201960359
 30
0.0
 11
-143.5021027689
 21
76.9482715553
 31
0.0
  0
SPLINE
  5
1FD
330
1F
100
AcDbEntity
  8
0
100
AcDbSpline
210
0.0
220
0.0
230
1.0
 70
     8
 71
     3
 72
    12
 73
     8
 74
     0
 42
0.00000001
 43
0.00000001
 40
0.0
 40
0.0
 40
0.0
 40
0.0
 40
0.2174770912066785
 40
0.4353705208258699
 40
0.6490388720034577
 40
0.861060960588415
 40
1.0
 40
1.0
 40
1.0
 40
1.0
 10
-144.0400267396386
 20
76.72019603593571
 30
0.0
 10
-143.9822540994786
 20
76.71121847032492
 30
0.0
 10
-143.8665982191449
 20
76.69324615244065
 30
0.0
 10
-143.7124933560923
 20
76.68157752366247
 30
0.0
 10
-143.597241034433
 20
76.68456167104776
 30
0.0
 10
-143.536529489539
 20
76.69937058290898
 30
0.0
 10
-143.5290395864974
 20
76.71428979496794
 30
0.0
 10
-143.526074471985
 20
76.72019603593569
 30
0.0
  0
LINE
  5
1FE
330
1F
100
AcDbEntity
  8
0
100
AcDbLine
 10
131.6599732604
 20
78.5874490765
 30
0.0
 11
142.2599732604
 21
78.5874490765
 31
0.0
  0
LINE
  5
1FF
330
1F
100
AcDbEntity
  8
0
100
AcDbLine
 10
131.6599732604
 20
77.5874490765
 30
0.0
 11
142.2599732604
 21
77.5874490765
 31
0.0
  0
LINE
  5
200
330
1F
100
AcDbEntity
  8
0
100
AcDbLine
 10
137.9599732604
 20
76.7201960359
 30
0.0
 11
138.9220492897
 21
76.9482715553
 31
0.0
  0
SPLINE
  5
201
330
1F
100
AcDbEntity
  8
0
100
AcDbSpline
210
0.0
220
0.0
230
1.0
 70
     8
 71
     3
 72
    12
 73
     8
 74
     0
 42
0.00000001
 43
0.00000001
 40
0.0
 40
0.0
 40
0.0
 40
0.0
 40
0.2174770912066506
 40
0.4353705208257719
 40
0.6490388720033426
 40
0.8610609605882533
 40
0.9999999999999999
 40
0.9999999999999999
 40
0.9999999999999999
 40
0.9999999999999999
 10
137.446020992708
 20
76.72019603593571
 30
0.0
 10
137.4526296310796
 20
76.71121847032492
 30
0.0
 10
137.4658595594082
 20
76.69324615244062
 30
0.0
 10
137.5567475473643
 20
76.68157752366248
 30
0.0
 10
137.6880854027132
 20
76.68456167104773
 30
0.0
 10
137.8303100668829
 20
76.699370582909
 30
0.0
 10
137.9231998915254
 20
76.71428979496798
 30
0.0
 10
137.9599732603615
 20
76.72019603593571
 30
0.0
  0
LINE
  5
202
330
1F
100
AcDbEntity
  8
0
100
AcDbLine
 10
137.4220492897
 20
76.9482715553
 30
0.0
 11
137.4460209927
 21
76.7201960359
 31
0.0
  0
LINE
  5
203
330
1F
100
AcDbEntity
  8
0
100
AcDbLine
 10
136.4978972311
 20
76.9482715553
 30
0.0
 11
137.4220492897
 21
76.9482715553
 31
0.0
  0
LINE
  5
204
330
1F
100
AcDbEntity
  8
0
100
AcDbLine
 10
136.473925528
 20
76.7201960359
 30
0.0
 11
136.4978972311
 21
76.9482715553
 31
0.0
  0
SPLINE
  5
205
330
1F
100
AcDbEntity
  8
0
100
AcDbSpline
210
0.0
220
0.0
230
1.0
 70
     8
 71
     3
 72
    12
 73
     8
 74
     0
 42
0.00000001
 43
0.00000001
 40
0.0
 40
0.0
 40
0.0
 40
0.0
 40
0.2174770912066366
 40
0.435370520825786
 40
0.6490388720033328
 40
0.8610609605882491
 40
1.0
 40
1.0
 40
1.0
 40
1.0
 10
135.9599732603615
 20
76.72019603593571
 30
0.0
 10
136.0177459005215
 20
76.71121847032494
 30
0.0
 10
136.1334017808553
 20
76.69324615244065
 30
0.0
 10
136.2875066439078
 20
76.68157752366247
 30
0.0
 10
136.402758965567
 20
76.68456167104779
 30
0.0
 10
136.4634705104611
 20
76.69937058290895
 30
0.0
 10
136.4709604135027
 20
76.71428979496798
 30
0.0
 10
136.4739255280151
 20
76.72019603593571
 30
0.0
  0
LINE
  5
206
330
1F
100
AcDbEntity
  8
0
100
AcDbLine
 10
134.9978972311
 20
76.9482715553
 30
0.0
 11
135.9599732604
 21
76.7201960359
 31
0.0
  0
LINE
  5
207
330
1F
100
AcDbEntity
  8
0
100
AcDbLine
 10
-240.0845291311
 20
121.6874490765
 30
0.0
 11
-240.0845291311
 21
260.4874490765
 31
0.0
  0
LINE
  5
208
330
1F
100
AcDbEntity
  8
0
100
AcDbLine
 10
-235.8845291311
 20
121.6874490765
 30
0.0
 11
-235.8845291311
 21
260.4874490765
 31
0.0
  0
LINE
  5
209
330
1F
100
AcDbEntity
  8
0
100
AcDbLine
 10
234.0044756518
 20
123.9738126143
 30
0.0
 11
234.0044756518
 21
121.6874490765
 31
0.0
  0
LINE
  5
20A
330
1F
100
AcDbEntity
  8
0
100
AcDbLine
 10
234.0044756518
 20
260.4874490765
 30
0.0
 11
234.0044756518
 21
123.9738126143
 31
0.0
  0
LINE
  5
20B
330
1F
100
AcDbEntity
  8
0
100
AcDbLine
 10
229.8044756518
 20
123.9738126143
 30
0.0
 11
229.8044756518
 21
121.6874490765
 31
0.0
  0
LINE
  5
20C
330
1F
100
AcDbEntity
  8
0
100
AcDbLine
 10
229.8044756518
 20
260.4874490765
 30
0.0
 11
229.8044756518
 21
123.9738126143
 31
0.0
  0
LINE
  5
20D
330
1F
100
AcDbEntity
  8
0
100
AcDbLine
 10
-195.807079026
 20
126.8374490765
 30
0.0
 11
-195.807079026
 21
255.3374490765
 31
0.0
  0
LINE
  5
20E
330
1F
100
AcDbEntity
  8
0
100
AcDbLine
 10
-197.1638521586
 20
129.1874490765
 30
0.0
 11
-197.1638521586
 21
252.9874490765
 31
0.0
  0
LINE
  5
20F
330
1F
100
AcDbEntity
  8
0
100
AcDbLine
 10
-249.1345291311
 20
130.4874490765
 30
0.0
 11
-249.1345291311
 21
251.6874490765
 31
0.0
  0
LINE
  5
210
330
1F
100
AcDbEntity
  8
0
100
AcDbLine
 10
-243.1345291311
 20
129.1874490765
 30
0.0
 11
-243.1345291311
 21
252.9874490765
 31
0.0
  0
LINE
  5
211
330
1F
100
AcDbEntity
  8
0
100
AcDbLine
 10
-230.4753514542
 20
129.1874490765
 30
0.0
 11
-230.4753514542
 21
252.9874490765
 31
0.0
  0
LINE
  5
212
330
1F
100
AcDbEntity
  8
0
100
AcDbLine
 10
189.7270255467
 20
255.3374490765
 30
0.0
 11
189.7270255467
 21
126.8374490765
 31
0.0
  0
LINE
  5
213
330
1F
100
AcDbEntity
  8
0
100
AcDbLine
 10
191.0837986793
 20
252.9874490765
 30
0.0
 11
191.0837986793
 21
129.1874490765
 31
0.0
  0
LINE
  5
214
330
1F
100
AcDbEntity
  8
0
100
AcDbLine
 10
243.0544756518
 20
251.6874490626
 30
0.0
 11
243.0544756518
 21
130.4874490765
 31
0.0
  0
LINE
  5
215
330
1F
100
AcDbEntity
  8
0
100
AcDbLine
 10
237.0544756518
 20
252.9874490765
 30
0.0
 11
237.0544756518
 21
129.1874490765
 31
0.0
  0
LINE
  5
216
330
1F
100
AcDbEntity
  8
0
100
AcDbLine
 10
224.3952979749
 20
252.9874490765
 30
0.0
 11
224.3952979749
 21
129.1874490765
 31
0.0
  0
SPLINE
  5
217
330
1F
100
AcDbEntity
  8
0
100
AcDbSpline
210
0.0
220
0.0
230
1.0
 70
     8
 71
     3
 72
    10
 73
     6
 74
     0
 42
0.00000001
 43
0.00000001
 40
0.0
 40
0.0
 40
0.0
 40
0.0
 40
0.1303601586562409
 40
0.696662084320777
 40
1.0
 40
1.0
 40
1.0
 40
1.0
 10
-147.8973886848304
 20
305.1449799201683
 30
0.0
 10
-147.7549467764671
 20
305.1724097420692
 30
0.0
 10
-146.993718209412
 20
305.3189983707964
 30
0.0
 10
-145.8977349575362
 20
304.8110037375246
 30
0.0
 10
-144.9479243402797
 20
303.8272904789067
 30
0.0
 10
-144.6166221629515
 20
303.4841627663653
 30
0.0
  0
SPLINE
  5
218
330
1F
100
AcDbEntity
  8
0
100
AcDbSpline
210
0.0
220
0.0
230
1.0
 70
     8
 71
     3
 72
     9
 73
     5
 74
     0
 42
0.00000001
 43
0.00000001
 40
0.0
 40
0.0
 40
0.0
 40
0.0
 40
0.7336657176730316
 40
1.0
 40
1.0
 40
1.0
 40
1.0
 10
-86.8973747599956
 20
77.03529527079787
 30
0.0
 10
-86.73887290650441
 20
76.98152565407386
 30
0.0
 10
-86.52283193624625
 20
76.90823666778387
 30
0.0
 10
-86.3063424413709
 20
77.01662115928778
 30
0.0
 10
-86.24868386712194
 20
77.04548766504784
 30
0.0
  0
SPLINE
  5
219
330
1F
100
AcDbEntity
  8
0
100
AcDbSpline
210
0.0
220
0.0
230
1.0
 70
     8
 71
     3
 72
    10
 73
     6
 74
     0
 42
0.00000001
 43
0.00000001
 40
0.0
 40
0.0
 40
0.0
 40
0.0
 40
0.1303601586562409
 40
0.6966620843207773
 40
0.9999999999999999
 40
0.9999999999999999
 40
0.9999999999999999
 40
0.9999999999999999
 10
-25.89738868483035
 20
305.1449799201683
 30
0.0
 10
-25.75494677646712
 20
305.1724097420692
 30
0.0
 10
-24.99371820941206
 20
305.3189983707965
 30
0.0
 10
-23.8977349575362
 20
304.8110037375247
 30
0.0
 10
-22.94792434027976
 20
303.8272904789067
 30
0.0
 10
-22.61662216295151
 20
303.4841627663653
 30
0.0
  0
SPLINE
  5
21A
330
1F
100
AcDbEntity
  8
0
100
AcDbSpline
210
0.0
220
0.0
230
1.0
 70
     8
 71
     3
 72
     9
 73
     5
 74
     0
 42
0.00000001
 43
0.00000001
 40
0.0
 40
0.0
 40
0.0
 40
0.0
 40
0.7336657176730786
 40
1.0
 40
1.0
 40
1.0
 40
1.0
 10
35.10262524000438
 20
77.03529527079787
 30
0.0
 10
35.26112709349559
 20
76.98152565407389
 30
0.0
 10
35.4771680637537
 20
76.90823666778388
 30
0.0
 10
35.6936575586291
 20
77.01662115928775
 30
0.0
 10
35.75131613287805
 20
77.04548766504783
 30
0.0
  0
SPLINE
  5
21B
330
1F
100
AcDbEntity
  8
0
100
AcDbSpline
210
0.0
220
0.0
230
1.0
 70
     8
 71
     3
 72
    10
 73
     6
 74
     0
 42
0.00000001
 43
0.00000001
 40
0.0
 40
0.0
 40
0.0
 40
0.0
 40
0.1303601586562417
 40
0.6966620843207806
 40
0.9999999999999999
 40
0.9999999999999999
 40
0.9999999999999999
 40
0.9999999999999999
 10
96.10261131516961
 20
305.1449799201683
 30
0.0
 10
96.24505322353284
 20
305.1724097420692
 30
0.0
 10
97.00628179058799
 20
305.3189983707964
 30
0.0
 10
98.10226504246376
 20
304.8110037375247
 30
0.0
 10
99.05207565972024
 20
303.8272904789067
 30
0.0
 10
99.38337783704849
 20
303.4841627663653
 30
0.0
  0
SPLINE
  5
21C
330
1F
100
AcDbEntity
  8
0
100
AcDbSpline
210
0.0
220
0.0
230
1.0
 70
     8
 71
     3
 72
     9
 73
     5
 74
     0
 42
0.00000001
 43
0.00000001
 40
0.0
 40
0.0
 40
0.0
 40
0.0
 40
0.431467327022443
 40
1.0
 40
1.0
 40
1.0
 40
1.0
 10
-146.2826683218889
 20
304.7229946277902
 30
0.0
 10
-146.0180523248834
 20
304.6514279656223
 30
0.0
 10
-145.4047590801049
 20
304.4855598739133
 30
0.0
 10
-144.7927572312045
 20
303.8039981077706
 30
0.0
 10
-144.444814184182
 20
303.4165079750661
 30
0.0
  0
SPLINE
  5
21D
330
1F
100
AcDbEntity
  8
0
100
AcDbSpline
210
0.0
220
0.0
230
1.0
 70
     8
 71
     3
 72
    10
 73
     6
 74
     0
 42
0.00000001
 43
0.00000001
 40
0.0
 40
0.0
 40
0.0
 40
0.0
 40
0.1548164750938339
 40
0.7566598929445485
 40
1.0
 40
1.0
 40
1.0
 40
1.0
 10
-86.72529781492601
 20
77.10908290451563
 30
0.0
 10
-86.56518581796867
 20
77.08083916243159
 30
0.0
 10
-85.78264425445974
 20
76.94279889992912
 30
0.0
 10
-84.74494294048898
 20
77.41147064227377
 30
0.0
 10
-83.87109885198142
 20
78.32455839625864
 30
0.0
 10
-83.61950696953105
 20
78.5874490765169
 30
0.0
  0
SPLINE
  5
21E
330
1F
100
AcDbEntity
  8
0
100
AcDbSpline
210
0.0
220
0.0
230
1.0
 70
     8
 71
     3
 72
     9
 73
     5
 74
     0
 42
0.00000001
 43
0.00000001
 40
0.0
 40
0.0
 40
0.0
 40
0.0
 40
0.4314673270224482
 40
1.0
 40
1.0
 40
1.0
 40
1.0
 10
-24.28266832188897
 20
304.7229946277902
 30
0.0
 10
-24.01805232488345
 20
304.6514279656223
 30
0.0
 10
-23.40475908010493
 20
304.4855598739134
 30
0.0
 10
-22.79275723120453
 20
303.8039981077706
 30
0.0
 10
-22.44481418418198
 20
303.4165079750661
 30
0.0
  0
SPLINE
  5
21F
330
1F
100
AcDbEntity
  8
0
100
AcDbSpline
210
0.0
220
0.0
230
1.0
 70
     8
 71
     3
 72
    10
 73
     6
 74
     0
 42
0.00000001
 43
0.00000001
 40
0.0
 40
0.0
 40
0.0
 40
0.0
 40
0.1548164750938354
 40
0.7566598929445557
 40
1.0
 40
1.0
 40
1.0
 40
1.0
 10
35.27470218507401
 20
77.10908290451563
 30
0.0
 10
35.43481418203133
 20
77.08083916243159
 30
0.0
 10
36.2173557455402
 20
76.94279889992914
 30
0.0
 10
37.25505705951102
 20
77.41147064227383
 30
0.0
 10
38.12890114801854
 20
78.32455839625862
 30
0.0
 10
38.38049303046892
 20
78.58744907651688
 30
0.0
  0
SPLINE
  5
220
330
1F
100
AcDbEntity
  8
0
100
AcDbSpline
210
0.0
220
0.0
230
1.0
 70
     8
 71
     3
 72
     9
 73
     5
 74
     0
 42
0.00000001
 43
0.00000001
 40
0.0
 40
0.0
 40
0.0
 40
0.0
 40
0.4314673270224397
 40
1.0
 40
1.0
 40
1.0
 40
1.0
 10
97.71733167811104
 20
304.7229946277902
 30
0.0
 10
97.98194767511656
 20
304.6514279656223
 30
0.0
 10
98.59524091989508
 20
304.4855598739133
 30
0.0
 10
99.20724276879548
 20
303.8039981077706
 30
0.0
 10
99.55518581581802
 20
303.4165079750661
 30
0.0
  0
SPLINE
  5
221
330
1F
100
AcDbEntity
  8
0
100
AcDbSpline
210
0.0
220
0.0
230
1.0
 70
    24
 71
     3
 72
    10
 73
     6
 74
     0
 42
0.00000001
 43
0.00000001
 40
0.0
 40
0.0
 40
0.0
 40
0.0
 40
0.3870472671366937
 40
0.6932221457910291
 40
1.0
 40
1.0
 40
1.0
 40
1.0
 10
146.9599732603615
 20
92.74778231201786
 30
0.0
 10
146.9599732603615
 20
92.66450396452441
 30
0.0
 10
146.9599732603614
 20
92.5153480353935
 30
0.0
 10
146.9599732603613
 20
92.32412761892691
 30
0.0
 10
146.9599732603615
 20
92.2153178291949
 30
0.0
 10
146.9599732603616
 20
92.16085941499551
 30
0.0
  0
SPLINE
  5
222
330
1F
100
AcDbEntity
  8
0
100
AcDbSpline
210
0.0
220
0.0
230
1.0
 70
     8
 71
     3
 72
    40
 73
    36
 74
     0
 42
0.00000001
 43
0.00000001
 40
0.0
 40
0.0
 40
0.0
 40
0.0
 40
0.0203442887846384
 40
0.0538662861909806
 40
0.0873817615695695
 40
0.1208874038538933
 40
0.1544166547675078
 40
0.1879202713354753
 40
0.2186256502603791
 40
0.2493171279605949
 40
0.2800126634749897
 40
0.3107141964951702
 40
0.341401672288428
 40
0.3715625291331679
 40
0.401698577647912
 40
0.4318617098336069
 40
0.4619972398150683
 40
0.4927069225685999
 40
0.5233932865642128
 40
0.5540967062543241
 40
0.5847902810733713
 40
0.6154835177386203
 40
0.6456391798017505
 40
0.6757783009719708
 40
0.7059393754167559
 40
0.7360753193233583
 40
0.7667862922655609
 40
0.797469995556894
 40
0.8281786588762439
 40
0.8588663551800887
 40
0.8895675226371927
 40
0.9197153129103297
 40
0.9498600132187515
 40
0.980016070374753
 40
1.0
 40
1.0
 40
1.0
 40
1.0
 10
-152.2396564823104
 20
305.0873599986093
 30
0.0
 10
-151.8272813081082
 20
305.1014198598111
 30
0.0
 10
-150.7354211115303
 20
305.1386466469119
 30
0.0
 10
-148.9611703217987
 20
303.7874528885204
 30
0.0
 10
-146.9211313997866
 20
301.1941251251081
 30
0.0
 10
-144.8838918309937
 20
297.3317710237937
 30
0.0
 10
-142.84027944494
 20
292.3136043229927
 30
0.0
 10
-140.8609917125862
 20
286.3455613197924
 30
0.0
 10
-138.9332020997215
 20
279.6053333866586
 30
0.0
 10
-137.0664865208416
 20
272.2449500598638
 30
0.0
 10
-135.1986160516415
 20
264.1344965992233
 30
0.0
 10
-133.3289968773749
 20
255.3490065750184
 30
0.0
 10
-131.4747247324792
 20
246.0229754072141
 30
0.0
 10
-129.6252640377253
 20
236.2586922734466
 30
0.0
 10
-127.7944709572346
 20
226.1463326579318
 30
0.0
 10
-125.9553954671725
 20
215.7254003413379
 30
0.0
 10
-124.1136618644353
 20
205.0157993316356
 30
0.0
 10
-122.2527241235557
 20
194.118269844394
 30
0.0
 10
-120.3877238517709
 20
183.1239405227099
 30
0.0
 10
-118.5175582025586
 20
172.206057887754
 30
0.0
 10
-116.6502627238792
 20
161.4615411995346
 30
0.0
 10
-114.7941503980599
 20
151.0532425177494
 30
0.0
 10
-112.9462548368639
 20
141.0718396040741
 30
0.0
 10
-111.1144595926763
 20
131.5942730689351
 30
0.0
 10
-109.276005187387
 20
122.6505228645967
 30
0.0
 10
-107.4341495231664
 20
114.2635882227391
 30
0.0
 10
-105.5728085672464
 20
106.5289262921149
 30
0.0
 10
-103.7086901362262
 20
99.52713704759428
 30
0.0
 10
-101.8369663651905
 20
93.37490219450287
 30
0.0
 10
-99.97153401955683
 20
88.12402743746516
 30
0.0
 10
-98.11309141723075
 20
83.85496975952066
 30
0.0
 10
-96.26751324998715
 20
80.57194414978201
 30
0.0
 10
-94.4338685381323
 20
78.33450400800444
 30
0.0
 10
-92.80339533940638
 20
77.10915582857537
 30
0.0
 10
-91.7871728423793
 20
77.06988806150876
 30
0.0
 10
-91.3821444375498
 20
77.05423739336989
 30
0.0
  0
SPLINE
  5
223
330
1F
100
AcDbEntity
  8
0
100
AcDbSpline
210
0.0
220
0.0
230
1.0
 70
     8
 71
     3
 72
    40
 73
    36
 74
     0
 42
0.00000001
 43
0.00000001
 40
0.0
 40
0.0
 40
0.0
 40
0.0
 40
0.0203442887846387
 40
0.0538662861909809
 40
0.0873817615695698
 40
0.1208874038538934
 40
0.154416654767508
 40
0.1879202713354754
 40
0.2186256502603791
 40
0.2493171279605949
 40
0.2800126634749897
 40
0.3107141964951701
 40
0.3414016722884279
 40
0.3715625291331677
 40
0.4016985776479117
 40
0.4318617098336066
 40
0.461997239815068
 40
0.4927069225685995
 40
0.5233932865642124
 40
0.5540967062543235
 40
0.5847902810733707
 40
0.6154835177386198
 40
0.6456391798017498
 40
0.6757783009719701
 40
0.7059393754167551
 40
0.7360753193233576
 40
0.7667862922655602
 40
0.7974699955568932
 40
0.828178658876243
 40
0.8588663551800878
 40
0.8895675226371917
 40
0.9197153129103286
 40
0.9498600132187504
 40
0.9800160703747519
 40
0.9999999999999999
 40
0.9999999999999999
 40
0.9999999999999999
 40
0.9999999999999999
 10
-30.23965648231044
 20
305.0873599986093
 30
0.0
 10
-29.8272813081082
 20
305.1014198598111
 30
0.0
 10
-28.73542111153033
 20
305.138646646912
 30
0.0
 10
-26.96117032179875
 20
303.7874528885204
 30
0.0
 10
-24.92113139978647
 20
301.1941251251081
 30
0.0
 10
-22.88389183099369
 20
297.3317710237937
 30
0.0
 10
-20.84027944493995
 20
292.3136043229927
 30
0.0
 10
-18.86099171258616
 20
286.3455613197924
 30
0.0
 10
-16.93320209972148
 20
279.6053333866586
 30
0.0
 10
-15.06648652084154
 20
272.2449500598637
 30
0.0
 10
-13.19861605164145
 20
264.1344965992233
 30
0.0
 10
-11.3289968773749
 20
255.3490065750183
 30
0.0
 10
-9.474724732479196
 20
246.0229754072142
 30
0.0
 10
-7.625264037725314
 20
236.2586922734466
 30
0.0
 10
-5.794470957234635
 20
226.1463326579318
 30
0.0
 10
-3.955395467172508
 20
215.7254003413379
 30
0.0
 10
-2.11366186443534
 20
205.0157993316356
 30
0.0
 10
-0.2527241235557396
 20
194.118269844394
 30
0.0
 10
1.612276148229067
 20
183.1239405227099
 30
0.0
 10
3.482441797441425
 20
172.2060578877539
 30
0.0
 10
5.349737276120776
 20
161.4615411995346
 30
0.0
 10
7.205849601940104
 20
151.0532425177494
 30
0.0
 10
9.053745163136082
 20
141.0718396040741
 30
0.0
 10
10.88554040732371
 20
131.5942730689351
 30
0.0
 10
12.72399481261295
 20
122.6505228645966
 30
0.0
 10
14.56585047683356
 20
114.2635882227391
 30
0.0
 10
16.42719143275359
 20
106.528926292115
 30
0.0
 10
18.29130986377376
 20
99.5271370475943
 30
0.0
 10
20.1630336348095
 20
93.37490219450282
 30
0.0
 10
22.02846598044314
 20
88.12402743746519
 30
0.0
 10
23.88690858276928
 20
83.85496975952063
 30
0.0
 10
25.73248675001283
 20
80.57194414978201
 30
0.0
 10
27.56613146186769
 20
78.33450400800444
 30
0.0
 10
29.19660466059364
 20
77.10915582857537
 30
0.0
 10
30.21282715762072
 20
77.06988806150873
 30
0.0
 10
30.61785556245025
 20
77.05423739336987
 30
0.0
  0
LINE
  5
224
330
1F
100
AcDbEntity
  8
0
100
AcDbLine
 10
91.3555067962
 20
305.1141694832
 30
0.0
 11
91.7603435177
 21
305.0873599986
 31
0.0
  0
SPLINE
  5
225
330
1F
100
AcDbEntity
  8
0
100
AcDbSpline
210
0.0
220
0.0
230
1.0
 70
    24
 71
     3
 72
    10
 73
     6
 74
     0
 42
0.00000001
 43
0.00000001
 40
0.0
 40
0.0
 40
0.0
 40
0.0
 40
0.340471634245019
 40
0.6693377582948679
 40
1.0
 40
1.0
 40
1.0
 40
1.0
 10
146.9599732603616
 20
92.16085941499551
 30
0.0
 10
146.9599732603616
 20
90.77235542679459
 30
0.0
 10
146.9599732603615
 20
88.04267678878779
 30
0.0
 10
146.9599732603615
 20
84.64944803033926
 30
0.0
 10
146.9599732603615
 20
82.87884509295976
 30
0.0
 10
146.9599732603614
 20
81.99113265048827
 30
0.0
  0
LINE
  5
226
330
1F
100
AcDbEntity
  8
0
100
AcDbLine
 10
-152.2399178371
 20
303.489480809
 30
0.0
 11
-152.0615756135
 21
303.4778360011
 31
0.0
  0
LINE
  5
227
330
1F
100
AcDbEntity
  8
0
100
AcDbLine
 10
-30.2399178371
 20
303.489480809
 30
0.0
 11
-30.0615756135
 21
303.4778360011
 31
0.0
  0
LINE
  5
228
330
1F
100
AcDbEntity
  8
0
100
AcDbLine
 10
91.7600821629
 20
303.489480809
 30
0.0
 11
91.9384243865
 21
303.4778360011
 31
0.0
  0
SPLINE
  5
229
330
1F
100
AcDbEntity
  8
0
100
AcDbSpline
210
0.0
220
0.0
230
1.0
 70
    24
 71
     3
 72
    11
 73
     7
 74
     0
 42
0.00000001
 43
0.00000001
 40
0.0
 40
0.0
 40
0.0
 40
0.0
 40
0.3889735051852035
 40
0.7381290204334339
 40
0.9674426745523346
 40
1.0
 40
1.0
 40
1.0
 40
1.0
 10
146.9599732603614
 20
81.99113265048827
 30
0.0
 10
146.9599732603614
 20
81.84756123083625
 30
0.0
 10
146.9599732603616
 20
81.57511534458104
 30
0.0
 10
146.9599732603614
 20
81.34300237458044
 30
0.0
 10
146.9599732603614
 20
81.24447144870904
 30
0.0
 10
146.9599732603615
 20
81.25089793690759
 30
0.0
 10
146.9599732603615
 20
81.25169691535153
 30
0.0
  0
SPLINE
  5
22A
330
1F
100
AcDbEntity
  8
0
100
AcDbSpline
210
0.0
220
0.0
230
1.0
 70
    24
 71
     3
 72
    21
 73
    17
 74
     0
 42
0.00000001
 43
0.00000001
 40
0.0
 40
0.0
 40
0.0
 40
0.0
 40
0.08905689070912
 40
0.2519999366128138
 40
0.415692565838449
 40
0.4373156174906464
 40
0.4460594904412213
 40
0.4548897811224578
 40
0.460246920928129
 40
0.4656133761155735
 40
0.472736833387933
 40
0.4854634625856638
 40
0.5267710866554663
 40
0.719143126244221
 40
0.9842451392774341
 40
1.0
 40
1.0
 40
1.0
 40
1.0
 10
-153.0400267396385
 20
305.144542337745
 30
0.0
 10
-153.0400267396385
 20
305.1494337500199
 30
0.0
 10
-153.0400267396386
 20
305.1632747405755
 30
0.0
 10
-153.0400267396384
 20
305.0502146078531
 30
0.0
 10
-153.0400267396386
 20
304.9112318375589
 30
0.0
 10
-153.0400267396385
 20
304.634055891596
 30
0.0
 10
-153.0400267396385
 20
304.5553525628812
 30
0.0
 10
-153.0400267396386
 20
304.4967921729157
 30
0.0
 10
-153.0400267396385
 20
304.4383722097374
 30
0.0
 10
-153.0400267396384
 20
304.3849053846769
 30
0.0
 10
-153.0400267396386
 20
304.3188013630811
 30
0.0
 10
-153.0400267396387
 20
304.1973915465396
 30
0.0
 10
-153.0400267396337
 20
303.9142034896441
 30
0.0
 10
-153.0400267396415
 20
303.6976143478785
 30
0.0
 10
-153.0400267396384
 20
303.5792663136264
 30
0.0
 10
-153.0400267396386
 20
303.5437178232274
 30
0.0
 10
-153.0400267396385
 20
303.5417237060543
 30
0.0
  0
SPLINE
  5
22B
330
1F
100
AcDbEntity
  8
0
100
AcDbSpline
210
0.0
220
0.0
230
1.0
 70
     8
 71
     3
 72
     9
 73
     5
 74
     0
 42
0.00000001
 43
0.00000001
 40
0.0
 40
0.0
 40
0.0
 40
0.0
 40
0.7289489040548989
 40
0.9999999999999999
 40
0.9999999999999999
 40
0.9999999999999999
 40
0.9999999999999999
 10
-85.21068101929536
 20
78.60988247754734
 30
0.0
 10
-85.054298734539
 20
78.557768817313
 30
0.0
 10
-84.83976753230178
 20
78.48627730406095
 30
0.0
 10
-84.6247912951062
 20
78.59269691697149
 30
0.0
 10
-84.56652175041219
 20
78.62154206968094
 30
0.0
  0
SPLINE
  5
22C
330
1F
100
AcDbEntity
  8
0
100
AcDbSpline
210
0.0
220
0.0
230
1.0
 70
     8
 71
     3
 72
     9
 73
     5
 74
     0
 42
0.00000001
 43
0.00000001
 40
0.0
 40
0.0
 40
0.0
 40
0.0
 40
0.7289489040548991
 40
1.0
 40
1.0
 40
1.0
 40
1.0
 10
36.78931898070464
 20
78.60988247754734
 30
0.0
 10
36.94570126546103
 20
78.55776881731303
 30
0.0
 10
37.16023246769824
 20
78.486277304061
 30
0.0
 10
37.37520870489378
 20
78.59269691697146
 30
0.0
 10
37.43347824958779
 20
78.62154206968094
 30
0.0
  0
SPLINE
  5
22D
330
1F
100
AcDbEntity
  8
0
100
AcDbSpline
210
0.0
220
0.0
230
1.0
 70
    24
 71
     3
 72
    10
 73
     6
 74
     0
 42
0.00000001
 43
0.00000001
 40
0.0
 40
0.0
 40
0.0
 40
0.0
 40
0.4787651259857966
 40
0.7393257287028489
 40
1.0
 40
1.0
 40
1.0
 40
1.0
 10
146.9599732603615
 20
98.74742002291163
 30
0.0
 10
146.9599732603614
 20
97.75943825925023
 30
0.0
 10
146.9599732603614
 20
96.23376252031646
 30
0.0
 10
146.9599732603615
 20
94.25322635360313
 30
0.0
 10
146.9599732603615
 20
93.24966994291725
 30
0.0
 10
146.9599732603615
 20
92.74778231201788
 30
0.0
  0
SPLINE
  5
22E
330
1F
100
AcDbEntity
  8
0
100
AcDbSpline
210
0.0
220
0.0
230
1.0
 70
     8
 71
     3
 72
     9
 73
     5
 74
     0
 42
0.00000001
 43
0.00000001
 40
0.0
 40
0.0
 40
0.0
 40
0.0
 40
0.7007671737747218
 40
1.0
 40
1.0
 40
1.0
 40
1.0
 10
-123.4594562509452
 20
201.1280277865435
 30
0.0
 10
-123.0572732510592
 20
198.7866121129439
 30
0.0
 10
-122.4833551011556
 20
195.4453944286344
 30
0.0
 10
-121.9106401615631
 20
192.091149320174
 30
0.0
 10
-121.7392650515674
 20
191.0874490765171
 30
0.0
  0
SPLINE
  5
22F
330
1F
100
AcDbEntity
  8
0
100
AcDbSpline
210
0.0
220
0.0
230
1.0
 70
     8
 71
     3
 72
     9
 73
     5
 74
     0
 42
0.00000001
 43
0.00000001
 40
0.0
 40
0.0
 40
0.0
 40
0.0
 40
0.7007671737746212
 40
1.0
 40
1.0
 40
1.0
 40
1.0
 10
-1.459456250944624
 20
201.1280277865401
 30
0.0
 10
-1.057273251058829
 20
198.7866121129416
 30
0.0
 10
-0.4833551011553853
 20
195.4453944286333
 30
0.0
 10
0.0893598384368983
 20
192.091149320174
 30
0.0
 10
0.2607349484325949
 20
191.0874490765171
 30
0.0
  0
SPLINE
  5
230
330
1F
100
AcDbEntity
  8
0
100
AcDbSpline
210
0.0
220
0.0
230
1.0
 70
     8
 71
     3
 72
     9
 73
     5
 74
     0
 42
0.00000001
 43
0.00000001
 40
0.0
 40
0.0
 40
0.0
 40
0.0
 40
0.1719190784287881
 40
1.0
 40
1.0
 40
1.0
 40
1.0
 10
-151.0372899589623
 20
303.9099493522012
 30
0.0
 10
-151.0256156146191
 20
303.9097960090353
 30
0.0
 10
-150.9577095715557
 20
303.9089040593616
 30
0.0
 10
-150.8896991959463
 20
303.8458541410709
 30
0.0
 10
-150.8333811014354
 20
303.7936437066277
 30
0.0
  0
LINE
  5
231
330
1F
100
AcDbEntity
  8
0
100
AcDbLine
 10
-129.6859202513
 20
236.0667428048
 30
0.0
 11
-129.6260954948
 21
235.7539793895
 31
0.0
  0
LINE
  5
232
330
1F
100
AcDbEntity
  8
0
100
AcDbLine
 10
-30.2399178371
 20
303.9888234644
 30
0.0
 11
-29.3578836162
 21
303.930975424
 31
0.0
  0
SPLINE
  5
233
330
1F
100
AcDbEntity
  8
0
100
AcDbSpline
210
0.0
220
0.0
230
1.0
 70
     8
 71
     3
 72
     9
 73
     5
 74
     0
 42
0.00000001
 43
0.00000001
 40
0.0
 40
0.0
 40
0.0
 40
0.0
 40
0.171919078428849
 40
1.0
 40
1.0
 40
1.0
 40
1.0
 10
-29.0372899589623
 20
303.9099493522012
 30
0.0
 10
-29.0256156146191
 20
303.9097960090353
 30
0.0
 10
-28.95770957155575
 20
303.9089040593616
 30
0.0
 10
-28.88969919594639
 20
303.8458541410709
 30
0.0
 10
-28.8333811014354
 20
303.7936437066277
 30
0.0
  0
LINE
  5
234
330
1F
100
AcDbEntity
  8
0
100
AcDbLine
 10
-7.6859202513
 20
236.0667428048
 30
0.0
 11
-7.6260954948
 21
235.7539793895
 31
0.0
  0
SPLINE
  5
235
330
1F
100
AcDbEntity
  8
0
100
AcDbSpline
210
0.0
220
0.0
230
1.0
 70
     8
 71
     3
 72
    24
 73
    20
 74
     0
 42
0.00000001
 43
0.00000001
 40
0.0
 40
0.0
 40
0.0
 40
0.0
 40
0.0610363459369129
 40
0.1220543062491782
 40
0.183108077618285
 40
0.244116045846664
 40
0.3051769287735348
 40
0.3650938461674003
 40
0.4250635114907778
 40
0.4849850570564925
 40
0.5449459521792562
 40
0.605967524535849
 40
0.6669987384173555
 40
0.7280401621179254
 40
0.789054985086529
 40
0.8501113827948732
 40
0.910029073685965
 40
0.9700009477348444
 40
1.0
 40
1.0
 40
1.0
 40
1.0
 10
-152.2399587367992
 20
304.6874490765171
 30
0.0
 10
-151.6169766823467
 20
304.5861814299329
 30
0.0
 10
-150.3712002307146
 20
304.3836766410308
 30
0.0
 10
-148.5052247959589
 20
302.7503138593624
 30
0.0
 10
-146.6339128866416
 20
300.160075141327
 30
0.0
 10
-144.7695969762674
 20
296.539666178828
 30
0.0
 10
-142.9082876823855
 20
291.9781444260706
 30
0.0
 10
-141.0665590860235
 20
286.5269099748365
 30
0.0
 10
-139.2278098009558
 20
280.2596851356448
 30
0.0
 10
-137.3964211851433
 20
273.194295329137
 30
0.0
 10
-135.5479367969509
 20
265.3514311904642
 30
0.0
 10
-133.6924765605788
 20
256.782523481305
 30
0.0
 10
-131.8244679972227
 20
247.5553915036273
 30
0.0
 10
-129.9549733100833
 20
237.8065285996442
 30
0.0
 10
-128.0895234159987
 20
227.6235697910711
 30
0.0
 10
-126.2289050609279
 20
217.1680840547945
 30
0.0
 10
-124.38704494134
 20
206.5360690573804
 30
0.0
 10
-122.8539372681209
 20
197.6142612195737
 30
0.0
 10
-121.9371145960087
 20
192.2440186254425
 30
0.0
 10
-121.6314179405961
 20
190.4534158734424
 30
0.0
  0
SPLINE
  5
236
330
1F
100
AcDbEntity
  8
0
100
AcDbSpline
210
0.0
220
0.0
230
1.0
 70
     8
 71
     3
 72
    24
 73
    20
 74
     0
 42
0.00000001
 43
0.00000001
 40
0.0
 40
0.0
 40
0.0
 40
0.0
 40
0.0593870409576663
 40
0.1205121803128416
 40
0.1816731936275642
 40
0.2427883233475948
 40
0.3039564607116486
 40
0.3639786231485723
 40
0.4240536261676069
 40
0.4840804249058394
 40
0.5441466423192598
 40
0.6052754000633773
 40
0.6664138162679044
 40
0.7275624602252089
 40
0.7886844567259271
 40
0.8498481009930948
 40
0.9098710382859053
 40
0.9699482539101042
 40
1.0
 40
1.0
 40
1.0
 40
1.0
 10
-30.18628231327112
 20
304.6723546289402
 30
0.0
 10
-29.58119928982674
 20
304.5730246866942
 30
0.0
 10
-28.3533240960189
 20
304.3714576828937
 30
0.0
 10
-26.50522686422282
 20
302.7493851357441
 30
0.0
 10
-24.63391233276839
 20
300.1603238499405
 30
0.0
 10
-22.7695971248667
 20
296.5395994525053
 30
0.0
 10
-20.90828764338486
 20
291.9781619387538
 30
0.0
 10
-19.06655909640042
 20
286.5269053152216
 30
0.0
 10
-17.22780979817694
 20
280.2596863834538
 30
0.0
 10
-15.39642118588778
 20
273.1942949948521
 30
0.0
 10
-13.54793679674745
 20
265.351431281826
 30
0.0
 10
-11.69247656063369
 20
256.7825234566392
 30
0.0
 10
-9.824467997207975
 20
247.5553915102382
 30
0.0
 10
-7.954973310087254
 20
237.8065285978735
 30
0.0
 10
-6.089523415997613
 20
227.6235697915461
 30
0.0
 10
-4.228905060928112
 20
217.1680840546696
 30
0.0
 10
-2.387044941339971
 20
206.5360690574143
 30
0.0
 10
-0.8539372681214785
 20
197.6142612195731
 30
0.0
 10
0.0628854039902084
 20
192.2440186254479
 30
0.0
 10
0.3685820594022671
 20
190.453415873452
 30
0.0
  0
LINE
  5
237
330
1F
100
AcDbEntity
  8
0
100
AcDbLine
 10
122.2602535613
 20
191.0874852752
 30
0.0
 11
122.3685820594
 21
190.4534158734
 31
0.0
  0
SPLINE
  5
238
330
1F
100
AcDbEntity
  8
0
100
AcDbSpline
210
0.0
220
0.0
230
1.0
 70
     8
 71
     3
 72
    24
 73
    20
 74
     0
 42
0.00000001
 43
0.00000001
 40
0.0
 40
0.0
 40
0.0
 40
0.0
 40
0.0612535887199459
 40
0.1224887178284219
 40
0.1837598021068137
 40
0.2449848989210459
 40
0.3062631233789984
 40
0.3663932849624323
 40
0.4265764067466009
 40
0.4867112151264903
 40
0.5468855314135105
 40
0.6081242871018858
 40
0.669372723114309
 40
0.730631410031842
 40
0.7918633891713319
 40
0.8531371103589993
 40
0.9132680485523579
 40
0.9734533879515884
 40
1.0
 40
1.0
 40
1.0
 40
1.0
 10
-152.2399587367992
 20
304.1874490765171
 30
0.0
 10
-151.6169767237334
 20
304.0866272019835
 30
0.0
 10
-150.3712004418001
 20
303.8850138369749
 30
0.0
 10
-148.5052243906526
 20
302.2588394718723
 30
0.0
 10
-146.6339134149981
 20
299.6800028779881
 30
0.0
 10
-144.7695963644929
 20
296.0755265436956
 30
0.0
 10
-142.9082883209549
 20
291.5340849847623
 30
0.0
 10
-141.0665584750183
 20
286.106840009817
 30
0.0
 10
-139.2278103565186
 20
279.8672036737704
 30
0.0
 10
-137.3964207311082
 20
272.8329077913847
 30
0.0
 10
-135.5479371193503
 20
265.0245663816482
 30
0.0
 10
-133.692476424509
 20
256.4933722686176
 30
0.0
 10
-131.8244679814311
 20
247.3068519862223
 30
0.0
 10
-129.9549732516443
 20
237.6009020797794
 30
0.0
 10
-128.0895243006347
 20
227.4627508717517
 30
0.0
 10
-126.22890059754
 20
217.0533176422054
 30
0.0
 10
-124.3870627435259
 20
206.4679899050839
 30
0.0
 10
-122.890160581361
 20
197.7959380322368
 30
0.0
 10
-122.0094493394954
 20
192.6602132942767
 30
0.0
 10
-121.7398843259768
 20
191.0882886467797
 30
0.0
  0
SPLINE
  5
239
330
1F
100
AcDbEntity
  8
0
100
AcDbSpline
210
0.0
220
0.0
230
1.0
 70
     8
 71
     3
 72
    25
 73
    21
 74
     0
 42
0.00000001
 43
0.00000001
 40
0.0
 40
0.0
 40
0.0
 40
0.0
 40
0.0003030196984989
 40
0.0615380473744589
 40
0.1227546210325751
 40
0.1840071389654822
 40
0.2452136833693371
 40
0.3064733393181898
 40
0.36658528027819
 40
0.426750165390941
 40
0.4868667517393259
 40
0.5470228340231674
 40
0.6082430331622577
 40
0.6694729096920669
 40
0.7307130340207596
 40
0.7919264586643923
 40
0.8531816127075396
 40
0.9132943300421364
 40
0.9734614320979681
 40
1.0
 40
1.0
 40
1.0
 40
1.0
 10
-30.24920358043662
 20
304.1850277002749
 30
0.0
 10
-30.24612196928067
 20
304.1858385359142
 30
0.0
 10
-29.62030016877113
 20
304.350505196966
 30
0.0
 10
-28.3710892019942
 20
303.7632611117923
 30
0.0
 10
-26.50525421373374
 20
302.2914810374078
 30
0.0
 10
-24.63390542849398
 20
299.6712615947518
 30
0.0
 10
-22.76959850720207
 20
296.0778717534565
 30
0.0
 10
-20.90828775858957
 20
291.5334694720079
 30
0.0
 10
-19.06655862464745
 20
286.1070037798828
 30
0.0
 10
-17.22781031644901
 20
279.8671598174177
 30
0.0
 10
-15.39642074184277
 20
272.8329195403927
 30
0.0
 10
-13.54793711641654
 20
265.0245631705851
 30
0.0
 10
-11.69247642530101
 20
256.4933731355356
 30
0.0
 10
-9.824467981218836
 20
247.3068517538697
 30
0.0
 10
-7.954973251701091
 20
237.6009021420142
 30
0.0
 10
-6.089524300619519
 20
227.4627508550541
 30
0.0
 10
-4.228900597543952
 20
217.0533176465947
 30
0.0
 10
-2.387062743524782
 20
206.4679899038908
 30
0.0
 10
-0.8901605813610861
 20
197.7959380323514
 30
0.0
 10
-0.009449339495459
 20
192.6602132943036
 30
0.0
 10
0.2601156740231763
 20
191.0882886467799
 30
0.0
  0
SPLINE
  5
23A
330
1F
100
AcDbEntity
  8
0
100
AcDbSpline
210
0.0
220
0.0
230
1.0
 70
    24
 71
     3
 72
    10
 73
     6
 74
     0
 42
0.00000001
 43
0.00000001
 40
0.0
 40
0.0
 40
0.0
 40
0.0
 40
0.3934847927243313
 40
0.6963331773782921
 40
0.9999999999999999
 40
0.9999999999999999
 40
0.9999999999999999
 40
0.9999999999999999
 10
146.9599732603615
 20
99.39639098503639
 30
0.0
 10
146.9599732603637
 20
99.31688514296647
 30
0.0
 10
146.9599732603679
 20
99.1761870609761
 30
0.0
 10
146.9599732603598
 20
98.96051955123356
 30
0.0
 10
146.959973260361
 20
98.81851707222933
 30
0.0
 10
146.9599732603615
 20
98.74742002291164
 30
0.0
  0
SPLINE
  5
23B
330
1F
100
AcDbEntity
  8
0
100
AcDbSpline
210
0.0
220
0.0
230
1.0
 70
    24
 71
     3
 72
    10
 73
     6
 74
     0
 42
0.00000001
 43
0.00000001
 40
0.0
 40
0.0
 40
0.0
 40
0.0
 40
0.2355843605883117
 40
0.6593677147365672
 40
1.0
 40
1.0
 40
1.0
 40
1.0
 10
146.9599732603616
 20
80.90004202716636
 30
0.0
 10
146.9599732603616
 20
80.53965665001257
 30
0.0
 10
146.9599732603617
 20
79.53098832430122
 30
0.0
 10
146.9599732603616
 20
78.75230124926439
 30
0.0
 10
146.9599732603617
 20
78.68969618153591
 30
0.0
 10
146.9599732603616
 20
78.66179865277024
 30
0.0
  0
SPLINE
  5
23C
330
1F
100
AcDbEntity
  8
0
100
AcDbSpline
210
0.0
220
0.0
230
1.0
 70
    24
 71
     3
 72
    37
 73
    33
 74
     0
 42
0.00000001
 43
0.00000001
 40
0.0
 40
0.0
 40
0.0
 40
0.0
 40
0.0125970840009528
 40
0.0466206328071552
 40
0.080765768530629
 40
0.1149109042541028
 40
0.1489344530603052
 40
0.1829580018665075
 40
0.2171031375899813
 40
0.251248273313455
 40
0.2852718221196573
 40
0.3192953709258597
 40
0.3534405066493333
 40
0.387585642372807
 40
0.4216091911790093
 40
0.4556327399852117
 40
0.4897778757086855
 40
0.5239230114321592
 40
0.5579465602383616
 40
0.5919701090445637
 40
0.6261152447680373
 40
0.6602603804915107
 40
0.6942839292977128
 40
0.7283074781039153
 40
0.7624526138273892
 40
0.796597749550863
 40
0.8306212983570656
 40
0.8646448471632681
 40
0.8987899828867418
 40
0.9329351186102158
 40
0.9669586674164182
 40
1.0
 40
1.0
 40
1.0
 40
1.0
 10
146.9599732603616
 20
303.3568096574733
 30
0.0
 10
146.9599732603616
 20
303.3248571840648
 30
0.0
 10
146.9599732603616
 20
303.2066040605687
 30
0.0
 10
146.9599732603617
 20
302.1597655627848
 30
0.0
 10
146.9599732603615
 20
300.2455469287418
 30
0.0
 10
146.9599732603616
 20
297.5127054714093
 30
0.0
 10
146.9599732603615
 20
294.0446881213638
 30
0.0
 10
146.9599732603616
 20
289.8233313163965
 30
0.0
 10
146.9599732603616
 20
284.8999302909938
 30
0.0
 10
146.9599732603616
 20
279.3183222654961
 30
0.0
 10
146.9599732603616
 20
273.1190030015621
 30
0.0
 10
146.9599732603616
 20
266.3224639222676
 30
0.0
 10
146.9599732603614
 20
258.9864472812664
 30
0.0
 10
146.9599732603615
 20
251.1742343571935
 30
0.0
 10
146.9599732603614
 20
242.9455092453635
 30
0.0
 10
146.9599732603616
 20
234.339250699603
 30
0.0
 10
146.9599732603615
 20
225.4179125440608
 30
0.0
 10
146.9599732603615
 20
216.2558051355355
 30
0.0
 10
146.9599732603615
 20
206.9254158151949
 30
0.0
 10
146.9599732603616
 20
197.4797240863058
 30
0.0
 10
146.9599732603614
 20
187.9788786551004
 30
0.0
 10
146.9599732603614
 20
178.4998348197159
 30
0.0
 10
146.9599732603615
 20
169.119711078756
 30
0.0
 10
146.9599732603615
 20
159.8995196284804
 30
0.0
 10
146.9599732603614
 20
150.8903024707801
 30
0.0
 10
146.9599732603614
 20
142.1630598987715
 30
0.0
 10
146.9599732603614
 20
133.7905632306707
 30
0.0
 10
146.9599732603614
 20
125.8360369663794
 30
0.0
 10
146.9599732603616
 20
118.3317037283305
 30
0.0
 10
146.9599732603615
 20
111.3493891842027
 30
0.0
 10
146.9599732603615
 20
104.9562962874817
 30
0.0
 10
146.9599732603615
 20
101.2315086359766
 30
0.0
 10
146.9599732603615
 20
99.39639098503639
 30
0.0
  0
SPLINE
  5
23D
330
1F
100
AcDbEntity
  8
0
100
AcDbSpline
210
0.0
220
0.0
230
1.0
 70
    24
 71
     3
 72
    45
 73
    41
 74
     0
 42
0.00000001
 43
0.00000001
 40
0.0
 40
0.0
 40
0.0
 40
0.0
 40
0.0113564304648828
 40
0.0386780925336728
 40
0.0659997546024628
 40
0.0932241273620939
 40
0.120448500121725
 40
0.147770162190515
 40
0.175091824259305
 40
0.2023161970189361
 40
0.2295405697785678
 40
0.2568622318473583
 40
0.284183893916149
 40
0.3114082666757806
 40
0.3386326394354115
 40
0.3659543015042013
 40
0.3932759635729912
 40
0.4205003363326221
 40
0.4477247090922533
 40
0.4750463711610434
 40
0.5023680332298335
 40
0.5295924059894648
 40
0.5568167787490956
 40
0.5841384408178855
 40
0.6114601028866753
 40
0.6386844756463061
 40
0.6659088484059374
 40
0.6932305104747277
 40
0.720552172543518
 40
0.7477765453031492
 40
0.7750009180627804
 40
0.8023225801315705
 40
0.8296442422003607
 40
0.8568686149599919
 40
0.8840929877196231
 40
0.911414649788413
 40
0.9387363118572032
 40
0.9659606846168344
 40
0.9931850573764657
 40
1.0
 40
1.0
 40
1.0
 40
1.0
 10
-153.0400267396385
 20
303.3515090785997
 30
0.0
 10
-153.0400267396385
 20
303.3094086253614
 30
0.0
 10
-153.0400267396385
 20
303.166021560993
 30
0.0
 10
-153.0400267396386
 20
302.0789919722695
 30
0.0
 10
-153.0400267396385
 20
300.1344087363861
 30
0.0
 10
-153.0400267396386
 20
297.3723263313872
 30
0.0
 10
-153.0400267396385
 20
293.8495157303956
 30
0.0
 10
-153.0400267396385
 20
289.5923895610138
 30
0.0
 10
-153.0400267396386
 20
284.6453596388102
 30
0.0
 10
-153.0400267396385
 20
279.0419748208964
 30
0.0
 10
-153.0400267396385
 20
272.7983369827995
 30
0.0
 10
-153.0400267396386
 20
265.969957669991
 30
0.0
 10
-153.0400267396386
 20
258.6164109927868
 30
0.0
 10
-153.0400267396385
 20
250.7932655460485
 30
0.0
 10
-153.0400267396386
 20
242.5354544396504
 30
0.0
 10
-153.0400267396385
 20
233.9049355871906
 30
0.0
 10
-153.0400267396385
 20
224.9741256200329
 30
0.0
 10
-153.0400267396386
 20
215.8131672842089
 30
0.0
 10
-153.0400267396385
 20
206.472202548488
 30
0.0
 10
-153.0400267396385
 20
197.012565902477
 30
0.0
 10
-153.0400267396386
 20
187.5113747369398
 30
0.0
 10
-153.0400267396385
 20
178.0454318006436
 30
0.0
 10
-153.0400267396386
 20
168.6744364236805
 30
0.0
 10
-153.0400267396386
 20
159.4521842384066
 30
0.0
 10
-153.0400267396386
 20
150.4517991080502
 30
0.0
 10
-153.0400267396386
 20
141.7480848364084
 30
0.0
 10
-153.0400267396385
 20
133.4035674357406
 30
0.0
 10
-153.0400267396386
 20
125.4584387826019
 30
0.0
 10
-153.0400267396385
 20
117.9735844802777
 30
0.0
 10
-153.0400267396386
 20
111.0133779566238
 30
0.0
 10
-153.0400267396385
 20
104.6361146281412
 30
0.0
 10
-153.0400267396386
 20
98.86388099936488
 30
0.0
 10
-153.0400267396385
 20
93.73834903291906
 30
0.0
 10
-153.0400267396386
 20
89.30661749656095
 30
0.0
 10
-153.0400267396385
 20
85.61463766875022
 30
0.0
 10
-153.0400267396386
 20
82.66966478080016
 30
0.0
 10
-153.0400267396385
 20
80.46792724335339
 30
0.0
 10
-153.0400267396385
 20
79.11412357067083
 30
0.0
 10
-153.0400267396385
 20
78.53241398637661
 30
0.0
 10
-153.0400267396385
 20
78.64722363211648
 30
0.0
 10
-153.0400267396386
 20
78.67020943954348
 30
0.0
  0
SPLINE
  5
23E
330
1F
100
AcDbEntity
  8
0
100
AcDbSpline
210
0.0
220
0.0
230
1.0
 70
     8
 71
     3
 72
    10
 73
     6
 74
     0
 42
0.00000001
 43
0.00000001
 40
0.0
 40
0.0
 40
0.0
 40
0.0
 40
0.0589420407900139
 40
0.6251557021747557
 40
1.0
 40
1.0
 40
1.0
 40
1.0
 10
-190.0724204360397
 20
255.432786708921
 30
0.0
 10
-189.981452626961
 20
255.4504428551982
 30
0.0
 10
-189.0166227059461
 20
255.6377088605086
 30
0.0
 10
-187.4718805548368
 20
255.0957690760728
 30
0.0
 10
-186.0199791341697
 20
253.9813478257574
 30
0.0
 10
-185.441654533421
 20
253.5374490765171
 30
0.0
  0
SPLINE
  5
23F
330
1F
100
AcDbEntity
  8
0
100
AcDbSpline
210
0.0
220
0.0
230
1.0
 70
     8
 71
     3
 72
     9
 73
     5
 74
     0
 42
0.00000001
 43
0.00000001
 40
0.0
 40
0.0
 40
0.0
 40
0.0
 40
0.9145693777250397
 40
1.0
 40
1.0
 40
1.0
 40
1.0
 10
179.3583650420301
 20
254.3920386467012
 30
0.0
 10
180.0534241620223
 20
254.0334562720049
 30
0.0
 10
180.8134092838959
 20
253.6413784445269
 30
0.0
 10
181.5731454209703
 20
252.7601969561953
 30
0.0
 10
181.6380501519253
 20
252.68491707331
 30
0.0
  0
SPLINE
  5
240
330
1F
100
AcDbEntity
  8
0
100
AcDbSpline
210
0.0
220
0.0
230
1.0
 70
     8
 71
     3
 72
     9
 73
     5
 74
     0
 42
0.00000001
 43
0.00000001
 40
0.0
 40
0.0
 40
0.0
 40
0.0
 40
0.3823464071542774
 40
1.0
 40
1.0
 40
1.0
 40
1.0
 10
-189.9091299105671
 20
255.3760828293718
 30
0.0
 10
-189.8488622777347
 20
255.3932136848473
 30
0.0
 10
-189.6912365443559
 20
255.4380182263703
 30
0.0
 10
-189.5335611180327
 20
255.3758484575772
 30
0.0
 10
-189.4361723244608
 20
255.3374490765158
 30
0.0
  0
SPLINE
  5
241
330
1F
100
AcDbEntity
  8
0
100
AcDbSpline
210
0.0
220
0.0
230
1.0
 70
     8
 71
     3
 72
     9
 73
     5
 74
     0
 42
0.00000001
 43
0.00000001
 40
0.0
 40
0.0
 40
0.0
 40
0.0
 40
0.0563715912963697
 40
1.0
 40
1.0
 40
1.0
 40
1.0
 10
-187.1527384011719
 20
254.7560309776675
 30
0.0
 10
-187.125380867983
 20
254.7494102880403
 30
0.0
 10
-186.6400737734021
 20
254.6319630158433
 30
0.0
 10
-186.1551385351512
 20
254.1887133927981
 30
0.0
 10
-185.6975398679563
 20
253.7704504563455
 30
0.0
  0
SPLINE
  5
242
330
1F
100
AcDbEntity
  8
0
100
AcDbSpline
210
0.0
220
0.0
230
1.0
 70
     8
 71
     3
 72
     9
 73
     5
 74
     0
 42
0.00000001
 43
0.00000001
 40
0.0
 40
0.0
 40
0.0
 40
0.0
 40
0.9016903475449505
 40
1.0
 40
1.0
 40
1.0
 40
1.0
 10
179.6210435987346
 20
254.2491760078206
 30
0.0
 10
180.2756703160143
 20
253.9175611589354
 30
0.0
 10
181.0016697891837
 20
253.5497909484767
 30
0.0
 10
181.7274745992817
 20
252.7087903996868
 30
0.0
 10
181.7988282179127
 20
252.6261119280208
 30
0.0
  0
SPLINE
  5
243
330
1F
100
AcDbEntity
  8
0
100
AcDbSpline
210
0.0
220
0.0
230
1.0
 70
    24
 71
     3
 72
    10
 73
     6
 74
     0
 42
0.00000001
 43
0.00000001
 40
0.0
 40
0.0
 40
0.0
 40
0.0
 40
0.3418521493450366
 40
0.6697685419033865
 40
1.0
 40
1.0
 40
1.0
 40
1.0
 10
188.9599732603615
 20
241.8250784227222
 30
0.0
 10
188.9599732603616
 20
241.7975121982899
 30
0.0
 10
188.9599732603617
 20
241.7435034989758
 30
0.0
 10
188.959973260361
 20
241.6380903832192
 30
0.0
 10
188.9599732603613
 20
241.5596194752002
 30
0.0
 10
188.9599732603614
 20
241.5202460086646
 30
0.0
  0
LINE
  5
244
330
1F
100
AcDbEntity
  8
0
100
AcDbLine
 10
-194.4999541366
 20
255.3979839207
 30
0.0
 11
-194.1525708472
 21
255.3837770246
 31
0.0
  0
LINE
  5
245
330
1F
100
AcDbEntity
  8
0
100
AcDbLine
 10
-195.0400267396
 20
255.3957844923
 30
0.0
 11
-195.0400267396
 21
255.3201758345
 31
0.0
  0
SPLINE
  5
246
330
1F
100
AcDbEntity
  8
0
100
AcDbSpline
210
0.0
220
0.0
230
1.0
 70
    24
 71
     3
 72
    11
 73
     7
 74
     0
 42
0.00000001
 43
0.00000001
 40
0.0
 40
0.0
 40
0.0
 40
0.0
 40
0.5403219211511462
 40
0.8102593759907714
 40
0.9456470133204196
 40
1.0
 40
1.0
 40
1.0
 40
1.0
 10
188.9599732603616
 20
232.0536681211851
 30
0.0
 10
188.9599732603618
 20
231.5646581035979
 30
0.0
 10
188.9599732603621
 20
230.8313453576348
 30
0.0
 10
188.9599732603609
 20
229.8472364639166
 30
0.0
 10
188.9599732603619
 20
229.3248116784459
 30
0.0
 10
188.9599732603617
 20
229.1183304871465
 30
0.0
 10
188.9599732603616
 20
229.0591820074844
 30
0.0
  0
SPLINE
  5
247
330
1F
100
AcDbEntity
  8
0
100
AcDbSpline
210
0.0
220
0.0
230
1.0
 70
    24
 71
     3
 72
    10
 73
     6
 74
     0
 42
0.00000001
 43
0.00000001
 40
0.0
 40
0.0
 40
0.0
 40
0.0
 40
0.3016404105785024
 40
0.6032808211570034
 40
1.0
 40
1.0
 40
1.0
 40
1.0
 10
188.9599732603614
 20
241.5202460086646
 30
0.0
 10
188.9599732603614
 20
240.653599130687
 30
0.0
 10
188.9599732603614
 20
238.9203053747316
 30
0.0
 10
188.9599732603616
 20
235.7894042818662
 30
0.0
 10
188.9599732603616
 20
233.4070302947466
 30
0.0
 10
188.9599732603616
 20
232.0536681211851
 30
0.0
  0
LINE
  5
248
330
1F
100
AcDbEntity
  8
0
100
AcDbLine
 10
188.9599732604
 20
241.9173485136
 30
0.0
 11
188.9599732604
 21
241.8250784227
 31
0.0
  0
SPLINE
  5
249
330
1F
100
AcDbEntity
  8
0
100
AcDbSpline
210
0.0
220
0.0
230
1.0
 70
     8
 71
     3
 72
     9
 73
     5
 74
     0
 42
0.00000001
 43
0.00000001
 40
0.0
 40
0.0
 40
0.0
 40
0.0
 40
0.3447802293803521
 40
0.9999999999999999
 40
0.9999999999999999
 40
0.9999999999999999
 40
0.9999999999999999
 10
181.3079116716589
 20
252.8764514959204
 30
0.0
 10
181.3420073136242
 20
252.8546477583684
 30
0.0
 10
181.440898256491
 20
252.7914082344805
 30
0.0
 10
181.5397553125626
 20
252.664828425005
 30
0.0
 10
181.604528410166
 20
252.5818908312754
 30
0.0
  0
LINE
  5
24A
330
1F
100
AcDbEntity
  8
0
100
AcDbLine
 10
188.3460207959
 20
233.5260765962
 30
0.0
 11
188.9599732604
 21
231.9900559798
 31
0.0
  0
SPLINE
  5
24B
330
1F
100
AcDbEntity
  8
0
100
AcDbSpline
210
0.0
220
0.0
230
1.0
 70
     8
 71
     3
 72
     9
 73
     5
 74
     0
 42
0.00000001
 43
0.00000001
 40
0.0
 40
0.0
 40
0.0
 40
0.0
 40
0.0104005328237773
 40
1.0
 40
1.0
 40
1.0
 40
1.0
 10
181.2553995619722
 20
253.0410283453198
 30
0.0
 10
181.2474028708333
 20
253.0496547822307
 30
0.0
 10
180.478529653053
 20
253.8790773759567
 30
0.0
 10
179.7096070934922
 20
254.2207564507846
 30
0.0
 10
178.9486817382511
 20
254.5588818811795
 30
0.0
  0
LINE
  5
24C
330
1F
100
AcDbEntity
  8
0
100
AcDbLine
 10
-184.9178814531
 20
253.1644338153
 30
0.0
 11
-187.0513182618
 21
254.5588818812
 31
0.0
  0
LINE
  5
24D
330
1F
100
AcDbEntity
  8
0
100
AcDbLine
 10
188.9599732604
 20
241.3903435084
 30
0.0
 11
188.9599732604
 21
241.4906681036
 31
0.0
  0
LINE
  5
24E
330
1F
100
AcDbEntity
  8
0
100
AcDbLine
 10
181.6226834598
 20
252.5327172739
 30
0.0
 11
181.3079116717
 21
252.8764514959
 31
0.0
  0
SPLINE
  5
24F
330
1F
100
AcDbEntity
  8
0
100
AcDbSpline
210
0.0
220
0.0
230
1.0
 70
     8
 71
     3
 72
     9
 73
     5
 74
     0
 42
0.00000001
 43
0.00000001
 40
0.0
 40
0.0
 40
0.0
 40
0.0
 40
0.0182895613541161
 40
1.0
 40
1.0
 40
1.0
 40
1.0
 10
181.1511306532354
 20
253.0476580761297
 30
0.0
 10
181.1425920607198
 20
253.057015798484
 30
0.0
 10
180.6757360027613
 20
253.5686585969702
 30
0.0
 10
180.2088248870367
 20
253.7800431772717
 30
0.0
 10
179.75045337081
 20
253.9875616263223
 30
0.0
  0
LINE
  5
250
330
1F
100
AcDbEntity
  8
0
100
AcDbLine
 10
188.9599732604
 20
232.0218821069
 30
0.0
 11
188.9599732604
 21
241.3903435084
 31
0.0
  0
SPLINE
  5
251
330
1F
100
AcDbEntity
  8
0
100
AcDbSpline
210
0.0
220
0.0
230
1.0
 70
    24
 71
     3
 72
    11
 73
     7
 74
     0
 42
0.00000001
 43
0.00000001
 40
0.0
 40
0.0
 40
0.0
 40
0.0
 40
0.0461454667547364
 40
0.1314367660355878
 40
0.3879722128323325
 40
1.0
 40
1.0
 40
1.0
 40
1.0
 10
188.9599732603628
 20
229.2388499561529
 30
0.0
 10
188.9599732603623
 20
229.2839790880051
 30
0.0
 10
188.959973260361
 20
229.4125210133946
 30
0.0
 10
188.9599732603619
 20
229.8261094380021
 30
0.0
 10
188.9599732603612
 20
230.7740062382358
 30
0.0
 10
188.9599732603614
 20
231.5060511342028
 30
0.0
 10
188.9599732603614
 20
232.0218821068552
 30
0.0
  0
ARC
  5
252
330
1F
100
AcDbEntity
  8
0
100
AcDbCircle
 10
601.0837420943
 20
297.5969676954
 30
0.0
 40
8.000000000000037
100
AcDbArc
 50
68.8928310813
 51
72.8515803462
  0
ARC
  5
253
330
1F
100
AcDbEntity
  8
0
100
AcDbCircle
 10
707.9833982507
 20
190.6973115391
 30
0.0
 40
8.000000000000064
100
AcDbArc
 50
17.1467397277
 51
21.1071689187
  0
ARC
  5
254
330
1F
100
AcDbEntity
  8
0
100
AcDbCircle
 10
707.9833982507
 20
191.477586614
 30
0.0
 40
8.000000000000105
100
AcDbArc
 50
338.8928310813
 51
342.8515803462
  0
ARC
  5
255
330
1F
100
AcDbEntity
  8
0
100
AcDbCircle
 10
601.0837420943
 20
84.5779304576
 30
0.0
 40
8.000000000000002
100
AcDbArc
 50
287.1467397277
 51
291.1071689186
  0
ARC
  5
256
330
1F
100
AcDbEntity
  8
0
100
AcDbCircle
 10
601.8640171692
 20
84.5779304576
 30
0.0
 40
8.000000000000004
100
AcDbArc
 50
248.8928310814
 51
252.8515803462
  0
ARC
  5
257
330
1F
100
AcDbEntity
  8
0
100
AcDbCircle
 10
494.9643610129
 20
191.477586614
 30
0.0
 40
7.999999999999993
100
AcDbArc
 50
197.1467397277
 51
201.1071689187
  0
ARC
  5
258
330
1F
100
AcDbEntity
  8
0
100
AcDbCircle
 10
494.9643610129
 20
190.6973115391
 30
0.0
 40
8.000000000000009
100
AcDbArc
 50
158.8928310813
 51
162.8515803462
  0
CIRCLE
  5
259
330
1F
100
AcDbEntity
  8
0
100
AcDbCircle
 10
601.4738796318
 20
191.0874490765
 30
0.0
 40
69.90000000000006
  0
CIRCLE
  5
25A
330
1F
100
AcDbEntity
  8
0
100
AcDbCircle
 10
601.4738796318
 20
191.0874490765
 30
0.0
 40
114.0
  0
LINE
  5
25B
330
1F
100
AcDbEntity
  8
0
100
AcDbLine
 10
601.0118036025
 20
305.2266265977
 30
0.0
 11
600.9878318994
 21
305.4547021171
 31
0.0
  0
LINE
  5
25C
330
1F
100
AcDbEntity
  8
0
100
AcDbLine
 10
601.9359556611
 20
305.2266265977
 30
0.0
 11
601.0118036025
 21
305.2266265977
 31
0.0
  0
LINE
  5
25D
330
1F
100
AcDbEntity
  8
0
100
AcDbLine
 10
601.9599273641
 20
305.4547021171
 30
0.0
 11
601.9359556611
 21
305.2266265977
 31
0.0
  0
SPLINE
  5
25E
330
1F
100
AcDbEntity
  8
0
100
AcDbSpline
210
0.0
220
0.0
230
1.0
 70
     8
 71
     3
 72
    12
 73
     8
 74
     0
 42
0.00000001
 43
0.00000001
 40
0.0
 40
0.0
 40
0.0
 40
0.0
 40
0.2174770912066499
 40
0.4353705208257708
 40
0.6490388720033415
 40
0.8610609605882507
 40
1.0
 40
1.0
 40
1.0
 40
1.0
 10
602.4738796317729
 20
305.4547021170983
 30
0.0
 10
602.4161069916129
 20
305.4636796827091
 30
0.0
 10
602.3004511112791
 20
305.4816520005934
 30
0.0
 10
602.1463462482266
 20
305.4933206293715
 30
0.0
 10
602.0310939265673
 20
305.4903364819863
 30
0.0
 10
601.9703823816733
 20
305.4755275701251
 30
0.0
 10
601.9628924786317
 20
305.4606083580661
 30
0.0
 10
601.9599273641193
 20
305.4547021170983
 30
0.0
  0
LINE
  5
25F
330
1F
100
AcDbEntity
  8
0
100
AcDbLine
 10
603.4359556611
 20
305.2266265977
 30
0.0
 11
602.4738796318
 21
305.4547021171
 31
0.0
  0
LINE
  5
260
330
1F
100
AcDbEntity
  8
0
100
AcDbLine
 10
600.4738796318
 20
305.4547021171
 30
0.0
 11
599.5118036025
 21
305.2266265977
 31
0.0
  0
SPLINE
  5
261
330
1F
100
AcDbEntity
  8
0
100
AcDbSpline
210
0.0
220
0.0
230
1.0
 70
     8
 71
     3
 72
    12
 73
     8
 74
     0
 42
0.00000001
 43
0.00000001
 40
0.0
 40
0.0
 40
0.0
 40
0.0
 40
0.2174770912066787
 40
0.4353705208258703
 40
0.6490388720034581
 40
0.8610609605884151
 40
0.9999999999999999
 40
0.9999999999999999
 40
0.9999999999999999
 40
0.9999999999999999
 10
600.9878318994264
 20
305.4547021170983
 30
0.0
 10
600.9812232610549
 20
305.463679682709
 30
0.0
 10
600.9679933327262
 20
305.4816520005933
 30
0.0
 10
600.8771053447701
 20
305.4933206293715
 30
0.0
 10
600.7457674894212
 20
305.4903364819863
 30
0.0
 10
600.6035428252516
 20
305.475527570125
 30
0.0
 10
600.5106530006091
 20
305.4606083580661
 30
0.0
 10
600.473879631773
 20
305.4547021170983
 30
0.0
  0
LINE
  5
262
330
1F
100
AcDbEntity
  8
0
100
AcDbLine
 10
715.613057153
 20
191.5495251058
 30
0.0
 11
715.8411326724
 21
191.5734968089
 31
0.0
  0
LINE
  5
263
330
1F
100
AcDbEntity
  8
0
100
AcDbLine
 10
715.613057153
 20
190.6253730472
 30
0.0
 11
715.613057153
 21
191.5495251058
 31
0.0
  0
LINE
  5
264
330
1F
100
AcDbEntity
  8
0
100
AcDbLine
 10
715.8411326724
 20
190.6014013442
 30
0.0
 11
715.613057153
 21
190.6253730472
 31
0.0
  0
SPLINE
  5
265
330
1F
100
AcDbEntity
  8
0
100
AcDbSpline
210
0.0
220
0.0
230
1.0
 70
     8
 71
     3
 72
    12
 73
     8
 74
     0
 42
0.00000001
 43
0.00000001
 40
0.0
 40
0.0
 40
0.0
 40
0.0
 40
0.2174770912066494
 40
0.4353705208257699
 40
0.6490388720033402
 40
0.8610609605882509
 40
1.0
 40
1.0
 40
1.0
 40
1.0
 10
715.8411326723527
 20
190.087449076515
 30
0.0
 10
715.8501102379636
 20
190.145221716675
 30
0.0
 10
715.8680825558478
 20
190.2608775970087
 30
0.0
 10
715.879751184626
 20
190.4149824600613
 30
0.0
 10
715.8767670372408
 20
190.5302347817205
 30
0.0
 10
715.8619581253795
 20
190.5909463266146
 30
0.0
 10
715.8470389133205
 20
190.5984362296562
 30
0.0
 10
715.8411326723527
 20
190.6014013441686
 30
0.0
  0
LINE
  5
266
330
1F
100
AcDbEntity
  8
0
100
AcDbLine
 10
715.613057153
 20
189.1253730472
 30
0.0
 11
715.8411326724
 21
190.0874490765
 31
0.0
  0
LINE
  5
267
330
1F
100
AcDbEntity
  8
0
100
AcDbLine
 10
715.8411326724
 20
192.0874490765
 30
0.0
 11
715.613057153
 21
193.0495251058
 31
0.0
  0
SPLINE
  5
268
330
1F
100
AcDbEntity
  8
0
100
AcDbSpline
210
0.0
220
0.0
230
1.0
 70
     8
 71
     3
 72
    12
 73
     8
 74
     0
 42
0.00000001
 43
0.00000001
 40
0.0
 40
0.0
 40
0.0
 40
0.0
 40
0.2174770912066788
 40
0.4353705208258695
 40
0.6490388720034573
 40
0.8610609605884149
 40
1.0
 40
1.0
 40
1.0
 40
1.0
 10
715.8411326723527
 20
191.5734968088614
 30
0.0
 10
715.8501102379636
 20
191.580105447233
 30
0.0
 10
715.8680825558478
 20
191.5933353755616
 30
0.0
 10
715.879751184626
 20
191.6842233635178
 30
0.0
 10
715.8767670372408
 20
191.8155612188667
 30
0.0
 10
715.8619581253795
 20
191.9577858830363
 30
0.0
 10
715.8470389133205
 20
192.0506757076788
 30
0.0
 10
715.8411326723528
 20
192.0874490765149
 30
0.0
  0
LINE
  5
269
330
1F
100
AcDbEntity
  8
0
100
AcDbLine
 10
601.9359556611
 20
76.9482715553
 30
0.0
 11
601.9599273641
 21
76.7201960359
 31
0.0
  0
LINE
  5
26A
330
1F
100
AcDbEntity
  8
0
100
AcDbLine
 10
601.0118036025
 20
76.9482715553
 30
0.0
 11
601.9359556611
 21
76.9482715553
 31
0.0
  0
LINE
  5
26B
330
1F
100
AcDbEntity
  8
0
100
AcDbLine
 10
600.9878318994
 20
76.7201960359
 30
0.0
 11
601.0118036025
 21
76.9482715553
 31
0.0
  0
SPLINE
  5
26C
330
1F
100
AcDbEntity
  8
0
100
AcDbSpline
210
0.0
220
0.0
230
1.0
 70
     8
 71
     3
 72
    12
 73
     8
 74
     0
 42
0.00000001
 43
0.00000001
 40
0.0
 40
0.0
 40
0.0
 40
0.0
 40
0.2174770912066496
 40
0.4353705208257703
 40
0.6490388720033413
 40
0.8610609605882507
 40
1.0
 40
1.0
 40
1.0
 40
1.0
 10
600.473879631769
 20
76.72019603593574
 30
0.0
 10
600.531652271929
 20
76.71121847032498
 30
0.0
 10
600.6473081522629
 20
76.69324615244071
 30
0.0
 10
600.8014130153153
 20
76.68157752366245
 30
0.0
 10
600.9166653369746
 20
76.6845616710478
 30
0.0
 10
600.9773768818686
 20
76.69937058290898
 30
0.0
 10
600.9848667849103
 20
76.714289794968
 30
0.0
 10
600.9878318994226
 20
76.72019603593574
 30
0.0
  0
LINE
  5
26D
330
1F
100
AcDbEntity
  8
0
100
AcDbLine
 10
599.5118036025
 20
76.9482715553
 30
0.0
 11
600.4738796318
 21
76.7201960359
 31
0.0
  0
LINE
  5
26E
330
1F
100
AcDbEntity
  8
0
100
AcDbLine
 10
602.4738796318
 20
76.7201960359
 30
0.0
 11
603.4359556611
 21
76.9482715553
 31
0.0
  0
SPLINE
  5
26F
330
1F
100
AcDbEntity
  8
0
100
AcDbSpline
210
0.0
220
0.0
230
1.0
 70
     8
 71
     3
 72
    12
 73
     8
 74
     0
 42
0.00000001
 43
0.00000001
 40
0.0
 40
0.0
 40
0.0
 40
0.0
 40
0.2174770912066785
 40
0.4353705208258699
 40
0.6490388720034577
 40
0.861060960588415
 40
1.0
 40
1.0
 40
1.0
 40
1.0
 10
601.9599273641155
 20
76.72019603593571
 30
0.0
 10
601.966536002487
 20
76.71121847032492
 30
0.0
 10
601.9797659308157
 20
76.69324615244065
 30
0.0
 10
602.0706539187718
 20
76.68157752366247
 30
0.0
 10
602.2019917741209
 20
76.68456167104776
 30
0.0
 10
602.3442164382903
 20
76.69937058290898
 30
0.0
 10
602.4371062629328
 20
76.71428979496794
 30
0.0
 10
602.4738796317689
 20
76.72019603593569
 30
0.0
  0
LINE
  5
270
330
1F
100
AcDbEntity
  8
0
100
AcDbLine
 10
487.3347021106
 20
190.6253730472
 30
0.0
 11
487.1066265912
 21
190.6014013442
 31
0.0
  0
LINE
  5
271
330
1F
100
AcDbEntity
  8
0
100
AcDbLine
 10
487.3347021106
 20
191.5495251058
 30
0.0
 11
487.3347021106
 21
190.6253730472
 31
0.0
  0
LINE
  5
272
330
1F
100
AcDbEntity
  8
0
100
AcDbLine
 10
487.1066265912
 20
191.5734968089
 30
0.0
 11
487.3347021106
 21
191.5495251058
 31
0.0
  0
SPLINE
  5
273
330
1F
100
AcDbEntity
  8
0
100
AcDbSpline
210
0.0
220
0.0
230
1.0
 70
     8
 71
     3
 72
    12
 73
     8
 74
     0
 42
0.00000001
 43
0.00000001
 40
0.0
 40
0.0
 40
0.0
 40
0.0
 40
0.217477091206652
 40
0.4353705208257717
 40
0.6490388720033422
 40
0.8610609605882531
 40
0.9999999999999999
 40
0.9999999999999999
 40
0.9999999999999999
 40
0.9999999999999999
 10
487.1066265911902
 20
192.0874490765182
 30
0.0
 10
487.0976490255794
 20
192.0296764363582
 30
0.0
 10
487.0796767076951
 20
191.9140205560245
 30
0.0
 10
487.068008078917
 20
191.7599156929719
 30
0.0
 10
487.0709922263022
 20
191.6446633713127
 30
0.0
 10
487.0858011381634
 20
191.5839518264187
 30
0.0
 10
487.1007203502224
 20
191.576461923377
 30
0.0
 10
487.1066265911902
 20
191.5734968088647
 30
0.0
  0
LINE
  5
274
330
1F
100
AcDbEntity
  8
0
100
AcDbLine
 10
487.3347021106
 20
193.0495251058
 30
0.0
 11
487.1066265912
 21
192.0874490765
 31
0.0
  0
LINE
  5
275
330
1F
100
AcDbEntity
  8
0
100
AcDbLine
 10
487.1066265912
 20
190.0874490765
 30
0.0
 11
487.3347021106
 21
189.1253730472
 31
0.0
  0
SPLINE
  5
276
330
1F
100
AcDbEntity
  8
0
100
AcDbSpline
210
0.0
220
0.0
230
1.0
 70
     8
 71
     3
 72
    12
 73
     8
 74
     0
 42
0.00000001
 43
0.00000001
 40
0.0
 40
0.0
 40
0.0
 40
0.0
 40
0.217477091206681
 40
0.4353705208258714
 40
0.6490388720034588
 40
0.8610609605884176
 40
1.0
 40
1.0
 40
1.0
 40
1.0
 10
487.1066265911902
 20
190.6014013441718
 30
0.0
 10
487.0976490255794
 20
190.5947927058002
 30
0.0
 10
487.0796767076951
 20
190.5815627774716
 30
0.0
 10
487.068008078917
 20
190.4906747895154
 30
0.0
 10
487.0709922263022
 20
190.3593369341665
 30
0.0
 10
487.0858011381634
 20
190.2171122699969
 30
0.0
 10
487.1007203502224
 20
190.1242224453544
 30
0.0
 10
487.1066265911901
 20
190.0874490765184
 30
0.0
  0
CIRCLE
  5
277
330
1F
100
AcDbEntity
  8
0
100
AcDbCircle
 10
601.4738796318
 20
191.0874490765
 30
0.0
 40
61.90000000000003
  0
CIRCLE
  5
278
330
1F
100
AcDbEntity
  8
0
100
AcDbCircle
 10
601.4738796318
 20
191.0874490765
 30
0.0
 40
58.09999999999999
  0
CIRCLE
  5
279
330
1F
100
AcDbEntity
  8
0
100
AcDbCircle
 10
601.4738796318
 20
191.0874490765
 30
0.0
 40
111.25
  0
SPLINE
  5
27A
330
1F
100
AcDbEntity
  8
0
100
AcDbSpline
210
0.0
220
0.0
230
1.0
 70
     8
 71
     3
 72
    10
 73
     6
 74
     0
 42
0.00000001
 43
0.00000001
 40
0.0
 40
0.0
 40
0.0
 40
0.0
 40
0.4513556201146486
 40
0.874207559459392
 40
1.0
 40
1.0
 40
1.0
 40
1.0
 10
596.7669324081645
 20
305.1403628833733
 30
0.0
 10
597.2845197273914
 20
305.1463118086843
 30
0.0
 10
598.2870080691417
 20
305.157833977116
 30
0.0
 10
599.4457788572311
 20
305.1311847596698
 30
0.0
 10
600.0575882570166
 20
304.9765310583193
 30
0.0
 10
600.1978630877928
 20
304.941072267079
 30
0.0
  0
SPLINE
  5
27B
330
1F
100
AcDbEntity
  8
0
100
AcDbSpline
210
0.0
220
0.0
230
1.0
 70
     8
 71
     3
 72
    24
 73
    20
 74
     0
 42
0.00000001
 43
0.00000001
 40
0.0
 40
0.0
 40
0.0
 40
0.0
 40
0.0659407989639554
 40
0.1319182387600694
 40
0.1978828420092371
 40
0.263828091925218
 40
0.3298198079541463
 40
0.3957610708887634
 40
0.4561948888644018
 40
0.5166013466799689
 40
0.5770157910181605
 40
0.6374420395478537
 40
0.6978406208764626
 40
0.7572027195172957
 40
0.8165159908141344
 40
0.87588256774333
 40
0.9351948184715545
 40
0.9956371071713787
 40
1.0
 40
1.0
 40
1.0
 40
1.0
 10
596.7669324081629
 20
305.1403628833733
 30
0.0
 10
600.7644889072374
 20
305.1839767087676
 30
0.0
 10
608.7618231978034
 20
305.2712285941255
 30
0.0
 10
620.691162254917
 20
303.8064506151464
 30
0.0
 10
632.4053363246976
 20
301.1890368146844
 30
0.0
 10
643.7808030374763
 20
297.3331356516845
 30
0.0
 10
654.6871229187956
 20
292.3132378133168
 30
0.0
 10
664.7207632102869
 20
286.3456504067222
 30
0.0
 10
673.827736051782
 20
279.6053104248139
 30
0.0
 10
681.9968255255112
 20
272.2449561675473
 30
0.0
 10
689.4205467291821
 20
264.1344951287667
 30
0.0
 10
696.0305182750845
 20
255.3490063471932
 30
0.0
 10
701.732495823266
 20
246.022977772081
 30
0.0
 10
706.4924617950006
 20
236.258683224591
 30
0.0
 10
710.2803476715363
 20
226.1463665370811
 30
0.0
 10
713.1260890766781
 20
215.7252737876514
 30
0.0
 10
714.8749690494247
 20
205.0162749501687
 30
0.0
 10
715.6694557661141
 20
197.5066977507606
 30
0.0
 10
715.5731945623792
 20
193.5822251906895
 30
0.0
 10
715.5667139491699
 20
193.3180171013881
 30
0.0
  0
SPLINE
  5
27C
330
1F
100
AcDbEntity
  8
0
100
AcDbSpline
210
0.0
220
0.0
230
1.0
 70
     8
 71
     3
 72
    24
 73
    20
 74
     0
 42
0.00000001
 43
0.00000001
 40
0.0
 40
0.0
 40
0.0
 40
0.0
 40
0.032685657713309
 40
0.0954062658066592
 40
0.1581067629056654
 40
0.2208065692278114
 40
0.2824082240645287
 40
0.343976089347112
 40
0.4055888005375534
 40
0.467150175340959
 40
0.5298862131346175
 40
0.5925665447853679
 40
0.6552978645068618
 40
0.7179863530396595
 40
0.7807023602961907
 40
0.8422879347268768
 40
0.9038671970116235
 40
0.9654696589397136
 40
1.0
 40
1.0
 40
1.0
 40
1.0
 10
715.4703824585707
 20
188.8595411233094
 30
0.0
 10
715.4563390395698
 20
186.9511366307738
 30
0.0
 10
715.4153476610948
 20
181.3806889476196
 30
0.0
 10
714.1969340328451
 20
172.2067362013906
 30
0.0
 10
711.9037618341284
 20
161.461359366266
 30
0.0
 10
708.5557953401697
 20
151.0532902888966
 30
0.0
 10
704.2728411398801
 20
141.0718269165469
 30
0.0
 10
699.0935192975634
 20
131.5942764371817
 30
0.0
 10
693.046019179727
 20
122.6505220874722
 30
0.0
 10
686.1371440021926
 20
114.263587968815
 30
0.0
 10
678.41766922886
 20
106.5289281418504
 30
0.0
 10
669.9370457005155
 20
99.52712992047076
 30
0.0
 10
660.8264202777832
 20
93.37492887177189
 30
0.0
 10
651.1641493069571
 20
88.12392791984888
 30
0.0
 10
641.1043876368155
 20
83.85533852703998
 30
0.0
 10
630.7461035729159
 20
80.57059555172786
 30
0.0
 10
620.187551482199
 20
78.3395403191977
 30
0.0
 10
611.0360305042979
 20
77.14085888874038
 30
0.0
 10
605.4231368107302
 20
77.0955325341617
 30
0.0
 10
603.4070181961771
 20
77.07925157247156
 30
0.0
  0
SPLINE
  5
27D
330
1F
100
AcDbEntity
  8
0
100
AcDbSpline
210
0.0
220
0.0
230
1.0
 70
     8
 71
     3
 72
    24
 73
    20
 74
     0
 42
0.00000001
 43
0.00000001
 40
0.0
 40
0.0
 40
0.0
 40
0.0
 40
0.0043576284911327
 40
0.067073285587244
 40
0.1297363517181727
 40
0.1924553687875526
 40
0.2551200134653057
 40
0.3178317941367251
 40
0.3793872762578357
 40
0.4409661199616646
 40
0.5025361192667339
 40
0.5640980051584673
 40
0.6268039869010326
 40
0.6894716448356271
 40
0.7521890612610539
 40
0.8148517207085224
 40
0.8775699771412465
 40
0.9391170336531057
 40
1.0
 40
1.0
 40
1.0
 40
1.0
 10
599.4376234997352
 20
76.98910192321382
 30
0.0
 10
599.1833110078445
 20
76.98261738752261
 30
0.0
 10
595.2688941566386
 20
76.88280642034114
 30
0.0
 10
587.7025782637987
 20
77.66430300423922
 30
0.0
 10
576.8621682303499
 20
79.42285609215001
 30
0.0
 10
566.2527755938455
 20
82.32686960958745
 30
0.0
 10
555.9653983232762
 20
86.20774628122292
 30
0.0
 10
546.161037267799
 20
91.03648952575497
 30
0.0
 10
536.9145964475349
 20
96.74140852207195
 30
0.0
 10
528.3013775909366
 20
103.253257006941
 30
0.0
 10
520.3405634967601
 20
110.5489940849393
 30
0.0
 10
513.0593070844352
 20
118.6123331040221
 30
0.0
 10
506.540628183138
 20
127.383814745162
 30
0.0
 10
500.8589239419735
 20
136.799577523076
 30
0.0
 10
496.1111430299998
 20
146.7141801540308
 30
0.0
 10
492.3306986028053
 20
157.0431188502233
 30
0.0
 10
489.5981888935827
 20
167.619883509648
 30
0.0
 10
487.8258090793474
 20
178.3067194806932
 30
0.0
 10
487.5071529224269
 20
185.4513423461024
 30
0.0
 10
487.3486890781424
 20
189.0042766943855
 30
0.0
  0
SPLINE
  5
27E
330
1F
100
AcDbEntity
  8
0
100
AcDbSpline
210
0.0
220
0.0
230
1.0
 70
     8
 71
     3
 72
    21
 73
    17
 74
     0
 42
0.00000001
 43
0.00000001
 40
0.0
 40
0.0
 40
0.0
 40
0.0
 40
0.0452972131192543
 40
0.1191710899481948
 40
0.1943796350643344
 40
0.2695724391749191
 40
0.3448041137163038
 40
0.4199830342619515
 40
0.4952254050460775
 40
0.5690583596811174
 40
0.6429577063626005
 40
0.7167950584569839
 40
0.790685140524914
 40
0.868633743657698
 40
0.9465913288052646
 40
1.0
 40
1.0
 40
1.0
 40
1.0
 10
487.4660009445281
 20
193.2939498051251
 30
0.0
 10
487.498282333537
 20
195.4989898013663
 30
0.0
 10
487.5832104791851
 20
201.3001639053803
 30
0.0
 10
488.8728308538013
 20
210.6959955708719
 30
0.0
 10
491.2217465724725
 20
221.3631298007032
 30
0.0
 10
494.6496943665539
 20
231.8139997495982
 30
0.0
 10
499.0528484066831
 20
241.8863923294076
 30
0.0
 10
504.4081558673299
 20
251.4919801051177
 30
0.0
 10
510.6210877617756
 20
260.4816754792016
 30
0.0
 10
517.622304406575
 20
268.7916893490652
 30
0.0
 10
525.3262421252912
 20
276.35584789735
 30
0.0
 10
533.7135041890936
 20
283.159232407886
 30
0.0
 10
542.8656512581678
 20
289.2598953656179
 30
0.0
 10
552.7567747906422
 20
294.4998010320615
 30
0.0
 10
562.1598270562488
 20
298.4902157038088
 30
0.0
 10
568.3185389375534
 20
300.2162508404248
 30
0.0
 10
570.8224438748655
 20
300.9179930202573
 30
0.0
  0
SPLINE
  5
27F
330
1F
100
AcDbEntity
  8
0
100
AcDbSpline
210
0.0
220
0.0
230
1.0
 70
     8
 71
     3
 72
    10
 73
     6
 74
     0
 42
0.00000001
 43
0.00000001
 40
0.0
 40
0.0
 40
0.0
 40
0.0
 40
0.3883938417727377
 40
0.6938958927939143
 40
1.0
 40
1.0
 40
1.0
 40
1.0
 10
570.6109587906083
 20
300.9099927473895
 30
0.0
 10
570.7347407876227
 20
300.9635483934736
 30
0.0
 10
570.9558869802042
 20
301.0592297325084
 30
0.0
 10
571.2853142920648
 20
301.169548421417
 30
0.0
 10
571.4894845982449
 20
301.2276673554712
 30
0.0
 10
571.5916702424713
 20
301.256755428214
 30
0.0
  0
SPLINE
  5
280
330
1F
100
AcDbEntity
  8
0
100
AcDbSpline
210
0.0
220
0.0
230
1.0
 70
     8
 71
     3
 72
    10
 73
     6
 74
     0
 42
0.00000001
 43
0.00000001
 40
0.0
 40
0.0
 40
0.0
 40
0.0
 40
0.3405957030413487
 40
0.6694009545405216
 40
1.0
 40
1.0
 40
1.0
 40
1.0
 10
571.5916702424713
 20
301.256755428214
 30
0.0
 10
574.4054462750412
 20
301.951582806932
 30
0.0
 10
579.935593441451
 20
303.3171846228136
 30
0.0
 10
588.3596991773071
 20
304.6064457859862
 30
0.0
 10
593.9594436230379
 20
304.9620680482068
 30
0.0
 10
596.7669324081645
 20
305.1403628833733
 30
0.0
  0
INSERT
  5
28C
330
1F
100
AcDbEntity
  8
0
  6
Continuous
 62
     7
370
    18
100
AcDbBlockReference
  2
SW_CENTERMARKSYMBOL_0
 10
601.4738796318
 20
191.0874490765
 30
0.0
  0
ENDSEC
  0
SECTION
  2
OBJECTS
  0
DICTIONARY
  5
C
330
0
100
AcDbDictionary
281
     1
  3
ACAD_GROUP
350
D
  3
ACAD_LAYOUT
350
1A
  3
ACAD_MLINESTYLE
350
17
  3
ACAD_PLOTSETTINGS
350
19
  3
ACAD_PLOTSTYLENAME
350
E
  3
ACAD_SCALELIST
350
47
  3
DWGPROPS
350
28D
  0
DICTIONARY
  5
D
102
{ACAD_REACTORS
330
C
102
}
330
C
100
AcDbDictionary
281
     1
  0
DICTIONARY
  5
1A
102
{ACAD_REACTORS
330
C
102
}
330
C
100
AcDbDictionary
281
     1
  3
Layout1
350
1E
  3
Layout2
350
26
  3
Model
350
22
  0
DICTIONARY
  5
17
102
{ACAD_REACTORS
330
C
102
}
330
C
100
AcDbDictionary
281
     1
  3
Standard
350
18
  0
DICTIONARY
  5
19
102
{ACAD_REACTORS
330
C
102
}
330
C
100
AcDbDictionary
281
     1
  0
ACDBDICTIONARYWDFLT
  5
E
102
{ACAD_REACTORS
330
C
102
}
330
C
100
AcDbDictionary
281
     1
  3
Normal
350
F
100
AcDbDictionaryWithDefault
340
F
  0
DICTIONARY
  5
47
102
{ACAD_REACTORS
330
C
102
}
330
C
100
AcDbDictionary
281
     1
  3
A0
350
48
  3
A1
350
49
  3
A2
350
4A
  3
A3
350
4B
  3
A4
350
4C
  3
A5
350
4D
  3
A6
350
4E
  3
A7
350
4F
  3
A8
350
50
  3
A9
350
51
  3
B0
350
52
  3
B1
350
53
  3
B2
350
54
  3
B3
350
55
  3
B4
350
56
  3
B5
350
57
  3
B6
350
58
  3
B7
350
59
  3
B8
350
5A
  3
B9
350
5B
  3
C0
350
5C
  3
C1
350
5D
  3
C2
350
5E
  3
C3
350
5F
  3
C4
350
60
  3
C5
350
61
  3
C6
350
62
  3
C7
350
63
  3
C8
350
64
  3
C9
350
65
  3
D0
350
66
  3
D1
350
67
  3
D2
350
68
  0
XRECORD
  5
28D
102
{ACAD_REACTORS
330
C
102
}
330
C
100
AcDbXrecord
280
     1
  1
DWGPROPS COOKIE
  2

  3

  4

  6

  7

  8
Emilis.Masalas
  9

300
=
301
=
302
=
303
=
304
=
305
=
306
=
307
=
308
=
309
=
 40
0.0
 41
2459179.585830313
 42
2459179.585831076
  1

 90
        0
  0
LAYOUT
  5
1E
102
{ACAD_REACTORS
330
1A
102
}
330
1A
100
AcDbPlotSettings
  1

  2
none_device
  4

  6

 40
0.0
 41
0.0
 42
0.0
 43
0.0
 44
0.0
 45
0.0
 46
0.0
 47
0.0
 48
0.0
 49
0.0
140
0.0
141
0.0
142
1.0
143
1.0
 70
   688
 72
     1
 73
     0
 74
     5
  7

 75
    16
147
1.0
148
0.0
149
0.0
100
AcDbLayout
  1
Layout1
 70
     1
 71
     1
 10
0.0
 20
0.0
 11
420.0
 21
297.0
 12
0.0
 22
0.0
 32
0.0
 14
1.0000000000E+20
 24
1.0000000000E+20
 34
1.0000000000E+20
 15
-1.0000000000E+20
 25
-1.0000000000E+20
 35
-1.0000000000E+20
146
0.0
 13
0.0
 23
0.0
 33
0.0
 16
1.0
 26
0.0
 36
0.0
 17
0.0
 27
1.0
 37
0.0
 76
     0
330
1B
  0
LAYOUT
  5
26
102
{ACAD_REACTORS
330
1A
102
}
330
1A
100
AcDbPlotSettings
  1

  2
none_device
  4

  6

 40
0.0
 41
0.0
 42
0.0
 43
0.0
 44
0.0
 45
0.0
 46
0.0
 47
0.0
 48
0.0
 49
0.0
140
0.0
141
0.0
142
1.0
143
1.0
 70
   688
 72
     1
 73
     0
 74
     5
  7

 75
    16
147
1.0
148
0.0
149
0.0
100
AcDbLayout
  1
Layout2
 70
     1
 71
     2
 10
0.0
 20
0.0
 11
0.0
 21
0.0
 12
0.0
 22
0.0
 32
0.0
 14
0.0
 24
0.0
 34
0.0
 15
0.0
 25
0.0
 35
0.0
146
0.0
 13
0.0
 23
0.0
 33
0.0
 16
1.0
 26
0.0
 36
0.0
 17
0.0
 27
1.0
 37
0.0
 76
     0
330
23
  0
LAYOUT
  5
22
102
{ACAD_REACTORS
330
1A
102
}
330
1A
100
AcDbPlotSettings
  1

  2
none_device
  4
Letter_(8.50_x_11.00_Inches)
  6

 40
6.35
 41
6.35
 42
6.35000508
 43
6.35000508
 44
215.9
 45
279.4
 46
0.0
 47
0.0
 48
0.0
 49
0.0
140
0.0
141
0.0
142
1.0
143
1.0
 70
  1712
 72
     1
 73
     0
 74
     0
  7

 75
     0
147
1.0
148
0.0
149
0.0
100
AcDbLayout
  1
Model
 70
     1
 71
     0
 10
0.0
 20
0.0
 11
420.0
 21
297.0
 12
0.0
 22
0.0
 32
0.0
 14
0.0
 24
0.0
 34
0.0
 15
420.0
 25
297.0
 35
0.0
146
0.0
 13
0.0
 23
0.0
 33
0.0
 16
1.0
 26
0.0
 36
0.0
 17
0.0
 27
1.0
 37
0.0
 76
     0
330
1F
331
29
  0
MLINESTYLE
  5
18
102
{ACAD_REACTORS
330
17
102
}
330
17
100
AcDbMlineStyle
  2
Standard
 70
     0
  3

 62
   256
 51
90.0
 52
90.0
 71
     2
 49
0.5
 62
   256
  6
BYLAYER
 49
-0.5
 62
   256
  6
BYLAYER
  0
ACDBPLACEHOLDER
  5
F
102
{ACAD_REACTORS
330
E
102
}
330
E
  0
SCALE
  5
48
102
{ACAD_REACTORS
330
47
102
}
330
47
100
AcDbScale
 70
     0
300
1:1
140
1.0
141
1.0
290
     1
  0
SCALE
  5
49
102
{ACAD_REACTORS
330
47
102
}
330
47
100
AcDbScale
 70
     0
300
1:2
140
1.0
141
2.0
290
     0
  0
SCALE
  5
4A
102
{ACAD_REACTORS
330
47
102
}
330
47
100
AcDbScale
 70
     0
300
1:4
140
1.0
141
4.0
290
     0
  0
SCALE
  5
4B
102
{ACAD_REACTORS
330
47
102
}
330
47
100
AcDbScale
 70
     0
300
1:5
140
1.0
141
5.0
290
     0
  0
SCALE
  5
4C
102
{ACAD_REACTORS
330
47
102
}
330
47
100
AcDbScale
 70
     0
300
1:8
140
1.0
141
8.0
290
     0
  0
SCALE
  5
4D
102
{ACAD_REACTORS
330
47
102
}
330
47
100
AcDbScale
 70
     0
300
1:10
140
1.0
141
10.0
290
     0
  0
SCALE
  5
4E
102
{ACAD_REACTORS
330
47
102
}
330
47
100
AcDbScale
 70
     0
300
1:16
140
1.0
141
16.0
290
     0
  0
SCALE
  5
4F
102
{ACAD_REACTORS
330
47
102
}
330
47
100
AcDbScale
 70
     0
300
1:20
140
1.0
141
20.0
290
     0
  0
SCALE
  5
50
102
{ACAD_REACTORS
330
47
102
}
330
47
100
AcDbScale
 70
     0
300
1:30
140
1.0
141
30.0
290
     0
  0
SCALE
  5
51
102
{ACAD_REACTORS
330
47
102
}
330
47
100
AcDbScale
 70
     0
300
1:40
140
1.0
141
40.0
290
     0
  0
SCALE
  5
52
102
{ACAD_REACTORS
330
47
102
}
330
47
100
AcDbScale
 70
     0
300
1:50
140
1.0
141
50.0
290
     0
  0
SCALE
  5
53
102
{ACAD_REACTORS
330
47
102
}
330
47
100
AcDbScale
 70
     0
300
1:100
140
1.0
141
100.0
290
     0
  0
SCALE
  5
54
102
{ACAD_REACTORS
330
47
102
}
330
47
100
AcDbScale
 70
     0
300
2:1
140
2.0
141
1.0
290
     0
  0
SCALE
  5
55
102
{ACAD_REACTORS
330
47
102
}
330
47
100
AcDbScale
 70
     0
300
4:1
140
4.0
141
1.0
290
     0
  0
SCALE
  5
56
102
{ACAD_REACTORS
330
47
102
}
330
47
100
AcDbScale
 70
     0
300
8:1
140
8.0
141
1.0
290
     0
  0
SCALE
  5
57
102
{ACAD_REACTORS
330
47
102
}
330
47
100
AcDbScale
 70
     0
300
10:1
140
10.0
141
1.0
290
     0
  0
SCALE
  5
58
102
{ACAD_REACTORS
330
47
102
}
330
47
100
AcDbScale
 70
     0
300
100:1
140
100.0
141
1.0
290
     0
  0
SCALE
  5
59
102
{ACAD_REACTORS
330
47
102
}
330
47
100
AcDbScale
 70
     0
300
1/128" = 1'-0"
140
0.0078125
141
12.0
290
     0
  0
SCALE
  5
5A
102
{ACAD_REACTORS
330
47
102
}
330
47
100
AcDbScale
 70
     0
300
1/64" = 1'-0"
140
0.015625
141
12.0
290
     0
  0
SCALE
  5
5B
102
{ACAD_REACTORS
330
47
102
}
330
47
100
AcDbScale
 70
     0
300
1/32" = 1'-0"
140
0.03125
141
12.0
290
     0
  0
SCALE
  5
5C
102
{ACAD_REACTORS
330
47
102
}
330
47
100
AcDbScale
 70
     0
300
1/16" = 1'-0"
140
0.0625
141
12.0
290
     0
  0
SCALE
  5
5D
102
{ACAD_REACTORS
330
47
102
}
330
47
100
AcDbScale
 70
     0
300
3/32" = 1'-0"
140
0.09375
141
12.0
290
     0
  0
SCALE
  5
5E
102
{ACAD_REACTORS
330
47
102
}
330
47
100
AcDbScale
 70
     0
300
1/8" = 1'-0"
140
0.125
141
12.0
290
     0
  0
SCALE
  5
5F
102
{ACAD_REACTORS
330
47
102
}
330
47
100
AcDbScale
 70
     0
300
3/16" = 1'-0"
140
0.1875
141
12.0
290
     0
  0
SCALE
  5
60
102
{ACAD_REACTORS
330
47
102
}
330
47
100
AcDbScale
 70
     0
300
1/4" = 1'-0"
140
0.25
141
12.0
290
     0
  0
SCALE
  5
61
102
{ACAD_REACTORS
330
47
102
}
330
47
100
AcDbScale
 70
     0
300
3/8" = 1'-0"
140
0.375
141
12.0
290
     0
  0
SCALE
  5
62
102
{ACAD_REACTORS
330
47
102
}
330
47
100
AcDbScale
 70
     0
300
1/2" = 1'-0"
140
0.5
141
12.0
290
     0
  0
SCALE
  5
63
102
{ACAD_REACTORS
330
47
102
}
330
47
100
AcDbScale
 70
     0
300
3/4" = 1'-0"
140
0.75
141
12.0
290
     0
  0
SCALE
  5
64
102
{ACAD_REACTORS
330
47
102
}
330
47
100
AcDbScale
 70
     0
300
1" = 1'-0"
140
1.0
141
12.0
290
     0
  0
SCALE
  5
65
102
{ACAD_REACTORS
330
47
102
}
330
47
100
AcDbScale
 70
     0
300
1-1/2" = 1'-0"
140
1.5
141
12.0
290
     0
  0
SCALE
  5
66
102
{ACAD_REACTORS
330
47
102
}
330
47
100
AcDbScale
 70
     0
300
3" = 1'-0"
140
3.0
141
12.0
290
     0
  0
SCALE
  5
67
102
{ACAD_REACTORS
330
47
102
}
330
47
100
AcDbScale
 70
     0
300
6" = 1'-0"
140
6.0
141
12.0
290
     0
  0
SCALE
  5
68
102
{ACAD_REACTORS
330
47
102
}
330
47
100
AcDbScale
 70
     0
300
1'-0" = 1'-0"
140
12.0
141
12.0
290
     0
  0
ENDSEC
  0
EOF
