  0
SECTION
  2
HEADER
  9
$ACADVER
  1
AC1015
  9
$ACADMAINTVER
 70
     6
  9
$DWGCODEPAGE
  3
ANSI_1257
  9
$INSBASE
 10
0.0
 20
0.0
 30
0.0
  9
$EXTMIN
 10
0.0
 20
0.0
 30
0.0
  9
$EXTMAX
 10
420.0
 20
297.0
 30
0.0
  9
$LIMMIN
 10
0.0
 20
0.0
  9
$LIMMAX
 10
420.0
 20
297.0
  9
$ORTHOMODE
 70
     0
  9
$REGENMODE
 70
     1
  9
$FILLMODE
 70
     1
  9
$QTEXTMODE
 70
     0
  9
$MIRRTEXT
 70
     1
  9
$LTSCALE
 40
1.0
  9
$ATTMODE
 70
     1
  9
$TEXTSIZE
 40
5.6444444444
  9
$TRACEWID
 40
1.0
  9
$TEXTSTYLE
  7
Standard
  9
$CLAYER
  8
0
  9
$CELTYPE
  6
ByLayer
  9
$CECOLOR
 62
   256
  9
$CELTSCALE
 40
1.0
  9
$DISPSILH
 70
     0
  9
$DIMSCALE
 40
1.0
  9
$DIMASZ
 40
3.175
  9
$DIMEXO
 40
1.0
  9
$DIMDLI
 40
3.75
  9
$DIMRND
 40
0.0
  9
$DIMDLE
 40
0.0
  9
$DIMEXE
 40
1.0
  9
$DIMTP
 40
0.0
  9
$DIMTM
 40
0.0
  9
$DIMTXT
 40
4.9388888889
  9
$DIMCEN
 40
2.5
  9
$DIMTSZ
 40
0.0
  9
$DIMTOL
 70
     0
  9
$DIMLIM
 70
     0
  9
$DIMTIH
 70
     1
  9
$DIMTOH
 70
     1
  9
$DIMSE1
 70
     0
  9
$DIMSE2
 70
     0
  9
$DIMTAD
 70
     1
  9
$DIMZIN
 70
     0
  9
$DIMBLK
  1

  9
$DIMASO
 70
     1
  9
$DIMSHO
 70
     1
  9
$DIMPOST
  1

  9
$DIMAPOST
  1

  9
$DIMALT
 70
     0
  9
$DIMALTD
 70
     3
  9
$DIMALTF
 40
0.0393700787
  9
$DIMLFAC
 40
1.0
  9
$DIMTOFL
 70
     1
  9
$DIMTVP
 40
0.0
  9
$DIMTIX
 70
     0
  9
$DIMSOXD
 70
     0
  9
$DIMSAH
 70
     0
  9
$DIMBLK1
  1

  9
$DIMBLK2
  1

  9
$DIMSTYLE
  2
ISO-25
  9
$DIMCLRD
 70
     0
  9
$DIMCLRE
 70
     0
  9
$DIMCLRT
 70
     0
  9
$DIMTFAC
 40
1.0
  9
$DIMGAP
 40
1.524
  9
$DIMJUST
 70
     0
  9
$DIMSD1
 70
     0
  9
$DIMSD2
 70
     0
  9
$DIMTOLJ
 70
     0
  9
$DIMTZIN
 70
     0
  9
$DIMALTZ
 70
     0
  9
$DIMALTTZ
 70
     0
  9
$DIMUPT
 70
     0
  9
$DIMDEC
 70
     1
  9
$DIMTDEC
 70
     1
  9
$DIMALTU
 70
     2
  9
$DIMALTTD
 70
     3
  9
$DIMTXSTY
  7
Standard
  9
$DIMAUNIT
 70
     0
  9
$DIMADEC
 70
     1
  9
$DIMALTRND
 40
0.0
  9
$DIMAZIN
 70
     0
  9
$DIMDSEP
 70
    44
  9
$DIMATFIT
 70
     3
  9
$DIMFRAC
 70
     0
  9
$DIMLDRBLK
  1

  9
$DIMLUNIT
 70
     2
  9
$DIMLWD
 70
    -2
  9
$DIMLWE
 70
    -2
  9
$DIMTMOVE
 70
     0
  9
$LUNITS
 70
     2
  9
$LUPREC
 70
     1
  9
$SKETCHINC
 40
1.0
  9
$FILLETRAD
 40
10.0
  9
$AUNITS
 70
     0
  9
$AUPREC
 70
     1
  9
$MENU
  1
.
  9
$ELEVATION
 40
0.0
  9
$PELEVATION
 40
0.0
  9
$THICKNESS
 40
0.0
  9
$LIMCHECK
 70
     0
  9
$CHAMFERA
 40
0.0
  9
$CHAMFERB
 40
0.0
  9
$CHAMFERC
 40
0.0
  9
$CHAMFERD
 40
0.0
  9
$SKPOLY
 70
     0
  9
$TDCREATE
 40
2459179.674068576
  9
$TDUCREATE
 40
2459179.590735243
  9
$TDUPDATE
 40
2459179.674069607
  9
$TDUUPDATE
 40
2459179.590736273
  9
$TDINDWG
 40
0.0000000116
  9
$TDUSRTIMER
 40
0.0000000116
  9
$USRTIMER
 70
     1
  9
$ANGBASE
 50
0.0
  9
$ANGDIR
 70
     0
  9
$PDMODE
 70
     0
  9
$PDSIZE
 40
-1.0
  9
$PLINEWID
 40
0.0
  9
$SPLFRAME
 70
     0
  9
$SPLINETYPE
 70
     6
  9
$SPLINESEGS
 70
     8
  9
$HANDSEED
  5
30E
  9
$SURFTAB1
 70
     6
  9
$SURFTAB2
 70
     6
  9
$SURFTYPE
 70
     6
  9
$SURFU
 70
     6
  9
$SURFV
 70
     6
  9
$UCSBASE
  2

  9
$UCSNAME
  2

  9
$UCSORG
 10
0.0
 20
0.0
 30
0.0
  9
$UCSXDIR
 10
1.0
 20
0.0
 30
0.0
  9
$UCSYDIR
 10
0.0
 20
1.0
 30
0.0
  9
$UCSORTHOREF
  2

  9
$UCSORTHOVIEW
 70
     0
  9
$UCSORGTOP
 10
0.0
 20
0.0
 30
0.0
  9
$UCSORGBOTTOM
 10
0.0
 20
0.0
 30
0.0
  9
$UCSORGLEFT
 10
0.0
 20
0.0
 30
0.0
  9
$UCSORGRIGHT
 10
0.0
 20
0.0
 30
0.0
  9
$UCSORGFRONT
 10
0.0
 20
0.0
 30
0.0
  9
$UCSORGBACK
 10
0.0
 20
0.0
 30
0.0
  9
$PUCSBASE
  2

  9
$PUCSNAME
  2

  9
$PUCSORG
 10
0.0
 20
0.0
 30
0.0
  9
$PUCSXDIR
 10
1.0
 20
0.0
 30
0.0
  9
$PUCSYDIR
 10
0.0
 20
1.0
 30
0.0
  9
$PUCSORTHOREF
  2

  9
$PUCSORTHOVIEW
 70
     0
  9
$PUCSORGTOP
 10
0.0
 20
0.0
 30
0.0
  9
$PUCSORGBOTTOM
 10
0.0
 20
0.0
 30
0.0
  9
$PUCSORGLEFT
 10
0.0
 20
0.0
 30
0.0
  9
$PUCSORGRIGHT
 10
0.0
 20
0.0
 30
0.0
  9
$PUCSORGFRONT
 10
0.0
 20
0.0
 30
0.0
  9
$PUCSORGBACK
 10
0.0
 20
0.0
 30
0.0
  9
$USERI1
 70
     0
  9
$USERI2
 70
     0
  9
$USERI3
 70
     0
  9
$USERI4
 70
     0
  9
$USERI5
 70
     0
  9
$USERR1
 40
0.0
  9
$USERR2
 40
0.0
  9
$USERR3
 40
0.0
  9
$USERR4
 40
0.0
  9
$USERR5
 40
0.0
  9
$WORLDVIEW
 70
     1
  9
$SHADEDGE
 70
     3
  9
$SHADEDIF
 70
    70
  9
$TILEMODE
 70
     1
  9
$MAXACTVP
 70
    64
  9
$PINSBASE
 10
0.0
 20
0.0
 30
0.0
  9
$PLIMCHECK
 70
     0
  9
$PEXTMIN
 10
1.0000000000E+20
 20
1.0000000000E+20
 30
1.0000000000E+20
  9
$PEXTMAX
 10
-1.0000000000E+20
 20
-1.0000000000E+20
 30
-1.0000000000E+20
  9
$PLIMMIN
 10
0.0
 20
0.0
  9
$PLIMMAX
 10
420.0
 20
297.0
  9
$UNITMODE
 70
     0
  9
$VISRETAIN
 70
     1
  9
$PLINEGEN
 70
     0
  9
$PSLTSCALE
 70
     1
  9
$TREEDEPTH
 70
  3020
  9
$CMLSTYLE
  2
Standard
  9
$CMLJUST
 70
     0
  9
$CMLSCALE
 40
20.0
  9
$PROXYGRAPHICS
 70
     1
  9
$MEASUREMENT
 70
     1
  9
$CELWEIGHT
370
    -1
  9
$ENDCAPS
280
     0
  9
$JOINSTYLE
280
     0
  9
$LWDISPLAY
290
     1
  9
$INSUNITS
 70
     4
  9
$HYPERLINKBASE
  1

  9
$STYLESHEET
  1

  9
$XEDIT
290
     1
  9
$CEPSNTYPE
380
     0
  9
$PSTYLEMODE
290
     1
  9
$FINGERPRINTGUID
  2
{d17f6985-8584-4124-9674-ea7851ec724f}
  9
$VERSIONGUID
  2
{FAEB1C32-E019-11D5-929B-00C0DF256EC4}
  9
$EXTNAMES
290
     1
  9
$PSVPSCALE
 40
0.0
  9
$OLESTARTUP
290
     0
  0
ENDSEC
  0
SECTION
  2
CLASSES
  0
CLASS
  1
ACDBDICTIONARYWDFLT
  2
AcDbDictionaryWithDefault
  3
ObjectDBX Classes
 90
        0
280
     0
281
     0
  0
CLASS
  1
VISUALSTYLE
  2
AcDbVisualStyle
  3
ObjectDBX Classes
 90
     4095
280
     0
281
     0
  0
CLASS
  1
MATERIAL
  2
AcDbMaterial
  3
ObjectDBX Classes
 90
     1153
280
     0
281
     0
  0
CLASS
  1
SCALE
  2
AcDbScale
  3
ObjectDBX Classes
 90
     1153
280
     0
281
     0
  0
CLASS
  1
TABLESTYLE
  2
AcDbTableStyle
  3
ObjectDBX Classes
 90
     4095
280
     0
281
     0
  0
CLASS
  1
MLEADERSTYLE
  2
AcDbMLeaderStyle
  3
ACDB_MLEADERSTYLE_CLASS
 90
     4095
280
     0
281
     0
  0
CLASS
  1
SUN
  2
AcDbSun
  3
SCENEOE
 90
     1153
280
     0
281
     0
  0
CLASS
  1
ACDBPLACEHOLDER
  2
AcDbPlaceHolder
  3
ObjectDBX Classes
 90
        0
280
     0
281
     0
  0
CLASS
  1
LAYOUT
  2
AcDbLayout
  3
ObjectDBX Classes
 90
        0
280
     0
281
     0
  0
ENDSEC
  0
SECTION
  2
TABLES
  0
TABLE
  2
VPORT
  5
8
330
0
100
AcDbSymbolTable
 70
     1
  0
VPORT
  5
29
330
8
100
AcDbSymbolTableRecord
100
AcDbViewportTableRecord
  2
*Active
 70
     0
 10
0.0
 20
0.0
 11
1.0
 21
1.0
 12
210.0
 22
148.5
 13
0.0
 23
0.0
 14
10.0
 24
10.0
 15
10.0
 25
10.0
 16
0.0
 26
0.0
 36
1.0
 17
0.0
 27
0.0
 37
0.0
 40
297.0
 41
1.4141414141
 42
50.0
 43
0.0
 44
0.0
 50
0.0
 51
0.0
 71
     0
 72
  2000
 73
     1
 74
     3
 75
     0
 76
     0
 77
     0
 78
     0
281
     0
 65
     1
110
0.0
120
0.0
130
0.0
111
1.0
121
0.0
131
0.0
112
0.0
122
1.0
132
0.0
 79
     0
146
0.0
  0
ENDTAB
  0
TABLE
  2
LTYPE
  5
5
330
0
100
AcDbSymbolTable
 70
     6
  0
LTYPE
  5
14
330
5
100
AcDbSymbolTableRecord
100
AcDbLinetypeTableRecord
  2
ByBlock
 70
     0
  3

 72
    65
 73
     0
 40
0.0
  0
LTYPE
  5
15
330
5
100
AcDbSymbolTableRecord
100
AcDbLinetypeTableRecord
  2
ByLayer
 70
     0
  3

 72
    65
 73
     0
 40
0.0
  0
LTYPE
  5
16
330
5
100
AcDbSymbolTableRecord
100
AcDbLinetypeTableRecord
  2
Continuous
 70
     0
  3
Solid line
 72
    65
 73
     0
 40
0.0
  0
LTYPE
  5
6E
330
5
100
AcDbSymbolTableRecord
100
AcDbLinetypeTableRecord
  2
HIDDEN
 70
     0
  3
Hidden __ __ __ __ __ __ __ __ __ __ __ __ __ __
 72
    65
 73
     2
 40
1.905
 49
1.27
 74
     0
 49
-0.635
 74
     0
  0
LTYPE
  5
6F
330
5
100
AcDbSymbolTableRecord
100
AcDbLinetypeTableRecord
  2
PHANTOM
 70
     0
  3
Phantom ______  __  __  ______  __  __  ______
 72
    65
 73
     6
 40
12.7
 49
6.35
 74
     0
 49
-1.27
 74
     0
 49
1.27
 74
     0
 49
-1.27
 74
     0
 49
1.27
 74
     0
 49
-1.27
 74
     0
  0
LTYPE
  5
70
330
5
100
AcDbSymbolTableRecord
100
AcDbLinetypeTableRecord
  2
CENTER
 70
     0
  3
Center ____ _ ____ _ ____ _ ____ _ ____ _ ____
 72
    65
 73
     4
 40
10.16
 49
6.35
 74
     0
 49
-1.27
 74
     0
 49
1.27
 74
     0
 49
-1.27
 74
     0
  0
LTYPE
  5
71
330
5
100
AcDbSymbolTableRecord
100
AcDbLinetypeTableRecord
  2
CENTERX2
 70
     0
  3
Center (2x) ________  __  ________  __  _____
 72
    65
 73
     4
 40
20.32
 49
12.7
 74
     0
 49
-2.54
 74
     0
 49
2.54
 74
     0
 49
-2.54
 74
     0
  0
LTYPE
  5
72
330
5
100
AcDbSymbolTableRecord
100
AcDbLinetypeTableRecord
  2
DOT2
 70
     0
  3
Dot (.5x) ........................................
 72
    65
 73
     2
 40
0.635
 49
0.0
 74
     0
 49
-0.635
 74
     0
  0
ENDTAB
  0
TABLE
  2
LAYER
  5
2
330
0
100
AcDbSymbolTable
 70
     2
  0
LAYER
  5
10
330
2
100
AcDbSymbolTableRecord
100
AcDbLayerTableRecord
  2
0
 70
     0
 62
     7
  6
Continuous
370
    -3
390
F
  0
LAYER
  5
73
330
2
100
AcDbSymbolTableRecord
100
AcDbLayerTableRecord
  2
LENKIMO
 70
     0
 62
     1
  6
CENTERX2
370
    -3
390
F
  0
ENDTAB
  0
TABLE
  2
STYLE
  5
3
330
0
100
AcDbSymbolTable
 70
     1
  0
STYLE
  5
11
330
3
100
AcDbSymbolTableRecord
100
AcDbTextStyleTableRecord
  2
Standard
 70
     0
 40
0.0
 41
1.0
 50
0.0
 71
     0
 42
5.6444444444
  3
txt
  4

  0
ENDTAB
  0
TABLE
  2
VIEW
  5
6
330
0
100
AcDbSymbolTable
 70
     0
  0
ENDTAB
  0
TABLE
  2
UCS
  5
7
330
0
100
AcDbSymbolTable
 70
     0
  0
ENDTAB
  0
TABLE
  2
APPID
  5
9
330
0
100
AcDbSymbolTable
 70
     1
  0
APPID
  5
12
330
9
100
AcDbSymbolTableRecord
100
AcDbRegAppTableRecord
  2
ACAD
 70
     0
  0
ENDTAB
  0
TABLE
  2
DIMSTYLE
  5
A
330
0
100
AcDbSymbolTable
 70
     1
100
AcDbDimStyleTable
  0
DIMSTYLE
105
27
330
A
100
AcDbSymbolTableRecord
100
AcDbDimStyleTableRecord
  2
ISO-25
 70
     0
 41
2.5
 42
0.625
 43
3.75
 44
1.25
 73
     0
 74
     0
 77
     1
 78
     8
140
2.5
141
2.5
143
0.0393700787
147
0.625
171
     3
172
     1
178
     0
271
     2
272
     2
274
     3
278
    44
283
     0
284
     8
340
11
  0
ENDTAB
  0
TABLE
  2
BLOCK_RECORD
  5
1
330
0
100
AcDbSymbolTable
 70
     3
  0
BLOCK_RECORD
  5
1F
330
1
100
AcDbSymbolTableRecord
100
AcDbBlockTableRecord
  2
*Model_Space
340
22
  0
BLOCK_RECORD
  5
1B
330
1
100
AcDbSymbolTableRecord
100
AcDbBlockTableRecord
  2
*Paper_Space
340
1E
  0
BLOCK_RECORD
  5
23
330
1
100
AcDbSymbolTableRecord
100
AcDbBlockTableRecord
  2
*Paper_Space0
340
26
  0
BLOCK_RECORD
  5
74
330
1
100
AcDbSymbolTableRecord
100
AcDbBlockTableRecord
  2
Block11_2
340
0
  0
BLOCK_RECORD
  5
301
330
1
100
AcDbSymbolTableRecord
100
AcDbBlockTableRecord
  2
SW_CENTERMARKSYMBOL_0
340
0
102
{BLKREFS
331
30C
102
}
  0
ENDTAB
  0
ENDSEC
  0
SECTION
  2
BLOCKS
  0
BLOCK
  5
20
330
1F
100
AcDbEntity
  8
0
100
AcDbBlockBegin
  2
*Model_Space
 70
     0
 10
0.0
 20
0.0
 30
0.0
  3
*Model_Space
  1

  0
ENDBLK
  5
21
330
1F
100
AcDbEntity
  8
0
100
AcDbBlockEnd
  0
BLOCK
  5
1C
330
1B
100
AcDbEntity
 67
     1
  8
0
100
AcDbBlockBegin
  2
*Paper_Space
 70
     0
 10
0.0
 20
0.0
 30
0.0
  3
*Paper_Space
  1

  0
ENDBLK
  5
1D
330
1B
100
AcDbEntity
 67
     1
  8
0
100
AcDbBlockEnd
  0
BLOCK
  5
24
330
23
100
AcDbEntity
  8
0
100
AcDbBlockBegin
  2
*Paper_Space0
 70
     0
 10
0.0
 20
0.0
 30
0.0
  3
*Paper_Space0
  1

  0
ENDBLK
  5
25
330
23
100
AcDbEntity
  8
0
100
AcDbBlockEnd
  0
BLOCK
  5
75
330
74
100
AcDbEntity
  8
0
100
AcDbBlockBegin
  2
Block11_2
 70
     0
 10
0.0
 20
0.0
 30
0.0
  3
Block11_2
  1

  0
LINE
  5
77
330
74
100
AcDbEntity
  8
0
  6
Continuous
100
AcDbLine
 10
-15.7956326374
 20
2.3055746011
 30
0.0
 11
-18.0649288667
 21
1.8146036087
 31
0.0
  0
LINE
  5
78
330
74
100
AcDbEntity
  8
0
  6
Continuous
100
AcDbLine
 10
-15.6988785554
 20
-9.1195335787
 30
0.0
 11
-10.2261014967
 21
-7.9354771524
 31
0.0
  0
LINE
  5
79
330
74
100
AcDbEntity
  8
0
  6
Continuous
100
AcDbLine
 10
-10.2261014967
 20
-7.9354771524
 30
0.0
 11
-10.6655808869
 21
-5.9041780766
 31
0.0
  0
LINE
  5
7A
330
74
100
AcDbEntity
  8
0
  6
Continuous
100
AcDbLine
 10
-10.6655808869
 20
-5.9041780766
 30
0.0
 11
-13.8699456036
 21
-6.5974547429
 31
0.0
  0
LINE
  5
7B
330
74
100
AcDbEntity
  8
0
  6
Continuous
100
AcDbLine
 10
-8.296070931
 20
1.802048972
 30
0.0
 11
-6.9198111955
 21
2.0998080743
 31
0.0
  0
LINE
  5
7C
330
74
100
AcDbEntity
  8
0
  6
Continuous
100
AcDbLine
 10
-5.4333831358
 20
-4.7719736412
 30
0.0
 11
-6.8095376466
 21
-5.0697099777
 31
0.0
  0
LINE
  5
7D
330
74
100
AcDbEntity
  8
0
  6
Continuous
100
AcDbLine
 10
-11.0044904538
 20
3.3421566929
 30
0.0
 11
-8.6388294738
 21
-7.5920647278
 31
0.0
  0
LINE
  5
7E
330
74
100
AcDbEntity
  8
0
  6
Continuous
100
AcDbLine
 10
-8.6388294738
 20
-7.5920647278
 30
0.0
 11
-8.6384401425
 21
-7.5919804944
 31
0.0
  0
LINE
  5
7F
330
74
100
AcDbEntity
  8
0
  6
Continuous
100
AcDbLine
 10
-8.6384401425
 20
-7.5919804944
 30
0.0
 11
-4.4940245505
 21
-6.6953201952
 31
0.0
  0
LINE
  5
80
330
74
100
AcDbEntity
  8
0
  6
Continuous
100
AcDbLine
 10
-6.8595855671
 20
4.238922853
 30
0.0
 11
-11.0044904538
 21
3.3421566929
 31
0.0
  0
LINE
  5
81
330
74
100
AcDbEntity
  8
0
  6
Continuous
100
AcDbLine
 10
-32.9933593229
 20
-3.3005605139
 30
0.0
 11
-32.8591663041
 21
-3.2715273367
 31
0.0
  0
LINE
  5
82
330
74
100
AcDbEntity
  8
0
  6
Continuous
100
AcDbLine
 10
-31.5697721187
 20
-3.9678201523
 30
0.0
 11
-29.2969561243
 21
-3.4760876451
 31
0.0
  0
LINE
  5
83
330
74
100
AcDbEntity
  8
0
  6
Continuous
100
AcDbLine
 10
-33.2794920496
 20
-1.2667721217
 30
0.0
 11
-33.3448839193
 21
-1.2809199049
 31
0.0
  0
LINE
  5
84
330
74
100
AcDbEntity
  8
0
  6
Continuous
100
AcDbLine
 10
-31.3289079349
 20
-10.5856399919
 30
0.0
 11
-31.4650581325
 21
-10.6150966123
 31
0.0
  0
LINE
  5
85
330
74
100
AcDbEntity
  8
0
  6
Continuous
100
AcDbLine
 10
-32.8822392925
 20
-9.9377601564
 30
0.0
 11
-35.1888692339
 21
-10.4368084414
 31
0.0
  0
LINE
  5
86
330
74
100
AcDbEntity
  8
0
  6
Continuous
100
AcDbLine
 10
-31.5949683304
 20
-12.7295787952
 30
0.0
 11
-30.2063920476
 21
-12.4291549603
 31
0.0
  0
LINE
  5
87
330
74
100
AcDbEntity
  8
0
  6
Continuous
100
AcDbLine
 10
6.262509235
 20
-4.3681026205
 30
0.0
 11
8.6370616994
 21
-3.8543590356
 31
0.0
  0
LINE
  5
88
330
74
100
AcDbEntity
  8
0
  6
Continuous
100
AcDbLine
 10
8.6370616994
 20
-3.8543590356
 30
0.0
 11
3.9059396663
 21
6.5680857621
 31
0.0
  0
LINE
  5
89
330
74
100
AcDbEntity
  8
0
  6
Continuous
100
AcDbLine
 10
3.9059396663
 20
6.5680857621
 30
0.0
 11
0.0
 21
5.7230206493
 31
0.0
  0
LINE
  5
8A
330
74
100
AcDbEntity
  8
0
  6
Continuous
100
AcDbLine
 10
0.0
 20
5.7230206493
 30
0.0
 11
0.0
 21
-5.7230206493
 31
0.0
  0
LINE
  5
8B
330
74
100
AcDbEntity
  8
0
  6
Continuous
100
AcDbLine
 10
0.0
 20
-5.7230206493
 30
0.0
 11
2.3746576891
 21
-5.2092542987
 31
0.0
  0
LINE
  5
8C
330
74
100
AcDbEntity
  8
0
  6
Continuous
100
AcDbLine
 10
2.3746576891
 20
-5.2092542987
 30
0.0
 11
2.3747844598
 21
-3.0912381741
 31
0.0
  0
LINE
  5
8D
330
74
100
AcDbEntity
  8
0
  6
Continuous
100
AcDbLine
 10
2.3747844598
 20
-3.0912381741
 30
0.0
 11
4.0318309599
 21
-2.7327297722
 31
0.0
  0
LINE
  5
8E
330
74
100
AcDbEntity
  8
0
  6
Continuous
100
AcDbLine
 10
4.0318309599
 20
-2.7327297722
 30
0.0
 11
3.5923515697
 21
-0.7014306964
 31
0.0
  0
LINE
  5
8F
330
74
100
AcDbEntity
  8
0
  6
Continuous
100
AcDbLine
 10
3.5923515697
 20
-0.7014306964
 30
0.0
 11
2.3750284336
 21
-0.9648032524
 31
0.0
  0
LINE
  5
90
330
74
100
AcDbEntity
  8
0
  6
Continuous
100
AcDbLine
 10
2.3750284336
 20
-0.9648032524
 30
0.0
 11
2.3752084601
 21
4.1936873712
 31
0.0
  0
LINE
  5
91
330
74
100
AcDbEntity
  8
0
  6
Continuous
100
AcDbLine
 10
2.3752084601
 20
4.1936873712
 30
0.0
 11
6.262509235
 21
-4.3681026205
 31
0.0
  0
LINE
  5
92
330
74
100
AcDbEntity
  8
0
  6
Continuous
100
AcDbLine
 10
-53.0629352118
 20
-11.4801779454
 30
0.0
 11
-50.7945341276
 21
-8.0228043203
 31
0.0
  0
LINE
  5
93
330
74
100
AcDbEntity
  8
0
  6
Continuous
100
AcDbLine
 10
-50.7945341276
 20
-8.0228043203
 30
0.0
 11
-54.2891069366
 21
-5.8122833411
 31
0.0
  0
LINE
  5
94
330
74
100
AcDbEntity
  8
0
  6
Continuous
100
AcDbLine
 10
-54.2891069366
 20
-5.8122833411
 30
0.0
 11
-51.4073820962
 21
-5.1888110564
 31
0.0
  0
LINE
  5
95
330
74
100
AcDbEntity
  8
0
  6
Continuous
100
AcDbLine
 10
-51.4073820962
 20
-5.1888110564
 30
0.0
 11
-47.9127327975
 21
-7.3992273667
 31
0.0
  0
LINE
  5
96
330
74
100
AcDbEntity
  8
0
  6
Continuous
100
AcDbLine
 10
-47.9127327975
 20
-7.3992273667
 30
0.0
 11
-50.1813587974
 21
-10.8569360435
 31
0.0
  0
LINE
  5
97
330
74
100
AcDbEntity
  8
0
  6
Continuous
100
AcDbLine
 10
-50.1813587974
 20
-10.8569360435
 30
0.0
 11
-53.0628942334
 21
-11.4803673498
 31
0.0
  0
LINE
  5
98
330
74
100
AcDbEntity
  8
0
  6
Continuous
100
AcDbLine
 10
-53.0628942334
 20
-11.4803673498
 30
0.0
 11
-53.0629352118
 21
-11.4801779454
 31
0.0
  0
LINE
  5
99
330
74
100
AcDbEntity
  8
0
  6
Continuous
100
AcDbLine
 10
-42.7624916815
 20
-3.31845567
 30
0.0
 11
-45.0307950789
 21
-6.7757971452
 31
0.0
  0
LINE
  5
9A
330
74
100
AcDbEntity
  8
0
  6
Continuous
100
AcDbLine
 10
-45.0307950789
 20
-6.7757971452
 30
0.0
 11
-48.5254573289
 21
-4.5652955168
 31
0.0
  0
LINE
  5
9B
330
74
100
AcDbEntity
  8
0
  6
Continuous
100
AcDbLine
 10
-48.5254573289
 20
-4.5652955168
 30
0.0
 11
-48.5257466967
 21
-4.5653581227
 31
0.0
  0
LINE
  5
9C
330
74
100
AcDbEntity
  8
0
  6
Continuous
100
AcDbLine
 10
-48.5257466967
 20
-4.5653581227
 30
0.0
 11
-47.9126146215
 21
-7.399289919
 31
0.0
  0
LINE
  5
9D
330
74
100
AcDbEntity
  8
0
  6
Continuous
100
AcDbLine
 10
-47.9126146215
 20
-7.399289919
 30
0.0
 11
-44.4177372167
 21
-9.6098441329
 31
0.0
  0
LINE
  5
9E
330
74
100
AcDbEntity
  8
0
  6
Continuous
100
AcDbLine
 10
-44.4177372167
 20
-9.6098441329
 30
0.0
 11
-42.1490649772
 21
-6.1523237222
 31
0.0
  0
LINE
  5
9F
330
74
100
AcDbEntity
  8
0
  6
Continuous
100
AcDbLine
 10
-42.1490649772
 20
-6.1523237222
 30
0.0
 11
-42.7621970524
 21
-3.3183919259
 31
0.0
  0
LINE
  5
A0
330
74
100
AcDbEntity
  8
0
  6
Continuous
100
AcDbLine
 10
-42.7621970524
 20
-3.3183919259
 30
0.0
 11
-42.7624916815
 21
-3.31845567
 31
0.0
  0
LINE
  5
A1
330
74
100
AcDbEntity
  8
0
  6
Continuous
100
AcDbLine
 10
-41.535889647
 20
-8.9864554454
 30
0.0
 11
-43.8045413973
 21
-12.4440705583
 31
0.0
  0
LINE
  5
A2
330
74
100
AcDbEntity
  8
0
  6
Continuous
100
AcDbLine
 10
-43.8045413973
 20
-12.4440705583
 30
0.0
 11
-40.3564529382
 21
-14.625159785
 31
0.0
  0
LINE
  5
A3
330
74
100
AcDbEntity
  8
0
  6
Continuous
100
AcDbLine
 10
-40.3564529382
 20
-14.625159785
 30
0.0
 11
-43.2382724808
 21
-15.2486525588
 31
0.0
  0
LINE
  5
A4
330
74
100
AcDbEntity
  8
0
  6
Continuous
100
AcDbLine
 10
-43.2382724808
 20
-15.2486525588
 30
0.0
 11
-46.686243472
 21
-13.0676480676
 31
0.0
  0
LINE
  5
A5
330
74
100
AcDbEntity
  8
0
  6
Continuous
100
AcDbLine
 10
-46.686243472
 20
-13.0676480676
 30
0.0
 11
-44.4177144509
 21
-9.6099493576
 31
0.0
  0
LINE
  5
A6
330
74
100
AcDbEntity
  8
0
  6
Continuous
100
AcDbLine
 10
-44.4177144509
 20
-9.6099493576
 30
0.0
 11
-41.535889647
 21
-8.9864554454
 31
0.0
  0
LINE
  5
A7
330
74
100
AcDbEntity
  8
0
  6
Continuous
100
AcDbLine
 10
-51.8063383656
 20
-17.1023866618
 30
0.0
 11
-49.5681857438
 21
-13.6910572443
 31
0.0
  0
LINE
  5
A8
330
74
100
AcDbEntity
  8
0
  6
Continuous
100
AcDbLine
 10
-49.5681857438
 20
-13.6910572443
 30
0.0
 11
-46.1199973213
 21
-15.8721248435
 31
0.0
  0
LINE
  5
A9
330
74
100
AcDbEntity
  8
0
  6
Continuous
100
AcDbLine
 10
-46.1199973213
 20
-15.8721248435
 30
0.0
 11
-46.0813956519
 21
-15.8637732234
 31
0.0
  0
LINE
  5
AA
330
74
100
AcDbEntity
  8
0
  6
Continuous
100
AcDbLine
 10
-46.0813956519
 20
-15.8637732234
 30
0.0
 11
-46.6863662012
 21
-13.0675644704
 31
0.0
  0
LINE
  5
AB
330
74
100
AcDbEntity
  8
0
  6
Continuous
100
AcDbLine
 10
-46.6863662012
 20
-13.0675644704
 30
0.0
 11
-50.1813587974
 21
-10.8569360435
 31
0.0
  0
LINE
  5
AC
330
74
100
AcDbEntity
  8
0
  6
Continuous
100
AcDbLine
 10
-50.1813587974
 20
-10.8569360435
 30
0.0
 11
-52.4497621582
 21
-14.3142991462
 31
0.0
  0
LINE
  5
AD
330
74
100
AcDbEntity
  8
0
  6
Continuous
100
AcDbLine
 10
-52.4497621582
 20
-14.3142991462
 30
0.0
 11
-51.8447506306
 21
-17.1106973035
 31
0.0
  0
LINE
  5
AE
330
74
100
AcDbEntity
  8
0
  6
Continuous
100
AcDbLine
 10
-51.8447506306
 20
-17.1106973035
 30
0.0
 11
-51.8063383656
 21
-17.1023866618
 31
0.0
  0
LINE
  5
AF
330
74
100
AcDbEntity
  8
0
  6
Continuous
100
AcDbLine
 10
-20.0432683672
 20
-10.0594590717
 30
0.0
 11
-17.6687053803
 21
-9.5457132103
 31
0.0
  0
LINE
  5
B0
330
74
100
AcDbEntity
  8
0
  6
Continuous
100
AcDbLine
 10
-17.6687053803
 20
-9.5457132103
 30
0.0
 11
-22.3998379359
 21
0.8767293109
 31
0.0
  0
LINE
  5
B1
330
74
100
AcDbEntity
  8
0
  6
Continuous
100
AcDbLine
 10
-22.3998379359
 20
0.8767293109
 30
0.0
 11
-26.3058670432
 21
0.0316448472
 31
0.0
  0
LINE
  5
B2
330
74
100
AcDbEntity
  8
0
  6
Continuous
100
AcDbLine
 10
-26.3058670432
 20
0.0316448472
 30
0.0
 11
-26.3056723775
 21
-11.4143543348
 31
0.0
  0
LINE
  5
B3
330
74
100
AcDbEntity
  8
0
  6
Continuous
100
AcDbLine
 10
-26.3056723775
 20
-11.4143543348
 30
0.0
 11
-23.9311146519
 21
-10.9006096116
 31
0.0
  0
LINE
  5
B4
330
74
100
AcDbEntity
  8
0
  6
Continuous
100
AcDbLine
 10
-23.9311146519
 20
-10.9006096116
 30
0.0
 11
-23.9309931424
 21
-8.7825946253
 31
0.0
  0
LINE
  5
B5
330
74
100
AcDbEntity
  8
0
  6
Continuous
100
AcDbLine
 10
-23.9309931424
 20
-8.7825946253
 30
0.0
 11
-22.2738308951
 21
-8.4240611811
 31
0.0
  0
LINE
  5
B6
330
74
100
AcDbEntity
  8
0
  6
Continuous
100
AcDbLine
 10
-22.2738308951
 20
-8.4240611811
 30
0.0
 11
-22.7133102854
 21
-6.3927621053
 31
0.0
  0
LINE
  5
B7
330
74
100
AcDbEntity
  8
0
  6
Continuous
100
AcDbLine
 10
-22.7133102854
 20
-6.3927621053
 30
0.0
 11
-23.9308333483
 21
-6.6561779162
 31
0.0
  0
LINE
  5
B8
330
74
100
AcDbEntity
  8
0
  6
Continuous
100
AcDbLine
 10
-23.9308333483
 20
-6.6561779162
 30
0.0
 11
-23.9305586196
 21
-1.4976668035
 31
0.0
  0
LINE
  5
B9
330
74
100
AcDbEntity
  8
0
  6
Continuous
100
AcDbLine
 10
-23.9305586196
 20
-1.4976668035
 30
0.0
 11
-20.0432683672
 21
-10.0594590717
 31
0.0
  0
SPLINE
  5
BA
330
74
100
AcDbEntity
  8
0
100
AcDbSpline
210
0.0
220
0.0
230
1.0
 70
     8
 71
     3
 72
     8
 73
     4
 74
     0
 42
0.00000001
 43
0.00000001
 40
0.0
 40
0.0
 40
0.0
 40
0.0
 40
1.0
 40
1.0
 40
1.0
 40
1.0
 10
-13.86994560355125
 20
-6.597454742918429
 30
0.0
 10
-13.88373254946556
 20
-6.53373068413859
 30
0.0
 10
-15.11365515797402
 20
-0.8489574873494021
 30
0.0
 10
-15.79563263740206
 20
2.305574601061459
 30
0.0
  0
SPLINE
  5
BB
330
74
100
AcDbEntity
  8
0
100
AcDbSpline
210
0.0
220
0.0
230
1.0
 70
     8
 71
     3
 72
     8
 73
     4
 74
     0
 42
0.00000001
 43
0.00000001
 40
2.0
 40
2.0
 40
2.0
 40
2.0
 40
3.0
 40
3.0
 40
3.0
 40
3.0
 10
-18.06492886668426
 20
1.814603608696524
 30
0.0
 10
-17.24003965005502
 20
-1.995739949107536
 30
0.0
 10
-15.71186186991051
 20
-9.059523950669432
 30
0.0
 10
-15.69887855542093
 20
-9.119533578677906
 30
0.0
  0
SPLINE
  5
BC
330
74
100
AcDbEntity
  8
0
100
AcDbSpline
210
0.0
220
0.0
230
1.0
 70
     8
 71
     3
 72
     8
 73
     4
 74
     0
 42
0.00000001
 43
0.00000001
 40
0.0
 40
0.0
 40
0.0
 40
0.0
 40
1.0
 40
1.0
 40
1.0
 40
1.0
 10
-6.809537646582547
 20
-5.069709977697404
 30
0.0
 10
-7.284290309572815
 20
-2.875375801708635
 30
0.0
 10
-7.897830097865885
 20
-0.0390758678013329
 30
0.0
 10
-8.296070930952649
 20
1.80204897196991
 30
0.0
  0
SPLINE
  5
BD
330
74
100
AcDbEntity
  8
0
100
AcDbSpline
210
0.0
220
0.0
230
1.0
 70
     8
 71
     3
 72
     8
 73
     4
 74
     0
 42
0.00000001
 43
0.00000001
 40
2.0
 40
2.0
 40
2.0
 40
2.0
 40
3.0
 40
3.0
 40
3.0
 40
3.0
 10
-6.919811195494074
 20
2.099808074263809
 30
0.0
 10
-6.228016878711183
 20
2.249480443098069
 30
0.0
 10
-5.547633595833446
 20
1.815851349115847
 30
0.0
 10
-5.399398884916104
 20
1.130701970100344
 30
0.0
  0
SPLINE
  5
BE
330
74
100
AcDbEntity
  8
0
100
AcDbSpline
210
0.0
220
0.0
230
1.0
 70
     8
 71
     3
 72
     8
 73
     4
 74
     0
 42
0.00000001
 43
0.00000001
 40
3.0
 40
3.0
 40
3.0
 40
3.0
 40
4.0
 40
4.0
 40
4.0
 40
4.0
 10
-5.399398884916104
 20
1.130701970100344
 30
0.0
 10
-5.107009087764085
 20
-0.2207405274728672
 30
0.0
 10
-4.711497421058354
 20
-2.048334586467611
 30
0.0
 10
-4.449160707297047
 20
-3.260870000165379
 30
0.0
  0
SPLINE
  5
BF
330
74
100
AcDbEntity
  8
0
100
AcDbSpline
210
0.0
220
0.0
230
1.0
 70
     8
 71
     3
 72
     8
 73
     4
 74
     0
 42
0.00000001
 43
0.00000001
 40
4.0
 40
4.0
 40
4.0
 40
4.0
 40
5.0
 40
5.0
 40
5.0
 40
5.0
 10
-4.449160707297047
 20
-3.260870000165379
 30
0.0
 10
-4.300905507193207
 20
-3.946114081381999
 30
0.0
 10
-4.741570606399121
 20
-4.622385452066122
 30
0.0
 10
-5.433383135791953
 20
-4.771973641166296
 30
0.0
  0
SPLINE
  5
C0
330
74
100
AcDbEntity
  8
0
100
AcDbSpline
210
0.0
220
0.0
230
1.0
 70
     8
 71
     3
 72
     8
 73
     4
 74
     0
 42
0.00000001
 43
0.00000001
 40
3.0
 40
3.0
 40
3.0
 40
3.0
 40
4.0
 40
4.0
 40
4.0
 40
4.0
 10
-4.494024550545999
 20
-6.695320195210662
 30
0.0
 10
-2.825524345390513
 20
-6.334333740063992
 30
0.0
 10
-1.762658323115034
 20
-4.702068307882374
 30
0.0
 10
-2.120071189640999
 20
-3.049576315093403
 30
0.0
  0
SPLINE
  5
C1
330
74
100
AcDbEntity
  8
0
100
AcDbSpline
210
0.0
220
0.0
230
1.0
 70
     8
 71
     3
 72
     8
 73
     4
 74
     0
 42
0.00000001
 43
0.00000001
 40
4.0
 40
4.0
 40
4.0
 40
4.0
 40
5.0
 40
5.0
 40
5.0
 40
5.0
 10
-2.120071189640999
 20
-3.049576315093403
 30
0.0
 10
-2.485983017556096
 20
-1.358310753073632
 30
0.0
 10
-2.867352798370483
 20
0.4044023583376265
 30
0.0
 10
-3.190995488197396
 20
1.900704823656681
 30
0.0
  0
SPLINE
  5
C2
330
74
100
AcDbEntity
  8
0
100
AcDbSpline
210
0.0
220
0.0
230
1.0
 70
     8
 71
     3
 72
     8
 73
     4
 74
     0
 42
0.00000001
 43
0.00000001
 40
5.0
 40
5.0
 40
5.0
 40
5.0
 40
6.0
 40
6.0
 40
6.0
 40
6.0
 10
-3.190995488197396
 20
1.900704823656681
 30
0.0
 10
-3.54857504695031
 20
3.553458157285876
 30
0.0
 10
-5.190901218780231
 20
4.599949148191988
 30
0.0
 10
-6.859585567104196
 20
4.238922852960538
 30
0.0
  0
SPLINE
  5
C3
330
74
100
AcDbEntity
  8
0
100
AcDbSpline
210
0.0
220
0.0
230
1.0
 70
     8
 71
     3
 72
     8
 73
     4
 74
     0
 42
0.00000001
 43
0.00000001
 40
0.0
 40
0.0
 40
0.0
 40
0.0
 40
1.0
 40
1.0
 40
1.0
 40
1.0
 10
-30.23703582864644
 20
-6.251438951366732
 30
0.0
 10
-30.9104300186728
 20
-6.015603382360459
 30
0.0
 10
-31.40848551125485
 20
-5.893156856121871
 30
0.0
 10
-32.67210357750635
 20
-5.496689523479785
 30
0.0
  0
SPLINE
  5
C4
330
74
100
AcDbEntity
  8
0
100
AcDbSpline
210
0.0
220
0.0
230
1.0
 70
     8
 71
     3
 72
     8
 73
     4
 74
     0
 42
0.00000001
 43
0.00000001
 40
1.0
 40
1.0
 40
1.0
 40
1.0
 40
2.0
 40
2.0
 40
2.0
 40
2.0
 10
-32.67210357750635
 20
-5.496689523479785
 30
0.0
 10
-33.03332194555517
 20
-5.383421617718132
 30
0.0
 10
-33.81210282496122
 20
-5.206692347750555
 30
0.0
 10
-33.94849250952588
 20
-4.576291363356936
 30
0.0
  0
SPLINE
  5
C5
330
74
100
AcDbEntity
  8
0
100
AcDbSpline
210
0.0
220
0.0
230
1.0
 70
     8
 71
     3
 72
     8
 73
     4
 74
     0
 42
0.00000001
 43
0.00000001
 40
2.0
 40
2.0
 40
2.0
 40
2.0
 40
3.0
 40
3.0
 40
3.0
 40
3.0
 10
-33.94849250952588
 20
-4.576291363356936
 30
0.0
 10
-34.11622381965225
 20
-3.801027578894063
 30
0.0
 10
-33.67528356585564
 20
-3.448097454184924
 30
0.0
 10
-32.99335932290604
 20
-3.30056051389548
 30
0.0
  0
SPLINE
  5
C6
330
74
100
AcDbEntity
  8
0
100
AcDbSpline
210
0.0
220
0.0
230
1.0
 70
     8
 71
     3
 72
     8
 73
     4
 74
     0
 42
0.00000001
 43
0.00000001
 40
4.0
 40
4.0
 40
4.0
 40
4.0
 40
5.0
 40
5.0
 40
5.0
 40
5.0
 10
-32.85916630414497
 20
-3.271527336675416
 30
0.0
 10
-32.2786944245911
 20
-3.14594000653005
 30
0.0
 10
-31.77109773641243
 20
-3.328116480283148
 30
0.0
 10
-31.56977211870437
 20
-3.967820152272103
 30
0.0
  0
SPLINE
  5
C7
330
74
100
AcDbEntity
  8
0
100
AcDbSpline
210
0.0
220
0.0
230
1.0
 70
     8
 71
     3
 72
     8
 73
     4
 74
     0
 42
0.00000001
 43
0.00000001
 40
6.0
 40
6.0
 40
6.0
 40
6.0
 40
7.0
 40
7.0
 40
7.0
 40
7.0
 10
-29.29695612428625
 20
-3.476087645143529
 30
0.0
 10
-29.68810071971012
 20
-1.866802583842748
 30
0.0
 10
-30.87776107222441
 20
-0.7599478056671497
 30
0.0
 10
-33.27949204955325
 20
-1.266772121690862
 30
0.0
  0
SPLINE
  5
C8
330
74
100
AcDbEntity
  8
0
100
AcDbSpline
210
0.0
220
0.0
230
1.0
 70
     8
 71
     3
 72
     8
 73
     4
 74
     0
 42
0.00000001
 43
0.00000001
 40
8.0
 40
8.0
 40
8.0
 40
8.0
 40
9.0
 40
9.0
 40
9.0
 40
9.0
 10
-33.34488391931659
 20
-1.280919904944554
 30
0.0
 10
-35.81152992452102
 20
-1.828202838410209
 30
0.0
 10
-36.33378487826545
 20
-3.54465012997844
 30
0.0
 10
-36.09207577942843
 20
-4.962606301827474
 30
0.0
  0
SPLINE
  5
C9
330
74
100
AcDbEntity
  8
0
100
AcDbSpline
210
0.0
220
0.0
230
1.0
 70
     8
 71
     3
 72
     8
 73
     4
 74
     0
 42
0.00000001
 43
0.00000001
 40
9.0
 40
9.0
 40
9.0
 40
9.0
 40
10.0
 40
10.0
 40
10.0
 40
10.0
 10
-36.09207577942843
 20
-4.962606301827474
 30
0.0
 10
-35.83736690020325
 20
-6.457652824126185
 30
0.0
 10
-34.96800490008025
 20
-7.196828812263726
 30
0.0
 10
-33.99931718292642
 20
-7.502708028683521
 30
0.0
  0
SPLINE
  5
CA
330
74
100
AcDbEntity
  8
0
100
AcDbSpline
210
0.0
220
0.0
230
1.0
 70
     8
 71
     3
 72
     8
 73
     4
 74
     0
 42
0.00000001
 43
0.00000001
 40
10.0
 40
10.0
 40
10.0
 40
10.0
 40
11.0
 40
11.0
 40
11.0
 40
11.0
 10
-33.99931718292642
 20
-7.502708028683521
 30
0.0
 10
-33.40907414696034
 20
-7.689011641945549
 30
0.0
 10
-32.48616403135102
 20
-7.975318844696811
 30
0.0
 10
-31.47547483016511
 20
-8.271505052332133
 30
0.0
  0
SPLINE
  5
CB
330
74
100
AcDbEntity
  8
0
100
AcDbSpline
210
0.0
220
0.0
230
1.0
 70
     8
 71
     3
 72
     8
 73
     4
 74
     0
 42
0.00000001
 43
0.00000001
 40
11.0
 40
11.0
 40
11.0
 40
11.0
 40
12.0
 40
12.0
 40
12.0
 40
12.0
 10
-31.47547483016511
 20
-8.271505052332133
 30
0.0
 10
-31.11213516930565
 20
-8.377980375833697
 30
0.0
 10
-30.40258052645035
 20
-8.55729511966404
 30
0.0
 10
-30.28870163819746
 20
-9.336631754491275
 30
0.0
  0
SPLINE
  5
CC
330
74
100
AcDbEntity
  8
0
100
AcDbSpline
210
0.0
220
0.0
230
1.0
 70
     8
 71
     3
 72
     8
 73
     4
 74
     0
 42
0.00000001
 43
0.00000001
 40
12.0
 40
12.0
 40
12.0
 40
12.0
 40
13.0
 40
13.0
 40
13.0
 40
13.0
 10
-30.28870163819746
 20
-9.336631754491275
 30
0.0
 10
-30.1883718252622
 20
-10.02498578462436
 30
0.0
 10
-30.64014408852681
 20
-10.43662327702193
 30
0.0
 10
-31.32890793487913
 20
-10.58563999188937
 30
0.0
  0
SPLINE
  5
CD
330
74
100
AcDbEntity
  8
0
100
AcDbSpline
210
0.0
220
0.0
230
1.0
 70
     8
 71
     3
 72
     8
 73
     4
 74
     0
 42
0.00000001
 43
0.00000001
 40
14.0
 40
14.0
 40
14.0
 40
14.0
 40
15.0
 40
15.0
 40
15.0
 40
15.0
 10
-31.46505813246006
 20
-10.61509661229636
 30
0.0
 10
-32.05208024758041
 20
-10.74210111117219
 30
0.0
 10
-32.71260096537058
 20
-10.55064660173623
 30
0.0
 10
-32.8822392924921
 20
-9.937760156430087
 30
0.0
  0
SPLINE
  5
CE
330
74
100
AcDbEntity
  8
0
100
AcDbSpline
210
0.0
220
0.0
230
1.0
 70
     8
 71
     3
 72
     8
 73
     4
 74
     0
 42
0.00000001
 43
0.00000001
 40
16.0
 40
16.0
 40
16.0
 40
16.0
 40
17.0
 40
17.0
 40
17.0
 40
17.0
 10
-35.1888692338865
 20
-10.43680844141459
 30
0.0
 10
-34.81471685749703
 20
-11.8843133271045
 30
0.0
 10
-33.72975075395794
 20
-12.95131992706823
 30
0.0
 10
-31.59496833044066
 20
-12.72957879515504
 30
0.0
  0
SPLINE
  5
CF
330
74
100
AcDbEntity
  8
0
100
AcDbSpline
210
0.0
220
0.0
230
1.0
 70
     8
 71
     3
 72
     8
 73
     4
 74
     0
 42
0.00000001
 43
0.00000001
 40
18.0
 40
18.0
 40
18.0
 40
18.0
 40
19.0
 40
19.0
 40
19.0
 40
19.0
 10
-30.20639204762402
 20
-12.42915496033268
 30
0.0
 10
-28.36320980349184
 20
-11.79454394754582
 30
0.0
 10
-27.78707037380765
 20
-10.41512978795686
 30
0.0
 10
-27.91988511866083
 20
-9.073464993912006
 30
0.0
  0
SPLINE
  5
D0
330
74
100
AcDbEntity
  8
0
100
AcDbSpline
210
0.0
220
0.0
230
1.0
 70
     8
 71
     3
 72
     8
 73
     4
 74
     0
 42
0.00000001
 43
0.00000001
 40
19.0
 40
19.0
 40
19.0
 40
19.0
 40
20.0
 40
20.0
 40
20.0
 40
20.0
 10
-27.91988511866083
 20
-9.073464993912006
 30
0.0
 10
-28.12563217330358
 20
-6.994152508733083
 30
0.0
 10
-29.51271678483619
 20
-6.50510505043454
 30
0.0
 10
-30.23703582864644
 20
-6.251438951366732
 30
0.0
  0
HATCH
  5
D1
330
74
100
AcDbEntity
  8
0
100
AcDbHatch
 10
0.0
 20
0.0
 30
0.0
210
0.0
220
0.0
230
1.0
  2
SOLID
 70
     1
 71
     0
 91
        1
 92
        0
 93
        7
 72
     1
 10
-53.06293521179145
 20
-11.48017794540906
 11
-53.0628942334185
 21
-11.48036734981106
 72
     1
 10
-53.0628942334185
 20
-11.48036734981106
 11
-50.18135879739363
 21
-10.85693604353014
 72
     1
 10
-50.18135879739363
 20
-10.85693604353014
 11
-47.91273279754322
 21
-7.399227366744369
 72
     1
 10
-47.91273279754322
 20
-7.399227366744369
 11
-51.40738209617635
 21
-5.188811056417426
 72
     1
 10
-51.40738209617635
 20
-5.188811056417426
 11
-54.28910693660305
 21
-5.812283341071309
 72
     1
 10
-54.28910693660305
 20
-5.812283341071309
 11
-50.79453412756107
 21
-8.022804320319173
 72
     1
 10
-50.79453412756107
 20
-8.022804320319173
 11
-53.06293521179145
 21
-11.48017794540906
 97
        0
 75
     0
 76
     1
 98
        1
 10
0.0
 20
0.0
  0
HATCH
  5
D2
330
74
100
AcDbEntity
  8
0
100
AcDbHatch
 10
0.0
 20
0.0
 30
0.0
210
0.0
220
0.0
230
1.0
  2
SOLID
 70
     1
 71
     0
 91
        1
 92
        0
 93
        6
 72
     1
 10
-41.53588964704281
 20
-8.986455445432597
 11
-44.41771445090438
 21
-9.609949357561213
 72
     1
 10
-44.41771445090438
 20
-9.609949357561213
 11
-46.68624347197728
 21
-13.06764806762683
 72
     1
 10
-46.68624347197728
 20
-13.06764806762683
 11
-43.23827248082917
 21
-15.24865255879992
 72
     1
 10
-43.23827248082917
 20
-15.24865255879992
 11
-40.35645293820115
 21
-14.62515978495947
 72
     1
 10
-40.35645293820115
 20
-14.62515978495947
 11
-43.80454139731328
 21
-12.44407055830516
 72
     1
 10
-43.80454139731328
 20
-12.44407055830516
 11
-41.53588964704281
 21
-8.986455445432597
 97
        0
 75
     0
 76
     1
 98
        1
 10
0.0
 20
0.0
  0
HATCH
  5
D3
330
74
100
AcDbEntity
  8
0
100
AcDbHatch
 10
0.0
 20
0.0
 30
0.0
210
0.0
220
0.0
230
1.0
  2
SOLID
 70
     1
 71
     0
 91
        1
 92
        0
 93
       20
 72
     4
 94
        3
 73
     1
 74
     0
 95
        8
 96
        4
 40
18.0
 40
18.0
 40
18.0
 40
18.0
 40
19.0
 40
19.0
 40
19.0
 40
19.0
 10
-30.20639204762402
 20
-12.42915496033267
 42
1.0
 10
-28.36320980349188
 20
-11.79454394754584
 42
1.0
 10
-27.78707037380775
 20
-10.41512978795687
 42
1.0
 10
-27.91988511866085
 20
-9.073464993912015
 42
1.0
 72
     4
 94
        3
 73
     1
 74
     0
 95
        8
 96
        4
 40
19.0
 40
19.0
 40
19.0
 40
19.0
 40
20.0
 40
20.0
 40
20.0
 40
20.0
 10
-27.91988511866085
 20
-9.073464993912015
 42
1.0
 10
-28.1256321733036
 20
-6.994152508733093
 42
1.0
 10
-29.51271678483624
 20
-6.505105050434554
 42
1.0
 10
-30.23703582864647
 20
-6.251438951366739
 42
1.0
 72
     4
 94
        3
 73
     1
 74
     0
 95
        8
 96
        4
 40
0.0
 40
0.0
 40
0.0
 40
0.0
 40
1.0
 40
1.0
 40
1.0
 40
1.0
 10
-30.23703582864647
 20
-6.251438951366739
 42
1.0
 10
-30.91043001867278
 20
-6.015603382360466
 42
1.0
 10
-31.40848551125484
 20
-5.893156856121866
 42
1.0
 10
-32.67210357750633
 20
-5.496689523479784
 42
1.0
 72
     4
 94
        3
 73
     1
 74
     0
 95
        8
 96
        4
 40
1.0
 40
1.0
 40
1.0
 40
1.0
 40
2.0
 40
2.0
 40
2.0
 40
2.0
 10
-32.67210357750633
 20
-5.496689523479784
 42
1.0
 10
-33.03332194555515
 20
-5.383421617718138
 42
1.0
 10
-33.81210282496121
 20
-5.206692347750558
 42
1.0
 10
-33.94849250952591
 20
-4.576291363356954
 42
1.0
 72
     4
 94
        3
 73
     1
 74
     0
 95
        8
 96
        4
 40
2.0
 40
2.0
 40
2.0
 40
2.0
 40
3.0
 40
3.0
 40
3.0
 40
3.0
 10
-33.94849250952591
 20
-4.576291363356954
 42
1.0
 10
-34.11622381965228
 20
-3.801027578894066
 42
1.0
 10
-33.67528356585566
 20
-3.448097454184939
 42
1.0
 10
-32.99335932290605
 20
-3.300560513895483
 42
1.0
 72
     1
 10
-32.99335932290605
 20
-3.300560513895483
 11
-32.85916630414502
 21
-3.271527336675422
 72
     4
 94
        3
 73
     1
 74
     0
 95
        8
 96
        4
 40
4.0
 40
4.0
 40
4.0
 40
4.0
 40
5.0
 40
5.0
 40
5.0
 40
5.0
 10
-32.85916630414502
 20
-3.271527336675422
 42
1.0
 10
-32.27869442459117
 20
-3.145940006530068
 42
1.0
 10
-31.77109773641243
 20
-3.328116480283154
 42
1.0
 10
-31.5697721187044
 20
-3.967820152272114
 42
1.0
 72
     1
 10
-31.5697721187044
 20
-3.967820152272114
 11
-29.29695612428624
 21
-3.476087645143523
 72
     4
 94
        3
 73
     1
 74
     0
 95
        8
 96
        4
 40
6.0
 40
6.0
 40
6.0
 40
6.0
 40
7.0
 40
7.0
 40
7.0
 40
7.0
 10
-29.2969561242863
 20
-3.476087645143538
 42
1.0
 10
-29.6881007197101
 20
-1.866802583842747
 42
1.0
 10
-30.87776107222446
 20
-0.7599478056671519
 42
1.0
 10
-33.27949204955327
 20
-1.266772121690873
 42
1.0
 72
     1
 10
-33.27949204955321
 20
-1.266772121690857
 11
-33.3448839193166
 21
-1.280919904944549
 72
     4
 94
        3
 73
     1
 74
     0
 95
        8
 96
        4
 40
8.0
 40
8.0
 40
8.0
 40
8.0
 40
9.0
 40
9.0
 40
9.0
 40
9.0
 10
-33.34488391931666
 20
-1.280919904944565
 42
1.0
 10
-35.8115299245211
 20
-1.828202838410234
 42
1.0
 10
-36.3337848782655
 20
-3.544650129978449
 42
1.0
 10
-36.09207577942846
 20
-4.962606301827486
 42
1.0
 72
     4
 94
        3
 73
     1
 74
     0
 95
        8
 96
        4
 40
9.0
 40
9.0
 40
9.0
 40
9.0
 40
10.0
 40
10.0
 40
10.0
 40
10.0
 10
-36.09207577942846
 20
-4.962606301827486
 42
1.0
 10
-35.83736690020323
 20
-6.457652824126184
 42
1.0
 10
-34.96800490008029
 20
-7.196828812263736
 42
1.0
 10
-33.99931718292643
 20
-7.502708028683525
 42
1.0
 72
     4
 94
        3
 73
     1
 74
     0
 95
        8
 96
        4
 40
10.0
 40
10.0
 40
10.0
 40
10.0
 40
11.0
 40
11.0
 40
11.0
 40
11.0
 10
-33.99931718292643
 20
-7.502708028683525
 42
1.0
 10
-33.40907414696031
 20
-7.689011641945555
 42
1.0
 10
-32.48616403135106
 20
-7.975318844696822
 42
1.0
 10
-31.47547483016516
 20
-8.27150505233215
 42
1.0
 72
     4
 94
        3
 73
     1
 74
     0
 95
        8
 96
        4
 40
11.0
 40
11.0
 40
11.0
 40
11.0
 40
12.0
 40
12.0
 40
12.0
 40
12.0
 10
-31.47547483016516
 20
-8.27150505233215
 42
1.0
 10
-31.11213516930568
 20
-8.377980375833708
 42
1.0
 10
-30.40258052645039
 20
-8.557295119664056
 42
1.0
 10
-30.28870163819752
 20
-9.336631754491272
 42
1.0
 72
     4
 94
        3
 73
     1
 74
     0
 95
        8
 96
        4
 40
12.0
 40
12.0
 40
12.0
 40
12.0
 40
13.0
 40
13.0
 40
13.0
 40
13.0
 10
-30.28870163819752
 20
-9.336631754491272
 42
1.0
 10
-30.18837182526216
 20
-10.02498578462435
 42
1.0
 10
-30.64014408852681
 20
-10.43662327702195
 42
1.0
 10
-31.32890793487914
 20
-10.58563999188937
 42
1.0
 72
     1
 10
-31.32890793487914
 20
-10.58563999188937
 11
-31.46505813246008
 21
-10.61509661229637
 72
     4
 94
        3
 73
     1
 74
     0
 95
        8
 96
        4
 40
14.0
 40
14.0
 40
14.0
 40
14.0
 40
15.0
 40
15.0
 40
15.0
 40
15.0
 10
-31.46505813246008
 20
-10.61509661229637
 42
1.0
 10
-32.05208024758041
 20
-10.7421011111722
 42
1.0
 10
-32.71260096537064
 20
-10.55064660173623
 42
1.0
 10
-32.88223929249212
 20
-9.937760156430087
 42
1.0
 72
     1
 10
-32.88223929249212
 20
-9.937760156430087
 11
-35.18886923388655
 21
-10.43680844141459
 72
     4
 94
        3
 73
     1
 74
     0
 95
        8
 96
        4
 40
16.0
 40
16.0
 40
16.0
 40
16.0
 40
17.0
 40
17.0
 40
17.0
 40
17.0
 10
-35.18886923388649
 20
-10.43680844141459
 42
1.0
 10
-34.81471685749708
 20
-11.88431332710451
 42
1.0
 10
-33.72975075395801
 20
-12.95131992706824
 42
1.0
 10
-31.59496833044075
 20
-12.72957879515506
 42
1.0
 72
     1
 10
-31.59496833044068
 20
-12.72957879515504
 11
-30.20639204762409
 21
-12.42915496033269
 97
        0
 75
     0
 76
     1
 98
        1
 10
0.0
 20
0.0
  0
HATCH
  5
D4
330
74
100
AcDbEntity
  8
0
100
AcDbHatch
 10
0.0
 20
0.0
 30
0.0
210
0.0
220
0.0
230
1.0
  2
SOLID
 70
     1
 71
     0
 91
        1
 92
        0
 93
       11
 72
     1
 10
-23.93083334830058
 20
-6.656177916224847
 11
-23.9305586195879
 21
-1.497666803489873
 72
     1
 10
-23.9305586195879
 20
-1.497666803489873
 11
-20.04326836721582
 21
-10.05945907169815
 72
     1
 10
-20.04326836721582
 20
-10.05945907169815
 11
-17.66870538033285
 21
-9.545713210289948
 72
     1
 10
-17.66870538033285
 20
-9.545713210289948
 11
-22.39983793591613
 21
0.8767293108990284
 72
     1
 10
-22.39983793591613
 20
0.8767293108990277
 11
-26.30586704316552
 21
0.0316448471579831
 72
     1
 10
-26.30586704316552
 20
0.0316448471579831
 11
-26.30567237753049
 21
-11.41435433475813
 72
     1
 10
-26.30567237753049
 20
-11.41435433475813
 11
-23.93111465188077
 21
-10.90060961163804
 72
     1
 10
-23.93111465188077
 20
-10.90060961163804
 11
-23.93099314235586
 21
-8.782594625323274
 72
     1
 10
-23.93099314235586
 20
-8.782594625323274
 11
-22.27383089514867
 21
-8.42406118111162
 72
     1
 10
-22.27383089514867
 20
-8.42406118111162
 11
-22.7133102853523
 21
-6.392762105309743
 72
     1
 10
-22.7133102853523
 20
-6.392762105309743
 11
-23.93083334830058
 21
-6.656177916224847
 97
        0
 75
     0
 76
     1
 98
        1
 10
0.0
 20
0.0
  0
HATCH
  5
D5
330
74
100
AcDbEntity
  8
0
100
AcDbHatch
 10
0.0
 20
0.0
 30
0.0
210
0.0
220
0.0
230
1.0
  2
SOLID
 70
     1
 71
     0
 91
        1
 92
        0
 93
        6
 72
     1
 10
-15.79563263740209
 20
2.305574601061446
 11
-18.06492886668423
 21
1.814603608696526
 72
     4
 94
        3
 73
     1
 74
     0
 95
        8
 96
        4
 40
2.0
 40
2.0
 40
2.0
 40
2.0
 40
3.0
 40
3.0
 40
3.0
 40
3.0
 10
-18.06492886668423
 20
1.814603608696526
 42
1.0
 10
-17.240039650055
 20
-1.995739949107533
 42
1.0
 10
-15.71186186991055
 20
-9.059523950669437
 42
1.0
 10
-15.69887855542098
 20
-9.119533578677919
 42
1.0
 72
     1
 10
-15.69887855542092
 20
-9.119533578677903
 11
-10.22610149671526
 21
-7.93547715235816
 72
     1
 10
-10.22610149671526
 20
-7.93547715235816
 11
-10.66558088691882
 21
-5.904178076556605
 72
     1
 10
-10.66558088691882
 20
-5.904178076556605
 11
-13.86994560355126
 21
-6.597454742918437
 72
     4
 94
        3
 73
     1
 74
     0
 95
        8
 96
        4
 40
0.0
 40
0.0
 40
0.0
 40
0.0
 40
1.0
 40
1.0
 40
1.0
 40
1.0
 10
-13.86994560355126
 20
-6.597454742918437
 42
1.0
 10
-13.88373254946556
 20
-6.533730684138598
 42
1.0
 10
-15.1136551579741
 20
-0.8489574873494129
 42
1.0
 10
-15.79563263740209
 20
2.305574601061446
 42
1.0
 97
        0
 75
     0
 76
     1
 98
        1
 10
0.0
 20
0.0
  0
HATCH
  5
D6
330
74
100
AcDbEntity
  8
0
100
AcDbHatch
 10
0.0
 20
0.0
 30
0.0
210
0.0
220
0.0
230
1.0
  2
SOLID
 70
     1
 71
     0
 91
        1
 92
        0
 93
       11
 72
     1
 10
2.375028433631206
 20
-0.9648032523823513
 11
2.375208460142868
 21
4.193687371166118
 72
     1
 10
2.375208460142868
 20
4.193687371166118
 11
6.262509234981617
 21
-4.368102620465918
 72
     1
 10
6.262509234981617
 20
-4.368102620465917
 11
8.637061699398163
 21
-3.854359035633896
 72
     1
 10
8.637061699398163
 20
-3.854359035633896
 11
3.905939666281055
 21
6.568085762131229
 72
     1
 10
3.905939666281055
 20
6.56808576213123
 11
-0.0000000000001235
 21
5.723020649288631
 72
     1
 10
-0.0000000000001234
 20
5.723020649288631
 11
-0.000000000000185
 21
-5.723020649288538
 72
     1
 10
-0.000000000000185
 20
-5.723020649288538
 11
2.37465768908423
 21
-5.20925429869377
 72
     1
 10
2.37465768908423
 20
-5.20925429869377
 11
2.374784459841949
 21
-3.091238174090979
 72
     1
 10
2.374784459841949
 20
-3.091238174090979
 11
4.031830959914354
 21
-2.732729772218408
 72
     1
 10
4.031830959914354
 20
-2.732729772218408
 11
3.592351569710606
 21
-0.701430696416514
 72
     1
 10
3.592351569710606
 20
-0.7014306964165138
 11
2.375028433631206
 21
-0.9648032523823513
 97
        0
 75
     0
 76
     1
 98
        1
 10
0.0
 20
0.0
  0
HATCH
  5
D7
330
74
100
AcDbEntity
  8
0
100
AcDbHatch
 10
0.0
 20
0.0
 30
0.0
210
0.0
220
0.0
230
1.0
  2
SOLID
 70
     1
 71
     0
 91
        1
 92
        0
 93
        8
 72
     1
 10
-42.14906497721024
 20
-6.152323722221632
 11
-42.76219705242848
 21
-3.318391925879333
 72
     1
 10
-42.76219705242848
 20
-3.318391925879333
 11
-42.76249168149826
 21
-3.318455670015027
 72
     1
 10
-42.76249168149826
 20
-3.318455670015027
 11
-45.03079507887072
 21
-6.775797145163721
 72
     1
 10
-45.03079507887072
 20
-6.775797145163721
 11
-48.52545732888054
 21
-4.565295516814268
 72
     1
 10
-48.52545732888054
 20
-4.565295516814268
 11
-48.52574669671678
 21
-4.565358122661792
 72
     1
 10
-48.52574669671678
 20
-4.565358122661792
 11
-47.91261462149855
 21
-7.39928991900409
 72
     1
 10
-47.91261462149855
 20
-7.39928991900409
 11
-44.41773721666716
 21
-9.60984413289331
 72
     1
 10
-44.41773721666716
 20
-9.60984413289331
 11
-42.14906497721024
 21
-6.152323722221632
 97
        0
 75
     0
 76
     1
 98
        1
 10
0.0
 20
0.0
  0
HATCH
  5
D8
330
74
100
AcDbEntity
  8
0
100
AcDbHatch
 10
0.0
 20
0.0
 30
0.0
210
0.0
220
0.0
230
1.0
  2
SOLID
 70
     1
 71
     0
 91
        1
 92
        0
 93
        8
 72
     1
 10
-46.11999732125613
 20
-15.87212484345383
 11
-46.08139565189786
 21
-15.8637732233933
 72
     1
 10
-46.08139565189786
 20
-15.8637732233933
 11
-46.68636620117444
 21
-13.06756447043367
 72
     1
 10
-46.68636620117444
 20
-13.06756447043367
 11
-50.18135879739361
 21
-10.85693604353009
 72
     1
 10
-50.18135879739361
 20
-10.85693604353009
 11
-52.44976215820033
 21
-14.31429914615315
 72
     1
 10
-52.44976215820033
 20
-14.31429914615315
 11
-51.84475063055083
 21
-17.11069730351469
 72
     1
 10
-51.84475063055083
 20
-17.11069730351469
 11
-51.80633836559459
 21
-17.1023866618271
 72
     1
 10
-51.80633836559459
 20
-17.1023866618271
 11
-49.56818574380249
 21
-13.69105724427409
 72
     1
 10
-49.56818574380249
 20
-13.69105724427409
 11
-46.11999732125613
 21
-15.87212484345383
 97
        0
 75
     0
 76
     1
 98
        1
 10
0.0
 20
0.0
  0
HATCH
  5
D9
330
74
100
AcDbEntity
  8
0
100
AcDbHatch
 10
0.0
 20
0.0
 30
0.0
210
0.0
220
0.0
230
1.0
  2
SOLID
 70
     1
 71
     0
 91
        2
 92
        0
 93
        7
 72
     1
 10
-6.859585567104196
 20
4.238922852960538
 11
-11.00449045380928
 21
3.342156692939393
 72
     1
 10
-11.00449045380928
 20
3.342156692939393
 11
-8.638829473816639
 21
-7.592064727757185
 72
     1
 10
-8.638829473816639
 20
-7.592064727757185
 11
-8.63844014254617
 21
-7.591980494435086
 72
     1
 10
-8.63844014254617
 20
-7.591980494435086
 11
-4.494024550545999
 21
-6.695320195210662
 72
     4
 94
        3
 73
     1
 74
     0
 95
        8
 96
        4
 40
3.0
 40
3.0
 40
3.0
 40
3.0
 40
4.0
 40
4.0
 40
4.0
 40
4.0
 10
-4.494024550545999
 20
-6.695320195210662
 42
1.0
 10
-2.825524345390513
 20
-6.334333740063992
 42
1.0
 10
-1.762658323115034
 20
-4.702068307882374
 42
1.0
 10
-2.120071189640999
 20
-3.049576315093403
 42
1.0
 72
     4
 94
        3
 73
     1
 74
     0
 95
        8
 96
        4
 40
4.0
 40
4.0
 40
4.0
 40
4.0
 40
5.0
 40
5.0
 40
5.0
 40
5.0
 10
-2.120071189640999
 20
-3.049576315093403
 42
1.0
 10
-2.485983017556096
 20
-1.358310753073632
 42
1.0
 10
-2.867352798370483
 20
0.4044023583376265
 42
1.0
 10
-3.190995488197396
 20
1.900704823656681
 42
1.0
 72
     4
 94
        3
 73
     1
 74
     0
 95
        8
 96
        4
 40
5.0
 40
5.0
 40
5.0
 40
5.0
 40
6.0
 40
6.0
 40
6.0
 40
6.0
 10
-3.190995488197396
 20
1.900704823656681
 42
1.0
 10
-3.54857504695031
 20
3.553458157285876
 42
1.0
 10
-5.190901218780231
 20
4.599949148191988
 42
1.0
 10
-6.859585567104196
 20
4.238922852960538
 42
1.0
 97
        0
 92
        0
 93
        6
 72
     4
 94
        3
 73
     1
 74
     0
 95
        8
 96
        4
 40
2.0
 40
2.0
 40
2.0
 40
2.0
 40
3.0
 40
3.0
 40
3.0
 40
3.0
 10
-6.919811195494074
 20
2.099808074263809
 42
1.0
 10
-6.228016878711183
 20
2.249480443098069
 42
1.0
 10
-5.547633595833446
 20
1.815851349115847
 42
1.0
 10
-5.399398884916104
 20
1.130701970100344
 42
1.0
 72
     4
 94
        3
 73
     1
 74
     0
 95
        8
 96
        4
 40
3.0
 40
3.0
 40
3.0
 40
3.0
 40
4.0
 40
4.0
 40
4.0
 40
4.0
 10
-5.399398884916104
 20
1.130701970100344
 42
1.0
 10
-5.107009087764085
 20
-0.2207405274728672
 42
1.0
 10
-4.711497421058354
 20
-2.048334586467611
 42
1.0
 10
-4.449160707297047
 20
-3.260870000165379
 42
1.0
 72
     4
 94
        3
 73
     1
 74
     0
 95
        8
 96
        4
 40
4.0
 40
4.0
 40
4.0
 40
4.0
 40
5.0
 40
5.0
 40
5.0
 40
5.0
 10
-4.449160707297047
 20
-3.260870000165379
 42
1.0
 10
-4.300905507193207
 20
-3.946114081381999
 42
1.0
 10
-4.741570606399121
 20
-4.622385452066122
 42
1.0
 10
-5.433383135791953
 20
-4.771973641166296
 42
1.0
 72
     1
 10
-5.433383135791953
 20
-4.771973641166296
 11
-6.809537646582547
 21
-5.069709977697404
 72
     4
 94
        3
 73
     1
 74
     0
 95
        8
 96
        4
 40
0.0
 40
0.0
 40
0.0
 40
0.0
 40
1.0
 40
1.0
 40
1.0
 40
1.0
 10
-6.809537646582547
 20
-5.069709977697404
 42
1.0
 10
-7.284290309572815
 20
-2.875375801708635
 42
1.0
 10
-7.897830097865885
 20
-0.0390758678013329
 42
1.0
 10
-8.296070930952649
 20
1.80204897196991
 42
1.0
 72
     1
 10
-8.296070930952649
 20
1.80204897196991
 11
-6.919811195494074
 21
2.099808074263809
 97
        0
 75
     0
 76
     1
 98
        1
 10
0.0
 20
0.0
  0
ENDBLK
  5
76
330
74
100
AcDbEntity
  8
0
100
AcDbBlockEnd
  0
BLOCK
  5
302
330
301
100
AcDbEntity
  8
0
100
AcDbBlockBegin
  2
SW_CENTERMARKSYMBOL_0
 70
     0
 10
0.0
 20
0.0
 30
0.0
  3
SW_CENTERMARKSYMBOL_0
  1

  0
LINE
  5
304
330
301
100
AcDbEntity
  8
0
  6
Continuous
 62
     0
370
    18
100
AcDbLine
 10
0.0
 20
0.0
 30
0.0
 11
0.0
 21
2.5
 31
0.0
  0
LINE
  5
305
330
301
100
AcDbEntity
  8
0
  6
Continuous
 62
     0
370
    18
100
AcDbLine
 10
0.0
 20
0.0
 30
0.0
 11
-2.5
 21
0.0
 31
0.0
  0
LINE
  5
306
330
301
100
AcDbEntity
  8
0
  6
Continuous
 62
     0
370
    18
100
AcDbLine
 10
0.0
 20
0.0
 30
0.0
 11
0.0
 21
-2.5
 31
0.0
  0
LINE
  5
307
330
301
100
AcDbEntity
  8
0
  6
Continuous
 62
     0
370
    18
100
AcDbLine
 10
0.0
 20
0.0
 30
0.0
 11
2.5
 21
0.0
 31
0.0
  0
LINE
  5
308
330
301
100
AcDbEntity
  8
0
  6
Continuous
 62
     0
370
    18
100
AcDbLine
 10
0.0
 20
5.0
 30
0.0
 11
0.0
 21
60.6
 31
0.0
  0
LINE
  5
309
330
301
100
AcDbEntity
  8
0
  6
Continuous
 62
     0
370
    18
100
AcDbLine
 10
-5.0
 20
0.0
 30
0.0
 11
-60.6
 21
0.0
 31
0.0
  0
LINE
  5
30A
330
301
100
AcDbEntity
  8
0
  6
Continuous
 62
     0
370
    18
100
AcDbLine
 10
0.0
 20
-5.0
 30
0.0
 11
0.0
 21
-60.6
 31
0.0
  0
LINE
  5
30B
330
301
100
AcDbEntity
  8
0
  6
Continuous
 62
     0
370
    18
100
AcDbLine
 10
5.0
 20
0.0
 30
0.0
 11
60.6
 21
0.0
 31
0.0
  0
ENDBLK
  5
303
330
301
100
AcDbEntity
  8
0
100
AcDbBlockEnd
  0
ENDSEC
  0
SECTION
  2
ENTITIES
  0
ARC
  5
DA
330
1F
100
AcDbEntity
  8
0
100
AcDbCircle
 10
-542.0068490484
 20
90.4058089926
 30
0.0
 40
0.2000000000000028
100
AcDbArc
 50
90.0
 51
180.0
  0
ARC
  5
DB
330
1F
100
AcDbEntity
  8
0
100
AcDbCircle
 10
-531.4068490484
 20
90.4058089926
 30
0.0
 40
0.2000000000000455
100
AcDbArc
 50
0.0
 51
90.0
  0
LINE
  5
DC
330
1F
100
AcDbEntity
  8
0
100
AcDbLine
 10
-542.2068490484
 20
90.4058089926
 30
0.0
 11
-542.2068490484
 21
89.8058089926
 31
0.0
  0
LINE
  5
DD
330
1F
100
AcDbEntity
  8
0
100
AcDbLine
 10
-531.2068490484
 20
89.8058089926
 30
0.0
 11
-531.2068490484
 21
90.4058089926
 31
0.0
  0
ARC
  5
DE
330
1F
100
AcDbEntity
  8
0
100
AcDbCircle
 10
-542.0068490484
 20
89.8058089926
 30
0.0
 40
0.1999999999999886
100
AcDbArc
 50
180.0
 51
270.0
  0
ARC
  5
DF
330
1F
100
AcDbEntity
  8
0
100
AcDbCircle
 10
-531.4068490484
 20
89.8058089926
 30
0.0
 40
0.2000000000000455
100
AcDbArc
 50
270.0
 51
0.0
  0
ARC
  5
E0
330
1F
100
AcDbEntity
  8
0
100
AcDbCircle
 10
-537.0969865858
 20
96.5962903737
 30
0.0
 40
8.000000000000046
100
AcDbArc
 50
287.1467397277
 51
299.0955287963
  0
ARC
  5
E1
330
1F
100
AcDbEntity
  8
0
100
AcDbCircle
 10
-536.3167115109
 20
96.5962903737
 30
0.0
 40
7.999999999999991
100
AcDbArc
 50
240.9044712037
 51
252.8515803462
  0
LINE
  5
E2
330
1F
100
AcDbEntity
  8
0
100
AcDbLine
 10
348.7931509516
 20
315.8058089926
 30
0.0
 11
348.7931509516
 21
316.4058089926
 31
0.0
  0
LINE
  5
E3
330
1F
100
AcDbEntity
  8
0
100
AcDbLine
 10
337.7931509516
 20
316.4058089926
 30
0.0
 11
337.7931509516
 21
315.8058089926
 31
0.0
  0
ARC
  5
E4
330
1F
100
AcDbEntity
  8
0
100
AcDbCircle
 10
348.5931509516
 20
316.4058089926
 30
0.0
 40
0.1999999999999886
100
AcDbArc
 50
0.0
 51
90.0
  0
ARC
  5
E5
330
1F
100
AcDbEntity
  8
0
100
AcDbCircle
 10
337.9931509516
 20
316.4058089926
 30
0.0
 40
0.1999999999999886
100
AcDbArc
 50
90.0
 51
180.0
  0
ARC
  5
E6
330
1F
100
AcDbEntity
  8
0
100
AcDbCircle
 10
348.5931509516
 20
315.8058089926
 30
0.0
 40
0.2000000000000455
100
AcDbArc
 50
270.0
 51
0.0
  0
ARC
  5
E7
330
1F
100
AcDbEntity
  8
0
100
AcDbCircle
 10
337.9931509516
 20
315.8058089926
 30
0.0
 40
0.2000000000000455
100
AcDbArc
 50
180.0
 51
270.0
  0
ARC
  5
E8
330
1F
100
AcDbEntity
  8
0
100
AcDbCircle
 10
343.6832884891
 20
309.6153276115
 30
0.0
 40
7.99999999999998
100
AcDbArc
 50
107.1467397277
 51
119.0955287963
  0
ARC
  5
E9
330
1F
100
AcDbEntity
  8
0
100
AcDbCircle
 10
342.9030134142
 20
309.6153276115
 30
0.0
 40
8.000000000000016
100
AcDbArc
 50
60.9044712037
 51
72.8515803462
  0
LINE
  5
EA
330
1F
100
AcDbEntity
  8
0
100
AcDbLine
 10
345.3931509516
 20
315.4704060782
 30
0.0
 11
345.3931509516
 21
315.6058089926
 31
0.0
  0
LINE
  5
EB
330
1F
100
AcDbEntity
  8
0
100
AcDbLine
 10
341.1931509516
 20
315.6058089926
 30
0.0
 11
341.1931509516
 21
315.4704060782
 31
0.0
  0
ARC
  5
EC
330
1F
100
AcDbEntity
  8
0
100
AcDbCircle
 10
-531.4068490484
 20
316.4058089926
 30
0.0
 40
0.2000000000000455
100
AcDbArc
 50
0.0
 51
90.0
  0
LINE
  5
ED
330
1F
100
AcDbEntity
  8
0
100
AcDbLine
 10
-531.2068490484
 20
315.8058089926
 30
0.0
 11
-531.2068490484
 21
316.4058089926
 31
0.0
  0
ARC
  5
EE
330
1F
100
AcDbEntity
  8
0
100
AcDbCircle
 10
-531.4068490484
 20
315.8058089926
 30
0.0
 40
0.2000000000000455
100
AcDbArc
 50
270.0
 51
0.0
  0
ARC
  5
EF
330
1F
100
AcDbEntity
  8
0
100
AcDbCircle
 10
-536.3167115109
 20
309.6153276115
 30
0.0
 40
7.99999999999998
100
AcDbArc
 50
107.1467397277
 51
119.0955287963
  0
ARC
  5
F0
330
1F
100
AcDbEntity
  8
0
100
AcDbCircle
 10
-537.0969865858
 20
309.6153276115
 30
0.0
 40
8.000000000000034
100
AcDbArc
 50
60.9044712037
 51
72.8515803462
  0
LINE
  5
F1
330
1F
100
AcDbEntity
  8
0
100
AcDbLine
 10
-534.6068490484
 20
315.4704060782
 30
0.0
 11
-534.6068490484
 21
315.6058089926
 31
0.0
  0
ARC
  5
F2
330
1F
100
AcDbEntity
  8
0
100
AcDbCircle
 10
337.9931509516
 20
90.4058089926
 30
0.0
 40
0.2000000000000028
100
AcDbArc
 50
90.0
 51
180.0
  0
ARC
  5
F3
330
1F
100
AcDbEntity
  8
0
100
AcDbCircle
 10
348.5931509516
 20
90.4058089926
 30
0.0
 40
0.2000000000000028
100
AcDbArc
 50
0.0
 51
90.0
  0
LINE
  5
F4
330
1F
100
AcDbEntity
  8
0
100
AcDbLine
 10
337.7931509516
 20
90.4058089926
 30
0.0
 11
337.7931509516
 21
89.8058089926
 31
0.0
  0
LINE
  5
F5
330
1F
100
AcDbEntity
  8
0
100
AcDbLine
 10
348.7931509516
 20
89.8058089926
 30
0.0
 11
348.7931509516
 21
90.4058089926
 31
0.0
  0
ARC
  5
F6
330
1F
100
AcDbEntity
  8
0
100
AcDbCircle
 10
337.9931509516
 20
89.8058089926
 30
0.0
 40
0.1999999999999886
100
AcDbArc
 50
180.0
 51
270.0
  0
ARC
  5
F7
330
1F
100
AcDbEntity
  8
0
100
AcDbCircle
 10
348.5931509516
 20
89.8058089926
 30
0.0
 40
0.1999999999999886
100
AcDbArc
 50
270.0
 51
0.0
  0
ARC
  5
F8
330
1F
100
AcDbEntity
  8
0
100
AcDbCircle
 10
342.9030134142
 20
96.5962903737
 30
0.0
 40
7.999999999999991
100
AcDbArc
 50
287.1467397277
 51
299.0955287963
  0
ARC
  5
F9
330
1F
100
AcDbEntity
  8
0
100
AcDbCircle
 10
343.6832884891
 20
96.5962903737
 30
0.0
 40
7.999999999999991
100
AcDbArc
 50
240.9044712037
 51
252.8515803462
  0
ARC
  5
FA
330
1F
100
AcDbEntity
  8
0
100
AcDbCircle
 10
-630.0513514398
 20
133.7058089926
 30
0.0
 40
0.500000000000086
100
AcDbArc
 50
184.9871394293
 51
0.0
  0
ARC
  5
FB
330
1F
100
AcDbEntity
  8
0
100
AcDbCircle
 10
-630.0513514398
 20
272.5058089926
 30
0.0
 40
0.4999999999999754
100
AcDbArc
 50
0.0
 51
175.0128605707
  0
ARC
  5
FC
330
1F
100
AcDbEntity
  8
0
100
AcDbCircle
 10
-634.2513514398
 20
133.7058089926
 30
0.0
 40
0.5
100
AcDbArc
 50
184.9871394293
 51
0.0
  0
ARC
  5
FD
330
1F
100
AcDbEntity
  8
0
100
AcDbCircle
 10
-634.2513514398
 20
272.5058089926
 30
0.0
 40
0.5
100
AcDbArc
 50
0.0
 51
175.0128605707
  0
LINE
  5
FE
330
1F
100
AcDbEntity
  8
0
100
AcDbLine
 10
-630.5494585577
 20
272.5492750603
 30
0.0
 11
-631.2314322958
 21
264.7340759588
 31
0.0
  0
LINE
  5
FF
330
1F
100
AcDbEntity
  8
0
100
AcDbLine
 10
-631.2314322958
 20
141.4775420265
 30
0.0
 11
-630.5494585577
 21
133.6623429249
 31
0.0
  0
LINE
  5
100
330
1F
100
AcDbEntity
  8
0
100
AcDbLine
 10
-634.7494585577
 20
272.5492750603
 30
0.0
 11
-635.4314322958
 21
264.7340759588
 31
0.0
  0
LINE
  5
101
330
1F
100
AcDbEntity
  8
0
100
AcDbLine
 10
-635.4314322958
 20
141.4775420265
 30
0.0
 11
-634.7494585577
 21
133.6623429249
 31
0.0
  0
ARC
  5
102
330
1F
100
AcDbEntity
  8
0
100
AcDbCircle
 10
-631.4804858548
 20
141.4558089926
 30
0.0
 40
0.25
100
AcDbArc
 50
4.9871394293
 51
90.0
  0
ARC
  5
103
330
1F
100
AcDbEntity
  8
0
100
AcDbCircle
 10
-631.4804858548
 20
264.7558089926
 30
0.0
 40
0.25
100
AcDbArc
 50
270.0
 51
355.0128605707
  0
ARC
  5
104
330
1F
100
AcDbEntity
  8
0
100
AcDbCircle
 10
-635.6804858548
 20
141.4558089926
 30
0.0
 40
0.2500000000000284
100
AcDbArc
 50
4.9871394293
 51
90.0
  0
ARC
  5
105
330
1F
100
AcDbEntity
  8
0
100
AcDbCircle
 10
-635.6804858548
 20
264.7558089926
 30
0.0
 40
0.2500000000000568
100
AcDbArc
 50
270.0
 51
355.0128605707
  0
LINE
  5
106
330
1F
100
AcDbEntity
  8
0
100
AcDbLine
 10
-633.7513514398
 20
141.7058089926
 30
0.0
 11
-631.4804858548
 21
141.7058089926
 31
0.0
  0
LINE
  5
107
330
1F
100
AcDbEntity
  8
0
100
AcDbLine
 10
-631.4804858548
 20
264.5058089926
 30
0.0
 11
-633.7513514398
 21
264.5058089926
 31
0.0
  0
LINE
  5
108
330
1F
100
AcDbEntity
  8
0
100
AcDbLine
 10
-636.8013514398
 20
141.7058089926
 30
0.0
 11
-635.6804858548
 21
141.7058089926
 31
0.0
  0
LINE
  5
109
330
1F
100
AcDbEntity
  8
0
100
AcDbLine
 10
-635.6804858548
 20
264.5058089926
 30
0.0
 11
-636.8013514398
 21
264.5058089926
 31
0.0
  0
ARC
  5
10A
330
1F
100
AcDbEntity
  8
0
100
AcDbCircle
 10
440.8376533431
 20
272.5058089926
 30
0.0
 40
0.4999999999999704
100
AcDbArc
 50
4.9871394293
 51
180.0
  0
ARC
  5
10B
330
1F
100
AcDbEntity
  8
0
100
AcDbCircle
 10
440.8376533431
 20
133.7058089926
 30
0.0
 40
0.4999999999999729
100
AcDbArc
 50
180.0
 51
355.0128605707
  0
ARC
  5
10C
330
1F
100
AcDbEntity
  8
0
100
AcDbCircle
 10
436.6376533431
 20
272.5058089926
 30
0.0
 40
0.4999999999999754
100
AcDbArc
 50
4.9871394293
 51
180.0
  0
ARC
  5
10D
330
1F
100
AcDbEntity
  8
0
100
AcDbCircle
 10
436.6376533431
 20
133.7058089926
 30
0.0
 40
0.5000000000000568
100
AcDbArc
 50
180.0
 51
355.0128605707
  0
LINE
  5
10E
330
1F
100
AcDbEntity
  8
0
100
AcDbLine
 10
437.135760461
 20
133.6623429249
 30
0.0
 11
437.8177341991
 21
141.4775420265
 31
0.0
  0
LINE
  5
10F
330
1F
100
AcDbEntity
  8
0
100
AcDbLine
 10
437.8177341991
 20
264.7340759588
 30
0.0
 11
437.135760461
 21
272.5492750603
 31
0.0
  0
LINE
  5
110
330
1F
100
AcDbEntity
  8
0
100
AcDbLine
 10
441.335760461
 20
133.6623429249
 30
0.0
 11
442.0177341991
 21
141.4775420265
 31
0.0
  0
LINE
  5
111
330
1F
100
AcDbEntity
  8
0
100
AcDbLine
 10
442.0177341991
 20
264.7340759588
 30
0.0
 11
441.335760461
 21
272.5492750603
 31
0.0
  0
ARC
  5
112
330
1F
100
AcDbEntity
  8
0
100
AcDbCircle
 10
438.0667877581
 20
264.7558089926
 30
0.0
 40
0.25
100
AcDbArc
 50
184.9871394293
 51
270.0
  0
ARC
  5
113
330
1F
100
AcDbEntity
  8
0
100
AcDbCircle
 10
438.0667877581
 20
141.4558089926
 30
0.0
 40
0.25
100
AcDbArc
 50
90.0
 51
175.0128605707
  0
ARC
  5
114
330
1F
100
AcDbEntity
  8
0
100
AcDbCircle
 10
442.2667877581
 20
264.7558089926
 30
0.0
 40
0.2500000000000568
100
AcDbArc
 50
184.9871394293
 51
270.0
  0
ARC
  5
115
330
1F
100
AcDbEntity
  8
0
100
AcDbCircle
 10
442.2667877581
 20
141.4558089926
 30
0.0
 40
0.2500000000000284
100
AcDbArc
 50
90.0
 51
175.0128605707
  0
LINE
  5
116
330
1F
100
AcDbEntity
  8
0
100
AcDbLine
 10
440.3376533431
 20
264.5058089926
 30
0.0
 11
438.0667877581
 21
264.5058089926
 31
0.0
  0
LINE
  5
117
330
1F
100
AcDbEntity
  8
0
100
AcDbLine
 10
438.0667877581
 20
141.7058089926
 30
0.0
 11
440.3376533431
 21
141.7058089926
 31
0.0
  0
LINE
  5
118
330
1F
100
AcDbEntity
  8
0
100
AcDbLine
 10
443.3876533431
 20
264.5058089926
 30
0.0
 11
442.2667877581
 21
264.5058089926
 31
0.0
  0
LINE
  5
119
330
1F
100
AcDbEntity
  8
0
100
AcDbLine
 10
442.2667877581
 20
141.7058089926
 30
0.0
 11
443.3876533431
 21
141.7058089926
 31
0.0
  0
ARC
  5
11A
330
1F
100
AcDbEntity
  8
0
100
AcDbCircle
 10
-549.918157193
 20
91.8558089926
 30
0.0
 40
2.74999999999996
100
AcDbArc
 50
188.8498830984
 51
351.1501169016
  0
ARC
  5
11B
330
1F
100
AcDbEntity
  8
0
100
AcDbCircle
 10
-549.918157193
 20
314.3558089926
 30
0.0
 40
2.749999999999964
100
AcDbArc
 50
8.8498830984
 51
171.1501169016
  0
ARC
  5
11C
330
1F
100
AcDbEntity
  8
0
100
AcDbCircle
 10
-553.1294653377
 20
91.3558089926
 30
0.0
 40
0.5000000000000644
100
AcDbArc
 50
8.8498830984
 51
90.0
  0
ARC
  5
11D
330
1F
100
AcDbEntity
  8
0
100
AcDbCircle
 10
-553.1294653377
 20
314.8558089926
 30
0.0
 40
0.5000000000000665
100
AcDbArc
 50
270.0
 51
351.1501169016
  0
ARC
  5
11E
330
1F
100
AcDbEntity
  8
0
100
AcDbCircle
 10
-546.7068490484
 20
91.3558089926
 30
0.0
 40
0.5000000000000644
100
AcDbArc
 50
90.0
 51
171.1501169016
  0
ARC
  5
11F
330
1F
100
AcDbEntity
  8
0
100
AcDbCircle
 10
-546.7068490484
 20
314.8558089926
 30
0.0
 40
0.5000000000000577
100
AcDbArc
 50
188.8498830984
 51
270.0
  0
LINE
  5
120
330
1F
100
AcDbEntity
  8
0
100
AcDbLine
 10
-554.7068490484
 20
91.8558089926
 30
0.0
 11
-553.1294653377
 21
91.8558089926
 31
0.0
  0
LINE
  5
121
330
1F
100
AcDbEntity
  8
0
100
AcDbLine
 10
-553.1294653377
 20
314.3558089926
 30
0.0
 11
-554.7068490484
 21
314.3558089926
 31
0.0
  0
ARC
  5
122
330
1F
100
AcDbEntity
  8
0
100
AcDbCircle
 10
-554.7068490484
 20
100.6058089926
 30
0.0
 40
8.750000000000037
100
AcDbArc
 50
200.0
 51
270.0
  0
ARC
  5
123
330
1F
100
AcDbEntity
  8
0
100
AcDbCircle
 10
-554.7068490484
 20
305.6058089926
 30
0.0
 40
8.750000000000057
100
AcDbArc
 50
90.0
 51
160.0
  0
LINE
  5
124
330
1F
100
AcDbEntity
  8
0
100
AcDbLine
 10
-562.9291594802
 20
308.5984852467
 30
0.0
 11
-577.2218107705
 21
269.3297485626
 31
0.0
  0
LINE
  5
125
330
1F
100
AcDbEntity
  8
0
100
AcDbLine
 10
-577.2218107705
 20
136.8818694226
 30
0.0
 11
-562.9291594802
 21
97.6131327385
 31
0.0
  0
ARC
  5
126
330
1F
100
AcDbEntity
  8
0
100
AcDbCircle
 10
-580.0408886328
 20
135.8558089926
 30
0.0
 40
3.000000000000019
100
AcDbArc
 50
20.0
 51
90.0
  0
ARC
  5
127
330
1F
100
AcDbEntity
  8
0
100
AcDbCircle
 10
-580.0408886328
 20
270.3558089926
 30
0.0
 40
3.000000000000019
100
AcDbArc
 50
270.0
 51
340.0
  0
ARC
  5
128
330
1F
100
AcDbEntity
  8
0
100
AcDbCircle
 10
-597.8013514398
 20
141.2058089926
 30
0.0
 40
2.750000000000068
100
AcDbArc
 50
188.8498830984
 51
351.1501169016
  0
ARC
  5
129
330
1F
100
AcDbEntity
  8
0
100
AcDbCircle
 10
-597.8013514398
 20
265.0058089926
 30
0.0
 40
2.750000000000068
100
AcDbArc
 50
8.8498830984
 51
171.1501169016
  0
LINE
  5
12A
330
1F
100
AcDbEntity
  8
0
100
AcDbLine
 10
-589.4739013347
 20
138.8558089926
 30
0.0
 11
-580.0408886328
 21
138.8558089926
 31
0.0
  0
LINE
  5
12B
330
1F
100
AcDbEntity
  8
0
100
AcDbLine
 10
-580.0408886328
 20
267.3558089926
 30
0.0
 11
-582.9341673536
 21
267.3558089926
 31
0.0
  0
LINE
  5
12C
330
1F
100
AcDbEntity
  8
0
100
AcDbLine
 10
-588.3424767801
 20
267.3558089926
 30
0.0
 11
-589.4739013347
 21
267.3558089926
 31
0.0
  0
LINE
  5
12D
330
1F
100
AcDbEntity
  8
0
100
AcDbLine
 10
-589.4739013347
 20
267.3558089926
 30
0.0
 11
-590.8306744673
 21
265.0058089926
 31
0.0
  0
LINE
  5
12E
330
1F
100
AcDbEntity
  8
0
100
AcDbLine
 10
-590.8306744673
 20
141.2058089926
 30
0.0
 11
-589.4739013347
 21
138.8558089926
 31
0.0
  0
ARC
  5
12F
330
1F
100
AcDbEntity
  8
0
100
AcDbCircle
 10
-594.5900432951
 20
140.7058089926
 30
0.0
 40
0.5000000000000665
100
AcDbArc
 50
90.0
 51
171.1501169016
  0
ARC
  5
130
330
1F
100
AcDbEntity
  8
0
100
AcDbCircle
 10
-594.5900432951
 20
265.5058089926
 30
0.0
 40
0.5000000000000577
100
AcDbArc
 50
188.8498830984
 51
270.0
  0
ARC
  5
131
330
1F
100
AcDbEntity
  8
0
100
AcDbCircle
 10
-601.0126595844
 20
140.7058089926
 30
0.0
 40
0.5
100
AcDbArc
 50
8.8498830984
 51
90.0
  0
ARC
  5
132
330
1F
100
AcDbEntity
  8
0
100
AcDbCircle
 10
-601.0126595844
 20
265.5058089926
 30
0.0
 40
0.5
100
AcDbArc
 50
270.0
 51
351.1501169016
  0
LINE
  5
133
330
1F
100
AcDbEntity
  8
0
100
AcDbLine
 10
-641.5013514398
 20
141.2058089926
 30
0.0
 11
-636.8013514398
 21
141.2058089926
 31
0.0
  0
LINE
  5
134
330
1F
100
AcDbEntity
  8
0
100
AcDbLine
 10
-636.8013514398
 20
265.0058089926
 30
0.0
 11
-641.5013514398
 21
265.0058089926
 31
0.0
  0
ARC
  5
135
330
1F
100
AcDbEntity
  8
0
100
AcDbCircle
 10
-641.5013514398
 20
142.5058089926
 30
0.0
 40
1.299999999983811
100
AcDbArc
 50
180.0
 51
270.0
  0
ARC
  5
136
330
1F
100
AcDbEntity
  8
0
100
AcDbCircle
 10
-641.5013514398
 20
263.7058089926
 30
0.0
 40
1.299999999983811
100
AcDbArc
 50
90.0
 51
180.0
  0
LINE
  5
137
330
1F
100
AcDbEntity
  8
0
100
AcDbLine
 10
-624.1421737629
 20
141.2058089926
 30
0.0
 11
-601.0126595844
 21
141.2058089926
 31
0.0
  0
LINE
  5
138
330
1F
100
AcDbEntity
  8
0
100
AcDbLine
 10
-601.0126595844
 20
265.0058089926
 30
0.0
 11
-624.1421737629
 21
265.0058089926
 31
0.0
  0
LINE
  5
139
330
1F
100
AcDbEntity
  8
0
100
AcDbLine
 10
-624.1421737629
 20
265.0058089926
 30
0.0
 11
-629.5513514398
 21
262.9587028763
 31
0.0
  0
LINE
  5
13A
330
1F
100
AcDbEntity
  8
0
100
AcDbLine
 10
-629.5513514398
 20
143.2529151089
 30
0.0
 11
-624.1421737629
 21
141.2058089926
 31
0.0
  0
LINE
  5
13B
330
1F
100
AcDbEntity
  8
0
100
AcDbLine
 10
-594.5900432951
 20
141.2058089926
 30
0.0
 11
-590.8306744673
 21
141.2058089926
 31
0.0
  0
LINE
  5
13C
330
1F
100
AcDbEntity
  8
0
100
AcDbLine
 10
-590.8306744673
 20
265.0058089926
 30
0.0
 11
-594.5900432951
 21
265.0058089926
 31
0.0
  0
ARC
  5
13D
330
1F
100
AcDbEntity
  8
0
100
AcDbCircle
 10
356.5044590963
 20
314.3558089926
 30
0.0
 40
2.75000000000002
100
AcDbArc
 50
8.8498830984
 51
171.1501169016
  0
ARC
  5
13E
330
1F
100
AcDbEntity
  8
0
100
AcDbCircle
 10
356.5044590963
 20
91.8558089926
 30
0.0
 40
2.750000000000012
100
AcDbArc
 50
188.8498830984
 51
351.1501169016
  0
ARC
  5
13F
330
1F
100
AcDbEntity
  8
0
100
AcDbCircle
 10
353.2931509516
 20
314.8558089926
 30
0.0
 40
0.5
100
AcDbArc
 50
270.0
 51
351.1501169016
  0
ARC
  5
140
330
1F
100
AcDbEntity
  8
0
100
AcDbCircle
 10
353.2931509516
 20
91.3558089926
 30
0.0
 40
0.5000000000000082
100
AcDbArc
 50
8.8498830984
 51
90.0
  0
ARC
  5
141
330
1F
100
AcDbEntity
  8
0
100
AcDbCircle
 10
359.715767241
 20
314.8558089926
 30
0.0
 40
0.5000000000000103
100
AcDbArc
 50
188.8498830984
 51
270.0
  0
ARC
  5
142
330
1F
100
AcDbEntity
  8
0
100
AcDbCircle
 10
359.715767241
 20
91.3558089926
 30
0.0
 40
0.5000000000000082
100
AcDbArc
 50
90.0
 51
171.1501169016
  0
ARC
  5
143
330
1F
100
AcDbEntity
  8
0
100
AcDbCircle
 10
361.2931509516
 20
305.6058089926
 30
0.0
 40
8.750000000000057
100
AcDbArc
 50
20.0
 51
90.0
  0
ARC
  5
144
330
1F
100
AcDbEntity
  8
0
100
AcDbCircle
 10
361.2931509516
 20
100.6058089926
 30
0.0
 40
8.75
100
AcDbArc
 50
270.0
 51
340.0
  0
LINE
  5
145
330
1F
100
AcDbEntity
  8
0
100
AcDbLine
 10
361.2931509516
 20
314.3558089926
 30
0.0
 11
359.715767241
 21
314.3558089926
 31
0.0
  0
LINE
  5
146
330
1F
100
AcDbEntity
  8
0
100
AcDbLine
 10
359.715767241
 20
91.8558089926
 30
0.0
 11
361.2931509516
 21
91.8558089926
 31
0.0
  0
LINE
  5
147
330
1F
100
AcDbEntity
  8
0
100
AcDbLine
 10
369.5154613835
 20
97.6131327385
 30
0.0
 11
383.8081126738
 21
136.8818694226
 31
0.0
  0
LINE
  5
148
330
1F
100
AcDbEntity
  8
0
100
AcDbLine
 10
383.8081126738
 20
269.3297485626
 30
0.0
 11
369.5154613835
 21
308.5984852467
 31
0.0
  0
ARC
  5
149
330
1F
100
AcDbEntity
  8
0
100
AcDbCircle
 10
386.6271905361
 20
270.3558089926
 30
0.0
 40
3.0
100
AcDbArc
 50
200.0
 51
270.0
  0
ARC
  5
14A
330
1F
100
AcDbEntity
  8
0
100
AcDbCircle
 10
386.6271905361
 20
135.8558089926
 30
0.0
 40
3.000000000000019
100
AcDbArc
 50
90.0
 51
160.0
  0
ARC
  5
14B
330
1F
100
AcDbEntity
  8
0
100
AcDbCircle
 10
404.3876533431
 20
265.0058089926
 30
0.0
 40
2.75000000000002
100
AcDbArc
 50
8.8498830984
 51
171.1501169016
  0
ARC
  5
14C
330
1F
100
AcDbEntity
  8
0
100
AcDbCircle
 10
404.3876533431
 20
141.2058089926
 30
0.0
 40
2.750000000000064
100
AcDbArc
 50
188.8498830984
 51
351.1501169016
  0
LINE
  5
14D
330
1F
100
AcDbEntity
  8
0
100
AcDbLine
 10
396.060203238
 20
138.8558089926
 30
0.0
 11
397.4169763706
 21
141.2058089926
 31
0.0
  0
LINE
  5
14E
330
1F
100
AcDbEntity
  8
0
100
AcDbLine
 10
397.4169763706
 20
265.0058089926
 30
0.0
 11
396.060203238
 21
267.3558089926
 31
0.0
  0
LINE
  5
14F
330
1F
100
AcDbEntity
  8
0
100
AcDbLine
 10
396.060203238
 20
267.3558089926
 30
0.0
 11
393.0658326464
 21
267.3558089926
 31
0.0
  0
LINE
  5
150
330
1F
100
AcDbEntity
  8
0
100
AcDbLine
 10
387.6575232199
 20
267.3558089926
 30
0.0
 11
386.6271905361
 21
267.3558089926
 31
0.0
  0
LINE
  5
151
330
1F
100
AcDbEntity
  8
0
100
AcDbLine
 10
386.6271905361
 20
138.8558089926
 30
0.0
 11
396.060203238
 21
138.8558089926
 31
0.0
  0
ARC
  5
152
330
1F
100
AcDbEntity
  8
0
100
AcDbCircle
 10
401.1763451984
 20
265.5058089926
 30
0.0
 40
0.5000000000000017
100
AcDbArc
 50
270.0
 51
351.1501169016
  0
ARC
  5
153
330
1F
100
AcDbEntity
  8
0
100
AcDbCircle
 10
401.1763451984
 20
140.7058089926
 30
0.0
 40
0.5000000000000103
100
AcDbArc
 50
8.8498830984
 51
90.0
  0
ARC
  5
154
330
1F
100
AcDbEntity
  8
0
100
AcDbCircle
 10
407.5989614877
 20
265.5058089926
 30
0.0
 40
0.5000000000000103
100
AcDbArc
 50
188.8498830984
 51
270.0
  0
ARC
  5
155
330
1F
100
AcDbEntity
  8
0
100
AcDbCircle
 10
407.5989614877
 20
140.7058089926
 30
0.0
 40
0.5000000000000103
100
AcDbArc
 50
90.0
 51
171.1501169016
  0
LINE
  5
156
330
1F
100
AcDbEntity
  8
0
100
AcDbLine
 10
448.0876533431
 20
265.0058089926
 30
0.0
 11
443.3876533431
 21
265.0058089926
 31
0.0
  0
LINE
  5
157
330
1F
100
AcDbEntity
  8
0
100
AcDbLine
 10
443.3876533431
 20
141.2058089926
 30
0.0
 11
448.0876533431
 21
141.2058089926
 31
0.0
  0
ARC
  5
158
330
1F
100
AcDbEntity
  8
0
100
AcDbCircle
 10
448.0876533431
 20
263.7058089926
 30
0.0
 40
1.299999999983811
100
AcDbArc
 50
0.0
 51
90.0
  0
ARC
  5
159
330
1F
100
AcDbEntity
  8
0
100
AcDbCircle
 10
448.0876533431
 20
142.5058089926
 30
0.0
 40
1.299999999983811
100
AcDbArc
 50
270.0
 51
0.0
  0
LINE
  5
15A
330
1F
100
AcDbEntity
  8
0
100
AcDbLine
 10
430.7284756662
 20
265.0058089926
 30
0.0
 11
407.5989614877
 21
265.0058089926
 31
0.0
  0
LINE
  5
15B
330
1F
100
AcDbEntity
  8
0
100
AcDbLine
 10
407.5989614877
 20
141.2058089926
 30
0.0
 11
430.7284756662
 21
141.2058089926
 31
0.0
  0
LINE
  5
15C
330
1F
100
AcDbEntity
  8
0
100
AcDbLine
 10
430.7284756662
 20
141.2058089926
 30
0.0
 11
436.1376533431
 21
143.2529151089
 31
0.0
  0
LINE
  5
15D
330
1F
100
AcDbEntity
  8
0
100
AcDbLine
 10
436.1376533431
 20
262.9587028763
 30
0.0
 11
430.7284756662
 21
265.0058089926
 31
0.0
  0
LINE
  5
15E
330
1F
100
AcDbEntity
  8
0
100
AcDbLine
 10
401.1763451984
 20
265.0058089926
 30
0.0
 11
397.4169763706
 21
265.0058089926
 31
0.0
  0
LINE
  5
15F
330
1F
100
AcDbEntity
  8
0
100
AcDbLine
 10
397.4169763706
 20
141.2058089926
 30
0.0
 11
401.1763451984
 21
141.2058089926
 31
0.0
  0
LINE
  5
160
330
1F
100
AcDbEntity
  8
0
100
AcDbLine
 10
-362.9067617128
 20
88.9558089927
 30
0.0
 11
-358.5638625384
 21
88.9558089927
 31
0.0
  0
LINE
  5
161
330
1F
100
AcDbEntity
  8
0
100
AcDbLine
 10
-240.9067617128
 20
88.9558089927
 30
0.0
 11
-236.5638625384
 21
88.9558089927
 31
0.0
  0
LINE
  5
162
330
1F
100
AcDbEntity
  8
0
100
AcDbLine
 10
-118.9067617128
 20
88.9558089927
 30
0.0
 11
-114.5638625384
 21
88.9558089927
 31
0.0
  0
LINE
  5
163
330
1F
100
AcDbEntity
  8
0
100
AcDbLine
 10
3.0932382872
 20
88.9558089927
 30
0.0
 11
7.4361374616
 21
88.9558089927
 31
0.0
  0
LINE
  5
164
330
1F
100
AcDbEntity
  8
0
100
AcDbLine
 10
125.0932382872
 20
88.9558089927
 30
0.0
 11
129.4361374616
 21
88.9558089927
 31
0.0
  0
LINE
  5
165
330
1F
100
AcDbEntity
  8
0
100
AcDbLine
 10
247.0932382872
 20
88.9558089927
 30
0.0
 11
251.4361374616
 21
88.9558089927
 31
0.0
  0
LINE
  5
166
330
1F
100
AcDbEntity
  8
0
100
AcDbLine
 10
-419.5638625384
 20
317.2558089925
 30
0.0
 11
-423.9067617128
 21
317.2558089925
 31
0.0
  0
LINE
  5
167
330
1F
100
AcDbEntity
  8
0
100
AcDbLine
 10
-297.5638625384
 20
317.2558089925
 30
0.0
 11
-301.9067617128
 21
317.2558089925
 31
0.0
  0
LINE
  5
168
330
1F
100
AcDbEntity
  8
0
100
AcDbLine
 10
-175.5638625384
 20
317.2558089925
 30
0.0
 11
-179.9067617128
 21
317.2558089925
 31
0.0
  0
LINE
  5
169
330
1F
100
AcDbEntity
  8
0
100
AcDbLine
 10
-53.5638625384
 20
317.2558089925
 30
0.0
 11
-57.9067617128
 21
317.2558089925
 31
0.0
  0
LINE
  5
16A
330
1F
100
AcDbEntity
  8
0
100
AcDbLine
 10
68.4361374616
 20
317.2558089925
 30
0.0
 11
64.0932382872
 21
317.2558089925
 31
0.0
  0
LINE
  5
16B
330
1F
100
AcDbEntity
  8
0
100
AcDbLine
 10
190.4361374616
 20
317.2558089925
 30
0.0
 11
186.0932382872
 21
317.2558089925
 31
0.0
  0
LINE
  5
16C
330
1F
100
AcDbEntity
  8
0
100
AcDbLine
 10
312.4361374616
 20
317.2558089925
 30
0.0
 11
308.0932382872
 21
317.2558089925
 31
0.0
  0
LINE
  5
16D
330
1F
100
AcDbEntity
  8
0
100
AcDbLine
 10
-541.5638625384
 20
317.2558089925
 30
0.0
 11
-545.9067617128
 21
317.2558089925
 31
0.0
  0
LINE
  5
16E
330
1F
100
AcDbEntity
  8
0
100
AcDbLine
 10
-484.9067617128
 20
88.9558089927
 30
0.0
 11
-480.5638625384
 21
88.9558089927
 31
0.0
  0
SPLINE
  5
16F
330
1F
100
AcDbEntity
  8
0
100
AcDbSpline
210
0.0
220
0.0
230
1.0
 70
     8
 71
     3
 72
    56
 73
    52
 74
     0
 42
0.00000001
 43
0.00000001
 40
0.0
 40
0.0
 40
0.0
 40
0.0
 40
0.0129698091553446
 40
0.0267189775407777
 40
0.0378291591332603
 40
0.046575618822924
 40
0.0550393201207295
 40
0.0636539066704395
 40
0.0724223910489792
 40
0.0812445638338257
 40
0.0914646125811029
 40
0.0995119754859818
 40
0.1075023860270616
 40
0.1176346669408695
 40
0.1292970779051766
 40
0.1406081769746346
 40
0.1660118232527781
 40
0.1909628287892079
 40
0.2159337587816999
 40
0.2408905189934669
 40
0.2658782200640346
 40
0.297085772954036
 40
0.328326051325579
 40
0.3595485410841158
 40
0.3907929639146562
 40
0.4116159505969599
 40
0.4324622198548622
 40
0.4534576362324503
 40
0.4756862465635914
 40
0.4963753352200059
 40
0.514323093437385
 40
0.5398217489399706
 40
0.5655925952521195
 40
0.5908358130350305
 40
0.6158607691313212
 40
0.6408719095591245
 40
0.6721595114916358
 40
0.7034345098174315
 40
0.7347250334982999
 40
0.7660218352912991
 40
0.7868974608475525
 40
0.8077623753668257
 40
0.8286562072923227
 40
0.8495775436253942
 40
0.871179331210738
 40
0.8923384469251628
 40
0.9142410685478055
 40
0.9393754498221137
 40
0.9658797444328652
 40
0.9926014007833465
 40
0.9999999999999999
 40
0.9999999999999999
 40
0.9999999999999999
 40
0.9999999999999999
 10
-423.7419329345699
 20
315.6305277155447
 30
0.0
 10
-423.5327038319426
 20
315.6106423714138
 30
0.0
 10
-423.1016729950956
 20
315.5696767676131
 30
0.0
 10
-422.496086268891
 20
315.2924399417963
 30
0.0
 10
-421.9376514416095
 20
314.937068288948
 30
0.0
 10
-421.4229861789467
 20
314.5145693688045
 30
0.0
 10
-420.9488962845833
 20
314.0500595261591
 30
0.0
 10
-420.4689993243527
 20
313.5075731001556
 30
0.0
 10
-419.9767679322104
 20
312.8767973724816
 30
0.0
 10
-419.4490888670121
 20
312.1202467940597
 30
0.0
 10
-418.9317964095116
 20
311.2935876670072
 30
0.0
 10
-418.4262831492319
 20
310.4064547042396
 30
0.0
 10
-417.9179189700698
 20
309.4436434241964
 30
0.0
 10
-417.3376155427158
 20
308.2540690753611
 30
0.0
 10
-416.6886204263437
 20
306.8095073068391
 30
0.0
 10
-415.7375787268794
 20
304.5150462552683
 30
0.0
 10
-414.5230503895638
 20
301.2175024188207
 30
0.0
 10
-413.0353990960539
 20
296.5954076039133
 30
0.0
 10
-411.550634403781
 20
291.4449625117624
 30
0.0
 10
-410.0697447616297
 20
285.7670222212539
 30
0.0
 10
-408.4564134045745
 20
279.0869293542873
 30
0.0
 10
-406.7257745133056
 20
271.2922222745892
 30
0.0
 10
-404.8622508020637
 20
262.3134348945318
 30
0.0
 10
-403.0054104064979
 20
252.78313593421
 30
0.0
 10
-401.3484587632905
 20
243.9045703658086
 30
0.0
 10
-399.904011137562
 20
235.8963824777694
 30
0.0
 10
-398.6565699547419
 20
228.8791722483069
 30
0.0
 10
-397.3869587097531
 20
221.5946065364126
 30
0.0
 10
-396.1176943801935
 20
214.2466022005307
 30
0.0
 10
-394.9067845894441
 20
207.2039595029916
 30
0.0
 10
-393.6370313431331
 20
199.7673786826767
 30
0.0
 10
-392.259539763898
 20
191.7518211080526
 30
0.0
 10
-390.7417567828269
 20
182.9597971306365
 30
0.0
 10
-389.23171460488
 20
174.3443566341283
 30
0.0
 10
-387.7350595605045
 20
165.9848453563188
 30
0.0
 10
-386.1229557872671
 20
157.1892324650934
 30
0.0
 10
-384.38012849613
 20
148.0642507825676
 30
0.0
 10
-382.5178724261711
 20
138.7882911937619
 30
0.0
 10
-380.6515073627023
 20
130.1003590293448
 30
0.0
 10
-378.9924943799188
 20
122.9670511331507
 30
0.0
 10
-377.5383867070221
 20
117.2069391830647
 30
0.0
 10
-376.2946950376738
 20
112.6143695693105
 30
0.0
 10
-375.0426343712307
 20
108.3857814883014
 30
0.0
 10
-373.7788966758795
 20
104.4953618449238
 30
0.0
 10
-372.5056044645389
 20
100.9987214238083
 30
0.0
 10
-371.2056680552109
 20
97.88275138843825
 30
0.0
 10
-369.8321725950334
 20
95.06973233313322
 30
0.0
 10
-368.3273669320137
 20
92.57246990740103
 30
0.0
 10
-366.6551614543546
 20
90.64362535581631
 30
0.0
 10
-365.4247752317381
 20
89.54619139691901
 30
0.0
 10
-364.5879646939424
 20
89.37057863004476
 30
0.0
 10
-364.4065116043768
 20
89.33249894811287
 30
0.0
  0
LINE
  5
170
330
1F
100
AcDbEntity
  8
0
100
AcDbLine
 10
-363.7380627641
 20
89.1646033358
 30
0.0
 11
-363.15590889
 21
89.0183826001
 31
0.0
  0
SPLINE
  5
171
330
1F
100
AcDbEntity
  8
0
100
AcDbSpline
210
0.0
220
0.0
230
1.0
 70
     8
 71
     3
 72
    56
 73
    52
 74
     0
 42
0.00000001
 43
0.00000001
 40
0.0
 40
0.0
 40
0.0
 40
0.0
 40
0.0129698091553459
 40
0.0267189775407791
 40
0.0378291591332616
 40
0.0465756188229257
 40
0.0550393201207302
 40
0.0636539066704406
 40
0.0724223910489808
 40
0.081244563833826
 40
0.0914646125811037
 40
0.0995119754859819
 40
0.1075023860270621
 40
0.1176346669408705
 40
0.1292970779051776
 40
0.1406081769746351
 40
0.1660118232527791
 40
0.1909628287892089
 40
0.2159337587817006
 40
0.2408905189934681
 40
0.2658782200640353
 40
0.2970857729540364
 40
0.32832605132558
 40
0.3595485410841167
 40
0.390792963914656
 40
0.4116159505969613
 40
0.4324622198548628
 40
0.4534576362324504
 40
0.4756862465635915
 40
0.4963753352200064
 40
0.514323093437386
 40
0.5398217489399716
 40
0.5655925952521204
 40
0.5908358130350303
 40
0.6158607691313199
 40
0.6408719095591243
 40
0.6721595114916354
 40
0.7034345098174302
 40
0.7347250334982994
 40
0.7660218352912976
 40
0.7868974608475521
 40
0.8077623753668252
 40
0.828656207292321
 40
0.8495775436253934
 40
0.8711793312107362
 40
0.8923384469251621
 40
0.9142410685478046
 40
0.9393754498221127
 40
0.9658797444328653
 40
0.9926014007833456
 40
1.0
 40
1.0
 40
1.0
 40
1.0
 10
-301.7419329345699
 20
315.6305277155448
 30
0.0
 10
-301.5327038319426
 20
315.6106423714138
 30
0.0
 10
-301.1016729950956
 20
315.5696767676131
 30
0.0
 10
-300.496086268891
 20
315.2924399417964
 30
0.0
 10
-299.9376514416095
 20
314.937068288948
 30
0.0
 10
-299.4229861789466
 20
314.5145693688044
 30
0.0
 10
-298.9488962845833
 20
314.0500595261591
 30
0.0
 10
-298.4689993243528
 20
313.5075731001555
 30
0.0
 10
-297.9767679322101
 20
312.8767973724816
 30
0.0
 10
-297.4490888670123
 20
312.1202467940598
 30
0.0
 10
-296.9317964095117
 20
311.2935876670072
 30
0.0
 10
-296.426283149232
 20
310.4064547042396
 30
0.0
 10
-295.9179189700697
 20
309.4436434241965
 30
0.0
 10
-295.3376155427158
 20
308.2540690753611
 30
0.0
 10
-294.6886204263438
 20
306.8095073068392
 30
0.0
 10
-293.7375787268795
 20
304.5150462552684
 30
0.0
 10
-292.5230503895637
 20
301.2175024188207
 30
0.0
 10
-291.0353990960539
 20
296.5954076039133
 30
0.0
 10
-289.5506344037811
 20
291.4449625117624
 30
0.0
 10
-288.0697447616298
 20
285.7670222212538
 30
0.0
 10
-286.4564134045745
 20
279.0869293542873
 30
0.0
 10
-284.7257745133053
 20
271.2922222745892
 30
0.0
 10
-282.862250802064
 20
262.3134348945318
 30
0.0
 10
-281.0054104064976
 20
252.7831359342099
 30
0.0
 10
-279.3484587632904
 20
243.9045703658085
 30
0.0
 10
-277.9040111375618
 20
235.8963824777692
 30
0.0
 10
-276.6565699547421
 20
228.8791722483068
 30
0.0
 10
-275.3869587097529
 20
221.5946065364125
 30
0.0
 10
-274.1176943801936
 20
214.2466022005306
 30
0.0
 10
-272.906784589444
 20
207.2039595029914
 30
0.0
 10
-271.6370313431331
 20
199.7673786826764
 30
0.0
 10
-270.2595397638979
 20
191.7518211080522
 30
0.0
 10
-268.7417567828269
 20
182.9597971306363
 30
0.0
 10
-267.2317146048802
 20
174.3443566341283
 30
0.0
 10
-265.7350595605045
 20
165.9848453563189
 30
0.0
 10
-264.1229557872671
 20
157.1892324650935
 30
0.0
 10
-262.3801284961299
 20
148.0642507825677
 30
0.0
 10
-260.5178724261713
 20
138.788291193762
 30
0.0
 10
-258.6515073627023
 20
130.1003590293449
 30
0.0
 10
-256.9924943799186
 20
122.9670511331509
 30
0.0
 10
-255.5383867070221
 20
117.2069391830648
 30
0.0
 10
-254.2946950376739
 20
112.6143695693106
 30
0.0
 10
-253.0426343712307
 20
108.3857814883015
 30
0.0
 10
-251.7788966758797
 20
104.4953618449239
 30
0.0
 10
-250.5056044645388
 20
100.9987214238084
 30
0.0
 10
-249.205668055211
 20
97.88275138843827
 30
0.0
 10
-247.8321725950335
 20
95.06973233313322
 30
0.0
 10
-246.3273669320137
 20
92.57246990740094
 30
0.0
 10
-244.6551614543545
 20
90.64362535581635
 30
0.0
 10
-243.4247752317382
 20
89.54619139691897
 30
0.0
 10
-242.5879646939422
 20
89.37057863004478
 30
0.0
 10
-242.4065116043766
 20
89.33249894811289
 30
0.0
  0
LINE
  5
172
330
1F
100
AcDbEntity
  8
0
100
AcDbLine
 10
-241.7380627641
 20
89.1646033358
 30
0.0
 11
-241.15590889
 21
89.0183826001
 31
0.0
  0
SPLINE
  5
173
330
1F
100
AcDbEntity
  8
0
100
AcDbSpline
210
0.0
220
0.0
230
1.0
 70
     8
 71
     3
 72
    56
 73
    52
 74
     0
 42
0.00000001
 43
0.00000001
 40
0.0
 40
0.0
 40
0.0
 40
0.0
 40
0.0129698091553423
 40
0.0267189775407755
 40
0.0378291591332591
 40
0.0465756188229222
 40
0.0550393201207268
 40
0.0636539066704371
 40
0.0724223910489774
 40
0.0812445638338237
 40
0.0914646125810993
 40
0.0995119754859786
 40
0.1075023860270578
 40
0.1176346669408662
 40
0.1292970779051733
 40
0.1406081769746328
 40
0.1660118232527759
 40
0.1909628287892049
 40
0.2159337587816976
 40
0.2408905189934641
 40
0.2658782200640324
 40
0.2970857729540326
 40
0.3283260513255763
 40
0.359548541084113
 40
0.3907929639146523
 40
0.4116159505969568
 40
0.4324622198548603
 40
0.4534576362324481
 40
0.4756862465635892
 40
0.496375335220003
 40
0.5143230934373827
 40
0.5398217489399704
 40
0.5655925952521191
 40
0.5908358130350282
 40
0.6158607691313178
 40
0.6408719095591211
 40
0.6721595114916323
 40
0.703434509817428
 40
0.7347250334982974
 40
0.7660218352912948
 40
0.7868974608475503
 40
0.8077623753668224
 40
0.8286562072923184
 40
0.849577543625392
 40
0.8711793312107358
 40
0.8923384469251605
 40
0.9142410685478032
 40
0.9393754498221123
 40
0.965879744432865
 40
0.9926014007833441
 40
0.9999999999999999
 40
0.9999999999999999
 40
0.9999999999999999
 40
0.9999999999999999
 10
-179.7419329345697
 20
315.6305277155447
 30
0.0
 10
-179.5327038319425
 20
315.6106423714137
 30
0.0
 10
-179.1016729950955
 20
315.5696767676131
 30
0.0
 10
-178.496086268891
 20
315.2924399417964
 30
0.0
 10
-177.9376514416094
 20
314.937068288948
 30
0.0
 10
-177.4229861789465
 20
314.5145693688045
 30
0.0
 10
-176.9488962845833
 20
314.0500595261591
 30
0.0
 10
-176.4689993243529
 20
313.5075731001556
 30
0.0
 10
-175.9767679322101
 20
312.8767973724816
 30
0.0
 10
-175.4490888670123
 20
312.1202467940597
 30
0.0
 10
-174.9317964095117
 20
311.2935876670072
 30
0.0
 10
-174.426283149232
 20
310.4064547042397
 30
0.0
 10
-173.9179189700696
 20
309.4436434241965
 30
0.0
 10
-173.337615542716
 20
308.2540690753611
 30
0.0
 10
-172.6886204263438
 20
306.8095073068392
 30
0.0
 10
-171.7375787268796
 20
304.5150462552683
 30
0.0
 10
-170.5230503895637
 20
301.2175024188207
 30
0.0
 10
-169.0353990960538
 20
296.5954076039133
 30
0.0
 10
-167.550634403781
 20
291.4449625117625
 30
0.0
 10
-166.0697447616299
 20
285.7670222212539
 30
0.0
 10
-164.4564134045746
 20
279.0869293542875
 30
0.0
 10
-162.7257745133053
 20
271.2922222745894
 30
0.0
 10
-160.862250802064
 20
262.3134348945321
 30
0.0
 10
-159.0054104064976
 20
252.7831359342103
 30
0.0
 10
-157.3484587632907
 20
243.9045703658089
 30
0.0
 10
-155.9040111375617
 20
235.8963824777696
 30
0.0
 10
-154.6565699547421
 20
228.879172248307
 30
0.0
 10
-153.386958709753
 20
221.5946065364125
 30
0.0
 10
-152.1176943801936
 20
214.2466022005308
 30
0.0
 10
-150.9067845894441
 20
207.2039595029917
 30
0.0
 10
-149.6370313431332
 20
199.7673786826765
 30
0.0
 10
-148.2595397638979
 20
191.7518211080522
 30
0.0
 10
-146.741756782827
 20
182.959797130636
 30
0.0
 10
-145.23171460488
 20
174.3443566341282
 30
0.0
 10
-143.7350595605046
 20
165.9848453563191
 30
0.0
 10
-142.1229557872673
 20
157.1892324650937
 30
0.0
 10
-140.38012849613
 20
148.0642507825679
 30
0.0
 10
-138.5178724261711
 20
138.7882911937621
 30
0.0
 10
-136.6515073627025
 20
130.100359029345
 30
0.0
 10
-134.9924943799187
 20
122.9670511331509
 30
0.0
 10
-133.5383867070221
 20
117.2069391830649
 30
0.0
 10
-132.2946950376741
 20
112.6143695693108
 30
0.0
 10
-131.0426343712307
 20
108.3857814883015
 30
0.0
 10
-129.7788966758797
 20
104.4953618449239
 30
0.0
 10
-128.5056044645388
 20
100.9987214238083
 30
0.0
 10
-127.205668055211
 20
97.88275138843822
 30
0.0
 10
-125.8321725950335
 20
95.06973233313323
 30
0.0
 10
-124.3273669320137
 20
92.5724699074008
 30
0.0
 10
-122.6551614543543
 20
90.64362535581638
 30
0.0
 10
-121.4247752317382
 20
89.54619139691899
 30
0.0
 10
-120.5879646939423
 20
89.37057863004475
 30
0.0
 10
-120.4065116043766
 20
89.33249894811286
 30
0.0
  0
LINE
  5
174
330
1F
100
AcDbEntity
  8
0
100
AcDbLine
 10
-119.7380627641
 20
89.1646033358
 30
0.0
 11
-119.15590889
 21
89.0183826001
 31
0.0
  0
SPLINE
  5
175
330
1F
100
AcDbEntity
  8
0
100
AcDbSpline
210
0.0
220
0.0
230
1.0
 70
     8
 71
     3
 72
    56
 73
    52
 74
     0
 42
0.00000001
 43
0.00000001
 40
0.0
 40
0.0
 40
0.0
 40
0.0
 40
0.0129698091553424
 40
0.0267189775407746
 40
0.0378291591332571
 40
0.0465756188229192
 40
0.0550393201207269
 40
0.0636539066704352
 40
0.0724223910489754
 40
0.0812445638338228
 40
0.0914646125810974
 40
0.0995119754859777
 40
0.1075023860270559
 40
0.1176346669408646
 40
0.1292970779051723
 40
0.1406081769746322
 40
0.1660118232527761
 40
0.1909628287892047
 40
0.2159337587816981
 40
0.2408905189934656
 40
0.2658782200640328
 40
0.2970857729540341
 40
0.3283260513255779
 40
0.3595485410841147
 40
0.3907929639146541
 40
0.411615950596959
 40
0.4324622198548593
 40
0.4534576362324497
 40
0.4756862465635879
 40
0.4963753352200038
 40
0.5143230934373826
 40
0.539821748939969
 40
0.5655925952521181
 40
0.5908358130350302
 40
0.6158607691313196
 40
0.6408719095591239
 40
0.6721595114916346
 40
0.7034345098174271
 40
0.7347250334982987
 40
0.7660218352912991
 40
0.7868974608475504
 40
0.8077623753668245
 40
0.8286562072923204
 40
0.849577543625394
 40
0.8711793312107355
 40
0.8923384469251602
 40
0.9142410685478016
 40
0.9393754498221117
 40
0.9658797444328623
 40
0.9926014007833438
 40
0.9999999999999999
 40
0.9999999999999999
 40
0.9999999999999999
 40
0.9999999999999999
 10
-57.74193293456975
 20
315.6305277155447
 30
0.0
 10
-57.53270383194253
 20
315.6106423714137
 30
0.0
 10
-57.10167299509552
 20
315.5696767676131
 30
0.0
 10
-56.49608626889108
 20
315.2924399417964
 30
0.0
 10
-55.93765144160953
 20
314.937068288948
 30
0.0
 10
-55.42298617894683
 20
314.5145693688045
 30
0.0
 10
-54.94889628458323
 20
314.0500595261593
 30
0.0
 10
-54.46899932435289
 20
313.5075731001557
 30
0.0
 10
-53.97676793221012
 20
312.8767973724817
 30
0.0
 10
-53.44908886701246
 20
312.1202467940599
 30
0.0
 10
-52.93179640951161
 20
311.2935876670074
 30
0.0
 10
-52.42628314923216
 20
310.4064547042399
 30
0.0
 10
-51.91791897006978
 20
309.4436434241968
 30
0.0
 10
-51.33761554271615
 20
308.2540690753614
 30
0.0
 10
-50.68862042634355
 20
306.8095073068395
 30
0.0
 10
-49.7375787268797
 20
304.5150462552684
 30
0.0
 10
-48.52305038956377
 20
301.2175024188208
 30
0.0
 10
-47.03539909605378
 20
296.5954076039133
 30
0.0
 10
-45.55063440378128
 20
291.4449625117624
 30
0.0
 10
-44.06974476162966
 20
285.7670222212539
 30
0.0
 10
-42.45641340457467
 20
279.0869293542873
 30
0.0
 10
-40.72577451330528
 20
271.2922222745892
 30
0.0
 10
-38.86225080206387
 20
262.3134348945317
 30
0.0
 10
-37.00541040649754
 20
252.78313593421
 30
0.0
 10
-35.34845876329027
 20
243.9045703658086
 30
0.0
 10
-33.90401113756196
 20
235.8963824777694
 30
0.0
 10
-32.65656995474202
 20
228.879172248307
 30
0.0
 10
-31.38695870975322
 20
221.5946065364128
 30
0.0
 10
-30.11769438019349
 20
214.2466022005309
 30
0.0
 10
-28.9067845894443
 20
207.203959502992
 30
0.0
 10
-27.63703134313299
 20
199.7673786826769
 30
0.0
 10
-26.2595397638983
 20
191.7518211080526
 30
0.0
 10
-24.74175678282681
 20
182.9597971306364
 30
0.0
 10
-23.23171460487993
 20
174.3443566341282
 30
0.0
 10
-21.73505956050481
 20
165.9848453563186
 30
0.0
 10
-20.12295578726692
 20
157.1892324650934
 30
0.0
 10
-18.3801284961302
 20
148.0642507825678
 30
0.0
 10
-16.51787242617132
 20
138.7882911937621
 30
0.0
 10
-14.65150736270245
 20
130.1003590293449
 30
0.0
 10
-12.99249437991881
 20
122.9670511331508
 30
0.0
 10
-11.53838670702216
 20
117.2069391830647
 30
0.0
 10
-10.29469503767395
 20
112.6143695693107
 30
0.0
 10
-9.042634371230942
 20
108.3857814883013
 30
0.0
 10
-7.778896675879762
 20
104.4953618449239
 30
0.0
 10
-6.505604464538905
 20
100.9987214238085
 30
0.0
 10
-5.205668055211151
 20
97.88275138843852
 30
0.0
 10
-3.83217259503349
 20
95.06973233313349
 30
0.0
 10
-2.327366932013991
 20
92.57246990740114
 30
0.0
 10
-0.6551614543545969
 20
90.64362535581643
 30
0.0
 10
0.5752247682616757
 20
89.54619139691908
 30
0.0
 10
1.412035306057685
 20
89.37057863004479
 30
0.0
 10
1.593488395623344
 20
89.3324989481129
 30
0.0
  0
LINE
  5
176
330
1F
100
AcDbEntity
  8
0
100
AcDbLine
 10
2.2619372359
 20
89.1646033358
 30
0.0
 11
2.84409111
 21
89.0183826001
 31
0.0
  0
SPLINE
  5
177
330
1F
100
AcDbEntity
  8
0
100
AcDbSpline
210
0.0
220
0.0
230
1.0
 70
     8
 71
     3
 72
    56
 73
    52
 74
     0
 42
0.00000001
 43
0.00000001
 40
0.0
 40
0.0
 40
0.0
 40
0.0
 40
0.0129698091553498
 40
0.0267189775407838
 40
0.0378291591332663
 40
0.0465756188229283
 40
0.055039320120734
 40
0.0636539066704463
 40
0.0724223910489844
 40
0.0812445638338316
 40
0.0914646125811082
 40
0.0995119754859864
 40
0.1075023860270645
 40
0.1176346669408729
 40
0.1292970779051799
 40
0.1406081769746394
 40
0.1660118232527822
 40
0.1909628287892105
 40
0.2159337587817037
 40
0.2408905189934709
 40
0.2658782200640379
 40
0.297085772954039
 40
0.3283260513255825
 40
0.3595485410841198
 40
0.3907929639146602
 40
0.411615950596963
 40
0.4324622198548651
 40
0.4534576362324554
 40
0.4756862465635934
 40
0.4963753352200092
 40
0.5143230934373877
 40
0.539821748939974
 40
0.5655925952521208
 40
0.5908358130350356
 40
0.615860769131322
 40
0.640871909559126
 40
0.6721595114916363
 40
0.7034345098174308
 40
0.7347250334982999
 40
0.7660218352913002
 40
0.7868974608475513
 40
0.807762375366826
 40
0.8286562072923226
 40
0.8495775436253967
 40
0.8711793312107379
 40
0.8923384469251644
 40
0.9142410685478078
 40
0.9393754498221137
 40
0.9658797444328641
 40
0.9926014007833451
 40
1.0
 40
1.0
 40
1.0
 40
1.0
 10
64.2580670654298
 20
315.6305277155448
 30
0.0
 10
64.46729616805722
 20
315.6106423714138
 30
0.0
 10
64.8983270049045
 20
315.5696767676132
 30
0.0
 10
65.50391373110892
 20
315.2924399417963
 30
0.0
 10
66.06234855839061
 20
314.9370682889478
 30
0.0
 10
66.5770138210531
 20
314.5145693688045
 30
0.0
 10
67.05110371541694
 20
314.0500595261591
 30
0.0
 10
67.53100067564749
 20
313.5075731001556
 30
0.0
 10
68.02323206778993
 20
312.8767973724815
 30
0.0
 10
68.5509111329878
 20
312.1202467940597
 30
0.0
 10
69.06820359048841
 20
311.293587667007
 30
0.0
 10
69.57371685076802
 20
310.4064547042396
 30
0.0
 10
70.08208102993027
 20
309.4436434241965
 30
0.0
 10
70.66238445728409
 20
308.2540690753611
 30
0.0
 10
71.3113795736561
 20
306.8095073068392
 30
0.0
 10
72.26242127312047
 20
304.5150462552683
 30
0.0
 10
73.47694961043622
 20
301.2175024188207
 30
0.0
 10
74.96460090394599
 20
296.5954076039133
 30
0.0
 10
76.44936559621898
 20
291.4449625117625
 30
0.0
 10
77.93025523837017
 20
285.7670222212539
 30
0.0
 10
79.54358659542518
 20
279.0869293542873
 30
0.0
 10
81.2742254866948
 20
271.2922222745892
 30
0.0
 10
83.13774919793623
 20
262.3134348945317
 30
0.0
 10
84.99458959350198
 20
252.7831359342096
 30
0.0
 10
86.6515412367099
 20
243.9045703658083
 30
0.0
 10
88.09598886243805
 20
235.896382477769
 30
0.0
 10
89.34343004525819
 20
228.8791722483064
 30
0.0
 10
90.613041290247
 20
221.594606536412
 30
0.0
 10
91.88230561980667
 20
214.2466022005302
 30
0.0
 10
93.09321541055576
 20
207.2039595029913
 30
0.0
 10
94.36296865686717
 20
199.7673786826762
 30
0.0
 10
95.74046023610185
 20
191.7518211080522
 30
0.0
 10
97.25824321717356
 20
182.9597971306359
 30
0.0
 10
98.76828539511962
 20
174.3443566341278
 30
0.0
 10
100.2649404394955
 20
165.9848453563183
 30
0.0
 10
101.8770442127326
 20
157.1892324650934
 30
0.0
 10
103.6198715038698
 20
148.0642507825675
 30
0.0
 10
105.4821275738289
 20
138.788291193762
 30
0.0
 10
107.3484926372973
 20
130.1003590293447
 30
0.0
 10
109.0075056200815
 20
122.9670511331508
 30
0.0
 10
110.4616132929775
 20
117.2069391830646
 30
0.0
 10
111.7053049623263
 20
112.6143695693106
 30
0.0
 10
112.957365628769
 20
108.385781488301
 30
0.0
 10
114.2211033241206
 20
104.4953618449236
 30
0.0
 10
115.494395535461
 20
100.998721423808
 30
0.0
 10
116.794331944789
 20
97.88275138843801
 30
0.0
 10
118.1678274049669
 20
95.06973233313302
 30
0.0
 10
119.6726330679861
 20
92.57246990740087
 30
0.0
 10
121.3448385456458
 20
90.64362535581635
 30
0.0
 10
122.5752247682615
 20
89.54619139691901
 30
0.0
 10
123.4120353060577
 20
89.37057863004475
 30
0.0
 10
123.5934883956233
 20
89.33249894811287
 30
0.0
  0
LINE
  5
178
330
1F
100
AcDbEntity
  8
0
100
AcDbLine
 10
124.2619372359
 20
89.1646033358
 30
0.0
 11
124.84409111
 21
89.0183826001
 31
0.0
  0
SPLINE
  5
179
330
1F
100
AcDbEntity
  8
0
100
AcDbSpline
210
0.0
220
0.0
230
1.0
 70
     8
 71
     3
 72
    56
 73
    52
 74
     0
 42
0.00000001
 43
0.00000001
 40
0.0
 40
0.0
 40
0.0
 40
0.0
 40
0.0129698091553512
 40
0.0267189775407834
 40
0.0378291591332679
 40
0.0465756188229299
 40
0.0550393201207355
 40
0.0636539066704438
 40
0.072422391048986
 40
0.0812445638338311
 40
0.0914646125811098
 40
0.099511975485988
 40
0.1075023860270661
 40
0.1176346669408744
 40
0.1292970779051816
 40
0.140608176974639
 40
0.1660118232527818
 40
0.1909628287892131
 40
0.2159337587817072
 40
0.2408905189934747
 40
0.2658782200640378
 40
0.2970857729540388
 40
0.3283260513255843
 40
0.359548541084121
 40
0.3907929639146602
 40
0.411615950596965
 40
0.432462219854865
 40
0.4534576362324533
 40
0.4756862465635954
 40
0.4963753352200092
 40
0.5143230934373898
 40
0.5398217489399761
 40
0.565592595252125
 40
0.5908358130350317
 40
0.6158607691313221
 40
0.6408719095591248
 40
0.6721595114916404
 40
0.7034345098174349
 40
0.7347250334983043
 40
0.7660218352913004
 40
0.7868974608475537
 40
0.8077623753668299
 40
0.8286562072923236
 40
0.8495775436253971
 40
0.8711793312107404
 40
0.8923384469251606
 40
0.9142410685478041
 40
0.9393754498221162
 40
0.9658797444328664
 40
0.9926014007833457
 40
1.0
 40
1.0
 40
1.0
 40
1.0
 10
186.2580670654298
 20
315.6305277155448
 30
0.0
 10
186.4672961680571
 20
315.6106423714138
 30
0.0
 10
186.8983270049042
 20
315.5696767676132
 30
0.0
 10
187.5039137311091
 20
315.2924399417964
 30
0.0
 10
188.0623485583905
 20
314.937068288948
 30
0.0
 10
188.5770138210533
 20
314.5145693688045
 30
0.0
 10
189.0511037154167
 20
314.0500595261593
 30
0.0
 10
189.5310006756473
 20
313.5075731001556
 30
0.0
 10
190.0232320677899
 20
312.8767973724817
 30
0.0
 10
190.5509111329877
 20
312.1202467940597
 30
0.0
 10
191.0682035904885
 20
311.2935876670071
 30
0.0
 10
191.5737168507681
 20
310.4064547042396
 30
0.0
 10
192.0820810299301
 20
309.4436434241965
 30
0.0
 10
192.662384457284
 20
308.2540690753612
 30
0.0
 10
193.3113795736562
 20
306.8095073068394
 30
0.0
 10
194.2624212731202
 20
304.5150462552685
 30
0.0
 10
195.4769496104361
 20
301.217502418821
 30
0.0
 10
196.964600903946
 20
296.5954076039133
 30
0.0
 10
198.4493655962189
 20
291.4449625117622
 30
0.0
 10
199.9302552383702
 20
285.7670222212536
 30
0.0
 10
201.5435865954253
 20
279.0869293542875
 30
0.0
 10
203.2742254866944
 20
271.2922222745896
 30
0.0
 10
205.1377491979363
 20
262.313434894532
 30
0.0
 10
206.9945895935024
 20
252.78313593421
 30
0.0
 10
208.6515412367099
 20
243.9045703658086
 30
0.0
 10
210.095988862438
 20
235.8963824777694
 30
0.0
 10
211.343430045258
 20
228.8791722483072
 30
0.0
 10
212.6130412902468
 20
221.5946065364128
 30
0.0
 10
213.8823056198064
 20
214.2466022005309
 30
0.0
 10
215.0932154105558
 20
207.2039595029915
 30
0.0
 10
216.3629686568668
 20
199.7673786826764
 30
0.0
 10
217.7404602361019
 20
191.7518211080519
 30
0.0
 10
219.2582432171732
 20
182.9597971306364
 30
0.0
 10
220.7682853951198
 20
174.3443566341285
 30
0.0
 10
222.2649404394951
 20
165.9848453563195
 30
0.0
 10
223.8770442127329
 20
157.1892324650937
 30
0.0
 10
225.6198715038701
 20
148.0642507825675
 30
0.0
 10
227.4821275738287
 20
138.7882911937614
 30
0.0
 10
229.3484926372978
 20
130.1003590293446
 30
0.0
 10
231.0075056200812
 20
122.9670511331508
 30
0.0
 10
232.4616132929777
 20
117.2069391830647
 30
0.0
 10
233.7053049623263
 20
112.6143695693106
 30
0.0
 10
234.9573656287691
 20
108.3857814883012
 30
0.0
 10
236.2211033241202
 20
104.4953618449238
 30
0.0
 10
237.4943955354613
 20
100.9987214238084
 30
0.0
 10
238.7943319447889
 20
97.88275138843852
 30
0.0
 10
240.1678274049662
 20
95.06973233313347
 30
0.0
 10
241.6726330679865
 20
92.57246990740099
 30
0.0
 10
243.3448385456454
 20
90.64362535581643
 30
0.0
 10
244.5752247682618
 20
89.54619139691908
 30
0.0
 10
245.4120353060578
 20
89.3705786300448
 30
0.0
 10
245.5934883956234
 20
89.33249894811291
 30
0.0
  0
LINE
  5
17A
330
1F
100
AcDbEntity
  8
0
100
AcDbLine
 10
246.2619372359
 20
89.1646033358
 30
0.0
 11
246.84409111
 21
89.0183826001
 31
0.0
  0
SPLINE
  5
17B
330
1F
100
AcDbEntity
  8
0
100
AcDbSpline
210
0.0
220
0.0
230
1.0
 70
     8
 71
     3
 72
    46
 73
    42
 74
     0
 42
0.00000001
 43
0.00000001
 40
0.0
 40
0.0
 40
0.0
 40
0.0
 40
0.0169018067273746
 40
0.0348192474490743
 40
0.0492976518521735
 40
0.0606957356213937
 40
0.0717253384336087
 40
0.0829515696877019
 40
0.0943783552697363
 40
0.105875105726044
 40
0.1191935197907207
 40
0.129680564808436
 40
0.1400933914753553
 40
0.1532974295349298
 40
0.1684954801564094
 40
0.1832357132667298
 40
0.2163408665053689
 40
0.2488561539840916
 40
0.2813974063248632
 40
0.3139201930974633
 40
0.3464833009271494
 40
0.3871519045328997
 40
0.4278631548543699
 40
0.4685512236706008
 40
0.5092678749077022
 40
0.5364036709842276
 40
0.5635698081080328
 40
0.5909303085999357
 40
0.6198978648017974
 40
0.6468591696018777
 40
0.6702480673833581
 40
0.7034770333573758
 40
0.7370607089806327
 40
0.7699567973527426
 40
0.8025684546434773
 40
0.8351621078328614
 40
0.8759350285822899
 40
0.9166915247473474
 40
0.957468253018193
 40
0.9982531627076326
 40
1.0
 40
1.0
 40
1.0
 40
1.0
 10
308.2580670654298
 20
315.6305277155448
 30
0.0
 10
308.4672961680572
 20
315.6106423714138
 30
0.0
 10
308.8983270049043
 20
315.5696767676133
 30
0.0
 10
309.503913731109
 20
315.2924399417964
 30
0.0
 10
310.0623485583902
 20
314.937068288948
 30
0.0
 10
310.5770138210536
 20
314.5145693688045
 30
0.0
 10
311.0511037154164
 20
314.0500595261591
 30
0.0
 10
311.5310006756472
 20
313.5075731001557
 30
0.0
 10
312.0232320677899
 20
312.8767973724817
 30
0.0
 10
312.5509111329873
 20
312.1202467940599
 30
0.0
 10
313.0682035904885
 20
311.2935876670074
 30
0.0
 10
313.5737168507675
 20
310.4064547042399
 30
0.0
 10
314.0820810299302
 20
309.4436434241968
 30
0.0
 10
314.662384457284
 20
308.2540690753615
 30
0.0
 10
315.3113795736565
 20
306.8095073068395
 30
0.0
 10
316.2624212731202
 20
304.5150462552683
 30
0.0
 10
317.4769496104363
 20
301.2175024188208
 30
0.0
 10
318.9646009039461
 20
296.5954076039134
 30
0.0
 10
320.449365596219
 20
291.4449625117628
 30
0.0
 10
321.93025523837
 20
285.7670222212538
 30
0.0
 10
323.5435865954257
 20
279.0869293542889
 30
0.0
 10
325.2742254866947
 20
271.2922222745833
 30
0.0
 10
327.1377491979356
 20
262.3134348945563
 30
0.0
 10
328.9945895935025
 20
252.7831359341215
 30
0.0
 10
330.6515412367091
 20
243.9045703660959
 30
0.0
 10
332.095988862438
 20
235.8963824770879
 30
0.0
 10
333.3434300452571
 20
228.8791722508989
 30
0.0
 10
334.6130412902503
 20
221.5946065264131
 30
0.0
 10
335.8823056197938
 20
214.2466022391225
 30
0.0
 10
337.0932154105965
 20
207.203959377649
 30
0.0
 10
338.3629686567143
 20
199.76737915297
 30
0.0
 10
339.7404602369544
 20
191.751818485331
 30
0.0
 10
341.2582432140165
 20
182.9598068392997
 30
0.0
 10
342.7682854065781
 20
174.344321395219
 30
0.0
 10
344.2649403971281
 20
165.9849756525856
 30
0.0
 10
345.8770443875664
 20
157.1886947755974
 30
0.0
 10
347.619870666776
 20
148.0668252156126
 30
0.0
 10
349.4821306741554
 20
138.7787563201699
 30
0.0
 10
351.3484810653599
 20
130.1359478434648
 30
0.0
 10
352.6192261367606
 20
124.5575593588097
 30
0.0
 10
353.2685872681829
 20
121.9888515700676
 30
0.0
 10
353.2952574221521
 20
121.8833512114651
 30
0.0
  0
SPLINE
  5
17C
330
1F
100
AcDbEntity
  8
0
100
AcDbSpline
210
0.0
220
0.0
230
1.0
 70
     8
 71
     3
 72
    16
 73
    12
 74
     0
 42
0.00000001
 43
0.00000001
 40
0.0
 40
0.0
 40
0.0
 40
0.0
 40
0.0845672492813528
 40
0.3424395197148518
 40
0.5663676589086915
 40
0.7328706973898766
 40
0.7650579584709222
 40
0.8014336965065728
 40
0.8738943319080363
 40
0.9857322166241116
 40
1.0
 40
1.0
 40
1.0
 40
1.0
 10
-302.5871885873008
 20
317.1749068719386
 30
0.0
 10
-302.6825622166401
 20
317.1659134088764
 30
0.0
 10
-303.0687601845526
 20
317.1294960345645
 30
0.0
 10
-303.6803214473393
 20
316.8815726451617
 30
0.0
 10
-304.3051656230151
 20
316.5609984651187
 30
0.0
 10
-304.7351267901006
 20
316.2694580610282
 30
0.0
 10
-304.9927606543017
 20
316.0701097287935
 30
0.0
 10
-305.14548296176
 20
315.9466725512282
 30
0.0
 10
-305.3549684335889
 20
315.7689409846491
 30
0.0
 10
-305.5449393325844
 20
315.6039935452707
 30
0.0
 10
-305.6620140099153
 20
315.4839841232304
 30
0.0
 10
-305.6752600135266
 20
315.4704060782254
 30
0.0
  0
LINE
  5
17D
330
1F
100
AcDbEntity
  8
0
100
AcDbLine
 10
-301.906782336
 20
317.2558089926
 30
0.0
 11
-302.2396367814
 21
317.21623171
 31
0.0
  0
SPLINE
  5
17E
330
1F
100
AcDbEntity
  8
0
100
AcDbSpline
210
0.0
220
0.0
230
1.0
 70
     8
 71
     3
 72
    16
 73
    12
 74
     0
 42
0.00000001
 43
0.00000001
 40
0.0
 40
0.0
 40
0.0
 40
0.0
 40
0.084567249281363
 40
0.3424395197148752
 40
0.5663676589087059
 40
0.7328706973898825
 40
0.7650579584709282
 40
0.8014336965065988
 40
0.8738943319081071
 40
0.9857322166241311
 40
1.0
 40
1.0
 40
1.0
 40
1.0
 10
-180.5871885873007
 20
317.1749068719387
 30
0.0
 10
-180.68256221664
 20
317.1659134088765
 30
0.0
 10
-181.0687601845524
 20
317.1294960345645
 30
0.0
 10
-181.6803214473393
 20
316.8815726451617
 30
0.0
 10
-182.3051656230154
 20
316.5609984651187
 30
0.0
 10
-182.7351267901003
 20
316.2694580610282
 30
0.0
 10
-182.9927606543018
 20
316.0701097287934
 30
0.0
 10
-183.1454829617599
 20
315.9466725512282
 30
0.0
 10
-183.3549684335892
 20
315.768940984649
 30
0.0
 10
-183.5449393325845
 20
315.6039935452704
 30
0.0
 10
-183.6620140099153
 20
315.4839841232304
 30
0.0
 10
-183.6752600135266
 20
315.4704060782254
 30
0.0
  0
LINE
  5
17F
330
1F
100
AcDbEntity
  8
0
100
AcDbLine
 10
-179.906782336
 20
317.2558089926
 30
0.0
 11
-180.2396367814
 21
317.21623171
 31
0.0
  0
SPLINE
  5
180
330
1F
100
AcDbEntity
  8
0
100
AcDbSpline
210
0.0
220
0.0
230
1.0
 70
     8
 71
     3
 72
    16
 73
    12
 74
     0
 42
0.00000001
 43
0.00000001
 40
0.0
 40
0.0
 40
0.0
 40
0.0
 40
0.0845672492814293
 40
0.342439519714907
 40
0.5663676589087521
 40
0.732870697389899
 40
0.7650579584709892
 40
0.8014336965066138
 40
0.8738943319080487
 40
0.9857322166241161
 40
1.0
 40
1.0
 40
1.0
 40
1.0
 10
-58.58718858730061
 20
317.1749068719386
 30
0.0
 10
-58.68256221664
 20
317.1659134088764
 30
0.0
 10
-59.06876018455262
 20
317.1294960345645
 30
0.0
 10
-59.68032144733935
 20
316.8815726451617
 30
0.0
 10
-60.30516562301538
 20
316.5609984651188
 30
0.0
 10
-60.73512679010035
 20
316.269458061028
 30
0.0
 10
-60.9927606543018
 20
316.0701097287935
 30
0.0
 10
-61.14548296175997
 20
315.9466725512281
 30
0.0
 10
-61.35496843358887
 20
315.7689409846491
 30
0.0
 10
-61.54493933258451
 20
315.6039935452707
 30
0.0
 10
-61.66201400991534
 20
315.4839841232304
 30
0.0
 10
-61.67526001352668
 20
315.4704060782254
 30
0.0
  0
LINE
  5
181
330
1F
100
AcDbEntity
  8
0
100
AcDbLine
 10
-57.906782336
 20
317.2558089926
 30
0.0
 11
-58.2396367814
 21
317.21623171
 31
0.0
  0
SPLINE
  5
182
330
1F
100
AcDbEntity
  8
0
100
AcDbSpline
210
0.0
220
0.0
230
1.0
 70
     8
 71
     3
 72
    16
 73
    12
 74
     0
 42
0.00000001
 43
0.00000001
 40
0.0
 40
0.0
 40
0.0
 40
0.0
 40
0.0845672492813519
 40
0.3424395197148857
 40
0.5663676589086906
 40
0.732870697389844
 40
0.7650579584708898
 40
0.8014336965065604
 40
0.8738943319080903
 40
0.9857322166240696
 40
1.0
 40
1.0
 40
1.0
 40
1.0
 10
63.41281141269928
 20
317.1749068719387
 30
0.0
 10
63.31743778335999
 20
317.1659134088765
 30
0.0
 10
62.93123981544746
 20
317.1294960345645
 30
0.0
 10
62.31967855266063
 20
316.8815726451618
 30
0.0
 10
61.69483437698472
 20
316.5609984651188
 30
0.0
 10
61.26487320989993
 20
316.2694580610282
 30
0.0
 10
61.00723934569818
 20
316.0701097287935
 30
0.0
 10
60.85451703824024
 20
315.9466725512282
 30
0.0
 10
60.64503156641104
 20
315.7689409846491
 30
0.0
 10
60.45506066741518
 20
315.6039935452706
 30
0.0
 10
60.33798599008461
 20
315.4839841232304
 30
0.0
 10
60.32473998647325
 20
315.4704060782254
 30
0.0
  0
LINE
  5
183
330
1F
100
AcDbEntity
  8
0
100
AcDbLine
 10
64.093217664
 20
317.2558089926
 30
0.0
 11
63.7603632186
 21
317.21623171
 31
0.0
  0
SPLINE
  5
184
330
1F
100
AcDbEntity
  8
0
100
AcDbSpline
210
0.0
220
0.0
230
1.0
 70
     8
 71
     3
 72
    16
 73
    12
 74
     0
 42
0.00000001
 43
0.00000001
 40
0.0
 40
0.0
 40
0.0
 40
0.0
 40
0.0845672492813519
 40
0.3424395197148869
 40
0.5663676589086905
 40
0.7328706973898438
 40
0.7650579584708895
 40
0.8014336965065602
 40
0.8738943319080886
 40
0.9857322166241164
 40
1.0
 40
1.0
 40
1.0
 40
1.0
 10
185.4128114126993
 20
317.1749068719387
 30
0.0
 10
185.31743778336
 20
317.1659134088765
 30
0.0
 10
184.9312398154477
 20
317.1294960345646
 30
0.0
 10
184.3196785526603
 20
316.8815726451617
 30
0.0
 10
183.6948343769848
 20
316.5609984651188
 30
0.0
 10
183.2648732098998
 20
316.2694580610282
 30
0.0
 10
183.0072393456982
 20
316.0701097287936
 30
0.0
 10
182.8545170382401
 20
315.9466725512281
 30
0.0
 10
182.6450315664112
 20
315.7689409846491
 30
0.0
 10
182.4550606674152
 20
315.6039935452706
 30
0.0
 10
182.3379859900844
 20
315.4839841232304
 30
0.0
 10
182.324739986473
 20
315.4704060782254
 30
0.0
  0
LINE
  5
185
330
1F
100
AcDbEntity
  8
0
100
AcDbLine
 10
186.093217664
 20
317.2558089926
 30
0.0
 11
185.7603632186
 21
317.21623171
 31
0.0
  0
SPLINE
  5
186
330
1F
100
AcDbEntity
  8
0
100
AcDbSpline
210
0.0
220
0.0
230
1.0
 70
     8
 71
     3
 72
    16
 73
    12
 74
     0
 42
0.00000001
 43
0.00000001
 40
0.0
 40
0.0
 40
0.0
 40
0.0
 40
0.0845672492812825
 40
0.3424395197147665
 40
0.5663676589087007
 40
0.7328706973898367
 40
0.7650579584708388
 40
0.8014336965065657
 40
0.8738943319081043
 40
0.9857322166241476
 40
0.9999999999999999
 40
0.9999999999999999
 40
0.9999999999999999
 40
0.9999999999999999
 10
307.412811412699
 20
317.1749068719386
 30
0.0
 10
307.3174377833598
 20
317.1659134088764
 30
0.0
 10
306.9312398154475
 20
317.1294960345645
 30
0.0
 10
306.3196785526605
 20
316.8815726451617
 30
0.0
 10
305.6948343769852
 20
316.5609984651188
 30
0.0
 10
305.2648732098991
 20
316.2694580610281
 30
0.0
 10
305.0072393456985
 20
316.0701097287935
 30
0.0
 10
304.8545170382396
 20
315.9466725512281
 30
0.0
 10
304.6450315664111
 20
315.768940984649
 30
0.0
 10
304.4550606674158
 20
315.6039935452706
 30
0.0
 10
304.3379859900846
 20
315.4839841232304
 30
0.0
 10
304.3247399864732
 20
315.4704060782254
 30
0.0
  0
LINE
  5
187
330
1F
100
AcDbEntity
  8
0
100
AcDbLine
 10
308.093217664
 20
317.2558089926
 30
0.0
 11
307.7603632186
 21
317.21623171
 31
0.0
  0
SPLINE
  5
188
330
1F
100
AcDbEntity
  8
0
100
AcDbSpline
210
0.0
220
0.0
230
1.0
 70
     8
 71
     3
 72
    16
 73
    12
 74
     0
 42
0.00000001
 43
0.00000001
 40
0.0
 40
0.0
 40
0.0
 40
0.0
 40
0.0845672492813426
 40
0.3424395197148483
 40
0.5663676589086825
 40
0.7328706973898756
 40
0.7650579584708969
 40
0.8014336965065575
 40
0.8738943319080438
 40
0.985732216624116
 40
1.0
 40
1.0
 40
1.0
 40
1.0
 10
-424.5871885873008
 20
317.1749068719386
 30
0.0
 10
-424.68256221664
 20
317.1659134088764
 30
0.0
 10
-425.0687601845526
 20
317.1294960345646
 30
0.0
 10
-425.6803214473393
 20
316.8815726451617
 30
0.0
 10
-426.3051656230151
 20
316.5609984651188
 30
0.0
 10
-426.7351267901006
 20
316.2694580610282
 30
0.0
 10
-426.9927606543017
 20
316.0701097287935
 30
0.0
 10
-427.1454829617599
 20
315.9466725512282
 30
0.0
 10
-427.354968433589
 20
315.7689409846491
 30
0.0
 10
-427.5449393325846
 20
315.6039935452707
 30
0.0
 10
-427.6620140099153
 20
315.4839841232304
 30
0.0
 10
-427.6752600135267
 20
315.4704060782254
 30
0.0
  0
LINE
  5
189
330
1F
100
AcDbEntity
  8
0
100
AcDbLine
 10
-423.906782336
 20
317.2558089926
 30
0.0
 11
-424.2396367814
 21
317.21623171
 31
0.0
  0
LINE
  5
18A
330
1F
100
AcDbEntity
  8
0
100
AcDbLine
 10
-546.5240764441
 20
317.2089131034
 30
0.0
 11
-546.7075646591
 21
317.168080384
 31
0.0
  0
LINE
  5
18B
330
1F
100
AcDbEntity
  8
0
100
AcDbLine
 10
-545.906782336
 20
317.2558089926
 30
0.0
 11
-546.1999812473
 21
317.2335346448
 31
0.0
  0
SPLINE
  5
18C
330
1F
100
AcDbEntity
  8
0
100
AcDbSpline
210
0.0
220
0.0
230
1.0
 70
     8
 71
     3
 72
    56
 73
    52
 74
     0
 42
0.00000001
 43
0.00000001
 40
0.0
 40
0.0
 40
0.0
 40
0.0
 40
0.0129698091553487
 40
0.0267189775407821
 40
0.0378291591332649
 40
0.0465756188229278
 40
0.0550393201207334
 40
0.0636539066704435
 40
0.0724223910489835
 40
0.0812445638338303
 40
0.0914646125811069
 40
0.0995119754859852
 40
0.1075023860270649
 40
0.1176346669408733
 40
0.12929707790518
 40
0.1406081769746382
 40
0.1660118232527817
 40
0.1909628287892117
 40
0.2159337587817031
 40
0.2408905189934701
 40
0.2658782200640378
 40
0.297085772954039
 40
0.3283260513255809
 40
0.3595485410841185
 40
0.3907929639146582
 40
0.4116159505969623
 40
0.4324622198548651
 40
0.4534576362324521
 40
0.4756862465635942
 40
0.4963753352200085
 40
0.5143230934373872
 40
0.5398217489399738
 40
0.5655925952521228
 40
0.5908358130350327
 40
0.6158607691313223
 40
0.6408719095591253
 40
0.6721595114916366
 40
0.7034345098174326
 40
0.7347250334983014
 40
0.7660218352913003
 40
0.786897460847554
 40
0.8077623753668258
 40
0.8286562072923227
 40
0.8495775436253951
 40
0.8711793312107386
 40
0.8923384469251623
 40
0.9142410685478057
 40
0.9393754498221139
 40
0.9658797444328663
 40
0.9926014007833474
 40
1.0
 40
1.0
 40
1.0
 40
1.0
 10
-545.7419329345701
 20
315.6305277155448
 30
0.0
 10
-545.5327038319426
 20
315.6106423714137
 30
0.0
 10
-545.1016729950954
 20
315.5696767676131
 30
0.0
 10
-544.4960862688912
 20
315.2924399417964
 30
0.0
 10
-543.9376514416094
 20
314.937068288948
 30
0.0
 10
-543.4229861789465
 20
314.5145693688044
 30
0.0
 10
-542.9488962845834
 20
314.0500595261593
 30
0.0
 10
-542.4689993243527
 20
313.5075731001555
 30
0.0
 10
-541.9767679322102
 20
312.8767973724816
 30
0.0
 10
-541.449088867012
 20
312.1202467940597
 30
0.0
 10
-540.9317964095118
 20
311.2935876670072
 30
0.0
 10
-540.426283149232
 20
310.4064547042396
 30
0.0
 10
-539.9179189700695
 20
309.4436434241965
 30
0.0
 10
-539.3376155427159
 20
308.2540690753611
 30
0.0
 10
-538.6886204263438
 20
306.8095073068392
 30
0.0
 10
-537.7375787268794
 20
304.5150462552683
 30
0.0
 10
-536.5230503895638
 20
301.2175024188207
 30
0.0
 10
-535.0353990960539
 20
296.5954076039133
 30
0.0
 10
-533.550634403781
 20
291.4449625117624
 30
0.0
 10
-532.0697447616301
 20
285.767022221254
 30
0.0
 10
-530.4564134045744
 20
279.0869293542873
 30
0.0
 10
-528.7257745133056
 20
271.2922222745893
 30
0.0
 10
-526.8622508020636
 20
262.313434894532
 30
0.0
 10
-525.0054104064978
 20
252.7831359342102
 30
0.0
 10
-523.3484587632904
 20
243.9045703658087
 30
0.0
 10
-521.904011137562
 20
235.8963824777693
 30
0.0
 10
-520.656569954742
 20
228.879172248307
 30
0.0
 10
-519.386958709753
 20
221.5946065364124
 30
0.0
 10
-518.1176943801935
 20
214.2466022005306
 30
0.0
 10
-516.9067845894441
 20
207.2039595029914
 30
0.0
 10
-515.6370313431331
 20
199.7673786826765
 30
0.0
 10
-514.259539763898
 20
191.7518211080522
 30
0.0
 10
-512.7417567828269
 20
182.9597971306362
 30
0.0
 10
-511.2317146048802
 20
174.3443566341281
 30
0.0
 10
-509.7350595605046
 20
165.9848453563189
 30
0.0
 10
-508.1229557872671
 20
157.1892324650936
 30
0.0
 10
-506.3801284961301
 20
148.0642507825677
 30
0.0
 10
-504.517872426171
 20
138.7882911937619
 30
0.0
 10
-502.6515073627024
 20
130.1003590293446
 30
0.0
 10
-500.9924943799186
 20
122.9670511331506
 30
0.0
 10
-499.5383867070221
 20
117.2069391830647
 30
0.0
 10
-498.2946950376739
 20
112.6143695693106
 30
0.0
 10
-497.0426343712307
 20
108.3857814883014
 30
0.0
 10
-495.7788966758797
 20
104.4953618449237
 30
0.0
 10
-494.5056044645387
 20
100.9987214238084
 30
0.0
 10
-493.205668055211
 20
97.88275138843824
 30
0.0
 10
-491.8321725950336
 20
95.06973233313325
 30
0.0
 10
-490.3273669320137
 20
92.57246990740093
 30
0.0
 10
-488.6551614543545
 20
90.64362535581628
 30
0.0
 10
-487.4247752317382
 20
89.54619139691901
 30
0.0
 10
-486.5879646939422
 20
89.37057863004478
 30
0.0
 10
-486.4065116043767
 20
89.3324989481129
 30
0.0
  0
LINE
  5
18D
330
1F
100
AcDbEntity
  8
0
100
AcDbLine
 10
-485.7380627641
 20
89.1646033358
 30
0.0
 11
-485.15590889
 21
89.0183826001
 31
0.0
  0
SPLINE
  5
18E
330
1F
100
AcDbEntity
  8
0
100
AcDbSpline
210
0.0
220
0.0
230
1.0
 70
     8
 71
     3
 72
     9
 73
     5
 74
     0
 42
0.00000001
 43
0.00000001
 40
0.0
 40
0.0
 40
0.0
 40
0.0
 40
0.499977253821759
 40
1.0
 40
1.0
 40
1.0
 40
1.0
 10
-414.5702411643267
 20
314.0442090854792
 30
0.0
 10
-414.8279835305561
 20
314.2982289808331
 30
0.0
 10
-415.3434917146969
 20
314.8062918845198
 30
0.0
 10
-415.8589324792729
 20
315.3144303334294
 30
0.0
 10
-416.1166645858683
 20
315.5685111160919
 30
0.0
  0
SPLINE
  5
18F
330
1F
100
AcDbEntity
  8
0
100
AcDbSpline
210
0.0
220
0.0
230
1.0
 70
     8
 71
     3
 72
     9
 73
     5
 74
     0
 42
0.00000001
 43
0.00000001
 40
0.0
 40
0.0
 40
0.0
 40
0.0
 40
0.4999772538217681
 40
1.0
 40
1.0
 40
1.0
 40
1.0
 10
-292.5702411643267
 20
314.0442090854792
 30
0.0
 10
-292.8279835305561
 20
314.2982289808331
 30
0.0
 10
-293.3434917146969
 20
314.8062918845198
 30
0.0
 10
-293.8589324792728
 20
315.3144303334294
 30
0.0
 10
-294.1166645858682
 20
315.5685111160919
 30
0.0
  0
SPLINE
  5
190
330
1F
100
AcDbEntity
  8
0
100
AcDbSpline
210
0.0
220
0.0
230
1.0
 70
     8
 71
     3
 72
     9
 73
     5
 74
     0
 42
0.00000001
 43
0.00000001
 40
0.0
 40
0.0
 40
0.0
 40
0.0
 40
0.4999772538217681
 40
1.0
 40
1.0
 40
1.0
 40
1.0
 10
-170.5702411643267
 20
314.0442090854792
 30
0.0
 10
-170.8279835305561
 20
314.2982289808331
 30
0.0
 10
-171.3434917146969
 20
314.8062918845198
 30
0.0
 10
-171.8589324792728
 20
315.3144303334294
 30
0.0
 10
-172.1166645858682
 20
315.5685111160919
 30
0.0
  0
SPLINE
  5
191
330
1F
100
AcDbEntity
  8
0
100
AcDbSpline
210
0.0
220
0.0
230
1.0
 70
     8
 71
     3
 72
     9
 73
     5
 74
     0
 42
0.00000001
 43
0.00000001
 40
0.0
 40
0.0
 40
0.0
 40
0.0
 40
0.4999772538218265
 40
1.0
 40
1.0
 40
1.0
 40
1.0
 10
-48.57024116432667
 20
314.0442090854792
 30
0.0
 10
-48.82798353055608
 20
314.2982289808331
 30
0.0
 10
-49.34349171469693
 20
314.8062918845198
 30
0.0
 10
-49.85893247927281
 20
315.3144303334294
 30
0.0
 10
-50.11666458586822
 20
315.5685111160919
 30
0.0
  0
SPLINE
  5
192
330
1F
100
AcDbEntity
  8
0
100
AcDbSpline
210
0.0
220
0.0
230
1.0
 70
     8
 71
     3
 72
     9
 73
     5
 74
     0
 42
0.00000001
 43
0.00000001
 40
0.0
 40
0.0
 40
0.0
 40
0.0
 40
0.499977253821746
 40
0.9999999999999999
 40
0.9999999999999999
 40
0.9999999999999999
 40
0.9999999999999999
 10
73.4297588356733
 20
314.0442090854792
 30
0.0
 10
73.1720164694439
 20
314.2982289808331
 30
0.0
 10
72.65650828530303
 20
314.8062918845197
 30
0.0
 10
72.14106752072716
 20
315.3144303334294
 30
0.0
 10
71.88333541413172
 20
315.5685111160919
 30
0.0
  0
SPLINE
  5
193
330
1F
100
AcDbEntity
  8
0
100
AcDbSpline
210
0.0
220
0.0
230
1.0
 70
     8
 71
     3
 72
     9
 73
     5
 74
     0
 42
0.00000001
 43
0.00000001
 40
0.0
 40
0.0
 40
0.0
 40
0.0
 40
0.4999772538218658
 40
1.0
 40
1.0
 40
1.0
 40
1.0
 10
195.4297588356733
 20
314.0442090854792
 30
0.0
 10
195.1720164694439
 20
314.2982289808332
 30
0.0
 10
194.6565082853031
 20
314.8062918845199
 30
0.0
 10
194.1410675207271
 20
315.3144303334295
 30
0.0
 10
193.8833354141317
 20
315.5685111160919
 30
0.0
  0
SPLINE
  5
194
330
1F
100
AcDbEntity
  8
0
100
AcDbSpline
210
0.0
220
0.0
230
1.0
 70
     8
 71
     3
 72
     9
 73
     5
 74
     0
 42
0.00000001
 43
0.00000001
 40
0.0
 40
0.0
 40
0.0
 40
0.0
 40
0.4999772538217901
 40
1.0
 40
1.0
 40
1.0
 40
1.0
 10
317.4297588356733
 20
314.0442090854792
 30
0.0
 10
317.1720164694439
 20
314.2982289808332
 30
0.0
 10
316.6565082853032
 20
314.8062918845199
 30
0.0
 10
316.1410675207273
 20
315.3144303334294
 30
0.0
 10
315.8833354141317
 20
315.5685111160919
 30
0.0
  0
SPLINE
  5
195
330
1F
100
AcDbEntity
  8
0
100
AcDbSpline
210
0.0
220
0.0
230
1.0
 70
     8
 71
     3
 72
     9
 73
     5
 74
     0
 42
0.00000001
 43
0.00000001
 40
0.0
 40
0.0
 40
0.0
 40
0.0
 40
0.4999772538217636
 40
1.0
 40
1.0
 40
1.0
 40
1.0
 10
-536.5702411643267
 20
314.0442090854792
 30
0.0
 10
-536.827983530556
 20
314.2982289808331
 30
0.0
 10
-537.3434917146968
 20
314.8062918845197
 30
0.0
 10
-537.8589324792727
 20
315.3144303334294
 30
0.0
 10
-538.1166645858682
 20
315.5685111160919
 30
0.0
  0
SPLINE
  5
196
330
1F
100
AcDbEntity
  8
0
100
AcDbSpline
210
0.0
220
0.0
230
1.0
 70
     8
 71
     3
 72
    15
 73
    11
 74
     0
 42
0.00000001
 43
0.00000001
 40
0.0
 40
0.0
 40
0.0
 40
0.0
 40
0.1048347736070069
 40
0.2694532052429555
 40
0.4187644942642857
 40
0.5781488798823844
 40
0.7157137545967259
 40
0.8342898807760234
 40
0.9370637080998736
 40
1.0
 40
1.0
 40
1.0
 40
1.0
 10
-403.3607693604931
 20
257.1256521418514
 30
0.0
 10
-403.0751378511548
 20
255.6638008342244
 30
0.0
 10
-402.3409890276153
 20
251.9064548041246
 30
0.0
 10
-401.1961327144301
 20
245.7814627341105
 30
0.0
 10
-399.9090771488622
 20
238.7149820013803
 30
0.0
 10
-398.6899935184094
 20
231.8957751780323
 30
0.0
 10
-397.5556089279755
 20
225.4452778802174
 30
0.0
 10
-396.5794590816881
 20
219.8116735738262
 30
0.0
 10
-395.8033355632345
 20
215.3212726375203
 30
0.0
 10
-395.3508897328184
 20
212.6912190214443
 30
0.0
 10
-395.179051929639
 20
211.6923311872584
 30
0.0
  0
SPLINE
  5
197
330
1F
100
AcDbEntity
  8
0
100
AcDbSpline
210
0.0
220
0.0
230
1.0
 70
     8
 71
     3
 72
    15
 73
    11
 74
     0
 42
0.00000001
 43
0.00000001
 40
0.0
 40
0.0
 40
0.0
 40
0.0
 40
0.1048347736069899
 40
0.2694532052429297
 40
0.4187644942642308
 40
0.5781488798823117
 40
0.7157137545966415
 40
0.8342898807759282
 40
0.9370637080997589
 40
1.0
 40
1.0
 40
1.0
 40
1.0
 10
-281.3607693604931
 20
257.1256521418513
 30
0.0
 10
-281.0751378511548
 20
255.6638008342245
 30
0.0
 10
-280.3409890276151
 20
251.9064548041245
 30
0.0
 10
-279.1961327144301
 20
245.7814627341105
 30
0.0
 10
-277.9090771488623
 20
238.7149820013802
 30
0.0
 10
-276.6899935184093
 20
231.8957751780323
 30
0.0
 10
-275.5556089279752
 20
225.4452778802173
 30
0.0
 10
-274.5794590816882
 20
219.811673573826
 30
0.0
 10
-273.8033355632339
 20
215.3212726375183
 30
0.0
 10
-273.3508897328177
 20
212.6912190214404
 30
0.0
 10
-273.179051929638
 20
211.6923311872525
 30
0.0
  0
SPLINE
  5
198
330
1F
100
AcDbEntity
  8
0
100
AcDbSpline
210
0.0
220
0.0
230
1.0
 70
     8
 71
     3
 72
    15
 73
    11
 74
     0
 42
0.00000001
 43
0.00000001
 40
0.0
 40
0.0
 40
0.0
 40
0.0
 40
0.104834773606984
 40
0.2694532052429067
 40
0.4187644942642065
 40
0.5781488798822781
 40
0.7157137545965917
 40
0.8342898807758717
 40
0.9370637080996961
 40
1.0
 40
1.0
 40
1.0
 40
1.0
 10
-159.3607693604932
 20
257.1256521418514
 30
0.0
 10
-159.0751378511548
 20
255.6638008342245
 30
0.0
 10
-158.3409890276152
 20
251.9064548041246
 30
0.0
 10
-157.19613271443
 20
245.7814627341106
 30
0.0
 10
-155.9090771488623
 20
238.7149820013803
 30
0.0
 10
-154.6899935184092
 20
231.8957751780324
 30
0.0
 10
-153.5556089279755
 20
225.4452778802175
 30
0.0
 10
-152.5794590816882
 20
219.8116735738264
 30
0.0
 10
-151.8033355632338
 20
215.3212726375176
 30
0.0
 10
-151.3508897328175
 20
212.6912190214387
 30
0.0
 10
-151.1790519296376
 20
211.6923311872497
 30
0.0
  0
SPLINE
  5
199
330
1F
100
AcDbEntity
  8
0
100
AcDbSpline
210
0.0
220
0.0
230
1.0
 70
     8
 71
     3
 72
    15
 73
    11
 74
     0
 42
0.00000001
 43
0.00000001
 40
0.0
 40
0.0
 40
0.0
 40
0.0
 40
0.1048347736069937
 40
0.2694532052429434
 40
0.418764494264274
 40
0.5781488798823687
 40
0.71571375459671
 40
0.8342898807760163
 40
0.9370637080998496
 40
1.0
 40
1.0
 40
1.0
 40
1.0
 10
-37.36076936049314
 20
257.1256521418514
 30
0.0
 10
-37.07513785115478
 20
255.6638008342246
 30
0.0
 10
-36.34098902761527
 20
251.9064548041249
 30
0.0
 10
-35.19613271443008
 20
245.7814627341109
 30
0.0
 10
-33.90907714886224
 20
238.7149820013806
 30
0.0
 10
-32.68999351840919
 20
231.8957751780325
 30
0.0
 10
-31.5556089279755
 20
225.4452778802175
 30
0.0
 10
-30.57945908168801
 20
219.8116735738263
 30
0.0
 10
-29.80333556323426
 20
215.32127263752
 30
0.0
 10
-29.35088973281837
 20
212.6912190214439
 30
0.0
 10
-29.17905192963888
 20
211.6923311872575
 30
0.0
  0
SPLINE
  5
19A
330
1F
100
AcDbEntity
  8
0
100
AcDbSpline
210
0.0
220
0.0
230
1.0
 70
     8
 71
     3
 72
    15
 73
    11
 74
     0
 42
0.00000001
 43
0.00000001
 40
0.0
 40
0.0
 40
0.0
 40
0.0
 40
0.1048347736070134
 40
0.2694532052429687
 40
0.4187644942643018
 40
0.5781488798823798
 40
0.7157137545967054
 40
0.8342898807760262
 40
0.9370637080998592
 40
1.0
 40
1.0
 40
1.0
 40
1.0
 10
84.63923063950674
 20
257.1256521418513
 30
0.0
 10
84.92486214884515
 20
255.6638008342242
 30
0.0
 10
85.65901097238459
 20
251.9064548041242
 30
0.0
 10
86.80386728557016
 20
245.7814627341097
 30
0.0
 10
88.09092285113815
 20
238.7149820013795
 30
0.0
 10
89.31000648159068
 20
231.8957751780318
 30
0.0
 10
90.44439107202452
 20
225.445277880217
 30
0.0
 10
91.42054091831197
 20
219.8116735738258
 30
0.0
 10
92.19666443676597
 20
215.3212726375195
 30
0.0
 10
92.64911026718181
 20
212.6912190214435
 30
0.0
 10
92.82094807036123
 20
211.6923311872572
 30
0.0
  0
SPLINE
  5
19B
330
1F
100
AcDbEntity
  8
0
100
AcDbSpline
210
0.0
220
0.0
230
1.0
 70
     8
 71
     3
 72
    15
 73
    11
 74
     0
 42
0.00000001
 43
0.00000001
 40
0.0
 40
0.0
 40
0.0
 40
0.0
 40
0.1048347736069982
 40
0.2694532052429179
 40
0.4187644942642347
 40
0.5781488798823142
 40
0.7157137545966429
 40
0.8342898807759376
 40
0.9370637080997464
 40
1.0
 40
1.0
 40
1.0
 40
1.0
 10
206.6392306395069
 20
257.1256521418514
 30
0.0
 10
206.9248621488452
 20
255.6638008342244
 30
0.0
 10
207.6590109723846
 20
251.9064548041246
 30
0.0
 10
208.80386728557
 20
245.7814627341107
 30
0.0
 10
210.0909228511379
 20
238.7149820013806
 30
0.0
 10
211.3100064815906
 20
231.8957751780325
 30
0.0
 10
212.4443910720247
 20
225.4452778802175
 30
0.0
 10
213.4205409183118
 20
219.8116735738265
 30
0.0
 10
214.196664436766
 20
215.3212726375188
 30
0.0
 10
214.649110267182
 20
212.6912190214411
 30
0.0
 10
214.8209480703619
 20
211.692331187253
 30
0.0
  0
SPLINE
  5
19C
330
1F
100
AcDbEntity
  8
0
100
AcDbSpline
210
0.0
220
0.0
230
1.0
 70
     8
 71
     3
 72
     9
 73
     5
 74
     0
 42
0.00000001
 43
0.00000001
 40
0.0
 40
0.0
 40
0.0
 40
0.0
 40
0.2046160483793488
 40
1.0
 40
1.0
 40
1.0
 40
1.0
 10
-424.1452693826133
 20
316.7091649419823
 30
0.0
 10
-424.1736220695485
 20
316.7053229830383
 30
0.0
 10
-424.3121873832656
 20
316.6865465528686
 30
0.0
 10
-424.4108420818379
 20
316.5513205343308
 30
0.0
 10
-424.4893104458343
 20
316.4437639293444
 30
0.0
  0
SPLINE
  5
19D
330
1F
100
AcDbEntity
  8
0
100
AcDbSpline
210
0.0
220
0.0
230
1.0
 70
     8
 71
     3
 72
     9
 73
     5
 74
     0
 42
0.00000001
 43
0.00000001
 40
0.0
 40
0.0
 40
0.0
 40
0.0
 40
0.2046160483785993
 40
1.0
 40
1.0
 40
1.0
 40
1.0
 10
-302.1452693826137
 20
316.7091649419822
 30
0.0
 10
-302.1736220695487
 20
316.7053229830383
 30
0.0
 10
-302.3121873832654
 20
316.6865465528685
 30
0.0
 10
-302.4108420818377
 20
316.5513205343308
 30
0.0
 10
-302.4893104458343
 20
316.4437639293444
 30
0.0
  0
SPLINE
  5
19E
330
1F
100
AcDbEntity
  8
0
100
AcDbSpline
210
0.0
220
0.0
230
1.0
 70
     8
 71
     3
 72
     9
 73
     5
 74
     0
 42
0.00000001
 43
0.00000001
 40
0.0
 40
0.0
 40
0.0
 40
0.0
 40
0.2046160483796662
 40
1.0
 40
1.0
 40
1.0
 40
1.0
 10
-180.1452693826131
 20
316.7091649419823
 30
0.0
 10
-180.1736220695483
 20
316.7053229830383
 30
0.0
 10
-180.3121873832652
 20
316.6865465528685
 30
0.0
 10
-180.4108420818378
 20
316.5513205343308
 30
0.0
 10
-180.4893104458343
 20
316.4437639293444
 30
0.0
  0
SPLINE
  5
19F
330
1F
100
AcDbEntity
  8
0
100
AcDbSpline
210
0.0
220
0.0
230
1.0
 70
     8
 71
     3
 72
     9
 73
     5
 74
     0
 42
0.00000001
 43
0.00000001
 40
0.0
 40
0.0
 40
0.0
 40
0.0
 40
0.2046160483794703
 40
1.0
 40
1.0
 40
1.0
 40
1.0
 10
-58.14526938261355
 20
316.7091649419822
 30
0.0
 10
-58.17362206954871
 20
316.7053229830383
 30
0.0
 10
-58.31218738326539
 20
316.6865465528686
 30
0.0
 10
-58.41084208183783
 20
316.5513205343308
 30
0.0
 10
-58.48931044583432
 20
316.4437639293444
 30
0.0
  0
SPLINE
  5
1A0
330
1F
100
AcDbEntity
  8
0
100
AcDbSpline
210
0.0
220
0.0
230
1.0
 70
     8
 71
     3
 72
     9
 73
     5
 74
     0
 42
0.00000001
 43
0.00000001
 40
0.0
 40
0.0
 40
0.0
 40
0.0
 40
0.2046160483800142
 40
1.0
 40
1.0
 40
1.0
 40
1.0
 10
63.85473061738689
 20
316.7091649419824
 30
0.0
 10
63.82637793045162
 20
316.7053229830383
 30
0.0
 10
63.68781261673476
 20
316.6865465528686
 30
0.0
 10
63.58915791816219
 20
316.5513205343308
 30
0.0
 10
63.51068955416572
 20
316.4437639293444
 30
0.0
  0
SPLINE
  5
1A1
330
1F
100
AcDbEntity
  8
0
100
AcDbSpline
210
0.0
220
0.0
230
1.0
 70
     8
 71
     3
 72
     9
 73
     5
 74
     0
 42
0.00000001
 43
0.00000001
 40
0.0
 40
0.0
 40
0.0
 40
0.0
 40
0.2046160483784762
 40
1.0
 40
1.0
 40
1.0
 40
1.0
 10
185.8547306173861
 20
316.7091649419822
 30
0.0
 10
185.8263779304511
 20
316.7053229830382
 30
0.0
 10
185.6878126167346
 20
316.6865465528685
 30
0.0
 10
185.5891579181623
 20
316.5513205343309
 30
0.0
 10
185.5106895541657
 20
316.4437639293444
 30
0.0
  0
LINE
  5
1A2
330
1F
100
AcDbEntity
  8
0
100
AcDbLine
 10
-420.6989593249
 20
314.4994869287
 30
0.0
 11
-420.3382554087
 21
314.2126738536
 31
0.0
  0
LINE
  5
1A3
330
1F
100
AcDbEntity
  8
0
100
AcDbLine
 10
-298.6989593249
 20
314.4994869287
 30
0.0
 11
-298.3382554087
 21
314.2126738536
 31
0.0
  0
LINE
  5
1A4
330
1F
100
AcDbEntity
  8
0
100
AcDbLine
 10
-176.6989593249
 20
314.4994869287
 30
0.0
 11
-176.3382554087
 21
314.2126738536
 31
0.0
  0
LINE
  5
1A5
330
1F
100
AcDbEntity
  8
0
100
AcDbLine
 10
-54.6989593249
 20
314.4994869287
 30
0.0
 11
-54.3382554087
 21
314.2126738536
 31
0.0
  0
LINE
  5
1A6
330
1F
100
AcDbEntity
  8
0
100
AcDbLine
 10
67.3010406751
 20
314.4994869287
 30
0.0
 11
67.6617445913
 21
314.2126738536
 31
0.0
  0
LINE
  5
1A7
330
1F
100
AcDbEntity
  8
0
100
AcDbLine
 10
189.3010406751
 20
314.4994869287
 30
0.0
 11
189.6617445913
 21
314.2126738536
 31
0.0
  0
LINE
  5
1A8
330
1F
100
AcDbEntity
  8
0
100
AcDbLine
 10
-542.6989593249
 20
314.4994869287
 30
0.0
 11
-542.3382554087
 21
314.2126738536
 31
0.0
  0
LWPOLYLINE
  5
1A9
330
1F
100
AcDbEntity
  8
0
100
AcDbPolyline
 90
        2
 70
   128
 43
0.0
 10
-393.406780592
 20
203.1058089984
 10
-393.406780592
 20
203.1058089984
  0
LWPOLYLINE
  5
1AA
330
1F
100
AcDbEntity
  8
0
100
AcDbPolyline
 90
        2
 70
   128
 43
0.0
 10
-271.406780592
 20
203.1058089984
 10
-271.406780592
 20
203.1058089984
  0
LWPOLYLINE
  5
1AB
330
1F
100
AcDbEntity
  8
0
100
AcDbPolyline
 90
        2
 70
   128
 43
0.0
 10
-149.406780592
 20
203.1058089984
 10
-149.406780592
 20
203.1058089984
  0
LWPOLYLINE
  5
1AC
330
1F
100
AcDbEntity
  8
0
100
AcDbPolyline
 90
        2
 70
   128
 43
0.0
 10
-27.406780592
 20
203.1058089984
 10
-27.406780592
 20
203.1058089984
  0
LWPOLYLINE
  5
1AD
330
1F
100
AcDbEntity
  8
0
100
AcDbPolyline
 90
        2
 70
   128
 43
0.0
 10
94.593219408
 20
203.1058089984
 10
94.593219408
 20
203.1058089984
  0
LWPOLYLINE
  5
1AE
330
1F
100
AcDbEntity
  8
0
100
AcDbPolyline
 90
        2
 70
   128
 43
0.0
 10
216.593219408
 20
203.1058089984
 10
216.593219408
 20
203.1058089984
  0
LWPOLYLINE
  5
1AF
330
1F
100
AcDbEntity
  8
0
100
AcDbPolyline
 90
        2
 70
   128
 43
0.0
 10
-515.406780592
 20
203.1058089984
 10
-515.406780592
 20
203.1058089984
  0
LINE
  5
1B0
330
1F
100
AcDbEntity
  8
0
100
AcDbLine
 10
-422.002030567
 20
316.5690821386
 30
0.0
 11
-422.9547981193
 21
316.5690821386
 31
0.0
  0
LINE
  5
1B1
330
1F
100
AcDbEntity
  8
0
100
AcDbLine
 10
-300.002030567
 20
316.5690821386
 30
0.0
 11
-300.9547981193
 21
316.5690821386
 31
0.0
  0
LINE
  5
1B2
330
1F
100
AcDbEntity
  8
0
100
AcDbLine
 10
-178.002030567
 20
316.5690821386
 30
0.0
 11
-178.9547981193
 21
316.5690821386
 31
0.0
  0
LINE
  5
1B3
330
1F
100
AcDbEntity
  8
0
100
AcDbLine
 10
-56.002030567
 20
316.5690821386
 30
0.0
 11
-56.9547981193
 21
316.5690821386
 31
0.0
  0
LINE
  5
1B4
330
1F
100
AcDbEntity
  8
0
100
AcDbLine
 10
65.997969433
 20
316.5690821386
 30
0.0
 11
65.0452018807
 21
316.5690821386
 31
0.0
  0
LINE
  5
1B5
330
1F
100
AcDbEntity
  8
0
100
AcDbLine
 10
187.997969433
 20
316.5690821386
 30
0.0
 11
187.0452018807
 21
316.5690821386
 31
0.0
  0
LINE
  5
1B6
330
1F
100
AcDbEntity
  8
0
100
AcDbLine
 10
-544.002030567
 20
316.5690821386
 30
0.0
 11
-544.9547981193
 21
316.5690821386
 31
0.0
  0
LINE
  5
1B7
330
1F
100
AcDbEntity
  8
0
100
AcDbLine
 10
353.593371425
 20
142.6126853306
 30
0.0
 11
353.3032060135
 21
144.0249456422
 31
0.0
  0
LINE
  5
1B8
330
1F
100
AcDbEntity
  8
0
100
AcDbLine
 10
-478.706784183
 20
90.6058089926
 30
0.0
 11
-366.4973860228
 21
90.6058089926
 31
0.0
  0
LINE
  5
1B9
330
1F
100
AcDbEntity
  8
0
100
AcDbLine
 10
-356.706784183
 20
90.6058089926
 30
0.0
 11
-244.4973860228
 21
90.6058089926
 31
0.0
  0
LINE
  5
1BA
330
1F
100
AcDbEntity
  8
0
100
AcDbLine
 10
-234.706784183
 20
90.6058089926
 30
0.0
 11
-122.4973860228
 21
90.6058089926
 31
0.0
  0
LINE
  5
1BB
330
1F
100
AcDbEntity
  8
0
100
AcDbLine
 10
-112.706784183
 20
90.6058089926
 30
0.0
 11
-0.4973860228
 21
90.6058089926
 31
0.0
  0
LINE
  5
1BC
330
1F
100
AcDbEntity
  8
0
100
AcDbLine
 10
9.293215817
 20
90.6058089926
 30
0.0
 11
121.5026139772
 21
90.6058089926
 31
0.0
  0
LINE
  5
1BD
330
1F
100
AcDbEntity
  8
0
100
AcDbLine
 10
131.293215817
 20
90.6058089926
 30
0.0
 11
243.5026139772
 21
90.6058089926
 31
0.0
  0
LINE
  5
1BE
330
1F
100
AcDbEntity
  8
0
100
AcDbLine
 10
253.293215817
 20
90.6058089926
 30
0.0
 11
353.2931509516
 21
90.6058089926
 31
0.0
  0
LINE
  5
1BF
330
1F
100
AcDbEntity
  8
0
100
AcDbLine
 10
-421.9941889684
 20
315.4704060782
 30
0.0
 11
-538.3121299532
 21
315.4704060782
 31
0.0
  0
LINE
  5
1C0
330
1F
100
AcDbEntity
  8
0
100
AcDbLine
 10
-299.9941889684
 20
315.4704060782
 30
0.0
 11
-416.0171450723
 21
315.4704060782
 31
0.0
  0
LINE
  5
1C1
330
1F
100
AcDbEntity
  8
0
100
AcDbLine
 10
-416.1489042791
 20
315.4704060782
 30
0.0
 11
-416.3121299532
 21
315.4704060782
 31
0.0
  0
LINE
  5
1C2
330
1F
100
AcDbEntity
  8
0
100
AcDbLine
 10
-177.9941889684
 20
315.4704060782
 30
0.0
 11
-294.0171450723
 21
315.4704060782
 31
0.0
  0
LINE
  5
1C3
330
1F
100
AcDbEntity
  8
0
100
AcDbLine
 10
-294.1489042791
 20
315.4704060782
 30
0.0
 11
-294.3121299532
 21
315.4704060782
 31
0.0
  0
LINE
  5
1C4
330
1F
100
AcDbEntity
  8
0
100
AcDbLine
 10
-55.9941889684
 20
315.4704060782
 30
0.0
 11
-172.0171450723
 21
315.4704060782
 31
0.0
  0
LINE
  5
1C5
330
1F
100
AcDbEntity
  8
0
100
AcDbLine
 10
-172.1489042791
 20
315.4704060782
 30
0.0
 11
-172.3121299532
 21
315.4704060782
 31
0.0
  0
LINE
  5
1C6
330
1F
100
AcDbEntity
  8
0
100
AcDbLine
 10
66.0058110316
 20
315.4704060782
 30
0.0
 11
-50.0171450723
 21
315.4704060782
 31
0.0
  0
LINE
  5
1C7
330
1F
100
AcDbEntity
  8
0
100
AcDbLine
 10
-50.1489042791
 20
315.4704060782
 30
0.0
 11
-50.3121299532
 21
315.4704060782
 31
0.0
  0
LINE
  5
1C8
330
1F
100
AcDbEntity
  8
0
100
AcDbLine
 10
188.0058110316
 20
315.4704060782
 30
0.0
 11
71.9828549277
 21
315.4704060782
 31
0.0
  0
LINE
  5
1C9
330
1F
100
AcDbEntity
  8
0
100
AcDbLine
 10
71.8510957209
 20
315.4704060782
 30
0.0
 11
71.6878700468
 21
315.4704060782
 31
0.0
  0
LINE
  5
1CA
330
1F
100
AcDbEntity
  8
0
100
AcDbLine
 10
309.033936339
 20
315.4704060782
 30
0.0
 11
193.9828549277
 21
315.4704060782
 31
0.0
  0
LINE
  5
1CB
330
1F
100
AcDbEntity
  8
0
100
AcDbLine
 10
193.8510957209
 20
315.4704060782
 30
0.0
 11
193.6878700468
 21
315.4704060782
 31
0.0
  0
LINE
  5
1CC
330
1F
100
AcDbEntity
  8
0
100
AcDbLine
 10
353.2931509516
 20
315.4704060782
 30
0.0
 11
315.9828549277
 21
315.4704060782
 31
0.0
  0
LINE
  5
1CD
330
1F
100
AcDbEntity
  8
0
100
AcDbLine
 10
315.8510957209
 20
315.4704060782
 30
0.0
 11
315.6878700468
 21
315.4704060782
 31
0.0
  0
LINE
  5
1CE
330
1F
100
AcDbEntity
  8
0
100
AcDbLine
 10
-543.9941889684
 20
315.4704060782
 30
0.0
 11
-546.7068490484
 21
315.4704060782
 31
0.0
  0
LINE
  5
1CF
330
1F
100
AcDbEntity
  8
0
100
AcDbLine
 10
-546.7068490484
 20
90.6058089926
 30
0.0
 11
-536.8128690484
 21
90.6058089926
 31
0.0
  0
LINE
  5
1D0
330
1F
100
AcDbEntity
  8
0
100
AcDbLine
 10
-531.3313711922
 20
90.6058089926
 30
0.0
 11
-488.4973860228
 21
90.6058089926
 31
0.0
  0
LINE
  5
1D1
330
1F
100
AcDbEntity
  8
0
100
AcDbLine
 10
392.2607293928
 20
267.505808979
 30
0.0
 11
388.180336174
 21
267.505808979
 31
0.0
  0
LINE
  5
1D2
330
1F
100
AcDbEntity
  8
0
100
AcDbLine
 10
-583.7392706072
 20
267.505808979
 30
0.0
 11
-587.819663826
 21
267.505808979
 31
0.0
  0
SPLINE
  5
1D3
330
1F
100
AcDbEntity
  8
0
100
AcDbSpline
210
0.0
220
0.0
230
1.0
 70
     8
 71
     3
 72
     9
 73
     5
 74
     0
 42
0.00000001
 43
0.00000001
 40
0.0
 40
0.0
 40
0.0
 40
0.0
 40
0.6048531878301521
 40
1.0
 40
1.0
 40
1.0
 40
1.0
 10
387.5777765106241
 20
267.459214528894
 30
0.0
 10
387.4299245149585
 20
267.4547994536177
 30
0.0
 10
387.1854817334037
 20
267.4475000372219
 30
0.0
 10
386.9287367736932
 20
267.3817786064692
 30
0.0
 10
386.827284821323
 20
267.3558089926161
 30
0.0
  0
LINE
  5
1D4
330
1F
100
AcDbEntity
  8
0
100
AcDbLine
 10
388.1808298148
 20
267.5058089918
 30
0.0
 11
387.8732245511
 21
267.482042101
 31
0.0
  0
LINE
  5
1D5
330
1F
100
AcDbEntity
  8
0
100
AcDbLine
 10
-588.2097221216
 20
267.4664720854
 30
0.0
 11
-588.7073851559
 21
267.4163468079
 31
0.0
  0
LINE
  5
1D6
330
1F
100
AcDbEntity
  8
0
100
AcDbLine
 10
-587.8191701852
 20
267.5058089918
 30
0.0
 11
-588.2097221216
 21
267.4664720854
 31
0.0
  0
LINE
  5
1D7
330
1F
100
AcDbEntity
  8
0
100
AcDbLine
 10
-583.7639558297
 20
267.4058089926
 30
0.0
 11
-583.7802936791
 21
267.4058089926
 31
0.0
  0
LINE
  5
1D8
330
1F
100
AcDbEntity
  8
0
100
AcDbLine
 10
345.2552269809
 20
202.6437329633
 30
0.0
 11
344.2931509516
 21
202.6197612603
 31
0.0
  0
LINE
  5
1D9
330
1F
100
AcDbEntity
  8
0
100
AcDbLine
 10
345.2552269809
 20
203.5678850219
 30
0.0
 11
345.2552269809
 21
202.6437329633
 31
0.0
  0
LINE
  5
1DA
330
1F
100
AcDbEntity
  8
0
100
AcDbLine
 10
344.2931509516
 20
203.591856725
 30
0.0
 11
345.2552269809
 21
203.5678850219
 31
0.0
  0
SPLINE
  5
1DB
330
1F
100
AcDbEntity
  8
0
100
AcDbSpline
210
0.0
220
0.0
230
1.0
 70
     8
 71
     3
 72
    12
 73
     8
 74
     0
 42
0.00000001
 43
0.00000001
 40
0.0
 40
0.0
 40
0.0
 40
0.0
 40
0.2174770912066439
 40
0.4353705208257989
 40
0.6490388720033433
 40
0.8610609605882537
 40
1.0
 40
1.0
 40
1.0
 40
1.0
 10
343.7791986839933
 20
204.1058089926174
 30
0.0
 10
343.7858073223649
 20
204.0480363524574
 30
0.0
 10
343.7990372506934
 20
203.9323804721237
 30
0.0
 10
343.8899252386498
 20
203.7782756090712
 30
0.0
 10
344.0212630939984
 20
203.6630232874119
 30
0.0
 10
344.1634877581682
 20
203.6023117425179
 30
0.0
 10
344.2563775828108
 20
203.5948218394762
 30
0.0
 10
344.2931509516469
 20
203.5918567249639
 30
0.0
  0
LINE
  5
1DC
330
1F
100
AcDbEntity
  8
0
100
AcDbLine
 10
343.7552269809
 20
205.0678850219
 30
0.0
 11
343.779198684
 21
204.1058089926
 31
0.0
  0
LINE
  5
1DD
330
1F
100
AcDbEntity
  8
0
100
AcDbLine
 10
342.8310749223
 20
205.0678850219
 30
0.0
 11
343.7552269809
 21
205.0678850219
 31
0.0
  0
LINE
  5
1DE
330
1F
100
AcDbEntity
  8
0
100
AcDbLine
 10
342.8071032193
 20
204.1058089926
 30
0.0
 11
342.8310749223
 21
205.0678850219
 31
0.0
  0
SPLINE
  5
1DF
330
1F
100
AcDbEntity
  8
0
100
AcDbSpline
210
0.0
220
0.0
230
1.0
 70
     8
 71
     3
 72
    12
 73
     8
 74
     0
 42
0.00000001
 43
0.00000001
 40
0.0
 40
0.0
 40
0.0
 40
0.0
 40
0.2174770912066678
 40
0.4353705208257839
 40
0.6490388720033278
 40
0.861060960588255
 40
1.0
 40
1.0
 40
1.0
 40
1.0
 10
342.2931509516468
 20
203.5918567249639
 30
0.0
 10
342.3509235918068
 20
203.5984653633354
 30
0.0
 10
342.4665794721406
 20
203.611695291664
 30
0.0
 10
342.6206843351931
 20
203.7025832796202
 30
0.0
 10
342.7359366568525
 20
203.8339211349692
 30
0.0
 10
342.7966482017463
 20
203.9761457991388
 30
0.0
 10
342.804138104788
 20
204.0690356237813
 30
0.0
 10
342.8071032193004
 20
204.1058089926174
 30
0.0
  0
LINE
  5
1E0
330
1F
100
AcDbEntity
  8
0
100
AcDbLine
 10
341.3310749223
 20
203.5678850219
 30
0.0
 11
342.2931509516
 21
203.591856725
 31
0.0
  0
LINE
  5
1E1
330
1F
100
AcDbEntity
  8
0
100
AcDbLine
 10
341.3310749223
 20
202.6437329633
 30
0.0
 11
341.3310749223
 21
203.5678850219
 31
0.0
  0
LINE
  5
1E2
330
1F
100
AcDbEntity
  8
0
100
AcDbLine
 10
342.2931509516
 20
202.6197612603
 30
0.0
 11
341.3310749223
 21
202.6437329633
 31
0.0
  0
SPLINE
  5
1E3
330
1F
100
AcDbEntity
  8
0
100
AcDbSpline
210
0.0
220
0.0
230
1.0
 70
     8
 71
     3
 72
    12
 73
     8
 74
     0
 42
0.00000001
 43
0.00000001
 40
0.0
 40
0.0
 40
0.0
 40
0.0
 40
0.2174770912066425
 40
0.4353705208257968
 40
0.6490388720033409
 40
0.8610609605882511
 40
1.0
 40
1.0
 40
1.0
 40
1.0
 10
342.8071032193004
 20
202.1058089926174
 30
0.0
 10
342.8004945809288
 20
202.1635816327774
 30
0.0
 10
342.7872646526002
 20
202.2792375131112
 30
0.0
 10
342.6963766646439
 20
202.4333423761637
 30
0.0
 10
342.565038809295
 20
202.548594697823
 30
0.0
 10
342.4228141451255
 20
202.609306242717
 30
0.0
 10
342.3299243204829
 20
202.6167961457587
 30
0.0
 10
342.2931509516468
 20
202.619761260271
 30
0.0
  0
LINE
  5
1E4
330
1F
100
AcDbEntity
  8
0
100
AcDbLine
 10
342.8310749223
 20
201.1437329633
 30
0.0
 11
342.8071032193
 21
202.1058089926
 31
0.0
  0
LINE
  5
1E5
330
1F
100
AcDbEntity
  8
0
100
AcDbLine
 10
343.7552269809
 20
201.1437329633
 30
0.0
 11
342.8310749223
 21
201.1437329633
 31
0.0
  0
LINE
  5
1E6
330
1F
100
AcDbEntity
  8
0
100
AcDbLine
 10
343.779198684
 20
202.1058089926
 30
0.0
 11
343.7552269809
 21
201.1437329633
 31
0.0
  0
SPLINE
  5
1E7
330
1F
100
AcDbEntity
  8
0
100
AcDbSpline
210
0.0
220
0.0
230
1.0
 70
     8
 71
     3
 72
    12
 73
     8
 74
     0
 42
0.00000001
 43
0.00000001
 40
0.0
 40
0.0
 40
0.0
 40
0.0
 40
0.2174770912067121
 40
0.4353705208258702
 40
0.6490388720034552
 40
0.8610609605884242
 40
1.0
 40
1.0
 40
1.0
 40
1.0
 10
344.2931509516468
 20
202.619761260271
 30
0.0
 10
344.2353783114869
 20
202.6131526218994
 30
0.0
 10
344.119722431153
 20
202.5999226935708
 30
0.0
 10
343.9656175681005
 20
202.5090347056147
 30
0.0
 10
343.8503652464414
 20
202.3776968502657
 30
0.0
 10
343.7896537015472
 20
202.2354721860961
 30
0.0
 10
343.7821637985056
 20
202.1425823614537
 30
0.0
 10
343.7791986839933
 20
202.1058089926176
 30
0.0
  0
ARC
  5
1E8
330
1F
100
AcDbEntity
  8
0
100
AcDbCircle
 10
343.2931509516
 20
203.1058089926
 30
0.0
 40
3.500000000002748
100
AcDbArc
 50
285.2889665925
 51
94.1510075708
  0
LINE
  5
1E9
330
1F
100
AcDbEntity
  8
0
100
AcDbLine
 10
342.8461327583
 20
205.0528271859
 30
0.0
 11
342.8310749223
 21
205.0678850219
 31
0.0
  0
LINE
  5
1EA
330
1F
100
AcDbEntity
  8
0
100
AcDbLine
 10
343.6564048125
 20
204.9690628535
 30
0.0
 11
343.7552269809
 21
205.0678850219
 31
0.0
  0
LINE
  5
1EB
330
1F
100
AcDbEntity
  8
0
100
AcDbLine
 10
345.0829424811
 20
203.3956005221
 30
0.0
 11
345.2552269809
 21
203.5678850219
 31
0.0
  0
LINE
  5
1EC
330
1F
100
AcDbEntity
  8
0
100
AcDbLine
 10
344.7296651181
 20
203.3956005221
 30
0.0
 11
345.0829424811
 21
203.3956005221
 31
0.0
  0
LINE
  5
1ED
330
1F
100
AcDbEntity
  8
0
100
AcDbLine
 10
343.7178290626
 20
201.1811308816
 30
0.0
 11
343.7552269809
 21
201.1437329633
 31
0.0
  0
LINE
  5
1EE
330
1F
100
AcDbEntity
  8
0
100
AcDbLine
 10
345.0829424811
 20
202.8160174631
 30
0.0
 11
344.8294549304
 21
202.8160174631
 31
0.0
  0
LINE
  5
1EF
330
1F
100
AcDbEntity
  8
0
100
AcDbLine
 10
345.0829424811
 20
202.8160174631
 30
0.0
 11
345.2552269809
 21
202.6437329633
 31
0.0
  0
LINE
  5
1F0
330
1F
100
AcDbEntity
  8
0
100
AcDbLine
 10
342.8317087555
 20
201.1443667965
 30
0.0
 11
342.8310749223
 21
201.1437329633
 31
0.0
  0
LINE
  5
1F1
330
1F
100
AcDbEntity
  8
0
100
AcDbLine
 10
345.0829424811
 20
203.3956005221
 30
0.0
 11
345.0829424811
 21
202.8160174631
 31
0.0
  0
ARC
  5
1F2
330
1F
100
AcDbEntity
  8
0
100
AcDbCircle
 10
343.2931509516
 20
203.1058089926
 30
0.0
 40
5.499999999999953
100
AcDbArc
 50
179.9015916352
 51
199.4624195488
  0
ARC
  5
1F3
330
1F
100
AcDbEntity
  8
0
100
AcDbCircle
 10
343.2931509516
 20
203.1058089926
 30
0.0
 40
5.500000000000282
100
AcDbArc
 50
284.5568874119
 51
94.93860667
  0
LINE
  5
1F4
330
1F
100
AcDbEntity
  8
0
100
AcDbLine
 10
-538.6689250777
 20
203.5678850219
 30
0.0
 11
-537.7068490484
 21
203.591856725
 31
0.0
  0
LINE
  5
1F5
330
1F
100
AcDbEntity
  8
0
100
AcDbLine
 10
-538.6689250777
 20
202.6437329633
 30
0.0
 11
-538.6689250777
 21
203.5678850219
 31
0.0
  0
LINE
  5
1F6
330
1F
100
AcDbEntity
  8
0
100
AcDbLine
 10
-537.7068490484
 20
202.6197612603
 30
0.0
 11
-538.6689250777
 21
202.6437329633
 31
0.0
  0
SPLINE
  5
1F7
330
1F
100
AcDbEntity
  8
0
100
AcDbSpline
210
0.0
220
0.0
230
1.0
 70
     8
 71
     3
 72
    12
 73
     8
 74
     0
 42
0.00000001
 43
0.00000001
 40
0.0
 40
0.0
 40
0.0
 40
0.0
 40
0.2174770912066427
 40
0.4353705208257969
 40
0.6490388720033409
 40
0.8610609605882511
 40
1.0
 40
1.0
 40
1.0
 40
1.0
 10
-537.1928967806996
 20
202.1058089926174
 30
0.0
 10
-537.199505419071
 20
202.1635816327774
 30
0.0
 10
-537.2127353473995
 20
202.2792375131112
 30
0.0
 10
-537.3036233353561
 20
202.4333423761637
 30
0.0
 10
-537.4349611907047
 20
202.548594697823
 30
0.0
 10
-537.5771858548744
 20
202.609306242717
 30
0.0
 10
-537.6700756795169
 20
202.6167961457587
 30
0.0
 10
-537.7068490483531
 20
202.619761260271
 30
0.0
  0
LINE
  5
1F8
330
1F
100
AcDbEntity
  8
0
100
AcDbLine
 10
-537.1689250777
 20
201.1437329633
 30
0.0
 11
-537.1928967807
 21
202.1058089926
 31
0.0
  0
LINE
  5
1F9
330
1F
100
AcDbEntity
  8
0
100
AcDbLine
 10
-536.2447730191
 20
201.1437329633
 30
0.0
 11
-537.1689250777
 21
201.1437329633
 31
0.0
  0
LINE
  5
1FA
330
1F
100
AcDbEntity
  8
0
100
AcDbLine
 10
-536.220801316
 20
202.1058089926
 30
0.0
 11
-536.2447730191
 21
201.1437329633
 31
0.0
  0
SPLINE
  5
1FB
330
1F
100
AcDbEntity
  8
0
100
AcDbSpline
210
0.0
220
0.0
230
1.0
 70
     8
 71
     3
 72
    12
 73
     8
 74
     0
 42
0.00000001
 43
0.00000001
 40
0.0
 40
0.0
 40
0.0
 40
0.0
 40
0.2174770912066702
 40
0.4353705208257863
 40
0.6490388720033301
 40
0.8610609605882582
 40
1.0
 40
1.0
 40
1.0
 40
1.0
 10
-535.7068490483531
 20
202.619761260271
 30
0.0
 10
-535.764621688513
 20
202.6131526218994
 30
0.0
 10
-535.8802775688467
 20
202.5999226935708
 30
0.0
 10
-536.0343824318995
 20
202.5090347056147
 30
0.0
 10
-536.1496347535586
 20
202.3776968502657
 30
0.0
 10
-536.2103462984529
 20
202.2354721860961
 30
0.0
 10
-536.2178362014943
 20
202.1425823614535
 30
0.0
 10
-536.2208013160066
 20
202.1058089926174
 30
0.0
  0
LINE
  5
1FC
330
1F
100
AcDbEntity
  8
0
100
AcDbLine
 10
-534.7447730191
 20
202.6437329633
 30
0.0
 11
-535.7068490484
 21
202.6197612603
 31
0.0
  0
LINE
  5
1FD
330
1F
100
AcDbEntity
  8
0
100
AcDbLine
 10
-534.7447730191
 20
203.5678850219
 30
0.0
 11
-534.7447730191
 21
202.6437329633
 31
0.0
  0
LINE
  5
1FE
330
1F
100
AcDbEntity
  8
0
100
AcDbLine
 10
-535.7068490484
 20
203.591856725
 30
0.0
 11
-534.7447730191
 21
203.5678850219
 31
0.0
  0
SPLINE
  5
1FF
330
1F
100
AcDbEntity
  8
0
100
AcDbSpline
210
0.0
220
0.0
230
1.0
 70
     8
 71
     3
 72
    12
 73
     8
 74
     0
 42
0.00000001
 43
0.00000001
 40
0.0
 40
0.0
 40
0.0
 40
0.0
 40
0.2174770912066435
 40
0.4353705208257986
 40
0.6490388720033431
 40
0.8610609605882534
 40
0.9999999999999999
 40
0.9999999999999999
 40
0.9999999999999999
 40
0.9999999999999999
 10
-536.2208013160066
 20
204.1058089926174
 30
0.0
 10
-536.2141926776351
 20
204.0480363524574
 30
0.0
 10
-536.2009627493065
 20
203.9323804721237
 30
0.0
 10
-536.1100747613503
 20
203.7782756090712
 30
0.0
 10
-535.9787369060012
 20
203.6630232874119
 30
0.0
 10
-535.8365122418315
 20
203.6023117425179
 30
0.0
 10
-535.7436224171892
 20
203.5948218394762
 30
0.0
 10
-535.7068490483531
 20
203.5918567249639
 30
0.0
  0
LINE
  5
200
330
1F
100
AcDbEntity
  8
0
100
AcDbLine
 10
-536.2447730191
 20
205.0678850219
 30
0.0
 11
-536.220801316
 21
204.1058089926
 31
0.0
  0
LINE
  5
201
330
1F
100
AcDbEntity
  8
0
100
AcDbLine
 10
-537.1689250777
 20
205.0678850219
 30
0.0
 11
-536.2447730191
 21
205.0678850219
 31
0.0
  0
LINE
  5
202
330
1F
100
AcDbEntity
  8
0
100
AcDbLine
 10
-537.1928967807
 20
204.1058089926
 30
0.0
 11
-537.1689250777
 21
205.0678850219
 31
0.0
  0
SPLINE
  5
203
330
1F
100
AcDbEntity
  8
0
100
AcDbSpline
210
0.0
220
0.0
230
1.0
 70
     8
 71
     3
 72
    12
 73
     8
 74
     0
 42
0.00000001
 43
0.00000001
 40
0.0
 40
0.0
 40
0.0
 40
0.0
 40
0.2174770912067097
 40
0.4353705208258677
 40
0.6490388720034529
 40
0.8610609605884209
 40
1.0
 40
1.0
 40
1.0
 40
1.0
 10
-537.7068490483531
 20
203.5918567249639
 30
0.0
 10
-537.6490764081932
 20
203.5984653633354
 30
0.0
 10
-537.5334205278594
 20
203.611695291664
 30
0.0
 10
-537.3793156648068
 20
203.7025832796202
 30
0.0
 10
-537.2640633431475
 20
203.8339211349692
 30
0.0
 10
-537.2033517982535
 20
203.9761457991387
 30
0.0
 10
-537.1958618952119
 20
204.0690356237812
 30
0.0
 10
-537.1928967806996
 20
204.1058089926173
 30
0.0
  0
CIRCLE
  5
204
330
1F
100
AcDbEntity
  8
0
100
AcDbCircle
 10
-536.7068490484
 20
203.1058089926
 30
0.0
 40
3.499999999999972
  0
ARC
  5
205
330
1F
100
AcDbEntity
  8
0
100
AcDbCircle
 10
-535.7068490484
 20
204.1058089926
 30
0.0
 40
0.71020847053137
100
AcDbArc
 50
180.0
 51
270.0
  0
ARC
  5
206
330
1F
100
AcDbEntity
  8
0
100
AcDbCircle
 10
-537.7068490484
 20
204.1058089926
 30
0.0
 40
0.71020847053137
100
AcDbArc
 50
270.0
 51
0.0
  0
ARC
  5
207
330
1F
100
AcDbEntity
  8
0
100
AcDbCircle
 10
-535.7068490484
 20
202.1058089926
 30
0.0
 40
0.71020847053137
100
AcDbArc
 50
90.0
 51
180.0
  0
ARC
  5
208
330
1F
100
AcDbEntity
  8
0
100
AcDbCircle
 10
-537.7068490484
 20
202.1058089926
 30
0.0
 40
0.71020847053137
100
AcDbArc
 50
0.0
 51
90.0
  0
LINE
  5
209
330
1F
100
AcDbEntity
  8
0
100
AcDbLine
 10
-536.9966405778
 20
204.8956005221
 30
0.0
 11
-537.1689250777
 21
205.0678850219
 31
0.0
  0
LINE
  5
20A
330
1F
100
AcDbEntity
  8
0
100
AcDbLine
 10
-536.9966405778
 20
204.1058089926
 30
0.0
 11
-536.9966405778
 21
204.8956005221
 31
0.0
  0
LINE
  5
20B
330
1F
100
AcDbEntity
  8
0
100
AcDbLine
 10
-536.4170575189
 20
204.8956005221
 30
0.0
 11
-536.4170575189
 21
204.1058089926
 31
0.0
  0
LINE
  5
20C
330
1F
100
AcDbEntity
  8
0
100
AcDbLine
 10
-536.4170575189
 20
204.8956005221
 30
0.0
 11
-536.2447730191
 21
205.0678850219
 31
0.0
  0
LINE
  5
20D
330
1F
100
AcDbEntity
  8
0
100
AcDbLine
 10
-538.4966405778
 20
203.3956005221
 30
0.0
 11
-537.7068490484
 21
203.3956005221
 31
0.0
  0
LINE
  5
20E
330
1F
100
AcDbEntity
  8
0
100
AcDbLine
 10
-538.4966405778
 20
203.3956005221
 30
0.0
 11
-538.6689250777
 21
203.5678850219
 31
0.0
  0
LINE
  5
20F
330
1F
100
AcDbEntity
  8
0
100
AcDbLine
 10
-534.9170575189
 20
203.3956005221
 30
0.0
 11
-534.7447730191
 21
203.5678850219
 31
0.0
  0
LINE
  5
210
330
1F
100
AcDbEntity
  8
0
100
AcDbLine
 10
-535.7068490484
 20
203.3956005221
 30
0.0
 11
-534.9170575189
 21
203.3956005221
 31
0.0
  0
LINE
  5
211
330
1F
100
AcDbEntity
  8
0
100
AcDbLine
 10
-534.9170575189
 20
202.8160174631
 30
0.0
 11
-535.7068490484
 21
202.8160174631
 31
0.0
  0
LINE
  5
212
330
1F
100
AcDbEntity
  8
0
100
AcDbLine
 10
-534.9170575189
 20
202.8160174631
 30
0.0
 11
-534.7447730191
 21
202.6437329633
 31
0.0
  0
LINE
  5
213
330
1F
100
AcDbEntity
  8
0
100
AcDbLine
 10
-538.4966405778
 20
202.8160174631
 30
0.0
 11
-538.6689250777
 21
202.6437329633
 31
0.0
  0
LINE
  5
214
330
1F
100
AcDbEntity
  8
0
100
AcDbLine
 10
-537.7068490484
 20
202.8160174631
 30
0.0
 11
-538.4966405778
 21
202.8160174631
 31
0.0
  0
LINE
  5
215
330
1F
100
AcDbEntity
  8
0
100
AcDbLine
 10
-536.9966405778
 20
201.3160174631
 30
0.0
 11
-536.9966405778
 21
202.1058089926
 31
0.0
  0
LINE
  5
216
330
1F
100
AcDbEntity
  8
0
100
AcDbLine
 10
-536.9966405778
 20
201.3160174631
 30
0.0
 11
-537.1689250777
 21
201.1437329633
 31
0.0
  0
LINE
  5
217
330
1F
100
AcDbEntity
  8
0
100
AcDbLine
 10
-536.4170575189
 20
201.3160174631
 30
0.0
 11
-536.2447730191
 21
201.1437329633
 31
0.0
  0
LINE
  5
218
330
1F
100
AcDbEntity
  8
0
100
AcDbLine
 10
-536.4170575189
 20
202.1058089926
 30
0.0
 11
-536.4170575189
 21
201.3160174631
 31
0.0
  0
LINE
  5
219
330
1F
100
AcDbEntity
  8
0
100
AcDbLine
 10
-536.9966405778
 20
204.8956005221
 30
0.0
 11
-536.4170575189
 21
204.8956005221
 31
0.0
  0
LINE
  5
21A
330
1F
100
AcDbEntity
  8
0
100
AcDbLine
 10
-534.9170575189
 20
203.3956005221
 30
0.0
 11
-534.9170575189
 21
202.8160174631
 31
0.0
  0
LINE
  5
21B
330
1F
100
AcDbEntity
  8
0
100
AcDbLine
 10
-538.4966405778
 20
202.8160174631
 30
0.0
 11
-538.4966405778
 21
203.3956005221
 31
0.0
  0
LINE
  5
21C
330
1F
100
AcDbEntity
  8
0
100
AcDbLine
 10
-536.4170575189
 20
201.3160174631
 30
0.0
 11
-536.9966405778
 21
201.3160174631
 31
0.0
  0
CIRCLE
  5
21D
330
1F
100
AcDbEntity
  8
0
100
AcDbCircle
 10
-536.7068490484
 20
203.1058089926
 30
0.0
 40
5.5
  0
LINE
  5
21E
330
1F
100
AcDbEntity
  8
0
100
AcDbLine
 10
-536.7068490484
 20
90.6058089926
 30
0.0
 11
-531.4068490484
 21
90.6058089926
 31
0.0
  0
LINE
  5
21F
330
1F
100
AcDbEntity
  8
0
100
AcDbLine
 10
-542.0068490484
 20
90.6058089926
 30
0.0
 11
-536.7068490484
 21
90.6058089926
 31
0.0
  0
LINE
  5
220
330
1F
100
AcDbEntity
  8
0
100
AcDbLine
 10
-536.7068490484
 20
89.6058089926
 30
0.0
 11
-531.4068490484
 21
89.6058089926
 31
0.0
  0
LINE
  5
221
330
1F
100
AcDbEntity
  8
0
100
AcDbLine
 10
-542.0068490484
 20
89.6058089926
 30
0.0
 11
-536.7068490484
 21
89.6058089926
 31
0.0
  0
LINE
  5
222
330
1F
100
AcDbEntity
  8
0
100
AcDbLine
 10
-538.6689250777
 20
88.9666314714
 30
0.0
 11
-537.7068490484
 21
88.738555952
 31
0.0
  0
LINE
  5
223
330
1F
100
AcDbEntity
  8
0
100
AcDbLine
 10
-535.7068490484
 20
88.738555952
 30
0.0
 11
-534.7447730191
 21
88.9666314714
 31
0.0
  0
SPLINE
  5
224
330
1F
100
AcDbEntity
  8
0
100
AcDbSpline
210
0.0
220
0.0
230
1.0
 70
     8
 71
     3
 72
    12
 73
     8
 74
     0
 42
0.00000001
 43
0.00000001
 40
0.0
 40
0.0
 40
0.0
 40
0.0
 40
0.2174770912066438
 40
0.4353705208257989
 40
0.6490388720033433
 40
0.8610609605882537
 40
1.0
 40
1.0
 40
1.0
 40
1.0
 10
-536.2208013160066
 20
88.73855595203814
 30
0.0
 10
-536.2141926776352
 20
88.72957838642732
 30
0.0
 10
-536.2009627493068
 20
88.71160606854305
 30
0.0
 10
-536.1100747613503
 20
88.6999374397649
 30
0.0
 10
-535.9787369060012
 20
88.70292158715017
 30
0.0
 10
-535.8365122418318
 20
88.71773049901142
 30
0.0
 10
-535.7436224171892
 20
88.7326497110704
 30
0.0
 10
-535.7068490483532
 20
88.73855595203813
 30
0.0
  0
LINE
  5
225
330
1F
100
AcDbEntity
  8
0
100
AcDbLine
 10
-536.2447730191
 20
88.9666314714
 30
0.0
 11
-536.220801316
 21
88.738555952
 31
0.0
  0
LINE
  5
226
330
1F
100
AcDbEntity
  8
0
100
AcDbLine
 10
-537.1689250777
 20
88.9666314714
 30
0.0
 11
-536.2447730191
 21
88.9666314714
 31
0.0
  0
LINE
  5
227
330
1F
100
AcDbEntity
  8
0
100
AcDbLine
 10
-537.1928967807
 20
88.738555952
 30
0.0
 11
-537.1689250777
 21
88.9666314714
 31
0.0
  0
SPLINE
  5
228
330
1F
100
AcDbEntity
  8
0
100
AcDbSpline
210
0.0
220
0.0
230
1.0
 70
     8
 71
     3
 72
    12
 73
     8
 74
     0
 42
0.00000001
 43
0.00000001
 40
0.0
 40
0.0
 40
0.0
 40
0.0
 40
0.2174770912067093
 40
0.435370520825868
 40
0.649038872003453
 40
0.8610609605884209
 40
1.0
 40
1.0
 40
1.0
 40
1.0
 10
-537.7068490483532
 20
88.73855595203813
 30
0.0
 10
-537.6490764081932
 20
88.72957838642736
 30
0.0
 10
-537.5334205278594
 20
88.71160606854308
 30
0.0
 10
-537.379315664807
 20
88.69993743976487
 30
0.0
 10
-537.2640633431475
 20
88.70292158715017
 30
0.0
 10
-537.2033517982535
 20
88.71773049901141
 30
0.0
 10
-537.1958618952119
 20
88.73264971107037
 30
0.0
 10
-537.1928967806996
 20
88.73855595203811
 30
0.0
  0
LINE
  5
229
330
1F
100
AcDbEntity
  8
0
100
AcDbLine
 10
343.2931509516
 20
316.6058089926
 30
0.0
 11
337.9931509516
 21
316.6058089926
 31
0.0
  0
LINE
  5
22A
330
1F
100
AcDbEntity
  8
0
100
AcDbLine
 10
348.5931509516
 20
316.6058089926
 30
0.0
 11
343.2931509516
 21
316.6058089926
 31
0.0
  0
LINE
  5
22B
330
1F
100
AcDbEntity
  8
0
100
AcDbLine
 10
343.2931509516
 20
315.6058089926
 30
0.0
 11
337.9931509516
 21
315.6058089926
 31
0.0
  0
LINE
  5
22C
330
1F
100
AcDbEntity
  8
0
100
AcDbLine
 10
348.5931509516
 20
315.6058089926
 30
0.0
 11
343.2931509516
 21
315.6058089926
 31
0.0
  0
LINE
  5
22D
330
1F
100
AcDbEntity
  8
0
100
AcDbLine
 10
345.2552269809
 20
317.2449865138
 30
0.0
 11
344.2931509516
 21
317.4730620332
 31
0.0
  0
LINE
  5
22E
330
1F
100
AcDbEntity
  8
0
100
AcDbLine
 10
342.2931509516
 20
317.4730620332
 30
0.0
 11
341.3310749223
 21
317.2449865138
 31
0.0
  0
SPLINE
  5
22F
330
1F
100
AcDbEntity
  8
0
100
AcDbSpline
210
0.0
220
0.0
230
1.0
 70
     8
 71
     3
 72
    12
 73
     8
 74
     0
 42
0.00000001
 43
0.00000001
 40
0.0
 40
0.0
 40
0.0
 40
0.0
 40
0.2174770912066431
 40
0.4353705208257978
 40
0.6490388720033423
 40
0.861060960588251
 40
1.0
 40
1.0
 40
1.0
 40
1.0
 10
342.8071032193004
 20
317.4730620332007
 30
0.0
 10
342.8004945809289
 20
317.4820395988115
 30
0.0
 10
342.7872646526004
 20
317.5000119166958
 30
0.0
 10
342.6963766646442
 20
317.511680545474
 30
0.0
 10
342.5650388092949
 20
317.5086963980887
 30
0.0
 10
342.4228141451254
 20
317.4938874862274
 30
0.0
 10
342.3299243204829
 20
317.4789682741684
 30
0.0
 10
342.2931509516468
 20
317.4730620332007
 30
0.0
  0
LINE
  5
230
330
1F
100
AcDbEntity
  8
0
100
AcDbLine
 10
342.8310749223
 20
317.2449865138
 30
0.0
 11
342.8071032193
 21
317.4730620332
 31
0.0
  0
LINE
  5
231
330
1F
100
AcDbEntity
  8
0
100
AcDbLine
 10
343.7552269809
 20
317.2449865138
 30
0.0
 11
342.8310749223
 21
317.2449865138
 31
0.0
  0
LINE
  5
232
330
1F
100
AcDbEntity
  8
0
100
AcDbLine
 10
343.779198684
 20
317.4730620332
 30
0.0
 11
343.7552269809
 21
317.2449865138
 31
0.0
  0
SPLINE
  5
233
330
1F
100
AcDbEntity
  8
0
100
AcDbSpline
210
0.0
220
0.0
230
1.0
 70
     8
 71
     3
 72
    12
 73
     8
 74
     0
 42
0.00000001
 43
0.00000001
 40
0.0
 40
0.0
 40
0.0
 40
0.0
 40
0.2174770912067095
 40
0.4353705208258686
 40
0.6490388720034538
 40
0.8610609605884213
 40
1.0
 40
1.0
 40
1.0
 40
1.0
 10
344.2931509516468
 20
317.4730620332007
 30
0.0
 10
344.2353783114869
 20
317.4820395988115
 30
0.0
 10
344.1197224311531
 20
317.5000119166958
 30
0.0
 10
343.9656175681005
 20
317.511680545474
 30
0.0
 10
343.8503652464414
 20
317.5086963980888
 30
0.0
 10
343.7896537015472
 20
317.4938874862274
 30
0.0
 10
343.7821637985056
 20
317.4789682741684
 30
0.0
 10
343.7791986839933
 20
317.4730620332007
 30
0.0
  0
LINE
  5
234
330
1F
100
AcDbEntity
  8
0
100
AcDbLine
 10
-531.4068490484
 20
316.6058089926
 30
0.0
 11
-539.6578757901
 21
316.6058089926
 31
0.0
  0
LINE
  5
235
330
1F
100
AcDbEntity
  8
0
100
AcDbLine
 10
-531.4068490484
 20
315.6058089926
 30
0.0
 11
-538.6828051645
 21
315.6058089926
 31
0.0
  0
LINE
  5
236
330
1F
100
AcDbEntity
  8
0
100
AcDbLine
 10
-537.7068490484
 20
317.4730620332
 30
0.0
 11
-538.6689250777
 21
317.2449865138
 31
0.0
  0
SPLINE
  5
237
330
1F
100
AcDbEntity
  8
0
100
AcDbSpline
210
0.0
220
0.0
230
1.0
 70
     8
 71
     3
 72
    12
 73
     8
 74
     0
 42
0.00000001
 43
0.00000001
 40
0.0
 40
0.0
 40
0.0
 40
0.0
 40
0.2174770912066433
 40
0.4353705208257979
 40
0.6490388720033423
 40
0.861060960588251
 40
1.0
 40
1.0
 40
1.0
 40
1.0
 10
-537.1928967806996
 20
317.4730620332007
 30
0.0
 10
-537.1995054190711
 20
317.4820395988115
 30
0.0
 10
-537.2127353473995
 20
317.5000119166958
 30
0.0
 10
-537.3036233353561
 20
317.511680545474
 30
0.0
 10
-537.4349611907048
 20
317.5086963980887
 30
0.0
 10
-537.5771858548743
 20
317.4938874862274
 30
0.0
 10
-537.6700756795169
 20
317.4789682741684
 30
0.0
 10
-537.7068490483531
 20
317.4730620332007
 30
0.0
  0
LINE
  5
238
330
1F
100
AcDbEntity
  8
0
100
AcDbLine
 10
-537.1689250777
 20
317.2449865138
 30
0.0
 11
-537.1928967807
 21
317.4730620332
 31
0.0
  0
LINE
  5
239
330
1F
100
AcDbEntity
  8
0
100
AcDbLine
 10
-536.2447730191
 20
317.2449865138
 30
0.0
 11
-537.1689250777
 21
317.2449865138
 31
0.0
  0
LINE
  5
23A
330
1F
100
AcDbEntity
  8
0
100
AcDbLine
 10
-536.220801316
 20
317.4730620332
 30
0.0
 11
-536.2447730191
 21
317.2449865138
 31
0.0
  0
SPLINE
  5
23B
330
1F
100
AcDbEntity
  8
0
100
AcDbSpline
210
0.0
220
0.0
230
1.0
 70
     8
 71
     3
 72
    12
 73
     8
 74
     0
 42
0.00000001
 43
0.00000001
 40
0.0
 40
0.0
 40
0.0
 40
0.0
 40
0.2174770912066676
 40
0.4353705208257847
 40
0.6490388720033287
 40
0.8610609605882553
 40
1.0
 40
1.0
 40
1.0
 40
1.0
 10
-535.7068490483531
 20
317.4730620332007
 30
0.0
 10
-535.764621688513
 20
317.4820395988115
 30
0.0
 10
-535.8802775688466
 20
317.5000119166957
 30
0.0
 10
-536.0343824318994
 20
317.511680545474
 30
0.0
 10
-536.1496347535586
 20
317.5086963980887
 30
0.0
 10
-536.2103462984527
 20
317.4938874862274
 30
0.0
 10
-536.2178362014944
 20
317.4789682741684
 30
0.0
 10
-536.2208013160066
 20
317.4730620332007
 30
0.0
  0
LINE
  5
23C
330
1F
100
AcDbEntity
  8
0
100
AcDbLine
 10
-534.7447730191
 20
317.2449865138
 30
0.0
 11
-535.7068490484
 21
317.4730620332
 31
0.0
  0
LINE
  5
23D
330
1F
100
AcDbEntity
  8
0
100
AcDbLine
 10
337.9931509516
 20
90.6058089926
 30
0.0
 11
348.5931509516
 21
90.6058089926
 31
0.0
  0
LINE
  5
23E
330
1F
100
AcDbEntity
  8
0
100
AcDbLine
 10
337.9931509516
 20
89.6058089926
 30
0.0
 11
348.5931509516
 21
89.6058089926
 31
0.0
  0
LINE
  5
23F
330
1F
100
AcDbEntity
  8
0
100
AcDbLine
 10
344.2931509516
 20
88.738555952
 30
0.0
 11
345.2552269809
 21
88.9666314714
 31
0.0
  0
SPLINE
  5
240
330
1F
100
AcDbEntity
  8
0
100
AcDbSpline
210
0.0
220
0.0
230
1.0
 70
     8
 71
     3
 72
    12
 73
     8
 74
     0
 42
0.00000001
 43
0.00000001
 40
0.0
 40
0.0
 40
0.0
 40
0.0
 40
0.217477091206644
 40
0.4353705208257991
 40
0.6490388720033435
 40
0.8610609605882537
 40
1.0
 40
1.0
 40
1.0
 40
1.0
 10
343.7791986839933
 20
88.73855595203813
 30
0.0
 10
343.7858073223649
 20
88.72957838642733
 30
0.0
 10
343.7990372506936
 20
88.71160606854306
 30
0.0
 10
343.8899252386496
 20
88.69993743976491
 30
0.0
 10
344.0212630939985
 20
88.70292158715013
 30
0.0
 10
344.163487758168
 20
88.71773049901144
 30
0.0
 10
344.2563775828108
 20
88.73264971107038
 30
0.0
 10
344.2931509516469
 20
88.73855595203813
 30
0.0
  0
LINE
  5
241
330
1F
100
AcDbEntity
  8
0
100
AcDbLine
 10
343.7552269809
 20
88.9666314714
 30
0.0
 11
343.779198684
 21
88.738555952
 31
0.0
  0
LINE
  5
242
330
1F
100
AcDbEntity
  8
0
100
AcDbLine
 10
342.8310749223
 20
88.9666314714
 30
0.0
 11
343.7552269809
 21
88.9666314714
 31
0.0
  0
LINE
  5
243
330
1F
100
AcDbEntity
  8
0
100
AcDbLine
 10
342.8071032193
 20
88.738555952
 30
0.0
 11
342.8310749223
 21
88.9666314714
 31
0.0
  0
SPLINE
  5
244
330
1F
100
AcDbEntity
  8
0
100
AcDbSpline
210
0.0
220
0.0
230
1.0
 70
     8
 71
     3
 72
    12
 73
     8
 74
     0
 42
0.00000001
 43
0.00000001
 40
0.0
 40
0.0
 40
0.0
 40
0.0
 40
0.2174770912066674
 40
0.4353705208257841
 40
0.6490388720033279
 40
0.8610609605882549
 40
0.9999999999999999
 40
0.9999999999999999
 40
0.9999999999999999
 40
0.9999999999999999
 10
342.2931509516468
 20
88.73855595203814
 30
0.0
 10
342.3509235918068
 20
88.72957838642735
 30
0.0
 10
342.4665794721407
 20
88.71160606854308
 30
0.0
 10
342.620684335193
 20
88.69993743976492
 30
0.0
 10
342.7359366568522
 20
88.70292158715014
 30
0.0
 10
342.7966482017463
 20
88.71773049901144
 30
0.0
 10
342.804138104788
 20
88.73264971107038
 30
0.0
 10
342.8071032193004
 20
88.73855595203814
 30
0.0
  0
LINE
  5
245
330
1F
100
AcDbEntity
  8
0
100
AcDbLine
 10
341.3310749223
 20
88.9666314714
 30
0.0
 11
342.2931509516
 21
88.738555952
 31
0.0
  0
LINE
  5
246
330
1F
100
AcDbEntity
  8
0
100
AcDbLine
 10
-629.5513514398
 20
133.7058089926
 30
0.0
 11
-629.5513514398
 21
272.5058089926
 31
0.0
  0
LINE
  5
247
330
1F
100
AcDbEntity
  8
0
100
AcDbLine
 10
-633.7513514398
 20
133.7058089926
 30
0.0
 11
-633.7513514398
 21
272.5058089926
 31
0.0
  0
LINE
  5
248
330
1F
100
AcDbEntity
  8
0
100
AcDbLine
 10
440.3376533431
 20
135.9921725304
 30
0.0
 11
440.3376533431
 21
133.7058089926
 31
0.0
  0
LINE
  5
249
330
1F
100
AcDbEntity
  8
0
100
AcDbLine
 10
440.3376533431
 20
272.5058089926
 30
0.0
 11
440.3376533431
 21
135.9921725304
 31
0.0
  0
LINE
  5
24A
330
1F
100
AcDbEntity
  8
0
100
AcDbLine
 10
436.1376533431
 20
135.9921725304
 30
0.0
 11
436.1376533431
 21
133.7058089926
 31
0.0
  0
LINE
  5
24B
330
1F
100
AcDbEntity
  8
0
100
AcDbLine
 10
436.1376533431
 20
272.5058089926
 30
0.0
 11
436.1376533431
 21
135.9921725304
 31
0.0
  0
LINE
  5
24C
330
1F
100
AcDbEntity
  8
0
100
AcDbLine
 10
-589.4739013347
 20
138.8558089926
 30
0.0
 11
-589.4739013347
 21
267.3558089926
 31
0.0
  0
LINE
  5
24D
330
1F
100
AcDbEntity
  8
0
100
AcDbLine
 10
-590.8306744673
 20
141.2058089926
 30
0.0
 11
-590.8306744673
 21
265.0058089926
 31
0.0
  0
LINE
  5
24E
330
1F
100
AcDbEntity
  8
0
100
AcDbLine
 10
-636.8013514398
 20
141.2058089926
 30
0.0
 11
-636.8013514398
 21
265.0058089926
 31
0.0
  0
LINE
  5
24F
330
1F
100
AcDbEntity
  8
0
100
AcDbLine
 10
-642.8013514398
 20
142.5058089926
 30
0.0
 11
-642.8013514398
 21
263.7058089926
 31
0.0
  0
LINE
  5
250
330
1F
100
AcDbEntity
  8
0
100
AcDbLine
 10
-624.1421737629
 20
141.2058089926
 30
0.0
 11
-624.1421737629
 21
265.0058089926
 31
0.0
  0
LINE
  5
251
330
1F
100
AcDbEntity
  8
0
100
AcDbLine
 10
397.4169763706
 20
265.0058089926
 30
0.0
 11
397.4169763706
 21
141.2058089926
 31
0.0
  0
LINE
  5
252
330
1F
100
AcDbEntity
  8
0
100
AcDbLine
 10
396.060203238
 20
267.3558089926
 30
0.0
 11
396.060203238
 21
138.8558089926
 31
0.0
  0
LINE
  5
253
330
1F
100
AcDbEntity
  8
0
100
AcDbLine
 10
443.3876533431
 20
265.0058089926
 30
0.0
 11
443.3876533431
 21
141.2058089926
 31
0.0
  0
LINE
  5
254
330
1F
100
AcDbEntity
  8
0
100
AcDbLine
 10
449.3876533431
 20
263.7058089787
 30
0.0
 11
449.3876533431
 21
142.5058089926
 31
0.0
  0
LINE
  5
255
330
1F
100
AcDbEntity
  8
0
100
AcDbLine
 10
430.7284756662
 20
265.0058089926
 30
0.0
 11
430.7284756662
 21
141.2058089926
 31
0.0
  0
SPLINE
  5
256
330
1F
100
AcDbEntity
  8
0
100
AcDbSpline
210
0.0
220
0.0
230
1.0
 70
     8
 71
     3
 72
    10
 73
     6
 74
     0
 42
0.00000001
 43
0.00000001
 40
0.0
 40
0.0
 40
0.0
 40
0.0
 40
0.1304175278620463
 40
0.6968273102812957
 40
1.0
 40
1.0
 40
1.0
 40
1.0
 10
-541.564317664236
 20
317.1633236723836
 30
0.0
 10
-541.4218402139093
 20
317.1907609959671
 30
0.0
 10
-540.6605761406329
 20
317.3373599747047
 30
0.0
 10
-539.5648013093451
 20
316.8295321808728
 30
0.0
 10
-538.6152340268076
 20
315.8460972334838
 30
0.0
 10
-538.284175298809
 20
315.50323082608
 30
0.0
  0
SPLINE
  5
257
330
1F
100
AcDbEntity
  8
0
100
AcDbSpline
210
0.0
220
0.0
230
1.0
 70
     8
 71
     3
 72
     9
 73
     5
 74
     0
 42
0.00000001
 43
0.00000001
 40
0.0
 40
0.0
 40
0.0
 40
0.0
 40
0.7337095223221887
 40
1.0
 40
1.0
 40
1.0
 40
1.0
 10
-480.5643037387331
 20
89.05366942916072
 30
0.0
 10
-480.4057663514174
 20
88.99988580979357
 30
0.0
 10
-480.1896898490789
 20
88.92658211435158
 30
0.0
 10
-479.9731647483411
 20
89.03498178189898
 30
0.0
 10
-479.9155061758365
 20
89.06384758115027
 30
0.0
  0
SPLINE
  5
258
330
1F
100
AcDbEntity
  8
0
100
AcDbSpline
210
0.0
220
0.0
230
1.0
 70
     8
 71
     3
 72
    10
 73
     6
 74
     0
 42
0.00000001
 43
0.00000001
 40
0.0
 40
0.0
 40
0.0
 40
0.0
 40
0.1304175278620384
 40
0.696827310281293
 40
1.0
 40
1.0
 40
1.0
 40
1.0
 10
-419.5643176642359
 20
317.1633236723836
 30
0.0
 10
-419.4218402139093
 20
317.1907609959672
 30
0.0
 10
-418.660576140633
 20
317.3373599747047
 30
0.0
 10
-417.564801309345
 20
316.8295321808728
 30
0.0
 10
-416.6152340268075
 20
315.8460972334838
 30
0.0
 10
-416.284175298809
 20
315.50323082608
 30
0.0
  0
SPLINE
  5
259
330
1F
100
AcDbEntity
  8
0
100
AcDbSpline
210
0.0
220
0.0
230
1.0
 70
     8
 71
     3
 72
     9
 73
     5
 74
     0
 42
0.00000001
 43
0.00000001
 40
0.0
 40
0.0
 40
0.0
 40
0.0
 40
0.7337095223222344
 40
1.0
 40
1.0
 40
1.0
 40
1.0
 10
-358.5643037387331
 20
89.05366942916072
 30
0.0
 10
-358.4057663514174
 20
88.99988580979354
 30
0.0
 10
-358.1896898490789
 20
88.92658211435158
 30
0.0
 10
-357.9731647483411
 20
89.03498178189895
 30
0.0
 10
-357.9155061758365
 20
89.06384758115026
 30
0.0
  0
SPLINE
  5
25A
330
1F
100
AcDbEntity
  8
0
100
AcDbSpline
210
0.0
220
0.0
230
1.0
 70
     8
 71
     3
 72
    10
 73
     6
 74
     0
 42
0.00000001
 43
0.00000001
 40
0.0
 40
0.0
 40
0.0
 40
0.0
 40
0.1304175278620376
 40
0.6968273102812896
 40
1.0
 40
1.0
 40
1.0
 40
1.0
 10
-297.5643176642359
 20
317.1633236723836
 30
0.0
 10
-297.4218402139093
 20
317.1907609959672
 30
0.0
 10
-296.660576140633
 20
317.3373599747047
 30
0.0
 10
-295.5648013093449
 20
316.8295321808728
 30
0.0
 10
-294.6152340268075
 20
315.8460972334838
 30
0.0
 10
-294.284175298809
 20
315.50323082608
 30
0.0
  0
SPLINE
  5
25B
330
1F
100
AcDbEntity
  8
0
100
AcDbSpline
210
0.0
220
0.0
230
1.0
 70
     8
 71
     3
 72
     9
 73
     5
 74
     0
 42
0.00000001
 43
0.00000001
 40
0.0
 40
0.0
 40
0.0
 40
0.0
 40
0.7337095223222362
 40
1.0
 40
1.0
 40
1.0
 40
1.0
 10
-236.5643037387332
 20
89.0536694291607
 30
0.0
 10
-236.4057663514174
 20
88.99988580979353
 30
0.0
 10
-236.1896898490789
 20
88.92658211435156
 30
0.0
 10
-235.9731647483412
 20
89.03498178189895
 30
0.0
 10
-235.9155061758365
 20
89.06384758115026
 30
0.0
  0
SPLINE
  5
25C
330
1F
100
AcDbEntity
  8
0
100
AcDbSpline
210
0.0
220
0.0
230
1.0
 70
     8
 71
     3
 72
    10
 73
     6
 74
     0
 42
0.00000001
 43
0.00000001
 40
0.0
 40
0.0
 40
0.0
 40
0.0
 40
0.1304175278620366
 40
0.6968273102812831
 40
1.0
 40
1.0
 40
1.0
 40
1.0
 10
-175.564317664236
 20
317.1633236723836
 30
0.0
 10
-175.4218402139093
 20
317.1907609959672
 30
0.0
 10
-174.660576140633
 20
317.3373599747048
 30
0.0
 10
-173.5648013093449
 20
316.8295321808728
 30
0.0
 10
-172.6152340268075
 20
315.8460972334838
 30
0.0
 10
-172.284175298809
 20
315.5032308260799
 30
0.0
  0
SPLINE
  5
25D
330
1F
100
AcDbEntity
  8
0
100
AcDbSpline
210
0.0
220
0.0
230
1.0
 70
     8
 71
     3
 72
     9
 73
     5
 74
     0
 42
0.00000001
 43
0.00000001
 40
0.0
 40
0.0
 40
0.0
 40
0.0
 40
0.7337095223221547
 40
0.9999999999999999
 40
0.9999999999999999
 40
0.9999999999999999
 40
0.9999999999999999
 10
-114.5643037387331
 20
89.0536694291607
 30
0.0
 10
-114.4057663514173
 20
88.99988580979353
 30
0.0
 10
-114.1896898490789
 20
88.92658211435159
 30
0.0
 10
-113.9731647483411
 20
89.03498178189898
 30
0.0
 10
-113.9155061758365
 20
89.06384758115028
 30
0.0
  0
SPLINE
  5
25E
330
1F
100
AcDbEntity
  8
0
100
AcDbSpline
210
0.0
220
0.0
230
1.0
 70
     8
 71
     3
 72
    10
 73
     6
 74
     0
 42
0.00000001
 43
0.00000001
 40
0.0
 40
0.0
 40
0.0
 40
0.0
 40
0.1304175278620575
 40
0.6968273102813144
 40
1.0
 40
1.0
 40
1.0
 40
1.0
 10
-53.56431766423603
 20
317.1633236723836
 30
0.0
 10
-53.42184021390931
 20
317.1907609959671
 30
0.0
 10
-52.66057614063296
 20
317.3373599747047
 30
0.0
 10
-51.56480130934495
 20
316.8295321808728
 30
0.0
 10
-50.61523402680752
 20
315.8460972334838
 30
0.0
 10
-50.28417529880907
 20
315.50323082608
 30
0.0
  0
SPLINE
  5
25F
330
1F
100
AcDbEntity
  8
0
100
AcDbSpline
210
0.0
220
0.0
230
1.0
 70
     8
 71
     3
 72
     9
 73
     5
 74
     0
 42
0.00000001
 43
0.00000001
 40
0.0
 40
0.0
 40
0.0
 40
0.0
 40
0.7337095223221844
 40
1.0
 40
1.0
 40
1.0
 40
1.0
 10
7.435696261266722
 20
89.05366942916073
 30
0.0
 10
7.594233648582527
 20
88.99988580979354
 30
0.0
 10
7.810310150920971
 20
88.92658211435156
 30
0.0
 10
8.026835251658829
 20
89.03498178189898
 30
0.0
 10
8.084493824163541
 20
89.06384758115028
 30
0.0
  0
SPLINE
  5
260
330
1F
100
AcDbEntity
  8
0
100
AcDbSpline
210
0.0
220
0.0
230
1.0
 70
     8
 71
     3
 72
    10
 73
     6
 74
     0
 42
0.00000001
 43
0.00000001
 40
0.0
 40
0.0
 40
0.0
 40
0.0
 40
0.1304175278620572
 40
0.6968273102813152
 40
1.0
 40
1.0
 40
1.0
 40
1.0
 10
68.43568233576403
 20
317.1633236723836
 30
0.0
 10
68.57815978609072
 20
317.1907609959671
 30
0.0
 10
69.339423859367
 20
317.3373599747047
 30
0.0
 10
70.43519869065514
 20
316.8295321808728
 30
0.0
 10
71.38476597319246
 20
315.8460972334838
 30
0.0
 10
71.71582470119087
 20
315.50323082608
 30
0.0
  0
SPLINE
  5
261
330
1F
100
AcDbEntity
  8
0
100
AcDbSpline
210
0.0
220
0.0
230
1.0
 70
     8
 71
     3
 72
     9
 73
     5
 74
     0
 42
0.00000001
 43
0.00000001
 40
0.0
 40
0.0
 40
0.0
 40
0.0
 40
0.7337095223221844
 40
1.0
 40
1.0
 40
1.0
 40
1.0
 10
129.4356962612667
 20
89.05366942916073
 30
0.0
 10
129.5942336485826
 20
88.99988580979354
 30
0.0
 10
129.810310150921
 20
88.92658211435156
 30
0.0
 10
130.0268352516588
 20
89.03498178189898
 30
0.0
 10
130.0844938241635
 20
89.06384758115028
 30
0.0
  0
SPLINE
  5
262
330
1F
100
AcDbEntity
  8
0
100
AcDbSpline
210
0.0
220
0.0
230
1.0
 70
     8
 71
     3
 72
    10
 73
     6
 74
     0
 42
0.00000001
 43
0.00000001
 40
0.0
 40
0.0
 40
0.0
 40
0.0
 40
0.1304175278620548
 40
0.6968273102813026
 40
1.0
 40
1.0
 40
1.0
 40
1.0
 10
190.435682335764
 20
317.1633236723836
 30
0.0
 10
190.5781597860907
 20
317.1907609959671
 30
0.0
 10
191.3394238593669
 20
317.3373599747047
 30
0.0
 10
192.4351986906552
 20
316.8295321808728
 30
0.0
 10
193.3847659731925
 20
315.8460972334838
 30
0.0
 10
193.715824701191
 20
315.50323082608
 30
0.0
  0
SPLINE
  5
263
330
1F
100
AcDbEntity
  8
0
100
AcDbSpline
210
0.0
220
0.0
230
1.0
 70
     8
 71
     3
 72
     9
 73
     5
 74
     0
 42
0.00000001
 43
0.00000001
 40
0.0
 40
0.0
 40
0.0
 40
0.0
 40
0.7337095223222002
 40
1.0
 40
1.0
 40
1.0
 40
1.0
 10
251.4356962612667
 20
89.05366942916073
 30
0.0
 10
251.5942336485825
 20
88.99988580979354
 30
0.0
 10
251.810310150921
 20
88.92658211435156
 30
0.0
 10
252.0268352516588
 20
89.03498178189896
 30
0.0
 10
252.0844938241634
 20
89.06384758115028
 30
0.0
  0
SPLINE
  5
264
330
1F
100
AcDbEntity
  8
0
100
AcDbSpline
210
0.0
220
0.0
230
1.0
 70
     8
 71
     3
 72
    10
 73
     6
 74
     0
 42
0.00000001
 43
0.00000001
 40
0.0
 40
0.0
 40
0.0
 40
0.0
 40
0.130417527862058
 40
0.6968273102813154
 40
1.0
 40
1.0
 40
1.0
 40
1.0
 10
312.4356823357639
 20
317.1633236723836
 30
0.0
 10
312.5781597860907
 20
317.1907609959671
 30
0.0
 10
313.3394238593669
 20
317.3373599747046
 30
0.0
 10
314.4351986906551
 20
316.8295321808728
 30
0.0
 10
315.3847659731925
 20
315.8460972334838
 30
0.0
 10
315.7158247011909
 20
315.50323082608
 30
0.0
  0
SPLINE
  5
265
330
1F
100
AcDbEntity
  8
0
100
AcDbSpline
210
0.0
220
0.0
230
1.0
 70
     8
 71
     3
 72
     9
 73
     5
 74
     0
 42
0.00000001
 43
0.00000001
 40
0.0
 40
0.0
 40
0.0
 40
0.0
 40
0.4316391843616524
 40
1.0
 40
1.0
 40
1.0
 40
1.0
 10
-539.9494906306032
 20
316.7413545438926
 30
0.0
 10
-539.6848746016786
 20
316.6698006280954
 30
0.0
 10
-539.0718254659376
 20
316.5040281069954
 30
0.0
 10
-538.4600672119051
 20
315.8227672351347
 30
0.0
 10
-538.1123677916696
 20
315.4355652503415
 30
0.0
  0
SPLINE
  5
266
330
1F
100
AcDbEntity
  8
0
100
AcDbSpline
210
0.0
220
0.0
230
1.0
 70
     8
 71
     3
 72
    10
 73
     6
 74
     0
 42
0.00000001
 43
0.00000001
 40
0.0
 40
0.0
 40
0.0
 40
0.0
 40
0.1548455435001308
 40
0.756668262143542
 40
1.0
 40
1.0
 40
1.0
 40
1.0
 10
-480.3922268602021
 20
89.12745706262085
 30
0.0
 10
-480.2320792988394
 20
89.09920588240097
 30
0.0
 10
-479.4495021952059
 20
88.96115365979728
 30
0.0
 10
-478.4117652568948
 20
89.42982912601087
 30
0.0
 10
-477.5379211624153
 20
90.3429179921549
 30
0.0
 10
-477.2863292782456
 20
90.6058089926193
 30
0.0
  0
SPLINE
  5
267
330
1F
100
AcDbEntity
  8
0
100
AcDbSpline
210
0.0
220
0.0
230
1.0
 70
     8
 71
     3
 72
     9
 73
     5
 74
     0
 42
0.00000001
 43
0.00000001
 40
0.0
 40
0.0
 40
0.0
 40
0.0
 40
0.4316391843618164
 40
0.9999999999999999
 40
0.9999999999999999
 40
0.9999999999999999
 40
0.9999999999999999
 10
-417.9494906306037
 20
316.7413545438927
 30
0.0
 10
-417.6848746016787
 20
316.6698006280956
 30
0.0
 10
-417.0718254659378
 20
316.5040281069955
 30
0.0
 10
-416.4600672119051
 20
315.8227672351347
 30
0.0
 10
-416.1123677916697
 20
315.4355652503415
 30
0.0
  0
SPLINE
  5
268
330
1F
100
AcDbEntity
  8
0
100
AcDbSpline
210
0.0
220
0.0
230
1.0
 70
     8
 71
     3
 72
    10
 73
     6
 74
     0
 42
0.00000001
 43
0.00000001
 40
0.0
 40
0.0
 40
0.0
 40
0.0
 40
0.1548455435001304
 40
0.7566682621435419
 40
1.0
 40
1.0
 40
1.0
 40
1.0
 10
-358.3922268602021
 20
89.12745706262085
 30
0.0
 10
-358.2320792988393
 20
89.09920588240097
 30
0.0
 10
-357.449502195206
 20
88.96115365979732
 30
0.0
 10
-356.4117652568947
 20
89.42982912601089
 30
0.0
 10
-355.5379211624153
 20
90.34291799215488
 30
0.0
 10
-355.2863292782457
 20
90.60580899261929
 30
0.0
  0
SPLINE
  5
269
330
1F
100
AcDbEntity
  8
0
100
AcDbSpline
210
0.0
220
0.0
230
1.0
 70
     8
 71
     3
 72
     9
 73
     5
 74
     0
 42
0.00000001
 43
0.00000001
 40
0.0
 40
0.0
 40
0.0
 40
0.0
 40
0.4316391843617396
 40
1.0
 40
1.0
 40
1.0
 40
1.0
 10
-295.9494906306035
 20
316.7413545438926
 30
0.0
 10
-295.6848746016786
 20
316.6698006280955
 30
0.0
 10
-295.0718254659377
 20
316.5040281069955
 30
0.0
 10
-294.460067211905
 20
315.8227672351347
 30
0.0
 10
-294.1123677916697
 20
315.4355652503415
 30
0.0
  0
SPLINE
  5
26A
330
1F
100
AcDbEntity
  8
0
100
AcDbSpline
210
0.0
220
0.0
230
1.0
 70
     8
 71
     3
 72
    10
 73
     6
 74
     0
 42
0.00000001
 43
0.00000001
 40
0.0
 40
0.0
 40
0.0
 40
0.0
 40
0.1548455435001139
 40
0.7566682621435374
 40
0.9999999999999999
 40
0.9999999999999999
 40
0.9999999999999999
 40
0.9999999999999999
 10
-236.392226860202
 20
89.12745706262086
 30
0.0
 10
-236.2320792988393
 20
89.09920588240098
 30
0.0
 10
-235.449502195206
 20
88.96115365979726
 30
0.0
 10
-234.4117652568946
 20
89.4298291260109
 30
0.0
 10
-233.5379211624154
 20
90.3429179921549
 30
0.0
 10
-233.2863292782457
 20
90.6058089926193
 30
0.0
  0
SPLINE
  5
26B
330
1F
100
AcDbEntity
  8
0
100
AcDbSpline
210
0.0
220
0.0
230
1.0
 70
     8
 71
     3
 72
     9
 73
     5
 74
     0
 42
0.00000001
 43
0.00000001
 40
0.0
 40
0.0
 40
0.0
 40
0.0
 40
0.4316391843616477
 40
1.0
 40
1.0
 40
1.0
 40
1.0
 10
-173.9494906306032
 20
316.7413545438926
 30
0.0
 10
-173.6848746016784
 20
316.6698006280954
 30
0.0
 10
-173.0718254659376
 20
316.5040281069954
 30
0.0
 10
-172.4600672119051
 20
315.8227672351347
 30
0.0
 10
-172.1123677916696
 20
315.4355652503415
 30
0.0
  0
SPLINE
  5
26C
330
1F
100
AcDbEntity
  8
0
100
AcDbSpline
210
0.0
220
0.0
230
1.0
 70
     8
 71
     3
 72
    10
 73
     6
 74
     0
 42
0.00000001
 43
0.00000001
 40
0.0
 40
0.0
 40
0.0
 40
0.0
 40
0.1548455435001164
 40
0.7566682621435298
 40
1.0
 40
1.0
 40
1.0
 40
1.0
 10
-114.392226860202
 20
89.12745706262085
 30
0.0
 10
-114.2320792988393
 20
89.09920588240098
 30
0.0
 10
-113.4495021952061
 20
88.96115365979723
 30
0.0
 10
-112.4117652568947
 20
89.4298291260109
 30
0.0
 10
-111.5379211624154
 20
90.3429179921549
 30
0.0
 10
-111.2863292782456
 20
90.60580899261933
 30
0.0
  0
SPLINE
  5
26D
330
1F
100
AcDbEntity
  8
0
100
AcDbSpline
210
0.0
220
0.0
230
1.0
 70
     8
 71
     3
 72
     9
 73
     5
 74
     0
 42
0.00000001
 43
0.00000001
 40
0.0
 40
0.0
 40
0.0
 40
0.0
 40
0.4316391843616438
 40
1.0
 40
1.0
 40
1.0
 40
1.0
 10
-51.94949063060327
 20
316.7413545438926
 30
0.0
 10
-51.68487460167847
 20
316.6698006280955
 30
0.0
 10
-51.07182546593759
 20
316.5040281069955
 30
0.0
 10
-50.460067211905
 20
315.8227672351347
 30
0.0
 10
-50.11236779166956
 20
315.4355652503414
 30
0.0
  0
SPLINE
  5
26E
330
1F
100
AcDbEntity
  8
0
100
AcDbSpline
210
0.0
220
0.0
230
1.0
 70
     8
 71
     3
 72
    10
 73
     6
 74
     0
 42
0.00000001
 43
0.00000001
 40
0.0
 40
0.0
 40
0.0
 40
0.0
 40
0.1548455435001455
 40
0.7566682621435379
 40
1.0
 40
1.0
 40
1.0
 40
1.0
 10
7.607773139797769
 20
89.12745706262088
 30
0.0
 10
7.767920701160516
 20
89.09920588240101
 30
0.0
 10
8.550497804793917
 20
88.96115365979723
 30
0.0
 10
9.588234743105314
 20
89.4298291260109
 30
0.0
 10
10.46207883758468
 20
90.3429179921549
 30
0.0
 10
10.71367072175446
 20
90.60580899261933
 30
0.0
  0
SPLINE
  5
26F
330
1F
100
AcDbEntity
  8
0
100
AcDbSpline
210
0.0
220
0.0
230
1.0
 70
     8
 71
     3
 72
     9
 73
     5
 74
     0
 42
0.00000001
 43
0.00000001
 40
0.0
 40
0.0
 40
0.0
 40
0.0
 40
0.4316391843615679
 40
1.0
 40
1.0
 40
1.0
 40
1.0
 10
70.05050936939708
 20
316.7413545438925
 30
0.0
 10
70.31512539832177
 20
316.6698006280953
 30
0.0
 10
70.92817453406248
 20
316.5040281069953
 30
0.0
 10
71.53993278809493
 20
315.8227672351347
 30
0.0
 10
71.88763220833039
 20
315.4355652503414
 30
0.0
  0
SPLINE
  5
270
330
1F
100
AcDbEntity
  8
0
100
AcDbSpline
210
0.0
220
0.0
230
1.0
 70
     8
 71
     3
 72
    10
 73
     6
 74
     0
 42
0.00000001
 43
0.00000001
 40
0.0
 40
0.0
 40
0.0
 40
0.0
 40
0.1548455435001448
 40
0.7566682621435373
 40
1.0
 40
1.0
 40
1.0
 40
1.0
 10
129.607773139798
 20
89.12745706262088
 30
0.0
 10
129.7679207011607
 20
89.09920588240098
 30
0.0
 10
130.550497804794
 20
88.9611536597972
 30
0.0
 10
131.5882347431053
 20
89.42982912601089
 30
0.0
 10
132.4620788375846
 20
90.34291799215492
 30
0.0
 10
132.7136707217545
 20
90.60580899261934
 30
0.0
  0
SPLINE
  5
271
330
1F
100
AcDbEntity
  8
0
100
AcDbSpline
210
0.0
220
0.0
230
1.0
 70
     8
 71
     3
 72
     9
 73
     5
 74
     0
 42
0.00000001
 43
0.00000001
 40
0.0
 40
0.0
 40
0.0
 40
0.0
 40
0.4316391843615681
 40
1.0
 40
1.0
 40
1.0
 40
1.0
 10
192.0505093693969
 20
316.7413545438924
 30
0.0
 10
192.3151253983217
 20
316.6698006280953
 30
0.0
 10
192.9281745340624
 20
316.5040281069953
 30
0.0
 10
193.5399327880951
 20
315.8227672351347
 30
0.0
 10
193.8876322083305
 20
315.4355652503414
 30
0.0
  0
SPLINE
  5
272
330
1F
100
AcDbEntity
  8
0
100
AcDbSpline
210
0.0
220
0.0
230
1.0
 70
     8
 71
     3
 72
    10
 73
     6
 74
     0
 42
0.00000001
 43
0.00000001
 40
0.0
 40
0.0
 40
0.0
 40
0.0
 40
0.1548455435001483
 40
0.7566682621435554
 40
0.9999999999999999
 40
0.9999999999999999
 40
0.9999999999999999
 40
0.9999999999999999
 10
251.6077731397979
 20
89.12745706262088
 30
0.0
 10
251.7679207011606
 20
89.09920588240098
 30
0.0
 10
252.5504978047937
 20
88.96115365979728
 30
0.0
 10
253.5882347431051
 20
89.42982912601087
 30
0.0
 10
254.4620788375846
 20
90.34291799215488
 30
0.0
 10
254.7136707217543
 20
90.60580899261927
 30
0.0
  0
SPLINE
  5
273
330
1F
100
AcDbEntity
  8
0
100
AcDbSpline
210
0.0
220
0.0
230
1.0
 70
     8
 71
     3
 72
     9
 73
     5
 74
     0
 42
0.00000001
 43
0.00000001
 40
0.0
 40
0.0
 40
0.0
 40
0.0
 40
0.4316391843615679
 40
1.0
 40
1.0
 40
1.0
 40
1.0
 10
314.0505093693971
 20
316.7413545438925
 30
0.0
 10
314.3151253983219
 20
316.6698006280953
 30
0.0
 10
314.9281745340625
 20
316.5040281069953
 30
0.0
 10
315.539932788095
 20
315.8227672351347
 30
0.0
 10
315.8876322083304
 20
315.4355652503414
 30
0.0
  0
SPLINE
  5
274
330
1F
100
AcDbEntity
  8
0
100
AcDbSpline
210
0.0
220
0.0
230
1.0
 70
    24
 71
     3
 72
    10
 73
     6
 74
     0
 42
0.00000001
 43
0.00000001
 40
0.0
 40
0.0
 40
0.0
 40
0.0
 40
0.3871023305894247
 40
0.6932496838704197
 40
1.0
 40
1.0
 40
1.0
 40
1.0
 10
353.2931509516469
 20
145.9980710895586
 30
0.0
 10
353.2931509516467
 20
145.8733462771439
 30
0.0
 10
353.2931509516463
 20
145.6499804383341
 30
0.0
 10
353.2931509516469
 20
145.3400326706482
 30
0.0
 10
353.293150951647
 20
145.1549120796416
 30
0.0
 10
353.293150951647
 20
145.0622607242074
 30
0.0
  0
SPLINE
  5
275
330
1F
100
AcDbEntity
  8
0
100
AcDbSpline
210
0.0
220
0.0
230
1.0
 70
     8
 71
     3
 72
    40
 73
    36
 74
     0
 42
0.00000001
 43
0.00000001
 40
0.0
 40
0.0
 40
0.0
 40
0.0
 40
0.0203660824492501
 40
0.0539214887170894
 40
0.0874703664571594
 40
0.1210094013030563
 40
0.1545720683071949
 40
0.188109075417856
 40
0.2188450560917929
 40
0.2495671216867334
 40
0.2802932491399721
 40
0.3110253800762609
 40
0.3417434397758428
 40
0.3719343556852842
 40
0.4021004385401272
 40
0.4322936320581853
 40
0.4624591958629625
 40
0.4931994846548305
 40
0.5239164314487222
 40
0.5546504509352441
 40
0.5853746157390571
 40
0.6160984420520595
 40
0.6462841580026418
 40
0.6764533165752464
 40
0.7066444503015987
 40
0.7368104284440451
 40
0.7675520087104185
 40
0.7982662921483059
 40
0.8290055604899985
 40
0.8597238409199338
 40
0.8904556059288168
 40
0.920633442244183
 40
0.9508081855152978
 40
0.980994296952511
 40
0.9999999999999999
 40
0.9999999999999999
 40
0.9999999999999999
 40
0.9999999999999999
 10
-545.9065710300802
 20
317.1057260230546
 30
0.0
 10
-545.494165120066
 20
317.1197887457806
 30
0.0
 10
-544.4022741941063
 20
317.1570213822823
 30
0.0
 10
-542.6279926364804
 20
315.8058155774474
 30
0.0
 10
-540.5879537069027
 20
313.2124842985431
 30
0.0
 10
-538.5507141401368
 20
309.3501311390713
 30
0.0
 10
-536.5071017535392
 20
304.3319641856008
 30
0.0
 10
-534.5278140213286
 20
298.3639212488981
 30
0.0
 10
-532.6000244084288
 20
291.6236932994078
 30
0.0
 10
-530.733308829558
 20
284.2633099768647
 30
0.0
 10
-528.8654383603555
 20
276.1528565150849
 30
0.0
 10
-526.9958191860895
 20
267.3673664911853
 30
0.0
 10
-525.1415470411939
 20
258.0413353232996
 30
0.0
 10
-523.2920863464396
 20
248.2770521895535
 30
0.0
 10
-521.4612932659494
 20
238.1646925740331
 30
0.0
 10
-519.6222177758872
 20
227.7437602574404
 30
0.0
 10
-517.7804841731498
 20
217.0341592477391
 30
0.0
 10
-515.9195464322705
 20
206.1366297604922
 30
0.0
 10
-514.0545461604852
 20
195.142300438828
 30
0.0
 10
-512.1843805112729
 20
184.2244178037977
 30
0.0
 10
-510.3170850325944
 20
173.4799011158558
 30
0.0
 10
-508.4609727067722
 20
163.0716024330414
 30
0.0
 10
-506.6130771455868
 20
153.0901995231417
 30
0.0
 10
-504.7812819013595
 20
143.6126329739687
 30
0.0
 10
-502.9428274962186
 20
134.6688828220298
 30
0.0
 10
-501.1009718314419
 20
126.2819479834967
 30
0.0
 10
-499.2396308776343
 20
118.5472868000941
 30
0.0
 10
-497.3755124387032
 20
111.5454947575914
 30
0.0
 10
-495.503788697198
 20
105.3932703488529
 30
0.0
 10
-493.6383562413936
 20
100.1423566265441
 30
0.0
 10
-491.7799140478716
 20
95.8734435347734
 30
0.0
 10
-489.9343343814039
 20
92.58988767862371
 30
0.0
 10
-488.1006952434411
 20
90.35441891351589
 30
0.0
 10
-486.4904545525899
 20
89.13783767768622
 30
0.0
 10
-485.4944342612851
 20
89.09661957531964
 30
0.0
 10
-485.1096128009645
 20
89.08069458816547
 30
0.0
  0
SPLINE
  5
276
330
1F
100
AcDbEntity
  8
0
100
AcDbSpline
210
0.0
220
0.0
230
1.0
 70
     8
 71
     3
 72
    40
 73
    36
 74
     0
 42
0.00000001
 43
0.00000001
 40
0.0
 40
0.0
 40
0.0
 40
0.0
 40
0.02036608244925
 40
0.0539214887170893
 40
0.0874703664571593
 40
0.1210094013030563
 40
0.1545720683071949
 40
0.188109075417856
 40
0.218845056091793
 40
0.2495671216867336
 40
0.2802932491399723
 40
0.3110253800762611
 40
0.3417434397758431
 40
0.3719343556852845
 40
0.4021004385401276
 40
0.4322936320581857
 40
0.4624591958629629
 40
0.493199484654831
 40
0.5239164314487227
 40
0.5546504509352447
 40
0.5853746157390578
 40
0.6160984420520602
 40
0.6462841580026425
 40
0.6764533165752472
 40
0.7066444503015995
 40
0.7368104284440459
 40
0.7675520087104193
 40
0.7982662921483067
 40
0.8290055604899994
 40
0.8597238409199348
 40
0.8904556059288178
 40
0.920633442244184
 40
0.9508081855152989
 40
0.9809942969525121
 40
1.0
 40
1.0
 40
1.0
 40
1.0
 10
-423.90657103008
 20
317.1057260230546
 30
0.0
 10
-423.4941651200659
 20
317.1197887457805
 30
0.0
 10
-422.4022741941064
 20
317.1570213822823
 30
0.0
 10
-420.6279926364804
 20
315.8058155774475
 30
0.0
 10
-418.5879537069029
 20
313.212484298543
 30
0.0
 10
-416.5507141401368
 20
309.3501311390713
 30
0.0
 10
-414.5071017535393
 20
304.3319641856008
 30
0.0
 10
-412.5278140213287
 20
298.3639212488981
 30
0.0
 10
-410.6000244084287
 20
291.6236932994078
 30
0.0
 10
-408.733308829558
 20
284.2633099768647
 30
0.0
 10
-406.8654383603555
 20
276.1528565150849
 30
0.0
 10
-404.9958191860896
 20
267.3673664911853
 30
0.0
 10
-403.1415470411936
 20
258.0413353232996
 30
0.0
 10
-401.29208634644
 20
248.2770521895536
 30
0.0
 10
-399.4612932659493
 20
238.1646925740331
 30
0.0
 10
-397.622217775887
 20
227.7437602574404
 30
0.0
 10
-395.7804841731499
 20
217.0341592477391
 30
0.0
 10
-393.9195464322703
 20
206.1366297604922
 30
0.0
 10
-392.0545461604855
 20
195.142300438828
 30
0.0
 10
-390.1843805112729
 20
184.2244178037977
 30
0.0
 10
-388.3170850325944
 20
173.4799011158558
 30
0.0
 10
-386.4609727067721
 20
163.0716024330414
 30
0.0
 10
-384.6130771455869
 20
153.0901995231416
 30
0.0
 10
-382.7812819013595
 20
143.6126329739687
 30
0.0
 10
-380.9428274962185
 20
134.6688828220298
 30
0.0
 10
-379.1009718314418
 20
126.2819479834967
 30
0.0
 10
-377.2396308776344
 20
118.5472868000942
 30
0.0
 10
-375.3755124387031
 20
111.5454947575914
 30
0.0
 10
-373.5037886971979
 20
105.3932703488529
 30
0.0
 10
-371.6383562413935
 20
100.1423566265442
 30
0.0
 10
-369.7799140478717
 20
95.87344353477339
 30
0.0
 10
-367.9343343814038
 20
92.58988767862371
 30
0.0
 10
-366.100695243441
 20
90.35441891351591
 30
0.0
 10
-364.49045455259
 20
89.1378376776862
 30
0.0
 10
-363.494434261285
 20
89.09661957531966
 30
0.0
 10
-363.1096128009646
 20
89.08069458816547
 30
0.0
  0
SPLINE
  5
277
330
1F
100
AcDbEntity
  8
0
100
AcDbSpline
210
0.0
220
0.0
230
1.0
 70
     8
 71
     3
 72
    40
 73
    36
 74
     0
 42
0.00000001
 43
0.00000001
 40
0.0
 40
0.0
 40
0.0
 40
0.0
 40
0.0203660824492506
 40
0.0539214887170898
 40
0.0874703664571597
 40
0.1210094013030565
 40
0.154572068307195
 40
0.188109075417856
 40
0.2188450560917929
 40
0.2495671216867333
 40
0.2802932491399719
 40
0.3110253800762606
 40
0.3417434397758425
 40
0.3719343556852837
 40
0.4021004385401267
 40
0.4322936320581847
 40
0.4624591958629618
 40
0.4931994846548298
 40
0.5239164314487214
 40
0.5546504509352432
 40
0.5853746157390562
 40
0.6160984420520585
 40
0.6462841580026408
 40
0.6764533165752453
 40
0.7066444503015975
 40
0.7368104284440438
 40
0.7675520087104171
 40
0.7982662921483045
 40
0.829005560489997
 40
0.8597238409199323
 40
0.8904556059288151
 40
0.9206334422441812
 40
0.950808185515296
 40
0.9809942969525091
 40
1.0
 40
1.0
 40
1.0
 40
1.0
 10
-301.90657103008
 20
317.1057260230546
 30
0.0
 10
-301.494165120066
 20
317.1197887457805
 30
0.0
 10
-300.4022741941063
 20
317.1570213822822
 30
0.0
 10
-298.6279926364805
 20
315.8058155774476
 30
0.0
 10
-296.5879537069027
 20
313.2124842985431
 30
0.0
 10
-294.5507141401368
 20
309.3501311390713
 30
0.0
 10
-292.5071017535394
 20
304.3319641856008
 30
0.0
 10
-290.5278140213287
 20
298.3639212488981
 30
0.0
 10
-288.6000244084289
 20
291.6236932994078
 30
0.0
 10
-286.7333088295579
 20
284.2633099768646
 30
0.0
 10
-284.8654383603555
 20
276.1528565150849
 30
0.0
 10
-282.9958191860895
 20
267.3673664911853
 30
0.0
 10
-281.1415470411936
 20
258.0413353232996
 30
0.0
 10
-279.2920863464399
 20
248.2770521895535
 30
0.0
 10
-277.4612932659491
 20
238.1646925740331
 30
0.0
 10
-275.6222177758871
 20
227.7437602574404
 30
0.0
 10
-273.7804841731498
 20
217.034159247739
 30
0.0
 10
-271.9195464322702
 20
206.1366297604923
 30
0.0
 10
-270.0545461604855
 20
195.142300438828
 30
0.0
 10
-268.1843805112729
 20
184.2244178037977
 30
0.0
 10
-266.3170850325945
 20
173.4799011158558
 30
0.0
 10
-264.4609727067721
 20
163.0716024330414
 30
0.0
 10
-262.6130771455869
 20
153.0901995231416
 30
0.0
 10
-260.7812819013595
 20
143.6126329739687
 30
0.0
 10
-258.9428274962186
 20
134.6688828220298
 30
0.0
 10
-257.1009718314418
 20
126.2819479834967
 30
0.0
 10
-255.2396308776343
 20
118.5472868000942
 30
0.0
 10
-253.3755124387033
 20
111.5454947575914
 30
0.0
 10
-251.5037886971979
 20
105.3932703488529
 30
0.0
 10
-249.6383562413935
 20
100.1423566265441
 30
0.0
 10
-247.7799140478718
 20
95.87344353477337
 30
0.0
 10
-245.9343343814038
 20
92.58988767862374
 30
0.0
 10
-244.1006952434411
 20
90.35441891351586
 30
0.0
 10
-242.4904545525898
 20
89.1378376776862
 30
0.0
 10
-241.4944342612849
 20
89.09661957531964
 30
0.0
 10
-241.1096128009644
 20
89.08069458816544
 30
0.0
  0
SPLINE
  5
278
330
1F
100
AcDbEntity
  8
0
100
AcDbSpline
210
0.0
220
0.0
230
1.0
 70
     8
 71
     3
 72
    40
 73
    36
 74
     0
 42
0.00000001
 43
0.00000001
 40
0.0
 40
0.0
 40
0.0
 40
0.0
 40
0.0203660824492501
 40
0.0539214887170893
 40
0.0874703664571592
 40
0.121009401303056
 40
0.1545720683071944
 40
0.1881090754178554
 40
0.2188450560917923
 40
0.2495671216867326
 40
0.2802932491399712
 40
0.3110253800762599
 40
0.3417434397758417
 40
0.3719343556852829
 40
0.4021004385401259
 40
0.4322936320581838
 40
0.4624591958629609
 40
0.4931994846548289
 40
0.5239164314487205
 40
0.5546504509352422
 40
0.5853746157390551
 40
0.6160984420520574
 40
0.6462841580026396
 40
0.6764533165752441
 40
0.7066444503015963
 40
0.7368104284440425
 40
0.7675520087104157
 40
0.798266292148303
 40
0.8290055604899956
 40
0.8597238409199308
 40
0.8904556059288137
 40
0.9206334422441796
 40
0.9508081855152944
 40
0.9809942969525075
 40
1.0
 40
1.0
 40
1.0
 40
1.0
 10
-179.90657103008
 20
317.1057260230546
 30
0.0
 10
-179.494165120066
 20
317.1197887457805
 30
0.0
 10
-178.4022741941063
 20
317.1570213822823
 30
0.0
 10
-176.6279926364805
 20
315.8058155774475
 30
0.0
 10
-174.5879537069027
 20
313.212484298543
 30
0.0
 10
-172.5507141401369
 20
309.3501311390713
 30
0.0
 10
-170.5071017535394
 20
304.3319641856008
 30
0.0
 10
-168.5278140213287
 20
298.3639212488981
 30
0.0
 10
-166.6000244084288
 20
291.6236932994078
 30
0.0
 10
-164.7333088295581
 20
284.2633099768647
 30
0.0
 10
-162.8654383603555
 20
276.1528565150849
 30
0.0
 10
-160.9958191860895
 20
267.3673664911853
 30
0.0
 10
-159.1415470411937
 20
258.0413353232996
 30
0.0
 10
-157.2920863464398
 20
248.2770521895535
 30
0.0
 10
-155.4612932659492
 20
238.1646925740331
 30
0.0
 10
-153.6222177758871
 20
227.7437602574404
 30
0.0
 10
-151.7804841731499
 20
217.0341592477391
 30
0.0
 10
-149.9195464322702
 20
206.1366297604922
 30
0.0
 10
-148.0545461604856
 20
195.142300438828
 30
0.0
 10
-146.1843805112728
 20
184.2244178037977
 30
0.0
 10
-144.3170850325944
 20
173.4799011158558
 30
0.0
 10
-142.4609727067721
 20
163.0716024330414
 30
0.0
 10
-140.6130771455869
 20
153.0901995231416
 30
0.0
 10
-138.7812819013595
 20
143.6126329739687
 30
0.0
 10
-136.9428274962185
 20
134.6688828220298
 30
0.0
 10
-135.1009718314417
 20
126.2819479834968
 30
0.0
 10
-133.2396308776344
 20
118.5472868000941
 30
0.0
 10
-131.3755124387032
 20
111.5454947575914
 30
0.0
 10
-129.503788697198
 20
105.3932703488529
 30
0.0
 10
-127.6383562413935
 20
100.1423566265442
 30
0.0
 10
-125.7799140478719
 20
95.87344353477334
 30
0.0
 10
-123.9343343814038
 20
92.58988767862374
 30
0.0
 10
-122.100695243441
 20
90.35441891351587
 30
0.0
 10
-120.4904545525898
 20
89.13783767768618
 30
0.0
 10
-119.4944342612848
 20
89.09661957531962
 30
0.0
 10
-119.1096128009642
 20
89.08069458816544
 30
0.0
  0
SPLINE
  5
279
330
1F
100
AcDbEntity
  8
0
100
AcDbSpline
210
0.0
220
0.0
230
1.0
 70
     8
 71
     3
 72
    40
 73
    36
 74
     0
 42
0.00000001
 43
0.00000001
 40
0.0
 40
0.0
 40
0.0
 40
0.0
 40
0.0203660824492493
 40
0.0539214887170886
 40
0.0874703664571587
 40
0.1210094013030556
 40
0.1545720683071942
 40
0.1881090754178553
 40
0.2188450560917923
 40
0.2495671216867328
 40
0.2802932491399716
 40
0.3110253800762604
 40
0.3417434397758424
 40
0.3719343556852837
 40
0.4021004385401268
 40
0.4322936320581849
 40
0.4624591958629621
 40
0.4931994846548303
 40
0.5239164314487219
 40
0.5546504509352439
 40
0.585374615739057
 40
0.6160984420520594
 40
0.6462841580026417
 40
0.6764533165752464
 40
0.7066444503015986
 40
0.736810428444045
 40
0.7675520087104184
 40
0.798266292148306
 40
0.8290055604899986
 40
0.859723840919934
 40
0.890455605928817
 40
0.9206334422441832
 40
0.950808185515298
 40
0.9809942969525112
 40
1.0
 40
1.0
 40
1.0
 40
1.0
 10
-57.90657103008001
 20
317.1057260230546
 30
0.0
 10
-57.49416512006599
 20
317.1197887457805
 30
0.0
 10
-56.4022741941063
 20
317.1570213822822
 30
0.0
 10
-54.62799263648051
 20
315.8058155774474
 30
0.0
 10
-52.58795370690271
 20
313.212484298543
 30
0.0
 10
-50.5507141401369
 20
309.3501311390713
 30
0.0
 10
-48.50710175353939
 20
304.3319641856008
 30
0.0
 10
-46.52781402132867
 20
298.3639212488981
 30
0.0
 10
-44.60002440842879
 20
291.6236932994078
 30
0.0
 10
-42.73330882955806
 20
284.2633099768647
 30
0.0
 10
-40.86543836035545
 20
276.1528565150849
 30
0.0
 10
-38.99581918608953
 20
267.3673664911853
 30
0.0
 10
-37.14154704119371
 20
258.0413353232996
 30
0.0
 10
-35.29208634643985
 20
248.2770521895535
 30
0.0
 10
-33.46129326594918
 20
238.1646925740331
 30
0.0
 10
-31.6222177758871
 20
227.7437602574404
 30
0.0
 10
-29.78048417314978
 20
217.034159247739
 30
0.0
 10
-27.91954643227022
 20
206.1366297604923
 30
0.0
 10
-26.05454616048542
 20
195.142300438828
 30
0.0
 10
-24.18438051127292
 20
184.2244178037977
 30
0.0
 10
-22.31708503259436
 20
173.4799011158558
 30
0.0
 10
-20.46097270677208
 20
163.0716024330414
 30
0.0
 10
-18.61307714558687
 20
153.0901995231416
 30
0.0
 10
-16.78128190135943
 20
143.6126329739688
 30
0.0
 10
-14.94282749621854
 20
134.6688828220297
 30
0.0
 10
-13.10097183144159
 20
126.2819479834967
 30
0.0
 10
-11.23963087763456
 20
118.5472868000941
 30
0.0
 10
-9.375512438703145
 20
111.5454947575914
 30
0.0
 10
-7.503788697197811
 20
105.3932703488528
 30
0.0
 10
-5.638356241393569
 20
100.1423566265442
 30
0.0
 10
-3.77991404787191
 20
95.8734435347734
 30
0.0
 10
-1.934334381403668
 20
92.58988767862371
 30
0.0
 10
-0.1006952434412095
 20
90.35441891351589
 30
0.0
 10
1.509545447410277
 20
89.13783767768625
 30
0.0
 10
2.50556573871509
 20
89.09661957531962
 30
0.0
 10
2.890387199035449
 20
89.08069458816547
 30
0.0
  0
SPLINE
  5
27A
330
1F
100
AcDbEntity
  8
0
100
AcDbSpline
210
0.0
220
0.0
230
1.0
 70
     8
 71
     3
 72
    40
 73
    36
 74
     0
 42
0.00000001
 43
0.00000001
 40
0.0
 40
0.0
 40
0.0
 40
0.0
 40
0.0203660824492493
 40
0.0539214887170886
 40
0.0874703664571586
 40
0.1210094013030556
 40
0.1545720683071942
 40
0.1881090754178553
 40
0.2188450560917923
 40
0.2495671216867329
 40
0.2802932491399717
 40
0.3110253800762605
 40
0.3417434397758424
 40
0.3719343556852838
 40
0.4021004385401269
 40
0.432293632058185
 40
0.4624591958629622
 40
0.4931994846548303
 40
0.523916431448722
 40
0.554650450935244
 40
0.5853746157390571
 40
0.6160984420520595
 40
0.6462841580026418
 40
0.6764533165752465
 40
0.7066444503015987
 40
0.7368104284440451
 40
0.7675520087104185
 40
0.798266292148306
 40
0.8290055604899986
 40
0.859723840919934
 40
0.8904556059288169
 40
0.9206334422441831
 40
0.9508081855152978
 40
0.980994296952511
 40
1.0
 40
1.0
 40
1.0
 40
1.0
 10
64.09342896991998
 20
317.1057260230546
 30
0.0
 10
64.50583487993406
 20
317.1197887457805
 30
0.0
 10
65.59772580589382
 20
317.1570213822823
 30
0.0
 10
67.37200736351939
 20
315.8058155774475
 30
0.0
 10
69.41204629309719
 20
313.212484298543
 30
0.0
 10
71.44928585986318
 20
309.3501311390713
 30
0.0
 10
73.49289824646065
 20
304.3319641856008
 30
0.0
 10
75.4721859786713
 20
298.3639212488981
 30
0.0
 10
77.39997559157116
 20
291.6236932994078
 30
0.0
 10
79.26669117044202
 20
284.2633099768647
 30
0.0
 10
81.13456163964456
 20
276.1528565150849
 30
0.0
 10
83.00418081391048
 20
267.3673664911853
 30
0.0
 10
84.85845295880628
 20
258.0413353232996
 30
0.0
 10
86.70791365356015
 20
248.2770521895535
 30
0.0
 10
88.53870673405085
 20
238.1646925740331
 30
0.0
 10
90.37778222411289
 20
227.7437602574404
 30
0.0
 10
92.21951582685023
 20
217.0341592477391
 30
0.0
 10
94.08045356772985
 20
206.1366297604922
 30
0.0
 10
95.94545383951456
 20
195.142300438828
 30
0.0
 10
97.81561948872705
 20
184.2244178037977
 30
0.0
 10
99.68291496740564
 20
173.4799011158558
 30
0.0
 10
101.5390272932279
 20
163.0716024330414
 30
0.0
 10
103.3869228544131
 20
153.0901995231416
 30
0.0
 10
105.2187180986405
 20
143.6126329739687
 30
0.0
 10
107.0571725037815
 20
134.6688828220298
 30
0.0
 10
108.8990281685585
 20
126.2819479834967
 30
0.0
 10
110.7603691223654
 20
118.5472868000942
 30
0.0
 10
112.6244875612969
 20
111.5454947575914
 30
0.0
 10
114.496211302802
 20
105.3932703488528
 30
0.0
 10
116.3616437586065
 20
100.1423566265442
 30
0.0
 10
118.2200859521281
 20
95.8734435347733
 30
0.0
 10
120.0656656185963
 20
92.58988767862377
 30
0.0
 10
121.8993047565588
 20
90.35441891351587
 30
0.0
 10
123.5095454474102
 20
89.13783767768618
 30
0.0
 10
124.505565738715
 20
89.09661957531966
 30
0.0
 10
124.8903871990354
 20
89.08069458816547
 30
0.0
  0
SPLINE
  5
27B
330
1F
100
AcDbEntity
  8
0
100
AcDbSpline
210
0.0
220
0.0
230
1.0
 70
     8
 71
     3
 72
    40
 73
    36
 74
     0
 42
0.00000001
 43
0.00000001
 40
0.0
 40
0.0
 40
0.0
 40
0.0
 40
0.0203660824492493
 40
0.0539214887170887
 40
0.0874703664571588
 40
0.1210094013030559
 40
0.1545720683071945
 40
0.1881090754178557
 40
0.2188450560917927
 40
0.2495671216867333
 40
0.2802932491399722
 40
0.311025380076261
 40
0.341743439775843
 40
0.3719343556852844
 40
0.4021004385401276
 40
0.4322936320581858
 40
0.462459195862963
 40
0.4931994846548312
 40
0.5239164314487229
 40
0.554650450935245
 40
0.5853746157390581
 40
0.6160984420520607
 40
0.6462841580026429
 40
0.6764533165752477
 40
0.7066444503016
 40
0.7368104284440464
 40
0.7675520087104198
 40
0.7982662921483076
 40
0.8290055604900003
 40
0.8597238409199357
 40
0.8904556059288188
 40
0.920633442244185
 40
0.9508081855152998
 40
0.9809942969525131
 40
0.9999999999999999
 40
0.9999999999999999
 40
0.9999999999999999
 40
0.9999999999999999
 10
186.09342896992
 20
317.1057260230546
 30
0.0
 10
186.505834879934
 20
317.1197887457805
 30
0.0
 10
187.5977258058938
 20
317.1570213822823
 30
0.0
 10
189.3720073635193
 20
315.8058155774474
 30
0.0
 10
191.4120462930973
 20
313.2124842985431
 30
0.0
 10
193.4492858598632
 20
309.3501311390713
 30
0.0
 10
195.4928982464608
 20
304.3319641856008
 30
0.0
 10
197.4721859786713
 20
298.3639212488981
 30
0.0
 10
199.3999755915713
 20
291.6236932994078
 30
0.0
 10
201.2666911704419
 20
284.2633099768647
 30
0.0
 10
203.1345616396446
 20
276.1528565150849
 30
0.0
 10
205.0041808139105
 20
267.3673664911852
 30
0.0
 10
206.8584529588063
 20
258.0413353232996
 30
0.0
 10
208.7079136535602
 20
248.2770521895535
 30
0.0
 10
210.5387067340508
 20
238.1646925740331
 30
0.0
 10
212.3777822241129
 20
227.7437602574404
 30
0.0
 10
214.2195158268503
 20
217.0341592477391
 30
0.0
 10
216.0804535677296
 20
206.1366297604923
 30
0.0
 10
217.9454538395146
 20
195.142300438828
 30
0.0
 10
219.815619488727
 20
184.2244178037978
 30
0.0
 10
221.6829149674057
 20
173.4799011158558
 30
0.0
 10
223.5390272932281
 20
163.0716024330414
 30
0.0
 10
225.3869228544131
 20
153.0901995231416
 30
0.0
 10
227.2187180986406
 20
143.6126329739687
 30
0.0
 10
229.0571725037814
 20
134.6688828220298
 30
0.0
 10
230.8990281685585
 20
126.2819479834967
 30
0.0
 10
232.7603691223653
 20
118.5472868000941
 30
0.0
 10
234.624487561297
 20
111.5454947575914
 30
0.0
 10
236.4962113028021
 20
105.3932703488529
 30
0.0
 10
238.3616437586066
 20
100.1423566265441
 30
0.0
 10
240.2200859521281
 20
95.87344353477336
 30
0.0
 10
242.0656656185963
 20
92.58988767862373
 30
0.0
 10
243.8993047565588
 20
90.35441891351586
 30
0.0
 10
245.5095454474101
 20
89.13783767768628
 30
0.0
 10
246.5055657387149
 20
89.09661957531966
 30
0.0
 10
246.8903871990353
 20
89.08069458816549
 30
0.0
  0
LINE
  5
27C
330
1F
100
AcDbEntity
  8
0
100
AcDbLine
 10
307.8322047149
 20
317.1230250655
 30
0.0
 11
308.0934289699
 21
317.1057260231
 31
0.0
  0
SPLINE
  5
27D
330
1F
100
AcDbEntity
  8
0
100
AcDbSpline
210
0.0
220
0.0
230
1.0
 70
    24
 71
     3
 72
    10
 73
     6
 74
     0
 42
0.00000001
 43
0.00000001
 40
0.0
 40
0.0
 40
0.0
 40
0.0
 40
0.3405084036754842
 40
0.6693564875109083
 40
0.9999999999999999
 40
0.9999999999999999
 40
0.9999999999999999
 40
0.9999999999999999
 10
353.293150951647
 20
145.0622607242074
 30
0.0
 10
353.293150951647
 20
142.6008275258634
 30
0.0
 10
353.2931509516468
 20
137.7622500866514
 30
0.0
 10
353.2931509516465
 20
130.9577903387715
 30
0.0
 10
353.2931509516467
 20
126.7934300624181
 30
0.0
 10
353.2931509516469
 20
124.7055813063195
 30
0.0
  0
LINE
  5
27E
330
1F
100
AcDbEntity
  8
0
100
AcDbLine
 10
-545.9067819429
 20
315.5078434542
 30
0.0
 11
-545.7022415141
 21
315.4944880416
 31
0.0
  0
LINE
  5
27F
330
1F
100
AcDbEntity
  8
0
100
AcDbLine
 10
-423.9067819429
 20
315.5078434542
 30
0.0
 11
-423.7022415141
 21
315.4944880416
 31
0.0
  0
LINE
  5
280
330
1F
100
AcDbEntity
  8
0
100
AcDbLine
 10
-301.9067819429
 20
315.5078434542
 30
0.0
 11
-301.7022415141
 21
315.4944880416
 31
0.0
  0
LINE
  5
281
330
1F
100
AcDbEntity
  8
0
100
AcDbLine
 10
-179.9067819429
 20
315.5078434542
 30
0.0
 11
-179.7022415141
 21
315.4944880416
 31
0.0
  0
LINE
  5
282
330
1F
100
AcDbEntity
  8
0
100
AcDbLine
 10
-57.9067819429
 20
315.5078434542
 30
0.0
 11
-57.7022415141
 21
315.4944880416
 31
0.0
  0
LINE
  5
283
330
1F
100
AcDbEntity
  8
0
100
AcDbLine
 10
64.0932180571
 20
315.5078434542
 30
0.0
 11
64.2977584859
 21
315.4944880416
 31
0.0
  0
LINE
  5
284
330
1F
100
AcDbEntity
  8
0
100
AcDbLine
 10
186.0932180571
 20
315.5078434542
 30
0.0
 11
186.2977584859
 21
315.4944880416
 31
0.0
  0
LINE
  5
285
330
1F
100
AcDbEntity
  8
0
100
AcDbLine
 10
308.0932180571
 20
315.5078434542
 30
0.0
 11
308.2977584859
 21
315.4944880416
 31
0.0
  0
SPLINE
  5
286
330
1F
100
AcDbEntity
  8
0
100
AcDbSpline
210
0.0
220
0.0
230
1.0
 70
    24
 71
     3
 72
    21
 73
    17
 74
     0
 42
0.00000001
 43
0.00000001
 40
0.0
 40
0.0
 40
0.0
 40
0.0
 40
0.0595334648435295
 40
0.2277574518806339
 40
0.396755316037404
 40
0.4190791650894944
 40
0.4281064246557664
 40
0.4372229027285536
 40
0.4427536660221146
 40
0.4482940466065149
 40
0.4556483732499056
 40
0.4687874691426537
 40
0.5114338624116194
 40
0.7100406290557577
 40
0.9837345283975434
 40
1.0
 40
1.0
 40
1.0
 40
1.0
 10
-546.7068490483531
 20
317.1644481829013
 30
0.0
 10
-546.7068490483531
 20
317.167060940195
 30
0.0
 10
-546.7068490483533
 20
317.1770565778615
 30
0.0
 10
-546.706849048353
 20
317.067025642931
 30
0.0
 10
-546.7068490483533
 20
316.9296406815984
 30
0.0
 10
-546.7068490483529
 20
316.6524146046344
 30
0.0
 10
-546.7068490483531
 20
316.5737126828934
 30
0.0
 10
-546.7068490483531
 20
316.5151520575769
 30
0.0
 10
-546.7068490483531
 20
316.4567321323968
 30
0.0
 10
-546.7068490483529
 20
316.4032652984118
 30
0.0
 10
-546.7068490483531
 20
316.3371612804899
 30
0.0
 10
-546.7068490483531
 20
316.2157514611367
 30
0.0
 10
-546.7068490483482
 20
315.9325634086436
 30
0.0
 10
-546.7068490483557
 20
315.7159742622616
 30
0.0
 10
-546.7068490483535
 20
315.5976262297497
 30
0.0
 10
-546.7068490483531
 20
315.5620777393308
 30
0.0
 10
-546.7068490483531
 20
315.5600836221567
 30
0.0
  0
SPLINE
  5
287
330
1F
100
AcDbEntity
  8
0
100
AcDbSpline
210
0.0
220
0.0
230
1.0
 70
    24
 71
     3
 72
    14
 73
    10
 74
     0
 42
0.00000001
 43
0.00000001
 40
0.0
 40
0.0
 40
0.0
 40
0.0
 40
0.330299996291072
 40
0.6261743773036178
 40
0.8223392377064533
 40
0.8889178629676096
 40
0.9347555713039185
 40
0.9779590650432691
 40
1.0
 40
1.0
 40
1.0
 40
1.0
 10
353.2931509516469
 20
124.7055813063195
 30
0.0
 10
353.2931509516469
 20
124.335589224391
 30
0.0
 10
353.2931509516469
 20
123.6341675952346
 30
0.0
 10
353.2931509516468
 20
122.7993866459735
 30
0.0
 10
353.2931509516471
 20
122.2905991031816
 30
0.0
 10
353.2931509516465
 20
122.0520856662091
 30
0.0
 10
353.2931509516472
 20
121.9519706690142
 30
0.0
 10
353.2931509516465
 20
121.8924074907151
 30
0.0
 10
353.2931509516469
 20
121.8851918056603
 30
0.0
 10
353.293150951647
 20
121.8827541960722
 30
0.0
  0
SPLINE
  5
288
330
1F
100
AcDbEntity
  8
0
100
AcDbSpline
210
0.0
220
0.0
230
1.0
 70
     8
 71
     3
 72
     9
 73
     5
 74
     0
 42
0.00000001
 43
0.00000001
 40
0.0
 40
0.0
 40
0.0
 40
0.0
 40
0.7292791125575124
 40
1.0
 40
1.0
 40
1.0
 40
1.0
 10
-478.8782887391593
 20
90.62834581085124
 30
0.0
 10
-478.7216448183511
 20
90.57613065112275
 30
0.0
 10
-478.5068519933395
 20
90.50453233049433
 30
0.0
 10
-478.2916135905434
 20
90.61106214095608
 30
0.0
 10
-478.2333440591267
 20
90.63990198578337
 30
0.0
  0
SPLINE
  5
289
330
1F
100
AcDbEntity
  8
0
100
AcDbSpline
210
0.0
220
0.0
230
1.0
 70
     8
 71
     3
 72
     9
 73
     5
 74
     0
 42
0.00000001
 43
0.00000001
 40
0.0
 40
0.0
 40
0.0
 40
0.0
 40
0.7292791125575142
 40
0.9999999999999999
 40
0.9999999999999999
 40
0.9999999999999999
 40
0.9999999999999999
 10
-356.8782887391593
 20
90.62834581085124
 30
0.0
 10
-356.7216448183511
 20
90.57613065112272
 30
0.0
 10
-356.5068519933393
 20
90.50453233049436
 30
0.0
 10
-356.2916135905434
 20
90.61106214095608
 30
0.0
 10
-356.2333440591268
 20
90.63990198578337
 30
0.0
  0
SPLINE
  5
28A
330
1F
100
AcDbEntity
  8
0
100
AcDbSpline
210
0.0
220
0.0
230
1.0
 70
     8
 71
     3
 72
     9
 73
     5
 74
     0
 42
0.00000001
 43
0.00000001
 40
0.0
 40
0.0
 40
0.0
 40
0.0
 40
0.7292791125575124
 40
1.0
 40
1.0
 40
1.0
 40
1.0
 10
-234.8782887391593
 20
90.62834581085124
 30
0.0
 10
-234.7216448183511
 20
90.57613065112275
 30
0.0
 10
-234.5068519933394
 20
90.50453233049433
 30
0.0
 10
-234.2916135905433
 20
90.61106214095608
 30
0.0
 10
-234.2333440591267
 20
90.63990198578337
 30
0.0
  0
SPLINE
  5
28B
330
1F
100
AcDbEntity
  8
0
100
AcDbSpline
210
0.0
220
0.0
230
1.0
 70
     8
 71
     3
 72
     9
 73
     5
 74
     0
 42
0.00000001
 43
0.00000001
 40
0.0
 40
0.0
 40
0.0
 40
0.0
 40
0.7292791125574326
 40
0.9999999999999999
 40
0.9999999999999999
 40
0.9999999999999999
 40
0.9999999999999999
 10
-112.8782887391592
 20
90.62834581085124
 30
0.0
 10
-112.721644818351
 20
90.57613065112274
 30
0.0
 10
-112.5068519933394
 20
90.50453233049433
 30
0.0
 10
-112.2916135905434
 20
90.61106214095611
 30
0.0
 10
-112.2333440591267
 20
90.6399019857834
 30
0.0
  0
SPLINE
  5
28C
330
1F
100
AcDbEntity
  8
0
100
AcDbSpline
210
0.0
220
0.0
230
1.0
 70
     8
 71
     3
 72
     9
 73
     5
 74
     0
 42
0.00000001
 43
0.00000001
 40
0.0
 40
0.0
 40
0.0
 40
0.0
 40
0.7292791125574148
 40
0.9999999999999999
 40
0.9999999999999999
 40
0.9999999999999999
 40
0.9999999999999999
 10
9.12171126084084
 20
90.62834581085123
 30
0.0
 10
9.27835518164906
 20
90.57613065112274
 30
0.0
 10
9.493148006660734
 20
90.5045323304943
 30
0.0
 10
9.708386409456594
 20
90.6110621409561
 30
0.0
 10
9.766655940873225
 20
90.63990198578341
 30
0.0
  0
SPLINE
  5
28D
330
1F
100
AcDbEntity
  8
0
100
AcDbSpline
210
0.0
220
0.0
230
1.0
 70
     8
 71
     3
 72
     9
 73
     5
 74
     0
 42
0.00000001
 43
0.00000001
 40
0.0
 40
0.0
 40
0.0
 40
0.0
 40
0.7292791125574148
 40
0.9999999999999999
 40
0.9999999999999999
 40
0.9999999999999999
 40
0.9999999999999999
 10
131.1217112608408
 20
90.62834581085123
 30
0.0
 10
131.2783551816491
 20
90.57613065112274
 30
0.0
 10
131.4931480066607
 20
90.5045323304943
 30
0.0
 10
131.7083864094566
 20
90.6110621409561
 30
0.0
 10
131.7666559408732
 20
90.63990198578341
 30
0.0
  0
SPLINE
  5
28E
330
1F
100
AcDbEntity
  8
0
100
AcDbSpline
210
0.0
220
0.0
230
1.0
 70
     8
 71
     3
 72
     9
 73
     5
 74
     0
 42
0.00000001
 43
0.00000001
 40
0.0
 40
0.0
 40
0.0
 40
0.0
 40
0.7292791125574288
 40
1.0
 40
1.0
 40
1.0
 40
1.0
 10
253.1217112608407
 20
90.62834581085124
 30
0.0
 10
253.2783551816489
 20
90.57613065112277
 30
0.0
 10
253.4931480066607
 20
90.50453233049436
 30
0.0
 10
253.7083864094566
 20
90.61106214095607
 30
0.0
 10
253.7666559408733
 20
90.63990198578338
 30
0.0
  0
SPLINE
  5
28F
330
1F
100
AcDbEntity
  8
0
100
AcDbSpline
210
0.0
220
0.0
230
1.0
 70
    24
 71
     3
 72
    10
 73
     6
 74
     0
 42
0.00000001
 43
0.00000001
 40
0.0
 40
0.0
 40
0.0
 40
0.0
 40
0.4785856092721055
 40
0.7392357151803184
 40
1.0
 40
1.0
 40
1.0
 40
1.0
 10
353.2931509516468
 20
154.4598147739624
 30
0.0
 10
353.2931509516468
 20
153.0971442117106
 30
0.0
 10
353.2931509516469
 20
150.9923280030214
 30
0.0
 10
353.2931509516469
 20
148.1791865540847
 30
0.0
 10
353.2931509516469
 20
146.7252157075299
 30
0.0
 10
353.2931509516469
 20
145.9980710895586
 30
0.0
  0
SPLINE
  5
290
330
1F
100
AcDbEntity
  8
0
100
AcDbSpline
210
0.0
220
0.0
230
1.0
 70
     8
 71
     3
 72
     9
 73
     5
 74
     0
 42
0.00000001
 43
0.00000001
 40
0.0
 40
0.0
 40
0.0
 40
0.0
 40
0.652626516740634
 40
1.0
 40
1.0
 40
1.0
 40
1.0
 10
-516.887786551256
 20
211.7559973810224
 30
0.0
 10
-516.5651506921715
 20
209.8775059018182
 30
0.0
 10
-516.0707854605909
 20
206.9991498574056
 30
0.0
 10
-515.5774566927566
 20
204.1095717907749
 30
0.0
 10
-515.406087360282
 20
203.1058089926195
 30
0.0
  0
SPLINE
  5
291
330
1F
100
AcDbEntity
  8
0
100
AcDbSpline
210
0.0
220
0.0
230
1.0
 70
     8
 71
     3
 72
     9
 73
     5
 74
     0
 42
0.00000001
 43
0.00000001
 40
0.0
 40
0.0
 40
0.0
 40
0.0
 40
0.6526265167406909
 40
1.0
 40
1.0
 40
1.0
 40
1.0
 10
-394.8877865512562
 20
211.7559973810239
 30
0.0
 10
-394.5651506921719
 20
209.8775059018191
 30
0.0
 10
-394.0707854605909
 20
206.9991498574061
 30
0.0
 10
-393.5774566927565
 20
204.1095717907749
 30
0.0
 10
-393.406087360282
 20
203.1058089926195
 30
0.0
  0
SPLINE
  5
292
330
1F
100
AcDbEntity
  8
0
100
AcDbSpline
210
0.0
220
0.0
230
1.0
 70
     8
 71
     3
 72
     9
 73
     5
 74
     0
 42
0.00000001
 43
0.00000001
 40
0.0
 40
0.0
 40
0.0
 40
0.0
 40
0.652626516740455
 40
1.0
 40
1.0
 40
1.0
 40
1.0
 10
-272.8877865512552
 20
211.755997381018
 30
0.0
 10
-272.5651506921712
 20
209.8775059018152
 30
0.0
 10
-272.0707854605905
 20
206.9991498574041
 30
0.0
 10
-271.5774566927566
 20
204.1095717907749
 30
0.0
 10
-271.406087360282
 20
203.1058089926195
 30
0.0
  0
SPLINE
  5
293
330
1F
100
AcDbEntity
  8
0
100
AcDbSpline
210
0.0
220
0.0
230
1.0
 70
     8
 71
     3
 72
     9
 73
     5
 74
     0
 42
0.00000001
 43
0.00000001
 40
0.0
 40
0.0
 40
0.0
 40
0.0
 40
0.652626516740341
 40
1.0
 40
1.0
 40
1.0
 40
1.0
 10
-150.8877865512548
 20
211.7559973810151
 30
0.0
 10
-150.5651506921708
 20
209.8775059018133
 30
0.0
 10
-150.0707854605903
 20
206.9991498574032
 30
0.0
 10
-149.5774566927566
 20
204.1095717907749
 30
0.0
 10
-149.4060873602819
 20
203.1058089926195
 30
0.0
  0
SPLINE
  5
294
330
1F
100
AcDbEntity
  8
0
100
AcDbSpline
210
0.0
220
0.0
230
1.0
 70
     8
 71
     3
 72
     9
 73
     5
 74
     0
 42
0.00000001
 43
0.00000001
 40
0.0
 40
0.0
 40
0.0
 40
0.0
 40
0.652626516740655
 40
1.0
 40
1.0
 40
1.0
 40
1.0
 10
-28.88778655125601
 20
211.7559973810228
 30
0.0
 10
-28.56515069217169
 20
209.8775059018184
 30
0.0
 10
-28.0707854605908
 20
206.9991498574058
 30
0.0
 10
-27.57745669275646
 20
204.1095717907749
 30
0.0
 10
-27.40608736028183
 20
203.1058089926196
 30
0.0
  0
SPLINE
  5
295
330
1F
100
AcDbEntity
  8
0
100
AcDbSpline
210
0.0
220
0.0
230
1.0
 70
     8
 71
     3
 72
     9
 73
     5
 74
     0
 42
0.00000001
 43
0.00000001
 40
0.0
 40
0.0
 40
0.0
 40
0.0
 40
0.6526265167406556
 40
1.0
 40
1.0
 40
1.0
 40
1.0
 10
93.11221344874387
 20
211.7559973810228
 30
0.0
 10
93.4348493078283
 20
209.8775059018184
 30
0.0
 10
93.92921453940922
 20
206.9991498574058
 30
0.0
 10
94.42254330724353
 20
204.1095717907749
 30
0.0
 10
94.59391263971817
 20
203.1058089926196
 30
0.0
  0
SPLINE
  5
296
330
1F
100
AcDbEntity
  8
0
100
AcDbSpline
210
0.0
220
0.0
230
1.0
 70
     8
 71
     3
 72
     9
 73
     5
 74
     0
 42
0.00000001
 43
0.00000001
 40
0.0
 40
0.0
 40
0.0
 40
0.0
 40
0.6526265167404829
 40
1.0
 40
1.0
 40
1.0
 40
1.0
 10
215.1122134487447
 20
211.7559973810189
 30
0.0
 10
215.4348493078288
 20
209.8775059018158
 30
0.0
 10
215.9292145394094
 20
206.9991498574044
 30
0.0
 10
216.4225433072435
 20
204.1095717907748
 30
0.0
 10
216.5939126397182
 20
203.1058089926194
 30
0.0
  0
SPLINE
  5
297
330
1F
100
AcDbEntity
  8
0
100
AcDbSpline
210
0.0
220
0.0
230
1.0
 70
     8
 71
     3
 72
     9
 73
     5
 74
     0
 42
0.00000001
 43
0.00000001
 40
0.0
 40
0.0
 40
0.0
 40
0.0
 40
0.4143704471373904
 40
1.0
 40
1.0
 40
1.0
 40
1.0
 10
-545.9079428019292
 20
316.0072622564637
 30
0.0
 10
-545.4950782124539
 20
316.032384512621
 30
0.0
 10
-544.4987122980231
 20
316.0930120412755
 30
0.0
 10
-543.5008153519287
 20
315.241500245154
 30
0.0
 10
-542.9164174095844
 20
314.7428297727342
 30
0.0
  0
LINE
  5
298
330
1F
100
AcDbEntity
  8
0
100
AcDbLine
 10
-542.5215260572
 20
314.4120166414
 30
0.0
 11
-540.7498421543
 21
312.1482219207
 31
0.0
  0
SPLINE
  5
299
330
1F
100
AcDbEntity
  8
0
100
AcDbSpline
210
0.0
220
0.0
230
1.0
 70
     8
 71
     3
 72
     9
 73
     5
 74
     0
 42
0.00000001
 43
0.00000001
 40
0.0
 40
0.0
 40
0.0
 40
0.0
 40
0.8142366480616727
 40
1.0
 40
1.0
 40
1.0
 40
1.0
 10
-525.1779314016667
 20
257.6146582688614
 30
0.0
 10
-525.161879550434
 20
257.5366112806659
 30
0.0
 10
-525.1421655627735
 20
257.4407583263911
 30
0.0
 10
-525.1224140476077
 20
257.3370215120879
 30
0.0
 10
-525.1187449399446
 20
257.3177510137435
 30
0.0
  0
SPLINE
  5
29A
330
1F
100
AcDbEntity
  8
0
100
AcDbSpline
210
0.0
220
0.0
230
1.0
 70
     8
 71
     3
 72
     9
 73
     5
 74
     0
 42
0.00000001
 43
0.00000001
 40
0.0
 40
0.0
 40
0.0
 40
0.0
 40
0.4143704471373965
 40
1.0
 40
1.0
 40
1.0
 40
1.0
 10
-423.9079428019291
 20
316.0072622564637
 30
0.0
 10
-423.495078212454
 20
316.032384512621
 30
0.0
 10
-422.4987122980232
 20
316.0930120412755
 30
0.0
 10
-421.5008153519286
 20
315.241500245154
 30
0.0
 10
-420.9164174095844
 20
314.7428297727342
 30
0.0
  0
LINE
  5
29B
330
1F
100
AcDbEntity
  8
0
100
AcDbLine
 10
-420.5215260572
 20
314.4120166414
 30
0.0
 11
-418.7498421543
 21
312.1482219207
 31
0.0
  0
SPLINE
  5
29C
330
1F
100
AcDbEntity
  8
0
100
AcDbSpline
210
0.0
220
0.0
230
1.0
 70
     8
 71
     3
 72
     9
 73
     5
 74
     0
 42
0.00000001
 43
0.00000001
 40
0.0
 40
0.0
 40
0.0
 40
0.0
 40
0.8142366480629413
 40
1.0
 40
1.0
 40
1.0
 40
1.0
 10
-403.1779314016667
 20
257.6146582688614
 30
0.0
 10
-403.161879550434
 20
257.5366112806659
 30
0.0
 10
-403.1421655627735
 20
257.4407583263912
 30
0.0
 10
-403.1224140476077
 20
257.3370215120882
 30
0.0
 10
-403.1187449399446
 20
257.317751013744
 30
0.0
  0
SPLINE
  5
29D
330
1F
100
AcDbEntity
  8
0
100
AcDbSpline
210
0.0
220
0.0
230
1.0
 70
     8
 71
     3
 72
     9
 73
     5
 74
     0
 42
0.00000001
 43
0.00000001
 40
0.0
 40
0.0
 40
0.0
 40
0.0
 40
0.4143704471373921
 40
1.0
 40
1.0
 40
1.0
 40
1.0
 10
-301.9079428019291
 20
316.0072622564638
 30
0.0
 10
-301.495078212454
 20
316.0323845126211
 30
0.0
 10
-300.4987122980232
 20
316.0930120412755
 30
0.0
 10
-299.5008153519287
 20
315.241500245154
 30
0.0
 10
-298.9164174095844
 20
314.7428297727342
 30
0.0
  0
LINE
  5
29E
330
1F
100
AcDbEntity
  8
0
100
AcDbLine
 10
-298.5215260572
 20
314.4120166414
 30
0.0
 11
-296.7498421543
 21
312.1482219207
 31
0.0
  0
SPLINE
  5
29F
330
1F
100
AcDbEntity
  8
0
100
AcDbSpline
210
0.0
220
0.0
230
1.0
 70
     8
 71
     3
 72
     9
 73
     5
 74
     0
 42
0.00000001
 43
0.00000001
 40
0.0
 40
0.0
 40
0.0
 40
0.0
 40
0.8142366480641794
 40
1.0
 40
1.0
 40
1.0
 40
1.0
 10
-281.1779314016668
 20
257.6146582688614
 30
0.0
 10
-281.1618795504342
 20
257.5366112806659
 30
0.0
 10
-281.1421655627737
 20
257.4407583263914
 30
0.0
 10
-281.1224140476077
 20
257.3370215120885
 30
0.0
 10
-281.1187449399447
 20
257.3177510137444
 30
0.0
  0
SPLINE
  5
2A0
330
1F
100
AcDbEntity
  8
0
100
AcDbSpline
210
0.0
220
0.0
230
1.0
 70
     8
 71
     3
 72
     9
 73
     5
 74
     0
 42
0.00000001
 43
0.00000001
 40
0.0
 40
0.0
 40
0.0
 40
0.0
 40
0.414370447137389
 40
1.0
 40
1.0
 40
1.0
 40
1.0
 10
-179.9079428019291
 20
316.0072622564638
 30
0.0
 10
-179.495078212454
 20
316.0323845126211
 30
0.0
 10
-178.4987122980232
 20
316.0930120412755
 30
0.0
 10
-177.5008153519286
 20
315.241500245154
 30
0.0
 10
-176.9164174095843
 20
314.7428297727342
 30
0.0
  0
LINE
  5
2A1
330
1F
100
AcDbEntity
  8
0
100
AcDbLine
 10
-176.5215260572
 20
314.4120166414
 30
0.0
 11
-174.7498421543
 21
312.1482219207
 31
0.0
  0
SPLINE
  5
2A2
330
1F
100
AcDbEntity
  8
0
100
AcDbSpline
210
0.0
220
0.0
230
1.0
 70
     8
 71
     3
 72
     9
 73
     5
 74
     0
 42
0.00000001
 43
0.00000001
 40
0.0
 40
0.0
 40
0.0
 40
0.0
 40
0.8142366480591425
 40
0.9999999999999999
 40
0.9999999999999999
 40
0.9999999999999999
 40
0.9999999999999999
 10
-159.1779314016667
 20
257.6146582688614
 30
0.0
 10
-159.1618795504341
 20
257.5366112806659
 30
0.0
 10
-159.1421655627735
 20
257.4407583263907
 30
0.0
 10
-159.1224140476075
 20
257.3370215120872
 30
0.0
 10
-159.1187449399444
 20
257.3177510137426
 30
0.0
  0
SPLINE
  5
2A3
330
1F
100
AcDbEntity
  8
0
100
AcDbSpline
210
0.0
220
0.0
230
1.0
 70
     8
 71
     3
 72
     9
 73
     5
 74
     0
 42
0.00000001
 43
0.00000001
 40
0.0
 40
0.0
 40
0.0
 40
0.0
 40
0.4143704471373761
 40
1.0
 40
1.0
 40
1.0
 40
1.0
 10
-57.90794280192907
 20
316.0072622564637
 30
0.0
 10
-57.49507821245392
 20
316.032384512621
 30
0.0
 10
-56.4987122980231
 20
316.0930120412755
 30
0.0
 10
-55.50081535192864
 20
315.241500245154
 30
0.0
 10
-54.91641740958436
 20
314.7428297727341
 30
0.0
  0
LINE
  5
2A4
330
1F
100
AcDbEntity
  8
0
100
AcDbLine
 10
-54.5215260572
 20
314.4120166414
 30
0.0
 11
-52.7498421543
 21
312.1482219207
 31
0.0
  0
SPLINE
  5
2A5
330
1F
100
AcDbEntity
  8
0
100
AcDbSpline
210
0.0
220
0.0
230
1.0
 70
     8
 71
     3
 72
     9
 73
     5
 74
     0
 42
0.00000001
 43
0.00000001
 40
0.0
 40
0.0
 40
0.0
 40
0.0
 40
0.8142366480685788
 40
1.0
 40
1.0
 40
1.0
 40
1.0
 10
-37.17793140166681
 20
257.6146582688618
 30
0.0
 10
-37.16187955043414
 20
257.5366112806661
 30
0.0
 10
-37.14216556277376
 20
257.440758326392
 30
0.0
 10
-37.12241404760798
 20
257.3370215120896
 30
0.0
 10
-37.11874493994504
 20
257.317751013746
 30
0.0
  0
SPLINE
  5
2A6
330
1F
100
AcDbEntity
  8
0
100
AcDbSpline
210
0.0
220
0.0
230
1.0
 70
     8
 71
     3
 72
     9
 73
     5
 74
     0
 42
0.00000001
 43
0.00000001
 40
0.0
 40
0.0
 40
0.0
 40
0.0
 40
0.4143704471373598
 40
0.9999999999999999
 40
0.9999999999999999
 40
0.9999999999999999
 40
0.9999999999999999
 10
64.0920571980709
 20
316.0072622564638
 30
0.0
 10
64.50492178754611
 20
316.0323845126211
 30
0.0
 10
65.50128770197705
 20
316.0930120412755
 30
0.0
 10
66.4991846480715
 20
315.241500245154
 30
0.0
 10
67.0835825904158
 20
314.7428297727341
 30
0.0
  0
LINE
  5
2A7
330
1F
100
AcDbEntity
  8
0
100
AcDbLine
 10
67.4784739428
 20
314.4120166414
 30
0.0
 11
69.2501578457
 21
312.1482219207
 31
0.0
  0
SPLINE
  5
2A8
330
1F
100
AcDbEntity
  8
0
100
AcDbSpline
210
0.0
220
0.0
230
1.0
 70
     8
 71
     3
 72
     9
 73
     5
 74
     0
 42
0.00000001
 43
0.00000001
 40
0.0
 40
0.0
 40
0.0
 40
0.0
 40
0.8142366480719285
 40
1.0
 40
1.0
 40
1.0
 40
1.0
 10
84.82206859833319
 20
257.6146582688618
 30
0.0
 10
84.83812044956582
 20
257.5366112806661
 30
0.0
 10
84.85783443722606
 20
257.4407583263924
 30
0.0
 10
84.8775859523919
 20
257.3370215120904
 30
0.0
 10
84.88125506005473
 20
257.3177510137473
 30
0.0
  0
SPLINE
  5
2A9
330
1F
100
AcDbEntity
  8
0
100
AcDbSpline
210
0.0
220
0.0
230
1.0
 70
     8
 71
     3
 72
     9
 73
     5
 74
     0
 42
0.00000001
 43
0.00000001
 40
0.0
 40
0.0
 40
0.0
 40
0.0
 40
0.4143704471373502
 40
0.9999999999999999
 40
0.9999999999999999
 40
0.9999999999999999
 40
0.9999999999999999
 10
186.092057198071
 20
316.0072622564638
 30
0.0
 10
186.5049217875461
 20
316.0323845126211
 30
0.0
 10
187.501287701977
 20
316.0930120412755
 30
0.0
 10
188.4991846480715
 20
315.241500245154
 30
0.0
 10
189.0835825904158
 20
314.7428297727341
 30
0.0
  0
LINE
  5
2AA
330
1F
100
AcDbEntity
  8
0
100
AcDbLine
 10
189.4784739428
 20
314.4120166414
 30
0.0
 11
191.2501578457
 21
312.1482219207
 31
0.0
  0
SPLINE
  5
2AB
330
1F
100
AcDbEntity
  8
0
100
AcDbSpline
210
0.0
220
0.0
230
1.0
 70
     8
 71
     3
 72
     9
 73
     5
 74
     0
 42
0.00000001
 43
0.00000001
 40
0.0
 40
0.0
 40
0.0
 40
0.0
 40
0.8142366480584895
 40
1.0
 40
1.0
 40
1.0
 40
1.0
 10
206.8220685983332
 20
257.6146582688618
 30
0.0
 10
206.8381204495658
 20
257.5366112806661
 30
0.0
 10
206.8578344372263
 20
257.4407583263907
 30
0.0
 10
206.8775859523926
 20
257.3370215120871
 30
0.0
 10
206.8812550600557
 20
257.3177510137422
 30
0.0
  0
SPLINE
  5
2AC
330
1F
100
AcDbEntity
  8
0
100
AcDbSpline
210
0.0
220
0.0
230
1.0
 70
     8
 71
     3
 72
    24
 73
    20
 74
     0
 42
0.00000001
 43
0.00000001
 40
0.0
 40
0.0
 40
0.0
 40
0.0
 40
0.0612535887199459
 40
0.1224887178284219
 40
0.1837598021068137
 40
0.2449848989210458
 40
0.3062631233789983
 40
0.3663932849624323
 40
0.4265764067466009
 40
0.4867112151264903
 40
0.5468855314135105
 40
0.6081242871018858
 40
0.669372723114309
 40
0.730631410031842
 40
0.7918633891713319
 40
0.8531371103589993
 40
0.9132680485523579
 40
0.9734533879515884
 40
1.0
 40
1.0
 40
1.0
 40
1.0
 10
-545.9067810455138
 20
316.2058089926195
 30
0.0
 10
-545.2837990324479
 20
316.1049871180859
 30
0.0
 10
-544.0380227505144
 20
315.9033737530773
 30
0.0
 10
-542.1720466993673
 20
314.2771993879747
 30
0.0
 10
-540.3007357237126
 20
311.6983627940906
 30
0.0
 10
-538.4364186732075
 20
308.093886459798
 30
0.0
 10
-536.5751106296693
 20
303.5524449008647
 30
0.0
 10
-534.733380783733
 20
298.1251999259194
 30
0.0
 10
-532.8946326652331
 20
291.8855635898728
 30
0.0
 10
-531.0632430398225
 20
284.8512677074871
 30
0.0
 10
-529.214759428065
 20
277.0429262977506
 30
0.0
 10
-527.3592987332235
 20
268.51173218472
 30
0.0
 10
-525.4912902901456
 20
259.3252119023248
 30
0.0
 10
-523.6217955603588
 20
249.6192619958818
 30
0.0
 10
-521.7563466093491
 20
239.4811107878541
 30
0.0
 10
-519.8957229062544
 20
229.0716775583078
 30
0.0
 10
-518.0538850522405
 20
218.4863498211863
 30
0.0
 10
-516.5569828900756
 20
209.8142979483392
 30
0.0
 10
-515.67627164821
 20
204.6785732103791
 30
0.0
 10
-515.4067066346914
 20
203.1066485628821
 30
0.0
  0
SPLINE
  5
2AD
330
1F
100
AcDbEntity
  8
0
100
AcDbSpline
210
0.0
220
0.0
230
1.0
 70
     8
 71
     3
 72
    24
 73
    20
 74
     0
 42
0.00000001
 43
0.00000001
 40
0.0
 40
0.0
 40
0.0
 40
0.0
 40
0.0309836822058943
 40
0.0941933399103967
 40
0.1574401121603596
 40
0.2206394140789857
 40
0.2838935567438158
 40
0.3459626172119054
 40
0.4080863455840092
 40
0.470160202684647
 40
0.5322748416260796
 40
0.5954882428496601
 40
0.658711636539631
 40
0.721945611675458
 40
0.7851520178401288
 40
0.8484015120265868
 40
0.9104713741464117
 40
0.9725973916406423
 40
1.0
 40
1.0
 40
1.0
 40
1.0
 10
-422.9539178873176
 20
315.9390319452436
 30
0.0
 10
-422.6486670556031
 20
315.877889343239
 30
0.0
 10
-421.7206755031939
 20
315.6920100195566
 30
0.0
 10
-420.1720964348511
 20
314.2549590834307
 30
0.0
 10
-418.300722404745
 20
311.7043186604252
 30
0.0
 10
-416.43642224657
 20
308.0922885530049
 30
0.0
 10
-414.5751096918214
 20
303.5528642799872
 30
0.0
 10
-412.7333810332671
 20
298.1250883413163
 30
0.0
 10
-410.8946325984098
 20
291.8855934713636
 30
0.0
 10
-409.0632430577245
 20
284.85125970231
 30
0.0
 10
-407.2147594231721
 20
277.0429284856059
 30
0.0
 10
-405.3592987345445
 20
268.5117315940461
 30
0.0
 10
-403.4912902897916
 20
259.3252120606381
 30
0.0
 10
-401.6217955604537
 20
249.6192619534782
 30
0.0
 10
-399.7563466093238
 20
239.481110799231
 30
0.0
 10
-397.8957229062612
 20
229.0716775553171
 30
0.0
 10
-396.0538850522386
 20
218.4863498219993
 30
0.0
 10
-394.5569828900757
 20
209.8142979482612
 30
0.0
 10
-393.67627164821
 20
204.6785732103609
 30
0.0
 10
-393.4067066346914
 20
203.1066485628823
 30
0.0
  0
SPLINE
  5
2AE
330
1F
100
AcDbEntity
  8
0
100
AcDbSpline
210
0.0
220
0.0
230
1.0
 70
     8
 71
     3
 72
    24
 73
    20
 74
     0
 42
0.00000001
 43
0.00000001
 40
0.0
 40
0.0
 40
0.0
 40
0.0
 40
0.0309836822058946
 40
0.0941933399103968
 40
0.1574401121603597
 40
0.2206394140789858
 40
0.2838935567438158
 40
0.3459626172119055
 40
0.4080863455840092
 40
0.470160202684647
 40
0.5322748416260796
 40
0.5954882428496601
 40
0.6587116365396309
 40
0.7219456116754578
 40
0.7851520178401284
 40
0.8484015120265864
 40
0.9104713741464113
 40
0.9725973916406419
 40
1.0
 40
1.0
 40
1.0
 40
1.0
 10
-300.9539178873176
 20
315.9390319452436
 30
0.0
 10
-300.6486670556032
 20
315.877889343239
 30
0.0
 10
-299.7206755031939
 20
315.6920100195566
 30
0.0
 10
-298.172096434851
 20
314.2549590834307
 30
0.0
 10
-296.3007224047452
 20
311.7043186604252
 30
0.0
 10
-294.4364222465699
 20
308.092288553005
 30
0.0
 10
-292.5751096918215
 20
303.5528642799871
 30
0.0
 10
-290.7333810332671
 20
298.1250883413163
 30
0.0
 10
-288.8946325984097
 20
291.8855934713636
 30
0.0
 10
-287.0632430577247
 20
284.85125970231
 30
0.0
 10
-285.2147594231721
 20
277.0429284856058
 30
0.0
 10
-283.3592987345444
 20
268.5117315940461
 30
0.0
 10
-281.4912902897916
 20
259.3252120606381
 30
0.0
 10
-279.6217955604536
 20
249.6192619534782
 30
0.0
 10
-277.7563466093239
 20
239.481110799231
 30
0.0
 10
-275.8957229062611
 20
229.0716775553171
 30
0.0
 10
-274.0538850522386
 20
218.4863498219993
 30
0.0
 10
-272.5569828900757
 20
209.8142979482611
 30
0.0
 10
-271.67627164821
 20
204.6785732103608
 30
0.0
 10
-271.4067066346914
 20
203.1066485628822
 30
0.0
  0
SPLINE
  5
2AF
330
1F
100
AcDbEntity
  8
0
100
AcDbSpline
210
0.0
220
0.0
230
1.0
 70
     8
 71
     3
 72
    24
 73
    20
 74
     0
 42
0.00000001
 43
0.00000001
 40
0.0
 40
0.0
 40
0.0
 40
0.0
 40
0.0309836822058946
 40
0.0941933399103968
 40
0.1574401121603596
 40
0.2206394140789856
 40
0.2838935567438157
 40
0.3459626172119052
 40
0.408086345584009
 40
0.4701602026846467
 40
0.5322748416260793
 40
0.5954882428496596
 40
0.6587116365396305
 40
0.7219456116754573
 40
0.785152017840128
 40
0.848401512026586
 40
0.9104713741464108
 40
0.9725973916406413
 40
1.0
 40
1.0
 40
1.0
 40
1.0
 10
-178.9539178873176
 20
315.9390319452436
 30
0.0
 10
-178.6486670556032
 20
315.877889343239
 30
0.0
 10
-177.7206755031939
 20
315.6920100195566
 30
0.0
 10
-176.1720964348511
 20
314.2549590834307
 30
0.0
 10
-174.3007224047451
 20
311.7043186604251
 30
0.0
 10
-172.4364222465699
 20
308.092288553005
 30
0.0
 10
-170.5751096918216
 20
303.5528642799871
 30
0.0
 10
-168.733381033267
 20
298.1250883413163
 30
0.0
 10
-166.8946325984097
 20
291.8855934713636
 30
0.0
 10
-165.0632430577246
 20
284.85125970231
 30
0.0
 10
-163.2147594231722
 20
277.0429284856059
 30
0.0
 10
-161.3592987345444
 20
268.5117315940461
 30
0.0
 10
-159.4912902897916
 20
259.3252120606381
 30
0.0
 10
-157.6217955604536
 20
249.6192619534782
 30
0.0
 10
-155.7563466093238
 20
239.481110799231
 30
0.0
 10
-153.8957229062612
 20
229.0716775553171
 30
0.0
 10
-152.0538850522386
 20
218.4863498219993
 30
0.0
 10
-150.5569828900757
 20
209.8142979482611
 30
0.0
 10
-149.67627164821
 20
204.6785732103608
 30
0.0
 10
-149.4067066346913
 20
203.1066485628821
 30
0.0
  0
SPLINE
  5
2B0
330
1F
100
AcDbEntity
  8
0
100
AcDbSpline
210
0.0
220
0.0
230
1.0
 70
     8
 71
     3
 72
    24
 73
    20
 74
     0
 42
0.00000001
 43
0.00000001
 40
0.0
 40
0.0
 40
0.0
 40
0.0
 40
0.0309836822058946
 40
0.0941933399103968
 40
0.1574401121603597
 40
0.2206394140789857
 40
0.2838935567438158
 40
0.3459626172119054
 40
0.4080863455840091
 40
0.4701602026846468
 40
0.5322748416260794
 40
0.5954882428496597
 40
0.6587116365396305
 40
0.7219456116754573
 40
0.785152017840128
 40
0.848401512026586
 40
0.9104713741464109
 40
0.9725973916406413
 40
1.0
 40
1.0
 40
1.0
 40
1.0
 10
-56.95391788731763
 20
315.9390319452436
 30
0.0
 10
-56.64866705560325
 20
315.877889343239
 30
0.0
 10
-55.72067550319395
 20
315.6920100195566
 30
0.0
 10
-54.17209643485107
 20
314.2549590834307
 30
0.0
 10
-52.30072240474509
 20
311.7043186604252
 30
0.0
 10
-50.43642224656984
 20
308.0922885530049
 30
0.0
 10
-48.57510969182162
 20
303.5528642799872
 30
0.0
 10
-46.73338103326692
 20
298.1250883413163
 30
0.0
 10
-44.89463259840982
 20
291.8855934713636
 30
0.0
 10
-43.06324305772457
 20
284.85125970231
 30
0.0
 10
-41.2147594231722
 20
277.042928485606
 30
0.0
 10
-39.3592987345445
 20
268.5117315940461
 30
0.0
 10
-37.49129028979158
 20
259.3252120606381
 30
0.0
 10
-35.62179556045364
 20
249.6192619534782
 30
0.0
 10
-33.75634660932386
 20
239.481110799231
 30
0.0
 10
-31.89572290626116
 20
229.0716775553171
 30
0.0
 10
-30.05388505223859
 20
218.4863498219993
 30
0.0
 10
-28.55698289007573
 20
209.8142979482611
 30
0.0
 10
-27.67627164821003
 20
204.6785732103608
 30
0.0
 10
-27.40670663469136
 20
203.1066485628821
 30
0.0
  0
SPLINE
  5
2B1
330
1F
100
AcDbEntity
  8
0
100
AcDbSpline
210
0.0
220
0.0
230
1.0
 70
     8
 71
     3
 72
    24
 73
    20
 74
     0
 42
0.00000001
 43
0.00000001
 40
0.0
 40
0.0
 40
0.0
 40
0.0
 40
0.0309836822058956
 40
0.094193339910398
 40
0.1574401121603609
 40
0.2206394140789869
 40
0.2838935567438171
 40
0.3459626172119066
 40
0.4080863455840105
 40
0.4701602026846483
 40
0.5322748416260809
 40
0.5954882428496613
 40
0.6587116365396323
 40
0.7219456116754591
 40
0.7851520178401299
 40
0.8484015120265879
 40
0.9104713741464128
 40
0.9725973916406433
 40
1.0
 40
1.0
 40
1.0
 40
1.0
 10
65.04608211268237
 20
315.9390319452436
 30
0.0
 10
65.35133294439677
 20
315.877889343239
 30
0.0
 10
66.27932449680601
 20
315.6920100195566
 30
0.0
 10
67.827903565149
 20
314.2549590834307
 30
0.0
 10
69.69927759525493
 20
311.7043186604252
 30
0.0
 10
71.56357775343008
 20
308.092288553005
 30
0.0
 10
73.42489030817842
 20
303.5528642799871
 30
0.0
 10
75.26661896673309
 20
298.1250883413164
 30
0.0
 10
77.10536740159019
 20
291.8855934713636
 30
0.0
 10
78.9367569422754
 20
284.85125970231
 30
0.0
 10
80.78524057682782
 20
277.0429284856059
 30
0.0
 10
82.64070126545548
 20
268.5117315940461
 30
0.0
 10
84.50870971020844
 20
259.3252120606381
 30
0.0
 10
86.37820443954628
 20
249.6192619534782
 30
0.0
 10
88.24365339067616
 20
239.481110799231
 30
0.0
 10
90.10427709373877
 20
229.0716775553171
 30
0.0
 10
91.9461149477615
 20
218.4863498219993
 30
0.0
 10
93.44301710992426
 20
209.8142979482612
 30
0.0
 10
94.3237283517899
 20
204.678573210361
 30
0.0
 10
94.59329336530853
 20
203.1066485628825
 30
0.0
  0
SPLINE
  5
2B2
330
1F
100
AcDbEntity
  8
0
100
AcDbSpline
210
0.0
220
0.0
230
1.0
 70
     8
 71
     3
 72
    24
 73
    20
 74
     0
 42
0.00000001
 43
0.00000001
 40
0.0
 40
0.0
 40
0.0
 40
0.0
 40
0.0309836822058957
 40
0.0941933399103981
 40
0.1574401121603609
 40
0.2206394140789869
 40
0.2838935567438172
 40
0.3459626172119067
 40
0.4080863455840106
 40
0.4701602026846483
 40
0.532274841626081
 40
0.5954882428496614
 40
0.6587116365396323
 40
0.7219456116754591
 40
0.7851520178401299
 40
0.848401512026588
 40
0.9104713741464128
 40
0.9725973916406433
 40
1.0
 40
1.0
 40
1.0
 40
1.0
 10
187.0460821126823
 20
315.9390319452436
 30
0.0
 10
187.3513329443968
 20
315.877889343239
 30
0.0
 10
188.2793244968061
 20
315.6920100195566
 30
0.0
 10
189.8279035651488
 20
314.2549590834307
 30
0.0
 10
191.699277595255
 20
311.7043186604252
 30
0.0
 10
193.56357775343
 20
308.0922885530049
 30
0.0
 10
195.4248903081785
 20
303.5528642799871
 30
0.0
 10
197.2666189667331
 20
298.1250883413163
 30
0.0
 10
199.1053674015901
 20
291.8855934713636
 30
0.0
 10
200.9367569422755
 20
284.85125970231
 30
0.0
 10
202.7852405768276
 20
277.0429284856059
 30
0.0
 10
204.6407012654556
 20
268.5117315940461
 30
0.0
 10
206.5087097102083
 20
259.3252120606381
 30
0.0
 10
208.3782044395463
 20
249.6192619534782
 30
0.0
 10
210.243653390676
 20
239.481110799231
 30
0.0
 10
212.1042770937389
 20
229.0716775553171
 30
0.0
 10
213.9461149477614
 20
218.4863498219993
 30
0.0
 10
215.4430171099242
 20
209.8142979482612
 30
0.0
 10
216.3237283517899
 20
204.678573210361
 30
0.0
 10
216.5932933653085
 20
203.1066485628825
 30
0.0
  0
SPLINE
  5
2B3
330
1F
100
AcDbEntity
  8
0
100
AcDbSpline
210
0.0
220
0.0
230
1.0
 70
     8
 71
     3
 72
    24
 73
    20
 74
     0
 42
0.00000001
 43
0.00000001
 40
0.0
 40
0.0
 40
0.0
 40
0.0
 40
0.0610363459369235
 40
0.1220543062491994
 40
0.1831080776183168
 40
0.2441160458467064
 40
0.3051769287735878
 40
0.3650938461674637
 40
0.4250635114908516
 40
0.4849850570565767
 40
0.5449459521793508
 40
0.6059675245359541
 40
0.6669987384174713
 40
0.7280401621180519
 40
0.7890549850866662
 40
0.850111382795021
 40
0.9100290736861231
 40
0.9700009477350129
 40
1.0
 40
1.0
 40
1.0
 40
1.0
 10
-545.9067810455138
 20
316.7058089926195
 30
0.0
 10
-545.2837989910613
 20
316.6045413460354
 30
0.0
 10
-544.0380225394288
 20
316.4020365571332
 30
0.0
 10
-542.1720471046735
 20
314.7686737754649
 30
0.0
 10
-540.3007351953559
 20
312.1784350574293
 30
0.0
 10
-538.4364192849821
 20
308.5580260949304
 30
0.0
 10
-536.5751099911
 20
303.996504342173
 30
0.0
 10
-534.7333813947381
 20
298.545269890939
 30
0.0
 10
-532.8946321096702
 20
292.2780450517471
 30
0.0
 10
-531.0632434938581
 20
285.2126552452394
 30
0.0
 10
-529.2147591056655
 20
277.3697911065666
 30
0.0
 10
-527.3592988692932
 20
268.8008833974073
 30
0.0
 10
-525.4912903059372
 20
259.5737514197297
 30
0.0
 10
-523.6217956187978
 20
249.8248885157466
 30
0.0
 10
-521.7563457247131
 20
239.6419297071735
 30
0.0
 10
-519.8957273696423
 20
229.1864439708969
 30
0.0
 10
-518.0538672500545
 20
218.5544289734829
 30
0.0
 10
-516.5207595768373
 20
209.6326211356865
 30
0.0
 10
-515.6039369047268
 20
204.2623785415656
 30
0.0
 10
-515.2982402493159
 20
202.4717757895759
 30
0.0
  0
SPLINE
  5
2B4
330
1F
100
AcDbEntity
  8
0
100
AcDbSpline
210
0.0
220
0.0
230
1.0
 70
     8
 71
     3
 72
    25
 73
    21
 74
     0
 42
0.00000001
 43
0.00000001
 40
0.0
 40
0.0
 40
0.0
 40
0.0
 40
0.0137063021575047
 40
0.0739060654944182
 40
0.1340876952056108
 40
0.1943046451364794
 40
0.2544764197183067
 40
0.3147003837337798
 40
0.3737960617535005
 40
0.4329437647236732
 40
0.4920440074801215
 40
0.5511830604567001
 40
0.6113682527044493
 40
0.6715629543274584
 40
0.7317677258306662
 40
0.7919462611995773
 40
0.852165801472284
 40
0.9112622423874444
 40
0.9704121238096599
 40
1.0
 40
1.0
 40
1.0
 40
1.0
 10
-424.3321385811186
 20
316.5939083541697
 30
0.0
 10
-424.1903584520616
 20
316.6374910048107
 30
0.0
 10
-423.4258625739259
 20
316.8724940126002
 30
0.0
 10
-422.0379339315085
 20
316.3046503308072
 30
0.0
 10
-420.1720708602033
 20
314.794782744078
 30
0.0
 10
-418.3007288337164
 20
312.1714431760384
 30
0.0
 10
-416.4364209917536
 20
308.5599019549048
 30
0.0
 10
-414.5751095431485
 20
303.9960120126073
 30
0.0
 10
-412.733381513925
 20
298.5454008854989
 30
0.0
 10
-410.894632077753
 20
292.2780099724118
 30
0.0
 10
-409.0632435024084
 20
285.2126646429044
 30
0.0
 10
-407.2147591033285
 20
277.369788538137
 30
0.0
 10
-405.3592988699242
 20
268.8008840908282
 30
0.0
 10
-403.4912903057682
 20
259.5737512338781
 30
0.0
 10
-401.6217956188432
 20
249.8248885655262
 30
0.0
 10
-399.756345724701
 20
239.6419296938179
 30
0.0
 10
-397.8957273696457
 20
229.1864439744067
 30
0.0
 10
-396.0538672500538
 20
218.5544289725323
 30
0.0
 10
-394.5207595768358
 20
209.6326211357837
 30
0.0
 10
-393.6039369047239
 20
204.2623785415751
 30
0.0
 10
-393.2982402493116
 20
202.4717757895505
 30
0.0
  0
SPLINE
  5
2B5
330
1F
100
AcDbEntity
  8
0
100
AcDbSpline
210
0.0
220
0.0
230
1.0
 70
     8
 71
     3
 72
    25
 73
    21
 74
     0
 42
0.00000001
 43
0.00000001
 40
0.0
 40
0.0
 40
0.0
 40
0.0
 40
0.013706302157502
 40
0.0739060654944103
 40
0.1340876952055977
 40
0.1943046451364611
 40
0.2544764197182831
 40
0.3147003837337508
 40
0.3737960617534665
 40
0.4329437647236341
 40
0.4920440074800772
 40
0.5511830604566506
 40
0.6113682527043944
 40
0.6715629543273984
 40
0.7317677258306008
 40
0.7919462611995067
 40
0.8521658014722083
 40
0.9112622423873634
 40
0.9704121238095739
 40
1.0
 40
1.0
 40
1.0
 40
1.0
 10
-302.3321385811186
 20
316.5939083541698
 30
0.0
 10
-302.1903584520616
 20
316.6374910048107
 30
0.0
 10
-301.4258625739258
 20
316.8724940126002
 30
0.0
 10
-300.0379339315085
 20
316.3046503308072
 30
0.0
 10
-298.1720708602035
 20
314.794782744078
 30
0.0
 10
-296.3007288337165
 20
312.1714431760385
 30
0.0
 10
-294.4364209917536
 20
308.5599019549049
 30
0.0
 10
-292.5751095431486
 20
303.9960120126073
 30
0.0
 10
-290.7333815139248
 20
298.545400885499
 30
0.0
 10
-288.894632077753
 20
292.2780099724118
 30
0.0
 10
-287.0632435024084
 20
285.2126646429044
 30
0.0
 10
-285.2147591033286
 20
277.3697885381371
 30
0.0
 10
-283.3592988699241
 20
268.8008840908282
 30
0.0
 10
-281.4912903057681
 20
259.5737512338781
 30
0.0
 10
-279.6217956188432
 20
249.8248885655262
 30
0.0
 10
-277.7563457247011
 20
239.6419296938179
 30
0.0
 10
-275.8957273696455
 20
229.1864439744068
 30
0.0
 10
-274.0538672500537
 20
218.5544289725323
 30
0.0
 10
-272.5207595768349
 20
209.6326211357784
 30
0.0
 10
-271.603936904722
 20
204.2623785415644
 30
0.0
 10
-271.2982402493089
 20
202.4717757895344
 30
0.0
  0
SPLINE
  5
2B6
330
1F
100
AcDbEntity
  8
0
100
AcDbSpline
210
0.0
220
0.0
230
1.0
 70
     8
 71
     3
 72
    25
 73
    21
 74
     0
 42
0.00000001
 43
0.00000001
 40
0.0
 40
0.0
 40
0.0
 40
0.0
 40
0.013706302157501
 40
0.0739060654944004
 40
0.1340876952055789
 40
0.1943046451364335
 40
0.2544764197182466
 40
0.3147003837337056
 40
0.3737960617534125
 40
0.4329437647235714
 40
0.4920440074800058
 40
0.5511830604565705
 40
0.6113682527043055
 40
0.6715629543273006
 40
0.7317677258304943
 40
0.7919462611993914
 40
0.8521658014720841
 40
0.9112622423872305
 40
0.9704121238094322
 40
1.0
 40
1.0
 40
1.0
 40
1.0
 10
-180.3321385811186
 20
316.5939083541697
 30
0.0
 10
-180.1903584520616
 20
316.6374910048107
 30
0.0
 10
-179.4258625739258
 20
316.8724940126002
 30
0.0
 10
-178.0379339315085
 20
316.3046503308074
 30
0.0
 10
-176.1720708602034
 20
314.794782744078
 30
0.0
 10
-174.3007288337164
 20
312.1714431760385
 30
0.0
 10
-172.4364209917536
 20
308.5599019549049
 30
0.0
 10
-170.5751095431487
 20
303.9960120126073
 30
0.0
 10
-168.7333815139248
 20
298.545400885499
 30
0.0
 10
-166.894632077753
 20
292.2780099724117
 30
0.0
 10
-165.0632435024085
 20
285.2126646429045
 30
0.0
 10
-163.2147591033285
 20
277.3697885381371
 30
0.0
 10
-161.3592988699242
 20
268.8008840908282
 30
0.0
 10
-159.4912903057681
 20
259.5737512338781
 30
0.0
 10
-157.6217956188432
 20
249.8248885655262
 30
0.0
 10
-155.756345724701
 20
239.6419296938178
 30
0.0
 10
-153.8957273696456
 20
229.1864439744068
 30
0.0
 10
-152.0538672500537
 20
218.5544289725323
 30
0.0
 10
-150.5207595768334
 20
209.6326211357695
 30
0.0
 10
-149.603936904719
 20
204.2623785415468
 30
0.0
 10
-149.2982402493043
 20
202.4717757895079
 30
0.0
  0
SPLINE
  5
2B7
330
1F
100
AcDbEntity
  8
0
100
AcDbSpline
210
0.0
220
0.0
230
1.0
 70
     8
 71
     3
 72
    25
 73
    21
 74
     0
 42
0.00000001
 43
0.00000001
 40
0.0
 40
0.0
 40
0.0
 40
0.0
 40
0.0137063021575067
 40
0.0739060654944053
 40
0.134087695205583
 40
0.1943046451364367
 40
0.2544764197182491
 40
0.3147003837337072
 40
0.3737960617534134
 40
0.4329437647235714
 40
0.492044007480005
 40
0.551183060456569
 40
0.6113682527043032
 40
0.6715629543272975
 40
0.7317677258304902
 40
0.7919462611993865
 40
0.8521658014720783
 40
0.9112622423872241
 40
0.9704121238094248
 40
1.0
 40
1.0
 40
1.0
 40
1.0
 10
-58.3321385811188
 20
316.5939083541697
 30
0.0
 10
-58.19035845206171
 20
316.6374910048106
 30
0.0
 10
-57.42586257392583
 20
316.8724940126003
 30
0.0
 10
-56.03793393150849
 20
316.3046503308072
 30
0.0
 10
-54.17207086020343
 20
314.794782744078
 30
0.0
 10
-52.30072883371643
 20
312.1714431760384
 30
0.0
 10
-50.43642099175364
 20
308.5599019549049
 30
0.0
 10
-48.5751095431487
 20
303.9960120126073
 30
0.0
 10
-46.73338151392476
 20
298.545400885499
 30
0.0
 10
-44.89463207775309
 20
292.2780099724118
 30
0.0
 10
-43.06324350240842
 20
285.2126646429044
 30
0.0
 10
-41.21475910332849
 20
277.369788538137
 30
0.0
 10
-39.35929886992432
 20
268.8008840908282
 30
0.0
 10
-37.49129030576807
 20
259.5737512338781
 30
0.0
 10
-35.62179561884319
 20
249.8248885655262
 30
0.0
 10
-33.75634572470103
 20
239.6419296938179
 30
0.0
 10
-31.89572736964558
 20
229.1864439744067
 30
0.0
 10
-30.05386725005367
 20
218.5544289725324
 30
0.0
 10
-28.52075957683348
 20
209.6326211357691
 30
0.0
 10
-27.60393690471888
 20
204.2623785415458
 30
0.0
 10
-27.29824024930405
 20
202.4717757895065
 30
0.0
  0
SPLINE
  5
2B8
330
1F
100
AcDbEntity
  8
0
100
AcDbSpline
210
0.0
220
0.0
230
1.0
 70
     8
 71
     3
 72
    25
 73
    21
 74
     0
 42
0.00000001
 43
0.00000001
 40
0.0
 40
0.0
 40
0.0
 40
0.0
 40
0.0137063021574979
 40
0.0739060654943769
 40
0.1340876952055351
 40
0.1943046451363691
 40
0.2544764197181619
 40
0.3147003837336005
 40
0.3737960617532873
 40
0.4329437647234261
 40
0.4920440074798405
 40
0.5511830604563852
 40
0.6113682527040998
 40
0.6715629543270746
 40
0.7317677258302477
 40
0.7919462611991244
 40
0.8521658014717967
 40
0.9112622423869231
 40
0.9704121238091046
 40
1.0
 40
1.0
 40
1.0
 40
1.0
 10
63.66786141888126
 20
316.5939083541697
 30
0.0
 10
63.80964154793831
 20
316.6374910048107
 30
0.0
 10
64.57413742607429
 20
316.8724940126002
 30
0.0
 10
65.96206606849151
 20
316.3046503308073
 30
0.0
 10
67.8279291397966
 20
314.794782744078
 30
0.0
 10
69.69927116628361
 20
312.1714431760384
 30
0.0
 10
71.56357900824622
 20
308.5599019549049
 30
0.0
 10
73.42489045685144
 20
303.9960120126073
 30
0.0
 10
75.26661848607507
 20
298.5454008854989
 30
0.0
 10
77.10536792224693
 20
292.2780099724118
 30
0.0
 10
78.93675649759163
 20
285.2126646429045
 30
0.0
 10
80.78524089667147
 20
277.3697885381371
 30
0.0
 10
82.64070113007574
 20
268.8008840908282
 30
0.0
 10
84.50870969423191
 20
259.5737512338781
 30
0.0
 10
86.37820438115679
 20
249.8248885655262
 30
0.0
 10
88.24365427529901
 20
239.6419296938179
 30
0.0
 10
90.10427263035433
 20
229.1864439744067
 30
0.0
 10
91.9461327499464
 20
218.5544289725324
 30
0.0
 10
93.47924042316994
 20
209.6326211357492
 30
0.0
 10
94.39606309528789
 20
204.2623785415059
 30
0.0
 10
94.70175975070605
 20
202.4717757894467
 30
0.0
  0
SPLINE
  5
2B9
330
1F
100
AcDbEntity
  8
0
100
AcDbSpline
210
0.0
220
0.0
230
1.0
 70
     8
 71
     3
 72
    25
 73
    21
 74
     0
 42
0.00000001
 43
0.00000001
 40
0.0
 40
0.0
 40
0.0
 40
0.0
 40
0.0137063021574888
 40
0.0739060654943238
 40
0.134087695205438
 40
0.194304645136228
 40
0.2544764197179767
 40
0.3147003837333713
 40
0.3737960617530149
 40
0.4329437647231105
 40
0.4920440074794816
 40
0.5511830604559831
 40
0.6113682527036537
 40
0.6715629543265844
 40
0.7317677258297136
 40
0.7919462611985463
 40
0.8521658014711745
 40
0.9112622423862577
 40
0.9704121238083959
 40
1.0
 40
1.0
 40
1.0
 40
1.0
 10
185.6678614188812
 20
316.5939083541697
 30
0.0
 10
185.8096415479383
 20
316.6374910048106
 30
0.0
 10
186.5741374260744
 20
316.8724940126002
 30
0.0
 10
187.9620660684915
 20
316.3046503308072
 30
0.0
 10
189.8279291397967
 20
314.794782744078
 30
0.0
 10
191.6992711662836
 20
312.1714431760384
 30
0.0
 10
193.5635790082463
 20
308.5599019549049
 30
0.0
 10
195.4248904568514
 20
303.9960120126073
 30
0.0
 10
197.266618486075
 20
298.5454008854989
 30
0.0
 10
199.105367922247
 20
292.2780099724118
 30
0.0
 10
200.9367564975916
 20
285.2126646429044
 30
0.0
 10
202.7852408966716
 20
277.3697885381371
 30
0.0
 10
204.6407011300756
 20
268.8008840908282
 30
0.0
 10
206.508709694232
 20
259.5737512338781
 30
0.0
 10
208.3782043811569
 20
249.8248885655262
 30
0.0
 10
210.243654275299
 20
239.6419296938179
 30
0.0
 10
212.1042726303545
 20
229.1864439744067
 30
0.0
 10
213.9461327499463
 20
218.5544289725324
 30
0.0
 10
215.4792404231775
 20
209.632621135705
 30
0.0
 10
216.396063095303
 20
204.2623785414176
 30
0.0
 10
216.7017597507288
 20
202.4717757893141
 30
0.0
  0
LINE
  5
2BA
330
1F
100
AcDbEntity
  8
0
100
AcDbLine
 10
338.5934312526
 20
203.1058451913
 30
0.0
 11
338.7017597507
 21
202.4717757894
 31
0.0
  0
SPLINE
  5
2BB
330
1F
100
AcDbEntity
  8
0
100
AcDbSpline
210
0.0
220
0.0
230
1.0
 70
    24
 71
     3
 72
    10
 73
     6
 74
     0
 42
0.00000001
 43
0.00000001
 40
0.0
 40
0.0
 40
0.0
 40
0.0
 40
0.3934791766526272
 40
0.696330421969274
 40
1.0
 40
1.0
 40
1.0
 40
1.0
 10
353.2931509516468
 20
155.4159648920306
 30
0.0
 10
353.293150951649
 20
155.2932280043908
 30
0.0
 10
353.2931509516529
 20
155.0760235528404
 30
0.0
 10
353.2931509516455
 20
154.7572554271398
 30
0.0
 10
353.2931509516465
 20
154.5590507991971
 30
0.0
 10
353.2931509516468
 20
154.4598147739624
 30
0.0
  0
SPLINE
  5
2BC
330
1F
100
AcDbEntity
  8
0
100
AcDbSpline
210
0.0
220
0.0
230
1.0
 70
    24
 71
     3
 72
    45
 73
    41
 74
     0
 42
0.00000001
 43
0.00000001
 40
0.0
 40
0.0
 40
0.0
 40
0.0
 40
0.0113564304648828
 40
0.0386780925336728
 40
0.0659997546024628
 40
0.0932241273620939
 40
0.120448500121725
 40
0.147770162190515
 40
0.175091824259305
 40
0.2023161970189361
 40
0.2295405697785678
 40
0.2568622318473583
 40
0.284183893916149
 40
0.3114082666757806
 40
0.3386326394354115
 40
0.3659543015042013
 40
0.3932759635729912
 40
0.4205003363326221
 40
0.4477247090922533
 40
0.4750463711610434
 40
0.5023680332298335
 40
0.5295924059894648
 40
0.5568167787490956
 40
0.5841384408178855
 40
0.6114601028866753
 40
0.6386844756463061
 40
0.6659088484059374
 40
0.6932305104747277
 40
0.720552172543518
 40
0.7477765453031492
 40
0.7750009180627804
 40
0.8023225801315705
 40
0.8296442422003607
 40
0.8568686149599919
 40
0.8840929877196231
 40
0.911414649788413
 40
0.9387363118572032
 40
0.9659606846168344
 40
0.9931850573764657
 40
1.0
 40
1.0
 40
1.0
 40
1.0
 10
-546.7068490483531
 20
315.3698689947021
 30
0.0
 10
-546.7068490483531
 20
315.3277685414638
 30
0.0
 10
-546.7068490483532
 20
315.1843814770954
 30
0.0
 10
-546.7068490483531
 20
314.097351888372
 30
0.0
 10
-546.7068490483532
 20
312.1527686524885
 30
0.0
 10
-546.7068490483531
 20
309.3906862474896
 30
0.0
 10
-546.7068490483531
 20
305.8678756464981
 30
0.0
 10
-546.7068490483531
 20
301.6107494771163
 30
0.0
 10
-546.7068490483531
 20
296.6637195549127
 30
0.0
 10
-546.706849048353
 20
291.0603347369989
 30
0.0
 10
-546.7068490483531
 20
284.8166968989019
 30
0.0
 10
-546.7068490483532
 20
277.9883175860934
 30
0.0
 10
-546.7068490483531
 20
270.6347709088892
 30
0.0
 10
-546.7068490483531
 20
262.8116254621509
 30
0.0
 10
-546.7068490483531
 20
254.5538143557528
 30
0.0
 10
-546.7068490483532
 20
245.923295503293
 30
0.0
 10
-546.7068490483531
 20
236.9924855361353
 30
0.0
 10
-546.7068490483531
 20
227.8315272003114
 30
0.0
 10
-546.7068490483531
 20
218.4905624645904
 30
0.0
 10
-546.7068490483531
 20
209.0309258185794
 30
0.0
 10
-546.7068490483531
 20
199.5297346530423
 30
0.0
 10
-546.706849048353
 20
190.063791716746
 30
0.0
 10
-546.7068490483533
 20
180.692796339783
 30
0.0
 10
-546.7068490483531
 20
171.470544154509
 30
0.0
 10
-546.7068490483531
 20
162.4701590241527
 30
0.0
 10
-546.7068490483531
 20
153.7664447525108
 30
0.0
 10
-546.706849048353
 20
145.4219273518431
 30
0.0
 10
-546.7068490483532
 20
137.4767986987043
 30
0.0
 10
-546.706849048353
 20
129.9919443963801
 30
0.0
 10
-546.7068490483533
 20
123.0317378727262
 30
0.0
 10
-546.7068490483529
 20
116.6544745442437
 30
0.0
 10
-546.7068490483533
 20
110.8822409154673
 30
0.0
 10
-546.7068490483529
 20
105.7567089490215
 30
0.0
 10
-546.7068490483531
 20
101.3249774126634
 30
0.0
 10
-546.7068490483531
 20
97.63299758485263
 30
0.0
 10
-546.7068490483531
 20
94.68802469690259
 30
0.0
 10
-546.7068490483532
 20
92.48628715945581
 30
0.0
 10
-546.7068490483529
 20
91.13248348677325
 30
0.0
 10
-546.7068490483531
 20
90.55077390247904
 30
0.0
 10
-546.7068490483531
 20
90.66558354821889
 30
0.0
 10
-546.7068490483531
 20
90.68856935564591
 30
0.0
  0
SPLINE
  5
2BD
330
1F
100
AcDbEntity
  8
0
100
AcDbSpline
210
0.0
220
0.0
230
1.0
 70
    24
 71
     3
 72
    17
 73
    13
 74
     0
 42
0.00000001
 43
0.00000001
 40
0.0
 40
0.0
 40
0.0
 40
0.0
 40
0.0107715721493407
 40
0.1216603578580305
 40
0.2325491435667204
 40
0.3438342026239398
 40
0.4551192616811589
 40
0.5660080473898487
 40
0.6768968330985375
 40
0.7881818921557557
 40
0.8994669512129739
 40
1.0
 40
1.0
 40
1.0
 40
1.0
 10
353.2931509516468
 20
121.5327541960722
 30
0.0
 10
353.2931509516467
 20
121.3134171846901
 30
0.0
 10
353.2931509516467
 20
118.8360982820927
 30
0.0
 10
353.2931509516467
 20
114.6371356105083
 30
0.0
 10
353.293150951647
 20
109.0477772578127
 30
0.0
 10
353.2931509516466
 20
104.1770748762414
 30
0.0
 10
353.293150951647
 20
99.98399623290905
 30
0.0
 10
353.2931509516466
 20
96.52985204860305
 30
0.0
 10
353.2931509516467
 20
93.84521729674898
 30
0.0
 10
353.2931509516467
 20
91.95080116177962
 30
0.0
 10
353.2931509516466
 20
90.79946581707704
 30
0.0
 10
353.2931509516466
 20
90.69142239202552
 30
0.0
 10
353.2931509516466
 20
90.64014285302687
 30
0.0
  0
SPLINE
  5
2BE
330
1F
100
AcDbEntity
  8
0
100
AcDbSpline
210
0.0
220
0.0
230
1.0
 70
    24
 71
     3
 72
    31
 73
    27
 74
     0
 42
0.00000001
 43
0.00000001
 40
0.0
 40
0.0
 40
0.0
 40
0.0
 40
0.0113314993922446
 40
0.0544513503842833
 40
0.0974176565259578
 40
0.1403839626676325
 40
0.1835038136596713
 40
0.22662366465171
 40
0.2695899707933847
 40
0.3125562769350589
 40
0.3556761279270974
 40
0.3987959789191358
 40
0.44176228506081
 40
0.4847285912024849
 40
0.5278484421945239
 40
0.5709682931865628
 40
0.6139345993282378
 40
0.6569009054699123
 40
0.7000207564619509
 40
0.7431406074539896
 40
0.7861069135956641
 40
0.8290732197373385
 40
0.872193070729377
 40
0.9153129217214154
 40
0.9582792278630898
 40
1.0
 40
1.0
 40
1.0
 40
1.0
 10
353.2931509516469
 20
315.3826254127035
 30
0.0
 10
353.2931509516468
 20
315.3643910884607
 30
0.0
 10
353.2931509516469
 20
315.2767695351259
 30
0.0
 10
353.2931509516466
 20
314.3315953575625
 30
0.0
 10
353.2931509516471
 20
312.5252458337346
 30
0.0
 10
353.293150951647
 20
309.8602434414373
 30
0.0
 10
353.2931509516468
 20
306.4537271357764
 30
0.0
 10
353.2931509516466
 20
302.3179319837429
 30
0.0
 10
353.2931509516466
 20
297.486412690344
 30
0.0
 10
353.2931509516466
 20
291.967470558068
 30
0.0
 10
353.2931509516466
 20
285.8140552622837
 30
0.0
 10
353.2931509516465
 20
279.0805606050285
 30
0.0
 10
353.2931509516467
 20
271.817126517157
 30
0.0
 10
353.2931509516469
 20
264.0534635823095
 30
0.0
 10
353.2931509516467
 20
255.8503956256052
 30
0.0
 10
353.2931509516465
 20
247.2774150141089
 30
0.0
 10
353.2931509516467
 20
238.4012129512692
 30
0.0
 10
353.2931509516466
 20
229.2680580825196
 30
0.0
 10
353.2931509516469
 20
219.9401825116667
 30
0.0
 10
353.293150951647
 20
210.4942744810188
 30
0.0
 10
353.293150951647
 20
201.0059378237195
 30
0.0
 10
353.2931509516471
 20
191.5333294461038
 30
0.0
 10
353.293150951647
 20
182.1310021104088
 30
0.0
 10
353.2931509516471
 20
172.8819387619721
 30
0.0
 10
353.293150951647
 20
163.9206201985781
 30
0.0
 10
353.2931509516469
 20
158.2229170313254
 30
0.0
 10
353.2931509516468
 20
155.4159648920306
 30
0.0
  0
SPLINE
  5
2BF
330
1F
100
AcDbEntity
  8
0
100
AcDbSpline
210
0.0
220
0.0
230
1.0
 70
     8
 71
     3
 72
    10
 73
     6
 74
     0
 42
0.00000001
 43
0.00000001
 40
0.0
 40
0.0
 40
0.0
 40
0.0
 40
0.0589764827393497
 40
0.6251694211685633
 40
1.0
 40
1.0
 40
1.0
 40
1.0
 10
-583.7394122110895
 20
267.4511166377048
 30
0.0
 10
-583.6483879162755
 20
267.4687846104729
 30
0.0
 10
-582.6835015232932
 20
267.6560707251347
 30
0.0
 10
-581.1387028710524
 20
267.1141335047416
 30
0.0
 10
-579.6868014450209
 20
265.9997090272971
 30
0.0
 10
-579.1084768421356
 20
265.5558089926195
 30
0.0
  0
SPLINE
  5
2C0
330
1F
100
AcDbEntity
  8
0
100
AcDbSpline
210
0.0
220
0.0
230
1.0
 70
     8
 71
     3
 72
    10
 73
     6
 74
     0
 42
0.00000001
 43
0.00000001
 40
0.0
 40
0.0
 40
0.0
 40
0.0
 40
0.090071263537726
 40
0.9547839592041288
 40
1.0
 40
1.0
 40
1.0
 40
1.0
 10
392.2605877889105
 20
267.4511166377049
 30
0.0
 10
392.3516079739589
 20
267.4690613450053
 30
0.0
 10
393.3164508021236
 20
267.6592809334752
 30
0.0
 10
394.3293529437673
 20
267.2098008615137
 30
0.0
 10
395.2475252715608
 20
266.7456102003912
 30
0.0
 10
395.2931509516471
 20
266.7225437084459
 30
0.0
  0
SPLINE
  5
2C1
330
1F
100
AcDbEntity
  8
0
100
AcDbSpline
210
0.0
220
0.0
230
1.0
 70
     8
 71
     3
 72
     9
 73
     5
 74
     0
 42
0.00000001
 43
0.00000001
 40
0.0
 40
0.0
 40
0.0
 40
0.0
 40
0.3825678503126794
 40
1.0
 40
1.0
 40
1.0
 40
1.0
 10
-583.5761218243655
 20
267.3944092070883
 30
0.0
 10
-583.5157976601804
 20
267.4115591537264
 30
0.0
 10
-583.3581153977116
 20
267.4563876635557
 30
0.0
 10
-583.2003834244761
 20
267.3942034965357
 30
0.0
 10
-583.102994633167
 20
267.3558089926161
 30
0.0
  0
SPLINE
  5
2C2
330
1F
100
AcDbEntity
  8
0
100
AcDbSpline
210
0.0
220
0.0
230
1.0
 70
     8
 71
     3
 72
     9
 73
     5
 74
     0
 42
0.00000001
 43
0.00000001
 40
0.0
 40
0.0
 40
0.0
 40
0.0
 40
0.0563715912959784
 40
1.0
 40
1.0
 40
1.0
 40
1.0
 10
-580.8195607098864
 20
266.7743908937699
 30
0.0
 10
-580.7922031766975
 20
266.7677702041427
 30
0.0
 10
-580.3068960821129
 20
266.6503229319448
 30
0.0
 10
-579.8219608438593
 20
266.2070733088968
 30
0.0
 10
-579.3643621766616
 20
265.7888103724414
 30
0.0
  0
SPLINE
  5
2C3
330
1F
100
AcDbEntity
  8
0
100
AcDbSpline
210
0.0
220
0.0
230
1.0
 70
     8
 71
     3
 72
     9
 73
     5
 74
     0
 42
0.00000001
 43
0.00000001
 40
0.0
 40
0.0
 40
0.0
 40
0.0
 40
0.668888706315391
 40
1.0
 40
1.0
 40
1.0
 40
1.0
 10
395.2005244794007
 20
266.7692767135646
 30
0.0
 10
395.2211964634858
 20
266.7655881815951
 30
0.0
 10
395.2521014315168
 20
266.7600737635241
 30
0.0
 10
395.2829399649472
 20
266.7440151218457
 30
0.0
 10
395.293150951647
 20
266.7386979242248
 30
0.0
  0
LINE
  5
2C4
330
1F
100
AcDbEntity
  8
0
100
AcDbLine
 10
-588.1600578041
 20
267.4160690653
 30
0.0
 11
-587.8195781632
 21
267.4021445069
 31
0.0
  0
LINE
  5
2C5
330
1F
100
AcDbEntity
  8
0
100
AcDbLine
 10
387.9199632397
 20
267.4127964535
 30
0.0
 11
388.1804218368
 21
267.4021445069
 31
0.0
  0
SPLINE
  5
2C6
330
1F
100
AcDbEntity
  8
0
100
AcDbSpline
210
0.0
220
0.0
230
1.0
 70
    24
 71
     3
 72
    10
 73
     6
 74
     0
 42
0.00000001
 43
0.00000001
 40
0.0
 40
0.0
 40
0.0
 40
0.0
 40
0.3016290762199065
 40
0.6032581524398078
 40
1.0
 40
1.0
 40
1.0
 40
1.0
 10
395.2931509516471
 20
266.7225437084459
 30
0.0
 10
395.2931509516471
 20
266.4852345489008
 30
0.0
 10
395.2931509516468
 20
266.0106162298104
 30
0.0
 10
395.2931509516466
 20
264.8899680514193
 30
0.0
 10
395.293150951647
 20
263.833075150009
 30
0.0
 10
395.2931509516471
 20
263.2326583398285
 30
0.0
  0
LINE
  5
2C7
330
1F
100
AcDbEntity
  8
0
100
AcDbLine
 10
395.2931509516
 20
263.2326583398
 30
0.0
 11
395.2931509516
 21
262.4289216945
 31
0.0
  0
LINE
  5
2C8
330
1F
100
AcDbEntity
  8
0
100
AcDbLine
 10
-588.7068490484
 20
267.4143621637
 30
0.0
 11
-588.7068490484
 21
267.3385357506
 31
0.0
  0
LINE
  5
2C9
330
1F
100
AcDbEntity
  8
0
100
AcDbLine
 10
395.1380892487
 20
263.3080652265
 30
0.0
 11
395.2931509516
 21
263.1392936669
 31
0.0
  0
SPLINE
  5
2CA
330
1F
100
AcDbEntity
  8
0
100
AcDbSpline
210
0.0
220
0.0
230
1.0
 70
     8
 71
     3
 72
    10
 73
     6
 74
     0
 42
0.00000001
 43
0.00000001
 40
0.0
 40
0.0
 40
0.0
 40
0.0
 40
0.0174200326441558
 40
0.7758217937109485
 40
1.0
 40
1.0
 40
1.0
 40
1.0
 10
-578.1765336326293
 20
264.8442734607618
 30
0.0
 10
-578.1954677697811
 20
264.8651925443391
 30
0.0
 10
-579.0387220017061
 20
265.7968487171627
 30
0.0
 10
-580.1257445939457
 20
266.438613584754
 30
0.0
 10
-581.1944881741454
 20
266.8109297665783
 30
0.0
 10
-581.4383248355385
 20
266.89587468362
 30
0.0
  0
SPLINE
  5
2CB
330
1F
100
AcDbEntity
  8
0
100
AcDbSpline
210
0.0
220
0.0
230
1.0
 70
     8
 71
     3
 72
     9
 73
     5
 74
     0
 42
0.00000001
 43
0.00000001
 40
0.0
 40
0.0
 40
0.0
 40
0.0
 40
0.6528697384406301
 40
0.9999999999999999
 40
0.9999999999999999
 40
0.9999999999999999
 40
0.9999999999999999
 10
394.2946959857954
 20
266.9999227923774
 30
0.0
 10
394.117703102444
 20
267.0838803597138
 30
0.0
 10
393.8466032598106
 20
267.2124780912259
 30
0.0
 10
393.5757546604553
 20
267.2355493612847
 30
0.0
 10
393.4817349153182
 20
267.2435580972947
 30
0.0
  0
LINE
  5
2CC
330
1F
100
AcDbEntity
  8
0
100
AcDbLine
 10
393.1871770967
 20
267.2819241765
 30
0.0
 11
392.6199220967
 21
267.3558089926
 31
0.0
  0
SPLINE
  5
2CD
330
1F
100
AcDbEntity
  8
0
100
AcDbSpline
210
0.0
220
0.0
230
1.0
 70
     8
 71
     3
 72
     9
 73
     5
 74
     0
 42
0.00000001
 43
0.00000001
 40
0.0
 40
0.0
 40
0.0
 40
0.0
 40
0.8817335543645731
 40
1.0
 40
1.0
 40
1.0
 40
1.0
 10
-579.4934314973326
 20
265.7335915355515
 30
0.0
 10
-579.8978734026457
 20
266.0853987742685
 30
0.0
 10
-580.3565628823768
 20
266.4843937279886
 30
0.0
 10
-580.8153704849449
 20
266.654163554775
 30
0.0
 10
-580.8696320293312
 20
266.6742416287652
 30
0.0
  0
SPLINE
  5
2CE
330
1F
100
AcDbEntity
  8
0
100
AcDbSpline
210
0.0
220
0.0
230
1.0
 70
     8
 71
     3
 72
     9
 73
     5
 74
     0
 42
0.00000001
 43
0.00000001
 40
0.0
 40
0.0
 40
0.0
 40
0.0
 40
0.5380412502185655
 40
1.0
 40
1.0
 40
1.0
 40
1.0
 10
-581.9074240521606
 20
267.0786937579516
 30
0.0
 10
-582.0170261106767
 20
267.1290529219784
 30
0.0
 10
-582.2207317902532
 20
267.2226501396757
 30
0.0
 10
-582.424248677768
 20
267.236951471791
 30
0.0
 10
-582.5182650846837
 20
267.2435580972952
 30
0.0
  0
LINE
  5
2CF
330
1F
100
AcDbEntity
  8
0
100
AcDbLine
 10
395.2931509516
 20
263.1540763742
 30
0.0
 11
395.2931509516
 21
266.6108012459
 31
0.0
  0
LINE
  5
2D0
330
1F
100
AcDbEntity
  8
0
100
AcDbLine
 10
395.2931509516
 20
262.6942101989
 30
0.0
 11
395.2931509516
 21
263.1540763742
 31
0.0
  0
ARC
  5
2D1
330
1F
100
AcDbEntity
  8
0
100
AcDbCircle
 10
954.6253329233
 20
202.7156714552
 30
0.0
 40
8.000000000000068
100
AcDbArc
 50
17.1467397277
 51
21.1071689187
  0
ARC
  5
2D2
330
1F
100
AcDbEntity
  8
0
100
AcDbCircle
 10
954.6253329233
 20
203.4959465301
 30
0.0
 40
8.000000000000027
100
AcDbArc
 50
338.8928310813
 51
342.8515803462
  0
ARC
  5
2D3
330
1F
100
AcDbEntity
  8
0
100
AcDbCircle
 10
741.6062956855
 20
203.4959465301
 30
0.0
 40
7.999999999999972
100
AcDbArc
 50
197.1467397277
 51
201.1071689187
  0
ARC
  5
2D4
330
1F
100
AcDbEntity
  8
0
100
AcDbCircle
 10
741.6062956855
 20
202.7156714552
 30
0.0
 40
7.99999999999998
100
AcDbArc
 50
158.8928310813
 51
162.8515803462
  0
ARC
  5
2D5
330
1F
100
AcDbEntity
  8
0
100
AcDbCircle
 10
847.725676767
 20
96.5962903737
 30
0.0
 40
8.000000000000032
100
AcDbArc
 50
287.1467397277
 51
291.1071689186
  0
ARC
  5
2D6
330
1F
100
AcDbEntity
  8
0
100
AcDbCircle
 10
848.5059518419
 20
96.5962903737
 30
0.0
 40
8.000000000000021
100
AcDbArc
 50
248.8928310814
 51
252.8515803462
  0
ARC
  5
2D7
330
1F
100
AcDbEntity
  8
0
100
AcDbCircle
 10
847.725676767
 20
309.6153276115
 30
0.0
 40
8.000000000000034
100
AcDbArc
 50
68.8928310813
 51
72.8515803462
  0
CIRCLE
  5
2D8
330
1F
100
AcDbEntity
  8
0
100
AcDbCircle
 10
848.1158143044
 20
203.1058089926
 30
0.0
 40
69.89999999999995
  0
CIRCLE
  5
2D9
330
1F
100
AcDbEntity
  8
0
100
AcDbCircle
 10
848.1158143044
 20
203.1058089926
 30
0.0
 40
114.0000000000001
  0
LINE
  5
2DA
330
1F
100
AcDbEntity
  8
0
100
AcDbLine
 10
962.2549918256
 20
203.5678850219
 30
0.0
 11
962.483067345
 21
203.591856725
 31
0.0
  0
LINE
  5
2DB
330
1F
100
AcDbEntity
  8
0
100
AcDbLine
 10
962.2549918256
 20
202.6437329633
 30
0.0
 11
962.2549918256
 21
203.5678850219
 31
0.0
  0
LINE
  5
2DC
330
1F
100
AcDbEntity
  8
0
100
AcDbLine
 10
962.483067345
 20
202.6197612603
 30
0.0
 11
962.2549918256
 21
202.6437329633
 31
0.0
  0
SPLINE
  5
2DD
330
1F
100
AcDbEntity
  8
0
100
AcDbSpline
210
0.0
220
0.0
230
1.0
 70
     8
 71
     3
 72
    12
 73
     8
 74
     0
 42
0.00000001
 43
0.00000001
 40
0.0
 40
0.0
 40
0.0
 40
0.0
 40
0.2174770912066427
 40
0.4353705208257969
 40
0.6490388720033409
 40
0.8610609605882511
 40
1.0
 40
1.0
 40
1.0
 40
1.0
 10
962.4830673450128
 20
202.1058089926174
 30
0.0
 10
962.4920449106237
 20
202.1635816327774
 30
0.0
 10
962.5100172285079
 20
202.2792375131112
 30
0.0
 10
962.5216858572861
 20
202.4333423761637
 30
0.0
 10
962.5187017099009
 20
202.548594697823
 30
0.0
 10
962.5038927980396
 20
202.609306242717
 30
0.0
 10
962.4889735859806
 20
202.6167961457587
 30
0.0
 10
962.4830673450128
 20
202.619761260271
 30
0.0
  0
LINE
  5
2DE
330
1F
100
AcDbEntity
  8
0
100
AcDbLine
 10
962.2549918256
 20
201.1437329633
 30
0.0
 11
962.483067345
 21
202.1058089926
 31
0.0
  0
LINE
  5
2DF
330
1F
100
AcDbEntity
  8
0
100
AcDbLine
 10
962.483067345
 20
204.1058089926
 30
0.0
 11
962.2549918256
 21
205.0678850219
 31
0.0
  0
SPLINE
  5
2E0
330
1F
100
AcDbEntity
  8
0
100
AcDbSpline
210
0.0
220
0.0
230
1.0
 70
     8
 71
     3
 72
    12
 73
     8
 74
     0
 42
0.00000001
 43
0.00000001
 40
0.0
 40
0.0
 40
0.0
 40
0.0
 40
0.2174770912067097
 40
0.4353705208258677
 40
0.6490388720034529
 40
0.8610609605884209
 40
1.0
 40
1.0
 40
1.0
 40
1.0
 10
962.483067345013
 20
203.5918567249639
 30
0.0
 10
962.4920449106237
 20
203.5984653633354
 30
0.0
 10
962.510017228508
 20
203.611695291664
 30
0.0
 10
962.5216858572861
 20
203.7025832796202
 30
0.0
 10
962.5187017099009
 20
203.8339211349692
 30
0.0
 10
962.5038927980397
 20
203.9761457991387
 30
0.0
 10
962.4889735859807
 20
204.0690356237812
 30
0.0
 10
962.483067345013
 20
204.1058089926173
 30
0.0
  0
LINE
  5
2E1
330
1F
100
AcDbEntity
  8
0
100
AcDbLine
 10
733.9766367833
 20
202.6437329633
 30
0.0
 11
733.7485612639
 21
202.6197612603
 31
0.0
  0
LINE
  5
2E2
330
1F
100
AcDbEntity
  8
0
100
AcDbLine
 10
733.9766367833
 20
203.5678850219
 30
0.0
 11
733.9766367833
 21
202.6437329633
 31
0.0
  0
LINE
  5
2E3
330
1F
100
AcDbEntity
  8
0
100
AcDbLine
 10
733.7485612639
 20
203.591856725
 30
0.0
 11
733.9766367833
 21
203.5678850219
 31
0.0
  0
SPLINE
  5
2E4
330
1F
100
AcDbEntity
  8
0
100
AcDbSpline
210
0.0
220
0.0
230
1.0
 70
     8
 71
     3
 72
    12
 73
     8
 74
     0
 42
0.00000001
 43
0.00000001
 40
0.0
 40
0.0
 40
0.0
 40
0.0
 40
0.2174770912066453
 40
0.4353705208257987
 40
0.649038872003343
 40
0.8610609605882534
 40
1.0
 40
1.0
 40
1.0
 40
1.0
 10
733.7485612638503
 20
204.1058089926206
 30
0.0
 10
733.7395836982397
 20
204.0480363524607
 30
0.0
 10
733.7216113803553
 20
203.9323804721269
 30
0.0
 10
733.7099427515772
 20
203.7782756090744
 30
0.0
 10
733.7129268989623
 20
203.6630232874151
 30
0.0
 10
733.7277358108237
 20
203.6023117425211
 30
0.0
 10
733.7426550228826
 20
203.5948218394794
 30
0.0
 10
733.7485612638503
 20
203.5918567249671
 30
0.0
  0
LINE
  5
2E5
330
1F
100
AcDbEntity
  8
0
100
AcDbLine
 10
733.9766367833
 20
205.0678850219
 30
0.0
 11
733.7485612639
 21
204.1058089926
 31
0.0
  0
LINE
  5
2E6
330
1F
100
AcDbEntity
  8
0
100
AcDbLine
 10
733.7485612639
 20
202.1058089926
 30
0.0
 11
733.9766367833
 21
201.1437329633
 31
0.0
  0
SPLINE
  5
2E7
330
1F
100
AcDbEntity
  8
0
100
AcDbSpline
210
0.0
220
0.0
230
1.0
 70
     8
 71
     3
 72
    12
 73
     8
 74
     0
 42
0.00000001
 43
0.00000001
 40
0.0
 40
0.0
 40
0.0
 40
0.0
 40
0.2174770912067118
 40
0.4353705208258695
 40
0.6490388720034542
 40
0.8610609605884235
 40
0.9999999999999999
 40
0.9999999999999999
 40
0.9999999999999999
 40
0.9999999999999999
 10
733.7485612638503
 20
202.6197612602742
 30
0.0
 10
733.7395836982396
 20
202.6131526219026
 30
0.0
 10
733.7216113803553
 20
202.5999226935741
 30
0.0
 10
733.709942751577
 20
202.5090347056178
 30
0.0
 10
733.7129268989623
 20
202.3776968502689
 30
0.0
 10
733.7277358108237
 20
202.2354721860993
 30
0.0
 10
733.7426550228826
 20
202.1425823614568
 30
0.0
 10
733.7485612638503
 20
202.1058089926208
 30
0.0
  0
LINE
  5
2E8
330
1F
100
AcDbEntity
  8
0
100
AcDbLine
 10
848.5778903337
 20
88.9666314714
 30
0.0
 11
848.6018620368
 21
88.738555952
 31
0.0
  0
LINE
  5
2E9
330
1F
100
AcDbEntity
  8
0
100
AcDbLine
 10
847.6537382751
 20
88.9666314714
 30
0.0
 11
848.5778903337
 21
88.9666314714
 31
0.0
  0
LINE
  5
2EA
330
1F
100
AcDbEntity
  8
0
100
AcDbLine
 10
847.6297665721
 20
88.738555952
 30
0.0
 11
847.6537382751
 21
88.9666314714
 31
0.0
  0
SPLINE
  5
2EB
330
1F
100
AcDbEntity
  8
0
100
AcDbSpline
210
0.0
220
0.0
230
1.0
 70
     8
 71
     3
 72
    12
 73
     8
 74
     0
 42
0.00000001
 43
0.00000001
 40
0.0
 40
0.0
 40
0.0
 40
0.0
 40
0.2174770912066429
 40
0.4353705208257973
 40
0.649038872003342
 40
0.861060960588251
 40
1.0
 40
1.0
 40
1.0
 40
1.0
 10
847.115814304429
 20
88.73855595203817
 30
0.0
 10
847.173586944589
 20
88.72957838642739
 30
0.0
 10
847.2892428249228
 20
88.7116060685431
 30
0.0
 10
847.4433476879753
 20
88.69993743976494
 30
0.0
 10
847.5586000096346
 20
88.70292158715019
 30
0.0
 10
847.6193115545286
 20
88.71773049901141
 30
0.0
 10
847.6268014575703
 20
88.73264971107042
 30
0.0
 10
847.6297665720826
 20
88.73855595203817
 30
0.0
  0
LINE
  5
2EC
330
1F
100
AcDbEntity
  8
0
100
AcDbLine
 10
846.1537382751
 20
88.9666314714
 30
0.0
 11
847.1158143044
 21
88.738555952
 31
0.0
  0
LINE
  5
2ED
330
1F
100
AcDbEntity
  8
0
100
AcDbLine
 10
849.1158143044
 20
88.738555952
 30
0.0
 11
850.0778903337
 21
88.9666314714
 31
0.0
  0
SPLINE
  5
2EE
330
1F
100
AcDbEntity
  8
0
100
AcDbSpline
210
0.0
220
0.0
230
1.0
 70
     8
 71
     3
 72
    12
 73
     8
 74
     0
 42
0.00000001
 43
0.00000001
 40
0.0
 40
0.0
 40
0.0
 40
0.0
 40
0.2174770912067093
 40
0.435370520825868
 40
0.649038872003453
 40
0.8610609605884209
 40
1.0
 40
1.0
 40
1.0
 40
1.0
 10
848.6018620367754
 20
88.73855595203813
 30
0.0
 10
848.6084706751471
 20
88.72957838642736
 30
0.0
 10
848.6217006034757
 20
88.71160606854308
 30
0.0
 10
848.7125885914319
 20
88.69993743976487
 30
0.0
 10
848.8439264467808
 20
88.70292158715017
 30
0.0
 10
848.9861511109503
 20
88.71773049901141
 30
0.0
 10
849.0790409355928
 20
88.73264971107037
 30
0.0
 10
849.1158143044289
 20
88.73855595203811
 30
0.0
  0
LINE
  5
2EF
330
1F
100
AcDbEntity
  8
0
100
AcDbLine
 10
847.6537382751
 20
317.2449865138
 30
0.0
 11
847.6297665721
 21
317.4730620332
 31
0.0
  0
LINE
  5
2F0
330
1F
100
AcDbEntity
  8
0
100
AcDbLine
 10
848.5778903337
 20
317.2449865138
 30
0.0
 11
847.6537382751
 21
317.2449865138
 31
0.0
  0
LINE
  5
2F1
330
1F
100
AcDbEntity
  8
0
100
AcDbLine
 10
848.6018620368
 20
317.4730620332
 30
0.0
 11
848.5778903337
 21
317.2449865138
 31
0.0
  0
SPLINE
  5
2F2
330
1F
100
AcDbEntity
  8
0
100
AcDbSpline
210
0.0
220
0.0
230
1.0
 70
     8
 71
     3
 72
    12
 73
     8
 74
     0
 42
0.00000001
 43
0.00000001
 40
0.0
 40
0.0
 40
0.0
 40
0.0
 40
0.2174770912066433
 40
0.4353705208257979
 40
0.6490388720033423
 40
0.861060960588251
 40
1.0
 40
1.0
 40
1.0
 40
1.0
 10
849.1158143044332
 20
317.4730620332007
 30
0.0
 10
849.0580416642732
 20
317.4820395988115
 30
0.0
 10
848.9423857839395
 20
317.5000119166958
 30
0.0
 10
848.788280920887
 20
317.511680545474
 30
0.0
 10
848.6730285992277
 20
317.5086963980887
 30
0.0
 10
848.6123170543337
 20
317.4938874862274
 30
0.0
 10
848.604827151292
 20
317.4789682741684
 30
0.0
 10
848.6018620367797
 20
317.4730620332007
 30
0.0
  0
LINE
  5
2F3
330
1F
100
AcDbEntity
  8
0
100
AcDbLine
 10
850.0778903337
 20
317.2449865138
 30
0.0
 11
849.1158143044
 21
317.4730620332
 31
0.0
  0
LINE
  5
2F4
330
1F
100
AcDbEntity
  8
0
100
AcDbLine
 10
847.1158143044
 20
317.4730620332
 30
0.0
 11
846.1537382751
 21
317.2449865138
 31
0.0
  0
SPLINE
  5
2F5
330
1F
100
AcDbEntity
  8
0
100
AcDbSpline
210
0.0
220
0.0
230
1.0
 70
     8
 71
     3
 72
    12
 73
     8
 74
     0
 42
0.00000001
 43
0.00000001
 40
0.0
 40
0.0
 40
0.0
 40
0.0
 40
0.2174770912067095
 40
0.4353705208258686
 40
0.6490388720034538
 40
0.8610609605884213
 40
1.0
 40
1.0
 40
1.0
 40
1.0
 10
847.6297665720867
 20
317.4730620332007
 30
0.0
 10
847.6231579337152
 20
317.4820395988115
 30
0.0
 10
847.6099280053866
 20
317.5000119166958
 30
0.0
 10
847.5190400174304
 20
317.511680545474
 30
0.0
 10
847.3877021620815
 20
317.5086963980888
 30
0.0
 10
847.2454774979119
 20
317.4938874862274
 30
0.0
 10
847.1525876732694
 20
317.4789682741684
 30
0.0
 10
847.1158143044333
 20
317.4730620332007
 30
0.0
  0
CIRCLE
  5
2F6
330
1F
100
AcDbEntity
  8
0
100
AcDbCircle
 10
848.1158143044
 20
203.1058089926
 30
0.0
 40
58.10000000000005
  0
CIRCLE
  5
2F7
330
1F
100
AcDbEntity
  8
0
100
AcDbCircle
 10
848.1158143044
 20
203.1058089926
 30
0.0
 40
61.90000000000006
  0
CIRCLE
  5
2F8
330
1F
100
AcDbEntity
  8
0
100
AcDbCircle
 10
848.1158143044
 20
203.1058089926
 30
0.0
 40
111.25
  0
SPLINE
  5
2F9
330
1F
100
AcDbEntity
  8
0
100
AcDbSpline
210
0.0
220
0.0
230
1.0
 70
     8
 71
     3
 72
     9
 73
     5
 74
     0
 42
0.00000001
 43
0.00000001
 40
0.0
 40
0.0
 40
0.0
 40
0.0
 40
0.6385996085335603
 40
1.0
 40
1.0
 40
1.0
 40
1.0
 10
931.0834393080219
 20
124.7055813063195
 30
0.0
 10
930.7227725858008
 20
124.3320987052219
 30
0.0
 10
930.157995035985
 20
123.7472524320537
 30
0.0
 10
929.5289632137814
 20
123.232960324118
 30
0.0
 10
929.3016308669921
 20
123.0470949549819
 30
0.0
  0
SPLINE
  5
2FA
330
1F
100
AcDbEntity
  8
0
100
AcDbSpline
210
0.0
220
0.0
230
1.0
 70
     8
 71
     3
 72
    10
 73
     6
 74
     0
 42
0.00000001
 43
0.00000001
 40
0.0
 40
0.0
 40
0.0
 40
0.0
 40
0.4513556201136114
 40
0.874207559457383
 40
1.0
 40
1.0
 40
1.0
 40
1.0
 10
843.4088670808246
 20
317.1587227994758
 30
0.0
 10
843.9264544000515
 20
317.1646717247867
 30
0.0
 10
844.928942741802
 20
317.1761938932184
 30
0.0
 10
846.0877135298938
 20
317.149544675772
 30
0.0
 10
846.699522929682
 20
316.9948909744206
 30
0.0
 10
846.8397977604607
 20
316.9594321831797
 30
0.0
  0
SPLINE
  5
2FB
330
1F
100
AcDbEntity
  8
0
100
AcDbSpline
210
0.0
220
0.0
230
1.0
 70
     8
 71
     3
 72
    24
 73
    20
 74
     0
 42
0.00000001
 43
0.00000001
 40
0.0
 40
0.0
 40
0.0
 40
0.0
 40
0.0659407989639554
 40
0.1319182387600694
 40
0.1978828420092371
 40
0.263828091925218
 40
0.3298198079541463
 40
0.3957610708887634
 40
0.4561948888644018
 40
0.5166013466799689
 40
0.5770157910181606
 40
0.6374420395478538
 40
0.6978406208764626
 40
0.7572027195172956
 40
0.8165159908141343
 40
0.87588256774333
 40
0.9351948184715545
 40
0.9956371071713787
 40
1.0
 40
1.0
 40
1.0
 40
1.0
 10
843.408867080823
 20
317.1587227994757
 30
0.0
 10
847.4064235798975
 20
317.2023366248701
 30
0.0
 10
855.4037578704638
 20
317.2895885102279
 30
0.0
 10
867.3330969275772
 20
315.8248105312488
 30
0.0
 10
879.0472709973578
 20
313.2073967307868
 30
0.0
 10
890.4227377101366
 20
309.3514955677869
 30
0.0
 10
901.3290575914559
 20
304.3315977294192
 30
0.0
 10
911.3626978829471
 20
298.3640103228246
 30
0.0
 10
920.4696707244423
 20
291.6236703409164
 30
0.0
 10
928.6387601981714
 20
284.2633160836497
 30
0.0
 10
936.0624814018422
 20
276.1528550448692
 30
0.0
 10
942.6724529477447
 20
267.3673662632956
 30
0.0
 10
948.3744304959263
 20
258.0413376881834
 30
0.0
 10
953.1343964676608
 20
248.2770431406935
 30
0.0
 10
956.9222823441966
 20
238.1647264531835
 30
0.0
 10
959.7680237493383
 20
227.7436337037538
 30
0.0
 10
961.5169037220849
 20
217.0346348662712
 30
0.0
 10
962.3113904387743
 20
209.525057666863
 30
0.0
 10
962.2151292350394
 20
205.6005851067919
 30
0.0
 10
962.20864862183
 20
205.3363770174906
 30
0.0
  0
SPLINE
  5
2FC
330
1F
100
AcDbEntity
  8
0
100
AcDbSpline
210
0.0
220
0.0
230
1.0
 70
     8
 71
     3
 72
    24
 73
    20
 74
     0
 42
0.00000001
 43
0.00000001
 40
0.0
 40
0.0
 40
0.0
 40
0.0
 40
0.0326856577133085
 40
0.095406265806658
 40
0.1581067629056632
 40
0.2208065692278085
 40
0.282408224064525
 40
0.3439760893471075
 40
0.405588800537548
 40
0.4671501753409528
 40
0.5298862131346105
 40
0.59256654478536
 40
0.6552978645068531
 40
0.71798635303965
 40
0.7807023602961803
 40
0.8422879347268657
 40
0.9038671970116116
 40
0.9654696589397008
 40
1.0
 40
1.0
 40
1.0
 40
1.0
 10
962.112317131231
 20
200.8779010394118
 30
0.0
 10
962.09827371223
 20
198.9694965468762
 30
0.0
 10
962.0572823337548
 20
193.399048863722
 30
0.0
 10
960.8388687055054
 20
184.225096117493
 30
0.0
 10
958.5456965067885
 20
173.4797192823684
 30
0.0
 10
955.1977300128299
 20
163.071650204999
 30
0.0
 10
950.9147758125404
 20
153.0901868326493
 30
0.0
 10
945.7354539702236
 20
143.6126363532842
 30
0.0
 10
939.6879538523872
 20
134.6688820035746
 30
0.0
 10
932.7790786748528
 20
126.2819478849174
 30
0.0
 10
925.0596039015201
 20
118.5472880579528
 30
0.0
 10
916.5789803731757
 20
111.5454898365732
 30
0.0
 10
907.4683549504434
 20
105.3932887878743
 30
0.0
 10
897.8060839796173
 20
100.1422878359513
 30
0.0
 10
887.7463223094757
 20
95.8736984431424
 30
0.0
 10
877.3880382455761
 20
92.5889554678303
 30
0.0
 10
866.8294861548591
 20
90.35790023530018
 30
0.0
 10
857.6779651769573
 20
89.15921880484264
 30
0.0
 10
852.0650714833888
 20
89.11389245026406
 30
0.0
 10
850.0489528688349
 20
89.09761148857395
 30
0.0
  0
SPLINE
  5
2FD
330
1F
100
AcDbEntity
  8
0
100
AcDbSpline
210
0.0
220
0.0
230
1.0
 70
     8
 71
     3
 72
    25
 73
    21
 74
     0
 42
0.00000001
 43
0.00000001
 40
0.0
 40
0.0
 40
0.0
 40
0.0
 40
0.0043543649654151
 40
0.0670230528994061
 40
0.1296391892547678
 40
0.1923112346456681
 40
0.2549289483656451
 40
0.3175937627780857
 40
0.379103144618134
 40
0.4406358705448872
 40
0.5021597586966496
 40
0.5636755395113933
 40
0.6263345593379274
 40
0.6889552840580502
 40
0.7516257300037555
 40
0.8142414599802315
 40
0.8769127453041339
 40
0.9384137078450586
 40
0.9999595695954532
 40
1.0
 40
1.0
 40
1.0
 40
1.0
 10
846.0795581723933
 20
89.0074618393162
 30
0.0
 10
845.8252456805022
 20
89.000977303625
 30
0.0
 10
841.9108288292815
 20
88.90116633644335
 30
0.0
 10
834.3445129378052
 20
89.68266292034015
 30
0.0
 10
823.5041028982569
 20
91.44121600825807
 30
0.0
 10
812.8947102841845
 20
94.34522952566873
 30
0.0
 10
802.6073329300216
 20
98.22610619740435
 30
0.0
 10
792.8029721847449
 20
103.0548494415646
 30
0.0
 10
783.5565302270804
 20
108.759768439245
 30
0.0
 10
774.943315600016
 20
115.271616919044
 30
0.0
 10
766.9824857200227
 20
122.5673540159649
 30
0.0
 10
759.7012885772801
 20
130.6306929640009
 30
0.0
 10
753.1823845467187
 20
139.4021748750045
 30
0.0
 10
747.5015234361384
 20
148.8179366422534
 30
0.0
 10
742.7505953369669
 20
158.7325430457581
 30
0.0
 10
738.9818917963561
 20
169.0614676680876
 30
0.0
 10
736.2058082402821
 20
179.6382845597138
 30
0.0
 10
734.5863987874255
 20
190.3658541334186
 30
0.0
 10
733.8744995669247
 20
197.5551434296516
 30
0.0
 10
733.9827719138412
 20
201.1512627411117
 30
0.0
 10
733.9828429928855
 20
201.1536235352668
 30
0.0
  0
SPLINE
  5
2FE
330
1F
100
AcDbEntity
  8
0
100
AcDbSpline
210
0.0
220
0.0
230
1.0
 70
     8
 71
     3
 72
    21
 73
    17
 74
     0
 42
0.00000001
 43
0.00000001
 40
0.0
 40
0.0
 40
0.0
 40
0.0
 40
0.0452972131192145
 40
0.1191710899481581
 40
0.1943796350643008
 40
0.2695724391748886
 40
0.3448041137162765
 40
0.4199830342619273
 40
0.4952254050460564
 40
0.5690583596810993
 40
0.6429577063625855
 40
0.7167950584569719
 40
0.7906851405249052
 40
0.8686337436576924
 40
0.9465913288052623
 40
1.0
 40
1.0
 40
1.0
 40
1.0
 10
734.1079356171884
 20
205.3123097212336
 30
0.0
 10
734.1402170061973
 20
207.5173497174728
 30
0.0
 10
734.2251451518455
 20
213.3185238214847
 30
0.0
 10
735.5147655264616
 20
222.7143554869743
 30
0.0
 10
737.8636812451327
 20
233.3814897168056
 30
0.0
 10
741.291629039214
 20
243.8323596657006
 30
0.0
 10
745.6947830793433
 20
253.90475224551
 30
0.0
 10
751.05009053999
 20
263.5103400212201
 30
0.0
 10
757.2630224344359
 20
272.5000353953039
 30
0.0
 10
764.2642390792353
 20
280.8100492651677
 30
0.0
 10
771.9681767979514
 20
288.3742078134524
 30
0.0
 10
780.3554388617538
 20
295.1775923239884
 30
0.0
 10
789.507585930828
 20
301.2782552817204
 30
0.0
 10
799.3987094633023
 20
306.5181609481638
 30
0.0
 10
808.8017617289089
 20
310.5085756199113
 30
0.0
 10
814.9604736102135
 20
312.2346107565272
 30
0.0
 10
817.4643785475256
 20
312.9363529363597
 30
0.0
  0
SPLINE
  5
2FF
330
1F
100
AcDbEntity
  8
0
100
AcDbSpline
210
0.0
220
0.0
230
1.0
 70
     8
 71
     3
 72
    10
 73
     6
 74
     0
 42
0.00000001
 43
0.00000001
 40
0.0
 40
0.0
 40
0.0
 40
0.0
 40
0.3883938417727377
 40
0.6938958927939143
 40
1.0
 40
1.0
 40
1.0
 40
1.0
 10
817.2528934632685
 20
312.928352663492
 30
0.0
 10
817.376675460283
 20
312.9819083095761
 30
0.0
 10
817.5978216528645
 20
313.0775896486107
 30
0.0
 10
817.927248964725
 20
313.1879083375194
 30
0.0
 10
818.1314192709052
 20
313.2460272715736
 30
0.0
 10
818.2336049151315
 20
313.2751153443164
 30
0.0
  0
SPLINE
  5
300
330
1F
100
AcDbEntity
  8
0
100
AcDbSpline
210
0.0
220
0.0
230
1.0
 70
     8
 71
     3
 72
    10
 73
     6
 74
     0
 42
0.00000001
 43
0.00000001
 40
0.0
 40
0.0
 40
0.0
 40
0.0
 40
0.3405957030413487
 40
0.6694009545405216
 40
1.0
 40
1.0
 40
1.0
 40
1.0
 10
818.2336049151315
 20
313.2751153443164
 30
0.0
 10
821.0473809477013
 20
313.9699427230344
 30
0.0
 10
826.5775281141113
 20
315.335544538916
 30
0.0
 10
835.0016338499673
 20
316.6248057020886
 30
0.0
 10
840.6013782956982
 20
316.9804279643093
 30
0.0
 10
843.4088670808246
 20
317.1587227994758
 30
0.0
  0
INSERT
  5
30C
330
1F
100
AcDbEntity
  8
0
  6
Continuous
 62
     7
370
    18
100
AcDbBlockReference
  2
SW_CENTERMARKSYMBOL_0
 10
848.1158143044
 20
203.1058089926
 30
0.0
  0
ENDSEC
  0
SECTION
  2
OBJECTS
  0
DICTIONARY
  5
C
330
0
100
AcDbDictionary
281
     1
  3
ACAD_GROUP
350
D
  3
ACAD_LAYOUT
350
1A
  3
ACAD_MLINESTYLE
350
17
  3
ACAD_PLOTSETTINGS
350
19
  3
ACAD_PLOTSTYLENAME
350
E
  3
ACAD_SCALELIST
350
47
  3
DWGPROPS
350
30D
  0
DICTIONARY
  5
D
102
{ACAD_REACTORS
330
C
102
}
330
C
100
AcDbDictionary
281
     1
  0
DICTIONARY
  5
1A
102
{ACAD_REACTORS
330
C
102
}
330
C
100
AcDbDictionary
281
     1
  3
Layout1
350
1E
  3
Layout2
350
26
  3
Model
350
22
  0
DICTIONARY
  5
17
102
{ACAD_REACTORS
330
C
102
}
330
C
100
AcDbDictionary
281
     1
  3
Standard
350
18
  0
DICTIONARY
  5
19
102
{ACAD_REACTORS
330
C
102
}
330
C
100
AcDbDictionary
281
     1
  0
ACDBDICTIONARYWDFLT
  5
E
102
{ACAD_REACTORS
330
C
102
}
330
C
100
AcDbDictionary
281
     1
  3
Normal
350
F
100
AcDbDictionaryWithDefault
340
F
  0
DICTIONARY
  5
47
102
{ACAD_REACTORS
330
C
102
}
330
C
100
AcDbDictionary
281
     1
  3
A0
350
48
  3
A1
350
49
  3
A2
350
4A
  3
A3
350
4B
  3
A4
350
4C
  3
A5
350
4D
  3
A6
350
4E
  3
A7
350
4F
  3
A8
350
50
  3
A9
350
51
  3
B0
350
52
  3
B1
350
53
  3
B2
350
54
  3
B3
350
55
  3
B4
350
56
  3
B5
350
57
  3
B6
350
58
  3
B7
350
59
  3
B8
350
5A
  3
B9
350
5B
  3
C0
350
5C
  3
C1
350
5D
  3
C2
350
5E
  3
C3
350
5F
  3
C4
350
60
  3
C5
350
61
  3
C6
350
62
  3
C7
350
63
  3
C8
350
64
  3
C9
350
65
  3
D0
350
66
  3
D1
350
67
  3
D2
350
68
  0
XRECORD
  5
30D
102
{ACAD_REACTORS
330
C
102
}
330
C
100
AcDbXrecord
280
     1
  1
DWGPROPS COOKIE
  2

  3

  4

  6

  7

  8
Emilis.Masalas
  9

300
=
301
=
302
=
303
=
304
=
305
=
306
=
307
=
308
=
309
=
 40
0.0
 41
2459179.590735243
 42
2459179.590736273
  1

 90
        0
  0
LAYOUT
  5
1E
102
{ACAD_REACTORS
330
1A
102
}
330
1A
100
AcDbPlotSettings
  1

  2
none_device
  4

  6

 40
0.0
 41
0.0
 42
0.0
 43
0.0
 44
0.0
 45
0.0
 46
0.0
 47
0.0
 48
0.0
 49
0.0
140
0.0
141
0.0
142
1.0
143
1.0
 70
   688
 72
     1
 73
     0
 74
     5
  7

 75
    16
147
1.0
148
0.0
149
0.0
100
AcDbLayout
  1
Layout1
 70
     1
 71
     1
 10
0.0
 20
0.0
 11
420.0
 21
297.0
 12
0.0
 22
0.0
 32
0.0
 14
1.0000000000E+20
 24
1.0000000000E+20
 34
1.0000000000E+20
 15
-1.0000000000E+20
 25
-1.0000000000E+20
 35
-1.0000000000E+20
146
0.0
 13
0.0
 23
0.0
 33
0.0
 16
1.0
 26
0.0
 36
0.0
 17
0.0
 27
1.0
 37
0.0
 76
     0
330
1B
  0
LAYOUT
  5
26
102
{ACAD_REACTORS
330
1A
102
}
330
1A
100
AcDbPlotSettings
  1

  2
none_device
  4

  6

 40
0.0
 41
0.0
 42
0.0
 43
0.0
 44
0.0
 45
0.0
 46
0.0
 47
0.0
 48
0.0
 49
0.0
140
0.0
141
0.0
142
1.0
143
1.0
 70
   688
 72
     1
 73
     0
 74
     5
  7

 75
    16
147
1.0
148
0.0
149
0.0
100
AcDbLayout
  1
Layout2
 70
     1
 71
     2
 10
0.0
 20
0.0
 11
0.0
 21
0.0
 12
0.0
 22
0.0
 32
0.0
 14
0.0
 24
0.0
 34
0.0
 15
0.0
 25
0.0
 35
0.0
146
0.0
 13
0.0
 23
0.0
 33
0.0
 16
1.0
 26
0.0
 36
0.0
 17
0.0
 27
1.0
 37
0.0
 76
     0
330
23
  0
LAYOUT
  5
22
102
{ACAD_REACTORS
330
1A
102
}
330
1A
100
AcDbPlotSettings
  1

  2
none_device
  4
Letter_(8.50_x_11.00_Inches)
  6

 40
6.35
 41
6.35
 42
6.35000508
 43
6.35000508
 44
215.9
 45
279.4
 46
0.0
 47
0.0
 48
0.0
 49
0.0
140
0.0
141
0.0
142
1.0
143
1.0
 70
  1712
 72
     1
 73
     0
 74
     0
  7

 75
     0
147
1.0
148
0.0
149
0.0
100
AcDbLayout
  1
Model
 70
     1
 71
     0
 10
0.0
 20
0.0
 11
420.0
 21
297.0
 12
0.0
 22
0.0
 32
0.0
 14
0.0
 24
0.0
 34
0.0
 15
420.0
 25
297.0
 35
0.0
146
0.0
 13
0.0
 23
0.0
 33
0.0
 16
1.0
 26
0.0
 36
0.0
 17
0.0
 27
1.0
 37
0.0
 76
     0
330
1F
331
29
  0
MLINESTYLE
  5
18
102
{ACAD_REACTORS
330
17
102
}
330
17
100
AcDbMlineStyle
  2
Standard
 70
     0
  3

 62
   256
 51
90.0
 52
90.0
 71
     2
 49
0.5
 62
   256
  6
BYLAYER
 49
-0.5
 62
   256
  6
BYLAYER
  0
ACDBPLACEHOLDER
  5
F
102
{ACAD_REACTORS
330
E
102
}
330
E
  0
SCALE
  5
48
102
{ACAD_REACTORS
330
47
102
}
330
47
100
AcDbScale
 70
     0
300
1:1
140
1.0
141
1.0
290
     1
  0
SCALE
  5
49
102
{ACAD_REACTORS
330
47
102
}
330
47
100
AcDbScale
 70
     0
300
1:2
140
1.0
141
2.0
290
     0
  0
SCALE
  5
4A
102
{ACAD_REACTORS
330
47
102
}
330
47
100
AcDbScale
 70
     0
300
1:4
140
1.0
141
4.0
290
     0
  0
SCALE
  5
4B
102
{ACAD_REACTORS
330
47
102
}
330
47
100
AcDbScale
 70
     0
300
1:5
140
1.0
141
5.0
290
     0
  0
SCALE
  5
4C
102
{ACAD_REACTORS
330
47
102
}
330
47
100
AcDbScale
 70
     0
300
1:8
140
1.0
141
8.0
290
     0
  0
SCALE
  5
4D
102
{ACAD_REACTORS
330
47
102
}
330
47
100
AcDbScale
 70
     0
300
1:10
140
1.0
141
10.0
290
     0
  0
SCALE
  5
4E
102
{ACAD_REACTORS
330
47
102
}
330
47
100
AcDbScale
 70
     0
300
1:16
140
1.0
141
16.0
290
     0
  0
SCALE
  5
4F
102
{ACAD_REACTORS
330
47
102
}
330
47
100
AcDbScale
 70
     0
300
1:20
140
1.0
141
20.0
290
     0
  0
SCALE
  5
50
102
{ACAD_REACTORS
330
47
102
}
330
47
100
AcDbScale
 70
     0
300
1:30
140
1.0
141
30.0
290
     0
  0
SCALE
  5
51
102
{ACAD_REACTORS
330
47
102
}
330
47
100
AcDbScale
 70
     0
300
1:40
140
1.0
141
40.0
290
     0
  0
SCALE
  5
52
102
{ACAD_REACTORS
330
47
102
}
330
47
100
AcDbScale
 70
     0
300
1:50
140
1.0
141
50.0
290
     0
  0
SCALE
  5
53
102
{ACAD_REACTORS
330
47
102
}
330
47
100
AcDbScale
 70
     0
300
1:100
140
1.0
141
100.0
290
     0
  0
SCALE
  5
54
102
{ACAD_REACTORS
330
47
102
}
330
47
100
AcDbScale
 70
     0
300
2:1
140
2.0
141
1.0
290
     0
  0
SCALE
  5
55
102
{ACAD_REACTORS
330
47
102
}
330
47
100
AcDbScale
 70
     0
300
4:1
140
4.0
141
1.0
290
     0
  0
SCALE
  5
56
102
{ACAD_REACTORS
330
47
102
}
330
47
100
AcDbScale
 70
     0
300
8:1
140
8.0
141
1.0
290
     0
  0
SCALE
  5
57
102
{ACAD_REACTORS
330
47
102
}
330
47
100
AcDbScale
 70
     0
300
10:1
140
10.0
141
1.0
290
     0
  0
SCALE
  5
58
102
{ACAD_REACTORS
330
47
102
}
330
47
100
AcDbScale
 70
     0
300
100:1
140
100.0
141
1.0
290
     0
  0
SCALE
  5
59
102
{ACAD_REACTORS
330
47
102
}
330
47
100
AcDbScale
 70
     0
300
1/128" = 1'-0"
140
0.0078125
141
12.0
290
     0
  0
SCALE
  5
5A
102
{ACAD_REACTORS
330
47
102
}
330
47
100
AcDbScale
 70
     0
300
1/64" = 1'-0"
140
0.015625
141
12.0
290
     0
  0
SCALE
  5
5B
102
{ACAD_REACTORS
330
47
102
}
330
47
100
AcDbScale
 70
     0
300
1/32" = 1'-0"
140
0.03125
141
12.0
290
     0
  0
SCALE
  5
5C
102
{ACAD_REACTORS
330
47
102
}
330
47
100
AcDbScale
 70
     0
300
1/16" = 1'-0"
140
0.0625
141
12.0
290
     0
  0
SCALE
  5
5D
102
{ACAD_REACTORS
330
47
102
}
330
47
100
AcDbScale
 70
     0
300
3/32" = 1'-0"
140
0.09375
141
12.0
290
     0
  0
SCALE
  5
5E
102
{ACAD_REACTORS
330
47
102
}
330
47
100
AcDbScale
 70
     0
300
1/8" = 1'-0"
140
0.125
141
12.0
290
     0
  0
SCALE
  5
5F
102
{ACAD_REACTORS
330
47
102
}
330
47
100
AcDbScale
 70
     0
300
3/16" = 1'-0"
140
0.1875
141
12.0
290
     0
  0
SCALE
  5
60
102
{ACAD_REACTORS
330
47
102
}
330
47
100
AcDbScale
 70
     0
300
1/4" = 1'-0"
140
0.25
141
12.0
290
     0
  0
SCALE
  5
61
102
{ACAD_REACTORS
330
47
102
}
330
47
100
AcDbScale
 70
     0
300
3/8" = 1'-0"
140
0.375
141
12.0
290
     0
  0
SCALE
  5
62
102
{ACAD_REACTORS
330
47
102
}
330
47
100
AcDbScale
 70
     0
300
1/2" = 1'-0"
140
0.5
141
12.0
290
     0
  0
SCALE
  5
63
102
{ACAD_REACTORS
330
47
102
}
330
47
100
AcDbScale
 70
     0
300
3/4" = 1'-0"
140
0.75
141
12.0
290
     0
  0
SCALE
  5
64
102
{ACAD_REACTORS
330
47
102
}
330
47
100
AcDbScale
 70
     0
300
1" = 1'-0"
140
1.0
141
12.0
290
     0
  0
SCALE
  5
65
102
{ACAD_REACTORS
330
47
102
}
330
47
100
AcDbScale
 70
     0
300
1-1/2" = 1'-0"
140
1.5
141
12.0
290
     0
  0
SCALE
  5
66
102
{ACAD_REACTORS
330
47
102
}
330
47
100
AcDbScale
 70
     0
300
3" = 1'-0"
140
3.0
141
12.0
290
     0
  0
SCALE
  5
67
102
{ACAD_REACTORS
330
47
102
}
330
47
100
AcDbScale
 70
     0
300
6" = 1'-0"
140
6.0
141
12.0
290
     0
  0
SCALE
  5
68
102
{ACAD_REACTORS
330
47
102
}
330
47
100
AcDbScale
 70
     0
300
1'-0" = 1'-0"
140
12.0
141
12.0
290
     0
  0
ENDSEC
  0
EOF
