  0
SECTION
  2
HEADER
  9
$ACADVER
  1
AC1015
  9
$ACADMAINTVER
 70
     6
  9
$DWGCODEPAGE
  3
ANSI_1257
  9
$INSBASE
 10
0.0
 20
0.0
 30
0.0
  9
$EXTMIN
 10
0.0
 20
0.0
 30
0.0
  9
$EXTMAX
 10
420.0
 20
297.0
 30
0.0
  9
$LIMMIN
 10
0.0
 20
0.0
  9
$LIMMAX
 10
420.0
 20
297.0
  9
$ORTHOMODE
 70
     0
  9
$REGENMODE
 70
     1
  9
$FILLMODE
 70
     1
  9
$QTEXTMODE
 70
     0
  9
$MIRRTEXT
 70
     1
  9
$LTSCALE
 40
1.0
  9
$ATTMODE
 70
     1
  9
$TEXTSIZE
 40
5.6444444444
  9
$TRACEWID
 40
1.0
  9
$TEXTSTYLE
  7
Standard
  9
$CLAYER
  8
0
  9
$CELTYPE
  6
ByLayer
  9
$CECOLOR
 62
   256
  9
$CELTSCALE
 40
1.0
  9
$DISPSILH
 70
     0
  9
$DIMSCALE
 40
1.0
  9
$DIMASZ
 40
3.175
  9
$DIMEXO
 40
1.0
  9
$DIMDLI
 40
3.75
  9
$DIMRND
 40
0.0
  9
$DIMDLE
 40
0.0
  9
$DIMEXE
 40
1.0
  9
$DIMTP
 40
0.0
  9
$DIMTM
 40
0.0
  9
$DIMTXT
 40
4.9388888889
  9
$DIMCEN
 40
2.5
  9
$DIMTSZ
 40
0.0
  9
$DIMTOL
 70
     0
  9
$DIMLIM
 70
     0
  9
$DIMTIH
 70
     1
  9
$DIMTOH
 70
     1
  9
$DIMSE1
 70
     0
  9
$DIMSE2
 70
     0
  9
$DIMTAD
 70
     1
  9
$DIMZIN
 70
     0
  9
$DIMBLK
  1

  9
$DIMASO
 70
     1
  9
$DIMSHO
 70
     1
  9
$DIMPOST
  1

  9
$DIMAPOST
  1

  9
$DIMALT
 70
     0
  9
$DIMALTD
 70
     3
  9
$DIMALTF
 40
0.0393700787
  9
$DIMLFAC
 40
1.0
  9
$DIMTOFL
 70
     1
  9
$DIMTVP
 40
0.0
  9
$DIMTIX
 70
     0
  9
$DIMSOXD
 70
     0
  9
$DIMSAH
 70
     0
  9
$DIMBLK1
  1

  9
$DIMBLK2
  1

  9
$DIMSTYLE
  2
ISO-25
  9
$DIMCLRD
 70
     0
  9
$DIMCLRE
 70
     0
  9
$DIMCLRT
 70
     0
  9
$DIMTFAC
 40
1.0
  9
$DIMGAP
 40
1.524
  9
$DIMJUST
 70
     0
  9
$DIMSD1
 70
     0
  9
$DIMSD2
 70
     0
  9
$DIMTOLJ
 70
     0
  9
$DIMTZIN
 70
     0
  9
$DIMALTZ
 70
     0
  9
$DIMALTTZ
 70
     0
  9
$DIMUPT
 70
     0
  9
$DIMDEC
 70
     1
  9
$DIMTDEC
 70
     1
  9
$DIMALTU
 70
     2
  9
$DIMALTTD
 70
     3
  9
$DIMTXSTY
  7
Standard
  9
$DIMAUNIT
 70
     0
  9
$DIMADEC
 70
     1
  9
$DIMALTRND
 40
0.0
  9
$DIMAZIN
 70
     0
  9
$DIMDSEP
 70
    44
  9
$DIMATFIT
 70
     3
  9
$DIMFRAC
 70
     0
  9
$DIMLDRBLK
  1

  9
$DIMLUNIT
 70
     2
  9
$DIMLWD
 70
    -2
  9
$DIMLWE
 70
    -2
  9
$DIMTMOVE
 70
     0
  9
$LUNITS
 70
     2
  9
$LUPREC
 70
     1
  9
$SKETCHINC
 40
1.0
  9
$FILLETRAD
 40
10.0
  9
$AUNITS
 70
     0
  9
$AUPREC
 70
     1
  9
$MENU
  1
.
  9
$ELEVATION
 40
0.0
  9
$PELEVATION
 40
0.0
  9
$THICKNESS
 40
0.0
  9
$LIMCHECK
 70
     0
  9
$CHAMFERA
 40
0.0
  9
$CHAMFERB
 40
0.0
  9
$CHAMFERC
 40
0.0
  9
$CHAMFERD
 40
0.0
  9
$SKPOLY
 70
     0
  9
$TDCREATE
 40
2459179.694508461
  9
$TDUCREATE
 40
2459179.611175127
  9
$TDUPDATE
 40
2459179.694509143
  9
$TDUUPDATE
 40
2459179.61117581
  9
$TDINDWG
 40
0.0000000116
  9
$TDUSRTIMER
 40
0.0000000116
  9
$USRTIMER
 70
     1
  9
$ANGBASE
 50
0.0
  9
$ANGDIR
 70
     0
  9
$PDMODE
 70
     0
  9
$PDSIZE
 40
-1.0
  9
$PLINEWID
 40
0.0
  9
$SPLFRAME
 70
     0
  9
$SPLINETYPE
 70
     6
  9
$SPLINESEGS
 70
     8
  9
$HANDSEED
  5
2CF
  9
$SURFTAB1
 70
     6
  9
$SURFTAB2
 70
     6
  9
$SURFTYPE
 70
     6
  9
$SURFU
 70
     6
  9
$SURFV
 70
     6
  9
$UCSBASE
  2

  9
$UCSNAME
  2

  9
$UCSORG
 10
0.0
 20
0.0
 30
0.0
  9
$UCSXDIR
 10
1.0
 20
0.0
 30
0.0
  9
$UCSYDIR
 10
0.0
 20
1.0
 30
0.0
  9
$UCSORTHOREF
  2

  9
$UCSORTHOVIEW
 70
     0
  9
$UCSORGTOP
 10
0.0
 20
0.0
 30
0.0
  9
$UCSORGBOTTOM
 10
0.0
 20
0.0
 30
0.0
  9
$UCSORGLEFT
 10
0.0
 20
0.0
 30
0.0
  9
$UCSORGRIGHT
 10
0.0
 20
0.0
 30
0.0
  9
$UCSORGFRONT
 10
0.0
 20
0.0
 30
0.0
  9
$UCSORGBACK
 10
0.0
 20
0.0
 30
0.0
  9
$PUCSBASE
  2

  9
$PUCSNAME
  2

  9
$PUCSORG
 10
0.0
 20
0.0
 30
0.0
  9
$PUCSXDIR
 10
1.0
 20
0.0
 30
0.0
  9
$PUCSYDIR
 10
0.0
 20
1.0
 30
0.0
  9
$PUCSORTHOREF
  2

  9
$PUCSORTHOVIEW
 70
     0
  9
$PUCSORGTOP
 10
0.0
 20
0.0
 30
0.0
  9
$PUCSORGBOTTOM
 10
0.0
 20
0.0
 30
0.0
  9
$PUCSORGLEFT
 10
0.0
 20
0.0
 30
0.0
  9
$PUCSORGRIGHT
 10
0.0
 20
0.0
 30
0.0
  9
$PUCSORGFRONT
 10
0.0
 20
0.0
 30
0.0
  9
$PUCSORGBACK
 10
0.0
 20
0.0
 30
0.0
  9
$USERI1
 70
     0
  9
$USERI2
 70
     0
  9
$USERI3
 70
     0
  9
$USERI4
 70
     0
  9
$USERI5
 70
     0
  9
$USERR1
 40
0.0
  9
$USERR2
 40
0.0
  9
$USERR3
 40
0.0
  9
$USERR4
 40
0.0
  9
$USERR5
 40
0.0
  9
$WORLDVIEW
 70
     1
  9
$SHADEDGE
 70
     3
  9
$SHADEDIF
 70
    70
  9
$TILEMODE
 70
     1
  9
$MAXACTVP
 70
    64
  9
$PINSBASE
 10
0.0
 20
0.0
 30
0.0
  9
$PLIMCHECK
 70
     0
  9
$PEXTMIN
 10
1.0000000000E+20
 20
1.0000000000E+20
 30
1.0000000000E+20
  9
$PEXTMAX
 10
-1.0000000000E+20
 20
-1.0000000000E+20
 30
-1.0000000000E+20
  9
$PLIMMIN
 10
0.0
 20
0.0
  9
$PLIMMAX
 10
420.0
 20
297.0
  9
$UNITMODE
 70
     0
  9
$VISRETAIN
 70
     1
  9
$PLINEGEN
 70
     0
  9
$PSLTSCALE
 70
     1
  9
$TREEDEPTH
 70
  3020
  9
$CMLSTYLE
  2
Standard
  9
$CMLJUST
 70
     0
  9
$CMLSCALE
 40
20.0
  9
$PROXYGRAPHICS
 70
     1
  9
$MEASUREMENT
 70
     1
  9
$CELWEIGHT
370
    -1
  9
$ENDCAPS
280
     0
  9
$JOINSTYLE
280
     0
  9
$LWDISPLAY
290
     1
  9
$INSUNITS
 70
     4
  9
$HYPERLINKBASE
  1

  9
$STYLESHEET
  1

  9
$XEDIT
290
     1
  9
$CEPSNTYPE
380
     0
  9
$PSTYLEMODE
290
     1
  9
$FINGERPRINTGUID
  2
{23dc9ad8-c162-4c6c-9dba-af9b899afc70}
  9
$VERSIONGUID
  2
{FAEB1C32-E019-11D5-929B-00C0DF256EC4}
  9
$EXTNAMES
290
     1
  9
$PSVPSCALE
 40
0.0
  9
$OLESTARTUP
290
     0
  0
ENDSEC
  0
SECTION
  2
CLASSES
  0
CLASS
  1
ACDBDICTIONARYWDFLT
  2
AcDbDictionaryWithDefault
  3
ObjectDBX Classes
 90
        0
280
     0
281
     0
  0
CLASS
  1
VISUALSTYLE
  2
AcDbVisualStyle
  3
ObjectDBX Classes
 90
     4095
280
     0
281
     0
  0
CLASS
  1
MATERIAL
  2
AcDbMaterial
  3
ObjectDBX Classes
 90
     1153
280
     0
281
     0
  0
CLASS
  1
SCALE
  2
AcDbScale
  3
ObjectDBX Classes
 90
     1153
280
     0
281
     0
  0
CLASS
  1
TABLESTYLE
  2
AcDbTableStyle
  3
ObjectDBX Classes
 90
     4095
280
     0
281
     0
  0
CLASS
  1
MLEADERSTYLE
  2
AcDbMLeaderStyle
  3
ACDB_MLEADERSTYLE_CLASS
 90
     4095
280
     0
281
     0
  0
CLASS
  1
SUN
  2
AcDbSun
  3
SCENEOE
 90
     1153
280
     0
281
     0
  0
CLASS
  1
ACDBPLACEHOLDER
  2
AcDbPlaceHolder
  3
ObjectDBX Classes
 90
        0
280
     0
281
     0
  0
CLASS
  1
LAYOUT
  2
AcDbLayout
  3
ObjectDBX Classes
 90
        0
280
     0
281
     0
  0
ENDSEC
  0
SECTION
  2
TABLES
  0
TABLE
  2
VPORT
  5
8
330
0
100
AcDbSymbolTable
 70
     1
  0
VPORT
  5
29
330
8
100
AcDbSymbolTableRecord
100
AcDbViewportTableRecord
  2
*Active
 70
     0
 10
0.0
 20
0.0
 11
1.0
 21
1.0
 12
210.0
 22
148.5
 13
0.0
 23
0.0
 14
10.0
 24
10.0
 15
10.0
 25
10.0
 16
0.0
 26
0.0
 36
1.0
 17
0.0
 27
0.0
 37
0.0
 40
297.0
 41
1.4141414141
 42
50.0
 43
0.0
 44
0.0
 50
0.0
 51
0.0
 71
     0
 72
  2000
 73
     1
 74
     3
 75
     0
 76
     0
 77
     0
 78
     0
281
     0
 65
     1
110
0.0
120
0.0
130
0.0
111
1.0
121
0.0
131
0.0
112
0.0
122
1.0
132
0.0
 79
     0
146
0.0
  0
ENDTAB
  0
TABLE
  2
LTYPE
  5
5
330
0
100
AcDbSymbolTable
 70
     6
  0
LTYPE
  5
14
330
5
100
AcDbSymbolTableRecord
100
AcDbLinetypeTableRecord
  2
ByBlock
 70
     0
  3

 72
    65
 73
     0
 40
0.0
  0
LTYPE
  5
15
330
5
100
AcDbSymbolTableRecord
100
AcDbLinetypeTableRecord
  2
ByLayer
 70
     0
  3

 72
    65
 73
     0
 40
0.0
  0
LTYPE
  5
16
330
5
100
AcDbSymbolTableRecord
100
AcDbLinetypeTableRecord
  2
Continuous
 70
     0
  3
Solid line
 72
    65
 73
     0
 40
0.0
  0
LTYPE
  5
6E
330
5
100
AcDbSymbolTableRecord
100
AcDbLinetypeTableRecord
  2
HIDDEN
 70
     0
  3
Hidden __ __ __ __ __ __ __ __ __ __ __ __ __ __
 72
    65
 73
     2
 40
1.905
 49
1.27
 74
     0
 49
-0.635
 74
     0
  0
LTYPE
  5
6F
330
5
100
AcDbSymbolTableRecord
100
AcDbLinetypeTableRecord
  2
PHANTOM
 70
     0
  3
Phantom ______  __  __  ______  __  __  ______
 72
    65
 73
     6
 40
12.7
 49
6.35
 74
     0
 49
-1.27
 74
     0
 49
1.27
 74
     0
 49
-1.27
 74
     0
 49
1.27
 74
     0
 49
-1.27
 74
     0
  0
LTYPE
  5
70
330
5
100
AcDbSymbolTableRecord
100
AcDbLinetypeTableRecord
  2
CENTER
 70
     0
  3
Center ____ _ ____ _ ____ _ ____ _ ____ _ ____
 72
    65
 73
     4
 40
10.16
 49
6.35
 74
     0
 49
-1.27
 74
     0
 49
1.27
 74
     0
 49
-1.27
 74
     0
  0
LTYPE
  5
71
330
5
100
AcDbSymbolTableRecord
100
AcDbLinetypeTableRecord
  2
CENTERX2
 70
     0
  3
Center (2x) ________  __  ________  __  _____
 72
    65
 73
     4
 40
20.32
 49
12.7
 74
     0
 49
-2.54
 74
     0
 49
2.54
 74
     0
 49
-2.54
 74
     0
  0
LTYPE
  5
72
330
5
100
AcDbSymbolTableRecord
100
AcDbLinetypeTableRecord
  2
DOT2
 70
     0
  3
Dot (.5x) ........................................
 72
    65
 73
     2
 40
0.635
 49
0.0
 74
     0
 49
-0.635
 74
     0
  0
ENDTAB
  0
TABLE
  2
LAYER
  5
2
330
0
100
AcDbSymbolTable
 70
     2
  0
LAYER
  5
10
330
2
100
AcDbSymbolTableRecord
100
AcDbLayerTableRecord
  2
0
 70
     0
 62
     7
  6
Continuous
370
    -3
390
F
  0
LAYER
  5
73
330
2
100
AcDbSymbolTableRecord
100
AcDbLayerTableRecord
  2
LENKIMO
 70
     0
 62
     1
  6
CENTERX2
370
    -3
390
F
  0
ENDTAB
  0
TABLE
  2
STYLE
  5
3
330
0
100
AcDbSymbolTable
 70
     1
  0
STYLE
  5
11
330
3
100
AcDbSymbolTableRecord
100
AcDbTextStyleTableRecord
  2
Standard
 70
     0
 40
0.0
 41
1.0
 50
0.0
 71
     0
 42
5.6444444444
  3
txt
  4

  0
ENDTAB
  0
TABLE
  2
VIEW
  5
6
330
0
100
AcDbSymbolTable
 70
     0
  0
ENDTAB
  0
TABLE
  2
UCS
  5
7
330
0
100
AcDbSymbolTable
 70
     0
  0
ENDTAB
  0
TABLE
  2
APPID
  5
9
330
0
100
AcDbSymbolTable
 70
     1
  0
APPID
  5
12
330
9
100
AcDbSymbolTableRecord
100
AcDbRegAppTableRecord
  2
ACAD
 70
     0
  0
ENDTAB
  0
TABLE
  2
DIMSTYLE
  5
A
330
0
100
AcDbSymbolTable
 70
     1
100
AcDbDimStyleTable
  0
DIMSTYLE
105
27
330
A
100
AcDbSymbolTableRecord
100
AcDbDimStyleTableRecord
  2
ISO-25
 70
     0
 41
2.5
 42
0.625
 43
3.75
 44
1.25
 73
     0
 74
     0
 77
     1
 78
     8
140
2.5
141
2.5
143
0.0393700787
147
0.625
171
     3
172
     1
178
     0
271
     2
272
     2
274
     3
278
    44
283
     0
284
     8
340
11
  0
ENDTAB
  0
TABLE
  2
BLOCK_RECORD
  5
1
330
0
100
AcDbSymbolTable
 70
     3
  0
BLOCK_RECORD
  5
1F
330
1
100
AcDbSymbolTableRecord
100
AcDbBlockTableRecord
  2
*Model_Space
340
22
  0
BLOCK_RECORD
  5
1B
330
1
100
AcDbSymbolTableRecord
100
AcDbBlockTableRecord
  2
*Paper_Space
340
1E
  0
BLOCK_RECORD
  5
23
330
1
100
AcDbSymbolTableRecord
100
AcDbBlockTableRecord
  2
*Paper_Space0
340
26
  0
BLOCK_RECORD
  5
74
330
1
100
AcDbSymbolTableRecord
100
AcDbBlockTableRecord
  2
Block11_2
340
0
  0
BLOCK_RECORD
  5
2C2
330
1
100
AcDbSymbolTableRecord
100
AcDbBlockTableRecord
  2
SW_CENTERMARKSYMBOL_0
340
0
102
{BLKREFS
331
2CD
102
}
  0
ENDTAB
  0
ENDSEC
  0
SECTION
  2
BLOCKS
  0
BLOCK
  5
20
330
1F
100
AcDbEntity
  8
0
100
AcDbBlockBegin
  2
*Model_Space
 70
     0
 10
0.0
 20
0.0
 30
0.0
  3
*Model_Space
  1

  0
ENDBLK
  5
21
330
1F
100
AcDbEntity
  8
0
100
AcDbBlockEnd
  0
BLOCK
  5
1C
330
1B
100
AcDbEntity
 67
     1
  8
0
100
AcDbBlockBegin
  2
*Paper_Space
 70
     0
 10
0.0
 20
0.0
 30
0.0
  3
*Paper_Space
  1

  0
ENDBLK
  5
1D
330
1B
100
AcDbEntity
 67
     1
  8
0
100
AcDbBlockEnd
  0
BLOCK
  5
24
330
23
100
AcDbEntity
  8
0
100
AcDbBlockBegin
  2
*Paper_Space0
 70
     0
 10
0.0
 20
0.0
 30
0.0
  3
*Paper_Space0
  1

  0
ENDBLK
  5
25
330
23
100
AcDbEntity
  8
0
100
AcDbBlockEnd
  0
BLOCK
  5
75
330
74
100
AcDbEntity
  8
0
100
AcDbBlockBegin
  2
Block11_2
 70
     0
 10
0.0
 20
0.0
 30
0.0
  3
Block11_2
  1

  0
LINE
  5
77
330
74
100
AcDbEntity
  8
0
  6
Continuous
100
AcDbLine
 10
-15.7956326374
 20
2.3055746011
 30
0.0
 11
-18.0649288667
 21
1.8146036087
 31
0.0
  0
LINE
  5
78
330
74
100
AcDbEntity
  8
0
  6
Continuous
100
AcDbLine
 10
-15.6988785554
 20
-9.1195335787
 30
0.0
 11
-10.2261014967
 21
-7.9354771524
 31
0.0
  0
LINE
  5
79
330
74
100
AcDbEntity
  8
0
  6
Continuous
100
AcDbLine
 10
-10.2261014967
 20
-7.9354771524
 30
0.0
 11
-10.6655808869
 21
-5.9041780766
 31
0.0
  0
LINE
  5
7A
330
74
100
AcDbEntity
  8
0
  6
Continuous
100
AcDbLine
 10
-10.6655808869
 20
-5.9041780766
 30
0.0
 11
-13.8699456036
 21
-6.5974547429
 31
0.0
  0
LINE
  5
7B
330
74
100
AcDbEntity
  8
0
  6
Continuous
100
AcDbLine
 10
-8.296070931
 20
1.802048972
 30
0.0
 11
-6.9198111955
 21
2.0998080743
 31
0.0
  0
LINE
  5
7C
330
74
100
AcDbEntity
  8
0
  6
Continuous
100
AcDbLine
 10
-5.4333831358
 20
-4.7719736412
 30
0.0
 11
-6.8095376466
 21
-5.0697099777
 31
0.0
  0
LINE
  5
7D
330
74
100
AcDbEntity
  8
0
  6
Continuous
100
AcDbLine
 10
-11.0044904538
 20
3.3421566929
 30
0.0
 11
-8.6388294738
 21
-7.5920647278
 31
0.0
  0
LINE
  5
7E
330
74
100
AcDbEntity
  8
0
  6
Continuous
100
AcDbLine
 10
-8.6388294738
 20
-7.5920647278
 30
0.0
 11
-8.6384401425
 21
-7.5919804944
 31
0.0
  0
LINE
  5
7F
330
74
100
AcDbEntity
  8
0
  6
Continuous
100
AcDbLine
 10
-8.6384401425
 20
-7.5919804944
 30
0.0
 11
-4.4940245505
 21
-6.6953201952
 31
0.0
  0
LINE
  5
80
330
74
100
AcDbEntity
  8
0
  6
Continuous
100
AcDbLine
 10
-6.8595855671
 20
4.238922853
 30
0.0
 11
-11.0044904538
 21
3.3421566929
 31
0.0
  0
LINE
  5
81
330
74
100
AcDbEntity
  8
0
  6
Continuous
100
AcDbLine
 10
-32.9933593229
 20
-3.3005605139
 30
0.0
 11
-32.8591663041
 21
-3.2715273367
 31
0.0
  0
LINE
  5
82
330
74
100
AcDbEntity
  8
0
  6
Continuous
100
AcDbLine
 10
-31.5697721187
 20
-3.9678201523
 30
0.0
 11
-29.2969561243
 21
-3.4760876451
 31
0.0
  0
LINE
  5
83
330
74
100
AcDbEntity
  8
0
  6
Continuous
100
AcDbLine
 10
-33.2794920496
 20
-1.2667721217
 30
0.0
 11
-33.3448839193
 21
-1.2809199049
 31
0.0
  0
LINE
  5
84
330
74
100
AcDbEntity
  8
0
  6
Continuous
100
AcDbLine
 10
-31.3289079349
 20
-10.5856399919
 30
0.0
 11
-31.4650581325
 21
-10.6150966123
 31
0.0
  0
LINE
  5
85
330
74
100
AcDbEntity
  8
0
  6
Continuous
100
AcDbLine
 10
-32.8822392925
 20
-9.9377601564
 30
0.0
 11
-35.1888692339
 21
-10.4368084414
 31
0.0
  0
LINE
  5
86
330
74
100
AcDbEntity
  8
0
  6
Continuous
100
AcDbLine
 10
-31.5949683304
 20
-12.7295787952
 30
0.0
 11
-30.2063920476
 21
-12.4291549603
 31
0.0
  0
LINE
  5
87
330
74
100
AcDbEntity
  8
0
  6
Continuous
100
AcDbLine
 10
6.262509235
 20
-4.3681026205
 30
0.0
 11
8.6370616994
 21
-3.8543590356
 31
0.0
  0
LINE
  5
88
330
74
100
AcDbEntity
  8
0
  6
Continuous
100
AcDbLine
 10
8.6370616994
 20
-3.8543590356
 30
0.0
 11
3.9059396663
 21
6.5680857621
 31
0.0
  0
LINE
  5
89
330
74
100
AcDbEntity
  8
0
  6
Continuous
100
AcDbLine
 10
3.9059396663
 20
6.5680857621
 30
0.0
 11
0.0
 21
5.7230206493
 31
0.0
  0
LINE
  5
8A
330
74
100
AcDbEntity
  8
0
  6
Continuous
100
AcDbLine
 10
0.0
 20
5.7230206493
 30
0.0
 11
0.0
 21
-5.7230206493
 31
0.0
  0
LINE
  5
8B
330
74
100
AcDbEntity
  8
0
  6
Continuous
100
AcDbLine
 10
0.0
 20
-5.7230206493
 30
0.0
 11
2.3746576891
 21
-5.2092542987
 31
0.0
  0
LINE
  5
8C
330
74
100
AcDbEntity
  8
0
  6
Continuous
100
AcDbLine
 10
2.3746576891
 20
-5.2092542987
 30
0.0
 11
2.3747844598
 21
-3.0912381741
 31
0.0
  0
LINE
  5
8D
330
74
100
AcDbEntity
  8
0
  6
Continuous
100
AcDbLine
 10
2.3747844598
 20
-3.0912381741
 30
0.0
 11
4.0318309599
 21
-2.7327297722
 31
0.0
  0
LINE
  5
8E
330
74
100
AcDbEntity
  8
0
  6
Continuous
100
AcDbLine
 10
4.0318309599
 20
-2.7327297722
 30
0.0
 11
3.5923515697
 21
-0.7014306964
 31
0.0
  0
LINE
  5
8F
330
74
100
AcDbEntity
  8
0
  6
Continuous
100
AcDbLine
 10
3.5923515697
 20
-0.7014306964
 30
0.0
 11
2.3750284336
 21
-0.9648032524
 31
0.0
  0
LINE
  5
90
330
74
100
AcDbEntity
  8
0
  6
Continuous
100
AcDbLine
 10
2.3750284336
 20
-0.9648032524
 30
0.0
 11
2.3752084601
 21
4.1936873712
 31
0.0
  0
LINE
  5
91
330
74
100
AcDbEntity
  8
0
  6
Continuous
100
AcDbLine
 10
2.3752084601
 20
4.1936873712
 30
0.0
 11
6.262509235
 21
-4.3681026205
 31
0.0
  0
LINE
  5
92
330
74
100
AcDbEntity
  8
0
  6
Continuous
100
AcDbLine
 10
-53.0629352118
 20
-11.4801779454
 30
0.0
 11
-50.7945341276
 21
-8.0228043203
 31
0.0
  0
LINE
  5
93
330
74
100
AcDbEntity
  8
0
  6
Continuous
100
AcDbLine
 10
-50.7945341276
 20
-8.0228043203
 30
0.0
 11
-54.2891069366
 21
-5.8122833411
 31
0.0
  0
LINE
  5
94
330
74
100
AcDbEntity
  8
0
  6
Continuous
100
AcDbLine
 10
-54.2891069366
 20
-5.8122833411
 30
0.0
 11
-51.4073820962
 21
-5.1888110564
 31
0.0
  0
LINE
  5
95
330
74
100
AcDbEntity
  8
0
  6
Continuous
100
AcDbLine
 10
-51.4073820962
 20
-5.1888110564
 30
0.0
 11
-47.9127327975
 21
-7.3992273667
 31
0.0
  0
LINE
  5
96
330
74
100
AcDbEntity
  8
0
  6
Continuous
100
AcDbLine
 10
-47.9127327975
 20
-7.3992273667
 30
0.0
 11
-50.1813587974
 21
-10.8569360435
 31
0.0
  0
LINE
  5
97
330
74
100
AcDbEntity
  8
0
  6
Continuous
100
AcDbLine
 10
-50.1813587974
 20
-10.8569360435
 30
0.0
 11
-53.0628942334
 21
-11.4803673498
 31
0.0
  0
LINE
  5
98
330
74
100
AcDbEntity
  8
0
  6
Continuous
100
AcDbLine
 10
-53.0628942334
 20
-11.4803673498
 30
0.0
 11
-53.0629352118
 21
-11.4801779454
 31
0.0
  0
LINE
  5
99
330
74
100
AcDbEntity
  8
0
  6
Continuous
100
AcDbLine
 10
-42.7624916815
 20
-3.31845567
 30
0.0
 11
-45.0307950789
 21
-6.7757971452
 31
0.0
  0
LINE
  5
9A
330
74
100
AcDbEntity
  8
0
  6
Continuous
100
AcDbLine
 10
-45.0307950789
 20
-6.7757971452
 30
0.0
 11
-48.5254573289
 21
-4.5652955168
 31
0.0
  0
LINE
  5
9B
330
74
100
AcDbEntity
  8
0
  6
Continuous
100
AcDbLine
 10
-48.5254573289
 20
-4.5652955168
 30
0.0
 11
-48.5257466967
 21
-4.5653581227
 31
0.0
  0
LINE
  5
9C
330
74
100
AcDbEntity
  8
0
  6
Continuous
100
AcDbLine
 10
-48.5257466967
 20
-4.5653581227
 30
0.0
 11
-47.9126146215
 21
-7.399289919
 31
0.0
  0
LINE
  5
9D
330
74
100
AcDbEntity
  8
0
  6
Continuous
100
AcDbLine
 10
-47.9126146215
 20
-7.399289919
 30
0.0
 11
-44.4177372167
 21
-9.6098441329
 31
0.0
  0
LINE
  5
9E
330
74
100
AcDbEntity
  8
0
  6
Continuous
100
AcDbLine
 10
-44.4177372167
 20
-9.6098441329
 30
0.0
 11
-42.1490649772
 21
-6.1523237222
 31
0.0
  0
LINE
  5
9F
330
74
100
AcDbEntity
  8
0
  6
Continuous
100
AcDbLine
 10
-42.1490649772
 20
-6.1523237222
 30
0.0
 11
-42.7621970524
 21
-3.3183919259
 31
0.0
  0
LINE
  5
A0
330
74
100
AcDbEntity
  8
0
  6
Continuous
100
AcDbLine
 10
-42.7621970524
 20
-3.3183919259
 30
0.0
 11
-42.7624916815
 21
-3.31845567
 31
0.0
  0
LINE
  5
A1
330
74
100
AcDbEntity
  8
0
  6
Continuous
100
AcDbLine
 10
-41.535889647
 20
-8.9864554454
 30
0.0
 11
-43.8045413973
 21
-12.4440705583
 31
0.0
  0
LINE
  5
A2
330
74
100
AcDbEntity
  8
0
  6
Continuous
100
AcDbLine
 10
-43.8045413973
 20
-12.4440705583
 30
0.0
 11
-40.3564529382
 21
-14.625159785
 31
0.0
  0
LINE
  5
A3
330
74
100
AcDbEntity
  8
0
  6
Continuous
100
AcDbLine
 10
-40.3564529382
 20
-14.625159785
 30
0.0
 11
-43.2382724808
 21
-15.2486525588
 31
0.0
  0
LINE
  5
A4
330
74
100
AcDbEntity
  8
0
  6
Continuous
100
AcDbLine
 10
-43.2382724808
 20
-15.2486525588
 30
0.0
 11
-46.686243472
 21
-13.0676480676
 31
0.0
  0
LINE
  5
A5
330
74
100
AcDbEntity
  8
0
  6
Continuous
100
AcDbLine
 10
-46.686243472
 20
-13.0676480676
 30
0.0
 11
-44.4177144509
 21
-9.6099493576
 31
0.0
  0
LINE
  5
A6
330
74
100
AcDbEntity
  8
0
  6
Continuous
100
AcDbLine
 10
-44.4177144509
 20
-9.6099493576
 30
0.0
 11
-41.535889647
 21
-8.9864554454
 31
0.0
  0
LINE
  5
A7
330
74
100
AcDbEntity
  8
0
  6
Continuous
100
AcDbLine
 10
-51.8063383656
 20
-17.1023866618
 30
0.0
 11
-49.5681857438
 21
-13.6910572443
 31
0.0
  0
LINE
  5
A8
330
74
100
AcDbEntity
  8
0
  6
Continuous
100
AcDbLine
 10
-49.5681857438
 20
-13.6910572443
 30
0.0
 11
-46.1199973213
 21
-15.8721248435
 31
0.0
  0
LINE
  5
A9
330
74
100
AcDbEntity
  8
0
  6
Continuous
100
AcDbLine
 10
-46.1199973213
 20
-15.8721248435
 30
0.0
 11
-46.0813956519
 21
-15.8637732234
 31
0.0
  0
LINE
  5
AA
330
74
100
AcDbEntity
  8
0
  6
Continuous
100
AcDbLine
 10
-46.0813956519
 20
-15.8637732234
 30
0.0
 11
-46.6863662012
 21
-13.0675644704
 31
0.0
  0
LINE
  5
AB
330
74
100
AcDbEntity
  8
0
  6
Continuous
100
AcDbLine
 10
-46.6863662012
 20
-13.0675644704
 30
0.0
 11
-50.1813587974
 21
-10.8569360435
 31
0.0
  0
LINE
  5
AC
330
74
100
AcDbEntity
  8
0
  6
Continuous
100
AcDbLine
 10
-50.1813587974
 20
-10.8569360435
 30
0.0
 11
-52.4497621582
 21
-14.3142991462
 31
0.0
  0
LINE
  5
AD
330
74
100
AcDbEntity
  8
0
  6
Continuous
100
AcDbLine
 10
-52.4497621582
 20
-14.3142991462
 30
0.0
 11
-51.8447506306
 21
-17.1106973035
 31
0.0
  0
LINE
  5
AE
330
74
100
AcDbEntity
  8
0
  6
Continuous
100
AcDbLine
 10
-51.8447506306
 20
-17.1106973035
 30
0.0
 11
-51.8063383656
 21
-17.1023866618
 31
0.0
  0
LINE
  5
AF
330
74
100
AcDbEntity
  8
0
  6
Continuous
100
AcDbLine
 10
-20.0432683672
 20
-10.0594590717
 30
0.0
 11
-17.6687053803
 21
-9.5457132103
 31
0.0
  0
LINE
  5
B0
330
74
100
AcDbEntity
  8
0
  6
Continuous
100
AcDbLine
 10
-17.6687053803
 20
-9.5457132103
 30
0.0
 11
-22.3998379359
 21
0.8767293109
 31
0.0
  0
LINE
  5
B1
330
74
100
AcDbEntity
  8
0
  6
Continuous
100
AcDbLine
 10
-22.3998379359
 20
0.8767293109
 30
0.0
 11
-26.3058670432
 21
0.0316448472
 31
0.0
  0
LINE
  5
B2
330
74
100
AcDbEntity
  8
0
  6
Continuous
100
AcDbLine
 10
-26.3058670432
 20
0.0316448472
 30
0.0
 11
-26.3056723775
 21
-11.4143543348
 31
0.0
  0
LINE
  5
B3
330
74
100
AcDbEntity
  8
0
  6
Continuous
100
AcDbLine
 10
-26.3056723775
 20
-11.4143543348
 30
0.0
 11
-23.9311146519
 21
-10.9006096116
 31
0.0
  0
LINE
  5
B4
330
74
100
AcDbEntity
  8
0
  6
Continuous
100
AcDbLine
 10
-23.9311146519
 20
-10.9006096116
 30
0.0
 11
-23.9309931424
 21
-8.7825946253
 31
0.0
  0
LINE
  5
B5
330
74
100
AcDbEntity
  8
0
  6
Continuous
100
AcDbLine
 10
-23.9309931424
 20
-8.7825946253
 30
0.0
 11
-22.2738308951
 21
-8.4240611811
 31
0.0
  0
LINE
  5
B6
330
74
100
AcDbEntity
  8
0
  6
Continuous
100
AcDbLine
 10
-22.2738308951
 20
-8.4240611811
 30
0.0
 11
-22.7133102854
 21
-6.3927621053
 31
0.0
  0
LINE
  5
B7
330
74
100
AcDbEntity
  8
0
  6
Continuous
100
AcDbLine
 10
-22.7133102854
 20
-6.3927621053
 30
0.0
 11
-23.9308333483
 21
-6.6561779162
 31
0.0
  0
LINE
  5
B8
330
74
100
AcDbEntity
  8
0
  6
Continuous
100
AcDbLine
 10
-23.9308333483
 20
-6.6561779162
 30
0.0
 11
-23.9305586196
 21
-1.4976668035
 31
0.0
  0
LINE
  5
B9
330
74
100
AcDbEntity
  8
0
  6
Continuous
100
AcDbLine
 10
-23.9305586196
 20
-1.4976668035
 30
0.0
 11
-20.0432683672
 21
-10.0594590717
 31
0.0
  0
SPLINE
  5
BA
330
74
100
AcDbEntity
  8
0
100
AcDbSpline
210
0.0
220
0.0
230
1.0
 70
     8
 71
     3
 72
     8
 73
     4
 74
     0
 42
0.00000001
 43
0.00000001
 40
0.0
 40
0.0
 40
0.0
 40
0.0
 40
1.0
 40
1.0
 40
1.0
 40
1.0
 10
-13.86994560355125
 20
-6.597454742918429
 30
0.0
 10
-13.88373254946556
 20
-6.53373068413859
 30
0.0
 10
-15.11365515797402
 20
-0.8489574873494021
 30
0.0
 10
-15.79563263740206
 20
2.305574601061459
 30
0.0
  0
SPLINE
  5
BB
330
74
100
AcDbEntity
  8
0
100
AcDbSpline
210
0.0
220
0.0
230
1.0
 70
     8
 71
     3
 72
     8
 73
     4
 74
     0
 42
0.00000001
 43
0.00000001
 40
2.0
 40
2.0
 40
2.0
 40
2.0
 40
3.0
 40
3.0
 40
3.0
 40
3.0
 10
-18.06492886668426
 20
1.814603608696524
 30
0.0
 10
-17.24003965005502
 20
-1.995739949107536
 30
0.0
 10
-15.71186186991051
 20
-9.059523950669432
 30
0.0
 10
-15.69887855542093
 20
-9.119533578677906
 30
0.0
  0
SPLINE
  5
BC
330
74
100
AcDbEntity
  8
0
100
AcDbSpline
210
0.0
220
0.0
230
1.0
 70
     8
 71
     3
 72
     8
 73
     4
 74
     0
 42
0.00000001
 43
0.00000001
 40
0.0
 40
0.0
 40
0.0
 40
0.0
 40
1.0
 40
1.0
 40
1.0
 40
1.0
 10
-6.809537646582547
 20
-5.069709977697404
 30
0.0
 10
-7.284290309572815
 20
-2.875375801708635
 30
0.0
 10
-7.897830097865885
 20
-0.0390758678013329
 30
0.0
 10
-8.296070930952649
 20
1.80204897196991
 30
0.0
  0
SPLINE
  5
BD
330
74
100
AcDbEntity
  8
0
100
AcDbSpline
210
0.0
220
0.0
230
1.0
 70
     8
 71
     3
 72
     8
 73
     4
 74
     0
 42
0.00000001
 43
0.00000001
 40
2.0
 40
2.0
 40
2.0
 40
2.0
 40
3.0
 40
3.0
 40
3.0
 40
3.0
 10
-6.919811195494074
 20
2.099808074263809
 30
0.0
 10
-6.228016878711183
 20
2.249480443098069
 30
0.0
 10
-5.547633595833446
 20
1.815851349115847
 30
0.0
 10
-5.399398884916104
 20
1.130701970100344
 30
0.0
  0
SPLINE
  5
BE
330
74
100
AcDbEntity
  8
0
100
AcDbSpline
210
0.0
220
0.0
230
1.0
 70
     8
 71
     3
 72
     8
 73
     4
 74
     0
 42
0.00000001
 43
0.00000001
 40
3.0
 40
3.0
 40
3.0
 40
3.0
 40
4.0
 40
4.0
 40
4.0
 40
4.0
 10
-5.399398884916104
 20
1.130701970100344
 30
0.0
 10
-5.107009087764085
 20
-0.2207405274728672
 30
0.0
 10
-4.711497421058354
 20
-2.048334586467611
 30
0.0
 10
-4.449160707297047
 20
-3.260870000165379
 30
0.0
  0
SPLINE
  5
BF
330
74
100
AcDbEntity
  8
0
100
AcDbSpline
210
0.0
220
0.0
230
1.0
 70
     8
 71
     3
 72
     8
 73
     4
 74
     0
 42
0.00000001
 43
0.00000001
 40
4.0
 40
4.0
 40
4.0
 40
4.0
 40
5.0
 40
5.0
 40
5.0
 40
5.0
 10
-4.449160707297047
 20
-3.260870000165379
 30
0.0
 10
-4.300905507193207
 20
-3.946114081381999
 30
0.0
 10
-4.741570606399121
 20
-4.622385452066122
 30
0.0
 10
-5.433383135791953
 20
-4.771973641166296
 30
0.0
  0
SPLINE
  5
C0
330
74
100
AcDbEntity
  8
0
100
AcDbSpline
210
0.0
220
0.0
230
1.0
 70
     8
 71
     3
 72
     8
 73
     4
 74
     0
 42
0.00000001
 43
0.00000001
 40
3.0
 40
3.0
 40
3.0
 40
3.0
 40
4.0
 40
4.0
 40
4.0
 40
4.0
 10
-4.494024550545999
 20
-6.695320195210662
 30
0.0
 10
-2.825524345390513
 20
-6.334333740063992
 30
0.0
 10
-1.762658323115034
 20
-4.702068307882374
 30
0.0
 10
-2.120071189640999
 20
-3.049576315093403
 30
0.0
  0
SPLINE
  5
C1
330
74
100
AcDbEntity
  8
0
100
AcDbSpline
210
0.0
220
0.0
230
1.0
 70
     8
 71
     3
 72
     8
 73
     4
 74
     0
 42
0.00000001
 43
0.00000001
 40
4.0
 40
4.0
 40
4.0
 40
4.0
 40
5.0
 40
5.0
 40
5.0
 40
5.0
 10
-2.120071189640999
 20
-3.049576315093403
 30
0.0
 10
-2.485983017556096
 20
-1.358310753073632
 30
0.0
 10
-2.867352798370483
 20
0.4044023583376265
 30
0.0
 10
-3.190995488197396
 20
1.900704823656681
 30
0.0
  0
SPLINE
  5
C2
330
74
100
AcDbEntity
  8
0
100
AcDbSpline
210
0.0
220
0.0
230
1.0
 70
     8
 71
     3
 72
     8
 73
     4
 74
     0
 42
0.00000001
 43
0.00000001
 40
5.0
 40
5.0
 40
5.0
 40
5.0
 40
6.0
 40
6.0
 40
6.0
 40
6.0
 10
-3.190995488197396
 20
1.900704823656681
 30
0.0
 10
-3.54857504695031
 20
3.553458157285876
 30
0.0
 10
-5.190901218780231
 20
4.599949148191988
 30
0.0
 10
-6.859585567104196
 20
4.238922852960538
 30
0.0
  0
SPLINE
  5
C3
330
74
100
AcDbEntity
  8
0
100
AcDbSpline
210
0.0
220
0.0
230
1.0
 70
     8
 71
     3
 72
     8
 73
     4
 74
     0
 42
0.00000001
 43
0.00000001
 40
0.0
 40
0.0
 40
0.0
 40
0.0
 40
1.0
 40
1.0
 40
1.0
 40
1.0
 10
-30.23703582864644
 20
-6.251438951366732
 30
0.0
 10
-30.9104300186728
 20
-6.015603382360459
 30
0.0
 10
-31.40848551125485
 20
-5.893156856121871
 30
0.0
 10
-32.67210357750635
 20
-5.496689523479785
 30
0.0
  0
SPLINE
  5
C4
330
74
100
AcDbEntity
  8
0
100
AcDbSpline
210
0.0
220
0.0
230
1.0
 70
     8
 71
     3
 72
     8
 73
     4
 74
     0
 42
0.00000001
 43
0.00000001
 40
1.0
 40
1.0
 40
1.0
 40
1.0
 40
2.0
 40
2.0
 40
2.0
 40
2.0
 10
-32.67210357750635
 20
-5.496689523479785
 30
0.0
 10
-33.03332194555517
 20
-5.383421617718132
 30
0.0
 10
-33.81210282496122
 20
-5.206692347750555
 30
0.0
 10
-33.94849250952588
 20
-4.576291363356936
 30
0.0
  0
SPLINE
  5
C5
330
74
100
AcDbEntity
  8
0
100
AcDbSpline
210
0.0
220
0.0
230
1.0
 70
     8
 71
     3
 72
     8
 73
     4
 74
     0
 42
0.00000001
 43
0.00000001
 40
2.0
 40
2.0
 40
2.0
 40
2.0
 40
3.0
 40
3.0
 40
3.0
 40
3.0
 10
-33.94849250952588
 20
-4.576291363356936
 30
0.0
 10
-34.11622381965225
 20
-3.801027578894063
 30
0.0
 10
-33.67528356585564
 20
-3.448097454184924
 30
0.0
 10
-32.99335932290604
 20
-3.30056051389548
 30
0.0
  0
SPLINE
  5
C6
330
74
100
AcDbEntity
  8
0
100
AcDbSpline
210
0.0
220
0.0
230
1.0
 70
     8
 71
     3
 72
     8
 73
     4
 74
     0
 42
0.00000001
 43
0.00000001
 40
4.0
 40
4.0
 40
4.0
 40
4.0
 40
5.0
 40
5.0
 40
5.0
 40
5.0
 10
-32.85916630414497
 20
-3.271527336675416
 30
0.0
 10
-32.2786944245911
 20
-3.14594000653005
 30
0.0
 10
-31.77109773641243
 20
-3.328116480283148
 30
0.0
 10
-31.56977211870437
 20
-3.967820152272103
 30
0.0
  0
SPLINE
  5
C7
330
74
100
AcDbEntity
  8
0
100
AcDbSpline
210
0.0
220
0.0
230
1.0
 70
     8
 71
     3
 72
     8
 73
     4
 74
     0
 42
0.00000001
 43
0.00000001
 40
6.0
 40
6.0
 40
6.0
 40
6.0
 40
7.0
 40
7.0
 40
7.0
 40
7.0
 10
-29.29695612428625
 20
-3.476087645143529
 30
0.0
 10
-29.68810071971012
 20
-1.866802583842748
 30
0.0
 10
-30.87776107222441
 20
-0.7599478056671497
 30
0.0
 10
-33.27949204955325
 20
-1.266772121690862
 30
0.0
  0
SPLINE
  5
C8
330
74
100
AcDbEntity
  8
0
100
AcDbSpline
210
0.0
220
0.0
230
1.0
 70
     8
 71
     3
 72
     8
 73
     4
 74
     0
 42
0.00000001
 43
0.00000001
 40
8.0
 40
8.0
 40
8.0
 40
8.0
 40
9.0
 40
9.0
 40
9.0
 40
9.0
 10
-33.34488391931659
 20
-1.280919904944554
 30
0.0
 10
-35.81152992452102
 20
-1.828202838410209
 30
0.0
 10
-36.33378487826545
 20
-3.54465012997844
 30
0.0
 10
-36.09207577942843
 20
-4.962606301827474
 30
0.0
  0
SPLINE
  5
C9
330
74
100
AcDbEntity
  8
0
100
AcDbSpline
210
0.0
220
0.0
230
1.0
 70
     8
 71
     3
 72
     8
 73
     4
 74
     0
 42
0.00000001
 43
0.00000001
 40
9.0
 40
9.0
 40
9.0
 40
9.0
 40
10.0
 40
10.0
 40
10.0
 40
10.0
 10
-36.09207577942843
 20
-4.962606301827474
 30
0.0
 10
-35.83736690020325
 20
-6.457652824126185
 30
0.0
 10
-34.96800490008025
 20
-7.196828812263726
 30
0.0
 10
-33.99931718292642
 20
-7.502708028683521
 30
0.0
  0
SPLINE
  5
CA
330
74
100
AcDbEntity
  8
0
100
AcDbSpline
210
0.0
220
0.0
230
1.0
 70
     8
 71
     3
 72
     8
 73
     4
 74
     0
 42
0.00000001
 43
0.00000001
 40
10.0
 40
10.0
 40
10.0
 40
10.0
 40
11.0
 40
11.0
 40
11.0
 40
11.0
 10
-33.99931718292642
 20
-7.502708028683521
 30
0.0
 10
-33.40907414696034
 20
-7.689011641945549
 30
0.0
 10
-32.48616403135102
 20
-7.975318844696811
 30
0.0
 10
-31.47547483016511
 20
-8.271505052332133
 30
0.0
  0
SPLINE
  5
CB
330
74
100
AcDbEntity
  8
0
100
AcDbSpline
210
0.0
220
0.0
230
1.0
 70
     8
 71
     3
 72
     8
 73
     4
 74
     0
 42
0.00000001
 43
0.00000001
 40
11.0
 40
11.0
 40
11.0
 40
11.0
 40
12.0
 40
12.0
 40
12.0
 40
12.0
 10
-31.47547483016511
 20
-8.271505052332133
 30
0.0
 10
-31.11213516930565
 20
-8.377980375833697
 30
0.0
 10
-30.40258052645035
 20
-8.55729511966404
 30
0.0
 10
-30.28870163819746
 20
-9.336631754491275
 30
0.0
  0
SPLINE
  5
CC
330
74
100
AcDbEntity
  8
0
100
AcDbSpline
210
0.0
220
0.0
230
1.0
 70
     8
 71
     3
 72
     8
 73
     4
 74
     0
 42
0.00000001
 43
0.00000001
 40
12.0
 40
12.0
 40
12.0
 40
12.0
 40
13.0
 40
13.0
 40
13.0
 40
13.0
 10
-30.28870163819746
 20
-9.336631754491275
 30
0.0
 10
-30.1883718252622
 20
-10.02498578462436
 30
0.0
 10
-30.64014408852681
 20
-10.43662327702193
 30
0.0
 10
-31.32890793487913
 20
-10.58563999188937
 30
0.0
  0
SPLINE
  5
CD
330
74
100
AcDbEntity
  8
0
100
AcDbSpline
210
0.0
220
0.0
230
1.0
 70
     8
 71
     3
 72
     8
 73
     4
 74
     0
 42
0.00000001
 43
0.00000001
 40
14.0
 40
14.0
 40
14.0
 40
14.0
 40
15.0
 40
15.0
 40
15.0
 40
15.0
 10
-31.46505813246006
 20
-10.61509661229636
 30
0.0
 10
-32.05208024758041
 20
-10.74210111117219
 30
0.0
 10
-32.71260096537058
 20
-10.55064660173623
 30
0.0
 10
-32.8822392924921
 20
-9.937760156430087
 30
0.0
  0
SPLINE
  5
CE
330
74
100
AcDbEntity
  8
0
100
AcDbSpline
210
0.0
220
0.0
230
1.0
 70
     8
 71
     3
 72
     8
 73
     4
 74
     0
 42
0.00000001
 43
0.00000001
 40
16.0
 40
16.0
 40
16.0
 40
16.0
 40
17.0
 40
17.0
 40
17.0
 40
17.0
 10
-35.1888692338865
 20
-10.43680844141459
 30
0.0
 10
-34.81471685749703
 20
-11.8843133271045
 30
0.0
 10
-33.72975075395794
 20
-12.95131992706823
 30
0.0
 10
-31.59496833044066
 20
-12.72957879515504
 30
0.0
  0
SPLINE
  5
CF
330
74
100
AcDbEntity
  8
0
100
AcDbSpline
210
0.0
220
0.0
230
1.0
 70
     8
 71
     3
 72
     8
 73
     4
 74
     0
 42
0.00000001
 43
0.00000001
 40
18.0
 40
18.0
 40
18.0
 40
18.0
 40
19.0
 40
19.0
 40
19.0
 40
19.0
 10
-30.20639204762402
 20
-12.42915496033268
 30
0.0
 10
-28.36320980349184
 20
-11.79454394754582
 30
0.0
 10
-27.78707037380765
 20
-10.41512978795686
 30
0.0
 10
-27.91988511866083
 20
-9.073464993912006
 30
0.0
  0
SPLINE
  5
D0
330
74
100
AcDbEntity
  8
0
100
AcDbSpline
210
0.0
220
0.0
230
1.0
 70
     8
 71
     3
 72
     8
 73
     4
 74
     0
 42
0.00000001
 43
0.00000001
 40
19.0
 40
19.0
 40
19.0
 40
19.0
 40
20.0
 40
20.0
 40
20.0
 40
20.0
 10
-27.91988511866083
 20
-9.073464993912006
 30
0.0
 10
-28.12563217330358
 20
-6.994152508733083
 30
0.0
 10
-29.51271678483619
 20
-6.50510505043454
 30
0.0
 10
-30.23703582864644
 20
-6.251438951366732
 30
0.0
  0
HATCH
  5
D1
330
74
100
AcDbEntity
  8
0
100
AcDbHatch
 10
0.0
 20
0.0
 30
0.0
210
0.0
220
0.0
230
1.0
  2
SOLID
 70
     1
 71
     0
 91
        1
 92
        0
 93
        7
 72
     1
 10
-53.06293521179145
 20
-11.48017794540906
 11
-53.0628942334185
 21
-11.48036734981106
 72
     1
 10
-53.0628942334185
 20
-11.48036734981106
 11
-50.18135879739363
 21
-10.85693604353014
 72
     1
 10
-50.18135879739363
 20
-10.85693604353014
 11
-47.91273279754322
 21
-7.399227366744369
 72
     1
 10
-47.91273279754322
 20
-7.399227366744369
 11
-51.40738209617635
 21
-5.188811056417426
 72
     1
 10
-51.40738209617635
 20
-5.188811056417426
 11
-54.28910693660305
 21
-5.812283341071309
 72
     1
 10
-54.28910693660305
 20
-5.812283341071309
 11
-50.79453412756107
 21
-8.022804320319173
 72
     1
 10
-50.79453412756107
 20
-8.022804320319173
 11
-53.06293521179145
 21
-11.48017794540906
 97
        0
 75
     0
 76
     1
 98
        1
 10
0.0
 20
0.0
  0
HATCH
  5
D2
330
74
100
AcDbEntity
  8
0
100
AcDbHatch
 10
0.0
 20
0.0
 30
0.0
210
0.0
220
0.0
230
1.0
  2
SOLID
 70
     1
 71
     0
 91
        1
 92
        0
 93
        6
 72
     1
 10
-41.53588964704281
 20
-8.986455445432597
 11
-44.41771445090438
 21
-9.609949357561213
 72
     1
 10
-44.41771445090438
 20
-9.609949357561213
 11
-46.68624347197728
 21
-13.06764806762683
 72
     1
 10
-46.68624347197728
 20
-13.06764806762683
 11
-43.23827248082917
 21
-15.24865255879992
 72
     1
 10
-43.23827248082917
 20
-15.24865255879992
 11
-40.35645293820115
 21
-14.62515978495947
 72
     1
 10
-40.35645293820115
 20
-14.62515978495947
 11
-43.80454139731328
 21
-12.44407055830516
 72
     1
 10
-43.80454139731328
 20
-12.44407055830516
 11
-41.53588964704281
 21
-8.986455445432597
 97
        0
 75
     0
 76
     1
 98
        1
 10
0.0
 20
0.0
  0
HATCH
  5
D3
330
74
100
AcDbEntity
  8
0
100
AcDbHatch
 10
0.0
 20
0.0
 30
0.0
210
0.0
220
0.0
230
1.0
  2
SOLID
 70
     1
 71
     0
 91
        1
 92
        0
 93
       20
 72
     4
 94
        3
 73
     1
 74
     0
 95
        8
 96
        4
 40
18.0
 40
18.0
 40
18.0
 40
18.0
 40
19.0
 40
19.0
 40
19.0
 40
19.0
 10
-30.20639204762402
 20
-12.42915496033267
 42
1.0
 10
-28.36320980349188
 20
-11.79454394754584
 42
1.0
 10
-27.78707037380775
 20
-10.41512978795687
 42
1.0
 10
-27.91988511866085
 20
-9.073464993912015
 42
1.0
 72
     4
 94
        3
 73
     1
 74
     0
 95
        8
 96
        4
 40
19.0
 40
19.0
 40
19.0
 40
19.0
 40
20.0
 40
20.0
 40
20.0
 40
20.0
 10
-27.91988511866085
 20
-9.073464993912015
 42
1.0
 10
-28.1256321733036
 20
-6.994152508733093
 42
1.0
 10
-29.51271678483624
 20
-6.505105050434554
 42
1.0
 10
-30.23703582864647
 20
-6.251438951366739
 42
1.0
 72
     4
 94
        3
 73
     1
 74
     0
 95
        8
 96
        4
 40
0.0
 40
0.0
 40
0.0
 40
0.0
 40
1.0
 40
1.0
 40
1.0
 40
1.0
 10
-30.23703582864647
 20
-6.251438951366739
 42
1.0
 10
-30.91043001867278
 20
-6.015603382360466
 42
1.0
 10
-31.40848551125484
 20
-5.893156856121866
 42
1.0
 10
-32.67210357750633
 20
-5.496689523479784
 42
1.0
 72
     4
 94
        3
 73
     1
 74
     0
 95
        8
 96
        4
 40
1.0
 40
1.0
 40
1.0
 40
1.0
 40
2.0
 40
2.0
 40
2.0
 40
2.0
 10
-32.67210357750633
 20
-5.496689523479784
 42
1.0
 10
-33.03332194555515
 20
-5.383421617718138
 42
1.0
 10
-33.81210282496121
 20
-5.206692347750558
 42
1.0
 10
-33.94849250952591
 20
-4.576291363356954
 42
1.0
 72
     4
 94
        3
 73
     1
 74
     0
 95
        8
 96
        4
 40
2.0
 40
2.0
 40
2.0
 40
2.0
 40
3.0
 40
3.0
 40
3.0
 40
3.0
 10
-33.94849250952591
 20
-4.576291363356954
 42
1.0
 10
-34.11622381965228
 20
-3.801027578894066
 42
1.0
 10
-33.67528356585566
 20
-3.448097454184939
 42
1.0
 10
-32.99335932290605
 20
-3.300560513895483
 42
1.0
 72
     1
 10
-32.99335932290605
 20
-3.300560513895483
 11
-32.85916630414502
 21
-3.271527336675422
 72
     4
 94
        3
 73
     1
 74
     0
 95
        8
 96
        4
 40
4.0
 40
4.0
 40
4.0
 40
4.0
 40
5.0
 40
5.0
 40
5.0
 40
5.0
 10
-32.85916630414502
 20
-3.271527336675422
 42
1.0
 10
-32.27869442459117
 20
-3.145940006530068
 42
1.0
 10
-31.77109773641243
 20
-3.328116480283154
 42
1.0
 10
-31.5697721187044
 20
-3.967820152272114
 42
1.0
 72
     1
 10
-31.5697721187044
 20
-3.967820152272114
 11
-29.29695612428624
 21
-3.476087645143523
 72
     4
 94
        3
 73
     1
 74
     0
 95
        8
 96
        4
 40
6.0
 40
6.0
 40
6.0
 40
6.0
 40
7.0
 40
7.0
 40
7.0
 40
7.0
 10
-29.2969561242863
 20
-3.476087645143538
 42
1.0
 10
-29.6881007197101
 20
-1.866802583842747
 42
1.0
 10
-30.87776107222446
 20
-0.7599478056671519
 42
1.0
 10
-33.27949204955327
 20
-1.266772121690873
 42
1.0
 72
     1
 10
-33.27949204955321
 20
-1.266772121690857
 11
-33.3448839193166
 21
-1.280919904944549
 72
     4
 94
        3
 73
     1
 74
     0
 95
        8
 96
        4
 40
8.0
 40
8.0
 40
8.0
 40
8.0
 40
9.0
 40
9.0
 40
9.0
 40
9.0
 10
-33.34488391931666
 20
-1.280919904944565
 42
1.0
 10
-35.8115299245211
 20
-1.828202838410234
 42
1.0
 10
-36.3337848782655
 20
-3.544650129978449
 42
1.0
 10
-36.09207577942846
 20
-4.962606301827486
 42
1.0
 72
     4
 94
        3
 73
     1
 74
     0
 95
        8
 96
        4
 40
9.0
 40
9.0
 40
9.0
 40
9.0
 40
10.0
 40
10.0
 40
10.0
 40
10.0
 10
-36.09207577942846
 20
-4.962606301827486
 42
1.0
 10
-35.83736690020323
 20
-6.457652824126184
 42
1.0
 10
-34.96800490008029
 20
-7.196828812263736
 42
1.0
 10
-33.99931718292643
 20
-7.502708028683525
 42
1.0
 72
     4
 94
        3
 73
     1
 74
     0
 95
        8
 96
        4
 40
10.0
 40
10.0
 40
10.0
 40
10.0
 40
11.0
 40
11.0
 40
11.0
 40
11.0
 10
-33.99931718292643
 20
-7.502708028683525
 42
1.0
 10
-33.40907414696031
 20
-7.689011641945555
 42
1.0
 10
-32.48616403135106
 20
-7.975318844696822
 42
1.0
 10
-31.47547483016516
 20
-8.27150505233215
 42
1.0
 72
     4
 94
        3
 73
     1
 74
     0
 95
        8
 96
        4
 40
11.0
 40
11.0
 40
11.0
 40
11.0
 40
12.0
 40
12.0
 40
12.0
 40
12.0
 10
-31.47547483016516
 20
-8.27150505233215
 42
1.0
 10
-31.11213516930568
 20
-8.377980375833708
 42
1.0
 10
-30.40258052645039
 20
-8.557295119664056
 42
1.0
 10
-30.28870163819752
 20
-9.336631754491272
 42
1.0
 72
     4
 94
        3
 73
     1
 74
     0
 95
        8
 96
        4
 40
12.0
 40
12.0
 40
12.0
 40
12.0
 40
13.0
 40
13.0
 40
13.0
 40
13.0
 10
-30.28870163819752
 20
-9.336631754491272
 42
1.0
 10
-30.18837182526216
 20
-10.02498578462435
 42
1.0
 10
-30.64014408852681
 20
-10.43662327702195
 42
1.0
 10
-31.32890793487914
 20
-10.58563999188937
 42
1.0
 72
     1
 10
-31.32890793487914
 20
-10.58563999188937
 11
-31.46505813246008
 21
-10.61509661229637
 72
     4
 94
        3
 73
     1
 74
     0
 95
        8
 96
        4
 40
14.0
 40
14.0
 40
14.0
 40
14.0
 40
15.0
 40
15.0
 40
15.0
 40
15.0
 10
-31.46505813246008
 20
-10.61509661229637
 42
1.0
 10
-32.05208024758041
 20
-10.7421011111722
 42
1.0
 10
-32.71260096537064
 20
-10.55064660173623
 42
1.0
 10
-32.88223929249212
 20
-9.937760156430087
 42
1.0
 72
     1
 10
-32.88223929249212
 20
-9.937760156430087
 11
-35.18886923388655
 21
-10.43680844141459
 72
     4
 94
        3
 73
     1
 74
     0
 95
        8
 96
        4
 40
16.0
 40
16.0
 40
16.0
 40
16.0
 40
17.0
 40
17.0
 40
17.0
 40
17.0
 10
-35.18886923388649
 20
-10.43680844141459
 42
1.0
 10
-34.81471685749708
 20
-11.88431332710451
 42
1.0
 10
-33.72975075395801
 20
-12.95131992706824
 42
1.0
 10
-31.59496833044075
 20
-12.72957879515506
 42
1.0
 72
     1
 10
-31.59496833044068
 20
-12.72957879515504
 11
-30.20639204762409
 21
-12.42915496033269
 97
        0
 75
     0
 76
     1
 98
        1
 10
0.0
 20
0.0
  0
HATCH
  5
D4
330
74
100
AcDbEntity
  8
0
100
AcDbHatch
 10
0.0
 20
0.0
 30
0.0
210
0.0
220
0.0
230
1.0
  2
SOLID
 70
     1
 71
     0
 91
        1
 92
        0
 93
       11
 72
     1
 10
-23.93083334830058
 20
-6.656177916224847
 11
-23.9305586195879
 21
-1.497666803489873
 72
     1
 10
-23.9305586195879
 20
-1.497666803489873
 11
-20.04326836721582
 21
-10.05945907169815
 72
     1
 10
-20.04326836721582
 20
-10.05945907169815
 11
-17.66870538033285
 21
-9.545713210289948
 72
     1
 10
-17.66870538033285
 20
-9.545713210289948
 11
-22.39983793591613
 21
0.8767293108990284
 72
     1
 10
-22.39983793591613
 20
0.8767293108990277
 11
-26.30586704316552
 21
0.0316448471579831
 72
     1
 10
-26.30586704316552
 20
0.0316448471579831
 11
-26.30567237753049
 21
-11.41435433475813
 72
     1
 10
-26.30567237753049
 20
-11.41435433475813
 11
-23.93111465188077
 21
-10.90060961163804
 72
     1
 10
-23.93111465188077
 20
-10.90060961163804
 11
-23.93099314235586
 21
-8.782594625323274
 72
     1
 10
-23.93099314235586
 20
-8.782594625323274
 11
-22.27383089514867
 21
-8.42406118111162
 72
     1
 10
-22.27383089514867
 20
-8.42406118111162
 11
-22.7133102853523
 21
-6.392762105309743
 72
     1
 10
-22.7133102853523
 20
-6.392762105309743
 11
-23.93083334830058
 21
-6.656177916224847
 97
        0
 75
     0
 76
     1
 98
        1
 10
0.0
 20
0.0
  0
HATCH
  5
D5
330
74
100
AcDbEntity
  8
0
100
AcDbHatch
 10
0.0
 20
0.0
 30
0.0
210
0.0
220
0.0
230
1.0
  2
SOLID
 70
     1
 71
     0
 91
        1
 92
        0
 93
        6
 72
     1
 10
-15.79563263740209
 20
2.305574601061446
 11
-18.06492886668423
 21
1.814603608696526
 72
     4
 94
        3
 73
     1
 74
     0
 95
        8
 96
        4
 40
2.0
 40
2.0
 40
2.0
 40
2.0
 40
3.0
 40
3.0
 40
3.0
 40
3.0
 10
-18.06492886668423
 20
1.814603608696526
 42
1.0
 10
-17.240039650055
 20
-1.995739949107533
 42
1.0
 10
-15.71186186991055
 20
-9.059523950669437
 42
1.0
 10
-15.69887855542098
 20
-9.119533578677919
 42
1.0
 72
     1
 10
-15.69887855542092
 20
-9.119533578677903
 11
-10.22610149671526
 21
-7.93547715235816
 72
     1
 10
-10.22610149671526
 20
-7.93547715235816
 11
-10.66558088691882
 21
-5.904178076556605
 72
     1
 10
-10.66558088691882
 20
-5.904178076556605
 11
-13.86994560355126
 21
-6.597454742918437
 72
     4
 94
        3
 73
     1
 74
     0
 95
        8
 96
        4
 40
0.0
 40
0.0
 40
0.0
 40
0.0
 40
1.0
 40
1.0
 40
1.0
 40
1.0
 10
-13.86994560355126
 20
-6.597454742918437
 42
1.0
 10
-13.88373254946556
 20
-6.533730684138598
 42
1.0
 10
-15.1136551579741
 20
-0.8489574873494129
 42
1.0
 10
-15.79563263740209
 20
2.305574601061446
 42
1.0
 97
        0
 75
     0
 76
     1
 98
        1
 10
0.0
 20
0.0
  0
HATCH
  5
D6
330
74
100
AcDbEntity
  8
0
100
AcDbHatch
 10
0.0
 20
0.0
 30
0.0
210
0.0
220
0.0
230
1.0
  2
SOLID
 70
     1
 71
     0
 91
        1
 92
        0
 93
       11
 72
     1
 10
2.375028433631206
 20
-0.9648032523823513
 11
2.375208460142868
 21
4.193687371166118
 72
     1
 10
2.375208460142868
 20
4.193687371166118
 11
6.262509234981617
 21
-4.368102620465918
 72
     1
 10
6.262509234981617
 20
-4.368102620465917
 11
8.637061699398163
 21
-3.854359035633896
 72
     1
 10
8.637061699398163
 20
-3.854359035633896
 11
3.905939666281055
 21
6.568085762131229
 72
     1
 10
3.905939666281055
 20
6.56808576213123
 11
-0.0000000000001235
 21
5.723020649288631
 72
     1
 10
-0.0000000000001234
 20
5.723020649288631
 11
-0.000000000000185
 21
-5.723020649288538
 72
     1
 10
-0.000000000000185
 20
-5.723020649288538
 11
2.37465768908423
 21
-5.20925429869377
 72
     1
 10
2.37465768908423
 20
-5.20925429869377
 11
2.374784459841949
 21
-3.091238174090979
 72
     1
 10
2.374784459841949
 20
-3.091238174090979
 11
4.031830959914354
 21
-2.732729772218408
 72
     1
 10
4.031830959914354
 20
-2.732729772218408
 11
3.592351569710606
 21
-0.701430696416514
 72
     1
 10
3.592351569710606
 20
-0.7014306964165138
 11
2.375028433631206
 21
-0.9648032523823513
 97
        0
 75
     0
 76
     1
 98
        1
 10
0.0
 20
0.0
  0
HATCH
  5
D7
330
74
100
AcDbEntity
  8
0
100
AcDbHatch
 10
0.0
 20
0.0
 30
0.0
210
0.0
220
0.0
230
1.0
  2
SOLID
 70
     1
 71
     0
 91
        1
 92
        0
 93
        8
 72
     1
 10
-42.14906497721024
 20
-6.152323722221632
 11
-42.76219705242848
 21
-3.318391925879333
 72
     1
 10
-42.76219705242848
 20
-3.318391925879333
 11
-42.76249168149826
 21
-3.318455670015027
 72
     1
 10
-42.76249168149826
 20
-3.318455670015027
 11
-45.03079507887072
 21
-6.775797145163721
 72
     1
 10
-45.03079507887072
 20
-6.775797145163721
 11
-48.52545732888054
 21
-4.565295516814268
 72
     1
 10
-48.52545732888054
 20
-4.565295516814268
 11
-48.52574669671678
 21
-4.565358122661792
 72
     1
 10
-48.52574669671678
 20
-4.565358122661792
 11
-47.91261462149855
 21
-7.39928991900409
 72
     1
 10
-47.91261462149855
 20
-7.39928991900409
 11
-44.41773721666716
 21
-9.60984413289331
 72
     1
 10
-44.41773721666716
 20
-9.60984413289331
 11
-42.14906497721024
 21
-6.152323722221632
 97
        0
 75
     0
 76
     1
 98
        1
 10
0.0
 20
0.0
  0
HATCH
  5
D8
330
74
100
AcDbEntity
  8
0
100
AcDbHatch
 10
0.0
 20
0.0
 30
0.0
210
0.0
220
0.0
230
1.0
  2
SOLID
 70
     1
 71
     0
 91
        1
 92
        0
 93
        8
 72
     1
 10
-46.11999732125613
 20
-15.87212484345383
 11
-46.08139565189786
 21
-15.8637732233933
 72
     1
 10
-46.08139565189786
 20
-15.8637732233933
 11
-46.68636620117444
 21
-13.06756447043367
 72
     1
 10
-46.68636620117444
 20
-13.06756447043367
 11
-50.18135879739361
 21
-10.85693604353009
 72
     1
 10
-50.18135879739361
 20
-10.85693604353009
 11
-52.44976215820033
 21
-14.31429914615315
 72
     1
 10
-52.44976215820033
 20
-14.31429914615315
 11
-51.84475063055083
 21
-17.11069730351469
 72
     1
 10
-51.84475063055083
 20
-17.11069730351469
 11
-51.80633836559459
 21
-17.1023866618271
 72
     1
 10
-51.80633836559459
 20
-17.1023866618271
 11
-49.56818574380249
 21
-13.69105724427409
 72
     1
 10
-49.56818574380249
 20
-13.69105724427409
 11
-46.11999732125613
 21
-15.87212484345383
 97
        0
 75
     0
 76
     1
 98
        1
 10
0.0
 20
0.0
  0
HATCH
  5
D9
330
74
100
AcDbEntity
  8
0
100
AcDbHatch
 10
0.0
 20
0.0
 30
0.0
210
0.0
220
0.0
230
1.0
  2
SOLID
 70
     1
 71
     0
 91
        2
 92
        0
 93
        7
 72
     1
 10
-6.859585567104196
 20
4.238922852960538
 11
-11.00449045380928
 21
3.342156692939393
 72
     1
 10
-11.00449045380928
 20
3.342156692939393
 11
-8.638829473816639
 21
-7.592064727757185
 72
     1
 10
-8.638829473816639
 20
-7.592064727757185
 11
-8.63844014254617
 21
-7.591980494435086
 72
     1
 10
-8.63844014254617
 20
-7.591980494435086
 11
-4.494024550545999
 21
-6.695320195210662
 72
     4
 94
        3
 73
     1
 74
     0
 95
        8
 96
        4
 40
3.0
 40
3.0
 40
3.0
 40
3.0
 40
4.0
 40
4.0
 40
4.0
 40
4.0
 10
-4.494024550545999
 20
-6.695320195210662
 42
1.0
 10
-2.825524345390513
 20
-6.334333740063992
 42
1.0
 10
-1.762658323115034
 20
-4.702068307882374
 42
1.0
 10
-2.120071189640999
 20
-3.049576315093403
 42
1.0
 72
     4
 94
        3
 73
     1
 74
     0
 95
        8
 96
        4
 40
4.0
 40
4.0
 40
4.0
 40
4.0
 40
5.0
 40
5.0
 40
5.0
 40
5.0
 10
-2.120071189640999
 20
-3.049576315093403
 42
1.0
 10
-2.485983017556096
 20
-1.358310753073632
 42
1.0
 10
-2.867352798370483
 20
0.4044023583376265
 42
1.0
 10
-3.190995488197396
 20
1.900704823656681
 42
1.0
 72
     4
 94
        3
 73
     1
 74
     0
 95
        8
 96
        4
 40
5.0
 40
5.0
 40
5.0
 40
5.0
 40
6.0
 40
6.0
 40
6.0
 40
6.0
 10
-3.190995488197396
 20
1.900704823656681
 42
1.0
 10
-3.54857504695031
 20
3.553458157285876
 42
1.0
 10
-5.190901218780231
 20
4.599949148191988
 42
1.0
 10
-6.859585567104196
 20
4.238922852960538
 42
1.0
 97
        0
 92
        0
 93
        6
 72
     4
 94
        3
 73
     1
 74
     0
 95
        8
 96
        4
 40
2.0
 40
2.0
 40
2.0
 40
2.0
 40
3.0
 40
3.0
 40
3.0
 40
3.0
 10
-6.919811195494074
 20
2.099808074263809
 42
1.0
 10
-6.228016878711183
 20
2.249480443098069
 42
1.0
 10
-5.547633595833446
 20
1.815851349115847
 42
1.0
 10
-5.399398884916104
 20
1.130701970100344
 42
1.0
 72
     4
 94
        3
 73
     1
 74
     0
 95
        8
 96
        4
 40
3.0
 40
3.0
 40
3.0
 40
3.0
 40
4.0
 40
4.0
 40
4.0
 40
4.0
 10
-5.399398884916104
 20
1.130701970100344
 42
1.0
 10
-5.107009087764085
 20
-0.2207405274728672
 42
1.0
 10
-4.711497421058354
 20
-2.048334586467611
 42
1.0
 10
-4.449160707297047
 20
-3.260870000165379
 42
1.0
 72
     4
 94
        3
 73
     1
 74
     0
 95
        8
 96
        4
 40
4.0
 40
4.0
 40
4.0
 40
4.0
 40
5.0
 40
5.0
 40
5.0
 40
5.0
 10
-4.449160707297047
 20
-3.260870000165379
 42
1.0
 10
-4.300905507193207
 20
-3.946114081381999
 42
1.0
 10
-4.741570606399121
 20
-4.622385452066122
 42
1.0
 10
-5.433383135791953
 20
-4.771973641166296
 42
1.0
 72
     1
 10
-5.433383135791953
 20
-4.771973641166296
 11
-6.809537646582547
 21
-5.069709977697404
 72
     4
 94
        3
 73
     1
 74
     0
 95
        8
 96
        4
 40
0.0
 40
0.0
 40
0.0
 40
0.0
 40
1.0
 40
1.0
 40
1.0
 40
1.0
 10
-6.809537646582547
 20
-5.069709977697404
 42
1.0
 10
-7.284290309572815
 20
-2.875375801708635
 42
1.0
 10
-7.897830097865885
 20
-0.0390758678013329
 42
1.0
 10
-8.296070930952649
 20
1.80204897196991
 42
1.0
 72
     1
 10
-8.296070930952649
 20
1.80204897196991
 11
-6.919811195494074
 21
2.099808074263809
 97
        0
 75
     0
 76
     1
 98
        1
 10
0.0
 20
0.0
  0
ENDBLK
  5
76
330
74
100
AcDbEntity
  8
0
100
AcDbBlockEnd
  0
BLOCK
  5
2C3
330
2C2
100
AcDbEntity
  8
0
100
AcDbBlockBegin
  2
SW_CENTERMARKSYMBOL_0
 70
     0
 10
0.0
 20
0.0
 30
0.0
  3
SW_CENTERMARKSYMBOL_0
  1

  0
LINE
  5
2C5
330
2C2
100
AcDbEntity
  8
0
  6
Continuous
 62
     0
370
    18
100
AcDbLine
 10
0.0
 20
0.0
 30
0.0
 11
0.0
 21
2.5
 31
0.0
  0
LINE
  5
2C6
330
2C2
100
AcDbEntity
  8
0
  6
Continuous
 62
     0
370
    18
100
AcDbLine
 10
0.0
 20
0.0
 30
0.0
 11
-2.5
 21
0.0
 31
0.0
  0
LINE
  5
2C7
330
2C2
100
AcDbEntity
  8
0
  6
Continuous
 62
     0
370
    18
100
AcDbLine
 10
0.0
 20
0.0
 30
0.0
 11
0.0
 21
-2.5
 31
0.0
  0
LINE
  5
2C8
330
2C2
100
AcDbEntity
  8
0
  6
Continuous
 62
     0
370
    18
100
AcDbLine
 10
0.0
 20
0.0
 30
0.0
 11
2.5
 21
0.0
 31
0.0
  0
LINE
  5
2C9
330
2C2
100
AcDbEntity
  8
0
  6
Continuous
 62
     0
370
    18
100
AcDbLine
 10
0.0
 20
5.0
 30
0.0
 11
0.0
 21
78.1
 31
0.0
  0
LINE
  5
2CA
330
2C2
100
AcDbEntity
  8
0
  6
Continuous
 62
     0
370
    18
100
AcDbLine
 10
-5.0
 20
0.0
 30
0.0
 11
-78.1
 21
0.0
 31
0.0
  0
LINE
  5
2CB
330
2C2
100
AcDbEntity
  8
0
  6
Continuous
 62
     0
370
    18
100
AcDbLine
 10
0.0
 20
-5.0
 30
0.0
 11
0.0
 21
-78.1
 31
0.0
  0
LINE
  5
2CC
330
2C2
100
AcDbEntity
  8
0
  6
Continuous
 62
     0
370
    18
100
AcDbLine
 10
5.0
 20
0.0
 30
0.0
 11
78.1
 21
0.0
 31
0.0
  0
ENDBLK
  5
2C4
330
2C2
100
AcDbEntity
  8
0
100
AcDbBlockEnd
  0
ENDSEC
  0
SECTION
  2
ENTITIES
  0
ARC
  5
DA
330
1F
100
AcDbEntity
  8
0
100
AcDbCircle
 10
290.2603617437
 20
26.9491652762
 30
0.0
 40
0.1999999999999886
100
AcDbArc
 50
90.0
 51
180.0
  0
ARC
  5
DB
330
1F
100
AcDbEntity
  8
0
100
AcDbCircle
 10
300.8603617437
 20
26.9491652762
 30
0.0
 40
0.1999999999999886
100
AcDbArc
 50
0.0
 51
90.0
  0
LINE
  5
DC
330
1F
100
AcDbEntity
  8
0
100
AcDbLine
 10
290.0603617437
 20
26.9491652762
 30
0.0
 11
290.0603617437
 21
26.3491652762
 31
0.0
  0
LINE
  5
DD
330
1F
100
AcDbEntity
  8
0
100
AcDbLine
 10
301.0603617437
 20
26.3491652762
 30
0.0
 11
301.0603617437
 21
26.9491652762
 31
0.0
  0
ARC
  5
DE
330
1F
100
AcDbEntity
  8
0
100
AcDbCircle
 10
290.2603617437
 20
26.3491652762
 30
0.0
 40
0.2000000000000064
100
AcDbArc
 50
180.0
 51
270.0
  0
ARC
  5
DF
330
1F
100
AcDbEntity
  8
0
100
AcDbCircle
 10
300.8603617437
 20
26.3491652762
 30
0.0
 40
0.2000000000000064
100
AcDbArc
 50
270.0
 51
0.0
  0
ARC
  5
E0
330
1F
100
AcDbEntity
  8
0
100
AcDbCircle
 10
295.1702242062
 20
33.1396466573
 30
0.0
 40
8.0
100
AcDbArc
 50
287.1467397277
 51
299.0955287963
  0
ARC
  5
E1
330
1F
100
AcDbEntity
  8
0
100
AcDbCircle
 10
295.9504992812
 20
33.1396466573
 30
0.0
 40
8.0
100
AcDbArc
 50
240.9044712037
 51
252.8515803462
  0
ARC
  5
E2
330
1F
100
AcDbEntity
  8
0
100
AcDbCircle
 10
300.8603617437
 20
288.3491652762
 30
0.0
 40
0.1999999999999886
100
AcDbArc
 50
270.0
 51
0.0
  0
ARC
  5
E3
330
1F
100
AcDbEntity
  8
0
100
AcDbCircle
 10
290.2603617437
 20
288.3491652762
 30
0.0
 40
0.1999999999999886
100
AcDbArc
 50
180.0
 51
270.0
  0
LINE
  5
E4
330
1F
100
AcDbEntity
  8
0
100
AcDbLine
 10
301.0603617437
 20
288.3491652762
 30
0.0
 11
301.0603617437
 21
288.9491652762
 31
0.0
  0
LINE
  5
E5
330
1F
100
AcDbEntity
  8
0
100
AcDbLine
 10
290.0603617437
 20
288.9491652762
 30
0.0
 11
290.0603617437
 21
288.3491652762
 31
0.0
  0
ARC
  5
E6
330
1F
100
AcDbEntity
  8
0
100
AcDbCircle
 10
300.8603617437
 20
288.9491652762
 30
0.0
 40
0.2000000000000455
100
AcDbArc
 50
0.0
 51
90.0
  0
ARC
  5
E7
330
1F
100
AcDbEntity
  8
0
100
AcDbCircle
 10
290.2603617437
 20
288.9491652762
 30
0.0
 40
0.2000000000000455
100
AcDbArc
 50
90.0
 51
180.0
  0
ARC
  5
E8
330
1F
100
AcDbEntity
  8
0
100
AcDbCircle
 10
295.9504992812
 20
282.1586838951
 30
0.0
 40
8.000000000000028
100
AcDbArc
 50
107.1467397277
 51
119.0955287963
  0
ARC
  5
E9
330
1F
100
AcDbEntity
  8
0
100
AcDbCircle
 10
295.1702242062
 20
282.1586838951
 30
0.0
 40
8.000000000000028
100
AcDbArc
 50
60.9044712037
 51
72.8515803462
  0
ARC
  5
EA
330
1F
100
AcDbEntity
  8
0
100
AcDbCircle
 10
-279.1396382563
 20
288.3491652762
 30
0.0
 40
0.1999999999999886
100
AcDbArc
 50
270.0
 51
0.0
  0
LINE
  5
EB
330
1F
100
AcDbEntity
  8
0
100
AcDbLine
 10
-278.9396382563
 20
288.3491652762
 30
0.0
 11
-278.9396382563
 21
288.9491652762
 31
0.0
  0
ARC
  5
EC
330
1F
100
AcDbEntity
  8
0
100
AcDbCircle
 10
-279.1396382563
 20
288.9491652762
 30
0.0
 40
0.2000000000000455
100
AcDbArc
 50
0.0
 51
90.0
  0
ARC
  5
ED
330
1F
100
AcDbEntity
  8
0
100
AcDbCircle
 10
-284.0495007188
 20
282.1586838951
 30
0.0
 40
8.000000000000028
100
AcDbArc
 50
107.1467397277
 51
119.0955287963
  0
ARC
  5
EE
330
1F
100
AcDbEntity
  8
0
100
AcDbCircle
 10
-284.8297757938
 20
282.1586838951
 30
0.0
 40
8.000000000000028
100
AcDbArc
 50
60.9044712037
 51
72.8515803462
  0
ARC
  5
EF
330
1F
100
AcDbEntity
  8
0
100
AcDbCircle
 10
-289.7396382563
 20
26.9491652762
 30
0.0
 40
0.199999999999978
100
AcDbArc
 50
90.0
 51
180.0
  0
ARC
  5
F0
330
1F
100
AcDbEntity
  8
0
100
AcDbCircle
 10
-279.1396382563
 20
26.9491652762
 30
0.0
 40
0.1999999999999886
100
AcDbArc
 50
0.0
 51
90.0
  0
LINE
  5
F1
330
1F
100
AcDbEntity
  8
0
100
AcDbLine
 10
-289.9396382563
 20
26.9491652762
 30
0.0
 11
-289.9396382563
 21
26.3491652762
 31
0.0
  0
LINE
  5
F2
330
1F
100
AcDbEntity
  8
0
100
AcDbLine
 10
-278.9396382563
 20
26.3491652762
 30
0.0
 11
-278.9396382563
 21
26.9491652762
 31
0.0
  0
ARC
  5
F3
330
1F
100
AcDbEntity
  8
0
100
AcDbCircle
 10
-289.7396382563
 20
26.3491652762
 30
0.0
 40
0.2000000000000064
100
AcDbArc
 50
180.0
 51
270.0
  0
ARC
  5
F4
330
1F
100
AcDbEntity
  8
0
100
AcDbCircle
 10
-279.1396382563
 20
26.3491652762
 30
0.0
 40
0.2000000000000064
100
AcDbArc
 50
270.0
 51
0.0
  0
ARC
  5
F5
330
1F
100
AcDbEntity
  8
0
100
AcDbCircle
 10
-284.8297757938
 20
33.1396466573
 30
0.0
 40
8.0
100
AcDbArc
 50
287.1467397277
 51
299.0955287963
  0
ARC
  5
F6
330
1F
100
AcDbEntity
  8
0
100
AcDbCircle
 10
-284.0495007188
 20
33.1396466573
 30
0.0
 40
8.00000000000001
100
AcDbArc
 50
240.9044712037
 51
252.8515803462
  0
ARC
  5
F7
330
1F
100
AcDbEntity
  8
0
100
AcDbCircle
 10
388.9048641351
 20
244.5491652762
 30
0.0
 40
0.5
100
AcDbArc
 50
4.9871394293
 51
180.0
  0
ARC
  5
F8
330
1F
100
AcDbEntity
  8
0
100
AcDbCircle
 10
388.9048641351
 20
70.7491652762
 30
0.0
 40
0.5
100
AcDbArc
 50
180.0
 51
355.0128605707
  0
ARC
  5
F9
330
1F
100
AcDbEntity
  8
0
100
AcDbCircle
 10
393.1048641351
 20
244.5491652762
 30
0.0
 40
0.500000000000032
100
AcDbArc
 50
4.9871394293
 51
180.0
  0
ARC
  5
FA
330
1F
100
AcDbEntity
  8
0
100
AcDbCircle
 10
393.1048641351
 20
70.7491652762
 30
0.0
 40
0.5
100
AcDbArc
 50
180.0
 51
355.0128605707
  0
LINE
  5
FB
330
1F
100
AcDbEntity
  8
0
100
AcDbLine
 10
393.6029712531
 20
70.7056992085
 30
0.0
 11
394.2849449911
 21
78.52089831
 31
0.0
  0
LINE
  5
FC
330
1F
100
AcDbEntity
  8
0
100
AcDbLine
 10
394.2849449911
 20
236.7774322424
 30
0.0
 11
393.6029712531
 21
244.5926313439
 31
0.0
  0
LINE
  5
FD
330
1F
100
AcDbEntity
  8
0
100
AcDbLine
 10
389.4029712531
 20
70.7056992085
 30
0.0
 11
390.0849449911
 21
78.52089831
 31
0.0
  0
LINE
  5
FE
330
1F
100
AcDbEntity
  8
0
100
AcDbLine
 10
390.0849449911
 20
236.7774322424
 30
0.0
 11
389.4029712531
 21
244.5926313439
 31
0.0
  0
ARC
  5
FF
330
1F
100
AcDbEntity
  8
0
100
AcDbCircle
 10
394.5339985501
 20
236.7991652762
 30
0.0
 40
0.2500000000000284
100
AcDbArc
 50
184.9871394293
 51
270.0
  0
ARC
  5
100
330
1F
100
AcDbEntity
  8
0
100
AcDbCircle
 10
394.5339985501
 20
78.4991652762
 30
0.0
 40
0.25
100
AcDbArc
 50
90.0
 51
175.0128605707
  0
ARC
  5
101
330
1F
100
AcDbEntity
  8
0
100
AcDbCircle
 10
390.3339985501
 20
236.7991652762
 30
0.0
 40
0.2499999999999877
100
AcDbArc
 50
184.9871394293
 51
270.0
  0
ARC
  5
102
330
1F
100
AcDbEntity
  8
0
100
AcDbCircle
 10
390.3339985501
 20
78.4991652762
 30
0.0
 40
0.25
100
AcDbArc
 50
90.0
 51
175.0128605707
  0
LINE
  5
103
330
1F
100
AcDbEntity
  8
0
100
AcDbLine
 10
392.6048641351
 20
236.5491652762
 30
0.0
 11
390.3339985501
 21
236.5491652762
 31
0.0
  0
LINE
  5
104
330
1F
100
AcDbEntity
  8
0
100
AcDbLine
 10
390.3339985501
 20
78.7491652762
 30
0.0
 11
392.6048641351
 21
78.7491652762
 31
0.0
  0
LINE
  5
105
330
1F
100
AcDbEntity
  8
0
100
AcDbLine
 10
395.6548641351
 20
236.5491652762
 30
0.0
 11
394.5339985501
 21
236.5491652762
 31
0.0
  0
LINE
  5
106
330
1F
100
AcDbEntity
  8
0
100
AcDbLine
 10
394.5339985501
 20
78.7491652762
 30
0.0
 11
395.6548641351
 21
78.7491652762
 31
0.0
  0
ARC
  5
107
330
1F
100
AcDbEntity
  8
0
100
AcDbCircle
 10
-377.7841406477
 20
70.7491652762
 30
0.0
 40
0.5000000000000294
100
AcDbArc
 50
184.9871394293
 51
0.0
  0
ARC
  5
108
330
1F
100
AcDbEntity
  8
0
100
AcDbCircle
 10
-377.7841406477
 20
244.5491652762
 30
0.0
 40
0.5
100
AcDbArc
 50
360.0
 51
175.0128605707
  0
ARC
  5
109
330
1F
100
AcDbEntity
  8
0
100
AcDbCircle
 10
-381.9841406477
 20
70.7491652762
 30
0.0
 40
0.5
100
AcDbArc
 50
184.9871394293
 51
0.0
  0
ARC
  5
10A
330
1F
100
AcDbEntity
  8
0
100
AcDbCircle
 10
-381.9841406477
 20
244.5491652762
 30
0.0
 40
0.5
100
AcDbArc
 50
360.0
 51
175.0128605707
  0
LINE
  5
10B
330
1F
100
AcDbEntity
  8
0
100
AcDbLine
 10
-382.4822477657
 20
244.5926313439
 30
0.0
 11
-383.1642215038
 21
236.7774322424
 31
0.0
  0
LINE
  5
10C
330
1F
100
AcDbEntity
  8
0
100
AcDbLine
 10
-383.1642215037
 20
78.52089831
 30
0.0
 11
-382.4822477657
 21
70.7056992085
 31
0.0
  0
LINE
  5
10D
330
1F
100
AcDbEntity
  8
0
100
AcDbLine
 10
-378.2822477657
 20
244.5926313439
 30
0.0
 11
-378.9642215038
 21
236.7774322424
 31
0.0
  0
LINE
  5
10E
330
1F
100
AcDbEntity
  8
0
100
AcDbLine
 10
-378.9642215037
 20
78.52089831
 30
0.0
 11
-378.2822477657
 21
70.7056992085
 31
0.0
  0
ARC
  5
10F
330
1F
100
AcDbEntity
  8
0
100
AcDbCircle
 10
-383.4132750627
 20
78.4991652762
 30
0.0
 40
0.25
100
AcDbArc
 50
4.9871394293
 51
90.0
  0
ARC
  5
110
330
1F
100
AcDbEntity
  8
0
100
AcDbCircle
 10
-383.4132750627
 20
236.7991652762
 30
0.0
 40
0.2500000000000284
100
AcDbArc
 50
270.0
 51
355.0128605707
  0
ARC
  5
111
330
1F
100
AcDbEntity
  8
0
100
AcDbCircle
 10
-379.2132750627
 20
78.4991652762
 30
0.0
 40
0.25
100
AcDbArc
 50
4.9871394293
 51
90.0
  0
ARC
  5
112
330
1F
100
AcDbEntity
  8
0
100
AcDbCircle
 10
-379.2132750627
 20
236.7991652762
 30
0.0
 40
0.2499999999999877
100
AcDbArc
 50
270.0
 51
355.0128605707
  0
LINE
  5
113
330
1F
100
AcDbEntity
  8
0
100
AcDbLine
 10
-381.4841406477
 20
78.7491652762
 30
0.0
 11
-379.2132750627
 21
78.7491652762
 31
0.0
  0
LINE
  5
114
330
1F
100
AcDbEntity
  8
0
100
AcDbLine
 10
-379.2132750627
 20
236.5491652762
 30
0.0
 11
-381.4841406477
 21
236.5491652762
 31
0.0
  0
LINE
  5
115
330
1F
100
AcDbEntity
  8
0
100
AcDbLine
 10
-384.5341406477
 20
78.7491652762
 30
0.0
 11
-383.4132750627
 21
78.7491652762
 31
0.0
  0
LINE
  5
116
330
1F
100
AcDbEntity
  8
0
100
AcDbLine
 10
-383.4132750627
 20
236.5491652762
 30
0.0
 11
-384.5341406477
 21
236.5491652762
 31
0.0
  0
ARC
  5
117
330
1F
100
AcDbEntity
  8
0
100
AcDbCircle
 10
308.7716698884
 20
286.8991652762
 30
0.0
 40
2.750000000000012
100
AcDbArc
 50
8.8498830984
 51
171.1501169016
  0
ARC
  5
118
330
1F
100
AcDbEntity
  8
0
100
AcDbCircle
 10
308.7716698884
 20
28.3991652762
 30
0.0
 40
2.750000000000021
100
AcDbArc
 50
188.8498830984
 51
351.1501169016
  0
ARC
  5
119
330
1F
100
AcDbEntity
  8
0
100
AcDbCircle
 10
311.982978033
 20
287.3991652762
 30
0.0
 40
0.5000000000000103
100
AcDbArc
 50
188.8498830984
 51
270.0
  0
ARC
  5
11A
330
1F
100
AcDbEntity
  8
0
100
AcDbCircle
 10
311.982978033
 20
27.8991652762
 30
0.0
 40
0.5000000000000088
100
AcDbArc
 50
90.0
 51
171.1501169016
  0
ARC
  5
11B
330
1F
100
AcDbEntity
  8
0
100
AcDbCircle
 10
305.5603617437
 20
287.3991652762
 30
0.0
 40
0.5000000000000191
100
AcDbArc
 50
270.0
 51
351.1501169016
  0
ARC
  5
11C
330
1F
100
AcDbEntity
  8
0
100
AcDbCircle
 10
305.5603617437
 20
27.8991652762
 30
0.0
 40
0.5000000000000698
100
AcDbArc
 50
8.8498830984
 51
90.0
  0
LINE
  5
11D
330
1F
100
AcDbEntity
  8
0
100
AcDbLine
 10
313.5603617437
 20
286.8991652762
 30
0.0
 11
311.982978033
 21
286.8991652762
 31
0.0
  0
LINE
  5
11E
330
1F
100
AcDbEntity
  8
0
100
AcDbLine
 10
311.982978033
 20
28.3991652762
 30
0.0
 11
313.5603617437
 21
28.3991652762
 31
0.0
  0
ARC
  5
11F
330
1F
100
AcDbEntity
  8
0
100
AcDbCircle
 10
313.5603617437
 20
278.1491652762
 30
0.0
 40
8.750000000000012
100
AcDbArc
 50
20.0
 51
90.0
  0
ARC
  5
120
330
1F
100
AcDbEntity
  8
0
100
AcDbCircle
 10
313.5603617437
 20
37.1491652762
 30
0.0
 40
8.74999999999999
100
AcDbArc
 50
270.0
 51
340.0
  0
LINE
  5
121
330
1F
100
AcDbEntity
  8
0
100
AcDbLine
 10
321.7826721756
 20
34.1564890221
 30
0.0
 11
336.2573085829
 21
73.9252257062
 31
0.0
  0
LINE
  5
122
330
1F
100
AcDbEntity
  8
0
100
AcDbLine
 10
336.2573085829
 20
241.3731048462
 30
0.0
 11
321.7826721756
 21
281.1418415303
 31
0.0
  0
ARC
  5
123
330
1F
100
AcDbEntity
  8
0
100
AcDbCircle
 10
339.0763864453
 20
242.3991652762
 30
0.0
 40
3.0
100
AcDbArc
 50
200.0
 51
270.0
  0
ARC
  5
124
330
1F
100
AcDbEntity
  8
0
100
AcDbCircle
 10
339.0763864453
 20
72.8991652762
 30
0.0
 40
3.000000000000024
100
AcDbArc
 50
100.475313843
 51
160.0
  0
ARC
  5
125
330
1F
100
AcDbEntity
  8
0
100
AcDbCircle
 10
356.6548641351
 20
237.0491652762
 30
0.0
 40
2.75000000000002
100
AcDbArc
 50
8.8498830984
 51
171.1501169016
  0
ARC
  5
126
330
1F
100
AcDbEntity
  8
0
100
AcDbCircle
 10
356.6548641351
 20
78.2491652762
 30
0.0
 40
2.750000000000018
100
AcDbArc
 50
188.8498830984
 51
351.1501169016
  0
LINE
  5
127
330
1F
100
AcDbEntity
  8
0
100
AcDbLine
 10
348.5093991472
 20
239.3991652762
 30
0.0
 11
339.0763864453
 21
239.3991652762
 31
0.0
  0
LINE
  5
128
330
1F
100
AcDbEntity
  8
0
100
AcDbLine
 10
339.6532549624
 20
75.8991652762
 30
0.0
 11
348.5093991472
 21
75.8991652762
 31
0.0
  0
LINE
  5
129
330
1F
100
AcDbEntity
  8
0
100
AcDbLine
 10
348.5093991472
 20
75.8991652762
 30
0.0
 11
349.8661722798
 21
78.2491652762
 31
0.0
  0
LINE
  5
12A
330
1F
100
AcDbEntity
  8
0
100
AcDbLine
 10
349.8661722798
 20
237.0491652762
 30
0.0
 11
348.5093991472
 21
239.3991652762
 31
0.0
  0
ARC
  5
12B
330
1F
100
AcDbEntity
  8
0
100
AcDbCircle
 10
353.4435559905
 20
237.5491652762
 30
0.0
 40
0.5
100
AcDbArc
 50
270.0
 51
351.1501169016
  0
ARC
  5
12C
330
1F
100
AcDbEntity
  8
0
100
AcDbCircle
 10
353.4435559905
 20
77.7491652762
 30
0.0
 40
0.5000000000000082
100
AcDbArc
 50
8.8498830984
 51
90.0
  0
ARC
  5
12D
330
1F
100
AcDbEntity
  8
0
100
AcDbCircle
 10
359.8661722798
 20
237.5491652762
 30
0.0
 40
0.5000000000000622
100
AcDbArc
 50
188.8498830984
 51
270.0
  0
ARC
  5
12E
330
1F
100
AcDbEntity
  8
0
100
AcDbCircle
 10
359.8661722798
 20
77.7491652762
 30
0.0
 40
0.4999999999999858
100
AcDbArc
 50
90.0
 51
171.1501169016
  0
LINE
  5
12F
330
1F
100
AcDbEntity
  8
0
100
AcDbLine
 10
400.3548641351
 20
237.0491652762
 30
0.0
 11
395.6548641351
 21
237.0491652762
 31
0.0
  0
LINE
  5
130
330
1F
100
AcDbEntity
  8
0
100
AcDbLine
 10
395.6548641351
 20
78.2491652762
 30
0.0
 11
400.3548641351
 21
78.2491652762
 31
0.0
  0
LINE
  5
131
330
1F
100
AcDbEntity
  8
0
100
AcDbLine
 10
353.4435559905
 20
237.0491652762
 30
0.0
 11
349.8661722798
 21
237.0491652762
 31
0.0
  0
LINE
  5
132
330
1F
100
AcDbEntity
  8
0
100
AcDbLine
 10
349.8661722798
 20
78.2491652762
 30
0.0
 11
353.4435559905
 21
78.2491652762
 31
0.0
  0
LINE
  5
133
330
1F
100
AcDbEntity
  8
0
100
AcDbLine
 10
382.9956864582
 20
237.0491652762
 30
0.0
 11
359.8661722798
 21
237.0491652762
 31
0.0
  0
LINE
  5
134
330
1F
100
AcDbEntity
  8
0
100
AcDbLine
 10
359.8661722798
 20
78.2491652762
 30
0.0
 11
382.9956864582
 21
78.2491652762
 31
0.0
  0
LINE
  5
135
330
1F
100
AcDbEntity
  8
0
100
AcDbLine
 10
382.9956864582
 20
78.2491652762
 30
0.0
 11
388.4048641351
 21
80.2962713925
 31
0.0
  0
LINE
  5
136
330
1F
100
AcDbEntity
  8
0
100
AcDbLine
 10
388.4048641351
 20
235.0020591599
 30
0.0
 11
382.9956864582
 21
237.0491652762
 31
0.0
  0
ARC
  5
137
330
1F
100
AcDbEntity
  8
0
100
AcDbCircle
 10
400.3548641351
 20
235.7491652762
 30
0.0
 40
1.299999999983754
100
AcDbArc
 50
0.0
 51
90.0
  0
ARC
  5
138
330
1F
100
AcDbEntity
  8
0
100
AcDbCircle
 10
400.3548641351
 20
79.5491652762
 30
0.0
 40
1.299999999983811
100
AcDbArc
 50
270.0
 51
0.0
  0
ARC
  5
139
330
1F
100
AcDbEntity
  8
0
100
AcDbCircle
 10
-297.650946401
 20
28.3991652762
 30
0.0
 40
2.750000000000008
100
AcDbArc
 50
188.8498830984
 51
351.1501169016
  0
ARC
  5
13A
330
1F
100
AcDbEntity
  8
0
100
AcDbCircle
 10
-297.650946401
 20
286.8991652762
 30
0.0
 40
2.750000000000012
100
AcDbArc
 50
8.8498830984
 51
171.1501169016
  0
ARC
  5
13B
330
1F
100
AcDbEntity
  8
0
100
AcDbCircle
 10
-300.8622545456
 20
27.8991652762
 30
0.0
 40
0.5000000000000648
100
AcDbArc
 50
8.8498830984
 51
90.0
  0
ARC
  5
13C
330
1F
100
AcDbEntity
  8
0
100
AcDbCircle
 10
-300.8622545456
 20
287.3991652762
 30
0.0
 40
0.5000000000000103
100
AcDbArc
 50
270.0
 51
351.1501169016
  0
ARC
  5
13D
330
1F
100
AcDbEntity
  8
0
100
AcDbCircle
 10
-294.4396382563
 20
27.8991652762
 30
0.0
 40
0.5000000000000137
100
AcDbArc
 50
90.0
 51
171.1501169016
  0
ARC
  5
13E
330
1F
100
AcDbEntity
  8
0
100
AcDbCircle
 10
-294.4396382563
 20
287.3991652762
 30
0.0
 40
0.5000000000000191
100
AcDbArc
 50
188.8498830984
 51
270.0
  0
LINE
  5
13F
330
1F
100
AcDbEntity
  8
0
100
AcDbLine
 10
-302.4396382563
 20
28.3991652762
 30
0.0
 11
-300.8622545456
 21
28.3991652762
 31
0.0
  0
LINE
  5
140
330
1F
100
AcDbEntity
  8
0
100
AcDbLine
 10
-300.8622545456
 20
286.8991652762
 30
0.0
 11
-302.4396382563
 21
286.8991652762
 31
0.0
  0
ARC
  5
141
330
1F
100
AcDbEntity
  8
0
100
AcDbCircle
 10
-302.4396382563
 20
37.1491652762
 30
0.0
 40
8.74999999999999
100
AcDbArc
 50
200.0
 51
270.0
  0
ARC
  5
142
330
1F
100
AcDbEntity
  8
0
100
AcDbCircle
 10
-302.4396382563
 20
278.1491652762
 30
0.0
 40
8.750000000000012
100
AcDbArc
 50
90.0
 51
160.0
  0
LINE
  5
143
330
1F
100
AcDbEntity
  8
0
100
AcDbLine
 10
-310.6619486882
 20
281.1418415303
 30
0.0
 11
-325.1365850956
 21
241.3731048462
 31
0.0
  0
LINE
  5
144
330
1F
100
AcDbEntity
  8
0
100
AcDbLine
 10
-325.1365850956
 20
73.9252257062
 30
0.0
 11
-310.6619486882
 21
34.1564890221
 31
0.0
  0
ARC
  5
145
330
1F
100
AcDbEntity
  8
0
100
AcDbCircle
 10
-327.9556629579
 20
72.8991652762
 30
0.0
 40
3.000000000000024
100
AcDbArc
 50
20.0
 51
90.0
  0
ARC
  5
146
330
1F
100
AcDbEntity
  8
0
100
AcDbCircle
 10
-327.9556629579
 20
242.3991652762
 30
0.0
 40
3.000000000000038
100
AcDbArc
 50
270.0
 51
340.0
  0
ARC
  5
147
330
1F
100
AcDbEntity
  8
0
100
AcDbCircle
 10
-345.5341406477
 20
78.2491652762
 30
0.0
 40
2.750000000000018
100
AcDbArc
 50
188.8498830984
 51
351.1501169016
  0
ARC
  5
148
330
1F
100
AcDbEntity
  8
0
100
AcDbCircle
 10
-345.5341406477
 20
237.0491652762
 30
0.0
 40
2.75000000000002
100
AcDbArc
 50
8.8498830984
 51
171.1501169016
  0
LINE
  5
149
330
1F
100
AcDbEntity
  8
0
100
AcDbLine
 10
-337.3886756598
 20
239.3991652762
 30
0.0
 11
-338.7454487924
 21
237.0491652762
 31
0.0
  0
LINE
  5
14A
330
1F
100
AcDbEntity
  8
0
100
AcDbLine
 10
-338.7454487924
 20
78.2491652762
 30
0.0
 11
-337.3886756598
 21
75.8991652762
 31
0.0
  0
LINE
  5
14B
330
1F
100
AcDbEntity
  8
0
100
AcDbLine
 10
-337.3886756598
 20
75.8991652762
 30
0.0
 11
-327.9556629579
 21
75.8991652762
 31
0.0
  0
LINE
  5
14C
330
1F
100
AcDbEntity
  8
0
100
AcDbLine
 10
-327.9556629579
 20
239.3991652762
 30
0.0
 11
-330.5938107694
 21
239.3991652762
 31
0.0
  0
LINE
  5
14D
330
1F
100
AcDbEntity
  8
0
100
AcDbLine
 10
-336.0752659888
 20
239.3991652762
 30
0.0
 11
-337.3886756598
 21
239.3991652762
 31
0.0
  0
ARC
  5
14E
330
1F
100
AcDbEntity
  8
0
100
AcDbCircle
 10
-348.7454487924
 20
77.7491652762
 30
0.0
 40
0.4999999999999858
100
AcDbArc
 50
8.8498830984
 51
90.0
  0
ARC
  5
14F
330
1F
100
AcDbEntity
  8
0
100
AcDbCircle
 10
-348.7454487924
 20
237.5491652762
 30
0.0
 40
0.500000000000006
100
AcDbArc
 50
270.0
 51
351.1501169016
  0
ARC
  5
150
330
1F
100
AcDbEntity
  8
0
100
AcDbCircle
 10
-342.3228325031
 20
77.7491652762
 30
0.0
 40
0.5000000000000082
100
AcDbArc
 50
90.0
 51
171.1501169016
  0
ARC
  5
151
330
1F
100
AcDbEntity
  8
0
100
AcDbCircle
 10
-342.3228325031
 20
237.5491652762
 30
0.0
 40
0.5
100
AcDbArc
 50
188.8498830984
 51
270.0
  0
LINE
  5
152
330
1F
100
AcDbEntity
  8
0
100
AcDbLine
 10
-389.2341406478
 20
78.2491652762
 30
0.0
 11
-384.5341406477
 21
78.2491652762
 31
0.0
  0
LINE
  5
153
330
1F
100
AcDbEntity
  8
0
100
AcDbLine
 10
-384.5341406477
 20
237.0491652762
 30
0.0
 11
-389.2341406478
 21
237.0491652762
 31
0.0
  0
LINE
  5
154
330
1F
100
AcDbEntity
  8
0
100
AcDbLine
 10
-342.3228325031
 20
78.2491652762
 30
0.0
 11
-338.7454487924
 21
78.2491652762
 31
0.0
  0
LINE
  5
155
330
1F
100
AcDbEntity
  8
0
100
AcDbLine
 10
-338.7454487924
 20
237.0491652762
 30
0.0
 11
-342.3228325031
 21
237.0491652762
 31
0.0
  0
LINE
  5
156
330
1F
100
AcDbEntity
  8
0
100
AcDbLine
 10
-371.8749629709
 20
237.0491652762
 30
0.0
 11
-377.2841406477
 21
235.0020591599
 31
0.0
  0
LINE
  5
157
330
1F
100
AcDbEntity
  8
0
100
AcDbLine
 10
-377.2841406477
 20
80.2962713925
 30
0.0
 11
-371.8749629709
 21
78.2491652762
 31
0.0
  0
LINE
  5
158
330
1F
100
AcDbEntity
  8
0
100
AcDbLine
 10
-371.8749629709
 20
78.2491652762
 30
0.0
 11
-348.7454487924
 21
78.2491652762
 31
0.0
  0
LINE
  5
159
330
1F
100
AcDbEntity
  8
0
100
AcDbLine
 10
-348.7454487924
 20
237.0491652762
 30
0.0
 11
-371.8749629709
 21
237.0491652762
 31
0.0
  0
ARC
  5
15A
330
1F
100
AcDbEntity
  8
0
100
AcDbCircle
 10
-389.2341406478
 20
79.5491652762
 30
0.0
 40
1.299999999983754
100
AcDbArc
 50
180.0
 51
270.0
  0
ARC
  5
15B
330
1F
100
AcDbEntity
  8
0
100
AcDbCircle
 10
-389.2341406478
 20
235.7491652762
 30
0.0
 40
1.299999999983754
100
AcDbArc
 50
90.0
 51
180.0
  0
LINE
  5
15C
330
1F
100
AcDbEntity
  8
0
100
AcDbLine
 10
-110.6395052375
 20
25.4991652772
 30
0.0
 11
-106.296606063
 21
25.4991652772
 31
0.0
  0
LINE
  5
15D
330
1F
100
AcDbEntity
  8
0
100
AcDbLine
 10
11.3604947625
 20
25.4991652772
 30
0.0
 11
15.703393937
 21
25.4991652772
 31
0.0
  0
LINE
  5
15E
330
1F
100
AcDbEntity
  8
0
100
AcDbLine
 10
133.3604947625
 20
25.4991652772
 30
0.0
 11
137.703393937
 21
25.4991652772
 31
0.0
  0
LINE
  5
15F
330
1F
100
AcDbEntity
  8
0
100
AcDbLine
 10
255.3604947625
 20
25.4991652772
 30
0.0
 11
259.703393937
 21
25.4991652772
 31
0.0
  0
LINE
  5
160
330
1F
100
AcDbEntity
  8
0
100
AcDbLine
 10
-167.296606063
 20
289.7991652752
 30
0.0
 11
-171.6395052375
 21
289.7991652752
 31
0.0
  0
LINE
  5
161
330
1F
100
AcDbEntity
  8
0
100
AcDbLine
 10
-45.296606063
 20
289.7991652752
 30
0.0
 11
-49.6395052375
 21
289.7991652752
 31
0.0
  0
LINE
  5
162
330
1F
100
AcDbEntity
  8
0
100
AcDbLine
 10
76.703393937
 20
289.7991652752
 30
0.0
 11
72.3604947625
 21
289.7991652752
 31
0.0
  0
LINE
  5
163
330
1F
100
AcDbEntity
  8
0
100
AcDbLine
 10
198.703393937
 20
289.7991652752
 30
0.0
 11
194.3604947625
 21
289.7991652752
 31
0.0
  0
LINE
  5
164
330
1F
100
AcDbEntity
  8
0
100
AcDbLine
 10
-289.296606063
 20
289.7991652752
 30
0.0
 11
-293.6395052375
 21
289.7991652752
 31
0.0
  0
LINE
  5
165
330
1F
100
AcDbEntity
  8
0
100
AcDbLine
 10
-232.6395052375
 20
25.4991652772
 30
0.0
 11
-228.296606063
 21
25.4991652772
 31
0.0
  0
SPLINE
  5
166
330
1F
100
AcDbEntity
  8
0
100
AcDbSpline
210
0.0
220
0.0
230
1.0
 70
     8
 71
     3
 72
    59
 73
    55
 74
     0
 42
0.00000001
 43
0.00000001
 40
0.0
 40
0.0
 40
0.0
 40
0.0
 40
0.0115236199974645
 40
0.0248814129990594
 40
0.0360645137671915
 40
0.0452947862593388
 40
0.054307508680072
 40
0.0634753269766528
 40
0.0728011841560049
 40
0.0816581235913228
 40
0.0899964026572622
 40
0.0964264190559435
 40
0.1027758536094732
 40
0.110340508852992
 40
0.1191294837489401
 40
0.1285094687601212
 40
0.1377293421354993
 40
0.1689558248451069
 40
0.1999890303075956
 40
0.2310115417071279
 40
0.2620655473398655
 40
0.2930986562848194
 40
0.3241635128243961
 40
0.3552071824110448
 40
0.3862753349568157
 40
0.4069762783901889
 40
0.4277016664395873
 40
0.4485734542005224
 40
0.4706595948233375
 40
0.4912614886141875
 40
0.5090944986161836
 40
0.5301383577444717
 40
0.5515594866493567
 40
0.5726711139625351
 40
0.5934454923405087
 40
0.6141721115520843
 40
0.634890517445284
 40
0.6659907047262704
 40
0.6970733308993596
 40
0.7281752510935586
 40
0.7592746529919169
 40
0.7841661102125852
 40
0.8090526871182065
 40
0.8339630207850608
 40
0.8588560349560581
 40
0.8843236804607609
 40
0.9015032940134734
 40
0.9170637195338082
 40
0.9286370992099778
 40
0.9433382593471976
 40
0.960811924767715
 40
0.9777884792670396
 40
0.9950258833172924
 40
1.0
 40
1.0
 40
1.0
 40
1.0
 10
-171.4500710032965
 20
288.1665688980564
 30
0.0
 10
-171.2680501476308
 20
288.146728568769
 30
0.0
 10
-170.8750368336499
 20
288.1038899965889
 30
0.0
 10
-170.3086978399548
 20
287.80965028758
 30
0.0
 10
-169.7514673778355
 20
287.4076787790998
 30
0.0
 10
-169.2175470076093
 20
286.9060564410441
 30
0.0
 10
-168.7130444523639
 20
286.3338029896464
 30
0.0
 10
-168.1985111031471
 20
285.6548068303632
 30
0.0
 10
-167.6787574451801
 20
284.872246878885
 30
0.0
 10
-167.1694188371729
 20
284.0121360315282
 30
0.0
 10
-166.7132024643265
 20
283.1630454992576
 30
0.0
 10
-166.3016772072374
 20
282.3363305689075
 30
0.0
 10
-165.9025029944949
 20
281.4831737166107
 30
0.0
 10
-165.4571752279657
 20
280.4676141514167
 30
0.0
 10
-164.9503712766585
 20
279.2323486762428
 30
0.0
 10
-164.4092064300916
 20
277.8200176620004
 30
0.0
 10
-163.4220483951028
 20
275.0710361043697
 30
0.0
 10
-162.0048021588898
 20
270.5685339650592
 30
0.0
 10
-160.1444074883951
 20
263.63877230618
 30
0.0
 10
-158.2918910985404
 20
255.7395554353491
 30
0.0
 10
-156.4296918457817
 20
246.9340687884942
 30
0.0
 10
-154.5746771787334
 20
237.2991237874934
 30
0.0
 10
-152.7103689060882
 20
226.9313072324772
 30
0.0
 10
-150.8537131459983
 20
215.9196272643593
 30
0.0
 10
-149.1958191363624
 20
205.6549097470386
 30
0.0
 10
-147.7518197661809
 20
196.3921682516644
 30
0.0
 10
-146.504482999669
 20
188.273127398544
 30
0.0
 10
-145.2344935283569
 20
179.8436143647562
 30
0.0
 10
-143.9656570551527
 20
171.3327620444373
 30
0.0
 10
-142.754270651934
 20
163.1736882095453
 30
0.0
 10
-141.5694912297455
 20
155.1357542531568
 30
0.0
 10
-140.3642571972645
 20
146.9941786727277
 30
0.0
 10
-139.0924969816949
 20
138.4550421231867
 30
0.0
 10
-137.8316513367481
 20
130.0328463108406
 30
0.0
 10
-136.5785270367743
 20
121.8184638382146
 30
0.0
 10
-135.3359131911182
 20
113.8011976470463
 30
0.0
 10
-133.8893241050983
 20
104.6619640291178
 30
0.0
 10
-132.2293813159434
 20
94.56598441166989
 30
0.0
 10
-130.3685694126645
 20
83.78364368207276
 30
0.0
 10
-128.5022196895966
 20
73.67816948083723
 30
0.0
 10
-126.7621359724629
 20
64.95961652718391
 30
0.0
 10
-125.1433801105357
 20
57.53098270961847
 30
0.0
 10
-123.6508656321
 20
51.25509273165591
 30
0.0
 10
-122.1508805797251
 20
45.60089457876919
 30
0.0
 10
-120.6442554865883
 20
40.55957553887058
 30
0.0
 10
-119.2803262062868
 20
36.65653076586204
 30
0.0
 10
-118.1043208245461
 20
33.75954033361212
 30
0.0
 10
-117.2052488014467
 20
31.83504522556876
 30
0.0
 10
-116.346536461852
 20
30.23184598217773
 30
0.0
 10
-115.4299134013426
 20
28.76701761974873
 30
0.0
 10
-114.3881002821289
 20
27.42834417662768
 30
0.0
 10
-113.2686616797382
 20
26.427673661855
 30
0.0
 10
-112.3873382797352
 20
25.82121022972589
 30
0.0
 10
-111.8259976737011
 20
25.72976564476715
 30
0.0
 10
-111.7002893214129
 20
25.70928726145177
 30
0.0
  0
LINE
  5
167
330
1F
100
AcDbEntity
  8
0
100
AcDbLine
 10
-111.5396255068
 20
25.6774625625
 30
0.0
 11
-110.9766829715
 21
25.5659534665
 31
0.0
  0
SPLINE
  5
168
330
1F
100
AcDbEntity
  8
0
100
AcDbSpline
210
0.0
220
0.0
230
1.0
 70
     8
 71
     3
 72
    59
 73
    55
 74
     0
 42
0.00000001
 43
0.00000001
 40
0.0
 40
0.0
 40
0.0
 40
0.0
 40
0.0115236199974633
 40
0.024881412999059
 40
0.0360645137671904
 40
0.0452947862593377
 40
0.054307508680071
 40
0.063475326976651
 40
0.0728011841560038
 40
0.081658123591321
 40
0.089996402657262
 40
0.0964264190559409
 40
0.1027758536094713
 40
0.1103405088529918
 40
0.1191294837489392
 40
0.1285094687601195
 40
0.1377293421354976
 40
0.168955824845106
 40
0.1999890303075947
 40
0.2310115417071271
 40
0.2620655473398647
 40
0.2930986562848179
 40
0.3241635128243939
 40
0.3552071824110434
 40
0.3862753349568152
 40
0.4069762783901884
 40
0.4277016664395861
 40
0.4485734542005227
 40
0.4706595948233371
 40
0.4912614886141879
 40
0.5090944986161833
 40
0.530138357744473
 40
0.5515594866493573
 40
0.5726711139625349
 40
0.5934454923405095
 40
0.6141721115520834
 40
0.6348905174452831
 40
0.6659907047262704
 40
0.6970733308993596
 40
0.728175251093558
 40
0.7592746529919178
 40
0.784166110212587
 40
0.8090526871182067
 40
0.8339630207850611
 40
0.8588560349560584
 40
0.8843236804607605
 40
0.9015032940134746
 40
0.9170637195338096
 40
0.9286370992099784
 40
0.9433382593471991
 40
0.9608119247677165
 40
0.977788479267041
 40
0.9950258833172938
 40
1.0
 40
1.0
 40
1.0
 40
1.0
 10
-49.45007100329641
 20
288.1665688980564
 30
0.0
 10
-49.26805014763072
 20
288.146728568769
 30
0.0
 10
-48.87503683364977
 20
288.1038899965889
 30
0.0
 10
-48.30869783995492
 20
287.80965028758
 30
0.0
 10
-47.75146737783539
 20
287.4076787790998
 30
0.0
 10
-47.21754700760931
 20
286.9060564410442
 30
0.0
 10
-46.71304445236396
 20
286.3338029896463
 30
0.0
 10
-46.19851110314706
 20
285.6548068303632
 30
0.0
 10
-45.67875744518005
 20
284.8722468788851
 30
0.0
 10
-45.16941883717296
 20
284.0121360315282
 30
0.0
 10
-44.71320246432645
 20
283.1630454992577
 30
0.0
 10
-44.30167720723748
 20
282.3363305689076
 30
0.0
 10
-43.90250299449504
 20
281.4831737166107
 30
0.0
 10
-43.45717522796574
 20
280.4676141514167
 30
0.0
 10
-42.95037127665843
 20
279.2323486762428
 30
0.0
 10
-42.40920643009159
 20
277.8200176620005
 30
0.0
 10
-41.42204839510285
 20
275.0710361043699
 30
0.0
 10
-40.00480215888962
 20
270.5685339650593
 30
0.0
 10
-38.14440748839517
 20
263.63877230618
 30
0.0
 10
-36.29189109854035
 20
255.7395554353491
 30
0.0
 10
-34.42969184578178
 20
246.9340687884943
 30
0.0
 10
-32.57467717873337
 20
237.2991237874936
 30
0.0
 10
-30.71036890608834
 20
226.9313072324775
 30
0.0
 10
-28.85371314599838
 20
215.9196272643596
 30
0.0
 10
-27.19581913636232
 20
205.6549097470387
 30
0.0
 10
-25.75181976618091
 20
196.3921682516645
 30
0.0
 10
-24.50448299966891
 20
188.273127398544
 30
0.0
 10
-23.2344935283569
 20
179.8436143647562
 30
0.0
 10
-21.96565705515258
 20
171.3327620444371
 30
0.0
 10
-20.75427065193394
 20
163.1736882095452
 30
0.0
 10
-19.56949122974542
 20
155.1357542531564
 30
0.0
 10
-18.36425719726441
 20
146.9941786727273
 30
0.0
 10
-17.09249698169486
 20
138.4550421231864
 30
0.0
 10
-15.83165133674818
 20
130.0328463108403
 30
0.0
 10
-14.57852703677426
 20
121.8184638382147
 30
0.0
 10
-13.33591319111834
 20
113.8011976470464
 30
0.0
 10
-11.88932410509817
 20
104.661964029118
 30
0.0
 10
-10.22938131594348
 20
94.56598441167006
 30
0.0
 10
-8.368569412664604
 20
83.78364368207279
 30
0.0
 10
-6.502219689596444
 20
73.67816948083727
 30
0.0
 10
-4.762135972462889
 20
64.95961652718374
 30
0.0
 10
-3.143380110535575
 20
57.53098270961828
 30
0.0
 10
-1.650865632100045
 20
51.25509273165571
 30
0.0
 10
-0.150880579725135
 20
45.60089457876924
 30
0.0
 10
1.355744513411751
 20
40.55957553887062
 30
0.0
 10
2.719673793713128
 20
36.65653076586214
 30
0.0
 10
3.895679175453822
 20
33.75954033361202
 30
0.0
 10
4.794751198553476
 20
31.83504522556871
 30
0.0
 10
5.653463538148089
 20
30.23184598217771
 30
0.0
 10
6.570086598657356
 20
28.76701761974862
 30
0.0
 10
7.611899717871101
 20
27.42834417662768
 30
0.0
 10
8.731338320261743
 20
26.42767366185489
 30
0.0
 10
9.612661720264915
 20
25.82121022972597
 30
0.0
 10
10.17400232629886
 20
25.72976564476715
 30
0.0
 10
10.29971067858698
 20
25.70928726145177
 30
0.0
  0
LINE
  5
169
330
1F
100
AcDbEntity
  8
0
100
AcDbLine
 10
10.4603744932
 20
25.6774625625
 30
0.0
 11
11.0233170285
 21
25.5659534665
 31
0.0
  0
SPLINE
  5
16A
330
1F
100
AcDbEntity
  8
0
100
AcDbSpline
210
0.0
220
0.0
230
1.0
 70
     8
 71
     3
 72
    59
 73
    55
 74
     0
 42
0.00000001
 43
0.00000001
 40
0.0
 40
0.0
 40
0.0
 40
0.0
 40
0.0115236199974657
 40
0.0248814129990608
 40
0.0360645137671938
 40
0.0452947862593381
 40
0.054307508680073
 40
0.0634753269766543
 40
0.0728011841560069
 40
0.0816581235913238
 40
0.0899964026572645
 40
0.0964264190559448
 40
0.102775853609475
 40
0.1103405088529937
 40
0.119129483748941
 40
0.1285094687601213
 40
0.1377293421354994
 40
0.1689558248451062
 40
0.1999890303075956
 40
0.2310115417071273
 40
0.262065547339866
 40
0.2930986562848202
 40
0.324163512824396
 40
0.3552071824110455
 40
0.3862753349568155
 40
0.4069762783901895
 40
0.4277016664395863
 40
0.448573454200523
 40
0.4706595948233399
 40
0.4912614886141902
 40
0.5090944986161847
 40
0.530138357744473
 40
0.5515594866493582
 40
0.5726711139625356
 40
0.59344549234051
 40
0.6141721115520838
 40
0.6348905174452836
 40
0.6659907047262708
 40
0.6970733308993587
 40
0.728175251093559
 40
0.7592746529919155
 40
0.7841661102125863
 40
0.8090526871182059
 40
0.8339630207850618
 40
0.8588560349560574
 40
0.884323680460761
 40
0.9015032940134735
 40
0.9170637195338086
 40
0.9286370992099791
 40
0.9433382593471974
 40
0.9608119247677157
 40
0.9777884792670413
 40
0.9950258833172918
 40
0.9999999999999999
 40
0.9999999999999999
 40
0.9999999999999999
 40
0.9999999999999999
 10
72.54992899670343
 20
288.1665688980564
 30
0.0
 10
72.73194985236911
 20
288.146728568769
 30
0.0
 10
73.12496316634999
 20
288.1038899965889
 30
0.0
 10
73.69130216004531
 20
287.8096502875801
 30
0.0
 10
74.2485326221644
 20
287.4076787790997
 30
0.0
 10
74.78245299239066
 20
286.9060564410443
 30
0.0
 10
75.28695554763604
 20
286.3338029896462
 30
0.0
 10
75.80148889685293
 20
285.654806830363
 30
0.0
 10
76.32124255481992
 20
284.8722468788849
 30
0.0
 10
76.83058116282719
 20
284.0121360315283
 30
0.0
 10
77.28679753567363
 20
283.1630454992575
 30
0.0
 10
77.69832279276257
 20
282.3363305689074
 30
0.0
 10
78.09749700550513
 20
281.4831737166106
 30
0.0
 10
78.54282477203415
 20
280.4676141514166
 30
0.0
 10
79.04962872334161
 20
279.2323486762428
 30
0.0
 10
79.59079356990839
 20
277.8200176620005
 30
0.0
 10
80.57795160489715
 20
275.07103610437
 30
0.0
 10
81.99519784111018
 20
270.5685339650595
 30
0.0
 10
83.8555925116049
 20
263.6387723061803
 30
0.0
 10
85.70810890145961
 20
255.7395554353493
 30
0.0
 10
87.57030815421821
 20
246.9340687884943
 30
0.0
 10
89.42532282126676
 20
237.2991237874935
 30
0.0
 10
91.28963109391177
 20
226.9313072324773
 30
0.0
 10
93.14628685400177
 20
215.9196272643595
 30
0.0
 10
94.80418086363773
 20
205.6549097470387
 30
0.0
 10
96.24818023381914
 20
196.3921682516647
 30
0.0
 10
97.495517000331
 20
188.2731273985442
 30
0.0
 10
98.7655064716432
 20
179.8436143647562
 30
0.0
 10
100.0343429448474
 20
171.3327620444367
 30
0.0
 10
101.2457293480661
 20
163.1736882095447
 30
0.0
 10
102.4305087702544
 20
155.1357542531563
 30
0.0
 10
103.6357428027356
 20
146.9941786727273
 30
0.0
 10
104.9075030183052
 20
138.4550421231865
 30
0.0
 10
106.1683486632518
 20
130.0328463108403
 30
0.0
 10
107.4214729632257
 20
121.8184638382147
 30
0.0
 10
108.6640868088818
 20
113.8011976470463
 30
0.0
 10
110.1106758949015
 20
104.6619640291181
 30
0.0
 10
111.7706186840566
 20
94.56598441167009
 30
0.0
 10
113.6314305873354
 20
83.78364368207296
 30
0.0
 10
115.4977803104034
 20
73.67816948083757
 30
0.0
 10
117.2378640275368
 20
64.95961652718398
 30
0.0
 10
118.8566198894645
 20
57.53098270961862
 30
0.0
 10
120.3491343678999
 20
51.25509273165581
 30
0.0
 10
121.849119420275
 20
45.6008945787693
 30
0.0
 10
123.3557445134115
 20
40.5595755388706
 30
0.0
 10
124.7196737937134
 20
36.65653076586213
 30
0.0
 10
125.8956791754537
 20
33.75954033361204
 30
0.0
 10
126.7947511985534
 20
31.83504522556879
 30
0.0
 10
127.653463538148
 20
30.23184598217762
 30
0.0
 10
128.5700865986575
 20
28.76701761974862
 30
0.0
 10
129.6118997178711
 20
27.42834417662765
 30
0.0
 10
130.7313383202618
 20
26.42767366185492
 30
0.0
 10
131.6126617202649
 20
25.82121022972597
 30
0.0
 10
132.1740023262989
 20
25.72976564476712
 30
0.0
 10
132.299710678587
 20
25.70928726145175
 30
0.0
  0
LINE
  5
16B
330
1F
100
AcDbEntity
  8
0
100
AcDbLine
 10
132.4603744932
 20
25.6774625625
 30
0.0
 11
133.0233170285
 21
25.5659534665
 31
0.0
  0
SPLINE
  5
16C
330
1F
100
AcDbEntity
  8
0
100
AcDbSpline
210
0.0
220
0.0
230
1.0
 70
     8
 71
     3
 72
    59
 73
    55
 74
     0
 42
0.00000001
 43
0.00000001
 40
0.0
 40
0.0
 40
0.0
 40
0.0
 40
0.0115236199974611
 40
0.0248814129990578
 40
0.0360645137671893
 40
0.0452947862593368
 40
0.0543075086800686
 40
0.0634753269766502
 40
0.072801184156003
 40
0.0816581235913202
 40
0.0899964026572612
 40
0.0964264190559401
 40
0.1027758536094721
 40
0.110340508852991
 40
0.1191294837489368
 40
0.1285094687601202
 40
0.1377293421354968
 40
0.1689558248451052
 40
0.1999890303075948
 40
0.2310115417071249
 40
0.2620655473398654
 40
0.2930986562848176
 40
0.3241635128243944
 40
0.355207182411042
 40
0.3862753349568121
 40
0.4069762783901861
 40
0.4277016664395846
 40
0.4485734542005197
 40
0.4706595948233367
 40
0.4912614886141871
 40
0.5090944986161817
 40
0.5301383577444724
 40
0.5515594866493566
 40
0.5726711139625342
 40
0.5934454923405088
 40
0.6141721115520843
 40
0.634890517445281
 40
0.6659907047262699
 40
0.6970733308993603
 40
0.7281752510935566
 40
0.7592746529919164
 40
0.7841661102125855
 40
0.8090526871182069
 40
0.8339630207850597
 40
0.858856034956057
 40
0.884323680460759
 40
0.9015032940134732
 40
0.9170637195338067
 40
0.9286370992099787
 40
0.9433382593471988
 40
0.9608119247677142
 40
0.9777884792670404
 40
0.995025883317293
 40
0.9999999999999999
 40
0.9999999999999999
 40
0.9999999999999999
 40
0.9999999999999999
 10
194.5499289967036
 20
288.1665688980564
 30
0.0
 10
194.7319498523692
 20
288.146728568769
 30
0.0
 10
195.1249631663501
 20
288.1038899965889
 30
0.0
 10
195.6913021600452
 20
287.80965028758
 30
0.0
 10
196.2485326221647
 20
287.4076787790998
 30
0.0
 10
196.7824529923906
 20
286.9060564410441
 30
0.0
 10
197.2869555476362
 20
286.3338029896464
 30
0.0
 10
197.8014888968529
 20
285.6548068303633
 30
0.0
 10
198.32124255482
 20
284.8722468788851
 30
0.0
 10
198.8305811628269
 20
284.0121360315283
 30
0.0
 10
199.2867975356738
 20
283.1630454992577
 30
0.0
 10
199.6983227927623
 20
282.3363305689074
 30
0.0
 10
200.0974970055053
 20
281.4831737166107
 30
0.0
 10
200.5428247720342
 20
280.4676141514167
 30
0.0
 10
201.0496287233418
 20
279.2323486762429
 30
0.0
 10
201.5907935699081
 20
277.8200176620005
 30
0.0
 10
202.5779516048976
 20
275.0710361043698
 30
0.0
 10
203.9951978411102
 20
270.5685339650592
 30
0.0
 10
205.855592511605
 20
263.6387723061801
 30
0.0
 10
207.7081089014596
 20
255.739555435349
 30
0.0
 10
209.5703081542183
 20
246.9340687884943
 30
0.0
 10
211.4253228212668
 20
237.2991237874934
 30
0.0
 10
213.2896310939117
 20
226.9313072324775
 30
0.0
 10
215.1462868540015
 20
215.9196272643598
 30
0.0
 10
216.8041808636377
 20
205.6549097470393
 30
0.0
 10
218.2481802338192
 20
196.3921682516651
 30
0.0
 10
219.4955170003309
 20
188.2731273985446
 30
0.0
 10
220.765506471643
 20
179.8436143647566
 30
0.0
 10
222.0343429448474
 20
171.3327620444374
 30
0.0
 10
223.2457293480658
 20
163.1736882095453
 30
0.0
 10
224.4305087702543
 20
155.1357542531565
 30
0.0
 10
225.6357428027356
 20
146.9941786727275
 30
0.0
 10
226.9075030183051
 20
138.4550421231864
 30
0.0
 10
228.1683486632516
 20
130.0328463108404
 30
0.0
 10
229.421472963226
 20
121.8184638382145
 30
0.0
 10
230.6640868088817
 20
113.8011976470463
 30
0.0
 10
232.1106758949015
 20
104.6619640291181
 30
0.0
 10
233.7706186840565
 20
94.56598441167006
 30
0.0
 10
235.6314305873353
 20
83.78364368207276
 30
0.0
 10
237.4977803104034
 20
73.67816948083735
 30
0.0
 10
239.2378640275372
 20
64.95961652718394
 30
0.0
 10
240.8566198894643
 20
57.53098270961834
 30
0.0
 10
242.3491343679002
 20
51.25509273165574
 30
0.0
 10
243.8491194202745
 20
45.6008945787694
 30
0.0
 10
245.3557445134115
 20
40.55957553887072
 30
0.0
 10
246.7196737937133
 20
36.65653076586226
 30
0.0
 10
247.8956791754538
 20
33.75954033361219
 30
0.0
 10
248.7947511985531
 20
31.83504522556888
 30
0.0
 10
249.6534635381481
 20
30.23184598217757
 30
0.0
 10
250.5700865986573
 20
28.76701761974878
 30
0.0
 10
251.6118997178712
 20
27.42834417662765
 30
0.0
 10
252.7313383202619
 20
26.42767366185489
 30
0.0
 10
253.6126617202648
 20
25.82121022972597
 30
0.0
 10
254.1740023262988
 20
25.72976564476715
 30
0.0
 10
254.299710678587
 20
25.70928726145177
 30
0.0
  0
LINE
  5
16D
330
1F
100
AcDbEntity
  8
0
100
AcDbLine
 10
254.4603744932
 20
25.6774625625
 30
0.0
 11
255.0233170285
 21
25.5659534665
 31
0.0
  0
SPLINE
  5
16E
330
1F
100
AcDbEntity
  8
0
100
AcDbSpline
210
0.0
220
0.0
230
1.0
 70
     8
 71
     3
 72
    15
 73
    11
 74
     0
 42
0.00000001
 43
0.00000001
 40
0.0
 40
0.0
 40
0.0
 40
0.0
 40
0.1172893632476623
 40
0.2148002474085143
 40
0.2749831020245314
 40
0.373899228363748
 40
0.511552976921625
 40
0.6879129956270279
 40
0.902893019930117
 40
1.0
 40
1.0
 40
1.0
 40
1.0
 10
-50.08702524262512
 20
289.7715719164095
 30
0.0
 10
-50.2176255968275
 20
289.7522974153804
 30
0.0
 10
-50.45680319671841
 20
289.7169986681193
 30
0.0
 10
-50.81900952504251
 20
289.6031946474718
 30
0.0
 10
-51.08920906353892
 20
289.5009573654134
 30
0.0
 10
-51.37527285690528
 20
289.378162912675
 30
0.0
 10
-51.76020523209586
 20
289.1773011090983
 30
0.0
 10
-52.23984383485154
 20
288.8605558676365
 30
0.0
 10
-52.67646674305891
 20
288.5220847043321
 30
0.0
 10
-52.95038211208981
 20
288.2376638388678
 30
0.0
 10
-53.03561185222194
 20
288.1491652762006
 30
0.0
  0
LINE
  5
16F
330
1F
100
AcDbEntity
  8
0
100
AcDbLine
 10
-49.6395094665
 20
289.7991652753
 30
0.0
 11
-49.8583943269
 21
289.7856690617
 31
0.0
  0
SPLINE
  5
170
330
1F
100
AcDbEntity
  8
0
100
AcDbSpline
210
0.0
220
0.0
230
1.0
 70
     8
 71
     3
 72
    15
 73
    11
 74
     0
 42
0.00000001
 43
0.00000001
 40
0.0
 40
0.0
 40
0.0
 40
0.0
 40
0.1172893632476098
 40
0.2148002474085205
 40
0.2749831020245201
 40
0.3738992283637409
 40
0.5115529769216236
 40
0.6879129956270305
 40
0.9028930199301275
 40
1.0
 40
1.0
 40
1.0
 40
1.0
 10
71.91297475737474
 20
289.7715719164095
 30
0.0
 10
71.78237440317234
 20
289.7522974153804
 30
0.0
 10
71.54319680328128
 20
289.7169986681192
 30
0.0
 10
71.18099047495754
 20
289.6031946474718
 30
0.0
 10
70.91079093646104
 20
289.5009573654135
 30
0.0
 10
70.62472714309462
 20
289.3781629126751
 30
0.0
 10
70.23979476790392
 20
289.1773011090982
 30
0.0
 10
69.76015616514857
 20
288.8605558676365
 30
0.0
 10
69.32353325694095
 20
288.5220847043321
 30
0.0
 10
69.04961788791014
 20
288.2376638388677
 30
0.0
 10
68.96438814777805
 20
288.1491652762006
 30
0.0
  0
LINE
  5
171
330
1F
100
AcDbEntity
  8
0
100
AcDbLine
 10
72.3604905335
 20
289.7991652753
 30
0.0
 11
72.1416056731
 21
289.7856690617
 31
0.0
  0
SPLINE
  5
172
330
1F
100
AcDbEntity
  8
0
100
AcDbSpline
210
0.0
220
0.0
230
1.0
 70
     8
 71
     3
 72
    15
 73
    11
 74
     0
 42
0.00000001
 43
0.00000001
 40
0.0
 40
0.0
 40
0.0
 40
0.0
 40
0.1172893632476481
 40
0.2148002474084453
 40
0.2749831020245218
 40
0.3738992283637426
 40
0.5115529769216277
 40
0.6879129956270732
 40
0.9028930199301334
 40
1.0
 40
1.0
 40
1.0
 40
1.0
 10
193.9129747573748
 20
289.7715719164095
 30
0.0
 10
193.7823744031724
 20
289.7522974153804
 30
0.0
 10
193.5431968032815
 20
289.7169986681193
 30
0.0
 10
193.1809904749576
 20
289.6031946474718
 30
0.0
 10
192.9107909364611
 20
289.5009573654135
 30
0.0
 10
192.6247271430949
 20
289.3781629126751
 30
0.0
 10
192.2397947679036
 20
289.1773011090981
 30
0.0
 10
191.7601561651486
 20
288.8605558676365
 30
0.0
 10
191.3235332569409
 20
288.5220847043321
 30
0.0
 10
191.0496178879101
 20
288.2376638388677
 30
0.0
 10
190.964388147778
 20
288.1491652762006
 30
0.0
  0
LINE
  5
173
330
1F
100
AcDbEntity
  8
0
100
AcDbLine
 10
194.3604905335
 20
289.7991652753
 30
0.0
 11
194.1416056731
 21
289.7856690617
 31
0.0
  0
SPLINE
  5
174
330
1F
100
AcDbEntity
  8
0
100
AcDbSpline
210
0.0
220
0.0
230
1.0
 70
     8
 71
     3
 72
    15
 73
    11
 74
     0
 42
0.00000001
 43
0.00000001
 40
0.0
 40
0.0
 40
0.0
 40
0.0
 40
0.1172893632476625
 40
0.2148002474084947
 40
0.2749831020245314
 40
0.3738992283637675
 40
0.5115529769216454
 40
0.6879129956270471
 40
0.9028930199301372
 40
1.0
 40
1.0
 40
1.0
 40
1.0
 10
-172.0870252426251
 20
289.7715719164095
 30
0.0
 10
-172.2176255968275
 20
289.7522974153804
 30
0.0
 10
-172.4568031967184
 20
289.7169986681193
 30
0.0
 10
-172.8190095250424
 20
289.6031946474718
 30
0.0
 10
-173.089209063539
 20
289.5009573654135
 30
0.0
 10
-173.3752728569053
 20
289.3781629126751
 30
0.0
 10
-173.760205232096
 20
289.1773011090982
 30
0.0
 10
-174.2398438348515
 20
288.8605558676365
 30
0.0
 10
-174.676466743059
 20
288.5220847043321
 30
0.0
 10
-174.9503821120899
 20
288.2376638388678
 30
0.0
 10
-175.035611852222
 20
288.1491652762006
 30
0.0
  0
LINE
  5
175
330
1F
100
AcDbEntity
  8
0
100
AcDbLine
 10
-171.6395094665
 20
289.7991652753
 30
0.0
 11
-171.8583943269
 21
289.7856690617
 31
0.0
  0
SPLINE
  5
176
330
1F
100
AcDbEntity
  8
0
100
AcDbSpline
210
0.0
220
0.0
230
1.0
 70
     8
 71
     3
 72
     9
 73
     5
 74
     0
 42
0.00000001
 43
0.00000001
 40
0.0
 40
0.0
 40
0.0
 40
0.0
 40
0.8755006846722304
 40
1.0
 40
1.0
 40
1.0
 40
1.0
 10
-293.6395094665013
 20
289.7991652753404
 30
0.0
 10
-293.8166396865801
 20
289.7985551262017
 30
0.0
 10
-294.0189584547773
 20
289.7978582116824
 30
0.0
 10
-294.2115906366241
 20
289.7502745434222
 30
0.0
 10
-294.2355732113741
 20
289.744350409303
 30
0.0
  0
SPLINE
  5
177
330
1F
100
AcDbEntity
  8
0
100
AcDbSpline
210
0.0
220
0.0
230
1.0
 70
     8
 71
     3
 72
    59
 73
    55
 74
     0
 42
0.00000001
 43
0.00000001
 40
0.0
 40
0.0
 40
0.0
 40
0.0
 40
0.011523619997465
 40
0.02488141299906
 40
0.0360645137671921
 40
0.0452947862593387
 40
0.0543075086800728
 40
0.0634753269766536
 40
0.0728011841560056
 40
0.0816581235913232
 40
0.0899964026572634
 40
0.0964264190559435
 40
0.1027758536094739
 40
0.1103405088529931
 40
0.1191294837489408
 40
0.1285094687601218
 40
0.1377293421354991
 40
0.1689558248451076
 40
0.199989030307596
 40
0.2310115417071283
 40
0.2620655473398665
 40
0.2930986562848202
 40
0.324163512824397
 40
0.3552071824110447
 40
0.3862753349568164
 40
0.4069762783901892
 40
0.4277016664395872
 40
0.448573454200522
 40
0.4706595948233384
 40
0.4912614886141889
 40
0.5090944986161852
 40
0.5301383577444734
 40
0.5515594866493587
 40
0.5726711139625359
 40
0.5934454923405094
 40
0.6141721115520847
 40
0.6348905174452841
 40
0.665990704726271
 40
0.6970733308993603
 40
0.7281752510935595
 40
0.759274652991918
 40
0.7841661102125861
 40
0.8090526871182067
 40
0.8339630207850612
 40
0.8588560349560583
 40
0.88432368046076
 40
0.9015032940134745
 40
0.9170637195338095
 40
0.9286370992099783
 40
0.9433382593471977
 40
0.9608119247677158
 40
0.9777884792670415
 40
0.995025883317293
 40
1.0
 40
1.0
 40
1.0
 40
1.0
 10
-293.4500710032965
 20
288.1665688980564
 30
0.0
 10
-293.2680501476308
 20
288.1467285687689
 30
0.0
 10
-292.87503683365
 20
288.1038899965889
 30
0.0
 10
-292.3086978399547
 20
287.80965028758
 30
0.0
 10
-291.7514673778355
 20
287.4076787790998
 30
0.0
 10
-291.2175470076094
 20
286.9060564410441
 30
0.0
 10
-290.713044452364
 20
286.3338029896463
 30
0.0
 10
-290.1985111031469
 20
285.654806830363
 30
0.0
 10
-289.6787574451801
 20
284.8722468788851
 30
0.0
 10
-289.1694188371728
 20
284.0121360315282
 30
0.0
 10
-288.7132024643265
 20
283.1630454992576
 30
0.0
 10
-288.3016772072373
 20
282.3363305689074
 30
0.0
 10
-287.9025029944949
 20
281.4831737166107
 30
0.0
 10
-287.4571752279657
 20
280.4676141514166
 30
0.0
 10
-286.9503712766584
 20
279.2323486762427
 30
0.0
 10
-286.4092064300916
 20
277.8200176620004
 30
0.0
 10
-285.4220483951028
 20
275.0710361043698
 30
0.0
 10
-284.0048021588898
 20
270.5685339650592
 30
0.0
 10
-282.144407488395
 20
263.63877230618
 30
0.0
 10
-280.2918910985406
 20
255.7395554353491
 30
0.0
 10
-278.4296918457816
 20
246.9340687884941
 30
0.0
 10
-276.5746771787335
 20
237.2991237874932
 30
0.0
 10
-274.7103689060882
 20
226.9313072324772
 30
0.0
 10
-272.8537131459982
 20
215.9196272643592
 30
0.0
 10
-271.1958191363625
 20
205.6549097470386
 30
0.0
 10
-269.7518197661808
 20
196.3921682516644
 30
0.0
 10
-268.504482999669
 20
188.2731273985441
 30
0.0
 10
-267.2344935283568
 20
179.8436143647563
 30
0.0
 10
-265.9656570551527
 20
171.3327620444372
 30
0.0
 10
-264.7542706519339
 20
163.1736882095449
 30
0.0
 10
-263.5694912297454
 20
155.1357542531563
 30
0.0
 10
-262.3642571972644
 20
146.9941786727272
 30
0.0
 10
-261.0924969816948
 20
138.4550421231863
 30
0.0
 10
-259.8316513367482
 20
130.0328463108403
 30
0.0
 10
-258.5785270367742
 20
121.8184638382146
 30
0.0
 10
-257.3359131911184
 20
113.8011976470462
 30
0.0
 10
-255.8893241050981
 20
104.6619640291179
 30
0.0
 10
-254.2293813159436
 20
94.56598441166996
 30
0.0
 10
-252.3685694126646
 20
83.78364368207266
 30
0.0
 10
-250.5022196895966
 20
73.67816948083711
 30
0.0
 10
-248.7621359724631
 20
64.9596165271837
 30
0.0
 10
-247.1433801105356
 20
57.53098270961841
 30
0.0
 10
-245.6508656320999
 20
51.25509273165585
 30
0.0
 10
-244.1508805797252
 20
45.60089457876927
 30
0.0
 10
-242.6442554865883
 20
40.55957553887059
 30
0.0
 10
-241.2803262062868
 20
36.65653076586216
 30
0.0
 10
-240.1043208245462
 20
33.75954033361195
 30
0.0
 10
-239.2052488014465
 20
31.83504522556874
 30
0.0
 10
-238.346536461852
 20
30.23184598217765
 30
0.0
 10
-237.4299134013426
 20
28.7670176197487
 30
0.0
 10
-236.388100282129
 20
27.42834417662768
 30
0.0
 10
-235.2686616797382
 20
26.42767366185492
 30
0.0
 10
-234.3873382797352
 20
25.82121022972592
 30
0.0
 10
-233.8259976737011
 20
25.72976564476717
 30
0.0
 10
-233.700289321413
 20
25.70928726145177
 30
0.0
  0
LINE
  5
178
330
1F
100
AcDbEntity
  8
0
100
AcDbLine
 10
-233.5396255068
 20
25.6774625625
 30
0.0
 11
-232.9766829715
 21
25.5659534665
 31
0.0
  0
LINE
  5
179
330
1F
100
AcDbEntity
  8
0
100
AcDbLine
 10
-103.2865926612
 20
26.9752391095
 30
0.0
 11
-103.1107881775
 21
27.1491652762
 31
0.0
  0
LINE
  5
17A
330
1F
100
AcDbEntity
  8
0
100
AcDbLine
 10
18.7134073388
 20
26.9752391095
 30
0.0
 11
18.8892118225
 21
27.1491652762
 31
0.0
  0
LINE
  5
17B
330
1F
100
AcDbEntity
  8
0
100
AcDbLine
 10
140.7134073388
 20
26.9752391095
 30
0.0
 11
140.8892118225
 21
27.1491652762
 31
0.0
  0
LINE
  5
17C
330
1F
100
AcDbEntity
  8
0
100
AcDbLine
 10
262.7134073388
 20
26.9752391095
 30
0.0
 11
262.8892118225
 21
27.1491652762
 31
0.0
  0
SPLINE
  5
17D
330
1F
100
AcDbEntity
  8
0
100
AcDbSpline
210
0.0
220
0.0
230
1.0
 70
     8
 71
     3
 72
     9
 73
     5
 74
     0
 42
0.00000001
 43
0.00000001
 40
0.0
 40
0.0
 40
0.0
 40
0.0
 40
0.4999853407018109
 40
1.0
 40
1.0
 40
1.0
 40
1.0
 10
-162.7510159763897
 20
286.8040131740585
 30
0.0
 10
-163.0069488806795
 20
287.0571732747406
 30
0.0
 10
-163.5188296968863
 20
287.563508321138
 30
0.0
 10
-164.0306666709509
 20
288.0698921201666
 30
0.0
 10
-164.286592661154
 20
288.323091442912
 30
0.0
  0
SPLINE
  5
17E
330
1F
100
AcDbEntity
  8
0
100
AcDbSpline
210
0.0
220
0.0
230
1.0
 70
     8
 71
     3
 72
     9
 73
     5
 74
     0
 42
0.00000001
 43
0.00000001
 40
0.0
 40
0.0
 40
0.0
 40
0.0
 40
0.4999853407018017
 40
1.0
 40
1.0
 40
1.0
 40
1.0
 10
-40.7510159763897
 20
286.8040131740585
 30
0.0
 10
-41.00694888067952
 20
287.0571732747407
 30
0.0
 10
-41.51882969688621
 20
287.563508321138
 30
0.0
 10
-42.03066667095087
 20
288.0698921201666
 30
0.0
 10
-42.28659266115403
 20
288.323091442912
 30
0.0
  0
SPLINE
  5
17F
330
1F
100
AcDbEntity
  8
0
100
AcDbSpline
210
0.0
220
0.0
230
1.0
 70
     8
 71
     3
 72
     9
 73
     5
 74
     0
 42
0.00000001
 43
0.00000001
 40
0.0
 40
0.0
 40
0.0
 40
0.0
 40
0.4999853407018199
 40
1.0
 40
1.0
 40
1.0
 40
1.0
 10
81.2489840236103
 20
286.8040131740585
 30
0.0
 10
80.99305111932046
 20
287.0571732747407
 30
0.0
 10
80.48117030311374
 20
287.563508321138
 30
0.0
 10
79.96933332904909
 20
288.0698921201666
 30
0.0
 10
79.71340733884597
 20
288.323091442912
 30
0.0
  0
SPLINE
  5
180
330
1F
100
AcDbEntity
  8
0
100
AcDbSpline
210
0.0
220
0.0
230
1.0
 70
     8
 71
     3
 72
     9
 73
     5
 74
     0
 42
0.00000001
 43
0.00000001
 40
0.0
 40
0.0
 40
0.0
 40
0.0
 40
0.4999853407018199
 40
1.0
 40
1.0
 40
1.0
 40
1.0
 10
203.2489840236103
 20
286.8040131740585
 30
0.0
 10
202.9930511193205
 20
287.0571732747407
 30
0.0
 10
202.4811703031137
 20
287.563508321138
 30
0.0
 10
201.9693333290491
 20
288.0698921201666
 30
0.0
 10
201.713407338846
 20
288.323091442912
 30
0.0
  0
SPLINE
  5
181
330
1F
100
AcDbEntity
  8
0
100
AcDbSpline
210
0.0
220
0.0
230
1.0
 70
     8
 71
     3
 72
     9
 73
     5
 74
     0
 42
0.00000001
 43
0.00000001
 40
0.0
 40
0.0
 40
0.0
 40
0.0
 40
0.4999853407018018
 40
1.0
 40
1.0
 40
1.0
 40
1.0
 10
-284.7510159763897
 20
286.8040131740585
 30
0.0
 10
-285.0069488806794
 20
287.0571732747406
 30
0.0
 10
-285.5188296968861
 20
287.563508321138
 30
0.0
 10
-286.0306666709509
 20
288.0698921201666
 30
0.0
 10
-286.286592661154
 20
288.323091442912
 30
0.0
  0
LINE
  5
182
330
1F
100
AcDbEntity
  8
0
100
AcDbLine
 10
-225.2865926612
 20
26.9752391095
 30
0.0
 11
-225.1107881775
 21
27.1491652762
 31
0.0
  0
LINE
  5
183
330
1F
100
AcDbEntity
  8
0
100
AcDbLine
 10
-148.666709381
 20
205.3856349497
 30
0.0
 11
-148.0119900032
 21
201.257730122
 31
0.0
  0
LINE
  5
184
330
1F
100
AcDbEntity
  8
0
100
AcDbLine
 10
-26.666709381
 20
205.3856349497
 30
0.0
 11
-26.0119900032
 21
201.257730122
 31
0.0
  0
LINE
  5
185
330
1F
100
AcDbEntity
  8
0
100
AcDbLine
 10
95.333290619
 20
205.3856349497
 30
0.0
 11
95.9880099968
 21
201.257730122
 31
0.0
  0
LINE
  5
186
330
1F
100
AcDbEntity
  8
0
100
AcDbLine
 10
217.333290619
 20
205.3856349497
 30
0.0
 11
217.9880099968
 21
201.257730122
 31
0.0
  0
SPLINE
  5
187
330
1F
100
AcDbEntity
  8
0
100
AcDbSpline
210
0.0
220
0.0
230
1.0
 70
     8
 71
     3
 72
     9
 73
     5
 74
     0
 42
0.00000001
 43
0.00000001
 40
0.0
 40
0.0
 40
0.0
 40
0.0
 40
0.4984653123209813
 40
0.9999999999999999
 40
0.9999999999999999
 40
0.9999999999999999
 40
0.9999999999999999
 10
-171.8019706188716
 20
288.6945619631182
 30
0.0
 10
-171.7023848549101
 20
288.7019261727611
 30
0.0
 10
-171.502600112622
 20
288.7166999382787
 30
0.0
 10
-171.2437789405904
 20
288.8255963189306
 30
0.0
 10
-171.1139711449108
 20
288.8802116311902
 30
0.0
  0
SPLINE
  5
188
330
1F
100
AcDbEntity
  8
0
100
AcDbSpline
210
0.0
220
0.0
230
1.0
 70
     8
 71
     3
 72
     9
 73
     5
 74
     0
 42
0.00000001
 43
0.00000001
 40
0.0
 40
0.0
 40
0.0
 40
0.0
 40
0.4984653123210292
 40
0.9999999999999999
 40
0.9999999999999999
 40
0.9999999999999999
 40
0.9999999999999999
 10
-49.80197061887165
 20
288.6945619631182
 30
0.0
 10
-49.70238485491004
 20
288.7019261727611
 30
0.0
 10
-49.50260011262189
 20
288.7166999382786
 30
0.0
 10
-49.24377894059036
 20
288.8255963189306
 30
0.0
 10
-49.11397114491081
 20
288.8802116311902
 30
0.0
  0
SPLINE
  5
189
330
1F
100
AcDbEntity
  8
0
100
AcDbSpline
210
0.0
220
0.0
230
1.0
 70
     8
 71
     3
 72
     9
 73
     5
 74
     0
 42
0.00000001
 43
0.00000001
 40
0.0
 40
0.0
 40
0.0
 40
0.0
 40
0.498465312320986
 40
0.9999999999999999
 40
0.9999999999999999
 40
0.9999999999999999
 40
0.9999999999999999
 10
72.19802938112836
 20
288.6945619631182
 30
0.0
 10
72.29761514508996
 20
288.7019261727611
 30
0.0
 10
72.49739988737805
 20
288.7166999382787
 30
0.0
 10
72.7562210594096
 20
288.8255963189306
 30
0.0
 10
72.88602885508915
 20
288.8802116311902
 30
0.0
  0
SPLINE
  5
18A
330
1F
100
AcDbEntity
  8
0
100
AcDbSpline
210
0.0
220
0.0
230
1.0
 70
     8
 71
     3
 72
     9
 73
     5
 74
     0
 42
0.00000001
 43
0.00000001
 40
0.0
 40
0.0
 40
0.0
 40
0.0
 40
0.4984653123209869
 40
1.0
 40
1.0
 40
1.0
 40
1.0
 10
194.1980293811284
 20
288.6945619631182
 30
0.0
 10
194.29761514509
 20
288.7019261727611
 30
0.0
 10
194.4973998873782
 20
288.7166999382787
 30
0.0
 10
194.7562210594096
 20
288.8255963189306
 30
0.0
 10
194.8860288550892
 20
288.8802116311902
 30
0.0
  0
SPLINE
  5
18B
330
1F
100
AcDbEntity
  8
0
100
AcDbSpline
210
0.0
220
0.0
230
1.0
 70
     8
 71
     3
 72
     9
 73
     5
 74
     0
 42
0.00000001
 43
0.00000001
 40
0.0
 40
0.0
 40
0.0
 40
0.0
 40
0.498465312321008
 40
0.9999999999999999
 40
0.9999999999999999
 40
0.9999999999999999
 40
0.9999999999999999
 10
-293.8019706188716
 20
288.6945619631182
 30
0.0
 10
-293.70238485491
 20
288.7019261727611
 30
0.0
 10
-293.5026001126218
 20
288.7166999382786
 30
0.0
 10
-293.2437789405903
 20
288.8255963189306
 30
0.0
 10
-293.1139711449108
 20
288.8802116311902
 30
0.0
  0
LINE
  5
18C
330
1F
100
AcDbEntity
  8
0
100
AcDbLine
 10
-270.666709381
 20
205.3856349497
 30
0.0
 11
-270.0119900032
 21
201.257730122
 31
0.0
  0
LINE
  5
18D
330
1F
100
AcDbEntity
  8
0
100
AcDbLine
 10
-104.1574315753
 20
27.1491652762
 30
0.0
 11
-104.0864892045
 21
27.2015042675
 31
0.0
  0
LINE
  5
18E
330
1F
100
AcDbEntity
  8
0
100
AcDbLine
 10
17.8425684247
 20
27.1491652762
 30
0.0
 11
17.9135107955
 21
27.2015042675
 31
0.0
  0
LINE
  5
18F
330
1F
100
AcDbEntity
  8
0
100
AcDbLine
 10
139.8425684247
 20
27.1491652762
 30
0.0
 11
139.9135107955
 21
27.2015042675
 31
0.0
  0
LINE
  5
190
330
1F
100
AcDbEntity
  8
0
100
AcDbLine
 10
261.8425684247
 20
27.1491652762
 30
0.0
 11
261.9135107955
 21
27.2015042675
 31
0.0
  0
LINE
  5
191
330
1F
100
AcDbEntity
  8
0
100
AcDbLine
 10
-226.1574315753
 20
27.1491652762
 30
0.0
 11
-226.0864892045
 21
27.2015042675
 31
0.0
  0
LINE
  5
192
330
1F
100
AcDbEntity
  8
0
100
AcDbLine
 10
-48.0722483989
 20
289.2491652762
 30
0.0
 11
-49.6395697978
 21
289.2491652762
 31
0.0
  0
LINE
  5
193
330
1F
100
AcDbEntity
  8
0
100
AcDbLine
 10
73.9277516011
 20
289.2491652762
 30
0.0
 11
72.3604302022
 21
289.2491652762
 31
0.0
  0
LINE
  5
194
330
1F
100
AcDbEntity
  8
0
100
AcDbLine
 10
195.9277516011
 20
289.2491652762
 30
0.0
 11
194.3604302022
 21
289.2491652762
 31
0.0
  0
LINE
  5
195
330
1F
100
AcDbEntity
  8
0
100
AcDbLine
 10
-170.0722483989
 20
289.2491652762
 30
0.0
 11
-171.6395697978
 21
289.2491652762
 31
0.0
  0
LINE
  5
196
330
1F
100
AcDbEntity
  8
0
100
AcDbLine
 10
-48.0722483989
 20
289.2491652762
 30
0.0
 11
-49.6395697978
 21
289.2491652762
 31
0.0
  0
LINE
  5
197
330
1F
100
AcDbEntity
  8
0
100
AcDbLine
 10
73.9277516011
 20
289.2491652762
 30
0.0
 11
72.3604302022
 21
289.2491652762
 31
0.0
  0
LINE
  5
198
330
1F
100
AcDbEntity
  8
0
100
AcDbLine
 10
195.9277516011
 20
289.2491652762
 30
0.0
 11
194.3604302022
 21
289.2491652762
 31
0.0
  0
LINE
  5
199
330
1F
100
AcDbEntity
  8
0
100
AcDbLine
 10
-170.0722483989
 20
289.2491652762
 30
0.0
 11
-171.6395697978
 21
289.2491652762
 31
0.0
  0
LINE
  5
19A
330
1F
100
AcDbEntity
  8
0
100
AcDbLine
 10
-171.6147797179
 20
288.6991652711
 30
0.0
 11
-171.6397501421
 21
288.6991652711
 31
0.0
  0
LINE
  5
19B
330
1F
100
AcDbEntity
  8
0
100
AcDbLine
 10
-49.6147797179
 20
288.6991652711
 30
0.0
 11
-49.6397501421
 21
288.6991652711
 31
0.0
  0
LINE
  5
19C
330
1F
100
AcDbEntity
  8
0
100
AcDbLine
 10
72.3852202821
 20
288.6991652711
 30
0.0
 11
72.3602498579
 21
288.6991652711
 31
0.0
  0
LINE
  5
19D
330
1F
100
AcDbEntity
  8
0
100
AcDbLine
 10
194.3852202821
 20
288.6991652711
 30
0.0
 11
194.3602498579
 21
288.6991652711
 31
0.0
  0
LINE
  5
19E
330
1F
100
AcDbEntity
  8
0
100
AcDbLine
 10
-293.6147797179
 20
288.6991652711
 30
0.0
 11
-293.6397501421
 21
288.6991652711
 31
0.0
  0
LINE
  5
19F
330
1F
100
AcDbEntity
  8
0
100
AcDbLine
 10
-48.0656476105
 20
288.1491652762
 30
0.0
 11
-164.1107881775
 21
288.1491652762
 31
0.0
  0
LINE
  5
1A0
330
1F
100
AcDbEntity
  8
0
100
AcDbLine
 10
73.9343523895
 20
288.1491652762
 30
0.0
 11
-42.1107881775
 21
288.1491652762
 31
0.0
  0
LINE
  5
1A1
330
1F
100
AcDbEntity
  8
0
100
AcDbLine
 10
195.9343523895
 20
288.1491652762
 30
0.0
 11
79.8892118225
 21
288.1491652762
 31
0.0
  0
LINE
  5
1A2
330
1F
100
AcDbEntity
  8
0
100
AcDbLine
 10
305.5603617437
 20
288.1491652762
 30
0.0
 11
295.6663817437
 21
288.1491652762
 31
0.0
  0
LINE
  5
1A3
330
1F
100
AcDbEntity
  8
0
100
AcDbLine
 10
290.1848838876
 20
288.1491652762
 30
0.0
 11
201.8892118225
 21
288.1491652762
 31
0.0
  0
LINE
  5
1A4
330
1F
100
AcDbEntity
  8
0
100
AcDbLine
 10
-170.0656476105
 20
288.1491652762
 30
0.0
 11
-286.1107881775
 21
288.1491652762
 31
0.0
  0
LINE
  5
1A5
330
1F
100
AcDbEntity
  8
0
100
AcDbLine
 10
-48.0656476105
 20
288.1491652762
 30
0.0
 11
-164.1107881775
 21
288.1491652762
 31
0.0
  0
LINE
  5
1A6
330
1F
100
AcDbEntity
  8
0
100
AcDbLine
 10
73.9343523895
 20
288.1491652762
 30
0.0
 11
-42.1107881775
 21
288.1491652762
 31
0.0
  0
LINE
  5
1A7
330
1F
100
AcDbEntity
  8
0
100
AcDbLine
 10
195.9343523895
 20
288.1491652762
 30
0.0
 11
79.8892118225
 21
288.1491652762
 31
0.0
  0
LINE
  5
1A8
330
1F
100
AcDbEntity
  8
0
100
AcDbLine
 10
305.5603617437
 20
288.1491652762
 30
0.0
 11
295.6663817437
 21
288.1491652762
 31
0.0
  0
LINE
  5
1A9
330
1F
100
AcDbEntity
  8
0
100
AcDbLine
 10
290.1848838876
 20
288.1491652762
 30
0.0
 11
201.8892118225
 21
288.1491652762
 31
0.0
  0
LINE
  5
1AA
330
1F
100
AcDbEntity
  8
0
100
AcDbLine
 10
-226.43957339
 20
27.1491652762
 30
0.0
 11
-114.0093936433
 21
27.1491652762
 31
0.0
  0
LINE
  5
1AB
330
1F
100
AcDbEntity
  8
0
100
AcDbLine
 10
-104.43957339
 20
27.1491652762
 30
0.0
 11
7.9906063567
 21
27.1491652762
 31
0.0
  0
LINE
  5
1AC
330
1F
100
AcDbEntity
  8
0
100
AcDbLine
 10
17.56042661
 20
27.1491652762
 30
0.0
 11
129.9906063567
 21
27.1491652762
 31
0.0
  0
LINE
  5
1AD
330
1F
100
AcDbEntity
  8
0
100
AcDbLine
 10
139.56042661
 20
27.1491652762
 30
0.0
 11
251.9906063567
 21
27.1491652762
 31
0.0
  0
LINE
  5
1AE
330
1F
100
AcDbEntity
  8
0
100
AcDbLine
 10
261.56042661
 20
27.1491652762
 30
0.0
 11
305.5603617437
 21
27.1491652762
 31
0.0
  0
LINE
  5
1AF
330
1F
100
AcDbEntity
  8
0
100
AcDbLine
 10
-294.4396382563
 20
27.1491652762
 30
0.0
 11
-284.5456582563
 21
27.1491652762
 31
0.0
  0
LINE
  5
1B0
330
1F
100
AcDbEntity
  8
0
100
AcDbLine
 10
-279.0641604002
 20
27.1491652762
 30
0.0
 11
-236.0093936433
 21
27.1491652762
 31
0.0
  0
LINE
  5
1B1
330
1F
100
AcDbEntity
  8
0
100
AcDbLine
 10
-170.0656476105
 20
288.1491652762
 30
0.0
 11
-286.1107881775
 21
288.1491652762
 31
0.0
  0
LINE
  5
1B2
330
1F
100
AcDbEntity
  8
0
100
AcDbLine
 10
338.1396367455
 20
75.7491653436
 30
0.0
 11
339.5291244207
 21
75.7491653436
 31
0.0
  0
LINE
  5
1B3
330
1F
100
AcDbEntity
  8
0
100
AcDbLine
 10
-331.4708755793
 20
239.5491652088
 30
0.0
 11
-335.5512687981
 21
239.5491652088
 31
0.0
  0
LINE
  5
1B4
330
1F
100
AcDbEntity
  8
0
100
AcDbLine
 10
-336.0847301778
 20
239.4801377968
 30
0.0
 11
-336.4356237647
 21
239.4346786669
 31
0.0
  0
LINE
  5
1B5
330
1F
100
AcDbEntity
  8
0
100
AcDbLine
 10
-335.5519153358
 20
239.5491652741
 30
0.0
 11
-336.0847301778
 21
239.4801377968
 31
0.0
  0
LINE
  5
1B6
330
1F
100
AcDbEntity
  8
0
100
AcDbLine
 10
338.5309508396
 20
75.8491652762
 30
0.0
 11
339.5032549624
 21
75.8491652762
 31
0.0
  0
LINE
  5
1B7
330
1F
100
AcDbEntity
  8
0
100
AcDbLine
 10
-331.4967450376
 20
239.4491652762
 30
0.0
 11
-331.5130828878
 21
239.4491652762
 31
0.0
  0
LINE
  5
1B8
330
1F
100
AcDbEntity
  8
0
100
AcDbLine
 10
290.2603617437
 20
27.1491652762
 30
0.0
 11
300.8603617437
 21
27.1491652762
 31
0.0
  0
LINE
  5
1B9
330
1F
100
AcDbEntity
  8
0
100
AcDbLine
 10
290.2603617437
 20
26.1491652762
 30
0.0
 11
300.8603617437
 21
26.1491652762
 31
0.0
  0
LINE
  5
1BA
330
1F
100
AcDbEntity
  8
0
100
AcDbLine
 10
296.5603617437
 20
25.2819122356
 30
0.0
 11
297.522437773
 21
25.509987755
 31
0.0
  0
SPLINE
  5
1BB
330
1F
100
AcDbEntity
  8
0
100
AcDbSpline
210
0.0
220
0.0
230
1.0
 70
     8
 71
     3
 72
    12
 73
     8
 74
     0
 42
0.00000001
 43
0.00000001
 40
0.0
 40
0.0
 40
0.0
 40
0.0
 40
0.2174770912066439
 40
0.435370520825799
 40
0.6490388720033433
 40
0.8610609605882535
 40
0.9999999999999999
 40
0.9999999999999999
 40
0.9999999999999999
 40
0.9999999999999999
 10
296.0464094760403
 20
25.28191223561926
 30
0.0
 10
296.0530181144119
 20
25.27293467000846
 30
0.0
 10
296.0662480427404
 20
25.25496235212418
 30
0.0
 10
296.1571360306968
 20
25.24329372334602
 30
0.0
 10
296.2884738860456
 20
25.24627787073128
 30
0.0
 10
296.4306985502152
 20
25.26108678259256
 30
0.0
 10
296.5235883748578
 20
25.27600599465152
 30
0.0
 10
296.5603617436939
 20
25.28191223561923
 30
0.0
  0
LINE
  5
1BC
330
1F
100
AcDbEntity
  8
0
100
AcDbLine
 10
296.022437773
 20
25.509987755
 30
0.0
 11
296.046409476
 21
25.2819122356
 31
0.0
  0
LINE
  5
1BD
330
1F
100
AcDbEntity
  8
0
100
AcDbLine
 10
295.0982857144
 20
25.509987755
 30
0.0
 11
296.022437773
 21
25.509987755
 31
0.0
  0
LINE
  5
1BE
330
1F
100
AcDbEntity
  8
0
100
AcDbLine
 10
295.0743140113
 20
25.2819122356
 30
0.0
 11
295.0982857144
 21
25.509987755
 31
0.0
  0
SPLINE
  5
1BF
330
1F
100
AcDbEntity
  8
0
100
AcDbSpline
210
0.0
220
0.0
230
1.0
 70
     8
 71
     3
 72
    12
 73
     8
 74
     0
 42
0.00000001
 43
0.00000001
 40
0.0
 40
0.0
 40
0.0
 40
0.0
 40
0.2174770912066673
 40
0.4353705208257839
 40
0.6490388720033275
 40
0.8610609605882527
 40
1.0
 40
1.0
 40
1.0
 40
1.0
 10
294.5603617436939
 20
25.28191223561923
 30
0.0
 10
294.6181343838539
 20
25.27293467000846
 30
0.0
 10
294.7337902641876
 20
25.25496235212418
 30
0.0
 10
294.8878951272403
 20
25.24329372334599
 30
0.0
 10
295.0031474488994
 20
25.2462778707313
 30
0.0
 10
295.0638589937935
 20
25.26108678259248
 30
0.0
 10
295.0713488968351
 20
25.27600599465152
 30
0.0
 10
295.0743140113474
 20
25.28191223561926
 30
0.0
  0
LINE
  5
1C0
330
1F
100
AcDbEntity
  8
0
100
AcDbLine
 10
293.5982857144
 20
25.509987755
 30
0.0
 11
294.5603617437
 21
25.2819122356
 31
0.0
  0
LINE
  5
1C1
330
1F
100
AcDbEntity
  8
0
100
AcDbLine
 10
295.5603617437
 20
288.1491652762
 30
0.0
 11
290.2603617437
 21
288.1491652762
 31
0.0
  0
LINE
  5
1C2
330
1F
100
AcDbEntity
  8
0
100
AcDbLine
 10
300.8603617437
 20
288.1491652762
 30
0.0
 11
295.5603617437
 21
288.1491652762
 31
0.0
  0
LINE
  5
1C3
330
1F
100
AcDbEntity
  8
0
100
AcDbLine
 10
295.5603617437
 20
289.1491652762
 30
0.0
 11
290.2603617437
 21
289.1491652762
 31
0.0
  0
LINE
  5
1C4
330
1F
100
AcDbEntity
  8
0
100
AcDbLine
 10
300.8603617437
 20
289.1491652762
 30
0.0
 11
295.5603617437
 21
289.1491652762
 31
0.0
  0
LINE
  5
1C5
330
1F
100
AcDbEntity
  8
0
100
AcDbLine
 10
297.522437773
 20
289.7883427974
 30
0.0
 11
296.5603617437
 21
290.0164183168
 31
0.0
  0
LINE
  5
1C6
330
1F
100
AcDbEntity
  8
0
100
AcDbLine
 10
294.5603617437
 20
290.0164183168
 30
0.0
 11
293.5982857144
 21
289.7883427974
 31
0.0
  0
SPLINE
  5
1C7
330
1F
100
AcDbEntity
  8
0
100
AcDbSpline
210
0.0
220
0.0
230
1.0
 70
     8
 71
     3
 72
    12
 73
     8
 74
     0
 42
0.00000001
 43
0.00000001
 40
0.0
 40
0.0
 40
0.0
 40
0.0
 40
0.2174770912066428
 40
0.4353705208257949
 40
0.6490388720033385
 40
0.8610609605882487
 40
1.0
 40
1.0
 40
1.0
 40
1.0
 10
295.0743140113474
 20
290.0164183167817
 30
0.0
 10
295.0677053729759
 20
290.0253958823925
 30
0.0
 10
295.0544754446474
 20
290.0433682002767
 30
0.0
 10
294.9635874566911
 20
290.0550368290549
 30
0.0
 10
294.8322496013423
 20
290.0520526816698
 30
0.0
 10
294.6900249371724
 20
290.0372437698084
 30
0.0
 10
294.59713511253
 20
290.0223245577495
 30
0.0
 10
294.5603617436939
 20
290.0164183167817
 30
0.0
  0
LINE
  5
1C8
330
1F
100
AcDbEntity
  8
0
100
AcDbLine
 10
295.0982857144
 20
289.7883427974
 30
0.0
 11
295.0743140113
 21
290.0164183168
 31
0.0
  0
LINE
  5
1C9
330
1F
100
AcDbEntity
  8
0
100
AcDbLine
 10
296.022437773
 20
289.7883427974
 30
0.0
 11
295.0982857144
 21
289.7883427974
 31
0.0
  0
LINE
  5
1CA
330
1F
100
AcDbEntity
  8
0
100
AcDbLine
 10
296.046409476
 20
290.0164183168
 30
0.0
 11
296.022437773
 21
289.7883427974
 31
0.0
  0
SPLINE
  5
1CB
330
1F
100
AcDbEntity
  8
0
100
AcDbSpline
210
0.0
220
0.0
230
1.0
 70
     8
 71
     3
 72
    12
 73
     8
 74
     0
 42
0.00000001
 43
0.00000001
 40
0.0
 40
0.0
 40
0.0
 40
0.0
 40
0.2174770912067093
 40
0.4353705208258657
 40
0.64903887200345
 40
0.8610609605884189
 40
1.0
 40
1.0
 40
1.0
 40
1.0
 10
296.5603617436939
 20
290.0164183167817
 30
0.0
 10
296.5025891035339
 20
290.0253958823925
 30
0.0
 10
296.3869332232002
 20
290.0433682002767
 30
0.0
 10
296.2328283601476
 20
290.0550368290549
 30
0.0
 10
296.1175760384884
 20
290.0520526816697
 30
0.0
 10
296.0568644935943
 20
290.0372437698084
 30
0.0
 10
296.0493745905526
 20
290.0223245577495
 30
0.0
 10
296.0464094760403
 20
290.0164183167817
 30
0.0
  0
LINE
  5
1CC
330
1F
100
AcDbEntity
  8
0
100
AcDbLine
 10
-279.1396382563
 20
288.1491652762
 30
0.0
 11
-286.137711913
 21
288.1491652762
 31
0.0
  0
LINE
  5
1CD
330
1F
100
AcDbEntity
  8
0
100
AcDbLine
 10
-279.1396382563
 20
289.1491652762
 30
0.0
 11
-287.4467178839
 21
289.1491652762
 31
0.0
  0
LINE
  5
1CE
330
1F
100
AcDbEntity
  8
0
100
AcDbLine
 10
-285.4396382563
 20
290.0164183168
 30
0.0
 11
-286.4017142856
 21
289.7883427974
 31
0.0
  0
SPLINE
  5
1CF
330
1F
100
AcDbEntity
  8
0
100
AcDbSpline
210
0.0
220
0.0
230
1.0
 70
     8
 71
     3
 72
    12
 73
     8
 74
     0
 42
0.00000001
 43
0.00000001
 40
0.0
 40
0.0
 40
0.0
 40
0.0
 40
0.2174770912066442
 40
0.4353705208257973
 40
0.649038872003342
 40
0.8610609605882531
 40
1.0
 40
1.0
 40
1.0
 40
1.0
 10
-284.9256859886526
 20
290.0164183167817
 30
0.0
 10
-284.9322946270241
 20
290.0253958823925
 30
0.0
 10
-284.9455245553527
 20
290.0433682002768
 30
0.0
 10
-285.0364125433089
 20
290.0550368290549
 30
0.0
 10
-285.1677503986579
 20
290.0520526816698
 30
0.0
 10
-285.3099750628275
 20
290.0372437698084
 30
0.0
 10
-285.4028648874699
 20
290.0223245577495
 30
0.0
 10
-285.4396382563061
 20
290.0164183167817
 30
0.0
  0
LINE
  5
1D0
330
1F
100
AcDbEntity
  8
0
100
AcDbLine
 10
-284.9017142856
 20
289.7883427974
 30
0.0
 11
-284.9256859887
 21
290.0164183168
 31
0.0
  0
LINE
  5
1D1
330
1F
100
AcDbEntity
  8
0
100
AcDbLine
 10
-283.977562227
 20
289.7883427974
 30
0.0
 11
-284.9017142856
 21
289.7883427974
 31
0.0
  0
LINE
  5
1D2
330
1F
100
AcDbEntity
  8
0
100
AcDbLine
 10
-283.953590524
 20
290.0164183168
 30
0.0
 11
-283.977562227
 21
289.7883427974
 31
0.0
  0
SPLINE
  5
1D3
330
1F
100
AcDbEntity
  8
0
100
AcDbSpline
210
0.0
220
0.0
230
1.0
 70
     8
 71
     3
 72
    12
 73
     8
 74
     0
 42
0.00000001
 43
0.00000001
 40
0.0
 40
0.0
 40
0.0
 40
0.0
 40
0.2174770912066685
 40
0.4353705208257841
 40
0.6490388720033282
 40
0.8610609605882573
 40
0.9999999999999999
 40
0.9999999999999999
 40
0.9999999999999999
 40
0.9999999999999999
 10
-283.4396382563061
 20
290.0164183167817
 30
0.0
 10
-283.497410896466
 20
290.0253958823925
 30
0.0
 10
-283.6130667767997
 20
290.0433682002767
 30
0.0
 10
-283.7671716398525
 20
290.0550368290549
 30
0.0
 10
-283.8824239615114
 20
290.0520526816697
 30
0.0
 10
-283.9431355064057
 20
290.0372437698084
 30
0.0
 10
-283.9506254094472
 20
290.0223245577495
 30
0.0
 10
-283.9535905239596
 20
290.0164183167817
 30
0.0
  0
LINE
  5
1D4
330
1F
100
AcDbEntity
  8
0
100
AcDbLine
 10
-282.477562227
 20
289.7883427974
 30
0.0
 11
-283.4396382563
 21
290.0164183168
 31
0.0
  0
LINE
  5
1D5
330
1F
100
AcDbEntity
  8
0
100
AcDbLine
 10
-284.4396382563
 20
27.1491652762
 30
0.0
 11
-279.1396382563
 21
27.1491652762
 31
0.0
  0
LINE
  5
1D6
330
1F
100
AcDbEntity
  8
0
100
AcDbLine
 10
-289.7396382563
 20
27.1491652762
 30
0.0
 11
-284.4396382563
 21
27.1491652762
 31
0.0
  0
LINE
  5
1D7
330
1F
100
AcDbEntity
  8
0
100
AcDbLine
 10
-284.4396382563
 20
26.1491652762
 30
0.0
 11
-279.1396382563
 21
26.1491652762
 31
0.0
  0
LINE
  5
1D8
330
1F
100
AcDbEntity
  8
0
100
AcDbLine
 10
-289.7396382563
 20
26.1491652762
 30
0.0
 11
-284.4396382563
 21
26.1491652762
 31
0.0
  0
LINE
  5
1D9
330
1F
100
AcDbEntity
  8
0
100
AcDbLine
 10
-286.4017142856
 20
25.509987755
 30
0.0
 11
-285.4396382563
 21
25.2819122356
 31
0.0
  0
LINE
  5
1DA
330
1F
100
AcDbEntity
  8
0
100
AcDbLine
 10
-283.4396382563
 20
25.2819122356
 30
0.0
 11
-282.477562227
 21
25.509987755
 31
0.0
  0
SPLINE
  5
1DB
330
1F
100
AcDbEntity
  8
0
100
AcDbSpline
210
0.0
220
0.0
230
1.0
 70
     8
 71
     3
 72
    12
 73
     8
 74
     0
 42
0.00000001
 43
0.00000001
 40
0.0
 40
0.0
 40
0.0
 40
0.0
 40
0.2174770912066437
 40
0.4353705208257988
 40
0.6490388720033433
 40
0.8610609605882535
 40
0.9999999999999999
 40
0.9999999999999999
 40
0.9999999999999999
 40
0.9999999999999999
 10
-283.9535905239596
 20
25.28191223561926
 30
0.0
 10
-283.9469818855881
 20
25.27293467000846
 30
0.0
 10
-283.9337519572596
 20
25.25496235212418
 30
0.0
 10
-283.8428639693033
 20
25.24329372334605
 30
0.0
 10
-283.7115261139543
 20
25.2462778707313
 30
0.0
 10
-283.5693014497847
 20
25.26108678259256
 30
0.0
 10
-283.4764116251422
 20
25.27600599465152
 30
0.0
 10
-283.4396382563061
 20
25.28191223561923
 30
0.0
  0
LINE
  5
1DC
330
1F
100
AcDbEntity
  8
0
100
AcDbLine
 10
-283.977562227
 20
25.509987755
 30
0.0
 11
-283.953590524
 21
25.2819122356
 31
0.0
  0
LINE
  5
1DD
330
1F
100
AcDbEntity
  8
0
100
AcDbLine
 10
-284.9017142856
 20
25.509987755
 30
0.0
 11
-283.977562227
 21
25.509987755
 31
0.0
  0
LINE
  5
1DE
330
1F
100
AcDbEntity
  8
0
100
AcDbLine
 10
-284.9256859887
 20
25.2819122356
 30
0.0
 11
-284.9017142856
 21
25.509987755
 31
0.0
  0
SPLINE
  5
1DF
330
1F
100
AcDbEntity
  8
0
100
AcDbSpline
210
0.0
220
0.0
230
1.0
 70
     8
 71
     3
 72
    12
 73
     8
 74
     0
 42
0.00000001
 43
0.00000001
 40
0.0
 40
0.0
 40
0.0
 40
0.0
 40
0.2174770912067092
 40
0.4353705208258677
 40
0.6490388720034526
 40
0.8610609605884184
 40
1.0
 40
1.0
 40
1.0
 40
1.0
 10
-285.4396382563061
 20
25.28191223561923
 30
0.0
 10
-285.3818656161461
 20
25.27293467000846
 30
0.0
 10
-285.2662097358124
 20
25.25496235212418
 30
0.0
 10
-285.1121048727599
 20
25.24329372334599
 30
0.0
 10
-284.9968525511005
 20
25.2462778707313
 30
0.0
 10
-284.9361410062066
 20
25.26108678259248
 30
0.0
 10
-284.9286511031648
 20
25.27600599465152
 30
0.0
 10
-284.9256859886526
 20
25.28191223561923
 30
0.0
  0
LINE
  5
1E0
330
1F
100
AcDbEntity
  8
0
100
AcDbLine
 10
-286.4017142856
 20
158.1112413055
 30
0.0
 11
-285.4396382563
 21
158.1352130085
 31
0.0
  0
LINE
  5
1E1
330
1F
100
AcDbEntity
  8
0
100
AcDbLine
 10
-286.4017142856
 20
157.1870892469
 30
0.0
 11
-286.4017142856
 21
158.1112413055
 31
0.0
  0
LINE
  5
1E2
330
1F
100
AcDbEntity
  8
0
100
AcDbLine
 10
-285.4396382563
 20
157.1631175439
 30
0.0
 11
-286.4017142856
 21
157.1870892469
 31
0.0
  0
SPLINE
  5
1E3
330
1F
100
AcDbEntity
  8
0
100
AcDbSpline
210
0.0
220
0.0
230
1.0
 70
     8
 71
     3
 72
    12
 73
     8
 74
     0
 42
0.00000001
 43
0.00000001
 40
0.0
 40
0.0
 40
0.0
 40
0.0
 40
0.2174770912066432
 40
0.435370520825798
 40
0.6490388720033428
 40
0.8610609605882534
 40
1.0
 40
1.0
 40
1.0
 40
1.0
 10
-284.9256859886526
 20
156.6491652761982
 30
0.0
 10
-284.932294627024
 20
156.7069379163582
 30
0.0
 10
-284.9455245553527
 20
156.8225937966919
 30
0.0
 10
-285.0364125433089
 20
156.9766986597444
 30
0.0
 10
-285.1677503986577
 20
157.0919509814037
 30
0.0
 10
-285.3099750628274
 20
157.1526625262977
 30
0.0
 10
-285.4028648874699
 20
157.1601524293394
 30
0.0
 10
-285.4396382563061
 20
157.1631175438517
 30
0.0
  0
LINE
  5
1E4
330
1F
100
AcDbEntity
  8
0
100
AcDbLine
 10
-284.9017142856
 20
155.6870892469
 30
0.0
 11
-284.9256859887
 21
156.6491652762
 31
0.0
  0
LINE
  5
1E5
330
1F
100
AcDbEntity
  8
0
100
AcDbLine
 10
-283.977562227
 20
155.6870892469
 30
0.0
 11
-284.9017142856
 21
155.6870892469
 31
0.0
  0
LINE
  5
1E6
330
1F
100
AcDbEntity
  8
0
100
AcDbLine
 10
-283.953590524
 20
156.6491652762
 30
0.0
 11
-283.977562227
 21
155.6870892469
 31
0.0
  0
SPLINE
  5
1E7
330
1F
100
AcDbEntity
  8
0
100
AcDbSpline
210
0.0
220
0.0
230
1.0
 70
     8
 71
     3
 72
    12
 73
     8
 74
     0
 42
0.00000001
 43
0.00000001
 40
0.0
 40
0.0
 40
0.0
 40
0.0
 40
0.217477091206668
 40
0.4353705208257855
 40
0.6490388720033297
 40
0.8610609605882581
 40
1.0
 40
1.0
 40
1.0
 40
1.0
 10
-283.4396382563061
 20
157.1631175438517
 30
0.0
 10
-283.497410896466
 20
157.1565089054802
 30
0.0
 10
-283.6130667767998
 20
157.1432789771516
 30
0.0
 10
-283.7671716398524
 20
157.0523909891954
 30
0.0
 10
-283.8824239615115
 20
156.9210531338465
 30
0.0
 10
-283.9431355064057
 20
156.7788284696768
 30
0.0
 10
-283.9506254094473
 20
156.6859386450343
 30
0.0
 10
-283.9535905239597
 20
156.6491652761982
 30
0.0
  0
LINE
  5
1E8
330
1F
100
AcDbEntity
  8
0
100
AcDbLine
 10
-282.477562227
 20
157.1870892469
 30
0.0
 11
-283.4396382563
 21
157.1631175439
 31
0.0
  0
LINE
  5
1E9
330
1F
100
AcDbEntity
  8
0
100
AcDbLine
 10
-282.477562227
 20
158.1112413055
 30
0.0
 11
-282.477562227
 21
157.1870892469
 31
0.0
  0
LINE
  5
1EA
330
1F
100
AcDbEntity
  8
0
100
AcDbLine
 10
-283.4396382563
 20
158.1352130085
 30
0.0
 11
-282.477562227
 21
158.1112413055
 31
0.0
  0
SPLINE
  5
1EB
330
1F
100
AcDbEntity
  8
0
100
AcDbSpline
210
0.0
220
0.0
230
1.0
 70
     8
 71
     3
 72
    12
 73
     8
 74
     0
 42
0.00000001
 43
0.00000001
 40
0.0
 40
0.0
 40
0.0
 40
0.0
 40
0.2174770912066435
 40
0.4353705208257986
 40
0.6490388720033431
 40
0.8610609605882534
 40
0.9999999999999999
 40
0.9999999999999999
 40
0.9999999999999999
 40
0.9999999999999999
 10
-283.9535905239596
 20
158.6491652761982
 30
0.0
 10
-283.9469818855881
 20
158.5913926360382
 30
0.0
 10
-283.9337519572595
 20
158.4757367557044
 30
0.0
 10
-283.8428639693034
 20
158.3216318926519
 30
0.0
 10
-283.7115261139543
 20
158.2063795709926
 30
0.0
 10
-283.5693014497846
 20
158.1456680260986
 30
0.0
 10
-283.4764116251421
 20
158.138178123057
 30
0.0
 10
-283.4396382563061
 20
158.1352130085446
 30
0.0
  0
LINE
  5
1EC
330
1F
100
AcDbEntity
  8
0
100
AcDbLine
 10
-283.977562227
 20
159.6112413055
 30
0.0
 11
-283.953590524
 21
158.6491652762
 31
0.0
  0
LINE
  5
1ED
330
1F
100
AcDbEntity
  8
0
100
AcDbLine
 10
-284.9017142856
 20
159.6112413055
 30
0.0
 11
-283.977562227
 21
159.6112413055
 31
0.0
  0
LINE
  5
1EE
330
1F
100
AcDbEntity
  8
0
100
AcDbLine
 10
-284.9256859887
 20
158.6491652762
 30
0.0
 11
-284.9017142856
 21
159.6112413055
 31
0.0
  0
SPLINE
  5
1EF
330
1F
100
AcDbEntity
  8
0
100
AcDbSpline
210
0.0
220
0.0
230
1.0
 70
     8
 71
     3
 72
    12
 73
     8
 74
     0
 42
0.00000001
 43
0.00000001
 40
0.0
 40
0.0
 40
0.0
 40
0.0
 40
0.2174770912067096
 40
0.4353705208258686
 40
0.649038872003454
 40
0.8610609605884235
 40
1.0
 40
1.0
 40
1.0
 40
1.0
 10
-285.4396382563061
 20
158.1352130085446
 30
0.0
 10
-285.3818656161462
 20
158.1418216469162
 30
0.0
 10
-285.2662097358124
 20
158.1550515752448
 30
0.0
 10
-285.1121048727598
 20
158.2459395632009
 30
0.0
 10
-284.9968525511006
 20
158.3772774185499
 30
0.0
 10
-284.9361410062065
 20
158.5195020827195
 30
0.0
 10
-284.9286511031648
 20
158.612391907362
 30
0.0
 10
-284.9256859886526
 20
158.649165276198
 30
0.0
  0
CIRCLE
  5
1F0
330
1F
100
AcDbEntity
  8
0
100
AcDbCircle
 10
-284.4396382563
 20
157.6491652762
 30
0.0
 40
3.5
  0
ARC
  5
1F1
330
1F
100
AcDbEntity
  8
0
100
AcDbCircle
 10
-285.4396382563
 20
158.6491652762
 30
0.0
 40
0.71020847053137
100
AcDbArc
 50
270.0
 51
0.0
  0
ARC
  5
1F2
330
1F
100
AcDbEntity
  8
0
100
AcDbCircle
 10
-283.4396382563
 20
158.6491652762
 30
0.0
 40
0.71020847053137
100
AcDbArc
 50
180.0
 51
270.0
  0
ARC
  5
1F3
330
1F
100
AcDbEntity
  8
0
100
AcDbCircle
 10
-285.4396382563
 20
156.6491652762
 30
0.0
 40
0.71020847053137
100
AcDbArc
 50
0.0
 51
90.0
  0
ARC
  5
1F4
330
1F
100
AcDbEntity
  8
0
100
AcDbCircle
 10
-283.4396382563
 20
156.6491652762
 30
0.0
 40
0.71020847053137
100
AcDbArc
 50
90.0
 51
180.0
  0
LINE
  5
1F5
330
1F
100
AcDbEntity
  8
0
100
AcDbLine
 10
-284.7294297858
 20
159.4389568057
 30
0.0
 11
-284.9017142856
 21
159.6112413055
 31
0.0
  0
LINE
  5
1F6
330
1F
100
AcDbEntity
  8
0
100
AcDbLine
 10
-284.7294297858
 20
158.6491652762
 30
0.0
 11
-284.7294297858
 21
159.4389568057
 31
0.0
  0
LINE
  5
1F7
330
1F
100
AcDbEntity
  8
0
100
AcDbLine
 10
-284.1498467268
 20
159.4389568057
 30
0.0
 11
-284.1498467268
 21
158.6491652762
 31
0.0
  0
LINE
  5
1F8
330
1F
100
AcDbEntity
  8
0
100
AcDbLine
 10
-284.1498467268
 20
159.4389568057
 30
0.0
 11
-283.977562227
 21
159.6112413055
 31
0.0
  0
LINE
  5
1F9
330
1F
100
AcDbEntity
  8
0
100
AcDbLine
 10
-282.6498467268
 20
157.9389568057
 30
0.0
 11
-282.477562227
 21
158.1112413055
 31
0.0
  0
LINE
  5
1FA
330
1F
100
AcDbEntity
  8
0
100
AcDbLine
 10
-283.4396382563
 20
157.9389568057
 30
0.0
 11
-282.6498467268
 21
157.9389568057
 31
0.0
  0
LINE
  5
1FB
330
1F
100
AcDbEntity
  8
0
100
AcDbLine
 10
-286.2294297858
 20
157.9389568057
 30
0.0
 11
-285.4396382563
 21
157.9389568057
 31
0.0
  0
LINE
  5
1FC
330
1F
100
AcDbEntity
  8
0
100
AcDbLine
 10
-286.2294297858
 20
157.9389568057
 30
0.0
 11
-286.4017142856
 21
158.1112413055
 31
0.0
  0
LINE
  5
1FD
330
1F
100
AcDbEntity
  8
0
100
AcDbLine
 10
-284.1498467268
 20
155.8593737467
 30
0.0
 11
-283.977562227
 21
155.6870892469
 31
0.0
  0
LINE
  5
1FE
330
1F
100
AcDbEntity
  8
0
100
AcDbLine
 10
-284.1498467268
 20
156.6491652762
 30
0.0
 11
-284.1498467268
 21
155.8593737467
 31
0.0
  0
LINE
  5
1FF
330
1F
100
AcDbEntity
  8
0
100
AcDbLine
 10
-284.7294297858
 20
155.8593737467
 30
0.0
 11
-284.7294297858
 21
156.6491652762
 31
0.0
  0
LINE
  5
200
330
1F
100
AcDbEntity
  8
0
100
AcDbLine
 10
-284.7294297858
 20
155.8593737467
 30
0.0
 11
-284.9017142856
 21
155.6870892469
 31
0.0
  0
LINE
  5
201
330
1F
100
AcDbEntity
  8
0
100
AcDbLine
 10
-282.6498467268
 20
157.3593737467
 30
0.0
 11
-283.4396382563
 21
157.3593737467
 31
0.0
  0
LINE
  5
202
330
1F
100
AcDbEntity
  8
0
100
AcDbLine
 10
-282.6498467268
 20
157.3593737467
 30
0.0
 11
-282.477562227
 21
157.1870892469
 31
0.0
  0
LINE
  5
203
330
1F
100
AcDbEntity
  8
0
100
AcDbLine
 10
-286.2294297858
 20
157.3593737467
 30
0.0
 11
-286.4017142856
 21
157.1870892469
 31
0.0
  0
LINE
  5
204
330
1F
100
AcDbEntity
  8
0
100
AcDbLine
 10
-285.4396382563
 20
157.3593737467
 30
0.0
 11
-286.2294297858
 21
157.3593737467
 31
0.0
  0
LINE
  5
205
330
1F
100
AcDbEntity
  8
0
100
AcDbLine
 10
-284.7294297858
 20
159.4389568057
 30
0.0
 11
-284.1498467268
 21
159.4389568057
 31
0.0
  0
LINE
  5
206
330
1F
100
AcDbEntity
  8
0
100
AcDbLine
 10
-282.6498467268
 20
157.9389568057
 30
0.0
 11
-282.6498467268
 21
157.3593737467
 31
0.0
  0
LINE
  5
207
330
1F
100
AcDbEntity
  8
0
100
AcDbLine
 10
-286.2294297858
 20
157.3593737467
 30
0.0
 11
-286.2294297858
 21
157.9389568057
 31
0.0
  0
LINE
  5
208
330
1F
100
AcDbEntity
  8
0
100
AcDbLine
 10
-284.1498467268
 20
155.8593737467
 30
0.0
 11
-284.7294297858
 21
155.8593737467
 31
0.0
  0
CIRCLE
  5
209
330
1F
100
AcDbEntity
  8
0
100
AcDbCircle
 10
-284.4396382563
 20
157.6491652762
 30
0.0
 40
5.5
  0
LINE
  5
20A
330
1F
100
AcDbEntity
  8
0
100
AcDbLine
 10
297.522437773
 20
157.1870892469
 30
0.0
 11
296.5603617437
 21
157.1631175439
 31
0.0
  0
LINE
  5
20B
330
1F
100
AcDbEntity
  8
0
100
AcDbLine
 10
297.522437773
 20
158.1112413055
 30
0.0
 11
297.522437773
 21
157.1870892469
 31
0.0
  0
LINE
  5
20C
330
1F
100
AcDbEntity
  8
0
100
AcDbLine
 10
296.5603617437
 20
158.1352130085
 30
0.0
 11
297.522437773
 21
158.1112413055
 31
0.0
  0
SPLINE
  5
20D
330
1F
100
AcDbEntity
  8
0
100
AcDbSpline
210
0.0
220
0.0
230
1.0
 70
     8
 71
     3
 72
    12
 73
     8
 74
     0
 42
0.00000001
 43
0.00000001
 40
0.0
 40
0.0
 40
0.0
 40
0.0
 40
0.2174770912066439
 40
0.4353705208257989
 40
0.6490388720033433
 40
0.8610609605882537
 40
1.0
 40
1.0
 40
1.0
 40
1.0
 10
296.0464094760403
 20
158.6491652761982
 30
0.0
 10
296.0530181144119
 20
158.5913926360382
 30
0.0
 10
296.0662480427404
 20
158.4757367557044
 30
0.0
 10
296.1571360306968
 20
158.3216318926519
 30
0.0
 10
296.2884738860455
 20
158.2063795709926
 30
0.0
 10
296.4306985502153
 20
158.1456680260986
 30
0.0
 10
296.5235883748578
 20
158.138178123057
 30
0.0
 10
296.5603617436939
 20
158.1352130085446
 30
0.0
  0
LINE
  5
20E
330
1F
100
AcDbEntity
  8
0
100
AcDbLine
 10
296.022437773
 20
159.6112413055
 30
0.0
 11
296.046409476
 21
158.6491652762
 31
0.0
  0
LINE
  5
20F
330
1F
100
AcDbEntity
  8
0
100
AcDbLine
 10
295.0982857144
 20
159.6112413055
 30
0.0
 11
296.022437773
 21
159.6112413055
 31
0.0
  0
LINE
  5
210
330
1F
100
AcDbEntity
  8
0
100
AcDbLine
 10
295.0743140113
 20
158.6491652762
 30
0.0
 11
295.0982857144
 21
159.6112413055
 31
0.0
  0
SPLINE
  5
211
330
1F
100
AcDbEntity
  8
0
100
AcDbSpline
210
0.0
220
0.0
230
1.0
 70
     8
 71
     3
 72
    12
 73
     8
 74
     0
 42
0.00000001
 43
0.00000001
 40
0.0
 40
0.0
 40
0.0
 40
0.0
 40
0.2174770912066677
 40
0.4353705208257848
 40
0.6490388720033289
 40
0.8610609605882575
 40
1.0
 40
1.0
 40
1.0
 40
1.0
 10
294.5603617436939
 20
158.1352130085446
 30
0.0
 10
294.6181343838538
 20
158.1418216469162
 30
0.0
 10
294.7337902641877
 20
158.1550515752448
 30
0.0
 10
294.8878951272402
 20
158.2459395632009
 30
0.0
 10
295.0031474488994
 20
158.3772774185499
 30
0.0
 10
295.0638589937935
 20
158.5195020827195
 30
0.0
 10
295.0713488968351
 20
158.6123919073621
 30
0.0
 10
295.0743140113474
 20
158.6491652761982
 30
0.0
  0
LINE
  5
212
330
1F
100
AcDbEntity
  8
0
100
AcDbLine
 10
293.5982857144
 20
158.1112413055
 30
0.0
 11
294.5603617437
 21
158.1352130085
 31
0.0
  0
LINE
  5
213
330
1F
100
AcDbEntity
  8
0
100
AcDbLine
 10
293.5982857144
 20
157.1870892469
 30
0.0
 11
293.5982857144
 21
158.1112413055
 31
0.0
  0
LINE
  5
214
330
1F
100
AcDbEntity
  8
0
100
AcDbLine
 10
294.5603617437
 20
157.1631175439
 30
0.0
 11
293.5982857144
 21
157.1870892469
 31
0.0
  0
SPLINE
  5
215
330
1F
100
AcDbEntity
  8
0
100
AcDbSpline
210
0.0
220
0.0
230
1.0
 70
     8
 71
     3
 72
    12
 73
     8
 74
     0
 42
0.00000001
 43
0.00000001
 40
0.0
 40
0.0
 40
0.0
 40
0.0
 40
0.217477091206643
 40
0.4353705208257978
 40
0.6490388720033428
 40
0.8610609605882534
 40
1.0
 40
1.0
 40
1.0
 40
1.0
 10
295.0743140113474
 20
156.6491652761982
 30
0.0
 10
295.0677053729759
 20
156.7069379163582
 30
0.0
 10
295.0544754446473
 20
156.8225937966919
 30
0.0
 10
294.9635874566911
 20
156.9766986597444
 30
0.0
 10
294.8322496013422
 20
157.0919509814037
 30
0.0
 10
294.6900249371726
 20
157.1526625262977
 30
0.0
 10
294.59713511253
 20
157.1601524293394
 30
0.0
 10
294.5603617436939
 20
157.1631175438517
 30
0.0
  0
LINE
  5
216
330
1F
100
AcDbEntity
  8
0
100
AcDbLine
 10
295.0982857144
 20
155.6870892469
 30
0.0
 11
295.0743140113
 21
156.6491652762
 31
0.0
  0
LINE
  5
217
330
1F
100
AcDbEntity
  8
0
100
AcDbLine
 10
296.022437773
 20
155.6870892469
 30
0.0
 11
295.0982857144
 21
155.6870892469
 31
0.0
  0
LINE
  5
218
330
1F
100
AcDbEntity
  8
0
100
AcDbLine
 10
296.046409476
 20
156.6491652762
 30
0.0
 11
296.022437773
 21
155.6870892469
 31
0.0
  0
SPLINE
  5
219
330
1F
100
AcDbEntity
  8
0
100
AcDbSpline
210
0.0
220
0.0
230
1.0
 70
     8
 71
     3
 72
    12
 73
     8
 74
     0
 42
0.00000001
 43
0.00000001
 40
0.0
 40
0.0
 40
0.0
 40
0.0
 40
0.2174770912067099
 40
0.4353705208258695
 40
0.6490388720034548
 40
0.861060960588424
 40
1.0
 40
1.0
 40
1.0
 40
1.0
 10
296.5603617436939
 20
157.1631175438517
 30
0.0
 10
296.5025891035339
 20
157.1565089054802
 30
0.0
 10
296.3869332232001
 20
157.1432789771516
 30
0.0
 10
296.2328283601477
 20
157.0523909891954
 30
0.0
 10
296.1175760384883
 20
156.9210531338465
 30
0.0
 10
296.0568644935943
 20
156.7788284696769
 30
0.0
 10
296.0493745905526
 20
156.6859386450344
 30
0.0
 10
296.0464094760403
 20
156.6491652761983
 30
0.0
  0
CIRCLE
  5
21A
330
1F
100
AcDbEntity
  8
0
100
AcDbCircle
 10
295.5603617437
 20
157.6491652762
 30
0.0
 40
3.5
  0
ARC
  5
21B
330
1F
100
AcDbEntity
  8
0
100
AcDbCircle
 10
296.5603617437
 20
158.6491652762
 30
0.0
 40
0.71020847053137
100
AcDbArc
 50
180.0
 51
270.0
  0
ARC
  5
21C
330
1F
100
AcDbEntity
  8
0
100
AcDbCircle
 10
296.5603617437
 20
156.6491652762
 30
0.0
 40
0.71020847053137
100
AcDbArc
 50
90.0
 51
180.0
  0
ARC
  5
21D
330
1F
100
AcDbEntity
  8
0
100
AcDbCircle
 10
294.5603617437
 20
158.6491652762
 30
0.0
 40
0.71020847053137
100
AcDbArc
 50
270.0
 51
0.0
  0
ARC
  5
21E
330
1F
100
AcDbEntity
  8
0
100
AcDbCircle
 10
294.5603617437
 20
156.6491652762
 30
0.0
 40
0.71020847053137
100
AcDbArc
 50
0.0
 51
90.0
  0
LINE
  5
21F
330
1F
100
AcDbEntity
  8
0
100
AcDbLine
 10
295.2705702142
 20
159.4389568057
 30
0.0
 11
295.0982857144
 21
159.6112413055
 31
0.0
  0
LINE
  5
220
330
1F
100
AcDbEntity
  8
0
100
AcDbLine
 10
295.2705702142
 20
158.6491652762
 30
0.0
 11
295.2705702142
 21
159.4389568057
 31
0.0
  0
LINE
  5
221
330
1F
100
AcDbEntity
  8
0
100
AcDbLine
 10
295.8501532732
 20
159.4389568057
 30
0.0
 11
295.8501532732
 21
158.6491652762
 31
0.0
  0
LINE
  5
222
330
1F
100
AcDbEntity
  8
0
100
AcDbLine
 10
295.8501532732
 20
159.4389568057
 30
0.0
 11
296.022437773
 21
159.6112413055
 31
0.0
  0
LINE
  5
223
330
1F
100
AcDbEntity
  8
0
100
AcDbLine
 10
295.8501532732
 20
155.8593737467
 30
0.0
 11
296.022437773
 21
155.6870892469
 31
0.0
  0
LINE
  5
224
330
1F
100
AcDbEntity
  8
0
100
AcDbLine
 10
295.8501532732
 20
156.6491652762
 30
0.0
 11
295.8501532732
 21
155.8593737467
 31
0.0
  0
LINE
  5
225
330
1F
100
AcDbEntity
  8
0
100
AcDbLine
 10
293.7705702142
 20
157.9389568057
 30
0.0
 11
294.5603617437
 21
157.9389568057
 31
0.0
  0
LINE
  5
226
330
1F
100
AcDbEntity
  8
0
100
AcDbLine
 10
293.7705702142
 20
157.9389568057
 30
0.0
 11
293.5982857144
 21
158.1112413055
 31
0.0
  0
LINE
  5
227
330
1F
100
AcDbEntity
  8
0
100
AcDbLine
 10
297.3501532732
 20
157.9389568057
 30
0.0
 11
297.522437773
 21
158.1112413055
 31
0.0
  0
LINE
  5
228
330
1F
100
AcDbEntity
  8
0
100
AcDbLine
 10
296.5603617437
 20
157.9389568057
 30
0.0
 11
297.3501532732
 21
157.9389568057
 31
0.0
  0
LINE
  5
229
330
1F
100
AcDbEntity
  8
0
100
AcDbLine
 10
293.7705702142
 20
157.3593737467
 30
0.0
 11
293.5982857144
 21
157.1870892469
 31
0.0
  0
LINE
  5
22A
330
1F
100
AcDbEntity
  8
0
100
AcDbLine
 10
294.5603617437
 20
157.3593737467
 30
0.0
 11
293.7705702142
 21
157.3593737467
 31
0.0
  0
LINE
  5
22B
330
1F
100
AcDbEntity
  8
0
100
AcDbLine
 10
295.2705702142
 20
155.8593737467
 30
0.0
 11
295.2705702142
 21
156.6491652762
 31
0.0
  0
LINE
  5
22C
330
1F
100
AcDbEntity
  8
0
100
AcDbLine
 10
295.2705702142
 20
155.8593737467
 30
0.0
 11
295.0982857144
 21
155.6870892469
 31
0.0
  0
LINE
  5
22D
330
1F
100
AcDbEntity
  8
0
100
AcDbLine
 10
297.3501532732
 20
157.3593737467
 30
0.0
 11
296.5603617437
 21
157.3593737467
 31
0.0
  0
LINE
  5
22E
330
1F
100
AcDbEntity
  8
0
100
AcDbLine
 10
297.3501532732
 20
157.3593737467
 30
0.0
 11
297.522437773
 21
157.1870892469
 31
0.0
  0
LINE
  5
22F
330
1F
100
AcDbEntity
  8
0
100
AcDbLine
 10
295.2705702142
 20
159.4389568057
 30
0.0
 11
295.8501532732
 21
159.4389568057
 31
0.0
  0
LINE
  5
230
330
1F
100
AcDbEntity
  8
0
100
AcDbLine
 10
297.3501532732
 20
157.9389568057
 30
0.0
 11
297.3501532732
 21
157.3593737467
 31
0.0
  0
LINE
  5
231
330
1F
100
AcDbEntity
  8
0
100
AcDbLine
 10
293.7705702142
 20
157.3593737467
 30
0.0
 11
293.7705702142
 21
157.9389568057
 31
0.0
  0
LINE
  5
232
330
1F
100
AcDbEntity
  8
0
100
AcDbLine
 10
295.8501532732
 20
155.8593737467
 30
0.0
 11
295.2705702142
 21
155.8593737467
 31
0.0
  0
CIRCLE
  5
233
330
1F
100
AcDbEntity
  8
0
100
AcDbCircle
 10
295.5603617437
 20
157.6491652762
 30
0.0
 40
5.499999999999972
  0
LINE
  5
234
330
1F
100
AcDbEntity
  8
0
100
AcDbLine
 10
388.4048641351
 20
244.5491652762
 30
0.0
 11
388.4048641351
 21
70.7491652762
 31
0.0
  0
LINE
  5
235
330
1F
100
AcDbEntity
  8
0
100
AcDbLine
 10
392.6048641351
 20
244.5491652762
 30
0.0
 11
392.6048641351
 21
70.7491652762
 31
0.0
  0
LINE
  5
236
330
1F
100
AcDbEntity
  8
0
100
AcDbLine
 10
-377.2841406477
 20
98.66119039
 30
0.0
 11
-377.2841406477
 21
244.5491652762
 31
0.0
  0
LINE
  5
237
330
1F
100
AcDbEntity
  8
0
100
AcDbLine
 10
-377.2841406477
 20
70.7491652762
 30
0.0
 11
-377.2841406477
 21
98.66119039
 31
0.0
  0
LINE
  5
238
330
1F
100
AcDbEntity
  8
0
100
AcDbLine
 10
-381.4841406477
 20
98.66119039
 30
0.0
 11
-381.4841406477
 21
244.5491652762
 31
0.0
  0
LINE
  5
239
330
1F
100
AcDbEntity
  8
0
100
AcDbLine
 10
-381.4841406477
 20
70.7491652762
 30
0.0
 11
-381.4841406477
 21
98.66119039
 31
0.0
  0
LINE
  5
23A
330
1F
100
AcDbEntity
  8
0
100
AcDbLine
 10
348.5093991472
 20
239.3991652762
 30
0.0
 11
348.5093991472
 21
75.8991652762
 31
0.0
  0
LINE
  5
23B
330
1F
100
AcDbEntity
  8
0
100
AcDbLine
 10
349.8661722798
 20
237.0491652762
 30
0.0
 11
349.8661722798
 21
78.2491652762
 31
0.0
  0
LINE
  5
23C
330
1F
100
AcDbEntity
  8
0
100
AcDbLine
 10
395.6548641351
 20
237.0491652762
 30
0.0
 11
395.6548641351
 21
78.2491652762
 31
0.0
  0
LINE
  5
23D
330
1F
100
AcDbEntity
  8
0
100
AcDbLine
 10
382.9956864582
 20
237.0491652762
 30
0.0
 11
382.9956864582
 21
78.2491652762
 31
0.0
  0
LINE
  5
23E
330
1F
100
AcDbEntity
  8
0
100
AcDbLine
 10
401.6548641351
 20
235.7491652756
 30
0.0
 11
401.6548641351
 21
79.5491652762
 31
0.0
  0
LINE
  5
23F
330
1F
100
AcDbEntity
  8
0
100
AcDbLine
 10
-338.7454487924
 20
78.2491652762
 30
0.0
 11
-338.7454487924
 21
237.0491652762
 31
0.0
  0
LINE
  5
240
330
1F
100
AcDbEntity
  8
0
100
AcDbLine
 10
-337.3886756598
 20
75.8991652762
 30
0.0
 11
-337.3886756598
 21
239.3991652762
 31
0.0
  0
LINE
  5
241
330
1F
100
AcDbEntity
  8
0
100
AcDbLine
 10
-384.5341406477
 20
78.2491652762
 30
0.0
 11
-384.5341406477
 21
237.0491652762
 31
0.0
  0
LINE
  5
242
330
1F
100
AcDbEntity
  8
0
100
AcDbLine
 10
-371.8749629709
 20
78.2491652762
 30
0.0
 11
-371.8749629709
 21
237.0491652762
 31
0.0
  0
LINE
  5
243
330
1F
100
AcDbEntity
  8
0
100
AcDbLine
 10
-390.5341406477
 20
79.5491652762
 30
0.0
 11
-390.5341406477
 21
235.7491652756
 31
0.0
  0
SPLINE
  5
244
330
1F
100
AcDbEntity
  8
0
100
AcDbSpline
210
0.0
220
0.0
230
1.0
 70
     8
 71
     3
 72
    10
 73
     6
 74
     0
 42
0.00000001
 43
0.00000001
 40
0.0
 40
0.0
 40
0.0
 40
0.0
 40
0.2689958354481981
 40
0.9626690155229679
 40
1.0
 40
1.0
 40
1.0
 40
1.0
 10
-289.296799982691
 20
289.6379412642286
 30
0.0
 10
-289.0424290237659
 20
289.6732463176439
 30
0.0
 10
-288.1320987943105
 20
289.7995942997891
 30
0.0
 10
-287.1826891285714
 20
289.3055133073566
 30
0.0
 10
-286.4911749472101
 20
288.4002316896489
 30
0.0
 10
-286.4558606406413
 20
288.3540006889833
 30
0.0
  0
SPLINE
  5
245
330
1F
100
AcDbEntity
  8
0
100
AcDbSpline
210
0.0
220
0.0
230
1.0
 70
     8
 71
     3
 72
     9
 73
     5
 74
     0
 42
0.00000001
 43
0.00000001
 40
0.0
 40
0.0
 40
0.0
 40
0.0
 40
0.8683525524375826
 40
1.0
 40
1.0
 40
1.0
 40
1.0
 10
-228.2952952539
 20
25.64517364525556
 30
0.0
 10
-228.0240431190373
 20
25.55957550807997
 30
0.0
 10
-227.7116675359849
 20
25.46100018065639
 30
0.0
 10
-227.3984969619216
 20
25.66429962927497
 30
0.0
 10
-227.3572688551944
 20
25.69106348277647
 30
0.0
  0
SPLINE
  5
246
330
1F
100
AcDbEntity
  8
0
100
AcDbSpline
210
0.0
220
0.0
230
1.0
 70
     8
 71
     3
 72
    10
 73
     6
 74
     0
 42
0.00000001
 43
0.00000001
 40
0.0
 40
0.0
 40
0.0
 40
0.0
 40
0.2689958354482039
 40
0.9626690155229685
 40
1.0
 40
1.0
 40
1.0
 40
1.0
 10
-167.296799982691
 20
289.6379412642286
 30
0.0
 10
-167.0424290237659
 20
289.6732463176439
 30
0.0
 10
-166.1320987943106
 20
289.7995942997891
 30
0.0
 10
-165.1826891285706
 20
289.3055133073563
 30
0.0
 10
-164.4911749472101
 20
288.4002316896489
 30
0.0
 10
-164.4558606406414
 20
288.3540006889833
 30
0.0
  0
SPLINE
  5
247
330
1F
100
AcDbEntity
  8
0
100
AcDbSpline
210
0.0
220
0.0
230
1.0
 70
     8
 71
     3
 72
     9
 73
     5
 74
     0
 42
0.00000001
 43
0.00000001
 40
0.0
 40
0.0
 40
0.0
 40
0.0
 40
0.8683525524376078
 40
0.9999999999999999
 40
0.9999999999999999
 40
0.9999999999999999
 40
0.9999999999999999
 10
-106.2952952539
 20
25.64517364525559
 30
0.0
 10
-106.0240431190373
 20
25.55957550808002
 30
0.0
 10
-105.7116675359849
 20
25.46100018065653
 30
0.0
 10
-105.3984969619216
 20
25.66429962927494
 30
0.0
 10
-105.3572688551944
 20
25.69106348277644
 30
0.0
  0
SPLINE
  5
248
330
1F
100
AcDbEntity
  8
0
100
AcDbSpline
210
0.0
220
0.0
230
1.0
 70
     8
 71
     3
 72
    10
 73
     6
 74
     0
 42
0.00000001
 43
0.00000001
 40
0.0
 40
0.0
 40
0.0
 40
0.0
 40
0.2689958354482038
 40
0.9626690155229681
 40
0.9999999999999999
 40
0.9999999999999999
 40
0.9999999999999999
 40
0.9999999999999999
 10
-45.29679998269104
 20
289.6379412642286
 30
0.0
 10
-45.0424290237659
 20
289.6732463176439
 30
0.0
 10
-44.13209879431054
 20
289.7995942997891
 30
0.0
 10
-43.18268912857041
 20
289.305513307356
 30
0.0
 10
-42.49117494721008
 20
288.4002316896489
 30
0.0
 10
-42.45586064064133
 20
288.3540006889833
 30
0.0
  0
SPLINE
  5
249
330
1F
100
AcDbEntity
  8
0
100
AcDbSpline
210
0.0
220
0.0
230
1.0
 70
     8
 71
     3
 72
     9
 73
     5
 74
     0
 42
0.00000001
 43
0.00000001
 40
0.0
 40
0.0
 40
0.0
 40
0.0
 40
0.8683525524375473
 40
1.0
 40
1.0
 40
1.0
 40
1.0
 10
15.70470474610014
 20
25.64517364525559
 30
0.0
 10
15.97595688096273
 20
25.55957550807994
 30
0.0
 10
16.28833246401499
 20
25.46100018065633
 30
0.0
 10
16.6015030380785
 20
25.664299629275
 30
0.0
 10
16.64273114480563
 20
25.69106348277647
 30
0.0
  0
SPLINE
  5
24A
330
1F
100
AcDbEntity
  8
0
100
AcDbSpline
210
0.0
220
0.0
230
1.0
 70
     8
 71
     3
 72
    10
 73
     6
 74
     0
 42
0.00000001
 43
0.00000001
 40
0.0
 40
0.0
 40
0.0
 40
0.0
 40
0.2689958354482118
 40
0.9626690155229862
 40
1.0
 40
1.0
 40
1.0
 40
1.0
 10
76.70320001730896
 20
289.6379412642285
 30
0.0
 10
76.95757097623412
 20
289.6732463176439
 30
0.0
 10
77.86790120568952
 20
289.7995942997892
 30
0.0
 10
78.81731087142951
 20
289.3055133073562
 30
0.0
 10
79.50882505278989
 20
288.4002316896489
 30
0.0
 10
79.54413935935861
 20
288.3540006889833
 30
0.0
  0
SPLINE
  5
24B
330
1F
100
AcDbEntity
  8
0
100
AcDbSpline
210
0.0
220
0.0
230
1.0
 70
     8
 71
     3
 72
     9
 73
     5
 74
     0
 42
0.00000001
 43
0.00000001
 40
0.0
 40
0.0
 40
0.0
 40
0.0
 40
0.868352552437557
 40
1.0
 40
1.0
 40
1.0
 40
1.0
 10
137.7047047461001
 20
25.64517364525556
 30
0.0
 10
137.9759568809627
 20
25.55957550807997
 30
0.0
 10
138.288332464015
 20
25.46100018065639
 30
0.0
 10
138.6015030380785
 20
25.66429962927497
 30
0.0
 10
138.6427311448056
 20
25.69106348277647
 30
0.0
  0
SPLINE
  5
24C
330
1F
100
AcDbEntity
  8
0
100
AcDbSpline
210
0.0
220
0.0
230
1.0
 70
     8
 71
     3
 72
    10
 73
     6
 74
     0
 42
0.00000001
 43
0.00000001
 40
0.0
 40
0.0
 40
0.0
 40
0.0
 40
0.2689958354481968
 40
0.962669015522984
 40
1.0
 40
1.0
 40
1.0
 40
1.0
 10
198.7032000173089
 20
289.6379412642286
 30
0.0
 10
198.9575709762341
 20
289.6732463176439
 30
0.0
 10
199.8679012056895
 20
289.7995942997891
 30
0.0
 10
200.81731087143
 20
289.3055133073563
 30
0.0
 10
201.5088250527899
 20
288.4002316896489
 30
0.0
 10
201.5441393593586
 20
288.3540006889833
 30
0.0
  0
SPLINE
  5
24D
330
1F
100
AcDbEntity
  8
0
100
AcDbSpline
210
0.0
220
0.0
230
1.0
 70
     8
 71
     3
 72
     9
 73
     5
 74
     0
 42
0.00000001
 43
0.00000001
 40
0.0
 40
0.0
 40
0.0
 40
0.0
 40
0.8683525524375644
 40
1.0
 40
1.0
 40
1.0
 40
1.0
 10
259.7047047461
 20
25.64517364525559
 30
0.0
 10
259.9759568809627
 20
25.55957550807994
 30
0.0
 10
260.288332464015
 20
25.46100018065633
 30
0.0
 10
260.6015030380784
 20
25.664299629275
 30
0.0
 10
260.6427311448056
 20
25.69106348277647
 30
0.0
  0
LINE
  5
24E
330
1F
100
AcDbEntity
  8
0
100
AcDbLine
 10
-289.2995443973
 20
289.7202650482
 30
0.0
 11
-289.0367454849
 21
289.6580100682
 31
0.0
  0
LINE
  5
24F
330
1F
100
AcDbEntity
  8
0
100
AcDbLine
 10
-286.4916512837
 20
288.4003730319
 30
0.0
 11
-286.2836721317
 21
288.2268348103
 31
0.0
  0
SPLINE
  5
250
330
1F
100
AcDbEntity
  8
0
100
AcDbSpline
210
0.0
220
0.0
230
1.0
 70
     8
 71
     3
 72
    10
 73
     6
 74
     0
 42
0.00000001
 43
0.00000001
 40
0.0
 40
0.0
 40
0.0
 40
0.0
 40
0.28847904598098
 40
0.9364773394842134
 40
1.0
 40
1.0
 40
1.0
 40
1.0
 10
-228.1221987352746
 20
25.71844779731996
 30
0.0
 10
-227.8496424662611
 20
25.69109333037023
 30
0.0
 10
-226.9648545649507
 20
25.60229367996589
 30
0.0
 10
-226.0159177750015
 20
26.10138086221717
 30
0.0
 10
-225.3434304284808
 20
26.95395110258211
 30
0.0
 10
-225.2833925825497
 20
27.03006626073542
 30
0.0
  0
LINE
  5
251
330
1F
100
AcDbEntity
  8
0
100
AcDbLine
 10
-167.2995443973
 20
289.7202650482
 30
0.0
 11
-167.0367454849
 21
289.6580100682
 31
0.0
  0
LINE
  5
252
330
1F
100
AcDbEntity
  8
0
100
AcDbLine
 10
-164.4916512837
 20
288.4003730319
 30
0.0
 11
-164.2836721317
 21
288.2268348103
 31
0.0
  0
SPLINE
  5
253
330
1F
100
AcDbEntity
  8
0
100
AcDbSpline
210
0.0
220
0.0
230
1.0
 70
     8
 71
     3
 72
    10
 73
     6
 74
     0
 42
0.00000001
 43
0.00000001
 40
0.0
 40
0.0
 40
0.0
 40
0.0
 40
0.2884790459809884
 40
0.9364773394842217
 40
1.0
 40
1.0
 40
1.0
 40
1.0
 10
-106.1221987352746
 20
25.71844779731996
 30
0.0
 10
-105.8496424662611
 20
25.69109333037023
 30
0.0
 10
-104.9648545649507
 20
25.60229367996589
 30
0.0
 10
-104.0159177750012
 20
26.10138086221722
 30
0.0
 10
-103.3434304284809
 20
26.95395110258209
 30
0.0
 10
-103.2833925825498
 20
27.0300662607354
 30
0.0
  0
LINE
  5
254
330
1F
100
AcDbEntity
  8
0
100
AcDbLine
 10
-45.2995443973
 20
289.7202650482
 30
0.0
 11
-45.0367454849
 21
289.6580100682
 31
0.0
  0
LINE
  5
255
330
1F
100
AcDbEntity
  8
0
100
AcDbLine
 10
-42.4916512837
 20
288.4003730319
 30
0.0
 11
-42.2836721317
 21
288.2268348103
 31
0.0
  0
SPLINE
  5
256
330
1F
100
AcDbEntity
  8
0
100
AcDbSpline
210
0.0
220
0.0
230
1.0
 70
     8
 71
     3
 72
    10
 73
     6
 74
     0
 42
0.00000001
 43
0.00000001
 40
0.0
 40
0.0
 40
0.0
 40
0.0
 40
0.288479045980977
 40
0.9364773394842222
 40
1.0
 40
1.0
 40
1.0
 40
1.0
 10
15.87780126472543
 20
25.71844779731996
 30
0.0
 10
16.15035753373895
 20
25.69109333037023
 30
0.0
 10
17.03514543504932
 20
25.60229367996591
 30
0.0
 10
17.98408222499866
 20
26.10138086221697
 30
0.0
 10
18.65656957151909
 20
26.95395110258211
 30
0.0
 10
18.71660741745024
 20
27.0300662607354
 30
0.0
  0
LINE
  5
257
330
1F
100
AcDbEntity
  8
0
100
AcDbLine
 10
76.7004556027
 20
289.7202650482
 30
0.0
 11
76.9632545151
 21
289.6580100682
 31
0.0
  0
LINE
  5
258
330
1F
100
AcDbEntity
  8
0
100
AcDbLine
 10
79.5083487163
 20
288.4003730319
 30
0.0
 11
79.7163278683
 21
288.2268348103
 31
0.0
  0
SPLINE
  5
259
330
1F
100
AcDbEntity
  8
0
100
AcDbSpline
210
0.0
220
0.0
230
1.0
 70
     8
 71
     3
 72
    10
 73
     6
 74
     0
 42
0.00000001
 43
0.00000001
 40
0.0
 40
0.0
 40
0.0
 40
0.0
 40
0.2884790459809821
 40
0.9364773394842227
 40
1.0
 40
1.0
 40
1.0
 40
1.0
 10
137.8778012647254
 20
25.71844779731996
 30
0.0
 10
138.1503575337389
 20
25.69109333037026
 30
0.0
 10
139.0351454350493
 20
25.60229367996591
 30
0.0
 10
139.9840822249986
 20
26.10138086221711
 30
0.0
 10
140.6565695715191
 20
26.95395110258206
 30
0.0
 10
140.7166074174502
 20
27.0300662607354
 30
0.0
  0
LINE
  5
25A
330
1F
100
AcDbEntity
  8
0
100
AcDbLine
 10
198.7004556027
 20
289.7202650482
 30
0.0
 11
198.9632545151
 21
289.6580100682
 31
0.0
  0
LINE
  5
25B
330
1F
100
AcDbEntity
  8
0
100
AcDbLine
 10
201.5083487163
 20
288.4003730319
 30
0.0
 11
201.7163278683
 21
288.2268348103
 31
0.0
  0
SPLINE
  5
25C
330
1F
100
AcDbEntity
  8
0
100
AcDbSpline
210
0.0
220
0.0
230
1.0
 70
     8
 71
     3
 72
    10
 73
     6
 74
     0
 42
0.00000001
 43
0.00000001
 40
0.0
 40
0.0
 40
0.0
 40
0.0
 40
0.2884790459809708
 40
0.9364773394842189
 40
1.0
 40
1.0
 40
1.0
 40
1.0
 10
259.8778012647254
 20
25.71844779731996
 30
0.0
 10
260.1503575337389
 20
25.69109333037026
 30
0.0
 10
261.0351454350493
 20
25.60229367996594
 30
0.0
 10
261.984082224999
 20
26.101380862217
 30
0.0
 10
262.6565695715191
 20
26.95395110258209
 30
0.0
 10
262.7166074174502
 20
27.0300662607354
 30
0.0
  0
SPLINE
  5
25D
330
1F
100
AcDbEntity
  8
0
100
AcDbSpline
210
0.0
220
0.0
230
1.0
 70
     8
 71
     3
 72
    41
 73
    37
 74
     0
 42
0.00000001
 43
0.00000001
 40
0.0
 40
0.0
 40
0.0
 40
0.0
 40
0.0175621242579385
 40
0.0483361697221377
 40
0.0790888284681821
 40
0.1098557712326432
 40
0.1401203904488177
 40
0.1703829403729624
 40
0.2006559920398986
 40
0.230912517973607
 40
0.2611909814837789
 40
0.2914443984239525
 40
0.3217248179669541
 40
0.351978042969963
 40
0.3822569613481388
 40
0.4125129115975165
 40
0.4427868726778865
 40
0.4730484635518351
 40
0.5033141929861279
 40
0.5335841578557533
 40
0.5638427136339543
 40
0.5941194535622122
 40
0.6243737493369376
 40
0.6546538097355725
 40
0.6849067619809704
 40
0.7151866859070587
 40
0.7454412119873748
 40
0.7757175425947875
 40
0.8059765588316041
 40
0.8362458418222934
 40
0.8665122615633188
 40
0.8967733012042599
 40
0.9270477792395915
 40
0.9573034083068048
 40
0.9875825708831157
 40
0.9999999999999999
 40
0.9999999999999999
 40
0.9999999999999999
 40
0.9999999999999999
 10
-293.6393822884766
 20
289.6494783444039
 30
0.0
 10
-293.2842621870076
 20
289.6693659881105
 30
0.0
 10
-292.3068664435178
 20
289.7241026764211
 30
0.0
 10
-290.7024995111024
 20
288.4585922903232
 30
0.0
 10
-288.837005806692
 20
285.9828608226932
 30
0.0
 10
-286.9771473415707
 20
282.2838166786449
 30
0.0
 10
-285.1293961955915
 20
277.4882903877503
 30
0.0
 10
-283.2922911512997
 20
271.6415018532508
 30
0.0
 10
-281.4520217463011
 20
264.7757526974132
 30
0.0
 10
-279.6168964014745
 20
256.9486197808106
 30
0.0
 10
-277.7749585294641
 20
248.234740735636
 30
0.0
 10
-275.9408746182974
 20
238.7063437684489
 30
0.0
 10
-274.0983293606839
 20
228.4557727892883
 30
0.0
 10
-272.2643099117126
 20
217.5670465685959
 30
0.0
 10
-270.4222308792169
 20
206.1457902739754
 30
0.0
 10
-268.5872979176015
 20
194.2865797539219
 30
0.0
 10
-266.7467500517894
 20
182.1023596674719
 30
0.0
 10
-264.9099563865508
 20
169.697287897611
 30
0.0
 10
-263.0718779131185
 20
157.185062199817
 30
0.0
 10
-261.2325350284241
 20
144.6775957973077
 30
0.0
 10
-259.3967362292348
 20
132.2842601035159
 30
0.0
 10
-257.5553319958398
 20
120.1210079676753
 30
0.0
 10
-255.7209532153733
 20
108.2900005678036
 30
0.0
 10
-253.8785195296013
 20
96.90518122585917
 30
0.0
 10
-252.0445917058271
 20
86.06010631995457
 30
0.0
 10
-250.2022004267039
 20
75.8601730672137
 30
0.0
 10
-248.3677443733106
 20
66.38924621677496
 30
0.0
 10
-246.5264668219822
 20
57.73844603486954
 30
0.0
 10
-244.6905155113309
 20
49.98043727820375
 30
0.0
 10
-242.8513761686776
 20
43.18807050111952
 30
0.0
 10
-241.0130890655745
 20
37.41913115410678
 30
0.0
 10
-239.1764745226062
 20
32.73166212879419
 30
0.0
 10
-237.3357617346143
 20
29.14415317843955
 30
0.0
 10
-235.5009616125132
 20
26.7790646668912
 30
0.0
 10
-234.0206298652294
 20
25.60366646052217
 30
0.0
 10
-233.1572637081411
 20
25.64325806809784
 30
0.0
 10
-232.9061713461419
 20
25.65477247618517
 30
0.0
  0
SPLINE
  5
25E
330
1F
100
AcDbEntity
  8
0
100
AcDbSpline
210
0.0
220
0.0
230
1.0
 70
     8
 71
     3
 72
    41
 73
    37
 74
     0
 42
0.00000001
 43
0.00000001
 40
0.0
 40
0.0
 40
0.0
 40
0.0
 40
0.0175621242579388
 40
0.0483361697221379
 40
0.0790888284681823
 40
0.1098557712326435
 40
0.1401203904488179
 40
0.1703829403729627
 40
0.2006559920398989
 40
0.2309125179736072
 40
0.2611909814837792
 40
0.2914443984239529
 40
0.3217248179669543
 40
0.3519780429699633
 40
0.3822569613481391
 40
0.4125129115975169
 40
0.4427868726778869
 40
0.4730484635518355
 40
0.5033141929861282
 40
0.5335841578557539
 40
0.5638427136339549
 40
0.5941194535622126
 40
0.6243737493369381
 40
0.654653809735573
 40
0.684906761980971
 40
0.7151866859070592
 40
0.7454412119873753
 40
0.775717542594788
 40
0.8059765588316046
 40
0.8362458418222939
 40
0.8665122615633193
 40
0.8967733012042604
 40
0.9270477792395919
 40
0.9573034083068053
 40
0.9875825708831162
 40
1.0
 40
1.0
 40
1.0
 40
1.0
 10
-171.6393822884767
 20
289.6494783444039
 30
0.0
 10
-171.2842621870076
 20
289.6693659881105
 30
0.0
 10
-170.3068664435178
 20
289.7241026764211
 30
0.0
 10
-168.7024995111024
 20
288.4585922903232
 30
0.0
 10
-166.8370058066918
 20
285.9828608226931
 30
0.0
 10
-164.9771473415708
 20
282.2838166786449
 30
0.0
 10
-163.1293961955913
 20
277.4882903877503
 30
0.0
 10
-161.2922911512999
 20
271.6415018532508
 30
0.0
 10
-159.4520217463011
 20
264.7757526974133
 30
0.0
 10
-157.6168964014745
 20
256.9486197808106
 30
0.0
 10
-155.7749585294642
 20
248.234740735636
 30
0.0
 10
-153.9408746182974
 20
238.7063437684489
 30
0.0
 10
-152.0983293606838
 20
228.4557727892883
 30
0.0
 10
-150.2643099117126
 20
217.5670465685959
 30
0.0
 10
-148.4222308792169
 20
206.1457902739754
 30
0.0
 10
-146.5872979176014
 20
194.2865797539219
 30
0.0
 10
-144.7467500517894
 20
182.1023596674719
 30
0.0
 10
-142.9099563865509
 20
169.697287897611
 30
0.0
 10
-141.0718779131185
 20
157.1850621998169
 30
0.0
 10
-139.2325350284241
 20
144.6775957973078
 30
0.0
 10
-137.3967362292348
 20
132.2842601035159
 30
0.0
 10
-135.5553319958397
 20
120.1210079676752
 30
0.0
 10
-133.7209532153733
 20
108.2900005678037
 30
0.0
 10
-131.8785195296012
 20
96.90518122585908
 30
0.0
 10
-130.044591705827
 20
86.06010631995463
 30
0.0
 10
-128.2022004267038
 20
75.86017306721371
 30
0.0
 10
-126.3677443733106
 20
66.38924621677496
 30
0.0
 10
-124.5264668219822
 20
57.73844603486956
 30
0.0
 10
-122.690515511331
 20
49.98043727820374
 30
0.0
 10
-120.8513761686776
 20
43.18807050111952
 30
0.0
 10
-119.0130890655745
 20
37.41913115410678
 30
0.0
 10
-117.1764745226063
 20
32.73166212879419
 30
0.0
 10
-115.3357617346142
 20
29.14415317843955
 30
0.0
 10
-113.5009616125133
 20
26.7790646668912
 30
0.0
 10
-112.0206298652294
 20
25.60366646052217
 30
0.0
 10
-111.1572637081411
 20
25.64325806809781
 30
0.0
 10
-110.9061713461419
 20
25.65477247618514
 30
0.0
  0
SPLINE
  5
25F
330
1F
100
AcDbEntity
  8
0
100
AcDbSpline
210
0.0
220
0.0
230
1.0
 70
     8
 71
     3
 72
    41
 73
    37
 74
     0
 42
0.00000001
 43
0.00000001
 40
0.0
 40
0.0
 40
0.0
 40
0.0
 40
0.0175621242579383
 40
0.0483361697221375
 40
0.079088828468182
 40
0.1098557712326432
 40
0.1401203904488177
 40
0.1703829403729624
 40
0.2006559920398986
 40
0.230912517973607
 40
0.2611909814837791
 40
0.2914443984239527
 40
0.3217248179669542
 40
0.3519780429699633
 40
0.3822569613481391
 40
0.4125129115975169
 40
0.4427868726778869
 40
0.4730484635518356
 40
0.5033141929861283
 40
0.5335841578557539
 40
0.563842713633955
 40
0.5941194535622129
 40
0.6243737493369382
 40
0.6546538097355732
 40
0.6849067619809712
 40
0.7151866859070595
 40
0.7454412119873757
 40
0.7757175425947884
 40
0.8059765588316051
 40
0.8362458418222944
 40
0.8665122615633198
 40
0.896773301204261
 40
0.9270477792395926
 40
0.9573034083068059
 40
0.987582570883117
 40
1.0
 40
1.0
 40
1.0
 40
1.0
 10
-49.63938228847664
 20
289.6494783444039
 30
0.0
 10
-49.28426218700763
 20
289.6693659881105
 30
0.0
 10
-48.30686644351776
 20
289.7241026764211
 30
0.0
 10
-46.70249951110251
 20
288.4585922903232
 30
0.0
 10
-44.83700580669181
 20
285.9828608226931
 30
0.0
 10
-42.97714734157086
 20
282.2838166786449
 30
0.0
 10
-41.12939619559134
 20
277.4882903877503
 30
0.0
 10
-39.29229115129989
 20
271.6415018532508
 30
0.0
 10
-37.45202174630102
 20
264.7757526974132
 30
0.0
 10
-35.61689640147448
 20
256.9486197808106
 30
0.0
 10
-33.77495852946419
 20
248.234740735636
 30
0.0
 10
-31.94087461829742
 20
238.7063437684489
 30
0.0
 10
-30.09832936068381
 20
228.4557727892883
 30
0.0
 10
-28.26430991171266
 20
217.5670465685959
 30
0.0
 10
-26.42223087921679
 20
206.1457902739754
 30
0.0
 10
-24.58729791760148
 20
194.2865797539219
 30
0.0
 10
-22.74675005178944
 20
182.1023596674719
 30
0.0
 10
-20.9099563865509
 20
169.697287897611
 30
0.0
 10
-19.07187791311845
 20
157.1850621998169
 30
0.0
 10
-17.23253502842406
 20
144.6775957973077
 30
0.0
 10
-15.39673622923483
 20
132.2842601035159
 30
0.0
 10
-13.5553319958397
 20
120.1210079676753
 30
0.0
 10
-11.72095321537327
 20
108.2900005678036
 30
0.0
 10
-9.878519529601295
 20
96.90518122585911
 30
0.0
 10
-8.044591705826997
 20
86.0601063199546
 30
0.0
 10
-6.202200426703839
 20
75.8601730672137
 30
0.0
 10
-4.367744373310611
 20
66.38924621677499
 30
0.0
 10
-2.526466821982158
 20
57.73844603486953
 30
0.0
 10
-0.6905155113309941
 20
49.98043727820378
 30
0.0
 10
1.148623831322419
 20
43.18807050111955
 30
0.0
 10
2.986910934425504
 20
37.41913115410669
 30
0.0
 10
4.82352547739372
 20
32.73166212879425
 30
0.0
 10
6.66423826538576
 20
29.14415317843955
 30
0.0
 10
8.499038387486705
 20
26.7790646668912
 30
0.0
 10
9.979370134770642
 20
25.6036664605222
 30
0.0
 10
10.84273629185883
 20
25.64325806809784
 30
0.0
 10
11.093828653858
 20
25.65477247618517
 30
0.0
  0
SPLINE
  5
260
330
1F
100
AcDbEntity
  8
0
100
AcDbSpline
210
0.0
220
0.0
230
1.0
 70
     8
 71
     3
 72
    41
 73
    37
 74
     0
 42
0.00000001
 43
0.00000001
 40
0.0
 40
0.0
 40
0.0
 40
0.0
 40
0.017562124257938
 40
0.0483361697221372
 40
0.0790888284681817
 40
0.1098557712326428
 40
0.1401203904488173
 40
0.1703829403729621
 40
0.2006559920398983
 40
0.2309125179736067
 40
0.2611909814837787
 40
0.2914443984239524
 40
0.3217248179669539
 40
0.3519780429699629
 40
0.3822569613481388
 40
0.4125129115975165
 40
0.4427868726778866
 40
0.4730484635518352
 40
0.503314192986128
 40
0.5335841578557535
 40
0.5638427136339547
 40
0.5941194535622125
 40
0.624373749336938
 40
0.654653809735573
 40
0.6849067619809709
 40
0.7151866859070592
 40
0.7454412119873755
 40
0.7757175425947882
 40
0.8059765588316048
 40
0.8362458418222942
 40
0.8665122615633195
 40
0.8967733012042607
 40
0.9270477792395924
 40
0.9573034083068057
 40
0.9875825708831167
 40
1.0
 40
1.0
 40
1.0
 40
1.0
 10
72.36061771152336
 20
289.6494783444039
 30
0.0
 10
72.71573781299237
 20
289.6693659881105
 30
0.0
 10
73.69313355648225
 20
289.7241026764211
 30
0.0
 10
75.29750048889751
 20
288.4585922903231
 30
0.0
 10
77.16299419330818
 20
285.9828608226931
 30
0.0
 10
79.02285265842912
 20
282.2838166786449
 30
0.0
 10
80.87060380440865
 20
277.4882903877503
 30
0.0
 10
82.70770884870014
 20
271.6415018532508
 30
0.0
 10
84.54797825369896
 20
264.7757526974132
 30
0.0
 10
86.38310359852554
 20
256.9486197808106
 30
0.0
 10
88.2250414705358
 20
248.234740735636
 30
0.0
 10
90.05912538170259
 20
238.7063437684489
 30
0.0
 10
91.90167063931617
 20
228.4557727892883
 30
0.0
 10
93.73569008828734
 20
217.5670465685959
 30
0.0
 10
95.57776912078322
 20
206.1457902739754
 30
0.0
 10
97.4127020823985
 20
194.2865797539219
 30
0.0
 10
99.25324994821057
 20
182.1023596674719
 30
0.0
 10
101.0900436134491
 20
169.697287897611
 30
0.0
 10
102.9281220868815
 20
157.1850621998169
 30
0.0
 10
104.7674649715759
 20
144.6775957973077
 30
0.0
 10
106.6032637707652
 20
132.2842601035159
 30
0.0
 10
108.4446680041603
 20
120.1210079676753
 30
0.0
 10
110.2790467846268
 20
108.2900005678036
 30
0.0
 10
112.1214804703987
 20
96.90518122585917
 30
0.0
 10
113.9554082941731
 20
86.06010631995456
 30
0.0
 10
115.7977995732962
 20
75.8601730672137
 30
0.0
 10
117.6322556266894
 20
66.38924621677498
 30
0.0
 10
119.4735331780179
 20
57.73844603486954
 30
0.0
 10
121.309484488669
 20
49.98043727820375
 30
0.0
 10
123.1486238313224
 20
43.18807050111957
 30
0.0
 10
124.9869109344255
 20
37.41913115410674
 30
0.0
 10
126.8235254773937
 20
32.73166212879418
 30
0.0
 10
128.6642382653858
 20
29.1441531784396
 30
0.0
 10
130.4990383874867
 20
26.77906466689114
 30
0.0
 10
131.9793701347707
 20
25.6036664605222
 30
0.0
 10
132.8427362918589
 20
25.64325806809781
 30
0.0
 10
133.0938286538581
 20
25.65477247618514
 30
0.0
  0
SPLINE
  5
261
330
1F
100
AcDbEntity
  8
0
100
AcDbSpline
210
0.0
220
0.0
230
1.0
 70
     8
 71
     3
 72
    41
 73
    37
 74
     0
 42
0.00000001
 43
0.00000001
 40
0.0
 40
0.0
 40
0.0
 40
0.0
 40
0.017562124257938
 40
0.0483361697221372
 40
0.0790888284681816
 40
0.1098557712326428
 40
0.1401203904488172
 40
0.170382940372962
 40
0.2006559920398981
 40
0.2309125179736065
 40
0.2611909814837786
 40
0.2914443984239521
 40
0.3217248179669537
 40
0.3519780429699627
 40
0.3822569613481386
 40
0.4125129115975162
 40
0.4427868726778863
 40
0.4730484635518348
 40
0.5033141929861276
 40
0.5335841578557532
 40
0.5638427136339542
 40
0.594119453562212
 40
0.6243737493369376
 40
0.6546538097355724
 40
0.6849067619809704
 40
0.7151866859070587
 40
0.7454412119873749
 40
0.7757175425947874
 40
0.8059765588316041
 40
0.8362458418222934
 40
0.8665122615633187
 40
0.8967733012042599
 40
0.9270477792395915
 40
0.9573034083068048
 40
0.9875825708831156
 40
0.9999999999999999
 40
0.9999999999999999
 40
0.9999999999999999
 40
0.9999999999999999
 10
194.3606177115233
 20
289.6494783444039
 30
0.0
 10
194.7157378129923
 20
289.6693659881105
 30
0.0
 10
195.6931335564822
 20
289.724102676421
 30
0.0
 10
197.2975004888977
 20
288.4585922903233
 30
0.0
 10
199.1629941933081
 20
285.9828608226931
 30
0.0
 10
201.0228526584291
 20
282.2838166786449
 30
0.0
 10
202.8706038044086
 20
277.4882903877503
 30
0.0
 10
204.7077088487002
 20
271.6415018532508
 30
0.0
 10
206.5479782536989
 20
264.7757526974133
 30
0.0
 10
208.3831035985255
 20
256.9486197808106
 30
0.0
 10
210.2250414705358
 20
248.2347407356361
 30
0.0
 10
212.0591253817025
 20
238.7063437684489
 30
0.0
 10
213.9016706393161
 20
228.4557727892883
 30
0.0
 10
215.7356900882874
 20
217.5670465685959
 30
0.0
 10
217.5777691207831
 20
206.1457902739754
 30
0.0
 10
219.4127020823986
 20
194.2865797539219
 30
0.0
 10
221.2532499482105
 20
182.102359667472
 30
0.0
 10
223.0900436134492
 20
169.697287897611
 30
0.0
 10
224.9281220868814
 20
157.1850621998169
 30
0.0
 10
226.767464971576
 20
144.6775957973078
 30
0.0
 10
228.6032637707653
 20
132.2842601035159
 30
0.0
 10
230.4446680041601
 20
120.1210079676752
 30
0.0
 10
232.2790467846268
 20
108.2900005678037
 30
0.0
 10
234.1214804703987
 20
96.90518122585908
 30
0.0
 10
235.955408294173
 20
86.06010631995464
 30
0.0
 10
237.7977995732961
 20
75.86017306721368
 30
0.0
 10
239.6322556266894
 20
66.38924621677505
 30
0.0
 10
241.4735331780179
 20
57.7384460348695
 30
0.0
 10
243.309484488669
 20
49.98043727820377
 30
0.0
 10
245.1486238313225
 20
43.18807050111957
 30
0.0
 10
246.9869109344255
 20
37.41913115410674
 30
0.0
 10
248.8235254773937
 20
32.73166212879419
 30
0.0
 10
250.6642382653858
 20
29.14415317843955
 30
0.0
 10
252.4990383874866
 20
26.77906466689126
 30
0.0
 10
253.9793701347708
 20
25.6036664605222
 30
0.0
 10
254.8427362918589
 20
25.64325806809781
 30
0.0
 10
255.0938286538581
 20
25.65477247618514
 30
0.0
  0
SPLINE
  5
262
330
1F
100
AcDbEntity
  8
0
100
AcDbSpline
210
0.0
220
0.0
230
1.0
 70
    24
 71
     3
 72
    21
 73
    17
 74
     0
 42
0.00000001
 43
0.00000001
 40
0.0
 40
0.0
 40
0.0
 40
0.0
 40
0.0515061684737499
 40
0.2827493095878171
 40
0.398533311583823
 40
0.4275137847578123
 40
0.4421265377346875
 40
0.4470263814790875
 40
0.4510957550230832
 40
0.4551689541762478
 40
0.4607892254735562
 40
0.4711100827323778
 40
0.506045333451025
 40
0.6717382187892655
 40
0.9857242416334955
 40
0.9999999999999999
 40
0.9999999999999999
 40
0.9999999999999999
 40
0.9999999999999999
 10
-294.4396382563061
 20
289.7011311411572
 30
0.0
 10
-294.439638256306
 20
289.7044889483334
 30
0.0
 10
-294.4396382563057
 20
289.7229220348728
 30
0.0
 10
-294.439638256312
 20
289.6248125730896
 30
0.0
 10
-294.4396382562989
 20
289.4166340869623
 30
0.0
 10
-294.4396382563109
 20
289.2132802716343
 30
0.0
 10
-294.4396382562958
 20
289.1115694102315
 30
0.0
 10
-294.4396382563071
 20
289.040685904301
 30
0.0
 10
-294.4396382563058
 20
288.9963674768226
 30
0.0
 10
-294.4396382563061
 20
288.9500533910223
 30
0.0
 10
-294.4396382563061
 20
288.8916038215479
 30
0.0
 10
-294.4396382563064
 20
288.7803296839759
 30
0.0
 10
-294.4396382562923
 20
288.5176155489941
 30
0.0
 10
-294.4396382563177
 20
288.2674495722344
 30
0.0
 10
-294.4396382563052
 20
288.1367918982814
 30
0.0
 10
-294.439638256306
 20
288.090158680041
 30
0.0
 10
-294.4396382563061
 20
288.0881306506037
 30
0.0
  0
SPLINE
  5
263
330
1F
100
AcDbEntity
  8
0
100
AcDbSpline
210
0.0
220
0.0
230
1.0
 70
     8
 71
     3
 72
     9
 73
     5
 74
     0
 42
0.00000001
 43
0.00000001
 40
0.0
 40
0.0
 40
0.0
 40
0.0
 40
0.7186802476413332
 40
1.0
 40
1.0
 40
1.0
 40
1.0
 10
-226.1195182215147
 20
27.20267323802236
 30
0.0
 10
-226.0132799809404
 20
27.17461261071061
 30
0.0
 10
-225.8654559090768
 20
27.13556794877114
 30
0.0
 10
-225.7172558684862
 20
27.23765552613366
 30
0.0
 10
-225.6755642697677
 20
27.26637477811617
 30
0.0
  0
SPLINE
  5
264
330
1F
100
AcDbEntity
  8
0
100
AcDbSpline
210
0.0
220
0.0
230
1.0
 70
     8
 71
     3
 72
     9
 73
     5
 74
     0
 42
0.00000001
 43
0.00000001
 40
0.0
 40
0.0
 40
0.0
 40
0.0
 40
0.7186802476413493
 40
1.0
 40
1.0
 40
1.0
 40
1.0
 10
-104.1195182215148
 20
27.20267323802236
 30
0.0
 10
-104.0132799809405
 20
27.17461261071064
 30
0.0
 10
-103.8654559090769
 20
27.13556794877114
 30
0.0
 10
-103.7172558684862
 20
27.23765552613364
 30
0.0
 10
-103.6755642697677
 20
27.26637477811617
 30
0.0
  0
SPLINE
  5
265
330
1F
100
AcDbEntity
  8
0
100
AcDbSpline
210
0.0
220
0.0
230
1.0
 70
     8
 71
     3
 72
     9
 73
     5
 74
     0
 42
0.00000001
 43
0.00000001
 40
0.0
 40
0.0
 40
0.0
 40
0.0
 40
0.7186802476414201
 40
1.0
 40
1.0
 40
1.0
 40
1.0
 10
17.88048177848528
 20
27.20267323802236
 30
0.0
 10
17.98672001905955
 20
27.17461261071058
 30
0.0
 10
18.13454409092312
 20
27.13556794877111
 30
0.0
 10
18.28274413151375
 20
27.23765552613364
 30
0.0
 10
18.32443573023223
 20
27.26637477811611
 30
0.0
  0
SPLINE
  5
266
330
1F
100
AcDbEntity
  8
0
100
AcDbSpline
210
0.0
220
0.0
230
1.0
 70
     8
 71
     3
 72
     9
 73
     5
 74
     0
 42
0.00000001
 43
0.00000001
 40
0.0
 40
0.0
 40
0.0
 40
0.0
 40
0.7186802476414377
 40
1.0
 40
1.0
 40
1.0
 40
1.0
 10
139.8804817784852
 20
27.20267323802236
 30
0.0
 10
139.9867200190595
 20
27.17461261071064
 30
0.0
 10
140.1345440909232
 20
27.13556794877114
 30
0.0
 10
140.2827441315137
 20
27.23765552613364
 30
0.0
 10
140.3244357302322
 20
27.26637477811614
 30
0.0
  0
SPLINE
  5
267
330
1F
100
AcDbEntity
  8
0
100
AcDbSpline
210
0.0
220
0.0
230
1.0
 70
     8
 71
     3
 72
     9
 73
     5
 74
     0
 42
0.00000001
 43
0.00000001
 40
0.0
 40
0.0
 40
0.0
 40
0.0
 40
0.7186802476414266
 40
0.9999999999999999
 40
0.9999999999999999
 40
0.9999999999999999
 40
0.9999999999999999
 10
261.8804817784853
 20
27.20267323802236
 30
0.0
 10
261.9867200190595
 20
27.17461261071064
 30
0.0
 10
262.1345440909231
 20
27.13556794877111
 30
0.0
 10
262.2827441315137
 20
27.23765552613364
 30
0.0
 10
262.3244357302322
 20
27.26637477811614
 30
0.0
  0
SPLINE
  5
268
330
1F
100
AcDbEntity
  8
0
100
AcDbSpline
210
0.0
220
0.0
230
1.0
 70
     8
 71
     3
 72
    11
 73
     7
 74
     0
 42
0.00000001
 43
0.00000001
 40
0.0
 40
0.0
 40
0.0
 40
0.0
 40
0.1720427910686083
 40
0.4515421577201541
 40
0.7309272839194185
 40
1.0
 40
1.0
 40
1.0
 40
1.0
 10
-269.7176918680593
 20
201.35819531658
 30
0.0
 10
-269.3407891219475
 20
198.9491881751537
 30
0.0
 10
-268.35157313578
 20
192.6265269590317
 30
0.0
 10
-266.7467773515497
 20
181.9995300140303
 30
0.0
 10
-264.9326886373287
 20
169.8069073612616
 30
0.0
 10
-263.7299111065416
 20
161.6506263234737
 30
0.0
 10
-263.1398299879923
 20
157.6491652762008
 30
0.0
  0
SPLINE
  5
269
330
1F
100
AcDbEntity
  8
0
100
AcDbSpline
210
0.0
220
0.0
230
1.0
 70
     8
 71
     3
 72
    11
 73
     7
 74
     0
 42
0.00000001
 43
0.00000001
 40
0.0
 40
0.0
 40
0.0
 40
0.0
 40
0.1720427910685742
 40
0.451542157720129
 40
0.7309272839194026
 40
1.0
 40
1.0
 40
1.0
 40
1.0
 10
-147.717691868059
 20
201.3581953165783
 30
0.0
 10
-147.3407891219474
 20
198.9491881751526
 30
0.0
 10
-146.3515731357799
 20
192.6265269590311
 30
0.0
 10
-144.7467773515497
 20
181.9995300140303
 30
0.0
 10
-142.9326886373287
 20
169.8069073612615
 30
0.0
 10
-141.7299111065416
 20
161.6506263234735
 30
0.0
 10
-141.1398299879923
 20
157.6491652762005
 30
0.0
  0
SPLINE
  5
26A
330
1F
100
AcDbEntity
  8
0
100
AcDbSpline
210
0.0
220
0.0
230
1.0
 70
     8
 71
     3
 72
    11
 73
     7
 74
     0
 42
0.00000001
 43
0.00000001
 40
0.0
 40
0.0
 40
0.0
 40
0.0
 40
0.1720427910686289
 40
0.4515421577201676
 40
0.7309272839194251
 40
1.0
 40
1.0
 40
1.0
 40
1.0
 10
-25.71769186805939
 20
201.358195316581
 30
0.0
 10
-25.34078912194759
 20
198.9491881751544
 30
0.0
 10
-24.35157313578001
 20
192.6265269590321
 30
0.0
 10
-22.74677735154964
 20
181.9995300140303
 30
0.0
 10
-20.93268863732876
 20
169.8069073612616
 30
0.0
 10
-19.72991110654157
 20
161.6506263234737
 30
0.0
 10
-19.1398299879923
 20
157.6491652762008
 30
0.0
  0
SPLINE
  5
26B
330
1F
100
AcDbEntity
  8
0
100
AcDbSpline
210
0.0
220
0.0
230
1.0
 70
     8
 71
     3
 72
    11
 73
     7
 74
     0
 42
0.00000001
 43
0.00000001
 40
0.0
 40
0.0
 40
0.0
 40
0.0
 40
0.172042791068591
 40
0.4515421577201427
 40
0.730927283919413
 40
1.0
 40
1.0
 40
1.0
 40
1.0
 10
96.28230813194088
 20
201.3581953165791
 30
0.0
 10
96.65921087805258
 20
198.9491881751531
 30
0.0
 10
97.6484268642201
 20
192.6265269590314
 30
0.0
 10
99.25322264845035
 20
181.9995300140303
 30
0.0
 10
101.0673113626713
 20
169.8069073612616
 30
0.0
 10
102.2700888934584
 20
161.6506263234737
 30
0.0
 10
102.8601700120077
 20
157.6491652762008
 30
0.0
  0
SPLINE
  5
26C
330
1F
100
AcDbEntity
  8
0
100
AcDbSpline
210
0.0
220
0.0
230
1.0
 70
     8
 71
     3
 72
     9
 73
     5
 74
     0
 42
0.00000001
 43
0.00000001
 40
0.0
 40
0.0
 40
0.0
 40
0.0
 40
0.6685956924247876
 40
0.9999999999999999
 40
0.9999999999999999
 40
0.9999999999999999
 40
0.9999999999999999
 10
192.2720729579765
 20
288.3943666887766
 30
0.0
 10
192.7017390378735
 20
288.75364316783
 30
0.0
 10
193.3443786551566
 20
289.2910030149303
 30
0.0
 10
193.9854311988049
 20
289.1908054519379
 30
0.0
 10
194.197878773152
 20
289.1575995479537
 30
0.0
  0
SPLINE
  5
26D
330
1F
100
AcDbEntity
  8
0
100
AcDbSpline
210
0.0
220
0.0
230
1.0
 70
     8
 71
     3
 72
    11
 73
     7
 74
     0
 42
0.00000001
 43
0.00000001
 40
0.0
 40
0.0
 40
0.0
 40
0.0
 40
0.172042791068474
 40
0.4515421577200605
 40
0.7309272839193655
 40
1.0
 40
1.0
 40
1.0
 40
1.0
 10
218.2823081319418
 20
201.3581953165732
 30
0.0
 10
218.6592108780532
 20
198.9491881751492
 30
0.0
 10
219.6484268642204
 20
192.6265269590294
 30
0.0
 10
221.2532226484504
 20
181.9995300140303
 30
0.0
 10
223.0673113626713
 20
169.8069073612614
 30
0.0
 10
224.2700888934584
 20
161.6506263234733
 30
0.0
 10
224.8601700120077
 20
157.6491652762002
 30
0.0
  0
SPLINE
  5
26E
330
1F
100
AcDbEntity
  8
0
100
AcDbSpline
210
0.0
220
0.0
230
1.0
 70
     8
 71
     3
 72
    20
 73
    16
 74
     0
 42
0.00000001
 43
0.00000001
 40
0.0
 40
0.0
 40
0.0
 40
0.0
 40
0.0459533225668221
 40
0.1264586657719964
 40
0.20690802352249
 40
0.2873947735058305
 40
0.3665674260926626
 40
0.4457346617554525
 40
0.5249293885342885
 40
0.6040808547941314
 40
0.6832897485250684
 40
0.7624330761641163
 40
0.8416470903374496
 40
0.9207899155297067
 40
1.0
 40
1.0
 40
1.0
 40
1.0
 10
-293.6396277072641
 20
288.5507356608055
 30
0.0
 10
-293.2844258012142
 20
288.5704672703449
 30
0.0
 10
-292.3069478603446
 20
288.6247665652925
 30
0.0
 10
-290.702500232205
 20
287.3697599026218
 30
0.0
 10
-288.8370053286012
 20
284.9146242560506
 30
0.0
 10
-286.9771475571127
 20
281.2463749789001
 30
0.0
 10
-285.1293962951596
 20
276.4907628085647
 30
0.0
 10
-283.2922906862475
 20
270.6926498753212
 30
0.0
 10
-281.4520227618
 20
263.8840200399577
 30
0.0
 10
-279.6168939344847
 20
256.1221596883901
 30
0.0
 10
-277.7749658651824
 20
247.4803508733651
 30
0.0
 10
-275.9408494721704
 20
238.0330131401519
 30
0.0
 10
-274.0984208146527
 20
227.861224405427
 30
0.0
 10
-272.2639713521933
 20
217.0875676761049
 30
0.0
 10
-271.0368487606872
 20
209.4750950167754
 30
0.0
 10
-270.4230268591147
 20
205.6672420151586
 30
0.0
  0
SPLINE
  5
26F
330
1F
100
AcDbEntity
  8
0
100
AcDbSpline
210
0.0
220
0.0
230
1.0
 70
     8
 71
     3
 72
    20
 73
    16
 74
     0
 42
0.00000001
 43
0.00000001
 40
0.0
 40
0.0
 40
0.0
 40
0.0
 40
0.0459533225668217
 40
0.1264586657719961
 40
0.2069080235224898
 40
0.2873947735058303
 40
0.3665674260926625
 40
0.4457346617554523
 40
0.5249293885342883
 40
0.6040808547941313
 40
0.6832897485250684
 40
0.7624330761641163
 40
0.8416470903374496
 40
0.9207899155297068
 40
1.0
 40
1.0
 40
1.0
 40
1.0
 10
-171.6396277072641
 20
288.5507356608054
 30
0.0
 10
-171.2844258012141
 20
288.5704672703447
 30
0.0
 10
-170.3069478603445
 20
288.6247665652925
 30
0.0
 10
-168.7025002322052
 20
287.3697599026218
 30
0.0
 10
-166.8370053286011
 20
284.9146242560506
 30
0.0
 10
-164.9771475571126
 20
281.2463749789001
 30
0.0
 10
-163.1293962951596
 20
276.4907628085647
 30
0.0
 10
-161.2922906862476
 20
270.6926498753212
 30
0.0
 10
-159.4520227618
 20
263.8840200399576
 30
0.0
 10
-157.6168939344846
 20
256.1221596883901
 30
0.0
 10
-155.7749658651825
 20
247.4803508733651
 30
0.0
 10
-153.9408494721704
 20
238.0330131401518
 30
0.0
 10
-152.0984208146529
 20
227.8612244054271
 30
0.0
 10
-150.2639713521932
 20
217.0875676761048
 30
0.0
 10
-149.0368487606871
 20
209.4750950167754
 30
0.0
 10
-148.4230268591147
 20
205.6672420151586
 30
0.0
  0
SPLINE
  5
270
330
1F
100
AcDbEntity
  8
0
100
AcDbSpline
210
0.0
220
0.0
230
1.0
 70
     8
 71
     3
 72
    20
 73
    16
 74
     0
 42
0.00000001
 43
0.00000001
 40
0.0
 40
0.0
 40
0.0
 40
0.0
 40
0.0459533225668225
 40
0.1264586657719968
 40
0.2069080235224904
 40
0.2873947735058309
 40
0.3665674260926629
 40
0.4457346617554527
 40
0.5249293885342886
 40
0.6040808547941315
 40
0.6832897485250685
 40
0.7624330761641163
 40
0.8416470903374496
 40
0.9207899155297067
 40
0.9999999999999999
 40
0.9999999999999999
 40
0.9999999999999999
 40
0.9999999999999999
 10
-49.63962770726408
 20
288.5507356608055
 30
0.0
 10
-49.2844258012142
 20
288.5704672703448
 30
0.0
 10
-48.30694786034456
 20
288.6247665652924
 30
0.0
 10
-46.70250023220504
 20
287.3697599026218
 30
0.0
 10
-44.83700532860113
 20
284.9146242560506
 30
0.0
 10
-42.97714755711262
 20
281.2463749789001
 30
0.0
 10
-41.12939629515958
 20
276.4907628085647
 30
0.0
 10
-39.29229068624756
 20
270.6926498753212
 30
0.0
 10
-37.45202276179997
 20
263.8840200399576
 30
0.0
 10
-35.61689393448466
 20
256.1221596883901
 30
0.0
 10
-33.77496586518244
 20
247.4803508733651
 30
0.0
 10
-31.94084947217034
 20
238.0330131401518
 30
0.0
 10
-30.09842081465288
 20
227.8612244054271
 30
0.0
 10
-28.26397135219324
 20
217.0875676761048
 30
0.0
 10
-27.03684876068713
 20
209.4750950167754
 30
0.0
 10
-26.42302685911464
 20
205.6672420151586
 30
0.0
  0
SPLINE
  5
271
330
1F
100
AcDbEntity
  8
0
100
AcDbSpline
210
0.0
220
0.0
230
1.0
 70
     8
 71
     3
 72
    20
 73
    16
 74
     0
 42
0.00000001
 43
0.00000001
 40
0.0
 40
0.0
 40
0.0
 40
0.0
 40
0.0459533225668217
 40
0.1264586657719961
 40
0.2069080235224897
 40
0.2873947735058303
 40
0.3665674260926624
 40
0.4457346617554522
 40
0.5249293885342883
 40
0.6040808547941313
 40
0.6832897485250683
 40
0.7624330761641162
 40
0.8416470903374494
 40
0.9207899155297067
 40
1.0
 40
1.0
 40
1.0
 40
1.0
 10
72.3603722927359
 20
288.5507356608054
 30
0.0
 10
72.71557419878579
 20
288.5704672703447
 30
0.0
 10
73.69305213965546
 20
288.6247665652925
 30
0.0
 10
75.297499767795
 20
287.3697599026218
 30
0.0
 10
77.16299467139889
 20
284.9146242560506
 30
0.0
 10
79.02285244288737
 20
281.2463749789001
 30
0.0
 10
80.87060370484039
 20
276.4907628085647
 30
0.0
 10
82.70770931375245
 20
270.6926498753213
 30
0.0
 10
84.54797723820003
 20
263.8840200399576
 30
0.0
 10
86.38310606551535
 20
256.1221596883901
 30
0.0
 10
88.22503413481756
 20
247.4803508733651
 30
0.0
 10
90.05915052782962
 20
238.0330131401518
 30
0.0
 10
91.90157918534715
 20
227.8612244054271
 30
0.0
 10
93.73602864780673
 20
217.0875676761048
 30
0.0
 10
94.96315123931288
 20
209.4750950167754
 30
0.0
 10
95.57697314088539
 20
205.6672420151586
 30
0.0
  0
SPLINE
  5
272
330
1F
100
AcDbEntity
  8
0
100
AcDbSpline
210
0.0
220
0.0
230
1.0
 70
     8
 71
     3
 72
    20
 73
    16
 74
     0
 42
0.00000001
 43
0.00000001
 40
0.0
 40
0.0
 40
0.0
 40
0.0
 40
0.0459533225668217
 40
0.1264586657719961
 40
0.2069080235224897
 40
0.2873947735058302
 40
0.3665674260926623
 40
0.4457346617554521
 40
0.524929388534288
 40
0.604080854794131
 40
0.6832897485250681
 40
0.7624330761641158
 40
0.8416470903374492
 40
0.9207899155297067
 40
0.9999999999999999
 40
0.9999999999999999
 40
0.9999999999999999
 40
0.9999999999999999
 10
194.3603722927359
 20
288.5507356608055
 30
0.0
 10
194.7155741987858
 20
288.5704672703448
 30
0.0
 10
195.6930521396555
 20
288.6247665652925
 30
0.0
 10
197.297499767795
 20
287.3697599026218
 30
0.0
 10
199.1629946713989
 20
284.9146242560506
 30
0.0
 10
201.0228524428873
 20
281.2463749789
 30
0.0
 10
202.8706037048405
 20
276.4907628085648
 30
0.0
 10
204.7077093137524
 20
270.6926498753211
 30
0.0
 10
206.5479772382
 20
263.8840200399577
 30
0.0
 10
208.3831060655154
 20
256.1221596883901
 30
0.0
 10
210.2250341348177
 20
247.4803508733652
 30
0.0
 10
212.0591505278295
 20
238.0330131401518
 30
0.0
 10
213.901579185347
 20
227.8612244054271
 30
0.0
 10
215.7360286478068
 20
217.0875676761049
 30
0.0
 10
216.9631512393129
 20
209.4750950167754
 30
0.0
 10
217.5769731408854
 20
205.6672420151586
 30
0.0
  0
SPLINE
  5
273
330
1F
100
AcDbEntity
  8
0
100
AcDbSpline
210
0.0
220
0.0
230
1.0
 70
     8
 71
     3
 72
    24
 73
    20
 74
     0
 42
0.00000001
 43
0.00000001
 40
0.0
 40
0.0
 40
0.0
 40
0.0
 40
0.0602707930655713
 40
0.1205259187261673
 40
0.1808118402843882
 40
0.2410571021581527
 40
0.3013512706983165
 40
0.3615924789365539
 40
0.4218880070937621
 40
0.4821309745335455
 40
0.5424209739775141
 40
0.6026715122902797
 40
0.6629490986159039
 40
0.7232130144577875
 40
0.7834736318116692
 40
0.8437544031731035
 40
0.9040028648443901
 40
0.9642946005441697
 40
0.9999999999999999
 40
0.9999999999999999
 40
0.9999999999999999
 40
0.9999999999999999
 10
-293.6395697977968
 20
288.7491652762006
 30
0.0
 10
-293.0266117899433
 20
288.6360176651939
 30
0.0
 10
-291.8008551127957
 20
288.4097518559252
 30
0.0
 10
-289.9645804778357
 20
286.5846433892786
 30
0.0
 10
-288.1235773035704
 20
283.6896213287259
 30
0.0
 10
-286.2889470009728
 20
279.6422381751594
 30
0.0
 10
-284.446662246978
 20
274.5099459469899
 30
0.0
 10
-282.6127143736938
 20
268.3273281940742
 30
0.0
 10
-280.7702176716625
 20
261.1565281154736
 30
0.0
 10
-278.9359735595111
 20
253.0558207204579
 30
0.0
 10
-277.0943372548091
 20
244.1036042734221
 30
0.0
 10
-275.2588247314201
 20
234.3746666580505
 30
0.0
 10
-273.4190931762853
 20
223.9605933152692
 30
0.0
 10
-271.5814195835555
 20
212.9518301635604
 30
0.0
 10
-269.74425582909
 20
201.4475449691336
 30
0.0
 10
-267.9040541196373
 20
189.5525131766905
 30
0.0
 10
-266.0688450498684
 20
177.368771418975
 30
0.0
 10
-264.4770697183059
 20
166.6898046659599
 30
0.0
 10
-263.5022701022273
 20
160.099114343599
 30
0.0
 10
-263.1397008482068
 20
157.647757537293
 30
0.0
  0
SPLINE
  5
274
330
1F
100
AcDbEntity
  8
0
100
AcDbSpline
210
0.0
220
0.0
230
1.0
 70
     8
 71
     3
 72
    24
 73
    20
 74
     0
 42
0.00000001
 43
0.00000001
 40
0.0
 40
0.0
 40
0.0
 40
0.0
 40
0.0602707930655713
 40
0.1205259187261672
 40
0.1808118402843881
 40
0.2410571021581526
 40
0.3013512706983163
 40
0.3615924789365538
 40
0.421888007093762
 40
0.4821309745335454
 40
0.5424209739775139
 40
0.6026715122902796
 40
0.6629490986159037
 40
0.7232130144577872
 40
0.7834736318116688
 40
0.843754403173103
 40
0.9040028648443896
 40
0.9642946005441694
 40
1.0
 40
1.0
 40
1.0
 40
1.0
 10
-171.6395697977968
 20
288.7491652762006
 30
0.0
 10
-171.0266117899433
 20
288.6360176651939
 30
0.0
 10
-169.8008551127958
 20
288.4097518559252
 30
0.0
 10
-167.9645804778356
 20
286.5846433892785
 30
0.0
 10
-166.1235773035705
 20
283.6896213287259
 30
0.0
 10
-164.2889470009729
 20
279.6422381751595
 30
0.0
 10
-162.4466622469779
 20
274.5099459469899
 30
0.0
 10
-160.6127143736937
 20
268.3273281940742
 30
0.0
 10
-158.7702176716626
 20
261.1565281154737
 30
0.0
 10
-156.935973559511
 20
253.0558207204578
 30
0.0
 10
-155.0943372548092
 20
244.1036042734221
 30
0.0
 10
-153.25882473142
 20
234.3746666580505
 30
0.0
 10
-151.4190931762852
 20
223.9605933152692
 30
0.0
 10
-149.5814195835555
 20
212.9518301635604
 30
0.0
 10
-147.74425582909
 20
201.4475449691336
 30
0.0
 10
-145.9040541196372
 20
189.5525131766905
 30
0.0
 10
-144.0688450498685
 20
177.368771418975
 30
0.0
 10
-142.4770697183058
 20
166.6898046659598
 30
0.0
 10
-141.5022701022273
 20
160.0991143435989
 30
0.0
 10
-141.1397008482068
 20
157.647757537293
 30
0.0
  0
SPLINE
  5
275
330
1F
100
AcDbEntity
  8
0
100
AcDbSpline
210
0.0
220
0.0
230
1.0
 70
     8
 71
     3
 72
    24
 73
    20
 74
     0
 42
0.00000001
 43
0.00000001
 40
0.0
 40
0.0
 40
0.0
 40
0.0
 40
0.0602707930655713
 40
0.1205259187261674
 40
0.1808118402843883
 40
0.2410571021581529
 40
0.3013512706983166
 40
0.3615924789365542
 40
0.4218880070937623
 40
0.4821309745335458
 40
0.5424209739775144
 40
0.60267151229028
 40
0.6629490986159042
 40
0.7232130144577879
 40
0.7834736318116696
 40
0.8437544031731039
 40
0.9040028648443905
 40
0.9642946005441703
 40
1.0
 40
1.0
 40
1.0
 40
1.0
 10
-49.63956979779677
 20
288.7491652762006
 30
0.0
 10
-49.02661178994331
 20
288.6360176651939
 30
0.0
 10
-47.8008551127958
 20
288.4097518559252
 30
0.0
 10
-45.96458047783553
 20
286.5846433892785
 30
0.0
 10
-44.12357730357048
 20
283.689621328726
 30
0.0
 10
-42.2889470009729
 20
279.6422381751594
 30
0.0
 10
-40.44666224697784
 20
274.5099459469899
 30
0.0
 10
-38.61271437369382
 20
268.3273281940743
 30
0.0
 10
-36.77021767166254
 20
261.1565281154736
 30
0.0
 10
-34.93597355951105
 20
253.0558207204578
 30
0.0
 10
-33.0943372548092
 20
244.1036042734221
 30
0.0
 10
-31.25882473142009
 20
234.3746666580504
 30
0.0
 10
-29.41909317628523
 20
223.9605933152693
 30
0.0
 10
-27.58141958355559
 20
212.9518301635604
 30
0.0
 10
-25.74425582908993
 20
201.4475449691336
 30
0.0
 10
-23.90405411963729
 20
189.5525131766905
 30
0.0
 10
-22.06884504986848
 20
177.368771418975
 30
0.0
 10
-20.47706971830578
 20
166.6898046659599
 30
0.0
 10
-19.5022701022273
 20
160.099114343599
 30
0.0
 10
-19.13970084820682
 20
157.6477575372931
 30
0.0
  0
SPLINE
  5
276
330
1F
100
AcDbEntity
  8
0
100
AcDbSpline
210
0.0
220
0.0
230
1.0
 70
     8
 71
     3
 72
    24
 73
    20
 74
     0
 42
0.00000001
 43
0.00000001
 40
0.0
 40
0.0
 40
0.0
 40
0.0
 40
0.0602707930655713
 40
0.1205259187261673
 40
0.1808118402843883
 40
0.2410571021581529
 40
0.3013512706983166
 40
0.3615924789365542
 40
0.4218880070937623
 40
0.4821309745335458
 40
0.5424209739775144
 40
0.60267151229028
 40
0.6629490986159042
 40
0.7232130144577879
 40
0.7834736318116696
 40
0.8437544031731039
 40
0.9040028648443905
 40
0.9642946005441703
 40
1.0
 40
1.0
 40
1.0
 40
1.0
 10
72.36043020220323
 20
288.7491652762006
 30
0.0
 10
72.97338821005671
 20
288.636017665194
 30
0.0
 10
74.19914488720421
 20
288.4097518559252
 30
0.0
 10
76.0354195221644
 20
286.5846433892785
 30
0.0
 10
77.87642269642956
 20
283.6896213287259
 30
0.0
 10
79.71105299902713
 20
279.6422381751594
 30
0.0
 10
81.55333775302212
 20
274.5099459469899
 30
0.0
 10
83.38728562630622
 20
268.3273281940743
 30
0.0
 10
85.22978232833745
 20
261.1565281154736
 30
0.0
 10
87.06402644048892
 20
253.0558207204578
 30
0.0
 10
88.90566274519084
 20
244.1036042734221
 30
0.0
 10
90.74117526857988
 20
234.3746666580504
 30
0.0
 10
92.58090682371478
 20
223.9605933152693
 30
0.0
 10
94.41858041644441
 20
212.9518301635604
 30
0.0
 10
96.25574417091006
 20
201.4475449691336
 30
0.0
 10
98.0959458803627
 20
189.5525131766905
 30
0.0
 10
99.93115495013154
 20
177.368771418975
 30
0.0
 10
101.5229302816942
 20
166.6898046659599
 30
0.0
 10
102.4977298977727
 20
160.099114343599
 30
0.0
 10
102.8602991517932
 20
157.6477575372931
 30
0.0
  0
SPLINE
  5
277
330
1F
100
AcDbEntity
  8
0
100
AcDbSpline
210
0.0
220
0.0
230
1.0
 70
     8
 71
     3
 72
    26
 73
    22
 74
     0
 42
0.00000001
 43
0.00000001
 40
0.0
 40
0.0
 40
0.0
 40
0.0
 40
0.0070447628612816
 40
0.0550333440901115
 40
0.1119872338623214
 40
0.168926318459245
 40
0.2258945041525629
 40
0.2828242677998297
 40
0.3398002466160955
 40
0.396726179712954
 40
0.4537034433219916
 40
0.5106310388056522
 40
0.5676030779650282
 40
0.6245378276712131
 40
0.6814981368476579
 40
0.7384455278727977
 40
0.7953898019367608
 40
0.8523531208658439
 40
0.9092859082150748
 40
0.9662595880782986
 40
1.0
 40
1.0
 40
1.0
 40
1.0
 10
192.5844156539747
 20
288.1491652762006
 30
0.0
 10
192.6602402312167
 20
288.2125371186295
 30
0.0
 10
193.2525781327207
 20
288.7075948627564
 30
0.0
 10
194.4564627271945
 20
288.8550323833938
 30
0.0
 10
196.1992755434918
 20
288.3742612547948
 30
0.0
 10
198.0353844961228
 20
286.5941576292515
 30
0.0
 10
199.8764320763727
 20
283.6870734236385
 30
0.0
 10
201.7110504840562
 20
279.642921325048
 30
0.0
 10
203.5533384264597
 20
274.5097630189326
 30
0.0
 10
205.3872854457402
 20
268.3273772418202
 30
0.0
 10
207.2297823766901
 20
261.1565149812435
 30
0.0
 10
209.0640264275261
 20
253.0558242415978
 30
0.0
 10
210.9056627486626
 20
244.1036033303255
 30
0.0
 10
212.7411752676495
 20
234.3746669108107
 30
0.0
 10
214.5809068239639
 20
223.9605932475465
 30
0.0
 10
216.4185804163778
 20
212.9518301817037
 30
0.0
 10
218.2557441709279
 20
201.44754496427
 30
0.0
 10
220.0959458803579
 20
189.5525131779943
 30
0.0
 10
221.9311549501327
 20
177.3687714186211
 30
0.0
 10
223.5229302816941
 20
166.6898046660079
 30
0.0
 10
224.4977298977726
 20
160.0991143436121
 30
0.0
 10
224.8602991517931
 20
157.6477575372933
 30
0.0
  0
SPLINE
  5
278
330
1F
100
AcDbEntity
  8
0
100
AcDbSpline
210
0.0
220
0.0
230
1.0
 70
     8
 71
     3
 72
    24
 73
    20
 74
     0
 42
0.00000001
 43
0.00000001
 40
0.0
 40
0.0
 40
0.0
 40
0.0
 40
0.0602076795078544
 40
0.1203997128079604
 40
0.1806225003385182
 40
0.2408046831972734
 40
0.3010357065492499
 40
0.3612138412570136
 40
0.4214462223859646
 40
0.481626113915085
 40
0.5418529738130005
 40
0.6020404259718288
 40
0.6622548895484803
 40
0.7224557011371285
 40
0.7826532187004714
 40
0.8428708630033012
 40
0.9030562413303026
 40
0.9632848351343528
 40
1.0
 40
1.0
 40
1.0
 40
1.0
 10
-293.6395697977968
 20
289.2491652762006
 30
0.0
 10
-293.0266117664673
 20
289.1355860995989
 30
0.0
 10
-291.8008549935997
 20
288.9084572622881
 30
0.0
 10
-289.9645807091694
 20
287.0763884937316
 30
0.0
 10
-288.1235769931607
 20
284.1703242025105
 30
0.0
 10
-286.2889473734662
 20
280.107506376459
 30
0.0
 10
-284.4466618418009
 20
274.9556379802817
 30
0.0
 10
-282.6127147891464
 20
268.7494432138697
 30
0.0
 10
-280.7702172703166
 20
261.5512913836627
 30
0.0
 10
-278.9359739194875
 20
253.4196921425886
 30
0.0
 10
-277.094336954623
 20
244.4333298686235
 30
0.0
 10
-275.2588249428508
 20
234.6672897570022
 30
0.0
 10
-273.4190930546184
 20
224.2134969407204
 30
0.0
 10
-271.5814196348409
 20
213.1627471434252
 30
0.0
 10
-269.7442556939102
 20
201.6145904638754
 30
0.0
 10
-267.9040549375186
 20
189.6741772941683
 30
0.0
 10
-266.0688414082832
 20
177.4440187399815
 30
0.0
 10
-264.4664026596882
 20
166.6522497222975
 30
0.0
 10
-263.4809657525605
 20
159.9641187634623
 30
0.0
 10
-263.1077547381911
 20
157.4311467169243
 30
0.0
  0
SPLINE
  5
279
330
1F
100
AcDbEntity
  8
0
100
AcDbSpline
210
0.0
220
0.0
230
1.0
 70
     8
 71
     3
 72
    24
 73
    20
 74
     0
 42
0.00000001
 43
0.00000001
 40
0.0
 40
0.0
 40
0.0
 40
0.0
 40
0.0602076795078732
 40
0.1203997128079982
 40
0.1806225003385749
 40
0.2408046831973489
 40
0.3010357065493443
 40
0.3612138412571268
 40
0.4214462223860967
 40
0.481626113915236
 40
0.5418529738131703
 40
0.6020404259720176
 40
0.6622548895486879
 40
0.722455701137355
 40
0.7826532187007167
 40
0.8428708630035654
 40
0.9030562413305857
 40
0.9632848351346548
 40
1.0
 40
1.0
 40
1.0
 40
1.0
 10
-171.6395697977968
 20
289.2491652762006
 30
0.0
 10
-171.0266117664674
 20
289.135586099599
 30
0.0
 10
-169.8008549935998
 20
288.9084572622881
 30
0.0
 10
-167.9645807091693
 20
287.0763884937316
 30
0.0
 10
-166.1235769931607
 20
284.1703242025105
 30
0.0
 10
-164.2889473734661
 20
280.107506376459
 30
0.0
 10
-162.446661841801
 20
274.9556379802818
 30
0.0
 10
-160.6127147891462
 20
268.7494432138697
 30
0.0
 10
-158.7702172703167
 20
261.5512913836628
 30
0.0
 10
-156.9359739194875
 20
253.4196921425886
 30
0.0
 10
-155.0943369546231
 20
244.4333298686235
 30
0.0
 10
-153.2588249428508
 20
234.6672897570022
 30
0.0
 10
-151.4190930546183
 20
224.2134969407203
 30
0.0
 10
-149.581419634841
 20
213.1627471434252
 30
0.0
 10
-147.7442556939102
 20
201.6145904638753
 30
0.0
 10
-145.9040549375186
 20
189.6741772941683
 30
0.0
 10
-144.0688414082832
 20
177.4440187399814
 30
0.0
 10
-142.4664026596915
 20
166.652249722319
 30
0.0
 10
-141.4809657525668
 20
159.9641187635055
 30
0.0
 10
-141.1077547382007
 20
157.4311467169891
 30
0.0
  0
SPLINE
  5
27A
330
1F
100
AcDbEntity
  8
0
100
AcDbSpline
210
0.0
220
0.0
230
1.0
 70
     8
 71
     3
 72
    24
 73
    20
 74
     0
 42
0.00000001
 43
0.00000001
 40
0.0
 40
0.0
 40
0.0
 40
0.0
 40
0.0602076795078266
 40
0.1203997128079048
 40
0.1806225003384349
 40
0.2408046831971622
 40
0.3010357065491109
 40
0.3612138412568468
 40
0.4214462223857701
 40
0.4816261139148626
 40
0.5418529738127502
 40
0.6020404259715508
 40
0.6622548895481746
 40
0.7224557011367949
 40
0.7826532187001101
 40
0.842870863002912
 40
0.9030562413298857
 40
0.9632848351339081
 40
1.0
 40
1.0
 40
1.0
 40
1.0
 10
-49.63956979779677
 20
289.2491652762006
 30
0.0
 10
-49.02661176646737
 20
289.1355860995989
 30
0.0
 10
-47.80085499359978
 20
288.9084572622882
 30
0.0
 10
-45.96458070916939
 20
287.0763884937316
 30
0.0
 10
-44.12357699316065
 20
284.1703242025105
 30
0.0
 10
-42.28894737346618
 20
280.107506376459
 30
0.0
 10
-40.44666184180095
 20
274.9556379802818
 30
0.0
 10
-38.6127147891463
 20
268.7494432138697
 30
0.0
 10
-36.77021727031661
 20
261.5512913836627
 30
0.0
 10
-34.93597391948744
 20
253.4196921425886
 30
0.0
 10
-33.0943369546231
 20
244.4333298686235
 30
0.0
 10
-31.25882494285073
 20
234.6672897570022
 30
0.0
 10
-29.41909305461829
 20
224.2134969407203
 30
0.0
 10
-27.58141963484093
 20
213.1627471434252
 30
0.0
 10
-25.74425569391025
 20
201.6145904638754
 30
0.0
 10
-23.90405493751858
 20
189.6741772941683
 30
0.0
 10
-22.06884140828318
 20
177.4440187399815
 30
0.0
 10
-20.46640265968361
 20
166.6522497222657
 30
0.0
 10
-19.48096575255107
 20
159.9641187633986
 30
0.0
 10
-19.10775473817705
 20
157.4311467168287
 30
0.0
  0
SPLINE
  5
27B
330
1F
100
AcDbEntity
  8
0
100
AcDbSpline
210
0.0
220
0.0
230
1.0
 70
     8
 71
     3
 72
    24
 73
    20
 74
     0
 42
0.00000001
 43
0.00000001
 40
0.0
 40
0.0
 40
0.0
 40
0.0
 40
0.0602076795078202
 40
0.1203997128078921
 40
0.1806225003384158
 40
0.2408046831971368
 40
0.3010357065490791
 40
0.3612138412568087
 40
0.4214462223857255
 40
0.4816261139148117
 40
0.541852973812693
 40
0.6020404259714872
 40
0.6622548895481046
 40
0.7224557011367186
 40
0.7826532187000274
 40
0.8428708630028229
 40
0.9030562413297902
 40
0.9632848351338062
 40
1.0
 40
1.0
 40
1.0
 40
1.0
 10
72.36043020220323
 20
289.2491652762006
 30
0.0
 10
72.97338823353265
 20
289.135586099599
 30
0.0
 10
74.19914500640027
 20
288.9084572622882
 30
0.0
 10
76.03541929083052
 20
287.0763884937316
 30
0.0
 10
77.8764230068394
 20
284.1703242025105
 30
0.0
 10
79.71105262653379
 20
280.1075063764589
 30
0.0
 10
81.55333815819907
 20
274.9556379802818
 30
0.0
 10
83.38728521085369
 20
268.7494432138696
 30
0.0
 10
85.22978272968335
 20
261.5512913836628
 30
0.0
 10
87.06402608051258
 20
253.4196921425886
 30
0.0
 10
88.90566304537688
 20
244.4333298686235
 30
0.0
 10
90.74117505714926
 20
234.6672897570022
 30
0.0
 10
92.58090694538173
 20
224.2134969407204
 30
0.0
 10
94.41858036515903
 20
213.1627471434252
 30
0.0
 10
96.25574430608975
 20
201.6145904638754
 30
0.0
 10
98.0959450624814
 20
189.6741772941683
 30
0.0
 10
99.93115859171685
 20
177.4440187399815
 30
0.0
 10
101.5335973403174
 20
166.6522497222584
 30
0.0
 10
102.5190342474511
 20
159.9641187633841
 30
0.0
 10
102.8922452618262
 20
157.4311467168069
 30
0.0
  0
SPLINE
  5
27C
330
1F
100
AcDbEntity
  8
0
100
AcDbSpline
210
0.0
220
0.0
230
1.0
 70
     8
 71
     3
 72
    26
 73
    22
 74
     0
 42
0.00000001
 43
0.00000001
 40
0.0
 40
0.0
 40
0.0
 40
0.0
 40
0.0255985478686145
 40
0.0726435124795579
 40
0.1284774946697919
 40
0.1842969672477654
 40
0.2401449599608671
 40
0.2959552976681489
 40
0.3518109279236732
 40
0.4076175115518706
 40
0.4634744009506809
 40
0.5192826137785609
 40
0.5751343830279512
 40
0.6309496072548405
 40
0.6867898806952853
 40
0.7426174938760877
 40
0.798442052321153
 40
0.8542852754286543
 40
0.9100985764741448
 40
0.965951953672638
 40
0.9999999999999999
 40
0.9999999999999999
 40
0.9999999999999999
 40
0.9999999999999999
 10
191.9687709420421
 20
288.1491652762006
 30
0.0
 10
192.2498453562151
 20
288.3992975523469
 30
0.0
 10
193.0474778164021
 20
289.1091224696441
 30
0.0
 10
194.4565121835702
 20
289.3846796134577
 30
0.0
 10
196.1992614640821
 20
288.8644396092707
 30
0.0
 10
198.0353880711235
 20
287.0881886447298
 30
0.0
 10
199.8764313674508
 20
284.1671641319211
 30
0.0
 10
201.7110503848688
 20
280.1083536613345
 30
0.0
 10
203.5533387584531
 20
274.9554111015099
 30
0.0
 10
205.3872850499102
 20
268.7495040459274
 30
0.0
 10
207.2297827727814
 20
261.5512750937726
 30
0.0
 10
209.0640260689585
 20
253.4196965097251
 30
0.0
 10
210.9056630484714
 20
244.4333286989364
 30
0.0
 10
212.7411750563201
 20
234.6672900704911
 30
0.0
 10
214.5809069456037
 20
224.2134968567264
 30
0.0
 10
216.4185803650997
 20
213.1627471659276
 30
0.0
 10
218.2557443061056
 20
201.6145904578432
 30
0.0
 10
220.0959450624771
 20
189.6741772957853
 30
0.0
 10
221.9311585917179
 20
177.4440187395429
 30
0.0
 10
223.5335973402981
 20
166.6522497224497
 30
0.0
 10
224.5190342474127
 20
159.964118763661
 30
0.0
 10
224.8922452617686
 20
157.4311467171971
 30
0.0
  0
LINE
  5
27D
330
1F
100
AcDbEntity
  8
0
100
AcDbLine
 10
-292.0722483989
 20
289.2491652762
 30
0.0
 11
-293.6395697978
 21
289.2491652762
 31
0.0
  0
LINE
  5
27E
330
1F
100
AcDbEntity
  8
0
100
AcDbLine
 10
-284.8082353821
 20
286.860614375
 30
0.0
 11
-284.5762663649
 21
286.6943840792
 31
0.0
  0
LINE
  5
27F
330
1F
100
AcDbEntity
  8
0
100
AcDbLine
 10
-162.8082353821
 20
286.860614375
 30
0.0
 11
-162.5762663649
 21
286.6943840792
 31
0.0
  0
LINE
  5
280
330
1F
100
AcDbEntity
  8
0
100
AcDbLine
 10
-40.8082353821
 20
286.860614375
 30
0.0
 11
-40.5762663649
 21
286.6943840792
 31
0.0
  0
LINE
  5
281
330
1F
100
AcDbEntity
  8
0
100
AcDbLine
 10
81.1917646179
 20
286.860614375
 30
0.0
 11
81.4237336351
 21
286.6943840792
 31
0.0
  0
LINE
  5
282
330
1F
100
AcDbEntity
  8
0
100
AcDbLine
 10
203.1917646179
 20
286.860614375
 30
0.0
 11
203.4237336351
 21
286.6943840792
 31
0.0
  0
LINE
  5
283
330
1F
100
AcDbEntity
  8
0
100
AcDbLine
 10
-292.0656476105
 20
288.1491652762
 30
0.0
 11
-294.4396382563
 21
288.1491652762
 31
0.0
  0
SPLINE
  5
284
330
1F
100
AcDbEntity
  8
0
100
AcDbSpline
210
0.0
220
0.0
230
1.0
 70
    24
 71
     3
 72
    45
 73
    41
 74
     0
 42
0.00000001
 43
0.00000001
 40
0.0
 40
0.0
 40
0.0
 40
0.0
 40
0.0267991259785032
 40
0.053694021599728
 40
0.0805889172209528
 40
0.107388043199456
 40
0.1341871691779591
 40
0.161082064799184
 40
0.1879769604204088
 40
0.214776086398912
 40
0.2415752123774153
 40
0.2684701079986403
 40
0.2953650036198653
 40
0.3221641295983685
 40
0.3489632555768716
 40
0.3758581511980963
 40
0.4027530468193211
 40
0.4295521727978241
 40
0.4563512987763274
 40
0.4832461943975524
 40
0.5101410900187774
 40
0.5369402159972807
 40
0.5637393419757837
 40
0.5906342375970083
 40
0.6175291332182329
 40
0.6443282591967358
 40
0.6711273851752392
 40
0.6980222807964641
 40
0.7249171764176892
 40
0.7517163023961925
 40
0.7785154283746957
 40
0.8054103239959206
 40
0.8323052196171454
 40
0.8591043455956486
 40
0.8859034715741521
 40
0.912798367195377
 40
0.939693262816602
 40
0.9664923887951054
 40
0.9932915147736086
 40
1.0
 40
1.0
 40
1.0
 40
1.0
 10
-294.4396382563061
 20
288.1491652762006
 30
0.0
 10
-294.4396382563061
 20
288.0577207006128
 30
0.0
 10
-294.439638256306
 20
287.8745047621256
 30
0.0
 10
-294.4396382563061
 20
286.423232274361
 30
0.0
 10
-294.4396382563061
 20
284.1372651011779
 30
0.0
 10
-294.439638256306
 20
280.9413266366517
 30
0.0
 10
-294.4396382563061
 20
276.8527027293823
 30
0.0
 10
-294.4396382563061
 20
271.9150178362157
 30
0.0
 10
-294.4396382563061
 20
266.1763069722466
 30
0.0
 10
-294.4396382563061
 20
259.6764220118437
 30
0.0
 10
-294.4396382563061
 20
252.4337907734028
 30
0.0
 10
-294.4396382563061
 20
244.5128735891725
 30
0.0
 10
-294.4396382563061
 20
235.9827584760081
 30
0.0
 10
-294.4396382563061
 20
226.9079098261271
 30
0.0
 10
-294.439638256306
 20
217.3288487578568
 30
0.0
 10
-294.4396382563062
 20
207.31744679626
 30
0.0
 10
-294.439638256306
 20
196.9577071419005
 30
0.0
 10
-294.4396382563061
 20
186.3309954058977
 30
0.0
 10
-294.4396382563061
 20
175.4954762663898
 30
0.0
 10
-294.4396382563061
 20
164.5222977327641
 30
0.0
 10
-294.4396382563061
 20
153.5009159778587
 30
0.0
 10
-294.439638256306
 20
142.520422190563
 30
0.0
 10
-294.439638256306
 20
131.6500675942593
 30
0.0
 10
-294.4396382563061
 20
120.9522551216199
 30
0.0
 10
-294.4396382563061
 20
110.5118084533201
 30
0.0
 10
-294.4396382563061
 20
100.4155000012537
 30
0.0
 10
-294.4396382563061
 20
90.73585993958446
 30
0.0
 10
-294.4396382563061
 20
81.51951084381074
 30
0.0
 10
-294.4396382563061
 20
72.83708001245496
 30
0.0
 10
-294.439638256306
 20
64.76324062067448
 30
0.0
 10
-294.4396382563061
 20
57.36561535098841
 30
0.0
 10
-294.4396382563061
 20
50.66982454708025
 30
0.0
 10
-294.4396382563062
 20
44.72420768376752
 30
0.0
 10
-294.4396382563061
 20
39.58339933020673
 30
0.0
 10
-294.4396382563061
 20
35.30070296744904
 30
0.0
 10
-294.4396382563061
 20
31.88453466530769
 30
0.0
 10
-294.439638256306
 20
29.33051936616216
 30
0.0
 10
-294.439638256306
 20
27.7601073889629
 30
0.0
 10
-294.439638256306
 20
27.0853244708413
 30
0.0
 10
-294.439638256306
 20
27.21850370829423
 30
0.0
 10
-294.439638256306
 20
27.24516723084297
 30
0.0
  0
SPLINE
  5
285
330
1F
100
AcDbEntity
  8
0
100
AcDbSpline
210
0.0
220
0.0
230
1.0
 70
    24
 71
     3
 72
    46
 73
    42
 74
     0
 42
0.00000001
 43
0.00000001
 40
0.0
 40
0.0
 40
0.0
 40
0.0
 40
0.0038537804437646
 40
0.030748770792165
 40
0.0576437611405654
 40
0.0844429815089315
 40
0.1112422018772981
 40
0.138137192225699
 40
0.1650321825740999
 40
0.1918314029424664
 40
0.2186306233108324
 40
0.2455256136592328
 40
0.2724206040076332
 40
0.2992198243759993
 40
0.3260190447443656
 40
0.3529140350927662
 40
0.3798090254411669
 40
0.4066082458095332
 40
0.4334074661778993
 40
0.4603024565262996
 40
0.4871974468746999
 40
0.5139966672430659
 40
0.5407958876114323
 40
0.5676908779598329
 40
0.5945858683082335
 40
0.6213850886765998
 40
0.648184309044966
 40
0.6750792993933665
 40
0.7019742897417671
 40
0.7287735101101334
 40
0.7555727304784997
 40
0.7824677208269004
 40
0.8093627111753011
 40
0.8361619315436675
 40
0.8629611519120336
 40
0.889856142260434
 40
0.9167511326088343
 40
0.9435503529772005
 40
0.970349573345567
 40
0.9972445636939679
 40
1.0
 40
1.0
 40
1.0
 40
1.0
 10
305.560361743694
 20
288.0859249379192
 30
0.0
 10
305.560361743694
 20
288.1038427606068
 30
0.0
 10
305.5603617436942
 20
288.2468065414854
 30
0.0
 10
305.5603617436939
 20
287.6237008066981
 30
0.0
 10
305.5603617436938
 20
286.1764920294062
 30
0.0
 10
305.560361743694
 20
283.732551559664
 30
0.0
 10
305.5603617436938
 20
280.3947153022987
 30
0.0
 10
305.560361743694
 20
276.1784175909334
 30
0.0
 10
305.5603617436939
 20
271.1325700171116
 30
0.0
 10
305.560361743694
 20
265.2894204419987
 30
0.0
 10
305.560361743694
 20
258.6627597480788
 30
0.0
 10
305.5603617436938
 20
251.3143593378878
 30
0.0
 10
305.5603617436939
 20
243.3090673517835
 30
0.0
 10
305.5603617436937
 20
234.706704578025
 30
0.0
 10
305.5603617436938
 20
225.5433536670248
 30
0.0
 10
305.5603617436937
 20
215.889974881828
 30
0.0
 10
305.5603617436941
 20
205.8281368770767
 30
0.0
 10
305.5603617436939
 20
195.4363152719435
 30
0.0
 10
305.5603617436941
 20
184.7693983687849
 30
0.0
 10
305.5603617436939
 20
173.899379468759
 30
0.0
 10
305.5603617436936
 20
162.915393222052
 30
0.0
 10
305.5603617436938
 20
151.9057113427722
 30
0.0
 10
305.5603617436938
 20
140.9378425452874
 30
0.0
 10
305.5603617436938
 20
130.0766956679385
 30
0.0
 10
305.5603617436936
 20
119.4089223170762
 30
0.0
 10
305.560361743694
 20
109.0226382734488
 30
0.0
 10
305.5603617436938
 20
98.99036159978259
 30
0.0
 10
305.5603617436941
 20
89.36259862727061
 30
0.0
 10
305.5603617436939
 20
80.21374883631047
 30
0.0
 10
305.560361743694
 20
71.62183683879782
 30
0.0
 10
305.560361743694
 20
63.65621735133679
 30
0.0
 10
305.5603617436938
 20
56.34728814762574
 30
0.0
 10
305.5603617436939
 20
49.74885284980724
 30
0.0
 10
305.5603617436939
 20
43.91988344974398
 30
0.0
 10
305.560361743694
 20
38.91936646525748
 30
0.0
 10
305.5603617436938
 20
34.75186619320346
 30
0.0
 10
305.5603617436938
 20
31.4531077239874
 30
0.0
 10
305.5603617436937
 20
29.02439752895236
 30
0.0
 10
305.5603617436939
 20
27.62688776558819
 30
0.0
 10
305.5603617436939
 20
27.04280356063049
 30
0.0
 10
305.560361743694
 20
27.19078373164888
 30
0.0
 10
305.5603617436941
 20
27.20453563952355
 30
0.0
  0
LINE
  5
286
330
1F
100
AcDbEntity
  8
0
100
AcDbLine
 10
-336.0264279547
 20
239.4419870709
 30
0.0
 11
-335.7206610034
 21
239.4260840809
 31
0.0
  0
SPLINE
  5
287
330
1F
100
AcDbEntity
  8
0
100
AcDbSpline
210
0.0
220
0.0
230
1.0
 70
     8
 71
     3
 72
    10
 73
     6
 74
     0
 42
0.00000001
 43
0.00000001
 40
0.0
 40
0.0
 40
0.0
 40
0.0
 40
0.3498104458519808
 40
0.831181630632201
 40
1.0
 40
1.0
 40
1.0
 40
1.0
 10
-331.4744921985882
 20
239.4463908047651
 30
0.0
 10
-330.9457598756059
 20
239.4273194278153
 30
0.0
 10
-329.6894434917024
 20
239.3820040909536
 30
0.0
 10
-328.1781098431838
 20
238.5650245145733
 30
0.0
 10
-327.1942306766597
 20
237.49157997499
 30
0.0
 10
-326.9387715178838
 20
237.2128656283459
 30
0.0
  0
SPLINE
  5
288
330
1F
100
AcDbEntity
  8
0
100
AcDbSpline
210
0.0
220
0.0
230
1.0
 70
     8
 71
     3
 72
     9
 73
     5
 74
     0
 42
0.00000001
 43
0.00000001
 40
0.0
 40
0.0
 40
0.0
 40
0.0
 40
0.6503587088698894
 40
0.9999999999999999
 40
0.9999999999999999
 40
0.9999999999999999
 40
0.9999999999999999
 10
339.5286838088372
 20
75.85744999555833
 30
0.0
 10
339.7181002984979
 20
75.80204703847608
 30
0.0
 10
340.0093495538355
 20
75.71685873188986
 30
0.0
 10
340.3009961211182
 20
75.8519365081156
 30
0.0
 10
340.4029678034566
 20
75.89916527619815
 30
0.0
  0
SPLINE
  5
289
330
1F
100
AcDbEntity
  8
0
100
AcDbSpline
210
0.0
220
0.0
230
1.0
 70
    24
 71
     3
 72
     9
 73
     5
 74
     0
 42
0.00000001
 43
0.00000001
 40
0.0
 40
0.0
 40
0.0
 40
0.0
 40
0.8407993712839816
 40
1.0
 40
1.0
 40
1.0
 40
1.0
 10
-336.4396382563061
 20
239.4536799766839
 30
0.0
 10
-336.439638256306
 20
239.4825087191808
 30
0.0
 10
-336.439638256306
 20
239.5167960218139
 30
0.0
 10
-336.4396382563061
 20
239.3846246041803
 30
0.0
 10
-336.4396382563061
 20
239.3635828313947
 30
0.0
  0
SPLINE
  5
28A
330
1F
100
AcDbEntity
  8
0
100
AcDbSpline
210
0.0
220
0.0
230
1.0
 70
     8
 71
     3
 72
    10
 73
     6
 74
     0
 42
0.00000001
 43
0.00000001
 40
0.0
 40
0.0
 40
0.0
 40
0.0
 40
0.0061258611579009
 40
0.8792142940533992
 40
0.9999999999999999
 40
0.9999999999999999
 40
0.9999999999999999
 40
0.9999999999999999
 10
-329.8154437812843
 20
239.2347204512389
 30
0.0
 10
-329.8102701412474
 20
239.2342900090491
 30
0.0
 10
-329.0677233946814
 20
239.1725107887537
 30
0.0
 10
-328.2230622141965
 20
238.6622948522985
 30
0.0
 10
-327.3827608405291
 20
237.7788125707601
 30
0.0
 10
-327.2806388608339
 20
237.6714428074304
 30
0.0
  0
LINE
  5
28B
330
1F
100
AcDbEntity
  8
0
100
AcDbLine
 10
339.6967740239
 20
75.9316917337
 30
0.0
 11
339.950117582
 21
75.8991652762
 31
0.0
  0
SPLINE
  5
28C
330
1F
100
AcDbEntity
  8
0
100
AcDbSpline
210
0.0
220
0.0
230
1.0
 70
     8
 71
     3
 72
     9
 73
     5
 74
     0
 42
0.00000001
 43
0.00000001
 40
0.0
 40
0.0
 40
0.0
 40
0.0
 40
0.9928793130345078
 40
1.0
 40
1.0
 40
1.0
 40
1.0
 10
339.7098468497359
 20
75.9287498034517
 30
0.0
 10
339.825072533071
 20
75.885144219919
 30
0.0
 10
339.941124586752
 20
75.84122590783387
 30
0.0
 10
340.0573349585367
 20
75.88498195896992
 30
0.0
 10
340.0581624562165
 20
75.8852935321129
 30
0.0
  0
LINE
  5
28D
330
1F
100
AcDbEntity
  8
0
100
AcDbLine
 10
339.8093136801
 20
75.9159835625
 30
0.0
 11
339.5032549624
 21
75.8491652762
 31
0.0
  0
SPLINE
  5
28E
330
1F
100
AcDbEntity
  8
0
100
AcDbSpline
210
0.0
220
0.0
230
1.0
 70
     8
 71
     3
 72
    10
 73
     6
 74
     0
 42
0.00000001
 43
0.00000001
 40
0.0
 40
0.0
 40
0.0
 40
0.0
 40
0.0202899753511271
 40
0.6907765919495548
 40
0.9999999999999999
 40
0.9999999999999999
 40
0.9999999999999999
 40
0.9999999999999999
 10
-327.0747913233083
 20
237.321802649185
 30
0.0
 10
-327.0967720355591
 20
237.3475248410296
 30
0.0
 10
-327.845110130332
 20
238.2232424164505
 30
0.0
 10
-328.9257251424295
 20
238.9072532471986
 30
0.0
 10
-329.9870077934211
 20
239.1083709918027
 30
0.0
 10
-330.3219777641143
 20
239.171849279093
 30
0.0
  0
LINE
  5
28F
330
1F
100
AcDbEntity
  8
0
100
AcDbLine
 10
-331.404648057
 20
239.4274248289
 30
0.0
 11
-331.4967450376
 21
239.4491652762
 31
0.0
  0
SPLINE
  5
290
330
1F
100
AcDbEntity
  8
0
100
AcDbSpline
210
0.0
220
0.0
230
1.0
 70
     8
 71
     3
 72
     9
 73
     5
 74
     0
 42
0.00000001
 43
0.00000001
 40
0.0
 40
0.0
 40
0.0
 40
0.0
 40
0.9316724551830294
 40
1.0
 40
1.0
 40
1.0
 40
1.0
 10
-327.6330013823793
 20
237.7989712685487
 30
0.0
 10
-328.1353256254303
 20
238.2630896224147
 30
0.0
 10
-328.6744896205194
 20
238.7612457622513
 30
0.0
 10
-329.214316497733
 20
238.8799167673614
 30
0.0
 10
-329.2512015428792
 20
238.8880252657816
 30
0.0
  0
ARC
  5
291
330
1F
100
AcDbEntity
  8
0
100
AcDbCircle
 10
830.2371831136
 20
282.1586838951
 30
0.0
 40
8.00000000000005
100
AcDbArc
 50
68.9705798731
 51
72.8515803462
  0
ARC
  5
292
330
1F
100
AcDbEntity
  8
0
100
AcDbCircle
 10
830.2371831136
 20
33.1396466573
 30
0.0
 40
8.000000000000012
100
AcDbArc
 50
287.1467397277
 51
291.0294201268
  0
ARC
  5
293
330
1F
100
AcDbEntity
  8
0
100
AcDbCircle
 10
831.0174581885
 20
33.1396466573
 30
0.0
 40
8.000000000000012
100
AcDbArc
 50
248.9705798732
 51
252.8515803462
  0
ARC
  5
294
330
1F
100
AcDbEntity
  8
0
100
AcDbCircle
 10
955.1368392699
 20
157.2590277387
 30
0.0
 40
8.000000000000085
100
AcDbArc
 50
17.1467397277
 51
21.0294201269
  0
ARC
  5
295
330
1F
100
AcDbEntity
  8
0
100
AcDbCircle
 10
955.1368392699
 20
158.0393028137
 30
0.0
 40
8.000000000000075
100
AcDbArc
 50
338.9705798731
 51
342.8515803462
  0
ARC
  5
296
330
1F
100
AcDbEntity
  8
0
100
AcDbCircle
 10
706.1178020322
 20
158.0393028137
 30
0.0
 40
7.999999999999972
100
AcDbArc
 50
197.1467397277
 51
201.0294201269
  0
ARC
  5
297
330
1F
100
AcDbEntity
  8
0
100
AcDbCircle
 10
706.1178020322
 20
157.2590277387
 30
0.0
 40
7.99999999999998
100
AcDbArc
 50
158.9705798731
 51
162.8515803462
  0
CIRCLE
  5
298
330
1F
100
AcDbEntity
  8
0
100
AcDbCircle
 10
830.627320651
 20
157.6491652762
 30
0.0
 40
87.4
  0
CIRCLE
  5
299
330
1F
100
AcDbEntity
  8
0
100
AcDbCircle
 10
830.627320651
 20
157.6491652762
 30
0.0
 40
132.0
  0
LINE
  5
29A
330
1F
100
AcDbEntity
  8
0
100
AcDbLine
 10
830.1652446217
 20
289.7883427974
 30
0.0
 11
830.1412729187
 21
290.0164183168
 31
0.0
  0
SPLINE
  5
29B
330
1F
100
AcDbEntity
  8
0
100
AcDbSpline
210
0.0
220
0.0
230
1.0
 70
     8
 71
     3
 72
     9
 73
     5
 74
     0
 42
0.00000001
 43
0.00000001
 40
0.0
 40
0.0
 40
0.0
 40
0.0
 40
0.4987608531415027
 40
1.0
 40
1.0
 40
1.0
 40
1.0
 10
831.0893966803421
 20
289.7883427973815
 30
0.0
 10
830.9357537672197
 20
289.7964268653428
 30
0.0
 10
830.6277045044226
 20
289.8126351702056
 30
0.0
 10
830.3196523971734
 20
289.7964536225322
 30
0.0
 10
830.165244621748
 20
289.7883427973815
 30
0.0
  0
LINE
  5
29C
330
1F
100
AcDbEntity
  8
0
100
AcDbLine
 10
831.1133683834
 20
290.0164183168
 30
0.0
 11
831.0893966803
 21
289.7883427974
 31
0.0
  0
SPLINE
  5
29D
330
1F
100
AcDbEntity
  8
0
100
AcDbSpline
210
0.0
220
0.0
230
1.0
 70
     8
 71
     3
 72
    12
 73
     8
 74
     0
 42
0.00000001
 43
0.00000001
 40
0.0
 40
0.0
 40
0.0
 40
0.0
 40
0.2174770912066473
 40
0.4353705208258011
 40
0.6490388720033446
 40
0.8610609605882541
 40
1.0
 40
1.0
 40
1.0
 40
1.0
 10
831.627320651045
 20
290.0164183167817
 30
0.0
 10
831.569548010885
 20
290.0253958823924
 30
0.0
 10
831.4538921305514
 20
290.0433682002767
 30
0.0
 10
831.2997872674988
 20
290.0550368290549
 30
0.0
 10
831.1845349458395
 20
290.0520526816697
 30
0.0
 10
831.1238234009455
 20
290.0372437698084
 30
0.0
 10
831.1163334979038
 20
290.0223245577495
 30
0.0
 10
831.1133683833915
 20
290.0164183167817
 30
0.0
  0
LINE
  5
29E
330
1F
100
AcDbEntity
  8
0
100
AcDbLine
 10
832.5893966803
 20
289.7883427974
 30
0.0
 11
831.627320651
 21
290.0164183168
 31
0.0
  0
LINE
  5
29F
330
1F
100
AcDbEntity
  8
0
100
AcDbLine
 10
829.627320651
 20
290.0164183168
 30
0.0
 11
828.6652446217
 21
289.7883427974
 31
0.0
  0
SPLINE
  5
2A0
330
1F
100
AcDbEntity
  8
0
100
AcDbSpline
210
0.0
220
0.0
230
1.0
 70
     8
 71
     3
 72
    12
 73
     8
 74
     0
 42
0.00000001
 43
0.00000001
 40
0.0
 40
0.0
 40
0.0
 40
0.0
 40
0.2174770912067105
 40
0.4353705208258705
 40
0.6490388720034564
 40
0.8610609605884233
 40
1.0
 40
1.0
 40
1.0
 40
1.0
 10
830.1412729186985
 20
290.0164183167817
 30
0.0
 10
830.134664280327
 20
290.0253958823924
 30
0.0
 10
830.1214343519985
 20
290.0433682002766
 30
0.0
 10
830.0305463640423
 20
290.055036829055
 30
0.0
 10
829.8992085086934
 20
290.0520526816697
 30
0.0
 10
829.7569838445238
 20
290.0372437698084
 30
0.0
 10
829.6640940198813
 20
290.0223245577495
 30
0.0
 10
829.6273206510451
 20
290.0164183167817
 30
0.0
  0
LINE
  5
2A1
330
1F
100
AcDbEntity
  8
0
100
AcDbLine
 10
831.0893966803
 20
25.509987755
 30
0.0
 11
831.1133683834
 21
25.2819122356
 31
0.0
  0
SPLINE
  5
2A2
330
1F
100
AcDbEntity
  8
0
100
AcDbSpline
210
0.0
220
0.0
230
1.0
 70
     8
 71
     3
 72
     9
 73
     5
 74
     0
 42
0.00000001
 43
0.00000001
 40
0.0
 40
0.0
 40
0.0
 40
0.0
 40
0.4987608531415023
 40
1.0
 40
1.0
 40
1.0
 40
1.0
 10
830.1652446217436
 20
25.50998775501942
 30
0.0
 10
830.3188875348659
 20
25.5019036870581
 30
0.0
 10
830.6269367976631
 20
25.48569538219531
 30
0.0
 10
830.9349889049122
 20
25.50187692986877
 30
0.0
 10
831.0893966803377
 20
25.50998775501948
 30
0.0
  0
LINE
  5
2A3
330
1F
100
AcDbEntity
  8
0
100
AcDbLine
 10
830.1412729187
 20
25.2819122356
 30
0.0
 11
830.1652446217
 21
25.509987755
 31
0.0
  0
SPLINE
  5
2A4
330
1F
100
AcDbEntity
  8
0
100
AcDbSpline
210
0.0
220
0.0
230
1.0
 70
     8
 71
     3
 72
    12
 73
     8
 74
     0
 42
0.00000001
 43
0.00000001
 40
0.0
 40
0.0
 40
0.0
 40
0.0
 40
0.217477091206647
 40
0.4353705208258007
 40
0.649038872003344
 40
0.8610609605882539
 40
0.9999999999999999
 40
0.9999999999999999
 40
0.9999999999999999
 40
0.9999999999999999
 10
829.6273206510406
 20
25.28191223561932
 30
0.0
 10
829.6850932912007
 20
25.27293467000855
 30
0.0
 10
829.8007491715343
 20
25.25496235212427
 30
0.0
 10
829.9548540345869
 20
25.24329372334605
 30
0.0
 10
830.0701063562462
 20
25.24627787073122
 30
0.0
 10
830.1308179011402
 20
25.26108678259254
 30
0.0
 10
830.1383078041819
 20
25.27600599465152
 30
0.0
 10
830.1412729186942
 20
25.28191223561926
 30
0.0
  0
LINE
  5
2A5
330
1F
100
AcDbEntity
  8
0
100
AcDbLine
 10
828.6652446217
 20
25.509987755
 30
0.0
 11
829.627320651
 21
25.2819122356
 31
0.0
  0
LINE
  5
2A6
330
1F
100
AcDbEntity
  8
0
100
AcDbLine
 10
831.627320651
 20
25.2819122356
 30
0.0
 11
832.5893966803
 21
25.509987755
 31
0.0
  0
SPLINE
  5
2A7
330
1F
100
AcDbEntity
  8
0
100
AcDbSpline
210
0.0
220
0.0
230
1.0
 70
     8
 71
     3
 72
    12
 73
     8
 74
     0
 42
0.00000001
 43
0.00000001
 40
0.0
 40
0.0
 40
0.0
 40
0.0
 40
0.2174770912067104
 40
0.4353705208258702
 40
0.6490388720034558
 40
0.861060960588423
 40
1.0
 40
1.0
 40
1.0
 40
1.0
 10
831.113368383387
 20
25.28191223561929
 30
0.0
 10
831.1199770217587
 20
25.27293467000852
 30
0.0
 10
831.1332069500872
 20
25.25496235212421
 30
0.0
 10
831.2240949380434
 20
25.24329372334605
 30
0.0
 10
831.3554327933923
 20
25.24627787073128
 30
0.0
 10
831.4976574575619
 20
25.26108678259254
 30
0.0
 10
831.5905472822044
 20
25.27600599465149
 30
0.0
 10
831.6273206510405
 20
25.28191223561921
 30
0.0
  0
LINE
  5
2A8
330
1F
100
AcDbEntity
  8
0
100
AcDbLine
 10
962.7664981722
 20
158.1112413055
 30
0.0
 11
962.9945736916
 21
158.1352130085
 31
0.0
  0
SPLINE
  5
2A9
330
1F
100
AcDbEntity
  8
0
100
AcDbSpline
210
0.0
220
0.0
230
1.0
 70
     8
 71
     3
 72
     9
 73
     5
 74
     0
 42
0.00000001
 43
0.00000001
 40
0.0
 40
0.0
 40
0.0
 40
0.0
 40
0.4987608531415023
 40
1.0
 40
1.0
 40
1.0
 40
1.0
 10
962.7664981722245
 20
157.1870892469011
 30
0.0
 10
962.7745822401857
 20
157.3407321600235
 30
0.0
 10
962.7907905450486
 20
157.6487814228207
 30
0.0
 10
962.7746089973751
 20
157.9568335300698
 30
0.0
 10
962.7664981722244
 20
158.1112413054952
 30
0.0
  0
LINE
  5
2AA
330
1F
100
AcDbEntity
  8
0
100
AcDbLine
 10
962.9945736916
 20
157.1631175439
 30
0.0
 11
962.7664981722
 21
157.1870892469
 31
0.0
  0
SPLINE
  5
2AB
330
1F
100
AcDbEntity
  8
0
100
AcDbSpline
210
0.0
220
0.0
230
1.0
 70
     8
 71
     3
 72
    12
 73
     8
 74
     0
 42
0.00000001
 43
0.00000001
 40
0.0
 40
0.0
 40
0.0
 40
0.0
 40
0.2174770912066465
 40
0.4353705208258019
 40
0.6490388720033451
 40
0.8610609605882543
 40
1.0
 40
1.0
 40
1.0
 40
1.0
 10
962.9945736916245
 20
156.6491652761982
 30
0.0
 10
963.0035512572354
 20
156.7069379163582
 30
0.0
 10
963.0215235751197
 20
156.8225937966919
 30
0.0
 10
963.0331922038979
 20
156.9766986597444
 30
0.0
 10
963.0302080565126
 20
157.0919509814037
 30
0.0
 10
963.0153991446513
 20
157.1526625262977
 30
0.0
 10
963.0004799325924
 20
157.1601524293394
 30
0.0
 10
962.9945736916245
 20
157.1631175438517
 30
0.0
  0
LINE
  5
2AC
330
1F
100
AcDbEntity
  8
0
100
AcDbLine
 10
962.7664981722
 20
155.6870892469
 30
0.0
 11
962.9945736916
 21
156.6491652762
 31
0.0
  0
LINE
  5
2AD
330
1F
100
AcDbEntity
  8
0
100
AcDbLine
 10
962.9945736916
 20
158.6491652762
 30
0.0
 11
962.7664981722
 21
159.6112413055
 31
0.0
  0
SPLINE
  5
2AE
330
1F
100
AcDbEntity
  8
0
100
AcDbSpline
210
0.0
220
0.0
230
1.0
 70
     8
 71
     3
 72
    12
 73
     8
 74
     0
 42
0.00000001
 43
0.00000001
 40
0.0
 40
0.0
 40
0.0
 40
0.0
 40
0.217477091206711
 40
0.4353705208258715
 40
0.6490388720034582
 40
0.8610609605884226
 40
0.9999999999999999
 40
0.9999999999999999
 40
0.9999999999999999
 40
0.9999999999999999
 10
962.9945736916245
 20
158.1352130085446
 30
0.0
 10
963.0035512572354
 20
158.1418216469162
 30
0.0
 10
963.0215235751197
 20
158.1550515752448
 30
0.0
 10
963.0331922038978
 20
158.2459395632009
 30
0.0
 10
963.0302080565125
 20
158.3772774185499
 30
0.0
 10
963.0153991446514
 20
158.5195020827195
 30
0.0
 10
963.0004799325924
 20
158.612391907362
 30
0.0
 10
962.9945736916246
 20
158.649165276198
 30
0.0
  0
LINE
  5
2AF
330
1F
100
AcDbEntity
  8
0
100
AcDbLine
 10
698.4881431299
 20
157.1870892469
 30
0.0
 11
698.2600676105
 21
157.1631175439
 31
0.0
  0
SPLINE
  5
2B0
330
1F
100
AcDbEntity
  8
0
100
AcDbSpline
210
0.0
220
0.0
230
1.0
 70
     8
 71
     3
 72
     9
 73
     5
 74
     0
 42
0.00000001
 43
0.00000001
 40
0.0
 40
0.0
 40
0.0
 40
0.0
 40
0.4987608531415025
 40
1.0
 40
1.0
 40
1.0
 40
1.0
 10
698.4881431298622
 20
158.1112413054989
 30
0.0
 10
698.4800590619009
 20
157.9575983923766
 30
0.0
 10
698.4638507570382
 20
157.6495491295794
 30
0.0
 10
698.4800323047117
 20
157.3414970223303
 30
0.0
 10
698.4881431298624
 20
157.1870892469048
 30
0.0
  0
LINE
  5
2B1
330
1F
100
AcDbEntity
  8
0
100
AcDbLine
 10
698.2600676105
 20
158.1352130085
 30
0.0
 11
698.4881431299
 21
158.1112413055
 31
0.0
  0
SPLINE
  5
2B2
330
1F
100
AcDbEntity
  8
0
100
AcDbSpline
210
0.0
220
0.0
230
1.0
 70
     8
 71
     3
 72
    12
 73
     8
 74
     0
 42
0.00000001
 43
0.00000001
 40
0.0
 40
0.0
 40
0.0
 40
0.0
 40
0.217477091206647
 40
0.4353705208258007
 40
0.6490388720033443
 40
0.861060960588254
 40
1.0
 40
1.0
 40
1.0
 40
1.0
 10
698.2600676104622
 20
158.6491652762019
 30
0.0
 10
698.2510900448513
 20
158.5913926360419
 30
0.0
 10
698.2331177269671
 20
158.4757367557081
 30
0.0
 10
698.2214490981889
 20
158.3216318926556
 30
0.0
 10
698.2244332455741
 20
158.2063795709963
 30
0.0
 10
698.2392421574355
 20
158.1456680261023
 30
0.0
 10
698.2541613694943
 20
158.1381781230607
 30
0.0
 10
698.2600676104622
 20
158.1352130085483
 30
0.0
  0
LINE
  5
2B3
330
1F
100
AcDbEntity
  8
0
100
AcDbLine
 10
698.4881431299
 20
159.6112413055
 30
0.0
 11
698.2600676105
 21
158.6491652762
 31
0.0
  0
LINE
  5
2B4
330
1F
100
AcDbEntity
  8
0
100
AcDbLine
 10
698.2600676105
 20
156.6491652762
 30
0.0
 11
698.4881431299
 21
155.6870892469
 31
0.0
  0
SPLINE
  5
2B5
330
1F
100
AcDbEntity
  8
0
100
AcDbSpline
210
0.0
220
0.0
230
1.0
 70
     8
 71
     3
 72
    12
 73
     8
 74
     0
 42
0.00000001
 43
0.00000001
 40
0.0
 40
0.0
 40
0.0
 40
0.0
 40
0.2174770912067104
 40
0.4353705208258702
 40
0.6490388720034562
 40
0.8610609605884232
 40
1.0
 40
1.0
 40
1.0
 40
1.0
 10
698.2600676104622
 20
157.1631175438554
 30
0.0
 10
698.2510900448514
 20
157.1565089054839
 30
0.0
 10
698.2331177269671
 20
157.1432789771553
 30
0.0
 10
698.2214490981889
 20
157.0523909891991
 30
0.0
 10
698.2244332455742
 20
156.9210531338502
 30
0.0
 10
698.2392421574355
 20
156.7788284696806
 30
0.0
 10
698.2541613694943
 20
156.6859386450381
 30
0.0
 10
698.2600676104621
 20
156.649165276202
 30
0.0
  0
CIRCLE
  5
2B6
330
1F
100
AcDbEntity
  8
0
100
AcDbCircle
 10
830.627320651
 20
157.6491652762
 30
0.0
 40
75.6
  0
CIRCLE
  5
2B7
330
1F
100
AcDbEntity
  8
0
100
AcDbCircle
 10
830.627320651
 20
157.6491652762
 30
0.0
 40
79.4
  0
CIRCLE
  5
2B8
330
1F
100
AcDbEntity
  8
0
100
AcDbCircle
 10
830.627320651
 20
157.6491652762
 30
0.0
 40
129.25
  0
SPLINE
  5
2B9
330
1F
100
AcDbEntity
  8
0
100
AcDbSpline
210
0.0
220
0.0
230
1.0
 70
     8
 71
     3
 72
     9
 73
     5
 74
     0
 42
0.00000001
 43
0.00000001
 40
0.0
 40
0.0
 40
0.0
 40
0.0
 40
0.9912502642634919
 40
0.9999999999999999
 40
0.9999999999999999
 40
0.9999999999999999
 40
0.9999999999999999
 10
760.8501186582932
 20
269.8755640514573
 30
0.0
 10
761.291032781872
 20
270.15771498687
 30
0.0
 10
761.7358388409214
 20
270.4423564599518
 30
0.0
 10
762.210989701877
 20
270.669803063047
 30
0.0
 10
762.2151471463453
 20
270.6717931607182
 30
0.0
  0
SPLINE
  5
2BA
330
1F
100
AcDbEntity
  8
0
100
AcDbSpline
210
0.0
220
0.0
230
1.0
 70
     8
 71
     3
 72
    10
 73
     6
 74
     0
 42
0.00000001
 43
0.00000001
 40
0.0
 40
0.0
 40
0.0
 40
0.0
 40
0.3724501917239582
 40
0.9283527611542804
 40
1.0
 40
1.0
 40
1.0
 40
1.0
 10
825.1781478474925
 20
289.6867698279231
 30
0.0
 10
825.6994511339038
 20
289.6961695977367
 30
0.0
 10
826.9988284898367
 20
289.7195990453638
 30
0.0
 10
828.4148268191022
 20
289.7000919910701
 30
0.0
 10
829.2736453261971
 20
289.5073526074814
 30
0.0
 10
829.3716964671447
 20
289.4853475897619
 30
0.0
  0
SPLINE
  5
2BB
330
1F
100
AcDbEntity
  8
0
100
AcDbSpline
210
0.0
220
0.0
230
1.0
 70
     8
 71
     3
 72
    24
 73
    20
 74
     0
 42
0.00000001
 43
0.00000001
 40
0.0
 40
0.0
 40
0.0
 40
0.0
 40
0.0601004099015532
 40
0.1202498365983753
 40
0.1803574618740152
 40
0.2404930059853405
 40
0.2996467333419948
 40
0.3587964161628275
 40
0.4179666251705392
 40
0.4771045337977061
 40
0.5362853205264517
 40
0.5954171524686752
 40
0.6546017623624135
 40
0.7137332191537512
 40
0.7729148949449923
 40
0.8320516783680488
 40
0.8912236648702645
 40
0.9503714731790336
 40
1.0
 40
1.0
 40
1.0
 40
1.0
 10
825.1781478474925
 20
289.6867698279231
 30
0.0
 10
829.4162169853353
 20
289.7438346014184
 30
0.0
 10
837.895811752709
 20
289.858010689395
 30
0.0
 10
850.5594483966776
 20
288.479241815949
 30
0.0
 10
863.0383615078746
 20
285.9773235295893
 30
0.0
 10
875.1506139505537
 20
282.2852737373265
 30
0.0
 10
886.7931900310996
 20
277.4879027226022
 30
0.0
 10
897.8700261828508
 20
271.6416057692915
 30
0.0
 10
908.3432879362044
 20
264.7757248568491
 30
0.0
 10
918.1229776116453
 20
256.948627281738
 30
0.0
 10
927.1162996834768
 20
248.2347385904505
 30
0.0
 10
935.2486009624154
 20
238.7063448530869
 30
0.0
 10
942.4408852029186
 20
228.4557705959632
 30
0.0
 10
948.6349953751505
 20
217.5670542521599
 30
0.0
 10
953.7678436856474
 20
206.1457617131443
 30
0.0
 10
957.8081547149959
 20
194.286686242726
 30
0.0
 10
960.675702002942
 20
182.1019620514103
 30
0.0
 10
962.4037645207446
 20
170.3646077082553
 30
0.0
 10
962.5991260206558
 20
162.6968750898613
 30
0.0
 10
962.6882584907521
 20
159.1985197402891
 30
0.0
  0
SPLINE
  5
2BC
330
1F
100
AcDbEntity
  8
0
100
AcDbSpline
210
0.0
220
0.0
230
1.0
 70
     8
 71
     3
 72
    24
 73
    20
 74
     0
 42
0.00000001
 43
0.00000001
 40
0.0
 40
0.0
 40
0.0
 40
0.0
 40
0.0534040087578353
 40
0.1148237937281514
 40
0.1762804894682524
 40
0.2376916273471685
 40
0.2991550630843158
 40
0.3605634738244022
 40
0.4220266325452062
 40
0.4834382379057817
 40
0.5448941027933306
 40
0.6063148224172822
 40
0.6677563818268408
 40
0.7291921293205907
 40
0.7906169561149948
 40
0.8520690605924405
 40
0.9134829048311216
 40
0.9749445181397799
 40
1.0
 40
1.0
 40
1.0
 40
1.0
 10
962.6933489291812
 20
155.5520911143748
 30
0.0
 10
962.5767904243478
 20
151.927888408927
 30
0.0
 10
962.3261783443264
 20
144.1355014035548
 30
0.0
 10
960.5022611046313
 20
132.2847055386207
 30
0.0
 10
957.5478229915311
 20
120.1208886850803
 30
0.0
 10
953.4247431714649
 20
108.2900325505553
 30
0.0
 10
948.2118737277915
 20
96.9051726621374
 30
0.0
 10
941.9415436422418
 20
86.06010861482679
 30
0.0
 10
934.6774979201166
 20
75.86017245728787
 30
0.0
 10
926.4787460576264
 20
66.389246363028
 30
0.0
 10
917.4243201839432
 20
57.73844606012879
 30
0.0
 10
907.5904548754255
 20
49.98043703111625
 30
0.0
 10
897.068861568205
 20
43.18807146459544
 30
0.0
 10
885.9519336286006
 20
37.41912754806931
 30
0.0
 10
874.3386432091307
 20
32.73167558954611
 30
0.0
 10
862.3360567279
 20
29.14410292952424
 30
0.0
 10
850.0455553903591
 20
26.77925212754584
 30
0.0
 10
840.0452003473364
 20
25.60433069491738
 30
0.0
 10
834.1723931884188
 20
25.64356933502357
 30
0.0
 10
832.4716193361345
 20
25.65493290465665
 30
0.0
  0
SPLINE
  5
2BD
330
1F
100
AcDbEntity
  8
0
100
AcDbSpline
210
0.0
220
0.0
230
1.0
 70
     8
 71
     3
 72
    24
 73
    20
 74
     0
 42
0.00000001
 43
0.00000001
 40
0.0
 40
0.0
 40
0.0
 40
0.0
 40
0.0165316994488356
 40
0.0780256145488317
 40
0.1394650337750333
 40
0.2009544223020661
 40
0.2624006228812514
 40
0.3238784671531725
 40
0.3853373684117631
 40
0.4467979506139503
 40
0.5082741717590407
 40
0.5697214306161404
 40
0.631209934329844
 40
0.6926497884673969
 40
0.7541435576949878
 40
0.8155819306432969
 40
0.8770739445958383
 40
0.9385167608665259
 40
1.0
 40
1.0
 40
1.0
 40
1.0
 10
828.4350997830059
 20
25.6336982301632
 30
0.0
 10
827.3136862709122
 20
25.61788503750442
 30
0.0
 10
822.0208862950066
 20
25.54325060085758
 30
0.0
 10
812.5873111287277
 20
26.59420404555204
 30
0.0
 10
800.2717737357527
 20
28.81449567287517
 30
0.0
 10
788.2327061257428
 20
32.27956119266737
 30
0.0
 10
776.5698155418024
 20
36.84386687937416
 30
0.0
 10
765.3936005214139
 20
42.49549554117939
 30
0.0
 10
754.8003558440558
 20
49.1772683052446
 30
0.0
 10
744.8862682600263
 20
56.8308040511798
 30
0.0
 10
735.7408797587904
 20
65.38633358201865
 30
0.0
 10
727.4434213569607
 20
74.76997228719166
 30
0.0
 10
720.0722666707608
 20
84.89317778939294
 30
0.0
 10
713.6884120713429
 20
95.67151694115091
 30
0.0
 10
708.3556219862718
 20
107.0008356875708
 30
0.0
 10
704.1099151273215
 20
118.7880943719686
 30
0.0
 10
701.0213970522183
 20
130.919232214811
 30
0.0
 10
699.0077725852158
 20
143.2925873187688
 30
0.0
 10
698.6628232862743
 20
151.6283767642412
 30
0.0
 10
698.4902919204382
 20
155.7976420526881
 30
0.0
  0
SPLINE
  5
2BE
330
1F
100
AcDbEntity
  8
0
100
AcDbSpline
210
0.0
220
0.0
230
1.0
 70
     8
 71
     3
 72
    18
 73
    14
 74
     0
 42
0.00000001
 43
0.00000001
 40
0.0
 40
0.0
 40
0.0
 40
0.0
 40
0.0664728435044629
 40
0.1650780227204483
 40
0.2636863686076678
 40
0.3622664304067102
 40
0.4608989198168013
 40
0.5594633539318807
 40
0.6581087347737977
 40
0.7566670412877626
 40
0.8553140523293267
 40
0.9538757353844938
 40
1.0
 40
1.0
 40
1.0
 40
1.0
 10
698.6259387087164
 20
159.8678916538719
 30
0.0
 10
698.673696108354
 20
162.6794210441567
 30
0.0
 10
698.7922963770774
 20
169.6615461963247
 30
0.0
 10
700.3367080174095
 20
180.7319845913459
 30
0.0
 10
703.066215384699
 20
192.9475360393369
 30
0.0
 10
706.9838999387705
 20
204.8475133055605
 30
0.0
 10
711.9959518986949
 20
216.3223774604855
 30
0.0
 10
718.074570310005
 20
227.2761885060736
 30
0.0
 10
725.1608625351425
 20
237.5986208742663
 30
0.0
 10
733.1842182336577
 20
247.224512068027
 30
0.0
 10
742.1163113846216
 20
255.9860950344747
 30
0.0
 10
749.9968422057666
 20
262.6503802586153
 30
0.0
 10
755.1328428462707
 20
265.9779051544879
 30
0.0
 10
756.7701425040593
 20
267.038682937561
 30
0.0
  0
SPLINE
  5
2BF
330
1F
100
AcDbEntity
  8
0
100
AcDbSpline
210
0.0
220
0.0
230
1.0
 70
     8
 71
     3
 72
    10
 73
     6
 74
     0
 42
0.00000001
 43
0.00000001
 40
0.0
 40
0.0
 40
0.0
 40
0.0
 40
0.3355950188973388
 40
0.6674907031496599
 40
1.0
 40
1.0
 40
1.0
 40
1.0
 10
794.8945867696848
 20
284.8004400302638
 30
0.0
 10
795.0190796707756
 20
284.8520782056216
 30
0.0
 10
795.2666931614621
 20
284.9547853378436
 30
0.0
 10
795.648023521867
 20
285.0814638800042
 30
0.0
 10
795.9046406642037
 20
285.1543101875787
 30
0.0
 10
796.033067735019
 20
285.1907669800452
 30
0.0
  0
LINE
  5
2C0
330
1F
100
AcDbEntity
  8
0
100
AcDbLine
 10
794.2836158304
 20
284.5190547348
 30
0.0
 11
794.8945867697
 21
284.8004400303
 31
0.0
  0
SPLINE
  5
2C1
330
1F
100
AcDbEntity
  8
0
100
AcDbSpline
210
0.0
220
0.0
230
1.0
 70
     8
 71
     3
 72
    10
 73
     6
 74
     0
 42
0.00000001
 43
0.00000001
 40
0.0
 40
0.0
 40
0.0
 40
0.0
 40
0.2941551202180168
 40
0.5883102404360362
 40
1.0
 40
1.0
 40
1.0
 40
1.0
 10
796.033067735019
 20
285.1907669800452
 30
0.0
 10
798.8439543918599
 20
285.8935508851468
 30
0.0
 10
804.4657277055419
 20
287.2991186953498
 30
0.0
 10
814.1918278455825
 20
288.9378547952776
 30
0.0
 10
821.1308858827749
 20
289.4108762324421
 30
0.0
 10
825.1781478474925
 20
289.6867698279231
 30
0.0
  0
INSERT
  5
2CD
330
1F
100
AcDbEntity
  8
0
  6
Continuous
 62
     7
370
    18
100
AcDbBlockReference
  2
SW_CENTERMARKSYMBOL_0
 10
830.627320651
 20
157.6491652762
 30
0.0
  0
ENDSEC
  0
SECTION
  2
OBJECTS
  0
DICTIONARY
  5
C
330
0
100
AcDbDictionary
281
     1
  3
ACAD_GROUP
350
D
  3
ACAD_LAYOUT
350
1A
  3
ACAD_MLINESTYLE
350
17
  3
ACAD_PLOTSETTINGS
350
19
  3
ACAD_PLOTSTYLENAME
350
E
  3
ACAD_SCALELIST
350
47
  3
DWGPROPS
350
2CE
  0
DICTIONARY
  5
D
102
{ACAD_REACTORS
330
C
102
}
330
C
100
AcDbDictionary
281
     1
  0
DICTIONARY
  5
1A
102
{ACAD_REACTORS
330
C
102
}
330
C
100
AcDbDictionary
281
     1
  3
Layout1
350
1E
  3
Layout2
350
26
  3
Model
350
22
  0
DICTIONARY
  5
17
102
{ACAD_REACTORS
330
C
102
}
330
C
100
AcDbDictionary
281
     1
  3
Standard
350
18
  0
DICTIONARY
  5
19
102
{ACAD_REACTORS
330
C
102
}
330
C
100
AcDbDictionary
281
     1
  0
ACDBDICTIONARYWDFLT
  5
E
102
{ACAD_REACTORS
330
C
102
}
330
C
100
AcDbDictionary
281
     1
  3
Normal
350
F
100
AcDbDictionaryWithDefault
340
F
  0
DICTIONARY
  5
47
102
{ACAD_REACTORS
330
C
102
}
330
C
100
AcDbDictionary
281
     1
  3
A0
350
48
  3
A1
350
49
  3
A2
350
4A
  3
A3
350
4B
  3
A4
350
4C
  3
A5
350
4D
  3
A6
350
4E
  3
A7
350
4F
  3
A8
350
50
  3
A9
350
51
  3
B0
350
52
  3
B1
350
53
  3
B2
350
54
  3
B3
350
55
  3
B4
350
56
  3
B5
350
57
  3
B6
350
58
  3
B7
350
59
  3
B8
350
5A
  3
B9
350
5B
  3
C0
350
5C
  3
C1
350
5D
  3
C2
350
5E
  3
C3
350
5F
  3
C4
350
60
  3
C5
350
61
  3
C6
350
62
  3
C7
350
63
  3
C8
350
64
  3
C9
350
65
  3
D0
350
66
  3
D1
350
67
  3
D2
350
68
  0
XRECORD
  5
2CE
102
{ACAD_REACTORS
330
C
102
}
330
C
100
AcDbXrecord
280
     1
  1
DWGPROPS COOKIE
  2

  3

  4

  6

  7

  8
Emilis.Masalas
  9

300
=
301
=
302
=
303
=
304
=
305
=
306
=
307
=
308
=
309
=
 40
0.0
 41
2459179.611175127
 42
2459179.61117581
  1

 90
        0
  0
LAYOUT
  5
1E
102
{ACAD_REACTORS
330
1A
102
}
330
1A
100
AcDbPlotSettings
  1

  2
none_device
  4

  6

 40
0.0
 41
0.0
 42
0.0
 43
0.0
 44
0.0
 45
0.0
 46
0.0
 47
0.0
 48
0.0
 49
0.0
140
0.0
141
0.0
142
1.0
143
1.0
 70
   688
 72
     1
 73
     0
 74
     5
  7

 75
    16
147
1.0
148
0.0
149
0.0
100
AcDbLayout
  1
Layout1
 70
     1
 71
     1
 10
0.0
 20
0.0
 11
420.0
 21
297.0
 12
0.0
 22
0.0
 32
0.0
 14
1.0000000000E+20
 24
1.0000000000E+20
 34
1.0000000000E+20
 15
-1.0000000000E+20
 25
-1.0000000000E+20
 35
-1.0000000000E+20
146
0.0
 13
0.0
 23
0.0
 33
0.0
 16
1.0
 26
0.0
 36
0.0
 17
0.0
 27
1.0
 37
0.0
 76
     0
330
1B
  0
LAYOUT
  5
26
102
{ACAD_REACTORS
330
1A
102
}
330
1A
100
AcDbPlotSettings
  1

  2
none_device
  4

  6

 40
0.0
 41
0.0
 42
0.0
 43
0.0
 44
0.0
 45
0.0
 46
0.0
 47
0.0
 48
0.0
 49
0.0
140
0.0
141
0.0
142
1.0
143
1.0
 70
   688
 72
     1
 73
     0
 74
     5
  7

 75
    16
147
1.0
148
0.0
149
0.0
100
AcDbLayout
  1
Layout2
 70
     1
 71
     2
 10
0.0
 20
0.0
 11
0.0
 21
0.0
 12
0.0
 22
0.0
 32
0.0
 14
0.0
 24
0.0
 34
0.0
 15
0.0
 25
0.0
 35
0.0
146
0.0
 13
0.0
 23
0.0
 33
0.0
 16
1.0
 26
0.0
 36
0.0
 17
0.0
 27
1.0
 37
0.0
 76
     0
330
23
  0
LAYOUT
  5
22
102
{ACAD_REACTORS
330
1A
102
}
330
1A
100
AcDbPlotSettings
  1

  2
none_device
  4
Letter_(8.50_x_11.00_Inches)
  6

 40
6.35
 41
6.35
 42
6.35000508
 43
6.35000508
 44
215.9
 45
279.4
 46
0.0
 47
0.0
 48
0.0
 49
0.0
140
0.0
141
0.0
142
1.0
143
1.0
 70
  1712
 72
     1
 73
     0
 74
     0
  7

 75
     0
147
1.0
148
0.0
149
0.0
100
AcDbLayout
  1
Model
 70
     1
 71
     0
 10
0.0
 20
0.0
 11
420.0
 21
297.0
 12
0.0
 22
0.0
 32
0.0
 14
0.0
 24
0.0
 34
0.0
 15
420.0
 25
297.0
 35
0.0
146
0.0
 13
0.0
 23
0.0
 33
0.0
 16
1.0
 26
0.0
 36
0.0
 17
0.0
 27
1.0
 37
0.0
 76
     0
330
1F
331
29
  0
MLINESTYLE
  5
18
102
{ACAD_REACTORS
330
17
102
}
330
17
100
AcDbMlineStyle
  2
Standard
 70
     0
  3

 62
   256
 51
90.0
 52
90.0
 71
     2
 49
0.5
 62
   256
  6
BYLAYER
 49
-0.5
 62
   256
  6
BYLAYER
  0
ACDBPLACEHOLDER
  5
F
102
{ACAD_REACTORS
330
E
102
}
330
E
  0
SCALE
  5
48
102
{ACAD_REACTORS
330
47
102
}
330
47
100
AcDbScale
 70
     0
300
1:1
140
1.0
141
1.0
290
     1
  0
SCALE
  5
49
102
{ACAD_REACTORS
330
47
102
}
330
47
100
AcDbScale
 70
     0
300
1:2
140
1.0
141
2.0
290
     0
  0
SCALE
  5
4A
102
{ACAD_REACTORS
330
47
102
}
330
47
100
AcDbScale
 70
     0
300
1:4
140
1.0
141
4.0
290
     0
  0
SCALE
  5
4B
102
{ACAD_REACTORS
330
47
102
}
330
47
100
AcDbScale
 70
     0
300
1:5
140
1.0
141
5.0
290
     0
  0
SCALE
  5
4C
102
{ACAD_REACTORS
330
47
102
}
330
47
100
AcDbScale
 70
     0
300
1:8
140
1.0
141
8.0
290
     0
  0
SCALE
  5
4D
102
{ACAD_REACTORS
330
47
102
}
330
47
100
AcDbScale
 70
     0
300
1:10
140
1.0
141
10.0
290
     0
  0
SCALE
  5
4E
102
{ACAD_REACTORS
330
47
102
}
330
47
100
AcDbScale
 70
     0
300
1:16
140
1.0
141
16.0
290
     0
  0
SCALE
  5
4F
102
{ACAD_REACTORS
330
47
102
}
330
47
100
AcDbScale
 70
     0
300
1:20
140
1.0
141
20.0
290
     0
  0
SCALE
  5
50
102
{ACAD_REACTORS
330
47
102
}
330
47
100
AcDbScale
 70
     0
300
1:30
140
1.0
141
30.0
290
     0
  0
SCALE
  5
51
102
{ACAD_REACTORS
330
47
102
}
330
47
100
AcDbScale
 70
     0
300
1:40
140
1.0
141
40.0
290
     0
  0
SCALE
  5
52
102
{ACAD_REACTORS
330
47
102
}
330
47
100
AcDbScale
 70
     0
300
1:50
140
1.0
141
50.0
290
     0
  0
SCALE
  5
53
102
{ACAD_REACTORS
330
47
102
}
330
47
100
AcDbScale
 70
     0
300
1:100
140
1.0
141
100.0
290
     0
  0
SCALE
  5
54
102
{ACAD_REACTORS
330
47
102
}
330
47
100
AcDbScale
 70
     0
300
2:1
140
2.0
141
1.0
290
     0
  0
SCALE
  5
55
102
{ACAD_REACTORS
330
47
102
}
330
47
100
AcDbScale
 70
     0
300
4:1
140
4.0
141
1.0
290
     0
  0
SCALE
  5
56
102
{ACAD_REACTORS
330
47
102
}
330
47
100
AcDbScale
 70
     0
300
8:1
140
8.0
141
1.0
290
     0
  0
SCALE
  5
57
102
{ACAD_REACTORS
330
47
102
}
330
47
100
AcDbScale
 70
     0
300
10:1
140
10.0
141
1.0
290
     0
  0
SCALE
  5
58
102
{ACAD_REACTORS
330
47
102
}
330
47
100
AcDbScale
 70
     0
300
100:1
140
100.0
141
1.0
290
     0
  0
SCALE
  5
59
102
{ACAD_REACTORS
330
47
102
}
330
47
100
AcDbScale
 70
     0
300
1/128" = 1'-0"
140
0.0078125
141
12.0
290
     0
  0
SCALE
  5
5A
102
{ACAD_REACTORS
330
47
102
}
330
47
100
AcDbScale
 70
     0
300
1/64" = 1'-0"
140
0.015625
141
12.0
290
     0
  0
SCALE
  5
5B
102
{ACAD_REACTORS
330
47
102
}
330
47
100
AcDbScale
 70
     0
300
1/32" = 1'-0"
140
0.03125
141
12.0
290
     0
  0
SCALE
  5
5C
102
{ACAD_REACTORS
330
47
102
}
330
47
100
AcDbScale
 70
     0
300
1/16" = 1'-0"
140
0.0625
141
12.0
290
     0
  0
SCALE
  5
5D
102
{ACAD_REACTORS
330
47
102
}
330
47
100
AcDbScale
 70
     0
300
3/32" = 1'-0"
140
0.09375
141
12.0
290
     0
  0
SCALE
  5
5E
102
{ACAD_REACTORS
330
47
102
}
330
47
100
AcDbScale
 70
     0
300
1/8" = 1'-0"
140
0.125
141
12.0
290
     0
  0
SCALE
  5
5F
102
{ACAD_REACTORS
330
47
102
}
330
47
100
AcDbScale
 70
     0
300
3/16" = 1'-0"
140
0.1875
141
12.0
290
     0
  0
SCALE
  5
60
102
{ACAD_REACTORS
330
47
102
}
330
47
100
AcDbScale
 70
     0
300
1/4" = 1'-0"
140
0.25
141
12.0
290
     0
  0
SCALE
  5
61
102
{ACAD_REACTORS
330
47
102
}
330
47
100
AcDbScale
 70
     0
300
3/8" = 1'-0"
140
0.375
141
12.0
290
     0
  0
SCALE
  5
62
102
{ACAD_REACTORS
330
47
102
}
330
47
100
AcDbScale
 70
     0
300
1/2" = 1'-0"
140
0.5
141
12.0
290
     0
  0
SCALE
  5
63
102
{ACAD_REACTORS
330
47
102
}
330
47
100
AcDbScale
 70
     0
300
3/4" = 1'-0"
140
0.75
141
12.0
290
     0
  0
SCALE
  5
64
102
{ACAD_REACTORS
330
47
102
}
330
47
100
AcDbScale
 70
     0
300
1" = 1'-0"
140
1.0
141
12.0
290
     0
  0
SCALE
  5
65
102
{ACAD_REACTORS
330
47
102
}
330
47
100
AcDbScale
 70
     0
300
1-1/2" = 1'-0"
140
1.5
141
12.0
290
     0
  0
SCALE
  5
66
102
{ACAD_REACTORS
330
47
102
}
330
47
100
AcDbScale
 70
     0
300
3" = 1'-0"
140
3.0
141
12.0
290
     0
  0
SCALE
  5
67
102
{ACAD_REACTORS
330
47
102
}
330
47
100
AcDbScale
 70
     0
300
6" = 1'-0"
140
6.0
141
12.0
290
     0
  0
SCALE
  5
68
102
{ACAD_REACTORS
330
47
102
}
330
47
100
AcDbScale
 70
     0
300
1'-0" = 1'-0"
140
12.0
141
12.0
290
     0
  0
ENDSEC
  0
EOF
