  0
SECTION
  2
HEADER
  9
$ACADVER
  1
AC1015
  9
$ACADMAINTVER
 70
     6
  9
$DWGCODEPAGE
  3
ANSI_1257
  9
$INSBASE
 10
0.0
 20
0.0
 30
0.0
  9
$EXTMIN
 10
0.0
 20
0.0
 30
0.0
  9
$EXTMAX
 10
420.0
 20
297.0
 30
0.0
  9
$LIMMIN
 10
0.0
 20
0.0
  9
$LIMMAX
 10
420.0
 20
297.0
  9
$ORTHOMODE
 70
     0
  9
$REGENMODE
 70
     1
  9
$FILLMODE
 70
     1
  9
$QTEXTMODE
 70
     0
  9
$MIRRTEXT
 70
     1
  9
$LTSCALE
 40
1.0
  9
$ATTMODE
 70
     1
  9
$TEXTSIZE
 40
5.6444444444
  9
$TRACEWID
 40
1.0
  9
$TEXTSTYLE
  7
Standard
  9
$CLAYER
  8
0
  9
$CELTYPE
  6
ByLayer
  9
$CECOLOR
 62
   256
  9
$CELTSCALE
 40
1.0
  9
$DISPSILH
 70
     0
  9
$DIMSCALE
 40
1.0
  9
$DIMASZ
 40
3.175
  9
$DIMEXO
 40
1.0
  9
$DIMDLI
 40
3.75
  9
$DIMRND
 40
0.0
  9
$DIMDLE
 40
0.0
  9
$DIMEXE
 40
1.0
  9
$DIMTP
 40
0.0
  9
$DIMTM
 40
0.0
  9
$DIMTXT
 40
4.9388888889
  9
$DIMCEN
 40
2.5
  9
$DIMTSZ
 40
0.0
  9
$DIMTOL
 70
     0
  9
$DIMLIM
 70
     0
  9
$DIMTIH
 70
     1
  9
$DIMTOH
 70
     1
  9
$DIMSE1
 70
     0
  9
$DIMSE2
 70
     0
  9
$DIMTAD
 70
     1
  9
$DIMZIN
 70
     0
  9
$DIMBLK
  1

  9
$DIMASO
 70
     1
  9
$DIMSHO
 70
     1
  9
$DIMPOST
  1

  9
$DIMAPOST
  1

  9
$DIMALT
 70
     0
  9
$DIMALTD
 70
     3
  9
$DIMALTF
 40
0.0393700787
  9
$DIMLFAC
 40
1.0
  9
$DIMTOFL
 70
     1
  9
$DIMTVP
 40
0.0
  9
$DIMTIX
 70
     0
  9
$DIMSOXD
 70
     0
  9
$DIMSAH
 70
     0
  9
$DIMBLK1
  1

  9
$DIMBLK2
  1

  9
$DIMSTYLE
  2
ISO-25
  9
$DIMCLRD
 70
     0
  9
$DIMCLRE
 70
     0
  9
$DIMCLRT
 70
     0
  9
$DIMTFAC
 40
1.0
  9
$DIMGAP
 40
1.524
  9
$DIMJUST
 70
     0
  9
$DIMSD1
 70
     0
  9
$DIMSD2
 70
     0
  9
$DIMTOLJ
 70
     0
  9
$DIMTZIN
 70
     0
  9
$DIMALTZ
 70
     0
  9
$DIMALTTZ
 70
     0
  9
$DIMUPT
 70
     0
  9
$DIMDEC
 70
     1
  9
$DIMTDEC
 70
     1
  9
$DIMALTU
 70
     2
  9
$DIMALTTD
 70
     3
  9
$DIMTXSTY
  7
Standard
  9
$DIMAUNIT
 70
     0
  9
$DIMADEC
 70
     1
  9
$DIMALTRND
 40
0.0
  9
$DIMAZIN
 70
     0
  9
$DIMDSEP
 70
    44
  9
$DIMATFIT
 70
     3
  9
$DIMFRAC
 70
     0
  9
$DIMLDRBLK
  1

  9
$DIMLUNIT
 70
     2
  9
$DIMLWD
 70
    -2
  9
$DIMLWE
 70
    -2
  9
$DIMTMOVE
 70
     0
  9
$LUNITS
 70
     2
  9
$LUPREC
 70
     1
  9
$SKETCHINC
 40
1.0
  9
$FILLETRAD
 40
10.0
  9
$AUNITS
 70
     0
  9
$AUPREC
 70
     1
  9
$MENU
  1
.
  9
$ELEVATION
 40
0.0
  9
$PELEVATION
 40
0.0
  9
$THICKNESS
 40
0.0
  9
$LIMCHECK
 70
     0
  9
$CHAMFERA
 40
0.0
  9
$CHAMFERB
 40
0.0
  9
$CHAMFERC
 40
0.0
  9
$CHAMFERD
 40
0.0
  9
$SKPOLY
 70
     0
  9
$TDCREATE
 40
2459179.701372176
  9
$TDUCREATE
 40
2459179.618038842
  9
$TDUPDATE
 40
2459179.701372789
  9
$TDUUPDATE
 40
2459179.618039456
  9
$TDINDWG
 40
0.0000000116
  9
$TDUSRTIMER
 40
0.0000000116
  9
$USRTIMER
 70
     1
  9
$ANGBASE
 50
0.0
  9
$ANGDIR
 70
     0
  9
$PDMODE
 70
     0
  9
$PDSIZE
 40
-1.0
  9
$PLINEWID
 40
0.0
  9
$SPLFRAME
 70
     0
  9
$SPLINETYPE
 70
     6
  9
$SPLINESEGS
 70
     8
  9
$HANDSEED
  5
27B
  9
$SURFTAB1
 70
     6
  9
$SURFTAB2
 70
     6
  9
$SURFTYPE
 70
     6
  9
$SURFU
 70
     6
  9
$SURFV
 70
     6
  9
$UCSBASE
  2

  9
$UCSNAME
  2

  9
$UCSORG
 10
0.0
 20
0.0
 30
0.0
  9
$UCSXDIR
 10
1.0
 20
0.0
 30
0.0
  9
$UCSYDIR
 10
0.0
 20
1.0
 30
0.0
  9
$UCSORTHOREF
  2

  9
$UCSORTHOVIEW
 70
     0
  9
$UCSORGTOP
 10
0.0
 20
0.0
 30
0.0
  9
$UCSORGBOTTOM
 10
0.0
 20
0.0
 30
0.0
  9
$UCSORGLEFT
 10
0.0
 20
0.0
 30
0.0
  9
$UCSORGRIGHT
 10
0.0
 20
0.0
 30
0.0
  9
$UCSORGFRONT
 10
0.0
 20
0.0
 30
0.0
  9
$UCSORGBACK
 10
0.0
 20
0.0
 30
0.0
  9
$PUCSBASE
  2

  9
$PUCSNAME
  2

  9
$PUCSORG
 10
0.0
 20
0.0
 30
0.0
  9
$PUCSXDIR
 10
1.0
 20
0.0
 30
0.0
  9
$PUCSYDIR
 10
0.0
 20
1.0
 30
0.0
  9
$PUCSORTHOREF
  2

  9
$PUCSORTHOVIEW
 70
     0
  9
$PUCSORGTOP
 10
0.0
 20
0.0
 30
0.0
  9
$PUCSORGBOTTOM
 10
0.0
 20
0.0
 30
0.0
  9
$PUCSORGLEFT
 10
0.0
 20
0.0
 30
0.0
  9
$PUCSORGRIGHT
 10
0.0
 20
0.0
 30
0.0
  9
$PUCSORGFRONT
 10
0.0
 20
0.0
 30
0.0
  9
$PUCSORGBACK
 10
0.0
 20
0.0
 30
0.0
  9
$USERI1
 70
     0
  9
$USERI2
 70
     0
  9
$USERI3
 70
     0
  9
$USERI4
 70
     0
  9
$USERI5
 70
     0
  9
$USERR1
 40
0.0
  9
$USERR2
 40
0.0
  9
$USERR3
 40
0.0
  9
$USERR4
 40
0.0
  9
$USERR5
 40
0.0
  9
$WORLDVIEW
 70
     1
  9
$SHADEDGE
 70
     3
  9
$SHADEDIF
 70
    70
  9
$TILEMODE
 70
     1
  9
$MAXACTVP
 70
    64
  9
$PINSBASE
 10
0.0
 20
0.0
 30
0.0
  9
$PLIMCHECK
 70
     0
  9
$PEXTMIN
 10
1.0000000000E+20
 20
1.0000000000E+20
 30
1.0000000000E+20
  9
$PEXTMAX
 10
-1.0000000000E+20
 20
-1.0000000000E+20
 30
-1.0000000000E+20
  9
$PLIMMIN
 10
0.0
 20
0.0
  9
$PLIMMAX
 10
420.0
 20
297.0
  9
$UNITMODE
 70
     0
  9
$VISRETAIN
 70
     1
  9
$PLINEGEN
 70
     0
  9
$PSLTSCALE
 70
     1
  9
$TREEDEPTH
 70
  3020
  9
$CMLSTYLE
  2
Standard
  9
$CMLJUST
 70
     0
  9
$CMLSCALE
 40
20.0
  9
$PROXYGRAPHICS
 70
     1
  9
$MEASUREMENT
 70
     1
  9
$CELWEIGHT
370
    -1
  9
$ENDCAPS
280
     0
  9
$JOINSTYLE
280
     0
  9
$LWDISPLAY
290
     1
  9
$INSUNITS
 70
     4
  9
$HYPERLINKBASE
  1

  9
$STYLESHEET
  1

  9
$XEDIT
290
     1
  9
$CEPSNTYPE
380
     0
  9
$PSTYLEMODE
290
     1
  9
$FINGERPRINTGUID
  2
{3429d645-1a8b-4e35-98c2-38ed3ac727ec}
  9
$VERSIONGUID
  2
{FAEB1C32-E019-11D5-929B-00C0DF256EC4}
  9
$EXTNAMES
290
     1
  9
$PSVPSCALE
 40
0.0
  9
$OLESTARTUP
290
     0
  0
ENDSEC
  0
SECTION
  2
CLASSES
  0
CLASS
  1
ACDBDICTIONARYWDFLT
  2
AcDbDictionaryWithDefault
  3
ObjectDBX Classes
 90
        0
280
     0
281
     0
  0
CLASS
  1
VISUALSTYLE
  2
AcDbVisualStyle
  3
ObjectDBX Classes
 90
     4095
280
     0
281
     0
  0
CLASS
  1
MATERIAL
  2
AcDbMaterial
  3
ObjectDBX Classes
 90
     1153
280
     0
281
     0
  0
CLASS
  1
SCALE
  2
AcDbScale
  3
ObjectDBX Classes
 90
     1153
280
     0
281
     0
  0
CLASS
  1
TABLESTYLE
  2
AcDbTableStyle
  3
ObjectDBX Classes
 90
     4095
280
     0
281
     0
  0
CLASS
  1
MLEADERSTYLE
  2
AcDbMLeaderStyle
  3
ACDB_MLEADERSTYLE_CLASS
 90
     4095
280
     0
281
     0
  0
CLASS
  1
SUN
  2
AcDbSun
  3
SCENEOE
 90
     1153
280
     0
281
     0
  0
CLASS
  1
ACDBPLACEHOLDER
  2
AcDbPlaceHolder
  3
ObjectDBX Classes
 90
        0
280
     0
281
     0
  0
CLASS
  1
LAYOUT
  2
AcDbLayout
  3
ObjectDBX Classes
 90
        0
280
     0
281
     0
  0
ENDSEC
  0
SECTION
  2
TABLES
  0
TABLE
  2
VPORT
  5
8
330
0
100
AcDbSymbolTable
 70
     1
  0
VPORT
  5
29
330
8
100
AcDbSymbolTableRecord
100
AcDbViewportTableRecord
  2
*Active
 70
     0
 10
0.0
 20
0.0
 11
1.0
 21
1.0
 12
210.0
 22
148.5
 13
0.0
 23
0.0
 14
10.0
 24
10.0
 15
10.0
 25
10.0
 16
0.0
 26
0.0
 36
1.0
 17
0.0
 27
0.0
 37
0.0
 40
297.0
 41
1.4141414141
 42
50.0
 43
0.0
 44
0.0
 50
0.0
 51
0.0
 71
     0
 72
  2000
 73
     1
 74
     3
 75
     0
 76
     0
 77
     0
 78
     0
281
     0
 65
     1
110
0.0
120
0.0
130
0.0
111
1.0
121
0.0
131
0.0
112
0.0
122
1.0
132
0.0
 79
     0
146
0.0
  0
ENDTAB
  0
TABLE
  2
LTYPE
  5
5
330
0
100
AcDbSymbolTable
 70
     6
  0
LTYPE
  5
14
330
5
100
AcDbSymbolTableRecord
100
AcDbLinetypeTableRecord
  2
ByBlock
 70
     0
  3

 72
    65
 73
     0
 40
0.0
  0
LTYPE
  5
15
330
5
100
AcDbSymbolTableRecord
100
AcDbLinetypeTableRecord
  2
ByLayer
 70
     0
  3

 72
    65
 73
     0
 40
0.0
  0
LTYPE
  5
16
330
5
100
AcDbSymbolTableRecord
100
AcDbLinetypeTableRecord
  2
Continuous
 70
     0
  3
Solid line
 72
    65
 73
     0
 40
0.0
  0
LTYPE
  5
6E
330
5
100
AcDbSymbolTableRecord
100
AcDbLinetypeTableRecord
  2
HIDDEN
 70
     0
  3
Hidden __ __ __ __ __ __ __ __ __ __ __ __ __ __
 72
    65
 73
     2
 40
1.905
 49
1.27
 74
     0
 49
-0.635
 74
     0
  0
LTYPE
  5
6F
330
5
100
AcDbSymbolTableRecord
100
AcDbLinetypeTableRecord
  2
PHANTOM
 70
     0
  3
Phantom ______  __  __  ______  __  __  ______
 72
    65
 73
     6
 40
12.7
 49
6.35
 74
     0
 49
-1.27
 74
     0
 49
1.27
 74
     0
 49
-1.27
 74
     0
 49
1.27
 74
     0
 49
-1.27
 74
     0
  0
LTYPE
  5
70
330
5
100
AcDbSymbolTableRecord
100
AcDbLinetypeTableRecord
  2
CENTER
 70
     0
  3
Center ____ _ ____ _ ____ _ ____ _ ____ _ ____
 72
    65
 73
     4
 40
10.16
 49
6.35
 74
     0
 49
-1.27
 74
     0
 49
1.27
 74
     0
 49
-1.27
 74
     0
  0
LTYPE
  5
71
330
5
100
AcDbSymbolTableRecord
100
AcDbLinetypeTableRecord
  2
CENTERX2
 70
     0
  3
Center (2x) ________  __  ________  __  _____
 72
    65
 73
     4
 40
20.32
 49
12.7
 74
     0
 49
-2.54
 74
     0
 49
2.54
 74
     0
 49
-2.54
 74
     0
  0
LTYPE
  5
72
330
5
100
AcDbSymbolTableRecord
100
AcDbLinetypeTableRecord
  2
DOT2
 70
     0
  3
Dot (.5x) ........................................
 72
    65
 73
     2
 40
0.635
 49
0.0
 74
     0
 49
-0.635
 74
     0
  0
ENDTAB
  0
TABLE
  2
LAYER
  5
2
330
0
100
AcDbSymbolTable
 70
     2
  0
LAYER
  5
10
330
2
100
AcDbSymbolTableRecord
100
AcDbLayerTableRecord
  2
0
 70
     0
 62
     7
  6
Continuous
370
    -3
390
F
  0
LAYER
  5
73
330
2
100
AcDbSymbolTableRecord
100
AcDbLayerTableRecord
  2
LENKIMO
 70
     0
 62
     1
  6
CENTERX2
370
    -3
390
F
  0
ENDTAB
  0
TABLE
  2
STYLE
  5
3
330
0
100
AcDbSymbolTable
 70
     1
  0
STYLE
  5
11
330
3
100
AcDbSymbolTableRecord
100
AcDbTextStyleTableRecord
  2
Standard
 70
     0
 40
0.0
 41
1.0
 50
0.0
 71
     0
 42
5.6444444444
  3
txt
  4

  0
ENDTAB
  0
TABLE
  2
VIEW
  5
6
330
0
100
AcDbSymbolTable
 70
     0
  0
ENDTAB
  0
TABLE
  2
UCS
  5
7
330
0
100
AcDbSymbolTable
 70
     0
  0
ENDTAB
  0
TABLE
  2
APPID
  5
9
330
0
100
AcDbSymbolTable
 70
     1
  0
APPID
  5
12
330
9
100
AcDbSymbolTableRecord
100
AcDbRegAppTableRecord
  2
ACAD
 70
     0
  0
ENDTAB
  0
TABLE
  2
DIMSTYLE
  5
A
330
0
100
AcDbSymbolTable
 70
     1
100
AcDbDimStyleTable
  0
DIMSTYLE
105
27
330
A
100
AcDbSymbolTableRecord
100
AcDbDimStyleTableRecord
  2
ISO-25
 70
     0
 41
2.5
 42
0.625
 43
3.75
 44
1.25
 73
     0
 74
     0
 77
     1
 78
     8
140
2.5
141
2.5
143
0.0393700787
147
0.625
171
     3
172
     1
178
     0
271
     2
272
     2
274
     3
278
    44
283
     0
284
     8
340
11
  0
ENDTAB
  0
TABLE
  2
BLOCK_RECORD
  5
1
330
0
100
AcDbSymbolTable
 70
     3
  0
BLOCK_RECORD
  5
1F
330
1
100
AcDbSymbolTableRecord
100
AcDbBlockTableRecord
  2
*Model_Space
340
22
  0
BLOCK_RECORD
  5
1B
330
1
100
AcDbSymbolTableRecord
100
AcDbBlockTableRecord
  2
*Paper_Space
340
1E
  0
BLOCK_RECORD
  5
23
330
1
100
AcDbSymbolTableRecord
100
AcDbBlockTableRecord
  2
*Paper_Space0
340
26
  0
BLOCK_RECORD
  5
74
330
1
100
AcDbSymbolTableRecord
100
AcDbBlockTableRecord
  2
Block11_2
340
0
  0
BLOCK_RECORD
  5
26E
330
1
100
AcDbSymbolTableRecord
100
AcDbBlockTableRecord
  2
SW_CENTERMARKSYMBOL_0
340
0
102
{BLKREFS
331
279
102
}
  0
ENDTAB
  0
ENDSEC
  0
SECTION
  2
BLOCKS
  0
BLOCK
  5
20
330
1F
100
AcDbEntity
  8
0
100
AcDbBlockBegin
  2
*Model_Space
 70
     0
 10
0.0
 20
0.0
 30
0.0
  3
*Model_Space
  1

  0
ENDBLK
  5
21
330
1F
100
AcDbEntity
  8
0
100
AcDbBlockEnd
  0
BLOCK
  5
1C
330
1B
100
AcDbEntity
 67
     1
  8
0
100
AcDbBlockBegin
  2
*Paper_Space
 70
     0
 10
0.0
 20
0.0
 30
0.0
  3
*Paper_Space
  1

  0
ENDBLK
  5
1D
330
1B
100
AcDbEntity
 67
     1
  8
0
100
AcDbBlockEnd
  0
BLOCK
  5
24
330
23
100
AcDbEntity
  8
0
100
AcDbBlockBegin
  2
*Paper_Space0
 70
     0
 10
0.0
 20
0.0
 30
0.0
  3
*Paper_Space0
  1

  0
ENDBLK
  5
25
330
23
100
AcDbEntity
  8
0
100
AcDbBlockEnd
  0
BLOCK
  5
75
330
74
100
AcDbEntity
  8
0
100
AcDbBlockBegin
  2
Block11_2
 70
     0
 10
0.0
 20
0.0
 30
0.0
  3
Block11_2
  1

  0
LINE
  5
77
330
74
100
AcDbEntity
  8
0
  6
Continuous
100
AcDbLine
 10
-15.7956326374
 20
2.3055746011
 30
0.0
 11
-18.0649288667
 21
1.8146036087
 31
0.0
  0
LINE
  5
78
330
74
100
AcDbEntity
  8
0
  6
Continuous
100
AcDbLine
 10
-15.6988785554
 20
-9.1195335787
 30
0.0
 11
-10.2261014967
 21
-7.9354771524
 31
0.0
  0
LINE
  5
79
330
74
100
AcDbEntity
  8
0
  6
Continuous
100
AcDbLine
 10
-10.2261014967
 20
-7.9354771524
 30
0.0
 11
-10.6655808869
 21
-5.9041780766
 31
0.0
  0
LINE
  5
7A
330
74
100
AcDbEntity
  8
0
  6
Continuous
100
AcDbLine
 10
-10.6655808869
 20
-5.9041780766
 30
0.0
 11
-13.8699456036
 21
-6.5974547429
 31
0.0
  0
LINE
  5
7B
330
74
100
AcDbEntity
  8
0
  6
Continuous
100
AcDbLine
 10
-8.296070931
 20
1.802048972
 30
0.0
 11
-6.9198111955
 21
2.0998080743
 31
0.0
  0
LINE
  5
7C
330
74
100
AcDbEntity
  8
0
  6
Continuous
100
AcDbLine
 10
-5.4333831358
 20
-4.7719736412
 30
0.0
 11
-6.8095376466
 21
-5.0697099777
 31
0.0
  0
LINE
  5
7D
330
74
100
AcDbEntity
  8
0
  6
Continuous
100
AcDbLine
 10
-11.0044904538
 20
3.3421566929
 30
0.0
 11
-8.6388294738
 21
-7.5920647278
 31
0.0
  0
LINE
  5
7E
330
74
100
AcDbEntity
  8
0
  6
Continuous
100
AcDbLine
 10
-8.6388294738
 20
-7.5920647278
 30
0.0
 11
-8.6384401425
 21
-7.5919804944
 31
0.0
  0
LINE
  5
7F
330
74
100
AcDbEntity
  8
0
  6
Continuous
100
AcDbLine
 10
-8.6384401425
 20
-7.5919804944
 30
0.0
 11
-4.4940245505
 21
-6.6953201952
 31
0.0
  0
LINE
  5
80
330
74
100
AcDbEntity
  8
0
  6
Continuous
100
AcDbLine
 10
-6.8595855671
 20
4.238922853
 30
0.0
 11
-11.0044904538
 21
3.3421566929
 31
0.0
  0
LINE
  5
81
330
74
100
AcDbEntity
  8
0
  6
Continuous
100
AcDbLine
 10
-32.9933593229
 20
-3.3005605139
 30
0.0
 11
-32.8591663041
 21
-3.2715273367
 31
0.0
  0
LINE
  5
82
330
74
100
AcDbEntity
  8
0
  6
Continuous
100
AcDbLine
 10
-31.5697721187
 20
-3.9678201523
 30
0.0
 11
-29.2969561243
 21
-3.4760876451
 31
0.0
  0
LINE
  5
83
330
74
100
AcDbEntity
  8
0
  6
Continuous
100
AcDbLine
 10
-33.2794920496
 20
-1.2667721217
 30
0.0
 11
-33.3448839193
 21
-1.2809199049
 31
0.0
  0
LINE
  5
84
330
74
100
AcDbEntity
  8
0
  6
Continuous
100
AcDbLine
 10
-31.3289079349
 20
-10.5856399919
 30
0.0
 11
-31.4650581325
 21
-10.6150966123
 31
0.0
  0
LINE
  5
85
330
74
100
AcDbEntity
  8
0
  6
Continuous
100
AcDbLine
 10
-32.8822392925
 20
-9.9377601564
 30
0.0
 11
-35.1888692339
 21
-10.4368084414
 31
0.0
  0
LINE
  5
86
330
74
100
AcDbEntity
  8
0
  6
Continuous
100
AcDbLine
 10
-31.5949683304
 20
-12.7295787952
 30
0.0
 11
-30.2063920476
 21
-12.4291549603
 31
0.0
  0
LINE
  5
87
330
74
100
AcDbEntity
  8
0
  6
Continuous
100
AcDbLine
 10
6.262509235
 20
-4.3681026205
 30
0.0
 11
8.6370616994
 21
-3.8543590356
 31
0.0
  0
LINE
  5
88
330
74
100
AcDbEntity
  8
0
  6
Continuous
100
AcDbLine
 10
8.6370616994
 20
-3.8543590356
 30
0.0
 11
3.9059396663
 21
6.5680857621
 31
0.0
  0
LINE
  5
89
330
74
100
AcDbEntity
  8
0
  6
Continuous
100
AcDbLine
 10
3.9059396663
 20
6.5680857621
 30
0.0
 11
0.0
 21
5.7230206493
 31
0.0
  0
LINE
  5
8A
330
74
100
AcDbEntity
  8
0
  6
Continuous
100
AcDbLine
 10
0.0
 20
5.7230206493
 30
0.0
 11
0.0
 21
-5.7230206493
 31
0.0
  0
LINE
  5
8B
330
74
100
AcDbEntity
  8
0
  6
Continuous
100
AcDbLine
 10
0.0
 20
-5.7230206493
 30
0.0
 11
2.3746576891
 21
-5.2092542987
 31
0.0
  0
LINE
  5
8C
330
74
100
AcDbEntity
  8
0
  6
Continuous
100
AcDbLine
 10
2.3746576891
 20
-5.2092542987
 30
0.0
 11
2.3747844598
 21
-3.0912381741
 31
0.0
  0
LINE
  5
8D
330
74
100
AcDbEntity
  8
0
  6
Continuous
100
AcDbLine
 10
2.3747844598
 20
-3.0912381741
 30
0.0
 11
4.0318309599
 21
-2.7327297722
 31
0.0
  0
LINE
  5
8E
330
74
100
AcDbEntity
  8
0
  6
Continuous
100
AcDbLine
 10
4.0318309599
 20
-2.7327297722
 30
0.0
 11
3.5923515697
 21
-0.7014306964
 31
0.0
  0
LINE
  5
8F
330
74
100
AcDbEntity
  8
0
  6
Continuous
100
AcDbLine
 10
3.5923515697
 20
-0.7014306964
 30
0.0
 11
2.3750284336
 21
-0.9648032524
 31
0.0
  0
LINE
  5
90
330
74
100
AcDbEntity
  8
0
  6
Continuous
100
AcDbLine
 10
2.3750284336
 20
-0.9648032524
 30
0.0
 11
2.3752084601
 21
4.1936873712
 31
0.0
  0
LINE
  5
91
330
74
100
AcDbEntity
  8
0
  6
Continuous
100
AcDbLine
 10
2.3752084601
 20
4.1936873712
 30
0.0
 11
6.262509235
 21
-4.3681026205
 31
0.0
  0
LINE
  5
92
330
74
100
AcDbEntity
  8
0
  6
Continuous
100
AcDbLine
 10
-53.0629352118
 20
-11.4801779454
 30
0.0
 11
-50.7945341276
 21
-8.0228043203
 31
0.0
  0
LINE
  5
93
330
74
100
AcDbEntity
  8
0
  6
Continuous
100
AcDbLine
 10
-50.7945341276
 20
-8.0228043203
 30
0.0
 11
-54.2891069366
 21
-5.8122833411
 31
0.0
  0
LINE
  5
94
330
74
100
AcDbEntity
  8
0
  6
Continuous
100
AcDbLine
 10
-54.2891069366
 20
-5.8122833411
 30
0.0
 11
-51.4073820962
 21
-5.1888110564
 31
0.0
  0
LINE
  5
95
330
74
100
AcDbEntity
  8
0
  6
Continuous
100
AcDbLine
 10
-51.4073820962
 20
-5.1888110564
 30
0.0
 11
-47.9127327975
 21
-7.3992273667
 31
0.0
  0
LINE
  5
96
330
74
100
AcDbEntity
  8
0
  6
Continuous
100
AcDbLine
 10
-47.9127327975
 20
-7.3992273667
 30
0.0
 11
-50.1813587974
 21
-10.8569360435
 31
0.0
  0
LINE
  5
97
330
74
100
AcDbEntity
  8
0
  6
Continuous
100
AcDbLine
 10
-50.1813587974
 20
-10.8569360435
 30
0.0
 11
-53.0628942334
 21
-11.4803673498
 31
0.0
  0
LINE
  5
98
330
74
100
AcDbEntity
  8
0
  6
Continuous
100
AcDbLine
 10
-53.0628942334
 20
-11.4803673498
 30
0.0
 11
-53.0629352118
 21
-11.4801779454
 31
0.0
  0
LINE
  5
99
330
74
100
AcDbEntity
  8
0
  6
Continuous
100
AcDbLine
 10
-42.7624916815
 20
-3.31845567
 30
0.0
 11
-45.0307950789
 21
-6.7757971452
 31
0.0
  0
LINE
  5
9A
330
74
100
AcDbEntity
  8
0
  6
Continuous
100
AcDbLine
 10
-45.0307950789
 20
-6.7757971452
 30
0.0
 11
-48.5254573289
 21
-4.5652955168
 31
0.0
  0
LINE
  5
9B
330
74
100
AcDbEntity
  8
0
  6
Continuous
100
AcDbLine
 10
-48.5254573289
 20
-4.5652955168
 30
0.0
 11
-48.5257466967
 21
-4.5653581227
 31
0.0
  0
LINE
  5
9C
330
74
100
AcDbEntity
  8
0
  6
Continuous
100
AcDbLine
 10
-48.5257466967
 20
-4.5653581227
 30
0.0
 11
-47.9126146215
 21
-7.399289919
 31
0.0
  0
LINE
  5
9D
330
74
100
AcDbEntity
  8
0
  6
Continuous
100
AcDbLine
 10
-47.9126146215
 20
-7.399289919
 30
0.0
 11
-44.4177372167
 21
-9.6098441329
 31
0.0
  0
LINE
  5
9E
330
74
100
AcDbEntity
  8
0
  6
Continuous
100
AcDbLine
 10
-44.4177372167
 20
-9.6098441329
 30
0.0
 11
-42.1490649772
 21
-6.1523237222
 31
0.0
  0
LINE
  5
9F
330
74
100
AcDbEntity
  8
0
  6
Continuous
100
AcDbLine
 10
-42.1490649772
 20
-6.1523237222
 30
0.0
 11
-42.7621970524
 21
-3.3183919259
 31
0.0
  0
LINE
  5
A0
330
74
100
AcDbEntity
  8
0
  6
Continuous
100
AcDbLine
 10
-42.7621970524
 20
-3.3183919259
 30
0.0
 11
-42.7624916815
 21
-3.31845567
 31
0.0
  0
LINE
  5
A1
330
74
100
AcDbEntity
  8
0
  6
Continuous
100
AcDbLine
 10
-41.535889647
 20
-8.9864554454
 30
0.0
 11
-43.8045413973
 21
-12.4440705583
 31
0.0
  0
LINE
  5
A2
330
74
100
AcDbEntity
  8
0
  6
Continuous
100
AcDbLine
 10
-43.8045413973
 20
-12.4440705583
 30
0.0
 11
-40.3564529382
 21
-14.625159785
 31
0.0
  0
LINE
  5
A3
330
74
100
AcDbEntity
  8
0
  6
Continuous
100
AcDbLine
 10
-40.3564529382
 20
-14.625159785
 30
0.0
 11
-43.2382724808
 21
-15.2486525588
 31
0.0
  0
LINE
  5
A4
330
74
100
AcDbEntity
  8
0
  6
Continuous
100
AcDbLine
 10
-43.2382724808
 20
-15.2486525588
 30
0.0
 11
-46.686243472
 21
-13.0676480676
 31
0.0
  0
LINE
  5
A5
330
74
100
AcDbEntity
  8
0
  6
Continuous
100
AcDbLine
 10
-46.686243472
 20
-13.0676480676
 30
0.0
 11
-44.4177144509
 21
-9.6099493576
 31
0.0
  0
LINE
  5
A6
330
74
100
AcDbEntity
  8
0
  6
Continuous
100
AcDbLine
 10
-44.4177144509
 20
-9.6099493576
 30
0.0
 11
-41.535889647
 21
-8.9864554454
 31
0.0
  0
LINE
  5
A7
330
74
100
AcDbEntity
  8
0
  6
Continuous
100
AcDbLine
 10
-51.8063383656
 20
-17.1023866618
 30
0.0
 11
-49.5681857438
 21
-13.6910572443
 31
0.0
  0
LINE
  5
A8
330
74
100
AcDbEntity
  8
0
  6
Continuous
100
AcDbLine
 10
-49.5681857438
 20
-13.6910572443
 30
0.0
 11
-46.1199973213
 21
-15.8721248435
 31
0.0
  0
LINE
  5
A9
330
74
100
AcDbEntity
  8
0
  6
Continuous
100
AcDbLine
 10
-46.1199973213
 20
-15.8721248435
 30
0.0
 11
-46.0813956519
 21
-15.8637732234
 31
0.0
  0
LINE
  5
AA
330
74
100
AcDbEntity
  8
0
  6
Continuous
100
AcDbLine
 10
-46.0813956519
 20
-15.8637732234
 30
0.0
 11
-46.6863662012
 21
-13.0675644704
 31
0.0
  0
LINE
  5
AB
330
74
100
AcDbEntity
  8
0
  6
Continuous
100
AcDbLine
 10
-46.6863662012
 20
-13.0675644704
 30
0.0
 11
-50.1813587974
 21
-10.8569360435
 31
0.0
  0
LINE
  5
AC
330
74
100
AcDbEntity
  8
0
  6
Continuous
100
AcDbLine
 10
-50.1813587974
 20
-10.8569360435
 30
0.0
 11
-52.4497621582
 21
-14.3142991462
 31
0.0
  0
LINE
  5
AD
330
74
100
AcDbEntity
  8
0
  6
Continuous
100
AcDbLine
 10
-52.4497621582
 20
-14.3142991462
 30
0.0
 11
-51.8447506306
 21
-17.1106973035
 31
0.0
  0
LINE
  5
AE
330
74
100
AcDbEntity
  8
0
  6
Continuous
100
AcDbLine
 10
-51.8447506306
 20
-17.1106973035
 30
0.0
 11
-51.8063383656
 21
-17.1023866618
 31
0.0
  0
LINE
  5
AF
330
74
100
AcDbEntity
  8
0
  6
Continuous
100
AcDbLine
 10
-20.0432683672
 20
-10.0594590717
 30
0.0
 11
-17.6687053803
 21
-9.5457132103
 31
0.0
  0
LINE
  5
B0
330
74
100
AcDbEntity
  8
0
  6
Continuous
100
AcDbLine
 10
-17.6687053803
 20
-9.5457132103
 30
0.0
 11
-22.3998379359
 21
0.8767293109
 31
0.0
  0
LINE
  5
B1
330
74
100
AcDbEntity
  8
0
  6
Continuous
100
AcDbLine
 10
-22.3998379359
 20
0.8767293109
 30
0.0
 11
-26.3058670432
 21
0.0316448472
 31
0.0
  0
LINE
  5
B2
330
74
100
AcDbEntity
  8
0
  6
Continuous
100
AcDbLine
 10
-26.3058670432
 20
0.0316448472
 30
0.0
 11
-26.3056723775
 21
-11.4143543348
 31
0.0
  0
LINE
  5
B3
330
74
100
AcDbEntity
  8
0
  6
Continuous
100
AcDbLine
 10
-26.3056723775
 20
-11.4143543348
 30
0.0
 11
-23.9311146519
 21
-10.9006096116
 31
0.0
  0
LINE
  5
B4
330
74
100
AcDbEntity
  8
0
  6
Continuous
100
AcDbLine
 10
-23.9311146519
 20
-10.9006096116
 30
0.0
 11
-23.9309931424
 21
-8.7825946253
 31
0.0
  0
LINE
  5
B5
330
74
100
AcDbEntity
  8
0
  6
Continuous
100
AcDbLine
 10
-23.9309931424
 20
-8.7825946253
 30
0.0
 11
-22.2738308951
 21
-8.4240611811
 31
0.0
  0
LINE
  5
B6
330
74
100
AcDbEntity
  8
0
  6
Continuous
100
AcDbLine
 10
-22.2738308951
 20
-8.4240611811
 30
0.0
 11
-22.7133102854
 21
-6.3927621053
 31
0.0
  0
LINE
  5
B7
330
74
100
AcDbEntity
  8
0
  6
Continuous
100
AcDbLine
 10
-22.7133102854
 20
-6.3927621053
 30
0.0
 11
-23.9308333483
 21
-6.6561779162
 31
0.0
  0
LINE
  5
B8
330
74
100
AcDbEntity
  8
0
  6
Continuous
100
AcDbLine
 10
-23.9308333483
 20
-6.6561779162
 30
0.0
 11
-23.9305586196
 21
-1.4976668035
 31
0.0
  0
LINE
  5
B9
330
74
100
AcDbEntity
  8
0
  6
Continuous
100
AcDbLine
 10
-23.9305586196
 20
-1.4976668035
 30
0.0
 11
-20.0432683672
 21
-10.0594590717
 31
0.0
  0
SPLINE
  5
BA
330
74
100
AcDbEntity
  8
0
100
AcDbSpline
210
0.0
220
0.0
230
1.0
 70
     8
 71
     3
 72
     8
 73
     4
 74
     0
 42
0.00000001
 43
0.00000001
 40
0.0
 40
0.0
 40
0.0
 40
0.0
 40
1.0
 40
1.0
 40
1.0
 40
1.0
 10
-13.86994560355125
 20
-6.597454742918429
 30
0.0
 10
-13.88373254946556
 20
-6.53373068413859
 30
0.0
 10
-15.11365515797402
 20
-0.8489574873494021
 30
0.0
 10
-15.79563263740206
 20
2.305574601061459
 30
0.0
  0
SPLINE
  5
BB
330
74
100
AcDbEntity
  8
0
100
AcDbSpline
210
0.0
220
0.0
230
1.0
 70
     8
 71
     3
 72
     8
 73
     4
 74
     0
 42
0.00000001
 43
0.00000001
 40
2.0
 40
2.0
 40
2.0
 40
2.0
 40
3.0
 40
3.0
 40
3.0
 40
3.0
 10
-18.06492886668426
 20
1.814603608696524
 30
0.0
 10
-17.24003965005502
 20
-1.995739949107536
 30
0.0
 10
-15.71186186991051
 20
-9.059523950669432
 30
0.0
 10
-15.69887855542093
 20
-9.119533578677906
 30
0.0
  0
SPLINE
  5
BC
330
74
100
AcDbEntity
  8
0
100
AcDbSpline
210
0.0
220
0.0
230
1.0
 70
     8
 71
     3
 72
     8
 73
     4
 74
     0
 42
0.00000001
 43
0.00000001
 40
0.0
 40
0.0
 40
0.0
 40
0.0
 40
1.0
 40
1.0
 40
1.0
 40
1.0
 10
-6.809537646582547
 20
-5.069709977697404
 30
0.0
 10
-7.284290309572815
 20
-2.875375801708635
 30
0.0
 10
-7.897830097865885
 20
-0.0390758678013329
 30
0.0
 10
-8.296070930952649
 20
1.80204897196991
 30
0.0
  0
SPLINE
  5
BD
330
74
100
AcDbEntity
  8
0
100
AcDbSpline
210
0.0
220
0.0
230
1.0
 70
     8
 71
     3
 72
     8
 73
     4
 74
     0
 42
0.00000001
 43
0.00000001
 40
2.0
 40
2.0
 40
2.0
 40
2.0
 40
3.0
 40
3.0
 40
3.0
 40
3.0
 10
-6.919811195494074
 20
2.099808074263809
 30
0.0
 10
-6.228016878711183
 20
2.249480443098069
 30
0.0
 10
-5.547633595833446
 20
1.815851349115847
 30
0.0
 10
-5.399398884916104
 20
1.130701970100344
 30
0.0
  0
SPLINE
  5
BE
330
74
100
AcDbEntity
  8
0
100
AcDbSpline
210
0.0
220
0.0
230
1.0
 70
     8
 71
     3
 72
     8
 73
     4
 74
     0
 42
0.00000001
 43
0.00000001
 40
3.0
 40
3.0
 40
3.0
 40
3.0
 40
4.0
 40
4.0
 40
4.0
 40
4.0
 10
-5.399398884916104
 20
1.130701970100344
 30
0.0
 10
-5.107009087764085
 20
-0.2207405274728672
 30
0.0
 10
-4.711497421058354
 20
-2.048334586467611
 30
0.0
 10
-4.449160707297047
 20
-3.260870000165379
 30
0.0
  0
SPLINE
  5
BF
330
74
100
AcDbEntity
  8
0
100
AcDbSpline
210
0.0
220
0.0
230
1.0
 70
     8
 71
     3
 72
     8
 73
     4
 74
     0
 42
0.00000001
 43
0.00000001
 40
4.0
 40
4.0
 40
4.0
 40
4.0
 40
5.0
 40
5.0
 40
5.0
 40
5.0
 10
-4.449160707297047
 20
-3.260870000165379
 30
0.0
 10
-4.300905507193207
 20
-3.946114081381999
 30
0.0
 10
-4.741570606399121
 20
-4.622385452066122
 30
0.0
 10
-5.433383135791953
 20
-4.771973641166296
 30
0.0
  0
SPLINE
  5
C0
330
74
100
AcDbEntity
  8
0
100
AcDbSpline
210
0.0
220
0.0
230
1.0
 70
     8
 71
     3
 72
     8
 73
     4
 74
     0
 42
0.00000001
 43
0.00000001
 40
3.0
 40
3.0
 40
3.0
 40
3.0
 40
4.0
 40
4.0
 40
4.0
 40
4.0
 10
-4.494024550545999
 20
-6.695320195210662
 30
0.0
 10
-2.825524345390513
 20
-6.334333740063992
 30
0.0
 10
-1.762658323115034
 20
-4.702068307882374
 30
0.0
 10
-2.120071189640999
 20
-3.049576315093403
 30
0.0
  0
SPLINE
  5
C1
330
74
100
AcDbEntity
  8
0
100
AcDbSpline
210
0.0
220
0.0
230
1.0
 70
     8
 71
     3
 72
     8
 73
     4
 74
     0
 42
0.00000001
 43
0.00000001
 40
4.0
 40
4.0
 40
4.0
 40
4.0
 40
5.0
 40
5.0
 40
5.0
 40
5.0
 10
-2.120071189640999
 20
-3.049576315093403
 30
0.0
 10
-2.485983017556096
 20
-1.358310753073632
 30
0.0
 10
-2.867352798370483
 20
0.4044023583376265
 30
0.0
 10
-3.190995488197396
 20
1.900704823656681
 30
0.0
  0
SPLINE
  5
C2
330
74
100
AcDbEntity
  8
0
100
AcDbSpline
210
0.0
220
0.0
230
1.0
 70
     8
 71
     3
 72
     8
 73
     4
 74
     0
 42
0.00000001
 43
0.00000001
 40
5.0
 40
5.0
 40
5.0
 40
5.0
 40
6.0
 40
6.0
 40
6.0
 40
6.0
 10
-3.190995488197396
 20
1.900704823656681
 30
0.0
 10
-3.54857504695031
 20
3.553458157285876
 30
0.0
 10
-5.190901218780231
 20
4.599949148191988
 30
0.0
 10
-6.859585567104196
 20
4.238922852960538
 30
0.0
  0
SPLINE
  5
C3
330
74
100
AcDbEntity
  8
0
100
AcDbSpline
210
0.0
220
0.0
230
1.0
 70
     8
 71
     3
 72
     8
 73
     4
 74
     0
 42
0.00000001
 43
0.00000001
 40
0.0
 40
0.0
 40
0.0
 40
0.0
 40
1.0
 40
1.0
 40
1.0
 40
1.0
 10
-30.23703582864644
 20
-6.251438951366732
 30
0.0
 10
-30.9104300186728
 20
-6.015603382360459
 30
0.0
 10
-31.40848551125485
 20
-5.893156856121871
 30
0.0
 10
-32.67210357750635
 20
-5.496689523479785
 30
0.0
  0
SPLINE
  5
C4
330
74
100
AcDbEntity
  8
0
100
AcDbSpline
210
0.0
220
0.0
230
1.0
 70
     8
 71
     3
 72
     8
 73
     4
 74
     0
 42
0.00000001
 43
0.00000001
 40
1.0
 40
1.0
 40
1.0
 40
1.0
 40
2.0
 40
2.0
 40
2.0
 40
2.0
 10
-32.67210357750635
 20
-5.496689523479785
 30
0.0
 10
-33.03332194555517
 20
-5.383421617718132
 30
0.0
 10
-33.81210282496122
 20
-5.206692347750555
 30
0.0
 10
-33.94849250952588
 20
-4.576291363356936
 30
0.0
  0
SPLINE
  5
C5
330
74
100
AcDbEntity
  8
0
100
AcDbSpline
210
0.0
220
0.0
230
1.0
 70
     8
 71
     3
 72
     8
 73
     4
 74
     0
 42
0.00000001
 43
0.00000001
 40
2.0
 40
2.0
 40
2.0
 40
2.0
 40
3.0
 40
3.0
 40
3.0
 40
3.0
 10
-33.94849250952588
 20
-4.576291363356936
 30
0.0
 10
-34.11622381965225
 20
-3.801027578894063
 30
0.0
 10
-33.67528356585564
 20
-3.448097454184924
 30
0.0
 10
-32.99335932290604
 20
-3.30056051389548
 30
0.0
  0
SPLINE
  5
C6
330
74
100
AcDbEntity
  8
0
100
AcDbSpline
210
0.0
220
0.0
230
1.0
 70
     8
 71
     3
 72
     8
 73
     4
 74
     0
 42
0.00000001
 43
0.00000001
 40
4.0
 40
4.0
 40
4.0
 40
4.0
 40
5.0
 40
5.0
 40
5.0
 40
5.0
 10
-32.85916630414497
 20
-3.271527336675416
 30
0.0
 10
-32.2786944245911
 20
-3.14594000653005
 30
0.0
 10
-31.77109773641243
 20
-3.328116480283148
 30
0.0
 10
-31.56977211870437
 20
-3.967820152272103
 30
0.0
  0
SPLINE
  5
C7
330
74
100
AcDbEntity
  8
0
100
AcDbSpline
210
0.0
220
0.0
230
1.0
 70
     8
 71
     3
 72
     8
 73
     4
 74
     0
 42
0.00000001
 43
0.00000001
 40
6.0
 40
6.0
 40
6.0
 40
6.0
 40
7.0
 40
7.0
 40
7.0
 40
7.0
 10
-29.29695612428625
 20
-3.476087645143529
 30
0.0
 10
-29.68810071971012
 20
-1.866802583842748
 30
0.0
 10
-30.87776107222441
 20
-0.7599478056671497
 30
0.0
 10
-33.27949204955325
 20
-1.266772121690862
 30
0.0
  0
SPLINE
  5
C8
330
74
100
AcDbEntity
  8
0
100
AcDbSpline
210
0.0
220
0.0
230
1.0
 70
     8
 71
     3
 72
     8
 73
     4
 74
     0
 42
0.00000001
 43
0.00000001
 40
8.0
 40
8.0
 40
8.0
 40
8.0
 40
9.0
 40
9.0
 40
9.0
 40
9.0
 10
-33.34488391931659
 20
-1.280919904944554
 30
0.0
 10
-35.81152992452102
 20
-1.828202838410209
 30
0.0
 10
-36.33378487826545
 20
-3.54465012997844
 30
0.0
 10
-36.09207577942843
 20
-4.962606301827474
 30
0.0
  0
SPLINE
  5
C9
330
74
100
AcDbEntity
  8
0
100
AcDbSpline
210
0.0
220
0.0
230
1.0
 70
     8
 71
     3
 72
     8
 73
     4
 74
     0
 42
0.00000001
 43
0.00000001
 40
9.0
 40
9.0
 40
9.0
 40
9.0
 40
10.0
 40
10.0
 40
10.0
 40
10.0
 10
-36.09207577942843
 20
-4.962606301827474
 30
0.0
 10
-35.83736690020325
 20
-6.457652824126185
 30
0.0
 10
-34.96800490008025
 20
-7.196828812263726
 30
0.0
 10
-33.99931718292642
 20
-7.502708028683521
 30
0.0
  0
SPLINE
  5
CA
330
74
100
AcDbEntity
  8
0
100
AcDbSpline
210
0.0
220
0.0
230
1.0
 70
     8
 71
     3
 72
     8
 73
     4
 74
     0
 42
0.00000001
 43
0.00000001
 40
10.0
 40
10.0
 40
10.0
 40
10.0
 40
11.0
 40
11.0
 40
11.0
 40
11.0
 10
-33.99931718292642
 20
-7.502708028683521
 30
0.0
 10
-33.40907414696034
 20
-7.689011641945549
 30
0.0
 10
-32.48616403135102
 20
-7.975318844696811
 30
0.0
 10
-31.47547483016511
 20
-8.271505052332133
 30
0.0
  0
SPLINE
  5
CB
330
74
100
AcDbEntity
  8
0
100
AcDbSpline
210
0.0
220
0.0
230
1.0
 70
     8
 71
     3
 72
     8
 73
     4
 74
     0
 42
0.00000001
 43
0.00000001
 40
11.0
 40
11.0
 40
11.0
 40
11.0
 40
12.0
 40
12.0
 40
12.0
 40
12.0
 10
-31.47547483016511
 20
-8.271505052332133
 30
0.0
 10
-31.11213516930565
 20
-8.377980375833697
 30
0.0
 10
-30.40258052645035
 20
-8.55729511966404
 30
0.0
 10
-30.28870163819746
 20
-9.336631754491275
 30
0.0
  0
SPLINE
  5
CC
330
74
100
AcDbEntity
  8
0
100
AcDbSpline
210
0.0
220
0.0
230
1.0
 70
     8
 71
     3
 72
     8
 73
     4
 74
     0
 42
0.00000001
 43
0.00000001
 40
12.0
 40
12.0
 40
12.0
 40
12.0
 40
13.0
 40
13.0
 40
13.0
 40
13.0
 10
-30.28870163819746
 20
-9.336631754491275
 30
0.0
 10
-30.1883718252622
 20
-10.02498578462436
 30
0.0
 10
-30.64014408852681
 20
-10.43662327702193
 30
0.0
 10
-31.32890793487913
 20
-10.58563999188937
 30
0.0
  0
SPLINE
  5
CD
330
74
100
AcDbEntity
  8
0
100
AcDbSpline
210
0.0
220
0.0
230
1.0
 70
     8
 71
     3
 72
     8
 73
     4
 74
     0
 42
0.00000001
 43
0.00000001
 40
14.0
 40
14.0
 40
14.0
 40
14.0
 40
15.0
 40
15.0
 40
15.0
 40
15.0
 10
-31.46505813246006
 20
-10.61509661229636
 30
0.0
 10
-32.05208024758041
 20
-10.74210111117219
 30
0.0
 10
-32.71260096537058
 20
-10.55064660173623
 30
0.0
 10
-32.8822392924921
 20
-9.937760156430087
 30
0.0
  0
SPLINE
  5
CE
330
74
100
AcDbEntity
  8
0
100
AcDbSpline
210
0.0
220
0.0
230
1.0
 70
     8
 71
     3
 72
     8
 73
     4
 74
     0
 42
0.00000001
 43
0.00000001
 40
16.0
 40
16.0
 40
16.0
 40
16.0
 40
17.0
 40
17.0
 40
17.0
 40
17.0
 10
-35.1888692338865
 20
-10.43680844141459
 30
0.0
 10
-34.81471685749703
 20
-11.8843133271045
 30
0.0
 10
-33.72975075395794
 20
-12.95131992706823
 30
0.0
 10
-31.59496833044066
 20
-12.72957879515504
 30
0.0
  0
SPLINE
  5
CF
330
74
100
AcDbEntity
  8
0
100
AcDbSpline
210
0.0
220
0.0
230
1.0
 70
     8
 71
     3
 72
     8
 73
     4
 74
     0
 42
0.00000001
 43
0.00000001
 40
18.0
 40
18.0
 40
18.0
 40
18.0
 40
19.0
 40
19.0
 40
19.0
 40
19.0
 10
-30.20639204762402
 20
-12.42915496033268
 30
0.0
 10
-28.36320980349184
 20
-11.79454394754582
 30
0.0
 10
-27.78707037380765
 20
-10.41512978795686
 30
0.0
 10
-27.91988511866083
 20
-9.073464993912006
 30
0.0
  0
SPLINE
  5
D0
330
74
100
AcDbEntity
  8
0
100
AcDbSpline
210
0.0
220
0.0
230
1.0
 70
     8
 71
     3
 72
     8
 73
     4
 74
     0
 42
0.00000001
 43
0.00000001
 40
19.0
 40
19.0
 40
19.0
 40
19.0
 40
20.0
 40
20.0
 40
20.0
 40
20.0
 10
-27.91988511866083
 20
-9.073464993912006
 30
0.0
 10
-28.12563217330358
 20
-6.994152508733083
 30
0.0
 10
-29.51271678483619
 20
-6.50510505043454
 30
0.0
 10
-30.23703582864644
 20
-6.251438951366732
 30
0.0
  0
HATCH
  5
D1
330
74
100
AcDbEntity
  8
0
100
AcDbHatch
 10
0.0
 20
0.0
 30
0.0
210
0.0
220
0.0
230
1.0
  2
SOLID
 70
     1
 71
     0
 91
        1
 92
        0
 93
        7
 72
     1
 10
-53.06293521179145
 20
-11.48017794540906
 11
-53.0628942334185
 21
-11.48036734981106
 72
     1
 10
-53.0628942334185
 20
-11.48036734981106
 11
-50.18135879739363
 21
-10.85693604353014
 72
     1
 10
-50.18135879739363
 20
-10.85693604353014
 11
-47.91273279754322
 21
-7.399227366744369
 72
     1
 10
-47.91273279754322
 20
-7.399227366744369
 11
-51.40738209617635
 21
-5.188811056417426
 72
     1
 10
-51.40738209617635
 20
-5.188811056417426
 11
-54.28910693660305
 21
-5.812283341071309
 72
     1
 10
-54.28910693660305
 20
-5.812283341071309
 11
-50.79453412756107
 21
-8.022804320319173
 72
     1
 10
-50.79453412756107
 20
-8.022804320319173
 11
-53.06293521179145
 21
-11.48017794540906
 97
        0
 75
     0
 76
     1
 98
        1
 10
0.0
 20
0.0
  0
HATCH
  5
D2
330
74
100
AcDbEntity
  8
0
100
AcDbHatch
 10
0.0
 20
0.0
 30
0.0
210
0.0
220
0.0
230
1.0
  2
SOLID
 70
     1
 71
     0
 91
        1
 92
        0
 93
        6
 72
     1
 10
-41.53588964704281
 20
-8.986455445432597
 11
-44.41771445090438
 21
-9.609949357561213
 72
     1
 10
-44.41771445090438
 20
-9.609949357561213
 11
-46.68624347197728
 21
-13.06764806762683
 72
     1
 10
-46.68624347197728
 20
-13.06764806762683
 11
-43.23827248082917
 21
-15.24865255879992
 72
     1
 10
-43.23827248082917
 20
-15.24865255879992
 11
-40.35645293820115
 21
-14.62515978495947
 72
     1
 10
-40.35645293820115
 20
-14.62515978495947
 11
-43.80454139731328
 21
-12.44407055830516
 72
     1
 10
-43.80454139731328
 20
-12.44407055830516
 11
-41.53588964704281
 21
-8.986455445432597
 97
        0
 75
     0
 76
     1
 98
        1
 10
0.0
 20
0.0
  0
HATCH
  5
D3
330
74
100
AcDbEntity
  8
0
100
AcDbHatch
 10
0.0
 20
0.0
 30
0.0
210
0.0
220
0.0
230
1.0
  2
SOLID
 70
     1
 71
     0
 91
        1
 92
        0
 93
       20
 72
     4
 94
        3
 73
     1
 74
     0
 95
        8
 96
        4
 40
18.0
 40
18.0
 40
18.0
 40
18.0
 40
19.0
 40
19.0
 40
19.0
 40
19.0
 10
-30.20639204762402
 20
-12.42915496033267
 42
1.0
 10
-28.36320980349188
 20
-11.79454394754584
 42
1.0
 10
-27.78707037380775
 20
-10.41512978795687
 42
1.0
 10
-27.91988511866085
 20
-9.073464993912015
 42
1.0
 72
     4
 94
        3
 73
     1
 74
     0
 95
        8
 96
        4
 40
19.0
 40
19.0
 40
19.0
 40
19.0
 40
20.0
 40
20.0
 40
20.0
 40
20.0
 10
-27.91988511866085
 20
-9.073464993912015
 42
1.0
 10
-28.1256321733036
 20
-6.994152508733093
 42
1.0
 10
-29.51271678483624
 20
-6.505105050434554
 42
1.0
 10
-30.23703582864647
 20
-6.251438951366739
 42
1.0
 72
     4
 94
        3
 73
     1
 74
     0
 95
        8
 96
        4
 40
0.0
 40
0.0
 40
0.0
 40
0.0
 40
1.0
 40
1.0
 40
1.0
 40
1.0
 10
-30.23703582864647
 20
-6.251438951366739
 42
1.0
 10
-30.91043001867278
 20
-6.015603382360466
 42
1.0
 10
-31.40848551125484
 20
-5.893156856121866
 42
1.0
 10
-32.67210357750633
 20
-5.496689523479784
 42
1.0
 72
     4
 94
        3
 73
     1
 74
     0
 95
        8
 96
        4
 40
1.0
 40
1.0
 40
1.0
 40
1.0
 40
2.0
 40
2.0
 40
2.0
 40
2.0
 10
-32.67210357750633
 20
-5.496689523479784
 42
1.0
 10
-33.03332194555515
 20
-5.383421617718138
 42
1.0
 10
-33.81210282496121
 20
-5.206692347750558
 42
1.0
 10
-33.94849250952591
 20
-4.576291363356954
 42
1.0
 72
     4
 94
        3
 73
     1
 74
     0
 95
        8
 96
        4
 40
2.0
 40
2.0
 40
2.0
 40
2.0
 40
3.0
 40
3.0
 40
3.0
 40
3.0
 10
-33.94849250952591
 20
-4.576291363356954
 42
1.0
 10
-34.11622381965228
 20
-3.801027578894066
 42
1.0
 10
-33.67528356585566
 20
-3.448097454184939
 42
1.0
 10
-32.99335932290605
 20
-3.300560513895483
 42
1.0
 72
     1
 10
-32.99335932290605
 20
-3.300560513895483
 11
-32.85916630414502
 21
-3.271527336675422
 72
     4
 94
        3
 73
     1
 74
     0
 95
        8
 96
        4
 40
4.0
 40
4.0
 40
4.0
 40
4.0
 40
5.0
 40
5.0
 40
5.0
 40
5.0
 10
-32.85916630414502
 20
-3.271527336675422
 42
1.0
 10
-32.27869442459117
 20
-3.145940006530068
 42
1.0
 10
-31.77109773641243
 20
-3.328116480283154
 42
1.0
 10
-31.5697721187044
 20
-3.967820152272114
 42
1.0
 72
     1
 10
-31.5697721187044
 20
-3.967820152272114
 11
-29.29695612428624
 21
-3.476087645143523
 72
     4
 94
        3
 73
     1
 74
     0
 95
        8
 96
        4
 40
6.0
 40
6.0
 40
6.0
 40
6.0
 40
7.0
 40
7.0
 40
7.0
 40
7.0
 10
-29.2969561242863
 20
-3.476087645143538
 42
1.0
 10
-29.6881007197101
 20
-1.866802583842747
 42
1.0
 10
-30.87776107222446
 20
-0.7599478056671519
 42
1.0
 10
-33.27949204955327
 20
-1.266772121690873
 42
1.0
 72
     1
 10
-33.27949204955321
 20
-1.266772121690857
 11
-33.3448839193166
 21
-1.280919904944549
 72
     4
 94
        3
 73
     1
 74
     0
 95
        8
 96
        4
 40
8.0
 40
8.0
 40
8.0
 40
8.0
 40
9.0
 40
9.0
 40
9.0
 40
9.0
 10
-33.34488391931666
 20
-1.280919904944565
 42
1.0
 10
-35.8115299245211
 20
-1.828202838410234
 42
1.0
 10
-36.3337848782655
 20
-3.544650129978449
 42
1.0
 10
-36.09207577942846
 20
-4.962606301827486
 42
1.0
 72
     4
 94
        3
 73
     1
 74
     0
 95
        8
 96
        4
 40
9.0
 40
9.0
 40
9.0
 40
9.0
 40
10.0
 40
10.0
 40
10.0
 40
10.0
 10
-36.09207577942846
 20
-4.962606301827486
 42
1.0
 10
-35.83736690020323
 20
-6.457652824126184
 42
1.0
 10
-34.96800490008029
 20
-7.196828812263736
 42
1.0
 10
-33.99931718292643
 20
-7.502708028683525
 42
1.0
 72
     4
 94
        3
 73
     1
 74
     0
 95
        8
 96
        4
 40
10.0
 40
10.0
 40
10.0
 40
10.0
 40
11.0
 40
11.0
 40
11.0
 40
11.0
 10
-33.99931718292643
 20
-7.502708028683525
 42
1.0
 10
-33.40907414696031
 20
-7.689011641945555
 42
1.0
 10
-32.48616403135106
 20
-7.975318844696822
 42
1.0
 10
-31.47547483016516
 20
-8.27150505233215
 42
1.0
 72
     4
 94
        3
 73
     1
 74
     0
 95
        8
 96
        4
 40
11.0
 40
11.0
 40
11.0
 40
11.0
 40
12.0
 40
12.0
 40
12.0
 40
12.0
 10
-31.47547483016516
 20
-8.27150505233215
 42
1.0
 10
-31.11213516930568
 20
-8.377980375833708
 42
1.0
 10
-30.40258052645039
 20
-8.557295119664056
 42
1.0
 10
-30.28870163819752
 20
-9.336631754491272
 42
1.0
 72
     4
 94
        3
 73
     1
 74
     0
 95
        8
 96
        4
 40
12.0
 40
12.0
 40
12.0
 40
12.0
 40
13.0
 40
13.0
 40
13.0
 40
13.0
 10
-30.28870163819752
 20
-9.336631754491272
 42
1.0
 10
-30.18837182526216
 20
-10.02498578462435
 42
1.0
 10
-30.64014408852681
 20
-10.43662327702195
 42
1.0
 10
-31.32890793487914
 20
-10.58563999188937
 42
1.0
 72
     1
 10
-31.32890793487914
 20
-10.58563999188937
 11
-31.46505813246008
 21
-10.61509661229637
 72
     4
 94
        3
 73
     1
 74
     0
 95
        8
 96
        4
 40
14.0
 40
14.0
 40
14.0
 40
14.0
 40
15.0
 40
15.0
 40
15.0
 40
15.0
 10
-31.46505813246008
 20
-10.61509661229637
 42
1.0
 10
-32.05208024758041
 20
-10.7421011111722
 42
1.0
 10
-32.71260096537064
 20
-10.55064660173623
 42
1.0
 10
-32.88223929249212
 20
-9.937760156430087
 42
1.0
 72
     1
 10
-32.88223929249212
 20
-9.937760156430087
 11
-35.18886923388655
 21
-10.43680844141459
 72
     4
 94
        3
 73
     1
 74
     0
 95
        8
 96
        4
 40
16.0
 40
16.0
 40
16.0
 40
16.0
 40
17.0
 40
17.0
 40
17.0
 40
17.0
 10
-35.18886923388649
 20
-10.43680844141459
 42
1.0
 10
-34.81471685749708
 20
-11.88431332710451
 42
1.0
 10
-33.72975075395801
 20
-12.95131992706824
 42
1.0
 10
-31.59496833044075
 20
-12.72957879515506
 42
1.0
 72
     1
 10
-31.59496833044068
 20
-12.72957879515504
 11
-30.20639204762409
 21
-12.42915496033269
 97
        0
 75
     0
 76
     1
 98
        1
 10
0.0
 20
0.0
  0
HATCH
  5
D4
330
74
100
AcDbEntity
  8
0
100
AcDbHatch
 10
0.0
 20
0.0
 30
0.0
210
0.0
220
0.0
230
1.0
  2
SOLID
 70
     1
 71
     0
 91
        1
 92
        0
 93
       11
 72
     1
 10
-23.93083334830058
 20
-6.656177916224847
 11
-23.9305586195879
 21
-1.497666803489873
 72
     1
 10
-23.9305586195879
 20
-1.497666803489873
 11
-20.04326836721582
 21
-10.05945907169815
 72
     1
 10
-20.04326836721582
 20
-10.05945907169815
 11
-17.66870538033285
 21
-9.545713210289948
 72
     1
 10
-17.66870538033285
 20
-9.545713210289948
 11
-22.39983793591613
 21
0.8767293108990284
 72
     1
 10
-22.39983793591613
 20
0.8767293108990277
 11
-26.30586704316552
 21
0.0316448471579831
 72
     1
 10
-26.30586704316552
 20
0.0316448471579831
 11
-26.30567237753049
 21
-11.41435433475813
 72
     1
 10
-26.30567237753049
 20
-11.41435433475813
 11
-23.93111465188077
 21
-10.90060961163804
 72
     1
 10
-23.93111465188077
 20
-10.90060961163804
 11
-23.93099314235586
 21
-8.782594625323274
 72
     1
 10
-23.93099314235586
 20
-8.782594625323274
 11
-22.27383089514867
 21
-8.42406118111162
 72
     1
 10
-22.27383089514867
 20
-8.42406118111162
 11
-22.7133102853523
 21
-6.392762105309743
 72
     1
 10
-22.7133102853523
 20
-6.392762105309743
 11
-23.93083334830058
 21
-6.656177916224847
 97
        0
 75
     0
 76
     1
 98
        1
 10
0.0
 20
0.0
  0
HATCH
  5
D5
330
74
100
AcDbEntity
  8
0
100
AcDbHatch
 10
0.0
 20
0.0
 30
0.0
210
0.0
220
0.0
230
1.0
  2
SOLID
 70
     1
 71
     0
 91
        1
 92
        0
 93
        6
 72
     1
 10
-15.79563263740209
 20
2.305574601061446
 11
-18.06492886668423
 21
1.814603608696526
 72
     4
 94
        3
 73
     1
 74
     0
 95
        8
 96
        4
 40
2.0
 40
2.0
 40
2.0
 40
2.0
 40
3.0
 40
3.0
 40
3.0
 40
3.0
 10
-18.06492886668423
 20
1.814603608696526
 42
1.0
 10
-17.240039650055
 20
-1.995739949107533
 42
1.0
 10
-15.71186186991055
 20
-9.059523950669437
 42
1.0
 10
-15.69887855542098
 20
-9.119533578677919
 42
1.0
 72
     1
 10
-15.69887855542092
 20
-9.119533578677903
 11
-10.22610149671526
 21
-7.93547715235816
 72
     1
 10
-10.22610149671526
 20
-7.93547715235816
 11
-10.66558088691882
 21
-5.904178076556605
 72
     1
 10
-10.66558088691882
 20
-5.904178076556605
 11
-13.86994560355126
 21
-6.597454742918437
 72
     4
 94
        3
 73
     1
 74
     0
 95
        8
 96
        4
 40
0.0
 40
0.0
 40
0.0
 40
0.0
 40
1.0
 40
1.0
 40
1.0
 40
1.0
 10
-13.86994560355126
 20
-6.597454742918437
 42
1.0
 10
-13.88373254946556
 20
-6.533730684138598
 42
1.0
 10
-15.1136551579741
 20
-0.8489574873494129
 42
1.0
 10
-15.79563263740209
 20
2.305574601061446
 42
1.0
 97
        0
 75
     0
 76
     1
 98
        1
 10
0.0
 20
0.0
  0
HATCH
  5
D6
330
74
100
AcDbEntity
  8
0
100
AcDbHatch
 10
0.0
 20
0.0
 30
0.0
210
0.0
220
0.0
230
1.0
  2
SOLID
 70
     1
 71
     0
 91
        1
 92
        0
 93
       11
 72
     1
 10
2.375028433631206
 20
-0.9648032523823513
 11
2.375208460142868
 21
4.193687371166118
 72
     1
 10
2.375208460142868
 20
4.193687371166118
 11
6.262509234981617
 21
-4.368102620465918
 72
     1
 10
6.262509234981617
 20
-4.368102620465917
 11
8.637061699398163
 21
-3.854359035633896
 72
     1
 10
8.637061699398163
 20
-3.854359035633896
 11
3.905939666281055
 21
6.568085762131229
 72
     1
 10
3.905939666281055
 20
6.56808576213123
 11
-0.0000000000001235
 21
5.723020649288631
 72
     1
 10
-0.0000000000001234
 20
5.723020649288631
 11
-0.000000000000185
 21
-5.723020649288538
 72
     1
 10
-0.000000000000185
 20
-5.723020649288538
 11
2.37465768908423
 21
-5.20925429869377
 72
     1
 10
2.37465768908423
 20
-5.20925429869377
 11
2.374784459841949
 21
-3.091238174090979
 72
     1
 10
2.374784459841949
 20
-3.091238174090979
 11
4.031830959914354
 21
-2.732729772218408
 72
     1
 10
4.031830959914354
 20
-2.732729772218408
 11
3.592351569710606
 21
-0.701430696416514
 72
     1
 10
3.592351569710606
 20
-0.7014306964165138
 11
2.375028433631206
 21
-0.9648032523823513
 97
        0
 75
     0
 76
     1
 98
        1
 10
0.0
 20
0.0
  0
HATCH
  5
D7
330
74
100
AcDbEntity
  8
0
100
AcDbHatch
 10
0.0
 20
0.0
 30
0.0
210
0.0
220
0.0
230
1.0
  2
SOLID
 70
     1
 71
     0
 91
        1
 92
        0
 93
        8
 72
     1
 10
-42.14906497721024
 20
-6.152323722221632
 11
-42.76219705242848
 21
-3.318391925879333
 72
     1
 10
-42.76219705242848
 20
-3.318391925879333
 11
-42.76249168149826
 21
-3.318455670015027
 72
     1
 10
-42.76249168149826
 20
-3.318455670015027
 11
-45.03079507887072
 21
-6.775797145163721
 72
     1
 10
-45.03079507887072
 20
-6.775797145163721
 11
-48.52545732888054
 21
-4.565295516814268
 72
     1
 10
-48.52545732888054
 20
-4.565295516814268
 11
-48.52574669671678
 21
-4.565358122661792
 72
     1
 10
-48.52574669671678
 20
-4.565358122661792
 11
-47.91261462149855
 21
-7.39928991900409
 72
     1
 10
-47.91261462149855
 20
-7.39928991900409
 11
-44.41773721666716
 21
-9.60984413289331
 72
     1
 10
-44.41773721666716
 20
-9.60984413289331
 11
-42.14906497721024
 21
-6.152323722221632
 97
        0
 75
     0
 76
     1
 98
        1
 10
0.0
 20
0.0
  0
HATCH
  5
D8
330
74
100
AcDbEntity
  8
0
100
AcDbHatch
 10
0.0
 20
0.0
 30
0.0
210
0.0
220
0.0
230
1.0
  2
SOLID
 70
     1
 71
     0
 91
        1
 92
        0
 93
        8
 72
     1
 10
-46.11999732125613
 20
-15.87212484345383
 11
-46.08139565189786
 21
-15.8637732233933
 72
     1
 10
-46.08139565189786
 20
-15.8637732233933
 11
-46.68636620117444
 21
-13.06756447043367
 72
     1
 10
-46.68636620117444
 20
-13.06756447043367
 11
-50.18135879739361
 21
-10.85693604353009
 72
     1
 10
-50.18135879739361
 20
-10.85693604353009
 11
-52.44976215820033
 21
-14.31429914615315
 72
     1
 10
-52.44976215820033
 20
-14.31429914615315
 11
-51.84475063055083
 21
-17.11069730351469
 72
     1
 10
-51.84475063055083
 20
-17.11069730351469
 11
-51.80633836559459
 21
-17.1023866618271
 72
     1
 10
-51.80633836559459
 20
-17.1023866618271
 11
-49.56818574380249
 21
-13.69105724427409
 72
     1
 10
-49.56818574380249
 20
-13.69105724427409
 11
-46.11999732125613
 21
-15.87212484345383
 97
        0
 75
     0
 76
     1
 98
        1
 10
0.0
 20
0.0
  0
HATCH
  5
D9
330
74
100
AcDbEntity
  8
0
100
AcDbHatch
 10
0.0
 20
0.0
 30
0.0
210
0.0
220
0.0
230
1.0
  2
SOLID
 70
     1
 71
     0
 91
        2
 92
        0
 93
        7
 72
     1
 10
-6.859585567104196
 20
4.238922852960538
 11
-11.00449045380928
 21
3.342156692939393
 72
     1
 10
-11.00449045380928
 20
3.342156692939393
 11
-8.638829473816639
 21
-7.592064727757185
 72
     1
 10
-8.638829473816639
 20
-7.592064727757185
 11
-8.63844014254617
 21
-7.591980494435086
 72
     1
 10
-8.63844014254617
 20
-7.591980494435086
 11
-4.494024550545999
 21
-6.695320195210662
 72
     4
 94
        3
 73
     1
 74
     0
 95
        8
 96
        4
 40
3.0
 40
3.0
 40
3.0
 40
3.0
 40
4.0
 40
4.0
 40
4.0
 40
4.0
 10
-4.494024550545999
 20
-6.695320195210662
 42
1.0
 10
-2.825524345390513
 20
-6.334333740063992
 42
1.0
 10
-1.762658323115034
 20
-4.702068307882374
 42
1.0
 10
-2.120071189640999
 20
-3.049576315093403
 42
1.0
 72
     4
 94
        3
 73
     1
 74
     0
 95
        8
 96
        4
 40
4.0
 40
4.0
 40
4.0
 40
4.0
 40
5.0
 40
5.0
 40
5.0
 40
5.0
 10
-2.120071189640999
 20
-3.049576315093403
 42
1.0
 10
-2.485983017556096
 20
-1.358310753073632
 42
1.0
 10
-2.867352798370483
 20
0.4044023583376265
 42
1.0
 10
-3.190995488197396
 20
1.900704823656681
 42
1.0
 72
     4
 94
        3
 73
     1
 74
     0
 95
        8
 96
        4
 40
5.0
 40
5.0
 40
5.0
 40
5.0
 40
6.0
 40
6.0
 40
6.0
 40
6.0
 10
-3.190995488197396
 20
1.900704823656681
 42
1.0
 10
-3.54857504695031
 20
3.553458157285876
 42
1.0
 10
-5.190901218780231
 20
4.599949148191988
 42
1.0
 10
-6.859585567104196
 20
4.238922852960538
 42
1.0
 97
        0
 92
        0
 93
        6
 72
     4
 94
        3
 73
     1
 74
     0
 95
        8
 96
        4
 40
2.0
 40
2.0
 40
2.0
 40
2.0
 40
3.0
 40
3.0
 40
3.0
 40
3.0
 10
-6.919811195494074
 20
2.099808074263809
 42
1.0
 10
-6.228016878711183
 20
2.249480443098069
 42
1.0
 10
-5.547633595833446
 20
1.815851349115847
 42
1.0
 10
-5.399398884916104
 20
1.130701970100344
 42
1.0
 72
     4
 94
        3
 73
     1
 74
     0
 95
        8
 96
        4
 40
3.0
 40
3.0
 40
3.0
 40
3.0
 40
4.0
 40
4.0
 40
4.0
 40
4.0
 10
-5.399398884916104
 20
1.130701970100344
 42
1.0
 10
-5.107009087764085
 20
-0.2207405274728672
 42
1.0
 10
-4.711497421058354
 20
-2.048334586467611
 42
1.0
 10
-4.449160707297047
 20
-3.260870000165379
 42
1.0
 72
     4
 94
        3
 73
     1
 74
     0
 95
        8
 96
        4
 40
4.0
 40
4.0
 40
4.0
 40
4.0
 40
5.0
 40
5.0
 40
5.0
 40
5.0
 10
-4.449160707297047
 20
-3.260870000165379
 42
1.0
 10
-4.300905507193207
 20
-3.946114081381999
 42
1.0
 10
-4.741570606399121
 20
-4.622385452066122
 42
1.0
 10
-5.433383135791953
 20
-4.771973641166296
 42
1.0
 72
     1
 10
-5.433383135791953
 20
-4.771973641166296
 11
-6.809537646582547
 21
-5.069709977697404
 72
     4
 94
        3
 73
     1
 74
     0
 95
        8
 96
        4
 40
0.0
 40
0.0
 40
0.0
 40
0.0
 40
1.0
 40
1.0
 40
1.0
 40
1.0
 10
-6.809537646582547
 20
-5.069709977697404
 42
1.0
 10
-7.284290309572815
 20
-2.875375801708635
 42
1.0
 10
-7.897830097865885
 20
-0.0390758678013329
 42
1.0
 10
-8.296070930952649
 20
1.80204897196991
 42
1.0
 72
     1
 10
-8.296070930952649
 20
1.80204897196991
 11
-6.919811195494074
 21
2.099808074263809
 97
        0
 75
     0
 76
     1
 98
        1
 10
0.0
 20
0.0
  0
ENDBLK
  5
76
330
74
100
AcDbEntity
  8
0
100
AcDbBlockEnd
  0
BLOCK
  5
26F
330
26E
100
AcDbEntity
  8
0
100
AcDbBlockBegin
  2
SW_CENTERMARKSYMBOL_0
 70
     0
 10
0.0
 20
0.0
 30
0.0
  3
SW_CENTERMARKSYMBOL_0
  1

  0
LINE
  5
271
330
26E
100
AcDbEntity
  8
0
  6
Continuous
 62
     0
370
    18
100
AcDbLine
 10
0.0
 20
0.0
 30
0.0
 11
0.0
 21
2.5
 31
0.0
  0
LINE
  5
272
330
26E
100
AcDbEntity
  8
0
  6
Continuous
 62
     0
370
    18
100
AcDbLine
 10
0.0
 20
0.0
 30
0.0
 11
-2.5
 21
0.0
 31
0.0
  0
LINE
  5
273
330
26E
100
AcDbEntity
  8
0
  6
Continuous
 62
     0
370
    18
100
AcDbLine
 10
0.0
 20
0.0
 30
0.0
 11
0.0
 21
-2.5
 31
0.0
  0
LINE
  5
274
330
26E
100
AcDbEntity
  8
0
  6
Continuous
 62
     0
370
    18
100
AcDbLine
 10
0.0
 20
0.0
 30
0.0
 11
2.5
 21
0.0
 31
0.0
  0
LINE
  5
275
330
26E
100
AcDbEntity
  8
0
  6
Continuous
 62
     0
370
    18
100
AcDbLine
 10
0.0
 20
5.0
 30
0.0
 11
0.0
 21
100.5
 31
0.0
  0
LINE
  5
276
330
26E
100
AcDbEntity
  8
0
  6
Continuous
 62
     0
370
    18
100
AcDbLine
 10
-5.0
 20
0.0
 30
0.0
 11
-100.5
 21
0.0
 31
0.0
  0
LINE
  5
277
330
26E
100
AcDbEntity
  8
0
  6
Continuous
 62
     0
370
    18
100
AcDbLine
 10
0.0
 20
-5.0
 30
0.0
 11
0.0
 21
-100.5
 31
0.0
  0
LINE
  5
278
330
26E
100
AcDbEntity
  8
0
  6
Continuous
 62
     0
370
    18
100
AcDbLine
 10
5.0
 20
0.0
 30
0.0
 11
100.5
 21
0.0
 31
0.0
  0
ENDBLK
  5
270
330
26E
100
AcDbEntity
  8
0
100
AcDbBlockEnd
  0
ENDSEC
  0
SECTION
  2
ENTITIES
  0
ARC
  5
DA
330
1F
100
AcDbEntity
  8
0
100
AcDbCircle
 10
111.1259172026
 20
59.954655409
 30
0.0
 40
0.2000000000000028
100
AcDbArc
 50
90.0
 51
180.0
  0
ARC
  5
DB
330
1F
100
AcDbEntity
  8
0
100
AcDbCircle
 10
121.7259172026
 20
59.954655409
 30
0.0
 40
0.2000000000000028
100
AcDbArc
 50
0.0
 51
90.0
  0
LINE
  5
DC
330
1F
100
AcDbEntity
  8
0
100
AcDbLine
 10
110.9259172026
 20
59.954655409
 30
0.0
 11
110.9259172026
 21
59.354655409
 31
0.0
  0
LINE
  5
DD
330
1F
100
AcDbEntity
  8
0
100
AcDbLine
 10
121.9259172026
 20
59.354655409
 30
0.0
 11
121.9259172026
 21
59.954655409
 31
0.0
  0
ARC
  5
DE
330
1F
100
AcDbEntity
  8
0
100
AcDbCircle
 10
111.1259172026
 20
59.354655409
 30
0.0
 40
0.2000000000000028
100
AcDbArc
 50
180.0
 51
270.0
  0
ARC
  5
DF
330
1F
100
AcDbEntity
  8
0
100
AcDbCircle
 10
121.7259172026
 20
59.354655409
 30
0.0
 40
0.2000000000000028
100
AcDbArc
 50
270.0
 51
0.0
  0
ARC
  5
E0
330
1F
100
AcDbEntity
  8
0
100
AcDbCircle
 10
116.0357796652
 20
66.1451367901
 30
0.0
 40
7.999999999999997
100
AcDbArc
 50
287.1467397277
 51
299.0955287963
  0
ARC
  5
E1
330
1F
100
AcDbEntity
  8
0
100
AcDbCircle
 10
116.8160547401
 20
66.1451367901
 30
0.0
 40
7.999999999999999
100
AcDbArc
 50
240.9044712037
 51
252.8515803462
  0
ARC
  5
E2
330
1F
100
AcDbEntity
  8
0
100
AcDbCircle
 10
121.7259172026
 20
361.954655409
 30
0.0
 40
0.2000000000000028
100
AcDbArc
 50
0.0
 51
90.0
  0
ARC
  5
E3
330
1F
100
AcDbEntity
  8
0
100
AcDbCircle
 10
111.1259172026
 20
361.954655409
 30
0.0
 40
0.2000000000000028
100
AcDbArc
 50
90.0
 51
180.0
  0
ARC
  5
E4
330
1F
100
AcDbEntity
  8
0
100
AcDbCircle
 10
121.7259172026
 20
361.354655409
 30
0.0
 40
0.2000000000000028
100
AcDbArc
 50
270.0
 51
0.0
  0
ARC
  5
E5
330
1F
100
AcDbEntity
  8
0
100
AcDbCircle
 10
111.1259172026
 20
361.354655409
 30
0.0
 40
0.2000000000000028
100
AcDbArc
 50
180.0
 51
270.0
  0
LINE
  5
E6
330
1F
100
AcDbEntity
  8
0
100
AcDbLine
 10
121.9259172026
 20
361.354655409
 30
0.0
 11
121.9259172026
 21
361.954655409
 31
0.0
  0
LINE
  5
E7
330
1F
100
AcDbEntity
  8
0
100
AcDbLine
 10
110.9259172026
 20
361.954655409
 30
0.0
 11
110.9259172026
 21
361.354655409
 31
0.0
  0
ARC
  5
E8
330
1F
100
AcDbEntity
  8
0
100
AcDbCircle
 10
116.8160547401
 20
355.1641740279
 30
0.0
 40
7.999999999999997
100
AcDbArc
 50
107.1467397277
 51
119.0955287963
  0
ARC
  5
E9
330
1F
100
AcDbEntity
  8
0
100
AcDbCircle
 10
116.0357796652
 20
355.1641740279
 30
0.0
 40
7.999999999999936
100
AcDbArc
 50
60.9044712037
 51
72.8515803462
  0
ARC
  5
EA
330
1F
100
AcDbEntity
  8
0
100
AcDbCircle
 10
-168.8740827974
 20
59.954655409
 30
0.0
 40
0.2000000000000171
100
AcDbArc
 50
90.0
 51
180.0
  0
ARC
  5
EB
330
1F
100
AcDbEntity
  8
0
100
AcDbCircle
 10
-158.2740827974
 20
59.954655409
 30
0.0
 40
0.1999999999999886
100
AcDbArc
 50
0.0
 51
90.0
  0
LINE
  5
EC
330
1F
100
AcDbEntity
  8
0
100
AcDbLine
 10
-169.0740827974
 20
59.954655409
 30
0.0
 11
-169.0740827974
 21
59.354655409
 31
0.0
  0
LINE
  5
ED
330
1F
100
AcDbEntity
  8
0
100
AcDbLine
 10
-158.0740827974
 20
59.354655409
 30
0.0
 11
-158.0740827974
 21
59.954655409
 31
0.0
  0
ARC
  5
EE
330
1F
100
AcDbEntity
  8
0
100
AcDbCircle
 10
-168.8740827974
 20
59.354655409
 30
0.0
 40
0.2000000000000171
100
AcDbArc
 50
180.0
 51
270.0
  0
ARC
  5
EF
330
1F
100
AcDbEntity
  8
0
100
AcDbCircle
 10
-158.2740827974
 20
59.354655409
 30
0.0
 40
0.1999999999999886
100
AcDbArc
 50
270.0
 51
0.0
  0
ARC
  5
F0
330
1F
100
AcDbEntity
  8
0
100
AcDbCircle
 10
-163.9642203348
 20
66.1451367901
 30
0.0
 40
7.999999999999997
100
AcDbArc
 50
287.1467397277
 51
299.0955287963
  0
ARC
  5
F1
330
1F
100
AcDbEntity
  8
0
100
AcDbCircle
 10
-163.1839452599
 20
66.1451367901
 30
0.0
 40
7.99999999999998
100
AcDbArc
 50
240.9044712037
 51
252.8515803462
  0
ARC
  5
F2
330
1F
100
AcDbEntity
  8
0
100
AcDbCircle
 10
-158.2740827974
 20
361.954655409
 30
0.0
 40
0.1999999999999886
100
AcDbArc
 50
0.0
 51
90.0
  0
LINE
  5
F3
330
1F
100
AcDbEntity
  8
0
100
AcDbLine
 10
-158.0740827974
 20
361.354655409
 30
0.0
 11
-158.0740827974
 21
361.954655409
 31
0.0
  0
ARC
  5
F4
330
1F
100
AcDbEntity
  8
0
100
AcDbCircle
 10
-158.2740827974
 20
361.354655409
 30
0.0
 40
0.1999999999999886
100
AcDbArc
 50
270.0
 51
0.0
  0
ARC
  5
F5
330
1F
100
AcDbEntity
  8
0
100
AcDbCircle
 10
-163.1839452599
 20
355.1641740279
 30
0.0
 40
7.999999999999997
100
AcDbArc
 50
107.1467397277
 51
119.0955287963
  0
ARC
  5
F6
330
1F
100
AcDbEntity
  8
0
100
AcDbCircle
 10
-163.9642203348
 20
355.1641740279
 30
0.0
 40
7.999999999999929
100
AcDbArc
 50
60.9044712037
 51
72.8515803462
  0
ARC
  5
F7
330
1F
100
AcDbEntity
  8
0
100
AcDbCircle
 10
208.8099561093
 20
317.554655409
 30
0.0
 40
0.5000000000000037
100
AcDbArc
 50
4.9871394293
 51
180.0
  0
ARC
  5
F8
330
1F
100
AcDbEntity
  8
0
100
AcDbCircle
 10
208.8099561093
 20
103.754655409
 30
0.0
 40
0.5000000000000011
100
AcDbArc
 50
180.0
 51
355.0128605707
  0
ARC
  5
F9
330
1F
100
AcDbEntity
  8
0
100
AcDbCircle
 10
213.0099561093
 20
317.554655409
 30
0.0
 40
0.5000000000000037
100
AcDbArc
 50
4.9871394293
 51
180.0
  0
ARC
  5
FA
330
1F
100
AcDbEntity
  8
0
100
AcDbCircle
 10
213.0099561093
 20
103.754655409
 30
0.0
 40
0.5000000000000011
100
AcDbArc
 50
180.0
 51
355.0128605707
  0
LINE
  5
FB
330
1F
100
AcDbEntity
  8
0
100
AcDbLine
 10
213.5080632272
 20
103.7111893413
 30
0.0
 11
214.1900369653
 21
111.5263884428
 31
0.0
  0
LINE
  5
FC
330
1F
100
AcDbEntity
  8
0
100
AcDbLine
 10
214.1900369653
 20
309.7829223751
 30
0.0
 11
213.5080632272
 21
317.5981214767
 31
0.0
  0
LINE
  5
FD
330
1F
100
AcDbEntity
  8
0
100
AcDbLine
 10
209.3080632272
 20
103.7111893413
 30
0.0
 11
209.9900369653
 21
111.5263884428
 31
0.0
  0
LINE
  5
FE
330
1F
100
AcDbEntity
  8
0
100
AcDbLine
 10
209.9900369653
 20
309.7829223751
 30
0.0
 11
209.3080632272
 21
317.5981214767
 31
0.0
  0
ARC
  5
FF
330
1F
100
AcDbEntity
  8
0
100
AcDbCircle
 10
214.4390905243
 20
309.804655409
 30
0.0
 40
0.250000000000016
100
AcDbArc
 50
184.9871394293
 51
270.0
  0
ARC
  5
100
330
1F
100
AcDbEntity
  8
0
100
AcDbCircle
 10
214.4390905243
 20
111.504655409
 30
0.0
 40
0.2500000000000142
100
AcDbArc
 50
90.0
 51
175.0128605707
  0
ARC
  5
101
330
1F
100
AcDbEntity
  8
0
100
AcDbCircle
 10
210.2390905243
 20
309.804655409
 30
0.0
 40
0.250000000000016
100
AcDbArc
 50
184.9871394293
 51
270.0
  0
ARC
  5
102
330
1F
100
AcDbEntity
  8
0
100
AcDbCircle
 10
210.2390905243
 20
111.504655409
 30
0.0
 40
0.2500000000000172
100
AcDbArc
 50
90.0
 51
175.0128605707
  0
LINE
  5
103
330
1F
100
AcDbEntity
  8
0
100
AcDbLine
 10
215.5599561093
 20
309.554655409
 30
0.0
 11
214.4390905243
 21
309.554655409
 31
0.0
  0
LINE
  5
104
330
1F
100
AcDbEntity
  8
0
100
AcDbLine
 10
214.4390905243
 20
111.754655409
 30
0.0
 11
215.5599561093
 21
111.754655409
 31
0.0
  0
LINE
  5
105
330
1F
100
AcDbEntity
  8
0
100
AcDbLine
 10
212.5099561093
 20
309.554655409
 30
0.0
 11
210.2390905243
 21
309.554655409
 31
0.0
  0
LINE
  5
106
330
1F
100
AcDbEntity
  8
0
100
AcDbLine
 10
210.2390905243
 20
111.754655409
 30
0.0
 11
212.5099561093
 21
111.754655409
 31
0.0
  0
ARC
  5
107
330
1F
100
AcDbEntity
  8
0
100
AcDbCircle
 10
-260.158121704
 20
103.754655409
 30
0.0
 40
0.5
100
AcDbArc
 50
184.9871394293
 51
0.0
  0
ARC
  5
108
330
1F
100
AcDbEntity
  8
0
100
AcDbCircle
 10
-260.158121704
 20
317.554655409
 30
0.0
 40
0.5000000000000568
100
AcDbArc
 50
0.0
 51
175.0128605707
  0
ARC
  5
109
330
1F
100
AcDbEntity
  8
0
100
AcDbCircle
 10
-255.958121704
 20
103.754655409
 30
0.0
 40
0.5000000000000568
100
AcDbArc
 50
184.9871394293
 51
0.0
  0
ARC
  5
10A
330
1F
100
AcDbEntity
  8
0
100
AcDbCircle
 10
-255.958121704
 20
317.554655409
 30
0.0
 40
0.5000000000000037
100
AcDbArc
 50
0.0
 51
175.0128605707
  0
LINE
  5
10B
330
1F
100
AcDbEntity
  8
0
100
AcDbLine
 10
-260.656228822
 20
317.5981214767
 30
0.0
 11
-261.33820256
 21
309.7829223751
 31
0.0
  0
LINE
  5
10C
330
1F
100
AcDbEntity
  8
0
100
AcDbLine
 10
-261.33820256
 20
111.5263884428
 30
0.0
 11
-260.656228822
 21
103.7111893413
 31
0.0
  0
LINE
  5
10D
330
1F
100
AcDbEntity
  8
0
100
AcDbLine
 10
-256.456228822
 20
317.5981214767
 30
0.0
 11
-257.13820256
 21
309.7829223751
 31
0.0
  0
LINE
  5
10E
330
1F
100
AcDbEntity
  8
0
100
AcDbLine
 10
-257.13820256
 20
111.5263884428
 30
0.0
 11
-256.456228822
 21
103.7111893413
 31
0.0
  0
ARC
  5
10F
330
1F
100
AcDbEntity
  8
0
100
AcDbCircle
 10
-261.587256119
 20
111.504655409
 30
0.0
 40
0.2500000000000142
100
AcDbArc
 50
4.9871394293
 51
90.0
  0
ARC
  5
110
330
1F
100
AcDbEntity
  8
0
100
AcDbCircle
 10
-261.587256119
 20
309.804655409
 30
0.0
 40
0.25
100
AcDbArc
 50
270.0
 51
355.0128605707
  0
ARC
  5
111
330
1F
100
AcDbEntity
  8
0
100
AcDbCircle
 10
-257.387256119
 20
111.504655409
 30
0.0
 40
0.2500000000000142
100
AcDbArc
 50
4.9871394293
 51
90.0
  0
ARC
  5
112
330
1F
100
AcDbEntity
  8
0
100
AcDbCircle
 10
-257.387256119
 20
309.804655409
 30
0.0
 40
0.25
100
AcDbArc
 50
270.0
 51
355.0128605707
  0
LINE
  5
113
330
1F
100
AcDbEntity
  8
0
100
AcDbLine
 10
-262.708121704
 20
111.754655409
 30
0.0
 11
-261.587256119
 21
111.754655409
 31
0.0
  0
LINE
  5
114
330
1F
100
AcDbEntity
  8
0
100
AcDbLine
 10
-261.587256119
 20
309.554655409
 30
0.0
 11
-262.708121704
 21
309.554655409
 31
0.0
  0
LINE
  5
115
330
1F
100
AcDbEntity
  8
0
100
AcDbLine
 10
-259.658121704
 20
111.754655409
 30
0.0
 11
-257.387256119
 21
111.754655409
 31
0.0
  0
LINE
  5
116
330
1F
100
AcDbEntity
  8
0
100
AcDbLine
 10
-257.387256119
 20
309.554655409
 30
0.0
 11
-259.658121704
 21
309.554655409
 31
0.0
  0
ARC
  5
117
330
1F
100
AcDbEntity
  8
0
100
AcDbCircle
 10
129.6372253473
 20
359.854655409
 30
0.0
 40
2.750000000000006
100
AcDbArc
 50
8.8498830984
 51
171.1501169016
  0
ARC
  5
118
330
1F
100
AcDbEntity
  8
0
100
AcDbCircle
 10
129.6372253473
 20
61.454655409
 30
0.0
 40
2.749999999999994
100
AcDbArc
 50
188.8498830984
 51
351.1501169016
  0
ARC
  5
119
330
1F
100
AcDbEntity
  8
0
100
AcDbCircle
 10
126.4259172026
 20
360.354655409
 30
0.0
 40
0.5000000000000568
100
AcDbArc
 50
270.0
 51
351.1501169016
  0
ARC
  5
11A
330
1F
100
AcDbEntity
  8
0
100
AcDbCircle
 10
126.4259172026
 20
60.954655409
 30
0.0
 40
0.5
100
AcDbArc
 50
8.8498830984
 51
90.0
  0
ARC
  5
11B
330
1F
100
AcDbEntity
  8
0
100
AcDbCircle
 10
132.848533492
 20
360.354655409
 30
0.0
 40
0.5000000000000103
100
AcDbArc
 50
188.8498830984
 51
270.0
  0
ARC
  5
11C
330
1F
100
AcDbEntity
  8
0
100
AcDbCircle
 10
132.848533492
 20
60.954655409
 30
0.0
 40
0.5000000000000093
100
AcDbArc
 50
90.0
 51
171.1501169016
  0
LINE
  5
11D
330
1F
100
AcDbEntity
  8
0
100
AcDbLine
 10
134.4259172026
 20
359.854655409
 30
0.0
 11
132.848533492
 21
359.854655409
 31
0.0
  0
LINE
  5
11E
330
1F
100
AcDbEntity
  8
0
100
AcDbLine
 10
132.848533492
 20
61.454655409
 30
0.0
 11
134.4259172026
 21
61.454655409
 31
0.0
  0
ARC
  5
11F
330
1F
100
AcDbEntity
  8
0
100
AcDbCircle
 10
134.4259172026
 20
351.104655409
 30
0.0
 40
8.750000000000057
100
AcDbArc
 50
20.0
 51
90.0
  0
ARC
  5
120
330
1F
100
AcDbEntity
  8
0
100
AcDbCircle
 10
134.4259172026
 20
70.204655409
 30
0.0
 40
8.750000000000009
100
AcDbArc
 50
270.0
 51
340.0
  0
LINE
  5
121
330
1F
100
AcDbEntity
  8
0
100
AcDbLine
 10
142.6482276345
 20
67.2119791549
 30
0.0
 11
157.1046655302
 21
106.9307158389
 31
0.0
  0
LINE
  5
122
330
1F
100
AcDbEntity
  8
0
100
AcDbLine
 10
157.1046655302
 20
314.378594979
 30
0.0
 11
142.6482276345
 21
354.0973316631
 31
0.0
  0
ARC
  5
123
330
1F
100
AcDbEntity
  8
0
100
AcDbCircle
 10
159.9237433925
 20
315.404655409
 30
0.0
 40
3.0
100
AcDbArc
 50
200.0
 51
270.0
  0
ARC
  5
124
330
1F
100
AcDbEntity
  8
0
100
AcDbCircle
 10
159.9237433925
 20
105.904655409
 30
0.0
 40
3.000000000000024
100
AcDbArc
 50
90.0
 51
160.0
  0
ARC
  5
125
330
1F
100
AcDbEntity
  8
0
100
AcDbCircle
 10
177.5599561093
 20
309.954655409
 30
0.0
 40
2.750000000000012
100
AcDbArc
 50
8.8498830984
 51
171.1501169016
  0
ARC
  5
126
330
1F
100
AcDbEntity
  8
0
100
AcDbCircle
 10
177.5599561093
 20
111.354655409
 30
0.0
 40
2.750000000000014
100
AcDbArc
 50
188.8498830984
 51
351.1501169016
  0
LINE
  5
127
330
1F
100
AcDbEntity
  8
0
100
AcDbLine
 10
169.3567560944
 20
312.404655409
 30
0.0
 11
159.9237433925
 21
312.404655409
 31
0.0
  0
LINE
  5
128
330
1F
100
AcDbEntity
  8
0
100
AcDbLine
 10
159.9237433925
 20
108.904655409
 30
0.0
 11
169.3567560944
 21
108.904655409
 31
0.0
  0
LINE
  5
129
330
1F
100
AcDbEntity
  8
0
100
AcDbLine
 10
169.3567560944
 20
108.904655409
 30
0.0
 11
170.7712642539
 21
111.354655409
 31
0.0
  0
LINE
  5
12A
330
1F
100
AcDbEntity
  8
0
100
AcDbLine
 10
170.7712642539
 20
309.954655409
 30
0.0
 11
169.3567560944
 21
312.404655409
 31
0.0
  0
ARC
  5
12B
330
1F
100
AcDbEntity
  8
0
100
AcDbCircle
 10
174.3486479646
 20
310.454655409
 30
0.0
 40
0.5000000000000103
100
AcDbArc
 50
270.0
 51
351.1501169016
  0
ARC
  5
12C
330
1F
100
AcDbEntity
  8
0
100
AcDbCircle
 10
174.3486479646
 20
110.854655409
 30
0.0
 40
0.4999999999999858
100
AcDbArc
 50
8.8498830984
 51
90.0
  0
ARC
  5
12D
330
1F
100
AcDbEntity
  8
0
100
AcDbCircle
 10
180.7712642539
 20
310.454655409
 30
0.0
 40
0.5
100
AcDbArc
 50
188.8498830984
 51
270.0
  0
ARC
  5
12E
330
1F
100
AcDbEntity
  8
0
100
AcDbCircle
 10
180.7712642539
 20
110.854655409
 30
0.0
 40
0.500000000000006
100
AcDbArc
 50
90.0
 51
171.1501169016
  0
LINE
  5
12F
330
1F
100
AcDbEntity
  8
0
100
AcDbLine
 10
220.2599561093
 20
309.954655409
 30
0.0
 11
215.5599561093
 21
309.954655409
 31
0.0
  0
LINE
  5
130
330
1F
100
AcDbEntity
  8
0
100
AcDbLine
 10
215.5599561093
 20
111.354655409
 30
0.0
 11
220.2599561093
 21
111.354655409
 31
0.0
  0
ARC
  5
131
330
1F
100
AcDbEntity
  8
0
100
AcDbCircle
 10
220.2599561093
 20
308.654655409
 30
0.0
 40
1.299999999983754
100
AcDbArc
 50
0.0
 51
90.0
  0
ARC
  5
132
330
1F
100
AcDbEntity
  8
0
100
AcDbCircle
 10
220.2599561093
 20
112.654655409
 30
0.0
 40
1.299999999983754
100
AcDbArc
 50
270.0
 51
0.0
  0
LINE
  5
133
330
1F
100
AcDbEntity
  8
0
100
AcDbLine
 10
174.3486479646
 20
309.954655409
 30
0.0
 11
170.7712642539
 21
309.954655409
 31
0.0
  0
LINE
  5
134
330
1F
100
AcDbEntity
  8
0
100
AcDbLine
 10
170.7712642539
 20
111.354655409
 30
0.0
 11
174.3486479646
 21
111.354655409
 31
0.0
  0
LINE
  5
135
330
1F
100
AcDbEntity
  8
0
100
AcDbLine
 10
202.9007784324
 20
309.954655409
 30
0.0
 11
180.7712642539
 21
309.954655409
 31
0.0
  0
LINE
  5
136
330
1F
100
AcDbEntity
  8
0
100
AcDbLine
 10
180.7712642539
 20
111.354655409
 30
0.0
 11
202.9007784324
 21
111.354655409
 31
0.0
  0
LINE
  5
137
330
1F
100
AcDbEntity
  8
0
100
AcDbLine
 10
202.9007784324
 20
111.354655409
 30
0.0
 11
208.3099561093
 21
113.4353206419
 31
0.0
  0
LINE
  5
138
330
1F
100
AcDbEntity
  8
0
100
AcDbLine
 10
208.3099561093
 20
307.873990176
 30
0.0
 11
202.9007784324
 21
309.954655409
 31
0.0
  0
ARC
  5
139
330
1F
100
AcDbEntity
  8
0
100
AcDbCircle
 10
-176.785390942
 20
61.454655409
 30
0.0
 40
2.750000000000008
100
AcDbArc
 50
188.8498830984
 51
351.1501169016
  0
ARC
  5
13A
330
1F
100
AcDbEntity
  8
0
100
AcDbCircle
 10
-176.785390942
 20
359.854655409
 30
0.0
 40
2.75000000000002
100
AcDbArc
 50
8.8498830984
 51
171.1501169016
  0
ARC
  5
13B
330
1F
100
AcDbEntity
  8
0
100
AcDbCircle
 10
-179.9966990867
 20
60.954655409
 30
0.0
 40
0.5000000000000093
100
AcDbArc
 50
8.8498830984
 51
90.0
  0
ARC
  5
13C
330
1F
100
AcDbEntity
  8
0
100
AcDbCircle
 10
-179.9966990867
 20
360.354655409
 30
0.0
 40
0.5000000000000103
100
AcDbArc
 50
270.0
 51
351.1501169016
  0
ARC
  5
13D
330
1F
100
AcDbEntity
  8
0
100
AcDbCircle
 10
-173.5740827974
 20
60.954655409
 30
0.0
 40
0.5
100
AcDbArc
 50
90.0
 51
171.1501169016
  0
ARC
  5
13E
330
1F
100
AcDbEntity
  8
0
100
AcDbCircle
 10
-173.5740827974
 20
360.354655409
 30
0.0
 40
0.5000000000000568
100
AcDbArc
 50
188.8498830984
 51
270.0
  0
LINE
  5
13F
330
1F
100
AcDbEntity
  8
0
100
AcDbLine
 10
-181.5740827974
 20
61.454655409
 30
0.0
 11
-179.9966990867
 21
61.454655409
 31
0.0
  0
LINE
  5
140
330
1F
100
AcDbEntity
  8
0
100
AcDbLine
 10
-179.9966990867
 20
359.854655409
 30
0.0
 11
-181.5740827974
 21
359.854655409
 31
0.0
  0
ARC
  5
141
330
1F
100
AcDbEntity
  8
0
100
AcDbCircle
 10
-181.5740827974
 20
70.204655409
 30
0.0
 40
8.750000000000009
100
AcDbArc
 50
200.0
 51
270.0
  0
ARC
  5
142
330
1F
100
AcDbEntity
  8
0
100
AcDbCircle
 10
-181.5740827974
 20
351.104655409
 30
0.0
 40
8.750000000000057
100
AcDbArc
 50
90.0
 51
160.0
  0
LINE
  5
143
330
1F
100
AcDbEntity
  8
0
100
AcDbLine
 10
-189.7963932292
 20
354.0973316631
 30
0.0
 11
-204.2528311249
 21
314.378594979
 31
0.0
  0
LINE
  5
144
330
1F
100
AcDbEntity
  8
0
100
AcDbLine
 10
-204.2528311249
 20
106.9307158389
 30
0.0
 11
-189.7963932292
 21
67.2119791549
 31
0.0
  0
ARC
  5
145
330
1F
100
AcDbEntity
  8
0
100
AcDbCircle
 10
-207.0719089873
 20
105.904655409
 30
0.0
 40
3.000000000000024
100
AcDbArc
 50
20.0
 51
90.0
  0
ARC
  5
146
330
1F
100
AcDbEntity
  8
0
100
AcDbCircle
 10
-207.0719089873
 20
315.404655409
 30
0.0
 40
3.0
100
AcDbArc
 50
270.0
 51
340.0
  0
ARC
  5
147
330
1F
100
AcDbEntity
  8
0
100
AcDbCircle
 10
-224.708121704
 20
111.354655409
 30
0.0
 40
2.750000000000014
100
AcDbArc
 50
188.8498830984
 51
351.1501169016
  0
ARC
  5
148
330
1F
100
AcDbEntity
  8
0
100
AcDbCircle
 10
-224.708121704
 20
309.954655409
 30
0.0
 40
2.750000000000012
100
AcDbArc
 50
8.8498830984
 51
171.1501169016
  0
LINE
  5
149
330
1F
100
AcDbEntity
  8
0
100
AcDbLine
 10
-216.5049216891
 20
108.904655409
 30
0.0
 11
-207.0719089873
 21
108.904655409
 31
0.0
  0
LINE
  5
14A
330
1F
100
AcDbEntity
  8
0
100
AcDbLine
 10
-207.0719089873
 20
312.404655409
 30
0.0
 11
-209.91681065
 21
312.404655409
 31
0.0
  0
LINE
  5
14B
330
1F
100
AcDbEntity
  8
0
100
AcDbLine
 10
-214.9698867866
 20
312.404655409
 30
0.0
 11
-216.5049216891
 21
312.404655409
 31
0.0
  0
LINE
  5
14C
330
1F
100
AcDbEntity
  8
0
100
AcDbLine
 10
-216.5049216891
 20
312.404655409
 30
0.0
 11
-217.9194298487
 21
309.954655409
 31
0.0
  0
LINE
  5
14D
330
1F
100
AcDbEntity
  8
0
100
AcDbLine
 10
-217.9194298487
 20
111.354655409
 30
0.0
 11
-216.5049216891
 21
108.904655409
 31
0.0
  0
ARC
  5
14E
330
1F
100
AcDbEntity
  8
0
100
AcDbCircle
 10
-227.9194298487
 20
110.854655409
 30
0.0
 40
0.500000000000006
100
AcDbArc
 50
8.8498830984
 51
90.0
  0
ARC
  5
14F
330
1F
100
AcDbEntity
  8
0
100
AcDbCircle
 10
-227.9194298487
 20
310.454655409
 30
0.0
 40
0.5
100
AcDbArc
 50
270.0
 51
351.1501169016
  0
ARC
  5
150
330
1F
100
AcDbEntity
  8
0
100
AcDbCircle
 10
-221.4968135593
 20
110.854655409
 30
0.0
 40
0.4999999999999858
100
AcDbArc
 50
90.0
 51
171.1501169016
  0
ARC
  5
151
330
1F
100
AcDbEntity
  8
0
100
AcDbCircle
 10
-221.4968135593
 20
310.454655409
 30
0.0
 40
0.5000000000000103
100
AcDbArc
 50
188.8498830984
 51
270.0
  0
LINE
  5
152
330
1F
100
AcDbEntity
  8
0
100
AcDbLine
 10
-267.408121704
 20
111.354655409
 30
0.0
 11
-262.708121704
 21
111.354655409
 31
0.0
  0
LINE
  5
153
330
1F
100
AcDbEntity
  8
0
100
AcDbLine
 10
-262.708121704
 20
309.954655409
 30
0.0
 11
-267.408121704
 21
309.954655409
 31
0.0
  0
ARC
  5
154
330
1F
100
AcDbEntity
  8
0
100
AcDbCircle
 10
-267.408121704
 20
112.654655409
 30
0.0
 40
1.299999999983754
100
AcDbArc
 50
180.0
 51
270.0
  0
ARC
  5
155
330
1F
100
AcDbEntity
  8
0
100
AcDbCircle
 10
-267.408121704
 20
308.654655409
 30
0.0
 40
1.299999999983754
100
AcDbArc
 50
90.0
 51
180.0
  0
LINE
  5
156
330
1F
100
AcDbEntity
  8
0
100
AcDbLine
 10
-221.4968135593
 20
111.354655409
 30
0.0
 11
-217.9194298487
 21
111.354655409
 31
0.0
  0
LINE
  5
157
330
1F
100
AcDbEntity
  8
0
100
AcDbLine
 10
-217.9194298487
 20
309.954655409
 30
0.0
 11
-221.4968135593
 21
309.954655409
 31
0.0
  0
LINE
  5
158
330
1F
100
AcDbEntity
  8
0
100
AcDbLine
 10
-250.0489440271
 20
309.954655409
 30
0.0
 11
-255.458121704
 21
307.873990176
 31
0.0
  0
LINE
  5
159
330
1F
100
AcDbEntity
  8
0
100
AcDbLine
 10
-255.458121704
 20
113.4353206419
 30
0.0
 11
-250.0489440271
 21
111.354655409
 31
0.0
  0
LINE
  5
15A
330
1F
100
AcDbEntity
  8
0
100
AcDbLine
 10
-250.0489440271
 20
111.354655409
 30
0.0
 11
-227.9194298487
 21
111.354655409
 31
0.0
  0
LINE
  5
15B
330
1F
100
AcDbEntity
  8
0
100
AcDbLine
 10
-227.9194298487
 20
309.954655409
 30
0.0
 11
-250.0489440271
 21
309.954655409
 31
0.0
  0
LINE
  5
15C
330
1F
100
AcDbEntity
  8
0
100
AcDbLine
 10
10.2260965698
 20
58.5046554119
 30
0.0
 11
14.5689957443
 21
58.5046554119
 31
0.0
  0
LINE
  5
15D
330
1F
100
AcDbEntity
  8
0
100
AcDbLine
 10
-46.4310042557
 20
362.804655406
 30
0.0
 11
-50.7739034302
 21
362.804655406
 31
0.0
  0
LINE
  5
15E
330
1F
100
AcDbEntity
  8
0
100
AcDbLine
 10
75.5689957443
 20
362.804655406
 30
0.0
 11
71.2260965698
 21
362.804655406
 31
0.0
  0
LINE
  5
15F
330
1F
100
AcDbEntity
  8
0
100
AcDbLine
 10
-168.4310042557
 20
362.804655406
 30
0.0
 11
-172.7739034302
 21
362.804655406
 31
0.0
  0
LINE
  5
160
330
1F
100
AcDbEntity
  8
0
100
AcDbLine
 10
-111.7739034302
 20
58.5046554119
 30
0.0
 11
-107.4310042557
 21
58.5046554119
 31
0.0
  0
SPLINE
  5
161
330
1F
100
AcDbEntity
  8
0
100
AcDbSpline
210
0.0
220
0.0
230
1.0
 70
     8
 71
     3
 72
    61
 73
    57
 74
     0
 42
0.00000001
 43
0.00000001
 40
0.0
 40
0.0
 40
0.0
 40
0.0
 40
0.0104047518822732
 40
0.0230602984848425
 40
0.0338417185686208
 40
0.0428578509846105
 40
0.0510050351196822
 40
0.0584786772662748
 40
0.0652840813485155
 40
0.0718488728206498
 40
0.0863580487467209
 40
0.1021343459759377
 40
0.1183247138291115
 40
0.134397933045856
 40
0.1591772707893563
 40
0.1837302293724802
 40
0.2083082151456837
 40
0.2328647503172789
 40
0.2574510101751769
 40
0.2820155868582027
 40
0.3066027306589527
 40
0.3311806656250241
 40
0.3557620017140481
 40
0.3803541839450207
 40
0.4008313555555205
 40
0.4213331595800548
 40
0.4419788302381163
 40
0.4638133780016075
 40
0.4842267535901909
 40
0.5018579709523289
 40
0.522657192945279
 40
0.5438482758803047
 40
0.5647338314413057
 40
0.5852821746725446
 40
0.6057855639820305
 40
0.6262756358602142
 40
0.657036578310574
 40
0.6877764997695521
 40
0.718538729159741
 40
0.7492914874421129
 40
0.7739096272984204
 40
0.7985162299000159
 40
0.8231485223308953
 40
0.8477602507883167
 40
0.8726487331518941
 40
0.8818125212596877
 40
0.8911178688696202
 40
0.8998237320266388
 40
0.9075036368379173
 40
0.9141532574801592
 40
0.9210371756478928
 40
0.9293750894775699
 40
0.9466331005548512
 40
0.9642145845024547
 40
0.9825531491261639
 40
1.0
 40
1.0
 40
1.0
 40
1.0
 10
-50.58271014514805
 20
361.1682007451175
 30
0.0
 10
-50.42155058288012
 20
361.1484947300725
 30
0.0
 10
-50.06436882096641
 20
361.1048198213358
 30
0.0
 10
-49.54264709086511
 20
360.8029112664764
 30
0.0
 10
-49.010349286799
 20
360.3777147680617
 30
0.0
 10
-48.50109812359835
 20
359.8469526413041
 30
0.0
 10
-48.04601642133856
 20
359.2760905630053
 30
0.0
 10
-47.62551210446589
 20
358.6701053468676
 30
0.0
 10
-47.22736021016363
 20
358.030609416834
 30
0.0
 10
-46.68645455194732
 20
357.0774452362145
 30
0.0
 10
-45.96135358145155
 20
355.6214617589458
 30
0.0
 10
-45.03891759606424
 20
353.4405272692123
 30
0.0
 10
-44.08318307455847
 20
350.8213000373904
 30
0.0
 10
-42.93953122438311
 20
347.2851993432816
 30
0.0
 10
-41.62540933889937
 20
342.6252927451029
 30
0.0
 10
-40.14076988018843
 20
336.5694600100338
 30
0.0
 10
-38.65247504958567
 20
329.7863622597895
 30
0.0
 10
-37.17061596995919
 20
322.2949730130307
 30
0.0
 10
-35.67959186354435
 20
314.1458988056932
 30
0.0
 10
-34.19562318204652
 20
305.3817843830806
 30
0.0
 10
-32.70505340064408
 20
296.0603851662811
 30
0.0
 10
-31.21759183896548
 20
286.2325828440222
 30
0.0
 10
-29.72960531026147
 20
275.9584449184949
 30
0.0
 10
-28.32106154089975
 20
265.8918621796449
 30
0.0
 10
-27.00108514857543
 20
256.1527963767394
 30
0.0
 10
-25.75414989878515
 20
246.8134637962625
 30
0.0
 10
-24.48374564040077
 20
237.1155096464196
 30
0.0
 10
-23.21553741451678
 20
227.3147613016691
 30
0.0
 10
-22.00382584438394
 20
217.916651617483
 30
0.0
 10
-20.81865707748537
 20
208.6558860703291
 30
0.0
 10
-19.61476693056603
 20
199.2773599011055
 30
0.0
 10
-18.34299721929181
 20
189.4352800638044
 30
0.0
 10
-17.08236141418152
 20
179.7220012695131
 30
0.0
 10
-15.82978735113811
 20
170.2445512669107
 30
0.0
 10
-14.58674410080265
 20
160.9921059120926
 30
0.0
 10
-13.14127341769029
 20
150.4405308702144
 30
0.0
 10
-11.48127989231531
 20
138.7788893626519
 30
0.0
 10
-9.621857493596622
 20
126.3155186976005
 30
0.0
 10
-7.755463144341175
 20
114.6263597061843
 30
0.0
 10
-6.01738973693772
 20
104.5325061419239
 30
0.0
 10
-4.398962838095859
 20
95.92524359486325
 30
0.0
 10
-2.908690111163601
 20
88.64698111368033
 30
0.0
 10
-1.410252641844217
 20
82.08327501158655
 30
0.0
 10
0.0878064450744905
 20
76.24676337664005
 30
0.0
 10
1.282494754749845
 20
72.25151704729838
 30
0.0
 10
2.166449528321127
 20
69.62635378109633
 30
0.0
 10
2.720245119707473
 20
68.09354797798791
 30
0.0
 10
3.244982438724838
 20
66.74958209044124
 30
0.0
 10
3.717820002829983
 20
65.63020992209378
 30
0.0
 10
4.154541095382005
 20
64.66939498494206
 30
0.0
 10
4.609061540011783
 20
63.74163888186526
 30
0.0
 10
5.291091416366759
 20
62.47277508932086
 30
0.0
 10
6.208573811182602
 20
61.03677479929698
 30
0.0
 10
7.365378950036798
 20
59.72352291375674
 30
0.0
 10
8.607586353472175
 20
58.77290899859952
 30
0.0
 10
9.533669300173658
 20
58.63197470889989
 30
0.0
 10
9.985172540900644
 20
58.56326348950475
 30
0.0
  0
SPLINE
  5
162
330
1F
100
AcDbEntity
  8
0
100
AcDbSpline
210
0.0
220
0.0
230
1.0
 70
     8
 71
     3
 72
    56
 73
    52
 74
     0
 42
0.00000001
 43
0.00000001
 40
0.0
 40
0.0
 40
0.0
 40
0.0
 40
0.0113272274674051
 40
0.0251048030130433
 40
0.0368420937329353
 40
0.0466575880289735
 40
0.0555270939009989
 40
0.0636633421808507
 40
0.0710721070336165
 40
0.078218926786968
 40
0.0940144727008667
 40
0.1111894817093163
 40
0.1288152724565511
 40
0.1463135282786543
 40
0.1732897789656553
 40
0.2000195799273323
 40
0.2267766269663898
 40
0.2535103216135313
 40
0.2802763763099044
 40
0.3070188254213693
 40
0.3337858424301431
 40
0.360542834157555
 40
0.3873035285483035
 40
0.4140760306898172
 40
0.4363686892121577
 40
0.4586881640353573
 40
0.4811642605734618
 40
0.5049346389508952
 40
0.5271578453555947
 40
0.5463522299836834
 40
0.5689954915746286
 40
0.5920653561328196
 40
0.6148026055453343
 40
0.6371727456978434
 40
0.6594939463558807
 40
0.6818006488715899
 40
0.7152888277526838
 40
0.7487541219409277
 40
0.782243701860734
 40
0.8157229709731468
 40
0.8425237321188176
 40
0.869311933127548
 40
0.8961281016018343
 40
0.9229218829199779
 40
0.9500169548871454
 40
0.9599931958907323
 40
0.9701235469297166
 40
0.9796012637840369
 40
0.9879620617838021
 40
0.9952012315822617
 40
0.9999999999999999
 40
0.9999999999999999
 40
0.9999999999999999
 40
0.9999999999999999
 10
71.41728985485193
 20
361.1682007451175
 30
0.0
 10
71.5784494171199
 20
361.1484947300725
 30
0.0
 10
71.93563117903365
 20
361.1048198213358
 30
0.0
 10
72.45735290913494
 20
360.8029112664765
 30
0.0
 10
72.9896507132011
 20
360.3777147680617
 30
0.0
 10
73.49890187640155
 20
359.8469526413041
 30
0.0
 10
73.95398357866154
 20
359.2760905630054
 30
0.0
 10
74.37448789553406
 20
358.6701053468675
 30
0.0
 10
74.77263978983638
 20
358.0306094168341
 30
0.0
 10
75.31354544805264
 20
357.0774452362143
 30
0.0
 10
76.0386464185484
 20
355.6214617589459
 30
0.0
 10
76.96108240393578
 20
353.4405272692124
 30
0.0
 10
77.91681692544148
 20
350.8213000373904
 30
0.0
 10
79.06046877561676
 20
347.2851993432816
 30
0.0
 10
80.37459066110071
 20
342.625292745103
 30
0.0
 10
81.85923011981161
 20
336.5694600100338
 30
0.0
 10
83.34752495041427
 20
329.7863622597895
 30
0.0
 10
84.82938403004088
 20
322.2949730130307
 30
0.0
 10
86.32040813645574
 20
314.1458988056933
 30
0.0
 10
87.80437681795334
 20
305.3817843830808
 30
0.0
 10
89.29494659935591
 20
296.0603851662813
 30
0.0
 10
90.78240816103437
 20
286.2325828440223
 30
0.0
 10
92.27039468973854
 20
275.9584449184951
 30
0.0
 10
93.67893845910025
 20
265.8918621796452
 30
0.0
 10
94.99891485142459
 20
256.1527963767398
 30
0.0
 10
96.24585010121474
 20
246.8134637962626
 30
0.0
 10
97.51625435959929
 20
237.1155096464198
 30
0.0
 10
98.78446258548321
 20
227.3147613016689
 30
0.0
 10
99.99617415561603
 20
217.916651617483
 30
0.0
 10
101.1813429225148
 20
208.6558860703288
 30
0.0
 10
102.3852330694338
 20
199.2773599011061
 30
0.0
 10
103.6570027807081
 20
189.4352800638033
 30
0.0
 10
104.9176385858186
 20
179.7220012695188
 30
0.0
 10
106.1702126488606
 20
170.2445512668925
 30
0.0
 10
107.4132558992019
 20
160.992105912161
 30
0.0
 10
108.8587265822893
 20
150.4405308699052
 30
0.0
 10
110.5187201078042
 20
138.7788893644637
 30
0.0
 10
112.3781425059634
 20
126.3155186909306
 30
0.0
 10
114.2445368572999
 20
114.6263597310708
 30
0.0
 10
115.9826102574561
 20
104.5325060569146
 30
0.0
 10
117.6010371782366
 20
95.9252438425225
 30
0.0
 10
119.0913098274343
 20
88.64698018260212
 30
0.0
 10
120.5897475876226
 20
82.08327849112884
 30
0.0
 10
122.0878055854188
 20
76.24675034116737
 30
0.0
 10
123.282497134892
 20
72.2515531388144
 30
0.0
 10
124.1664465600131
 20
69.62630877087203
 30
0.0
 10
124.7202564356877
 20
68.09371956894961
 30
0.0
 10
125.244945103266
 20
66.74901595059885
 30
0.0
 10
125.7179346553501
 20
65.63194846668482
 30
0.0
 10
126.103254009466
 20
64.7767673792772
 30
0.0
 10
126.3334118348906
 20
64.31340924575017
 30
0.0
 10
126.4251612760247
 20
64.12869751710215
 30
0.0
  0
SPLINE
  5
163
330
1F
100
AcDbEntity
  8
0
100
AcDbSpline
210
0.0
220
0.0
230
1.0
 70
     8
 71
     3
 72
    32
 73
    28
 74
     0
 42
0.00000001
 43
0.00000001
 40
0.0
 40
0.0
 40
0.0
 40
0.0
 40
0.0452172206332885
 40
0.1169647509741319
 40
0.1253327100815476
 40
0.1263020374054531
 40
0.1269845939665426
 40
0.12724689289989
 40
0.1274666383481253
 40
0.1276767028945963
 40
0.1279320139706141
 40
0.1282505098592872
 40
0.1284010349470691
 40
0.128515706223703
 40
0.1285940311363145
 40
0.1286796268901711
 40
0.1288191534152159
 40
0.1290057188843736
 40
0.1294067499658155
 40
0.1304722434562801
 40
0.1395700775246993
 40
0.1818890353681043
 40
0.2562553787115543
 40
0.4078928193054718
 40
0.6182073891870652
 40
0.8871020469675472
 40
1.0
 40
1.0
 40
1.0
 40
1.0
 10
70.81358990559298
 20
362.775953886697
 30
0.0
 10
70.76908221031717
 20
362.7706028319716
 30
0.0
 10
70.65395281002542
 20
362.7567610970166
 30
0.0
 10
70.52251636719438
 20
362.7307834407058
 30
0.0
 10
70.39371678226446
 20
362.6983504371885
 30
0.0
 10
70.36464653992692
 20
362.6897752963274
 30
0.0
 10
70.35741699161514
 20
362.6875527224347
 30
0.0
 10
70.35164526768145
 20
362.685701498475
 30
0.0
 10
70.34763924113781
 20
362.6843787214783
 30
0.0
 10
70.34368301630145
 20
362.6830285467876
 30
0.0
 10
70.3400791369301
 20
362.6817516541399
 30
0.0
 10
70.33762357506332
 20
362.6808462290264
 30
0.0
 10
70.33600842834187
 20
362.6802347776857
 30
0.0
 10
70.33445386987103
 20
362.6796625829992
 30
0.0
 10
70.33282114949091
 20
362.6790729520126
 30
0.0
 10
70.3311266836987
 20
362.6784698884839
 30
0.0
 10
70.32927844561495
 20
362.6778213351997
 30
0.0
 10
70.32666682090144
 20
362.6769162626499
 30
0.0
 10
70.32201316687883
 20
362.6753285733266
 30
0.0
 10
70.29994279210926
 20
362.6679674391762
 30
0.0
 10
70.23533529538041
 20
362.6475168914484
 30
0.0
 10
70.1038725801375
 20
362.60451659614
 30
0.0
 10
69.85428017074918
 20
362.5123964910466
 30
0.0
 10
69.4686567447531
 20
362.3353626462662
 30
0.0
 10
68.93099087460313
 20
361.9963299487496
 30
0.0
 10
68.43584058657913
 20
361.6109424172244
 30
0.0
 10
68.12215430093946
 20
361.2587889279664
 30
0.0
 10
68.02939572327166
 20
361.1546554089707
 30
0.0
  0
SPLINE
  5
164
330
1F
100
AcDbEntity
  8
0
100
AcDbSpline
210
0.0
220
0.0
230
1.0
 70
     8
 71
     3
 72
     9
 73
     5
 74
     0
 42
0.00000001
 43
0.00000001
 40
0.0
 40
0.0
 40
0.0
 40
0.0
 40
0.7506538215597639
 40
1.0
 40
1.0
 40
1.0
 40
1.0
 10
71.2260729129024
 20
362.8046554070705
 30
0.0
 10
71.12747845321906
 20
362.8033325567341
 30
0.0
 10
70.99613367503822
 20
362.8015702925607
 30
0.0
 10
70.85002223483424
 20
362.7810664431827
 30
0.0
 10
70.81358990559299
 20
362.775953886697
 30
0.0
  0
SPLINE
  5
165
330
1F
100
AcDbEntity
  8
0
100
AcDbSpline
210
0.0
220
0.0
230
1.0
 70
     8
 71
     3
 72
    32
 73
    28
 74
     0
 42
0.00000001
 43
0.00000001
 40
0.0
 40
0.0
 40
0.0
 40
0.0
 40
0.0452172206332542
 40
0.1169647509740866
 40
0.1253327100814908
 40
0.1263020374054294
 40
0.1269845939665306
 40
0.1272468928998544
 40
0.1274666383480843
 40
0.1276767028945484
 40
0.1279320139705721
 40
0.1282505098592532
 40
0.1284010349470246
 40
0.1285157062236681
 40
0.1285940311362802
 40
0.1286796268901348
 40
0.1288191534151522
 40
0.1290057188843538
 40
0.1294067499657963
 40
0.1304722434562224
 40
0.139570077524669
 40
0.1818890353680883
 40
0.2562553787115272
 40
0.4078928193054362
 40
0.618207389187023
 40
0.8871020469675668
 40
1.0
 40
1.0
 40
1.0
 40
1.0
 10
-51.18641009440712
 20
362.775953886697
 30
0.0
 10
-51.23091778968309
 20
362.7706028319715
 30
0.0
 10
-51.34604718997522
 20
362.7567610970165
 30
0.0
 10
-51.47748363280269
 20
362.7307834407067
 30
0.0
 10
-51.60628321773619
 20
362.6983504371885
 30
0.0
 10
-51.63535346007306
 20
362.6897752963274
 30
0.0
 10
-51.64258300838443
 20
362.6875527224349
 30
0.0
 10
-51.64835473231862
 20
362.6857014984749
 30
0.0
 10
-51.65236075886204
 20
362.6843787214784
 30
0.0
 10
-51.65631698369877
 20
362.6830285467875
 30
0.0
 10
-51.65992086306994
 20
362.6817516541398
 30
0.0
 10
-51.66237642493638
 20
362.6808462290264
 30
0.0
 10
-51.66399157165831
 20
362.6802347776857
 30
0.0
 10
-51.66554613012887
 20
362.6796625829994
 30
0.0
 10
-51.66717885050909
 20
362.6790729520126
 30
0.0
 10
-51.66887331630108
 20
362.678469888484
 30
0.0
 10
-51.67072155438547
 20
362.6778213351994
 30
0.0
 10
-51.67333317909799
 20
362.6769162626501
 30
0.0
 10
-51.67798683312151
 20
362.6753285733264
 30
0.0
 10
-51.70005720788978
 20
362.6679674391769
 30
0.0
 10
-51.76466470462164
 20
362.6475168914468
 30
0.0
 10
-51.89612741986102
 20
362.6045165961413
 30
0.0
 10
-52.14571982925181
 20
362.5123964910458
 30
0.0
 10
-52.53134325524635
 20
362.3353626462666
 30
0.0
 10
-53.06900912539708
 20
361.9963299487496
 30
0.0
 10
-53.56415941342085
 20
361.6109424172244
 30
0.0
 10
-53.87784569906058
 20
361.2587889279663
 30
0.0
 10
-53.97060427672834
 20
361.1546554089707
 30
0.0
  0
SPLINE
  5
166
330
1F
100
AcDbEntity
  8
0
100
AcDbSpline
210
0.0
220
0.0
230
1.0
 70
     8
 71
     3
 72
     9
 73
     5
 74
     0
 42
0.00000001
 43
0.00000001
 40
0.0
 40
0.0
 40
0.0
 40
0.0
 40
0.7506538215592204
 40
1.0
 40
1.0
 40
1.0
 40
1.0
 10
-50.77392708709759
 20
362.8046554070705
 30
0.0
 10
-50.87252154678092
 20
362.8033325567341
 30
0.0
 10
-51.00386632496182
 20
362.8015702925607
 30
0.0
 10
-51.14997776516579
 20
362.7810664431826
 30
0.0
 10
-51.18641009440712
 20
362.775953886697
 30
0.0
  0
LINE
  5
167
330
1F
100
AcDbEntity
  8
0
100
AcDbLine
 10
-173.1787464207
 20
362.7045537058
 30
0.0
 11
-173.5635908487
 21
362.6093912992
 31
0.0
  0
LINE
  5
168
330
1F
100
AcDbEntity
  8
0
100
AcDbLine
 10
-172.7739270871
 20
362.8046554071
 30
0.0
 11
-173.1787464207
 21
362.7045537058
 31
0.0
  0
SPLINE
  5
169
330
1F
100
AcDbEntity
  8
0
100
AcDbSpline
210
0.0
220
0.0
230
1.0
 70
     8
 71
     3
 72
    61
 73
    57
 74
     0
 42
0.00000001
 43
0.00000001
 40
0.0
 40
0.0
 40
0.0
 40
0.0
 40
0.0104047518822743
 40
0.0230602984848442
 40
0.0338417185686215
 40
0.0428578509846117
 40
0.0510050351196835
 40
0.058478677266276
 40
0.0652840813485164
 40
0.0718488728206509
 40
0.0863580487467216
 40
0.1021343459759385
 40
0.1183247138291128
 40
0.1343979330458571
 40
0.1591772707893572
 40
0.1837302293724807
 40
0.2083082151456839
 40
0.23286475031728
 40
0.2574510101751769
 40
0.2820155868582026
 40
0.3066027306589537
 40
0.3311806656250245
 40
0.3557620017140484
 40
0.3803541839450215
 40
0.4008313555555208
 40
0.4213331595800545
 40
0.441978830238117
 40
0.4638133780016075
 40
0.4842267535901914
 40
0.5018579709523284
 40
0.5226571929452802
 40
0.5438482758803045
 40
0.5647338314413056
 40
0.585282174672545
 40
0.6057855639820312
 40
0.6262756358602147
 40
0.6570365783105737
 40
0.6877764997695511
 40
0.7185387291597395
 40
0.749291487442112
 40
0.7739096272984202
 40
0.7985162299000167
 40
0.8231485223308949
 40
0.8477602507883162
 40
0.8726487331518927
 40
0.8818125212596868
 40
0.8911178688696187
 40
0.8998237320266369
 40
0.9075036368379154
 40
0.9141532574801582
 40
0.9210371756478928
 40
0.9293750894775689
 40
0.9466331005548506
 40
0.9642145845024532
 40
0.9825531491261636
 40
1.0
 40
1.0
 40
1.0
 40
1.0
 10
-172.5827101451481
 20
361.1682007451175
 30
0.0
 10
-172.4215505828801
 20
361.1484947300725
 30
0.0
 10
-172.0643688209664
 20
361.1048198213357
 30
0.0
 10
-171.5426470908651
 20
360.8029112664765
 30
0.0
 10
-171.010349286799
 20
360.3777147680616
 30
0.0
 10
-170.5010981235983
 20
359.8469526413041
 30
0.0
 10
-170.0460164213386
 20
359.2760905630053
 30
0.0
 10
-169.6255121044659
 20
358.6701053468674
 30
0.0
 10
-169.2273602101637
 20
358.0306094168341
 30
0.0
 10
-168.6864545519472
 20
357.0774452362144
 30
0.0
 10
-167.9613535814515
 20
355.6214617589458
 30
0.0
 10
-167.0389175960642
 20
353.4405272692124
 30
0.0
 10
-166.0831830745584
 20
350.8213000373904
 30
0.0
 10
-164.9395312243831
 20
347.2851993432815
 30
0.0
 10
-163.6254093388993
 20
342.6252927451028
 30
0.0
 10
-162.1407698801884
 20
336.5694600100338
 30
0.0
 10
-160.6524750495857
 20
329.7863622597897
 30
0.0
 10
-159.1706159699591
 20
322.2949730130308
 30
0.0
 10
-157.6795918635444
 20
314.1458988056933
 30
0.0
 10
-156.1956231820466
 20
305.3817843830806
 30
0.0
 10
-154.705053400644
 20
296.0603851662812
 30
0.0
 10
-153.2175918389654
 20
286.2325828440221
 30
0.0
 10
-151.7296053102614
 20
275.9584449184948
 30
0.0
 10
-150.3210615408997
 20
265.8918621796449
 30
0.0
 10
-149.0010851485754
 20
256.1527963767394
 30
0.0
 10
-147.7541498987852
 20
246.8134637962624
 30
0.0
 10
-146.4837456404006
 20
237.1155096464196
 30
0.0
 10
-145.2155374145167
 20
227.3147613016689
 30
0.0
 10
-144.0038258443839
 20
217.916651617483
 30
0.0
 10
-142.8186570774853
 20
208.6558860703289
 30
0.0
 10
-141.614766930566
 20
199.2773599011054
 30
0.0
 10
-140.3429972192917
 20
189.4352800638042
 30
0.0
 10
-139.0823614141816
 20
179.7220012695131
 30
0.0
 10
-137.8297873511381
 20
170.2445512669105
 30
0.0
 10
-136.5867441008026
 20
160.9921059120921
 30
0.0
 10
-135.1412734176904
 20
150.4405308702142
 30
0.0
 10
-133.4812798923153
 20
138.7788893626518
 30
0.0
 10
-131.6218574935967
 20
126.3155186976007
 30
0.0
 10
-129.7554631443412
 20
114.6263597061845
 30
0.0
 10
-128.0173897369377
 20
104.5325061419241
 30
0.0
 10
-126.3989628380959
 20
95.92524359486303
 30
0.0
 10
-124.9086901111635
 20
88.6469811136802
 30
0.0
 10
-123.4102526418441
 20
82.08327501158618
 30
0.0
 10
-121.9121935549256
 20
76.24676337664005
 30
0.0
 10
-120.7175052452501
 20
72.25151704729835
 30
0.0
 10
-119.8335504716789
 20
69.62635378109638
 30
0.0
 10
-119.2797548802925
 20
68.09354797798787
 30
0.0
 10
-118.7550175612753
 20
66.74958209044149
 30
0.0
 10
-118.28217999717
 20
65.63020992209375
 30
0.0
 10
-117.845458904618
 20
64.66939498494206
 30
0.0
 10
-117.3909384599882
 20
63.74163888186521
 30
0.0
 10
-116.7089085836332
 20
62.47277508932081
 30
0.0
 10
-115.7914261888173
 20
61.03677479929704
 30
0.0
 10
-114.6346210499632
 20
59.72352291375671
 30
0.0
 10
-113.3924136465278
 20
58.77290899859949
 30
0.0
 10
-112.4663306998263
 20
58.63197470889989
 30
0.0
 10
-112.0148274590993
 20
58.56326348950472
 30
0.0
  0
LINE
  5
16A
330
1F
100
AcDbEntity
  8
0
100
AcDbLine
 10
17.2125877512
 20
59.8028647961
 30
0.0
 11
17.5672509461
 21
60.154655409
 31
0.0
  0
SPLINE
  5
16B
330
1F
100
AcDbEntity
  8
0
100
AcDbSpline
210
0.0
220
0.0
230
1.0
 70
     8
 71
     3
 72
     9
 73
     5
 74
     0
 42
0.00000001
 43
0.00000001
 40
0.0
 40
0.0
 40
0.0
 40
0.0
 40
0.499990330180739
 40
1.0
 40
1.0
 40
1.0
 40
1.0
 10
-42.25961078277757
 20
359.9910796086029
 30
0.0
 10
-42.51424670801255
 20
360.2436278364382
 30
0.0
 10
-43.0235284078065
 20
360.748734060681
 30
0.0
 10
-43.53278101885588
 20
361.2538721117527
 30
0.0
 10
-43.78741224876129
 20
361.5064460218822
 30
0.0
  0
SPLINE
  5
16C
330
1F
100
AcDbEntity
  8
0
100
AcDbSpline
210
0.0
220
0.0
230
1.0
 70
     8
 71
     3
 72
     9
 73
     5
 74
     0
 42
0.00000001
 43
0.00000001
 40
0.0
 40
0.0
 40
0.0
 40
0.0
 40
0.4999903301807527
 40
1.0
 40
1.0
 40
1.0
 40
1.0
 10
79.74038921722243
 20
359.9910796086029
 30
0.0
 10
79.48575329198741
 20
360.2436278364382
 30
0.0
 10
78.97647159219342
 20
360.7487340606809
 30
0.0
 10
78.46721898114407
 20
361.2538721117527
 30
0.0
 10
78.21258775123869
 20
361.5064460218822
 30
0.0
  0
SPLINE
  5
16D
330
1F
100
AcDbEntity
  8
0
100
AcDbSpline
210
0.0
220
0.0
230
1.0
 70
     8
 71
     3
 72
     9
 73
     5
 74
     0
 42
0.00000001
 43
0.00000001
 40
0.0
 40
0.0
 40
0.0
 40
0.0
 40
0.4999903301807391
 40
1.0
 40
1.0
 40
1.0
 40
1.0
 10
-164.2596107827776
 20
359.9910796086029
 30
0.0
 10
-164.5142467080126
 20
360.2436278364382
 30
0.0
 10
-165.0235284078065
 20
360.748734060681
 30
0.0
 10
-165.5327810188559
 20
361.2538721117527
 30
0.0
 10
-165.7874122487613
 20
361.5064460218822
 30
0.0
  0
LINE
  5
16E
330
1F
100
AcDbEntity
  8
0
100
AcDbLine
 10
-104.7874122488
 20
59.8028647961
 30
0.0
 11
-104.4327490539
 21
60.154655409
 31
0.0
  0
LINE
  5
16F
330
1F
100
AcDbEntity
  8
0
100
AcDbLine
 10
16.538395523
 20
60.154655409
 30
0.0
 11
16.6430600289
 21
60.2453929097
 31
0.0
  0
LINE
  5
170
330
1F
100
AcDbEntity
  8
0
100
AcDbLine
 10
-105.461604477
 20
60.154655409
 30
0.0
 11
-105.3569399711
 21
60.2453929097
 31
0.0
  0
LINE
  5
171
330
1F
100
AcDbEntity
  8
0
100
AcDbLine
 10
71.4883396909
 20
361.154655409
 30
0.0
 11
-43.4327490539
 21
361.154655409
 31
0.0
  0
LINE
  5
172
330
1F
100
AcDbEntity
  8
0
100
AcDbLine
 10
126.4259172026
 20
361.154655409
 30
0.0
 11
116.5319372026
 21
361.154655409
 31
0.0
  0
LINE
  5
173
330
1F
100
AcDbEntity
  8
0
100
AcDbLine
 10
111.0504393465
 20
361.154655409
 30
0.0
 11
78.5672509461
 21
361.154655409
 31
0.0
  0
LINE
  5
174
330
1F
100
AcDbEntity
  8
0
100
AcDbLine
 10
-50.5116603091
 20
361.154655409
 30
0.0
 11
-165.4327490539
 21
361.154655409
 31
0.0
  0
LINE
  5
175
330
1F
100
AcDbEntity
  8
0
100
AcDbLine
 10
71.4883396909
 20
361.154655409
 30
0.0
 11
-43.4327490539
 21
361.154655409
 31
0.0
  0
LINE
  5
176
330
1F
100
AcDbEntity
  8
0
100
AcDbLine
 10
126.4259172026
 20
361.154655409
 30
0.0
 11
116.5319372026
 21
361.154655409
 31
0.0
  0
LINE
  5
177
330
1F
100
AcDbEntity
  8
0
100
AcDbLine
 10
111.0504393465
 20
361.154655409
 30
0.0
 11
78.5672509461
 21
361.154655409
 31
0.0
  0
LINE
  5
178
330
1F
100
AcDbEntity
  8
0
100
AcDbLine
 10
-105.5740179308
 20
60.154655409
 30
0.0
 11
7.0525248536
 21
60.154655409
 31
0.0
  0
LINE
  5
179
330
1F
100
AcDbEntity
  8
0
100
AcDbLine
 10
16.4259820692
 20
60.154655409
 30
0.0
 11
126.4259172026
 21
60.154655409
 31
0.0
  0
LINE
  5
17A
330
1F
100
AcDbEntity
  8
0
100
AcDbLine
 10
-173.5740827974
 20
60.154655409
 30
0.0
 11
-163.6801027974
 21
60.154655409
 31
0.0
  0
LINE
  5
17B
330
1F
100
AcDbEntity
  8
0
100
AcDbLine
 10
-158.1986049412
 20
60.154655409
 30
0.0
 11
-114.9474751464
 21
60.154655409
 31
0.0
  0
LINE
  5
17C
330
1F
100
AcDbEntity
  8
0
100
AcDbLine
 10
-50.5116603091
 20
361.154655409
 30
0.0
 11
-165.4327490539
 21
361.154655409
 31
0.0
  0
LINE
  5
17D
330
1F
100
AcDbEntity
  8
0
100
AcDbLine
 10
-214.6865523056
 20
312.5546554086
 30
0.0
 11
-215.1478686633
 21
312.459434996
 31
0.0
  0
LINE
  5
17E
330
1F
100
AcDbEntity
  8
0
100
AcDbLine
 10
-210.6059054952
 20
312.5546554035
 30
0.0
 11
-214.686298714
 21
312.5546554035
 31
0.0
  0
LINE
  5
17F
330
1F
100
AcDbEntity
  8
0
100
AcDbLine
 10
-206.7133645675
 20
310.6222769705
 30
0.0
 11
-206.7706039902
 21
310.6784978518
 31
0.0
  0
LINE
  5
180
330
1F
100
AcDbEntity
  8
0
100
AcDbLine
 10
-210.6311895787
 20
312.454655409
 30
0.0
 11
-210.6475274303
 21
312.454655409
 31
0.0
  0
LINE
  5
181
330
1F
100
AcDbEntity
  8
0
100
AcDbLine
 10
111.1259172026
 20
60.154655409
 30
0.0
 11
121.7259172026
 21
60.154655409
 31
0.0
  0
LINE
  5
182
330
1F
100
AcDbEntity
  8
0
100
AcDbLine
 10
111.1259172026
 20
59.154655409
 30
0.0
 11
121.7259172026
 21
59.154655409
 31
0.0
  0
LINE
  5
183
330
1F
100
AcDbEntity
  8
0
100
AcDbLine
 10
117.4259172026
 20
58.2874023684
 30
0.0
 11
118.3879932319
 21
58.5154778878
 31
0.0
  0
SPLINE
  5
184
330
1F
100
AcDbEntity
  8
0
100
AcDbSpline
210
0.0
220
0.0
230
1.0
 70
     8
 71
     3
 72
    12
 73
     8
 74
     0
 42
0.00000001
 43
0.00000001
 40
0.0
 40
0.0
 40
0.0
 40
0.0
 40
0.2174770912066508
 40
0.435370520825772
 40
0.6490388720033428
 40
0.8610609605882534
 40
1.0
 40
1.0
 40
1.0
 40
1.0
 10
116.9119649349845
 20
58.28740236838989
 30
0.0
 10
116.9185735733561
 20
58.27842480277911
 30
0.0
 10
116.9318035016847
 20
58.26045248489486
 30
0.0
 10
117.0226914896408
 20
58.24878385611667
 30
0.0
 10
117.1540293449898
 20
58.25176800350187
 30
0.0
 10
117.2962540091594
 20
58.26657691536325
 30
0.0
 10
117.3891438338019
 20
58.28149612742217
 30
0.0
 10
117.4259172026381
 20
58.28740236838992
 30
0.0
  0
LINE
  5
185
330
1F
100
AcDbEntity
  8
0
100
AcDbLine
 10
116.8879932319
 20
58.5154778878
 30
0.0
 11
116.911964935
 21
58.2874023684
 31
0.0
  0
LINE
  5
186
330
1F
100
AcDbEntity
  8
0
100
AcDbLine
 10
115.9638411733
 20
58.5154778878
 30
0.0
 11
116.8879932319
 21
58.5154778878
 31
0.0
  0
LINE
  5
187
330
1F
100
AcDbEntity
  8
0
100
AcDbLine
 10
115.9398694703
 20
58.2874023684
 30
0.0
 11
115.9638411733
 21
58.5154778878
 31
0.0
  0
SPLINE
  5
188
330
1F
100
AcDbEntity
  8
0
100
AcDbSpline
210
0.0
220
0.0
230
1.0
 70
     8
 71
     3
 72
    12
 73
     8
 74
     0
 42
0.00000001
 43
0.00000001
 40
0.0
 40
0.0
 40
0.0
 40
0.0
 40
0.2174770912066367
 40
0.4353705208257863
 40
0.6490388720033331
 40
0.8610609605882514
 40
1.0
 40
1.0
 40
1.0
 40
1.0
 10
115.4259172026381
 20
58.28740236838992
 30
0.0
 10
115.4836898427981
 20
58.27842480277911
 30
0.0
 10
115.5993457231318
 20
58.26045248489483
 30
0.0
 10
115.7534505861843
 20
58.2487838561167
 30
0.0
 10
115.8687029078436
 20
58.2517680035019
 30
0.0
 10
115.9294144527376
 20
58.26657691536325
 30
0.0
 10
115.9369043557793
 20
58.2814961274222
 30
0.0
 10
115.9398694702916
 20
58.28740236838992
 30
0.0
  0
LINE
  5
189
330
1F
100
AcDbEntity
  8
0
100
AcDbLine
 10
114.4638411733
 20
58.5154778878
 30
0.0
 11
115.4259172026
 21
58.2874023684
 31
0.0
  0
LINE
  5
18A
330
1F
100
AcDbEntity
  8
0
100
AcDbLine
 10
116.4259172026
 20
362.154655409
 30
0.0
 11
111.1259172026
 21
362.154655409
 31
0.0
  0
LINE
  5
18B
330
1F
100
AcDbEntity
  8
0
100
AcDbLine
 10
121.7259172026
 20
362.154655409
 30
0.0
 11
116.4259172026
 21
362.154655409
 31
0.0
  0
LINE
  5
18C
330
1F
100
AcDbEntity
  8
0
100
AcDbLine
 10
116.4259172026
 20
361.154655409
 30
0.0
 11
111.1259172026
 21
361.154655409
 31
0.0
  0
LINE
  5
18D
330
1F
100
AcDbEntity
  8
0
100
AcDbLine
 10
121.7259172026
 20
361.154655409
 30
0.0
 11
116.4259172026
 21
361.154655409
 31
0.0
  0
LINE
  5
18E
330
1F
100
AcDbEntity
  8
0
100
AcDbLine
 10
118.3879932319
 20
362.7938329302
 30
0.0
 11
117.4259172026
 21
363.0219084496
 31
0.0
  0
LINE
  5
18F
330
1F
100
AcDbEntity
  8
0
100
AcDbLine
 10
115.4259172026
 20
363.0219084496
 30
0.0
 11
114.4638411733
 21
362.7938329302
 31
0.0
  0
SPLINE
  5
190
330
1F
100
AcDbEntity
  8
0
100
AcDbSpline
210
0.0
220
0.0
230
1.0
 70
     8
 71
     3
 72
    12
 73
     8
 74
     0
 42
0.00000001
 43
0.00000001
 40
0.0
 40
0.0
 40
0.0
 40
0.0
 40
0.2174770912066532
 40
0.4353705208257705
 40
0.6490388720033395
 40
0.8610609605882491
 40
1.0
 40
1.0
 40
1.0
 40
1.0
 10
115.9398694702916
 20
363.0219084495519
 30
0.0
 10
115.9332608319201
 20
363.0308860151627
 30
0.0
 10
115.9200309035915
 20
363.048858333047
 30
0.0
 10
115.8291429156353
 20
363.060526961825
 30
0.0
 10
115.6978050602864
 20
363.0575428144399
 30
0.0
 10
115.5555803961167
 20
363.0427339025786
 30
0.0
 10
115.4626905714742
 20
363.0278146905196
 30
0.0
 10
115.4259172026381
 20
363.0219084495519
 30
0.0
  0
LINE
  5
191
330
1F
100
AcDbEntity
  8
0
100
AcDbLine
 10
115.9638411733
 20
362.7938329302
 30
0.0
 11
115.9398694703
 21
363.0219084496
 31
0.0
  0
LINE
  5
192
330
1F
100
AcDbEntity
  8
0
100
AcDbLine
 10
116.8879932319
 20
362.7938329302
 30
0.0
 11
115.9638411733
 21
362.7938329302
 31
0.0
  0
LINE
  5
193
330
1F
100
AcDbEntity
  8
0
100
AcDbLine
 10
116.911964935
 20
363.0219084496
 30
0.0
 11
116.8879932319
 21
362.7938329302
 31
0.0
  0
SPLINE
  5
194
330
1F
100
AcDbEntity
  8
0
100
AcDbSpline
210
0.0
220
0.0
230
1.0
 70
     8
 71
     3
 72
    12
 73
     8
 74
     0
 42
0.00000001
 43
0.00000001
 40
0.0
 40
0.0
 40
0.0
 40
0.0
 40
0.2174770912066833
 40
0.4353705208258725
 40
0.6490388720034594
 40
0.861060960588418
 40
1.0
 40
1.0
 40
1.0
 40
1.0
 10
117.4259172026381
 20
363.0219084495519
 30
0.0
 10
117.3681445624781
 20
363.0308860151627
 30
0.0
 10
117.2524886821444
 20
363.048858333047
 30
0.0
 10
117.0983838190918
 20
363.0605269618251
 30
0.0
 10
116.9831314974326
 20
363.0575428144399
 30
0.0
 10
116.9224199525385
 20
363.0427339025786
 30
0.0
 10
116.9149300494969
 20
363.0278146905197
 30
0.0
 10
116.9119649349845
 20
363.021908449552
 30
0.0
  0
LINE
  5
195
330
1F
100
AcDbEntity
  8
0
100
AcDbLine
 10
-165.5361588267
 20
211.1167314383
 30
0.0
 11
-164.5740827974
 21
211.1407031413
 31
0.0
  0
LINE
  5
196
330
1F
100
AcDbEntity
  8
0
100
AcDbLine
 10
-165.5361588267
 20
210.1925793797
 30
0.0
 11
-165.5361588267
 21
211.1167314383
 31
0.0
  0
LINE
  5
197
330
1F
100
AcDbEntity
  8
0
100
AcDbLine
 10
-164.5740827974
 20
210.1686076766
 30
0.0
 11
-165.5361588267
 21
210.1925793797
 31
0.0
  0
SPLINE
  5
198
330
1F
100
AcDbEntity
  8
0
100
AcDbSpline
210
0.0
220
0.0
230
1.0
 70
     8
 71
     3
 72
    12
 73
     8
 74
     0
 42
0.00000001
 43
0.00000001
 40
0.0
 40
0.0
 40
0.0
 40
0.0
 40
0.2174770912066495
 40
0.43537052082577
 40
0.6490388720033408
 40
0.8610609605882482
 40
1.0
 40
1.0
 40
1.0
 40
1.0
 10
-164.0601305297085
 20
209.6546554089682
 30
0.0
 10
-164.06673916808
 20
209.7124280491282
 30
0.0
 10
-164.0799690964087
 20
209.828083929462
 30
0.0
 10
-164.1708570843648
 20
209.9821887925145
 30
0.0
 10
-164.3021949397137
 20
210.0974411141738
 30
0.0
 10
-164.4444196038834
 20
210.1581526590678
 30
0.0
 10
-164.5373094285259
 20
210.1656425621095
 30
0.0
 10
-164.574082797362
 20
210.1686076766218
 30
0.0
  0
LINE
  5
199
330
1F
100
AcDbEntity
  8
0
100
AcDbLine
 10
-164.0361588267
 20
208.6925793797
 30
0.0
 11
-164.0601305297
 21
209.654655409
 31
0.0
  0
LINE
  5
19A
330
1F
100
AcDbEntity
  8
0
100
AcDbLine
 10
-163.1120067681
 20
208.6925793797
 30
0.0
 11
-164.0361588267
 21
208.6925793797
 31
0.0
  0
LINE
  5
19B
330
1F
100
AcDbEntity
  8
0
100
AcDbLine
 10
-163.088035065
 20
209.654655409
 30
0.0
 11
-163.1120067681
 21
208.6925793797
 31
0.0
  0
SPLINE
  5
19C
330
1F
100
AcDbEntity
  8
0
100
AcDbSpline
210
0.0
220
0.0
230
1.0
 70
     8
 71
     3
 72
    12
 73
     8
 74
     0
 42
0.00000001
 43
0.00000001
 40
0.0
 40
0.0
 40
0.0
 40
0.0
 40
0.2174770912066372
 40
0.4353705208257875
 40
0.6490388720033343
 40
0.8610609605882522
 40
1.0
 40
1.0
 40
1.0
 40
1.0
 10
-162.574082797362
 20
210.1686076766218
 30
0.0
 10
-162.631855437522
 20
210.1619990382503
 30
0.0
 10
-162.7475113178557
 20
210.1487691099216
 30
0.0
 10
-162.9016161809083
 20
210.0578811219655
 30
0.0
 10
-163.0168685025676
 20
209.9265432666166
 30
0.0
 10
-163.0775800474615
 20
209.7843186024469
 30
0.0
 10
-163.0850699505032
 20
209.6914287778044
 30
0.0
 10
-163.0880350650156
 20
209.6546554089682
 30
0.0
  0
LINE
  5
19D
330
1F
100
AcDbEntity
  8
0
100
AcDbLine
 10
-161.6120067681
 20
210.1925793797
 30
0.0
 11
-162.5740827974
 21
210.1686076766
 31
0.0
  0
LINE
  5
19E
330
1F
100
AcDbEntity
  8
0
100
AcDbLine
 10
-161.6120067681
 20
211.1167314383
 30
0.0
 11
-161.6120067681
 21
210.1925793797
 31
0.0
  0
LINE
  5
19F
330
1F
100
AcDbEntity
  8
0
100
AcDbLine
 10
-162.5740827974
 20
211.1407031413
 30
0.0
 11
-161.6120067681
 21
211.1167314383
 31
0.0
  0
SPLINE
  5
1A0
330
1F
100
AcDbEntity
  8
0
100
AcDbSpline
210
0.0
220
0.0
230
1.0
 70
     8
 71
     3
 72
    12
 73
     8
 74
     0
 42
0.00000001
 43
0.00000001
 40
0.0
 40
0.0
 40
0.0
 40
0.0
 40
0.2174770912066503
 40
0.4353705208257717
 40
0.6490388720033425
 40
0.8610609605882533
 40
1.0
 40
1.0
 40
1.0
 40
1.0
 10
-163.0880350650156
 20
211.6546554089682
 30
0.0
 10
-163.081426426644
 20
211.5968827688083
 30
0.0
 10
-163.0681964983154
 20
211.4812268884745
 30
0.0
 10
-162.9773085103593
 20
211.327122025422
 30
0.0
 10
-162.8459706550102
 20
211.2118697037627
 30
0.0
 10
-162.7037459908407
 20
211.1511581588687
 30
0.0
 10
-162.6108561661981
 20
211.143668255827
 30
0.0
 10
-162.574082797362
 20
211.1407031413147
 30
0.0
  0
LINE
  5
1A1
330
1F
100
AcDbEntity
  8
0
100
AcDbLine
 10
-163.1120067681
 20
212.6167314383
 30
0.0
 11
-163.088035065
 21
211.654655409
 31
0.0
  0
LINE
  5
1A2
330
1F
100
AcDbEntity
  8
0
100
AcDbLine
 10
-164.0361588267
 20
212.6167314383
 30
0.0
 11
-163.1120067681
 21
212.6167314383
 31
0.0
  0
LINE
  5
1A3
330
1F
100
AcDbEntity
  8
0
100
AcDbLine
 10
-164.0601305297
 20
211.654655409
 30
0.0
 11
-164.0361588267
 21
212.6167314383
 31
0.0
  0
SPLINE
  5
1A4
330
1F
100
AcDbEntity
  8
0
100
AcDbSpline
210
0.0
220
0.0
230
1.0
 70
     8
 71
     3
 72
    12
 73
     8
 74
     0
 42
0.00000001
 43
0.00000001
 40
0.0
 40
0.0
 40
0.0
 40
0.0
 40
0.2174770912066787
 40
0.4353705208258704
 40
0.6490388720034584
 40
0.8610609605884175
 40
1.0
 40
1.0
 40
1.0
 40
1.0
 10
-164.5740827973621
 20
211.1407031413147
 30
0.0
 10
-164.5163101572021
 20
211.1473117796863
 30
0.0
 10
-164.4006542768683
 20
211.1605417080148
 30
0.0
 10
-164.2465494138157
 20
211.251429695971
 30
0.0
 10
-164.1312970921565
 20
211.38276755132
 30
0.0
 10
-164.0705855472625
 20
211.5249922154895
 30
0.0
 10
-164.0630956442208
 20
211.617882040132
 30
0.0
 10
-164.0601305297085
 20
211.6546554089681
 30
0.0
  0
CIRCLE
  5
1A5
330
1F
100
AcDbEntity
  8
0
100
AcDbCircle
 10
-163.5740827974
 20
210.654655409
 30
0.0
 40
3.5
  0
ARC
  5
1A6
330
1F
100
AcDbEntity
  8
0
100
AcDbCircle
 10
-164.5740827974
 20
209.654655409
 30
0.0
 40
0.71020847053137
100
AcDbArc
 50
0.0
 51
90.0
  0
ARC
  5
1A7
330
1F
100
AcDbEntity
  8
0
100
AcDbCircle
 10
-164.5740827974
 20
211.654655409
 30
0.0
 40
0.71020847053137
100
AcDbArc
 50
270.0
 51
0.0
  0
ARC
  5
1A8
330
1F
100
AcDbEntity
  8
0
100
AcDbCircle
 10
-162.5740827974
 20
209.654655409
 30
0.0
 40
0.71020847053137
100
AcDbArc
 50
90.0
 51
180.0
  0
ARC
  5
1A9
330
1F
100
AcDbEntity
  8
0
100
AcDbCircle
 10
-162.5740827974
 20
211.654655409
 30
0.0
 40
0.7102084705313416
100
AcDbArc
 50
180.0
 51
270.0
  0
LINE
  5
1AA
330
1F
100
AcDbEntity
  8
0
100
AcDbLine
 10
-163.8638743268
 20
212.4444469384
 30
0.0
 11
-164.0361588267
 21
212.6167314383
 31
0.0
  0
LINE
  5
1AB
330
1F
100
AcDbEntity
  8
0
100
AcDbLine
 10
-163.8638743268
 20
211.654655409
 30
0.0
 11
-163.8638743268
 21
212.4444469384
 31
0.0
  0
LINE
  5
1AC
330
1F
100
AcDbEntity
  8
0
100
AcDbLine
 10
-163.2842912679
 20
212.4444469384
 30
0.0
 11
-163.2842912679
 21
211.654655409
 31
0.0
  0
LINE
  5
1AD
330
1F
100
AcDbEntity
  8
0
100
AcDbLine
 10
-163.2842912679
 20
212.4444469384
 30
0.0
 11
-163.1120067681
 21
212.6167314383
 31
0.0
  0
LINE
  5
1AE
330
1F
100
AcDbEntity
  8
0
100
AcDbLine
 10
-161.7842912679
 20
210.9444469384
 30
0.0
 11
-161.6120067681
 21
211.1167314383
 31
0.0
  0
LINE
  5
1AF
330
1F
100
AcDbEntity
  8
0
100
AcDbLine
 10
-162.5740827974
 20
210.9444469384
 30
0.0
 11
-161.7842912679
 21
210.9444469384
 31
0.0
  0
LINE
  5
1B0
330
1F
100
AcDbEntity
  8
0
100
AcDbLine
 10
-165.3638743268
 20
210.9444469384
 30
0.0
 11
-164.5740827974
 21
210.9444469384
 31
0.0
  0
LINE
  5
1B1
330
1F
100
AcDbEntity
  8
0
100
AcDbLine
 10
-165.3638743268
 20
210.9444469384
 30
0.0
 11
-165.5361588267
 21
211.1167314383
 31
0.0
  0
LINE
  5
1B2
330
1F
100
AcDbEntity
  8
0
100
AcDbLine
 10
-163.2842912679
 20
208.8648638795
 30
0.0
 11
-163.1120067681
 21
208.6925793797
 31
0.0
  0
LINE
  5
1B3
330
1F
100
AcDbEntity
  8
0
100
AcDbLine
 10
-163.2842912679
 20
209.654655409
 30
0.0
 11
-163.2842912679
 21
208.8648638795
 31
0.0
  0
LINE
  5
1B4
330
1F
100
AcDbEntity
  8
0
100
AcDbLine
 10
-161.7842912679
 20
210.3648638795
 30
0.0
 11
-162.5740827974
 21
210.3648638795
 31
0.0
  0
LINE
  5
1B5
330
1F
100
AcDbEntity
  8
0
100
AcDbLine
 10
-161.7842912679
 20
210.3648638795
 30
0.0
 11
-161.6120067681
 21
210.1925793797
 31
0.0
  0
LINE
  5
1B6
330
1F
100
AcDbEntity
  8
0
100
AcDbLine
 10
-165.3638743268
 20
210.3648638795
 30
0.0
 11
-165.5361588267
 21
210.1925793797
 31
0.0
  0
LINE
  5
1B7
330
1F
100
AcDbEntity
  8
0
100
AcDbLine
 10
-164.5740827974
 20
210.3648638795
 30
0.0
 11
-165.3638743268
 21
210.3648638795
 31
0.0
  0
LINE
  5
1B8
330
1F
100
AcDbEntity
  8
0
100
AcDbLine
 10
-163.8638743268
 20
208.8648638795
 30
0.0
 11
-163.8638743268
 21
209.654655409
 31
0.0
  0
LINE
  5
1B9
330
1F
100
AcDbEntity
  8
0
100
AcDbLine
 10
-163.8638743268
 20
208.8648638795
 30
0.0
 11
-164.0361588267
 21
208.6925793797
 31
0.0
  0
LINE
  5
1BA
330
1F
100
AcDbEntity
  8
0
100
AcDbLine
 10
-163.8638743268
 20
212.4444469384
 30
0.0
 11
-163.2842912679
 21
212.4444469384
 31
0.0
  0
LINE
  5
1BB
330
1F
100
AcDbEntity
  8
0
100
AcDbLine
 10
-161.7842912679
 20
210.9444469384
 30
0.0
 11
-161.7842912679
 21
210.3648638795
 31
0.0
  0
LINE
  5
1BC
330
1F
100
AcDbEntity
  8
0
100
AcDbLine
 10
-165.3638743268
 20
210.3648638795
 30
0.0
 11
-165.3638743268
 21
210.9444469384
 31
0.0
  0
LINE
  5
1BD
330
1F
100
AcDbEntity
  8
0
100
AcDbLine
 10
-163.2842912679
 20
208.8648638795
 30
0.0
 11
-163.8638743268
 21
208.8648638795
 31
0.0
  0
CIRCLE
  5
1BE
330
1F
100
AcDbEntity
  8
0
100
AcDbCircle
 10
-163.5740827974
 20
210.654655409
 30
0.0
 40
5.5
  0
LINE
  5
1BF
330
1F
100
AcDbEntity
  8
0
100
AcDbLine
 10
-163.5740827974
 20
60.154655409
 30
0.0
 11
-158.2740827974
 21
60.154655409
 31
0.0
  0
LINE
  5
1C0
330
1F
100
AcDbEntity
  8
0
100
AcDbLine
 10
-168.8740827974
 20
60.154655409
 30
0.0
 11
-163.5740827974
 21
60.154655409
 31
0.0
  0
LINE
  5
1C1
330
1F
100
AcDbEntity
  8
0
100
AcDbLine
 10
-163.5740827974
 20
59.154655409
 30
0.0
 11
-158.2740827974
 21
59.154655409
 31
0.0
  0
LINE
  5
1C2
330
1F
100
AcDbEntity
  8
0
100
AcDbLine
 10
-168.8740827974
 20
59.154655409
 30
0.0
 11
-163.5740827974
 21
59.154655409
 31
0.0
  0
LINE
  5
1C3
330
1F
100
AcDbEntity
  8
0
100
AcDbLine
 10
-165.5361588267
 20
58.5154778878
 30
0.0
 11
-164.5740827974
 21
58.2874023684
 31
0.0
  0
LINE
  5
1C4
330
1F
100
AcDbEntity
  8
0
100
AcDbLine
 10
-162.5740827974
 20
58.2874023684
 30
0.0
 11
-161.6120067681
 21
58.5154778878
 31
0.0
  0
SPLINE
  5
1C5
330
1F
100
AcDbEntity
  8
0
100
AcDbSpline
210
0.0
220
0.0
230
1.0
 70
     8
 71
     3
 72
    12
 73
     8
 74
     0
 42
0.00000001
 43
0.00000001
 40
0.0
 40
0.0
 40
0.0
 40
0.0
 40
0.2174770912066505
 40
0.4353705208257719
 40
0.6490388720033428
 40
0.8610609605882534
 40
1.0
 40
1.0
 40
1.0
 40
1.0
 10
-163.0880350650156
 20
58.28740236838992
 30
0.0
 10
-163.081426426644
 20
58.27842480277914
 30
0.0
 10
-163.0681964983154
 20
58.26045248489486
 30
0.0
 10
-162.9773085103593
 20
58.24878385611667
 30
0.0
 10
-162.8459706550103
 20
58.2517680035019
 30
0.0
 10
-162.7037459908407
 20
58.26657691536316
 30
0.0
 10
-162.6108561661982
 20
58.28149612742217
 30
0.0
 10
-162.574082797362
 20
58.28740236838992
 30
0.0
  0
LINE
  5
1C6
330
1F
100
AcDbEntity
  8
0
100
AcDbLine
 10
-163.1120067681
 20
58.5154778878
 30
0.0
 11
-163.088035065
 21
58.2874023684
 31
0.0
  0
LINE
  5
1C7
330
1F
100
AcDbEntity
  8
0
100
AcDbLine
 10
-164.0361588267
 20
58.5154778878
 30
0.0
 11
-163.1120067681
 21
58.5154778878
 31
0.0
  0
LINE
  5
1C8
330
1F
100
AcDbEntity
  8
0
100
AcDbLine
 10
-164.0601305297
 20
58.2874023684
 30
0.0
 11
-164.0361588267
 21
58.5154778878
 31
0.0
  0
SPLINE
  5
1C9
330
1F
100
AcDbEntity
  8
0
100
AcDbSpline
210
0.0
220
0.0
230
1.0
 70
     8
 71
     3
 72
    12
 73
     8
 74
     0
 42
0.00000001
 43
0.00000001
 40
0.0
 40
0.0
 40
0.0
 40
0.0
 40
0.2174770912066786
 40
0.4353705208258702
 40
0.6490388720034581
 40
0.8610609605884173
 40
1.0
 40
1.0
 40
1.0
 40
1.0
 10
-164.574082797362
 20
58.28740236838992
 30
0.0
 10
-164.5163101572021
 20
58.27842480277911
 30
0.0
 10
-164.4006542768683
 20
58.26045248489483
 30
0.0
 10
-164.2465494138157
 20
58.2487838561167
 30
0.0
 10
-164.1312970921565
 20
58.2517680035019
 30
0.0
 10
-164.0705855472625
 20
58.26657691536316
 30
0.0
 10
-164.0630956442209
 20
58.28149612742214
 30
0.0
 10
-164.0601305297085
 20
58.28740236838989
 30
0.0
  0
LINE
  5
1CA
330
1F
100
AcDbEntity
  8
0
100
AcDbLine
 10
-158.2740827974
 20
362.154655409
 30
0.0
 11
-166.8652240683
 21
362.154655409
 31
0.0
  0
LINE
  5
1CB
330
1F
100
AcDbEntity
  8
0
100
AcDbLine
 10
-158.2740827974
 20
361.154655409
 30
0.0
 11
-165.4562068263
 21
361.154655409
 31
0.0
  0
LINE
  5
1CC
330
1F
100
AcDbEntity
  8
0
100
AcDbLine
 10
-164.5740827974
 20
363.0219084496
 30
0.0
 11
-165.5361588267
 21
362.7938329302
 31
0.0
  0
SPLINE
  5
1CD
330
1F
100
AcDbEntity
  8
0
100
AcDbSpline
210
0.0
220
0.0
230
1.0
 70
     8
 71
     3
 72
    12
 73
     8
 74
     0
 42
0.00000001
 43
0.00000001
 40
0.0
 40
0.0
 40
0.0
 40
0.0
 40
0.2174770912066535
 40
0.4353705208257707
 40
0.6490388720033395
 40
0.861060960588249
 40
0.9999999999999999
 40
0.9999999999999999
 40
0.9999999999999999
 40
0.9999999999999999
 10
-164.0601305297085
 20
363.0219084495519
 30
0.0
 10
-164.06673916808
 20
363.0308860151627
 30
0.0
 10
-164.0799690964087
 20
363.048858333047
 30
0.0
 10
-164.1708570843648
 20
363.060526961825
 30
0.0
 10
-164.3021949397138
 20
363.05754281444
 30
0.0
 10
-164.4444196038834
 20
363.0427339025786
 30
0.0
 10
-164.5373094285259
 20
363.0278146905196
 30
0.0
 10
-164.574082797362
 20
363.0219084495519
 30
0.0
  0
LINE
  5
1CE
330
1F
100
AcDbEntity
  8
0
100
AcDbLine
 10
-164.0361588267
 20
362.7938329302
 30
0.0
 11
-164.0601305297
 21
363.0219084496
 31
0.0
  0
LINE
  5
1CF
330
1F
100
AcDbEntity
  8
0
100
AcDbLine
 10
-163.1120067681
 20
362.7938329302
 30
0.0
 11
-164.0361588267
 21
362.7938329302
 31
0.0
  0
LINE
  5
1D0
330
1F
100
AcDbEntity
  8
0
100
AcDbLine
 10
-163.088035065
 20
363.0219084496
 30
0.0
 11
-163.1120067681
 21
362.7938329302
 31
0.0
  0
SPLINE
  5
1D1
330
1F
100
AcDbEntity
  8
0
100
AcDbSpline
210
0.0
220
0.0
230
1.0
 70
     8
 71
     3
 72
    12
 73
     8
 74
     0
 42
0.00000001
 43
0.00000001
 40
0.0
 40
0.0
 40
0.0
 40
0.0
 40
0.2174770912066403
 40
0.4353705208257864
 40
0.6490388720033311
 40
0.8610609605882477
 40
1.0
 40
1.0
 40
1.0
 40
1.0
 10
-162.574082797362
 20
363.0219084495519
 30
0.0
 10
-162.631855437522
 20
363.0308860151627
 30
0.0
 10
-162.7475113178558
 20
363.048858333047
 30
0.0
 10
-162.9016161809083
 20
363.060526961825
 30
0.0
 10
-163.0168685025675
 20
363.0575428144399
 30
0.0
 10
-163.0775800474616
 20
363.0427339025786
 30
0.0
 10
-163.0850699505032
 20
363.0278146905196
 30
0.0
 10
-163.0880350650156
 20
363.0219084495519
 30
0.0
  0
LINE
  5
1D2
330
1F
100
AcDbEntity
  8
0
100
AcDbLine
 10
-161.6120067681
 20
362.7938329302
 30
0.0
 11
-162.5740827974
 21
363.0219084496
 31
0.0
  0
LINE
  5
1D3
330
1F
100
AcDbEntity
  8
0
100
AcDbLine
 10
118.3879932319
 20
210.1925793797
 30
0.0
 11
117.4259172026
 21
210.1686076766
 31
0.0
  0
LINE
  5
1D4
330
1F
100
AcDbEntity
  8
0
100
AcDbLine
 10
118.3879932319
 20
211.1167314383
 30
0.0
 11
118.3879932319
 21
210.1925793797
 31
0.0
  0
LINE
  5
1D5
330
1F
100
AcDbEntity
  8
0
100
AcDbLine
 10
117.4259172026
 20
211.1407031413
 30
0.0
 11
118.3879932319
 21
211.1167314383
 31
0.0
  0
SPLINE
  5
1D6
330
1F
100
AcDbEntity
  8
0
100
AcDbSpline
210
0.0
220
0.0
230
1.0
 70
     8
 71
     3
 72
    12
 73
     8
 74
     0
 42
0.00000001
 43
0.00000001
 40
0.0
 40
0.0
 40
0.0
 40
0.0
 40
0.2174770912066507
 40
0.4353705208257719
 40
0.6490388720033426
 40
0.8610609605882533
 40
1.0
 40
1.0
 40
1.0
 40
1.0
 10
116.9119649349845
 20
211.6546554089682
 30
0.0
 10
116.9185735733561
 20
211.5968827688083
 30
0.0
 10
116.9318035016846
 20
211.4812268884745
 30
0.0
 10
117.0226914896408
 20
211.327122025422
 30
0.0
 10
117.1540293449898
 20
211.2118697037627
 30
0.0
 10
117.2962540091594
 20
211.1511581588687
 30
0.0
 10
117.3891438338019
 20
211.143668255827
 30
0.0
 10
117.4259172026381
 20
211.1407031413147
 30
0.0
  0
LINE
  5
1D7
330
1F
100
AcDbEntity
  8
0
100
AcDbLine
 10
116.8879932319
 20
212.6167314383
 30
0.0
 11
116.911964935
 21
211.654655409
 31
0.0
  0
LINE
  5
1D8
330
1F
100
AcDbEntity
  8
0
100
AcDbLine
 10
115.9638411733
 20
212.6167314383
 30
0.0
 11
116.8879932319
 21
212.6167314383
 31
0.0
  0
LINE
  5
1D9
330
1F
100
AcDbEntity
  8
0
100
AcDbLine
 10
115.9398694703
 20
211.654655409
 30
0.0
 11
115.9638411733
 21
212.6167314383
 31
0.0
  0
SPLINE
  5
1DA
330
1F
100
AcDbEntity
  8
0
100
AcDbSpline
210
0.0
220
0.0
230
1.0
 70
     8
 71
     3
 72
    12
 73
     8
 74
     0
 42
0.00000001
 43
0.00000001
 40
0.0
 40
0.0
 40
0.0
 40
0.0
 40
0.2174770912066367
 40
0.4353705208257865
 40
0.6490388720033333
 40
0.8610609605882515
 40
1.0
 40
1.0
 40
1.0
 40
1.0
 10
115.4259172026381
 20
211.1407031413147
 30
0.0
 10
115.483689842798
 20
211.1473117796863
 30
0.0
 10
115.5993457231317
 20
211.1605417080148
 30
0.0
 10
115.7534505861844
 20
211.251429695971
 30
0.0
 10
115.8687029078435
 20
211.3827675513199
 30
0.0
 10
115.9294144527376
 20
211.5249922154896
 30
0.0
 10
115.9369043557793
 20
211.6178820401321
 30
0.0
 10
115.9398694702916
 20
211.6546554089682
 30
0.0
  0
LINE
  5
1DB
330
1F
100
AcDbEntity
  8
0
100
AcDbLine
 10
114.4638411733
 20
211.1167314383
 30
0.0
 11
115.4259172026
 21
211.1407031413
 31
0.0
  0
LINE
  5
1DC
330
1F
100
AcDbEntity
  8
0
100
AcDbLine
 10
114.4638411733
 20
210.1925793797
 30
0.0
 11
114.4638411733
 21
211.1167314383
 31
0.0
  0
LINE
  5
1DD
330
1F
100
AcDbEntity
  8
0
100
AcDbLine
 10
115.4259172026
 20
210.1686076766
 30
0.0
 11
114.4638411733
 21
210.1925793797
 31
0.0
  0
SPLINE
  5
1DE
330
1F
100
AcDbEntity
  8
0
100
AcDbSpline
210
0.0
220
0.0
230
1.0
 70
     8
 71
     3
 72
    12
 73
     8
 74
     0
 42
0.00000001
 43
0.00000001
 40
0.0
 40
0.0
 40
0.0
 40
0.0
 40
0.2174770912066491
 40
0.4353705208257698
 40
0.6490388720033406
 40
0.8610609605882482
 40
1.0
 40
1.0
 40
1.0
 40
1.0
 10
115.9398694702916
 20
209.6546554089682
 30
0.0
 10
115.9332608319201
 20
209.7124280491282
 30
0.0
 10
115.9200309035915
 20
209.828083929462
 30
0.0
 10
115.8291429156353
 20
209.9821887925145
 30
0.0
 10
115.6978050602863
 20
210.0974411141738
 30
0.0
 10
115.5555803961168
 20
210.1581526590678
 30
0.0
 10
115.4626905714742
 20
210.1656425621095
 30
0.0
 10
115.4259172026381
 20
210.1686076766218
 30
0.0
  0
LINE
  5
1DF
330
1F
100
AcDbEntity
  8
0
100
AcDbLine
 10
115.9638411733
 20
208.6925793797
 30
0.0
 11
115.9398694703
 21
209.654655409
 31
0.0
  0
LINE
  5
1E0
330
1F
100
AcDbEntity
  8
0
100
AcDbLine
 10
116.8879932319
 20
208.6925793797
 30
0.0
 11
115.9638411733
 21
208.6925793797
 31
0.0
  0
LINE
  5
1E1
330
1F
100
AcDbEntity
  8
0
100
AcDbLine
 10
116.911964935
 20
209.654655409
 30
0.0
 11
116.8879932319
 21
208.6925793797
 31
0.0
  0
SPLINE
  5
1E2
330
1F
100
AcDbEntity
  8
0
100
AcDbSpline
210
0.0
220
0.0
230
1.0
 70
     8
 71
     3
 72
    12
 73
     8
 74
     0
 42
0.00000001
 43
0.00000001
 40
0.0
 40
0.0
 40
0.0
 40
0.0
 40
0.2174770912066791
 40
0.4353705208258713
 40
0.6490388720034593
 40
0.8610609605884181
 40
1.0
 40
1.0
 40
1.0
 40
1.0
 10
117.4259172026381
 20
210.1686076766218
 30
0.0
 10
117.3681445624781
 20
210.1619990382503
 30
0.0
 10
117.2524886821443
 20
210.1487691099216
 30
0.0
 10
117.0983838190918
 20
210.0578811219655
 30
0.0
 10
116.9831314974325
 20
209.9265432666166
 30
0.0
 10
116.9224199525386
 20
209.7843186024469
 30
0.0
 10
116.9149300494969
 20
209.6914287778045
 30
0.0
 10
116.9119649349845
 20
209.6546554089684
 30
0.0
  0
CIRCLE
  5
1E3
330
1F
100
AcDbEntity
  8
0
100
AcDbCircle
 10
116.4259172026
 20
210.654655409
 30
0.0
 40
3.5
  0
ARC
  5
1E4
330
1F
100
AcDbEntity
  8
0
100
AcDbCircle
 10
115.4259172026
 20
209.654655409
 30
0.0
 40
0.71020847053137
100
AcDbArc
 50
0.0
 51
90.0
  0
ARC
  5
1E5
330
1F
100
AcDbEntity
  8
0
100
AcDbCircle
 10
117.4259172026
 20
211.654655409
 30
0.0
 40
0.7102084705313558
100
AcDbArc
 50
180.0
 51
270.0
  0
ARC
  5
1E6
330
1F
100
AcDbEntity
  8
0
100
AcDbCircle
 10
117.4259172026
 20
209.654655409
 30
0.0
 40
0.71020847053137
100
AcDbArc
 50
90.0
 51
180.0
  0
ARC
  5
1E7
330
1F
100
AcDbEntity
  8
0
100
AcDbCircle
 10
115.4259172026
 20
211.654655409
 30
0.0
 40
0.7102084705313558
100
AcDbArc
 50
270.0
 51
0.0
  0
LINE
  5
1E8
330
1F
100
AcDbEntity
  8
0
100
AcDbLine
 10
116.1361256732
 20
212.4444469384
 30
0.0
 11
115.9638411733
 21
212.6167314383
 31
0.0
  0
LINE
  5
1E9
330
1F
100
AcDbEntity
  8
0
100
AcDbLine
 10
116.1361256732
 20
211.654655409
 30
0.0
 11
116.1361256732
 21
212.4444469384
 31
0.0
  0
LINE
  5
1EA
330
1F
100
AcDbEntity
  8
0
100
AcDbLine
 10
116.7157087321
 20
212.4444469384
 30
0.0
 11
116.7157087321
 21
211.654655409
 31
0.0
  0
LINE
  5
1EB
330
1F
100
AcDbEntity
  8
0
100
AcDbLine
 10
116.7157087321
 20
212.4444469384
 30
0.0
 11
116.8879932319
 21
212.6167314383
 31
0.0
  0
LINE
  5
1EC
330
1F
100
AcDbEntity
  8
0
100
AcDbLine
 10
118.2157087321
 20
210.9444469384
 30
0.0
 11
118.3879932319
 21
211.1167314383
 31
0.0
  0
LINE
  5
1ED
330
1F
100
AcDbEntity
  8
0
100
AcDbLine
 10
117.4259172026
 20
210.9444469384
 30
0.0
 11
118.2157087321
 21
210.9444469384
 31
0.0
  0
LINE
  5
1EE
330
1F
100
AcDbEntity
  8
0
100
AcDbLine
 10
114.6361256732
 20
210.9444469384
 30
0.0
 11
115.4259172026
 21
210.9444469384
 31
0.0
  0
LINE
  5
1EF
330
1F
100
AcDbEntity
  8
0
100
AcDbLine
 10
114.6361256732
 20
210.9444469384
 30
0.0
 11
114.4638411733
 21
211.1167314383
 31
0.0
  0
LINE
  5
1F0
330
1F
100
AcDbEntity
  8
0
100
AcDbLine
 10
116.7157087321
 20
208.8648638795
 30
0.0
 11
116.8879932319
 21
208.6925793797
 31
0.0
  0
LINE
  5
1F1
330
1F
100
AcDbEntity
  8
0
100
AcDbLine
 10
116.7157087321
 20
209.654655409
 30
0.0
 11
116.7157087321
 21
208.8648638795
 31
0.0
  0
LINE
  5
1F2
330
1F
100
AcDbEntity
  8
0
100
AcDbLine
 10
116.1361256732
 20
208.8648638795
 30
0.0
 11
116.1361256732
 21
209.654655409
 31
0.0
  0
LINE
  5
1F3
330
1F
100
AcDbEntity
  8
0
100
AcDbLine
 10
116.1361256732
 20
208.8648638795
 30
0.0
 11
115.9638411733
 21
208.6925793797
 31
0.0
  0
LINE
  5
1F4
330
1F
100
AcDbEntity
  8
0
100
AcDbLine
 10
118.2157087321
 20
210.3648638795
 30
0.0
 11
117.4259172026
 21
210.3648638795
 31
0.0
  0
LINE
  5
1F5
330
1F
100
AcDbEntity
  8
0
100
AcDbLine
 10
118.2157087321
 20
210.3648638795
 30
0.0
 11
118.3879932319
 21
210.1925793797
 31
0.0
  0
LINE
  5
1F6
330
1F
100
AcDbEntity
  8
0
100
AcDbLine
 10
114.6361256732
 20
210.3648638795
 30
0.0
 11
114.4638411733
 21
210.1925793797
 31
0.0
  0
LINE
  5
1F7
330
1F
100
AcDbEntity
  8
0
100
AcDbLine
 10
115.4259172026
 20
210.3648638795
 30
0.0
 11
114.6361256732
 21
210.3648638795
 31
0.0
  0
LINE
  5
1F8
330
1F
100
AcDbEntity
  8
0
100
AcDbLine
 10
116.1361256732
 20
212.4444469384
 30
0.0
 11
116.7157087321
 21
212.4444469384
 31
0.0
  0
LINE
  5
1F9
330
1F
100
AcDbEntity
  8
0
100
AcDbLine
 10
118.2157087321
 20
210.9444469384
 30
0.0
 11
118.2157087321
 21
210.3648638795
 31
0.0
  0
LINE
  5
1FA
330
1F
100
AcDbEntity
  8
0
100
AcDbLine
 10
114.6361256732
 20
210.3648638795
 30
0.0
 11
114.6361256732
 21
210.9444469384
 31
0.0
  0
LINE
  5
1FB
330
1F
100
AcDbEntity
  8
0
100
AcDbLine
 10
116.7157087321
 20
208.8648638795
 30
0.0
 11
116.1361256732
 21
208.8648638795
 31
0.0
  0
CIRCLE
  5
1FC
330
1F
100
AcDbEntity
  8
0
100
AcDbCircle
 10
116.4259172026
 20
210.654655409
 30
0.0
 40
5.5
  0
LINE
  5
1FD
330
1F
100
AcDbEntity
  8
0
100
AcDbLine
 10
208.3099561093
 20
317.554655409
 30
0.0
 11
208.3099561093
 21
103.754655409
 31
0.0
  0
LINE
  5
1FE
330
1F
100
AcDbEntity
  8
0
100
AcDbLine
 10
212.5099561093
 20
317.554655409
 30
0.0
 11
212.5099561093
 21
103.754655409
 31
0.0
  0
LINE
  5
1FF
330
1F
100
AcDbEntity
  8
0
100
AcDbLine
 10
-259.658121704
 20
214.4106052443
 30
0.0
 11
-259.658121704
 21
317.554655409
 31
0.0
  0
LINE
  5
200
330
1F
100
AcDbEntity
  8
0
100
AcDbLine
 10
-259.658121704
 20
103.754655409
 30
0.0
 11
-259.658121704
 21
214.4106052443
 31
0.0
  0
LINE
  5
201
330
1F
100
AcDbEntity
  8
0
100
AcDbLine
 10
-255.458121704
 20
214.4106052443
 30
0.0
 11
-255.458121704
 21
317.554655409
 31
0.0
  0
LINE
  5
202
330
1F
100
AcDbEntity
  8
0
100
AcDbLine
 10
-255.458121704
 20
103.754655409
 30
0.0
 11
-255.458121704
 21
214.4106052443
 31
0.0
  0
LINE
  5
203
330
1F
100
AcDbEntity
  8
0
100
AcDbLine
 10
169.3567560944
 20
312.404655409
 30
0.0
 11
169.3567560944
 21
108.904655409
 31
0.0
  0
LINE
  5
204
330
1F
100
AcDbEntity
  8
0
100
AcDbLine
 10
170.7712642539
 20
309.954655409
 30
0.0
 11
170.7712642539
 21
111.354655409
 31
0.0
  0
LINE
  5
205
330
1F
100
AcDbEntity
  8
0
100
AcDbLine
 10
215.5599561093
 20
309.954655409
 30
0.0
 11
215.5599561093
 21
111.354655409
 31
0.0
  0
LINE
  5
206
330
1F
100
AcDbEntity
  8
0
100
AcDbLine
 10
221.5599561093
 20
308.6546554012
 30
0.0
 11
221.5599561093
 21
112.654655409
 31
0.0
  0
LINE
  5
207
330
1F
100
AcDbEntity
  8
0
100
AcDbLine
 10
202.9007784324
 20
309.954655409
 30
0.0
 11
202.9007784324
 21
111.354655409
 31
0.0
  0
LINE
  5
208
330
1F
100
AcDbEntity
  8
0
100
AcDbLine
 10
-216.5049216891
 20
108.904655409
 30
0.0
 11
-216.5049216891
 21
312.404655409
 31
0.0
  0
LINE
  5
209
330
1F
100
AcDbEntity
  8
0
100
AcDbLine
 10
-217.9194298487
 20
111.354655409
 30
0.0
 11
-217.9194298487
 21
309.954655409
 31
0.0
  0
LINE
  5
20A
330
1F
100
AcDbEntity
  8
0
100
AcDbLine
 10
-262.708121704
 20
111.354655409
 30
0.0
 11
-262.708121704
 21
309.954655409
 31
0.0
  0
LINE
  5
20B
330
1F
100
AcDbEntity
  8
0
100
AcDbLine
 10
-268.708121704
 20
112.654655409
 30
0.0
 11
-268.708121704
 21
308.6546554012
 31
0.0
  0
LINE
  5
20C
330
1F
100
AcDbEntity
  8
0
100
AcDbLine
 10
-250.0489440271
 20
111.354655409
 30
0.0
 11
-250.0489440271
 21
309.954655409
 31
0.0
  0
SPLINE
  5
20D
330
1F
100
AcDbEntity
  8
0
100
AcDbSpline
210
0.0
220
0.0
230
1.0
 70
     8
 71
     3
 72
     9
 73
     5
 74
     0
 42
0.00000001
 43
0.00000001
 40
0.0
 40
0.0
 40
0.0
 40
0.0
 40
0.4237906985682395
 40
1.0
 40
1.0
 40
1.0
 40
1.0
 10
-168.4307323577076
 20
362.6990577145103
 30
0.0
 10
-168.0823046614435
 20
362.7066489385043
 30
0.0
 10
-167.2601353749508
 20
362.7245616110089
 30
0.0
 10
-166.4356184952127
 20
361.9727977115348
 30
0.0
 10
-165.9605241999201
 20
361.5396243601772
 30
0.0
  0
SPLINE
  5
20E
330
1F
100
AcDbEntity
  8
0
100
AcDbSpline
210
0.0
220
0.0
230
1.0
 70
     8
 71
     3
 72
     9
 73
     5
 74
     0
 42
0.00000001
 43
0.00000001
 40
0.0
 40
0.0
 40
0.0
 40
0.0
 40
0.7566849812304932
 40
1.0
 40
1.0
 40
1.0
 40
1.0
 10
-107.4312706338222
 20
58.63504572849096
 30
0.0
 10
-107.2728167017428
 20
58.56579909072568
 30
0.0
 10
-107.0634112873235
 20
58.47428592542852
 30
0.0
 10
-106.8536119904957
 20
58.59777187865176
 30
0.0
 10
-106.8025646706502
 20
58.62781786567805
 30
0.0
  0
SPLINE
  5
20F
330
1F
100
AcDbEntity
  8
0
100
AcDbSpline
210
0.0
220
0.0
230
1.0
 70
     8
 71
     3
 72
     9
 73
     5
 74
     0
 42
0.00000001
 43
0.00000001
 40
0.0
 40
0.0
 40
0.0
 40
0.0
 40
0.4237906985682361
 40
1.0
 40
1.0
 40
1.0
 40
1.0
 10
-46.43073235770756
 20
362.6990577145103
 30
0.0
 10
-46.08230466144347
 20
362.7066489385043
 30
0.0
 10
-45.26013537495077
 20
362.7245616110089
 30
0.0
 10
-44.4356184952127
 20
361.9727977115348
 30
0.0
 10
-43.96052419992014
 20
361.5396243601772
 30
0.0
  0
SPLINE
  5
210
330
1F
100
AcDbEntity
  8
0
100
AcDbSpline
210
0.0
220
0.0
230
1.0
 70
     8
 71
     3
 72
     9
 73
     5
 74
     0
 42
0.00000001
 43
0.00000001
 40
0.0
 40
0.0
 40
0.0
 40
0.0
 40
0.7566849812305267
 40
1.0
 40
1.0
 40
1.0
 40
1.0
 10
14.56872936617776
 20
58.63504572849096
 30
0.0
 10
14.72718329825717
 20
58.56579909072573
 30
0.0
 10
14.93658871267644
 20
58.47428592542858
 30
0.0
 10
15.1463880095043
 20
58.59777187865173
 30
0.0
 10
15.19743532934979
 20
58.62781786567803
 30
0.0
  0
SPLINE
  5
211
330
1F
100
AcDbEntity
  8
0
100
AcDbSpline
210
0.0
220
0.0
230
1.0
 70
     8
 71
     3
 72
     9
 73
     5
 74
     0
 42
0.00000001
 43
0.00000001
 40
0.0
 40
0.0
 40
0.0
 40
0.0
 40
0.4237906985682387
 40
1.0
 40
1.0
 40
1.0
 40
1.0
 10
75.56926764229243
 20
362.6990577145103
 30
0.0
 10
75.91769533855654
 20
362.7066489385043
 30
0.0
 10
76.73986462504925
 20
362.7245616110089
 30
0.0
 10
77.56438150478729
 20
361.9727977115348
 30
0.0
 10
78.03947580007986
 20
361.5396243601773
 30
0.0
  0
SPLINE
  5
212
330
1F
100
AcDbEntity
  8
0
100
AcDbSpline
210
0.0
220
0.0
230
1.0
 70
     8
 71
     3
 72
     9
 73
     5
 74
     0
 42
0.00000001
 43
0.00000001
 40
0.0
 40
0.0
 40
0.0
 40
0.0
 40
0.0363256640419986
 40
0.9999999999999999
 40
0.9999999999999999
 40
0.9999999999999999
 40
0.9999999999999999
 10
-167.3264086839078
 20
362.5406385741635
 30
0.0
 10
-167.3077955055647
 20
362.5392989548448
 30
0.0
 10
-166.7953980357874
 20
362.5024209140985
 30
0.0
 10
-166.2814955491788
 20
361.9833002015588
 30
0.0
 10
-165.7862609116489
 20
361.4830368936202
 30
0.0
  0
SPLINE
  5
213
330
1F
100
AcDbEntity
  8
0
100
AcDbSpline
210
0.0
220
0.0
230
1.0
 70
     8
 71
     3
 72
    10
 73
     6
 74
     0
 42
0.00000001
 43
0.00000001
 40
0.0
 40
0.0
 40
0.0
 40
0.0
 40
0.1937447026313525
 40
0.8243753859727294
 40
1.0
 40
1.0
 40
1.0
 40
1.0
 10
-107.2571191336941
 20
58.70867324718609
 30
0.0
 10
-107.0977534528536
 20
58.67063659441391
 30
0.0
 10
-106.419659327598
 20
58.50879227101122
 30
0.0
 10
-105.5945682681894
 20
58.95037440534406
 30
0.0
 10
-104.931373581216
 20
59.73112630144087
 30
0.0
 10
-104.7869115090848
 20
59.90119557211798
 30
0.0
  0
SPLINE
  5
214
330
1F
100
AcDbEntity
  8
0
100
AcDbSpline
210
0.0
220
0.0
230
1.0
 70
     8
 71
     3
 72
     9
 73
     5
 74
     0
 42
0.00000001
 43
0.00000001
 40
0.0
 40
0.0
 40
0.0
 40
0.0
 40
0.0363256640420084
 40
1.0
 40
1.0
 40
1.0
 40
1.0
 10
-45.3264086839078
 20
362.5406385741635
 30
0.0
 10
-45.30779550556471
 20
362.5392989548448
 30
0.0
 10
-44.79539803578771
 20
362.5024209140986
 30
0.0
 10
-44.28149554917884
 20
361.983300201559
 30
0.0
 10
-43.78626091164889
 20
361.4830368936202
 30
0.0
  0
SPLINE
  5
215
330
1F
100
AcDbEntity
  8
0
100
AcDbSpline
210
0.0
220
0.0
230
1.0
 70
     8
 71
     3
 72
    10
 73
     6
 74
     0
 42
0.00000001
 43
0.00000001
 40
0.0
 40
0.0
 40
0.0
 40
0.0
 40
0.1937447026313409
 40
0.8243753859727201
 40
1.0
 40
1.0
 40
1.0
 40
1.0
 10
14.74288086630594
 20
58.70867324718606
 30
0.0
 10
14.90224654714645
 20
58.67063659441382
 30
0.0
 10
15.58034067240204
 20
58.50879227101119
 30
0.0
 10
16.40543173181067
 20
58.95037440534412
 30
0.0
 10
17.06862641878399
 20
59.73112630144084
 30
0.0
 10
17.21308849091518
 20
59.90119557211798
 30
0.0
  0
SPLINE
  5
216
330
1F
100
AcDbEntity
  8
0
100
AcDbSpline
210
0.0
220
0.0
230
1.0
 70
     8
 71
     3
 72
     9
 73
     5
 74
     0
 42
0.00000001
 43
0.00000001
 40
0.0
 40
0.0
 40
0.0
 40
0.0
 40
0.0363256640419519
 40
1.0
 40
1.0
 40
1.0
 40
1.0
 10
76.67359131609224
 20
362.5406385741635
 30
0.0
 10
76.69220449443533
 20
362.5392989548448
 30
0.0
 10
77.20460196421236
 20
362.5024209140987
 30
0.0
 10
77.71850445082116
 20
361.983300201559
 30
0.0
 10
78.21373908835105
 20
361.4830368936202
 30
0.0
  0
SPLINE
  5
217
330
1F
100
AcDbEntity
  8
0
100
AcDbSpline
210
0.0
220
0.0
230
1.0
 70
    24
 71
     3
 72
    10
 73
     6
 74
     0
 42
0.00000001
 43
0.00000001
 40
0.0
 40
0.0
 40
0.0
 40
0.0
 40
0.2905573625945579
 40
0.5810348501448975
 40
1.0
 40
1.0
 40
1.0
 40
1.0
 10
126.4259172026379
 20
79.5571614612223
 30
0.0
 10
126.4259172026383
 20
79.47698045525264
 30
0.0
 10
126.4259172026391
 20
79.3166404852996
 30
0.0
 10
126.4259172026332
 20
79.06245401288423
 30
0.0
 10
126.4259172026362
 20
78.89484820968498
 30
0.0
 10
126.425917202638
 20
78.79586770477651
 30
0.0
  0
LINE
  5
218
330
1F
100
AcDbEntity
  8
0
100
AcDbLine
 10
-173.11050506
 20
362.6615989078
 30
0.0
 11
-172.7738342469
 21
362.6516851107
 31
0.0
  0
LINE
  5
219
330
1F
100
AcDbEntity
  8
0
100
AcDbLine
 10
-111.9640721655
 20
58.6688415041
 30
0.0
 11
-111.7732792973
 21
58.6348872496
 31
0.0
  0
LINE
  5
21A
330
1F
100
AcDbEntity
  8
0
100
AcDbLine
 10
-51.1101810179
 20
362.6615893659
 30
0.0
 11
-50.7738342469
 21
362.6516851107
 31
0.0
  0
LINE
  5
21B
330
1F
100
AcDbEntity
  8
0
100
AcDbLine
 10
10.0359278345
 20
58.6688415041
 30
0.0
 11
10.2267207027
 21
58.6348872496
 31
0.0
  0
LINE
  5
21C
330
1F
100
AcDbEntity
  8
0
100
AcDbLine
 10
70.8898189821
 20
362.6615893659
 30
0.0
 11
71.2261657531
 21
362.6516851107
 31
0.0
  0
SPLINE
  5
21D
330
1F
100
AcDbEntity
  8
0
100
AcDbSpline
210
0.0
220
0.0
230
1.0
 70
    24
 71
     3
 72
    11
 73
     7
 74
     0
 42
0.00000001
 43
0.00000001
 40
0.0
 40
0.0
 40
0.0
 40
0.0
 40
0.2553306873475092
 40
0.5106613746950178
 40
0.7549640329661574
 40
1.0
 40
1.0
 40
1.0
 40
1.0
 10
126.425917202638
 20
78.79586770477651
 30
0.0
 10
126.425917202638
 20
77.39145788977065
 30
0.0
 10
126.4259172026381
 20
74.58263825975891
 30
0.0
 10
126.4259172026379
 20
70.98935335535766
 30
0.0
 10
126.425917202638
 20
67.81715842571701
 30
0.0
 10
126.425917202638
 20
66.10036809163122
 30
0.0
 10
126.4259172026381
 20
65.24068655832716
 30
0.0
  0
SPLINE
  5
21E
330
1F
100
AcDbEntity
  8
0
100
AcDbSpline
210
0.0
220
0.0
230
1.0
 70
    24
 71
     3
 72
    11
 73
     7
 74
     0
 42
0.00000001
 43
0.00000001
 40
0.0
 40
0.0
 40
0.0
 40
0.0
 40
0.2823145685187765
 40
0.847703556461174
 40
0.9612165970027584
 40
1.0
 40
1.0
 40
1.0
 40
1.0
 10
126.4259172026381
 20
65.24068655832716
 30
0.0
 10
126.425917202638
 20
65.09232933536121
 30
0.0
 10
126.4259172026377
 20
64.64685836234419
 30
0.0
 10
126.4259172026397
 20
64.28691103121709
 30
0.0
 10
126.4259172026373
 20
64.12276226911887
 30
0.0
 10
126.4259172026385
 20
64.12778216179552
 30
0.0
 10
126.4259172026388
 20
64.12906051417302
 30
0.0
  0
SPLINE
  5
21F
330
1F
100
AcDbEntity
  8
0
100
AcDbSpline
210
0.0
220
0.0
230
1.0
 70
    24
 71
     3
 72
    22
 73
    18
 74
     0
 42
0.00000001
 43
0.00000001
 40
0.0
 40
0.0
 40
0.0
 40
0.0
 40
0.037285852778212
 40
0.3082580061109071
 40
0.3685221005239099
 40
0.40274222483017
 40
0.4371393904568811
 40
0.4467118840483762
 40
0.4502213487301799
 40
0.4537635793224771
 40
0.4568535254341838
 40
0.4613183489864561
 40
0.4698444794824296
 40
0.5073481050260683
 40
0.6554489034840723
 40
0.988763545613051
 40
1.0
 40
1.0
 40
1.0
 40
1.0
 10
-173.574082797362
 20
362.6978180892365
 30
0.0
 10
-173.574082797362
 20
362.7011165012868
 30
0.0
 10
-173.5740827973621
 20
362.7283858768329
 30
0.0
 10
-173.5740827973614
 20
362.6539060603956
 30
0.0
 10
-173.5740827973624
 20
362.4352540253402
 30
0.0
 10
-173.5740827973613
 20
362.3144700072524
 30
0.0
 10
-173.574082797364
 20
362.2158719907051
 30
0.0
 10
-173.5740827973605
 20
362.0970784772287
 30
0.0
 10
-173.5740827973623
 20
362.0396634817735
 30
0.0
 10
-173.5740827973619
 20
361.999637005425
 30
0.0
 10
-173.5740827973621
 20
361.9571029740234
 30
0.0
 10
-173.5740827973619
 20
361.9042974433795
 30
0.0
 10
-173.5740827973622
 20
361.7826130412581
 30
0.0
 10
-173.5740827973617
 20
361.5458012980272
 30
0.0
 10
-173.5740827973593
 20
361.2634264845208
 30
0.0
 10
-173.5740827973767
 20
361.1344094931835
 30
0.0
 10
-173.5740827973625
 20
361.0784359031211
 30
0.0
 10
-173.574082797362
 20
361.0766104998705
 30
0.0
  0
SPLINE
  5
220
330
1F
100
AcDbEntity
  8
0
100
AcDbSpline
210
0.0
220
0.0
230
1.0
 70
     8
 71
     3
 72
     9
 73
     5
 74
     0
 42
0.00000001
 43
0.00000001
 40
0.0
 40
0.0
 40
0.0
 40
0.0
 40
0.1703021165622285
 40
1.0
 40
1.0
 40
1.0
 40
1.0
 10
-166.0754838928446
 20
361.0598235721084
 30
0.0
 10
-165.9726776577133
 20
361.0567754876886
 30
0.0
 10
-165.3690079135746
 20
361.0388773870586
 30
0.0
 10
-164.7635654062174
 20
360.4583795088869
 30
0.0
 10
-164.2612310393199
 20
359.9767416480279
 30
0.0
  0
SPLINE
  5
221
330
1F
100
AcDbEntity
  8
0
100
AcDbSpline
210
0.0
220
0.0
230
1.0
 70
     8
 71
     3
 72
     9
 73
     5
 74
     0
 42
0.00000001
 43
0.00000001
 40
0.0
 40
0.0
 40
0.0
 40
0.0
 40
0.7537536798023952
 40
1.0
 40
1.0
 40
1.0
 40
1.0
 10
-105.7468878185951
 20
60.20975738393838
 30
0.0
 10
-105.5897838418727
 20
60.14196832763072
 30
0.0
 10
-105.3813550395568
 20
60.05203303693271
 30
0.0
 10
-105.1725343249846
 20
60.17387596587756
 30
0.0
 10
-105.1211129924402
 20
60.2038793387723
 30
0.0
  0
SPLINE
  5
222
330
1F
100
AcDbEntity
  8
0
100
AcDbSpline
210
0.0
220
0.0
230
1.0
 70
     8
 71
     3
 72
     9
 73
     5
 74
     0
 42
0.00000001
 43
0.00000001
 40
0.0
 40
0.0
 40
0.0
 40
0.0
 40
0.1703021165622146
 40
1.0
 40
1.0
 40
1.0
 40
1.0
 10
-44.07548389284457
 20
361.0598235721083
 30
0.0
 10
-43.97267765771321
 20
361.0567754876886
 30
0.0
 10
-43.36900791357463
 20
361.0388773870586
 30
0.0
 10
-42.76356540621741
 20
360.458379508887
 30
0.0
 10
-42.26123103931986
 20
359.9767416480279
 30
0.0
  0
SPLINE
  5
223
330
1F
100
AcDbEntity
  8
0
100
AcDbSpline
210
0.0
220
0.0
230
1.0
 70
     8
 71
     3
 72
     9
 73
     5
 74
     0
 42
0.00000001
 43
0.00000001
 40
0.0
 40
0.0
 40
0.0
 40
0.0
 40
0.7537536798024032
 40
1.0
 40
1.0
 40
1.0
 40
1.0
 10
16.25311218140485
 20
60.20975738393838
 30
0.0
 10
16.4102161581273
 20
60.14196832763069
 30
0.0
 10
16.61864496044324
 20
60.05203303693268
 30
0.0
 10
16.82746567501543
 20
60.17387596587758
 30
0.0
 10
16.87888700755985
 20
60.20387933877236
 30
0.0
  0
SPLINE
  5
224
330
1F
100
AcDbEntity
  8
0
100
AcDbSpline
210
0.0
220
0.0
230
1.0
 70
     8
 71
     3
 72
     9
 73
     5
 74
     0
 42
0.00000001
 43
0.00000001
 40
0.0
 40
0.0
 40
0.0
 40
0.0
 40
0.1703021165622452
 40
1.0
 40
1.0
 40
1.0
 40
1.0
 10
77.92451610715534
 20
361.0598235721083
 30
0.0
 10
78.02732234228674
 20
361.0567754876886
 30
0.0
 10
78.6309920864254
 20
361.0388773870586
 30
0.0
 10
79.23643459378265
 20
360.458379508887
 30
0.0
 10
79.73876896068016
 20
359.9767416480279
 30
0.0
  0
SPLINE
  5
225
330
1F
100
AcDbEntity
  8
0
100
AcDbSpline
210
0.0
220
0.0
230
1.0
 70
    24
 71
     3
 72
    10
 73
     6
 74
     0
 42
0.00000001
 43
0.00000001
 40
0.0
 40
0.0
 40
0.0
 40
0.0
 40
0.3607746114956686
 40
0.6802852429544871
 40
1.0
 40
1.0
 40
1.0
 40
1.0
 10
126.4259172026381
 20
87.14450435513993
 30
0.0
 10
126.425917202638
 20
86.19843433637212
 30
0.0
 10
126.4259172026379
 20
84.4145020638066
 30
0.0
 10
126.425917202638
 20
81.88947083478887
 30
0.0
 10
126.4259172026379
 20
80.33476340873203
 30
0.0
 10
126.4259172026379
 20
79.5571614612223
 30
0.0
  0
LINE
  5
226
330
1F
100
AcDbEntity
  8
0
100
AcDbLine
 10
16.6787586751
 20
60.154655409
 30
0.0
 11
16.8388305198
 21
60.3351097666
 31
0.0
  0
SPLINE
  5
227
330
1F
100
AcDbEntity
  8
0
100
AcDbSpline
210
0.0
220
0.0
230
1.0
 70
     8
 71
     3
 72
     9
 73
     5
 74
     0
 42
0.00000001
 43
0.00000001
 40
0.0
 40
0.0
 40
0.0
 40
0.0
 40
0.0519858873269305
 40
1.0
 40
1.0
 40
1.0
 40
1.0
 10
-165.6725667935803
 20
360.9680253636552
 30
0.0
 10
-165.6451249510097
 20
360.9662042015612
 30
0.0
 10
-165.1172539463645
 20
360.9311723460403
 30
0.0
 10
-164.5878329766558
 20
360.4044787721431
 30
0.0
 10
-164.085934425827
 20
359.9051658310343
 30
0.0
  0
SPLINE
  5
228
330
1F
100
AcDbEntity
  8
0
100
AcDbSpline
210
0.0
220
0.0
230
1.0
 70
     8
 71
     3
 72
     9
 73
     5
 74
     0
 42
0.00000001
 43
0.00000001
 40
0.0
 40
0.0
 40
0.0
 40
0.0
 40
0.0519858873269404
 40
0.9999999999999999
 40
0.9999999999999999
 40
0.9999999999999999
 40
0.9999999999999999
 10
-43.67256679358028
 20
360.9680253636552
 30
0.0
 10
-43.64512495100966
 20
360.9662042015612
 30
0.0
 10
-43.11725394636471
 20
360.9311723460405
 30
0.0
 10
-42.58783297665595
 20
360.4044787721431
 30
0.0
 10
-42.08593442582701
 20
359.9051658310342
 30
0.0
  0
SPLINE
  5
229
330
1F
100
AcDbEntity
  8
0
100
AcDbSpline
210
0.0
220
0.0
230
1.0
 70
     8
 71
     3
 72
     9
 73
     5
 74
     0
 42
0.00000001
 43
0.00000001
 40
0.0
 40
0.0
 40
0.0
 40
0.0
 40
0.0519858873269219
 40
1.0
 40
1.0
 40
1.0
 40
1.0
 10
78.32743320641977
 20
360.9680253636552
 30
0.0
 10
78.35487504899037
 20
360.9662042015612
 30
0.0
 10
78.88274605363527
 20
360.9311723460409
 30
0.0
 10
79.41216702334403
 20
360.4044787721433
 30
0.0
 10
79.91406557417304
 20
359.9051658310343
 30
0.0
  0
SPLINE
  5
22A
330
1F
100
AcDbEntity
  8
0
100
AcDbSpline
210
0.0
220
0.0
230
1.0
 70
    24
 71
     3
 72
    10
 73
     6
 74
     0
 42
0.00000001
 43
0.00000001
 40
0.0
 40
0.0
 40
0.0
 40
0.0
 40
0.2945573072146235
 40
0.5891209353950658
 40
1.0
 40
1.0
 40
1.0
 40
1.0
 10
126.425917202638
 20
87.99239547035121
 30
0.0
 10
126.425917202638
 20
87.91353764241838
 30
0.0
 10
126.425917202638
 20
87.75582029432637
 30
0.0
 10
126.4259172026381
 20
87.47788513340889
 30
0.0
 10
126.4259172026381
 20
87.26721018025313
 30
0.0
 10
126.4259172026381
 20
87.14450435513993
 30
0.0
  0
LINE
  5
22B
330
1F
100
AcDbEntity
  8
0
100
AcDbLine
 10
-172.5116603091
 20
361.154655409
 30
0.0
 11
-173.5740827974
 21
361.154655409
 31
0.0
  0
SPLINE
  5
22C
330
1F
100
AcDbEntity
  8
0
100
AcDbSpline
210
0.0
220
0.0
230
1.0
 70
    24
 71
     3
 72
    10
 73
     6
 74
     0
 42
0.00000001
 43
0.00000001
 40
0.0
 40
0.0
 40
0.0
 40
0.0
 40
0.299720656516543
 40
0.6879475761684739
 40
1.0
 40
1.0
 40
1.0
 40
1.0
 10
126.425917202638
 20
63.77779994324259
 30
0.0
 10
126.425917202638
 20
63.10022870555729
 30
0.0
 10
126.425917202638
 20
61.54500226215945
 30
0.0
 10
126.425917202638
 20
60.36817881955086
 30
0.0
 10
126.425917202638
 20
60.28927780673232
 30
0.0
 10
126.425917202638
 20
60.25411861987082
 30
0.0
  0
SPLINE
  5
22D
330
1F
100
AcDbEntity
  8
0
100
AcDbSpline
210
0.0
220
0.0
230
1.0
 70
    24
 71
     3
 72
    37
 73
    33
 74
     0
 42
0.00000001
 43
0.00000001
 40
0.0
 40
0.0
 40
0.0
 40
0.0
 40
0.0317989516301789
 40
0.0651608498878938
 40
0.0986419705814156
 40
0.1321230912749375
 40
0.1654849895326524
 40
0.1988468877903668
 40
0.2323280084838884
 40
0.26580912917741
 40
0.2991710274351244
 40
0.3325329256928389
 40
0.3660140463863605
 40
0.3994951670798823
 40
0.4328570653375967
 40
0.466218963595311
 40
0.4997000842888324
 40
0.5331812049823538
 40
0.566543103240068
 40
0.5999050014977828
 40
0.6333861221913047
 40
0.6668672428848267
 40
0.7002291411425414
 40
0.7335910394002555
 40
0.7670721600937768
 40
0.8005532807872979
 40
0.833915179045012
 40
0.8672770773027264
 40
0.9007581979962481
 40
0.9342393186897697
 40
0.9676012169474841
 40
1.0
 40
1.0
 40
1.0
 40
1.0
 10
126.4259172026381
 20
361.1227378135266
 30
0.0
 10
126.4259172026381
 20
361.0432298676629
 30
0.0
 10
126.4259172026381
 20
360.8803060899998
 30
0.0
 10
126.4259172026382
 20
359.2745783287367
 30
0.0
 10
126.4259172026381
 20
356.675922714121
 30
0.0
 10
126.4259172026382
 20
353.0301362279097
 30
0.0
 10
126.425917202638
 20
348.3879899692591
 30
0.0
 10
126.4259172026381
 20
342.7414783890027
 30
0.0
 10
126.4259172026381
 20
336.1548667651844
 30
0.0
 10
126.4259172026382
 20
328.687967895388
 30
0.0
 10
126.4259172026382
 20
320.3946423788514
 30
0.0
 10
126.4259172026381
 20
311.3023871738474
 30
0.0
 10
126.4259172026381
 20
301.4884261282312
 30
0.0
 10
126.425917202638
 20
291.0374215528139
 30
0.0
 10
126.425917202638
 20
280.0292158867863
 30
0.0
 10
126.425917202638
 20
268.5159544737609
 30
0.0
 10
126.4259172026381
 20
256.5811865360657
 30
0.0
 10
126.425917202638
 20
244.3243228487292
 30
0.0
 10
126.4259172026381
 20
231.8423353575995
 30
0.0
 10
126.4259172026381
 20
219.2060988670559
 30
0.0
 10
126.425917202638
 20
206.4960789790615
 30
0.0
 10
126.4259172026382
 20
193.8152247815067
 30
0.0
 10
126.4259172026381
 20
181.2667036880361
 30
0.0
 10
126.425917202638
 20
168.9321364589909
 30
0.0
 10
126.4259172026381
 20
156.8798059502312
 30
0.0
 10
126.4259172026381
 20
145.2046947761046
 30
0.0
 10
126.425917202638
 20
134.0041547889802
 30
0.0
 10
126.4259172026381
 20
123.3627663198376
 30
0.0
 10
126.425917202638
 20
113.323636076909
 30
0.0
 10
126.425917202638
 20
103.982850842293
 30
0.0
 10
126.425917202638
 20
95.4303132324916
 30
0.0
 10
126.425917202638
 20
90.4473750844158
 30
0.0
 10
126.425917202638
 20
87.99239547035121
 30
0.0
  0
SPLINE
  5
22E
330
1F
100
AcDbEntity
  8
0
100
AcDbSpline
210
0.0
220
0.0
230
1.0
 70
    24
 71
     3
 72
    45
 73
    41
 74
     0
 42
0.00000001
 43
0.00000001
 40
0.0
 40
0.0
 40
0.0
 40
0.0
 40
0.0264626077978218
 40
0.0529252155956436
 40
0.0801566194044078
 40
0.107388023213172
 40
0.1338506310109938
 40
0.1603132388088156
 40
0.1875446426175797
 40
0.2147760464263439
 40
0.2412386542241656
 40
0.2677012620219874
 40
0.2949326658307514
 40
0.3221640696395154
 40
0.3486266774373372
 40
0.3750892852351588
 40
0.4023206890439228
 40
0.4295520928526868
 40
0.4560147006505082
 40
0.4824773084483297
 40
0.5097087122570935
 40
0.5369401160658571
 40
0.5634027238636793
 40
0.5898653316615013
 40
0.6170967354702658
 40
0.6443281392790301
 40
0.670790747076852
 40
0.6972533548746739
 40
0.7244847586834383
 40
0.7517161624922026
 40
0.7781787702900242
 40
0.8046413780878457
 40
0.8318727818966096
 40
0.8591041857053735
 40
0.8855667935031952
 40
0.9120294013010171
 40
0.9392608051097812
 40
0.9664922089185453
 40
0.9929548167163669
 40
1.0
 40
1.0
 40
1.0
 40
1.0
 10
-173.574082797362
 20
361.1546554089707
 30
0.0
 10
-173.574082797362
 20
361.0539767896697
 30
0.0
 10
-173.574082797362
 20
360.8526195510675
 30
0.0
 10
-173.5740827973621
 20
359.2231724709202
 30
0.0
 10
-173.5740827973619
 20
356.5875059191422
 30
0.0
 10
-173.574082797362
 20
352.8792994499008
 30
0.0
 10
-173.574082797362
 20
348.2005934524267
 30
0.0
 10
-173.574082797362
 20
342.566195141797
 30
0.0
 10
-173.574082797362
 20
335.9303078675332
 30
0.0
 10
-173.574082797362
 20
328.3914583936766
 30
0.0
 10
-173.574082797362
 20
320.0875345566902
 30
0.0
 10
-173.5740827973619
 20
311.0244034153292
 30
0.0
 10
-173.5740827973621
 20
301.1527017822677
 30
0.0
 10
-173.5740827973619
 20
290.6287849981916
 30
0.0
 10
-173.574082797362
 20
279.6369869168723
 30
0.0
 10
-173.574082797362
 20
268.1666180711558
 30
0.0
 10
-173.574082797362
 20
256.1721453558453
 30
0.0
 10
-173.574082797362
 20
243.8496305129045
 30
0.0
 10
-173.5740827973621
 20
231.40920591078
 30
0.0
 10
-173.5740827973619
 20
218.8247948690531
 30
0.0
 10
-173.574082797362
 20
206.0598373148392
 30
0.0
 10
-173.574082797362
 20
193.3279943698527
 30
0.0
 10
-173.574082797362
 20
180.8415067808333
 30
0.0
 10
-173.574082797362
 20
168.5618504182853
 30
0.0
 10
-173.574082797362
 20
156.4655601573186
 30
0.0
 10
-173.574082797362
 20
144.7598078300185
 30
0.0
 10
-173.574082797362
 20
133.6350139778322
 30
0.0
 10
-173.574082797362
 20
123.0445505208708
 30
0.0
 10
-173.574082797362
 20
112.9806920519266
 30
0.0
 10
-173.5740827973619
 20
103.6207668629032
 30
0.0
 10
-173.5740827973621
 20
95.11189653919185
 30
0.0
 10
-173.574082797362
 20
87.40464409573642
 30
0.0
 10
-173.574082797362
 20
80.50775019240636
 30
0.0
 10
-173.574082797362
 20
74.5492508502552
 30
0.0
 10
-173.574082797362
 20
69.6143873358834
 30
0.0
 10
-173.574082797362
 20
65.66387679609265
 30
0.0
 10
-173.574082797362
 20
62.69387702286833
 30
0.0
 10
-173.574082797362
 20
60.87419095946036
 30
0.0
 10
-173.5740827973621
 20
60.08413375390762
 30
0.0
 10
-173.574082797362
 20
60.22687476189373
 30
0.0
 10
-173.574082797362
 20
60.25688678390104
 30
0.0
  0
SPLINE
  5
22F
330
1F
100
AcDbEntity
  8
0
100
AcDbSpline
210
0.0
220
0.0
230
1.0
 70
    24
 71
     3
 72
     9
 73
     5
 74
     0
 42
0.00000001
 43
0.00000001
 40
0.0
 40
0.0
 40
0.0
 40
0.0
 40
0.5503411537120645
 40
1.0
 40
1.0
 40
1.0
 40
1.0
 10
-215.574082797362
 20
312.4481029776952
 30
0.0
 10
-215.574082797362
 20
312.4593671213225
 30
0.0
 10
-215.574082797362
 20
312.4798346868523
 30
0.0
 10
-215.574082797362
 20
312.3889950205222
 30
0.0
 10
-215.574082797362
 20
312.348148160963
 30
0.0
  0
SPLINE
  5
230
330
1F
100
AcDbEntity
  8
0
100
AcDbSpline
210
0.0
220
0.0
230
1.0
 70
    24
 71
     3
 72
    11
 73
     7
 74
     0
 42
0.00000001
 43
0.00000001
 40
0.0
 40
0.0
 40
0.0
 40
0.0
 40
0.377648059176284
 40
0.7556764633129732
 40
0.944941259877775
 40
1.0
 40
1.0
 40
1.0
 40
1.0
 10
168.425917202638
 20
275.4754274612757
 30
0.0
 10
168.4259172026383
 20
274.9747675481808
 30
0.0
 10
168.4259172026389
 20
273.972943486711
 30
0.0
 10
168.425917202635
 20
272.6042180102129
 30
0.0
 10
168.4259172026422
 20
271.6387505175152
 30
0.0
 10
168.4259172026391
 20
271.2300065965067
 30
0.0
 10
168.4259172026383
 20
271.1378954326437
 30
0.0
  0
SPLINE
  5
231
330
1F
100
AcDbEntity
  8
0
100
AcDbSpline
210
0.0
220
0.0
230
1.0
 70
     8
 71
     3
 72
     9
 73
     5
 74
     0
 42
0.00000001
 43
0.00000001
 40
0.0
 40
0.0
 40
0.0
 40
0.0
 40
0.4328699613370547
 40
1.0
 40
1.0
 40
1.0
 40
1.0
 10
-210.6077777127334
 20
312.4266292996547
 30
0.0
 10
-210.0794673650231
 20
312.4236198146559
 30
0.0
 10
-208.8589845528676
 20
312.416667414934
 30
0.0
 10
-207.6380497450126
 20
311.3334598775737
 30
0.0
 10
-206.9456209402288
 20
310.7191403450306
 30
0.0
  0
LINE
  5
232
330
1F
100
AcDbEntity
  8
0
100
AcDbLine
 10
158.9866628475
 20
310.7679369036
 30
0.0
 11
159.0543790598
 21
310.719140345
 31
0.0
  0
SPLINE
  5
233
330
1F
100
AcDbEntity
  8
0
100
AcDbSpline
210
0.0
220
0.0
230
1.0
 70
    24
 71
     3
 72
    10
 73
     6
 74
     0
 42
0.00000001
 43
0.00000001
 40
0.0
 40
0.0
 40
0.0
 40
0.0
 40
0.38138167906177
 40
0.6900366554472915
 40
1.0
 40
1.0
 40
1.0
 40
1.0
 10
168.425917202638
 20
290.454376019185
 30
0.0
 10
168.425917202638
 20
288.7107995163108
 30
0.0
 10
168.4259172026379
 20
285.556133824137
 30
0.0
 10
168.4259172026381
 20
280.5073025815577
 30
0.0
 10
168.425917202638
 20
277.1550824659107
 30
0.0
 10
168.4259172026379
 20
275.4754274612756
 30
0.0
  0
SPLINE
  5
234
330
1F
100
AcDbEntity
  8
0
100
AcDbSpline
210
0.0
220
0.0
230
1.0
 70
     8
 71
     3
 72
     9
 73
     5
 74
     0
 42
0.00000001
 43
0.00000001
 40
0.0
 40
0.0
 40
0.0
 40
0.0
 40
0.0197128031306974
 40
1.0
 40
1.0
 40
1.0
 40
1.0
 10
-208.9788513814796
 20
312.1842938871932
 30
0.0
 10
-208.9640235448573
 20
312.1828234083623
 30
0.0
 10
-208.2118303370192
 20
312.1082282926332
 30
0.0
 10
-207.4592159619579
 20
311.361656041448
 30
0.0
 10
-206.7214377259054
 20
310.6298008220732
 30
0.0
  0
LINE
  5
235
330
1F
100
AcDbEntity
  8
0
100
AcDbLine
 10
159.229817298
 20
310.6639392557
 30
0.0
 11
159.2785622741
 21
310.6298008221
 31
0.0
  0
SPLINE
  5
236
330
1F
100
AcDbEntity
  8
0
100
AcDbSpline
210
0.0
220
0.0
230
1.0
 70
    24
 71
     3
 72
    10
 73
     6
 74
     0
 42
0.00000001
 43
0.00000001
 40
0.0
 40
0.0
 40
0.0
 40
0.0
 40
0.4343801957328113
 40
0.7169059648310891
 40
1.0
 40
1.0
 40
1.0
 40
1.0
 10
168.425917202638
 20
290.970342264643
 30
0.0
 10
168.425917202638
 20
290.9038542017274
 30
0.0
 10
168.425917202638
 20
290.794121554239
 30
0.0
 10
168.4259172026381
 20
290.6156006824041
 30
0.0
 10
168.4259172026381
 20
290.5081535568646
 30
0.0
 10
168.425917202638
 20
290.454376019185
 30
0.0
  0
LINE
  5
237
330
1F
100
AcDbEntity
  8
0
100
AcDbLine
 10
168.4259172026
 20
291.1494329724
 30
0.0
 11
168.4259172026
 21
290.9703422646
 31
0.0
  0
SPLINE
  5
238
330
1F
100
AcDbEntity
  8
0
100
AcDbSpline
210
0.0
220
0.0
230
1.0
 70
     8
 71
     3
 72
     9
 73
     5
 74
     0
 42
0.00000001
 43
0.00000001
 40
0.0
 40
0.0
 40
0.0
 40
0.0
 40
0.8665727591323854
 40
1.0
 40
1.0
 40
1.0
 40
1.0
 10
-207.4032062456519
 20
310.9785677238875
 30
0.0
 10
-207.704394432147
 20
311.3142600895775
 30
0.0
 10
-208.0519569227987
 20
311.7016394090314
 30
0.0
 10
-208.399954361596
 20
311.788948423692
 30
0.0
 10
-208.4463866996837
 20
311.800597824621
 30
0.0
  0
LINE
  5
239
330
1F
100
AcDbEntity
  8
0
100
AcDbLine
 10
168.4259172026
 20
290.2943856293
 30
0.0
 11
168.4259172026
 21
290.4161572483
 31
0.0
  0
LINE
  5
23A
330
1F
100
AcDbEntity
  8
0
100
AcDbLine
 10
-207.5680420715
 20
311.0383975908
 30
0.0
 11
-207.8933231019
 21
311.3237476982
 31
0.0
  0
LINE
  5
23B
330
1F
100
AcDbEntity
  8
0
100
AcDbLine
 10
-210.4759639369
 20
312.4091075331
 30
0.0
 11
-210.6311895787
 21
312.454655409
 31
0.0
  0
LINE
  5
23C
330
1F
100
AcDbEntity
  8
0
100
AcDbLine
 10
168.4259172026
 20
275.4622025705
 30
0.0
 11
168.4259172026
 21
290.2943856293
 31
0.0
  0
SPLINE
  5
23D
330
1F
100
AcDbEntity
  8
0
100
AcDbSpline
210
0.0
220
0.0
230
1.0
 70
    24
 71
     3
 72
     9
 73
     5
 74
     0
 42
0.00000001
 43
0.00000001
 40
0.0
 40
0.0
 40
0.0
 40
0.0
 40
0.7965179509825417
 40
1.0
 40
1.0
 40
1.0
 40
1.0
 10
168.4259172026379
 20
273.6898163691303
 30
0.0
 10
168.4259172026378
 20
274.1809936877937
 30
0.0
 10
168.4259172026377
 20
274.7976493677536
 30
0.0
 10
168.4259172026379
 20
275.349841403623
 30
0.0
 10
168.4259172026379
 20
275.4622025705328
 30
0.0
  0
ARC
  5
23E
330
1F
100
AcDbEntity
  8
0
100
AcDbCircle
 10
692.6397867925
 20
210.2645178715
 30
0.0
 40
8.000000000000064
100
AcDbArc
 50
17.1467397277
 51
21.9870243177
  0
ARC
  5
23F
330
1F
100
AcDbEntity
  8
0
100
AcDbCircle
 10
692.6397867925
 20
211.0447929464
 30
0.0
 40
8.000000000000044
100
AcDbArc
 50
338.0129756823
 51
342.8515803462
  0
ARC
  5
240
330
1F
100
AcDbEntity
  8
0
100
AcDbCircle
 10
403.6207495547
 20
211.0447929464
 30
0.0
 40
8.000000000000036
100
AcDbArc
 50
197.1467397277
 51
201.9870243177
  0
ARC
  5
241
330
1F
100
AcDbEntity
  8
0
100
AcDbCircle
 10
403.6207495547
 20
210.2645178715
 30
0.0
 40
8.000000000000066
100
AcDbArc
 50
158.0129756823
 51
162.8515803462
  0
ARC
  5
242
330
1F
100
AcDbEntity
  8
0
100
AcDbCircle
 10
547.7401306361
 20
66.1451367901
 30
0.0
 40
8.000000000000002
100
AcDbArc
 50
287.1467397277
 51
291.9870243177
  0
ARC
  5
243
330
1F
100
AcDbEntity
  8
0
100
AcDbCircle
 10
548.520405711
 20
66.1451367901
 30
0.0
 40
7.999999999999996
100
AcDbArc
 50
248.0129756823
 51
252.8515803462
  0
ARC
  5
244
330
1F
100
AcDbEntity
  8
0
100
AcDbCircle
 10
547.7401306361
 20
355.1641740279
 30
0.0
 40
8.000000000000012
100
AcDbArc
 50
68.0129756823
 51
72.8515803462
  0
CIRCLE
  5
245
330
1F
100
AcDbEntity
  8
0
100
AcDbCircle
 10
548.1302681736
 20
210.654655409
 30
0.0
 40
107.4
  0
CIRCLE
  5
246
330
1F
100
AcDbEntity
  8
0
100
AcDbCircle
 10
548.1302681736
 20
210.654655409
 30
0.0
 40
151.95
  0
LINE
  5
247
330
1F
100
AcDbEntity
  8
0
100
AcDbLine
 10
700.2694456948
 20
211.1167314383
 30
0.0
 11
700.4975212142
 21
211.1407031413
 31
0.0
  0
SPLINE
  5
248
330
1F
100
AcDbEntity
  8
0
100
AcDbSpline
210
0.0
220
0.0
230
1.0
 70
     8
 71
     3
 72
     9
 73
     5
 74
     0
 42
0.00000001
 43
0.00000001
 40
0.0
 40
0.0
 40
0.0
 40
0.0
 40
0.4987608531415015
 40
0.9999999999999999
 40
0.9999999999999999
 40
0.9999999999999999
 40
0.9999999999999999
 10
700.2694456947575
 20
210.1925793796712
 30
0.0
 10
700.2775297627188
 20
210.3462222927935
 30
0.0
 10
700.2937380675816
 20
210.6542715555908
 30
0.0
 10
700.2775565199082
 20
210.9623236628398
 30
0.0
 10
700.2694456947575
 20
211.1167314382653
 30
0.0
  0
LINE
  5
249
330
1F
100
AcDbEntity
  8
0
100
AcDbLine
 10
700.4975212142
 20
210.1686076766
 30
0.0
 11
700.2694456948
 21
210.1925793797
 31
0.0
  0
SPLINE
  5
24A
330
1F
100
AcDbEntity
  8
0
100
AcDbSpline
210
0.0
220
0.0
230
1.0
 70
     8
 71
     3
 72
    12
 73
     8
 74
     0
 42
0.00000001
 43
0.00000001
 40
0.0
 40
0.0
 40
0.0
 40
0.0
 40
0.2174770912066482
 40
0.4353705208257744
 40
0.6490388720033445
 40
0.8610609605882541
 40
0.9999999999999999
 40
0.9999999999999999
 40
0.9999999999999999
 40
0.9999999999999999
 10
700.4975212141577
 20
209.6546554089682
 30
0.0
 10
700.5064987797683
 20
209.7124280491282
 30
0.0
 10
700.5244710976526
 20
209.828083929462
 30
0.0
 10
700.536139726431
 20
209.9821887925145
 30
0.0
 10
700.5331555790456
 20
210.0974411141738
 30
0.0
 10
700.5183466671845
 20
210.1581526590678
 30
0.0
 10
700.5034274551253
 20
210.1656425621095
 30
0.0
 10
700.4975212141577
 20
210.1686076766218
 30
0.0
  0
LINE
  5
24B
330
1F
100
AcDbEntity
  8
0
100
AcDbLine
 10
700.2694456948
 20
208.6925793797
 30
0.0
 11
700.4975212142
 21
209.654655409
 31
0.0
  0
LINE
  5
24C
330
1F
100
AcDbEntity
  8
0
100
AcDbLine
 10
700.4975212142
 20
211.654655409
 30
0.0
 11
700.2694456948
 21
212.6167314383
 31
0.0
  0
SPLINE
  5
24D
330
1F
100
AcDbEntity
  8
0
100
AcDbSpline
210
0.0
220
0.0
230
1.0
 70
     8
 71
     3
 72
    12
 73
     8
 74
     0
 42
0.00000001
 43
0.00000001
 40
0.0
 40
0.0
 40
0.0
 40
0.0
 40
0.2174770912066801
 40
0.4353705208258733
 40
0.6490388720034628
 40
0.8610609605884166
 40
1.0
 40
1.0
 40
1.0
 40
1.0
 10
700.4975212141577
 20
211.1407031413147
 30
0.0
 10
700.5064987797684
 20
211.1473117796863
 30
0.0
 10
700.5244710976527
 20
211.1605417080148
 30
0.0
 10
700.536139726431
 20
211.251429695971
 30
0.0
 10
700.5331555790456
 20
211.3827675513199
 30
0.0
 10
700.5183466671845
 20
211.5249922154896
 30
0.0
 10
700.5034274551253
 20
211.617882040132
 30
0.0
 10
700.4975212141578
 20
211.6546554089681
 30
0.0
  0
LINE
  5
24E
330
1F
100
AcDbEntity
  8
0
100
AcDbLine
 10
395.9910906524
 20
210.1925793797
 30
0.0
 11
395.763015133
 21
210.1686076766
 31
0.0
  0
SPLINE
  5
24F
330
1F
100
AcDbEntity
  8
0
100
AcDbSpline
210
0.0
220
0.0
230
1.0
 70
     8
 71
     3
 72
     9
 73
     5
 74
     0
 42
0.00000001
 43
0.00000001
 40
0.0
 40
0.0
 40
0.0
 40
0.0
 40
0.4987608531415016
 40
0.9999999999999999
 40
0.9999999999999999
 40
0.9999999999999999
 40
0.9999999999999999
 10
395.9910906523958
 20
211.1167314382696
 30
0.0
 10
395.9830065844345
 20
210.9630885251472
 30
0.0
 10
395.9667982795717
 20
210.65503926235
 30
0.0
 10
395.9829798272452
 20
210.3469871551009
 30
0.0
 10
395.9910906523959
 20
210.1925793796754
 30
0.0
  0
LINE
  5
250
330
1F
100
AcDbEntity
  8
0
100
AcDbLine
 10
395.763015133
 20
211.1407031413
 30
0.0
 11
395.9910906524
 21
211.1167314383
 31
0.0
  0
SPLINE
  5
251
330
1F
100
AcDbEntity
  8
0
100
AcDbSpline
210
0.0
220
0.0
230
1.0
 70
     8
 71
     3
 72
    12
 73
     8
 74
     0
 42
0.00000001
 43
0.00000001
 40
0.0
 40
0.0
 40
0.0
 40
0.0
 40
0.2174770912066488
 40
0.4353705208257733
 40
0.6490388720033438
 40
0.8610609605882539
 40
1.0
 40
1.0
 40
1.0
 40
1.0
 10
395.7630151329957
 20
211.6546554089725
 30
0.0
 10
395.754037567385
 20
211.5968827688125
 30
0.0
 10
395.7360652495007
 20
211.4812268884787
 30
0.0
 10
395.7243966207224
 20
211.3271220254263
 30
0.0
 10
395.7273807681077
 20
211.211869703767
 30
0.0
 10
395.742189679969
 20
211.151158158873
 30
0.0
 10
395.757108892028
 20
211.1436682558313
 30
0.0
 10
395.7630151329957
 20
211.1407031413189
 30
0.0
  0
LINE
  5
252
330
1F
100
AcDbEntity
  8
0
100
AcDbLine
 10
395.9910906524
 20
212.6167314383
 30
0.0
 11
395.763015133
 21
211.654655409
 31
0.0
  0
LINE
  5
253
330
1F
100
AcDbEntity
  8
0
100
AcDbLine
 10
395.763015133
 20
209.654655409
 30
0.0
 11
395.9910906524
 21
208.6925793797
 31
0.0
  0
SPLINE
  5
254
330
1F
100
AcDbEntity
  8
0
100
AcDbSpline
210
0.0
220
0.0
230
1.0
 70
     8
 71
     3
 72
    12
 73
     8
 74
     0
 42
0.00000001
 43
0.00000001
 40
0.0
 40
0.0
 40
0.0
 40
0.0
 40
0.2174770912066795
 40
0.435370520825872
 40
0.6490388720034607
 40
0.8610609605884171
 40
1.0
 40
1.0
 40
1.0
 40
1.0
 10
395.7630151329957
 20
210.1686076766261
 30
0.0
 10
395.7540375673849
 20
210.1619990382545
 30
0.0
 10
395.7360652495007
 20
210.1487691099259
 30
0.0
 10
395.7243966207225
 20
210.0578811219697
 30
0.0
 10
395.7273807681077
 20
209.9265432666208
 30
0.0
 10
395.742189679969
 20
209.7843186024512
 30
0.0
 10
395.7571088920279
 20
209.6914287778087
 30
0.0
 10
395.7630151329957
 20
209.6546554089726
 30
0.0
  0
LINE
  5
255
330
1F
100
AcDbEntity
  8
0
100
AcDbLine
 10
548.5923442029
 20
58.5154778878
 30
0.0
 11
548.6163159059
 21
58.2874023684
 31
0.0
  0
SPLINE
  5
256
330
1F
100
AcDbEntity
  8
0
100
AcDbSpline
210
0.0
220
0.0
230
1.0
 70
     8
 71
     3
 72
     9
 73
     5
 74
     0
 42
0.00000001
 43
0.00000001
 40
0.0
 40
0.0
 40
0.0
 40
0.0
 40
0.4987608531415014
 40
0.9999999999999999
 40
0.9999999999999999
 40
0.9999999999999999
 40
0.9999999999999999
 10
547.6681921442764
 20
58.51547788779008
 30
0.0
 10
547.8218350573987
 20
58.50739381982878
 30
0.0
 10
548.1298843201961
 20
58.49118551496598
 30
0.0
 10
548.437936427445
 20
58.5073670626394
 30
0.0
 10
548.5923442028707
 20
58.51547788779013
 30
0.0
  0
LINE
  5
257
330
1F
100
AcDbEntity
  8
0
100
AcDbLine
 10
547.6442204412
 20
58.2874023684
 30
0.0
 11
547.6681921443
 21
58.5154778878
 31
0.0
  0
SPLINE
  5
258
330
1F
100
AcDbEntity
  8
0
100
AcDbSpline
210
0.0
220
0.0
230
1.0
 70
     8
 71
     3
 72
    12
 73
     8
 74
     0
 42
0.00000001
 43
0.00000001
 40
0.0
 40
0.0
 40
0.0
 40
0.0
 40
0.2174770912066487
 40
0.4353705208257733
 40
0.6490388720033434
 40
0.8610609605882537
 40
1.0
 40
1.0
 40
1.0
 40
1.0
 10
547.1302681735734
 20
58.28740236838998
 30
0.0
 10
547.1880408137336
 20
58.2784248027792
 30
0.0
 10
547.3036966940672
 20
58.26045248489489
 30
0.0
 10
547.4578015571198
 20
58.2487838561167
 30
0.0
 10
547.5730538787791
 20
58.25176800350187
 30
0.0
 10
547.633765423673
 20
58.26657691536325
 30
0.0
 10
547.6412553267147
 20
58.28149612742214
 30
0.0
 10
547.644220441227
 20
58.28740236838989
 30
0.0
  0
LINE
  5
259
330
1F
100
AcDbEntity
  8
0
100
AcDbLine
 10
546.1681921443
 20
58.5154778878
 30
0.0
 11
547.1302681736
 21
58.2874023684
 31
0.0
  0
LINE
  5
25A
330
1F
100
AcDbEntity
  8
0
100
AcDbLine
 10
549.1302681736
 20
58.2874023684
 30
0.0
 11
550.0923442029
 21
58.5154778878
 31
0.0
  0
SPLINE
  5
25B
330
1F
100
AcDbEntity
  8
0
100
AcDbSpline
210
0.0
220
0.0
230
1.0
 70
     8
 71
     3
 72
    12
 73
     8
 74
     0
 42
0.00000001
 43
0.00000001
 40
0.0
 40
0.0
 40
0.0
 40
0.0
 40
0.2174770912066795
 40
0.435370520825872
 40
0.6490388720034602
 40
0.8610609605884169
 40
1.0
 40
1.0
 40
1.0
 40
1.0
 10
548.6163159059199
 20
58.28740236838995
 30
0.0
 10
548.6229245442915
 20
58.27842480277917
 30
0.0
 10
548.6361544726202
 20
58.26045248489489
 30
0.0
 10
548.7270424605763
 20
58.24878385611673
 30
0.0
 10
548.8583803159252
 20
58.2517680035019
 30
0.0
 10
549.0006049800949
 20
58.26657691536322
 30
0.0
 10
549.0934948047372
 20
58.28149612742214
 30
0.0
 10
549.1302681735733
 20
58.28740236838986
 30
0.0
  0
LINE
  5
25C
330
1F
100
AcDbEntity
  8
0
100
AcDbLine
 10
547.6681921443
 20
362.7938329302
 30
0.0
 11
547.6442204412
 21
363.0219084496
 31
0.0
  0
SPLINE
  5
25D
330
1F
100
AcDbEntity
  8
0
100
AcDbSpline
210
0.0
220
0.0
230
1.0
 70
     8
 71
     3
 72
     9
 73
     5
 74
     0
 42
0.00000001
 43
0.00000001
 40
0.0
 40
0.0
 40
0.0
 40
0.0
 40
0.4987608531415019
 40
0.9999999999999999
 40
0.9999999999999999
 40
0.9999999999999999
 40
0.9999999999999999
 10
548.5923442028758
 20
362.7938329301518
 30
0.0
 10
548.4387012897533
 20
362.8019169981131
 30
0.0
 10
548.1306520269561
 20
362.8181253029759
 30
0.0
 10
547.822599919707
 20
362.8019437553024
 30
0.0
 10
547.6681921442815
 20
362.7938329301517
 30
0.0
  0
LINE
  5
25E
330
1F
100
AcDbEntity
  8
0
100
AcDbLine
 10
548.6163159059
 20
363.0219084496
 30
0.0
 11
548.5923442029
 21
362.7938329302
 31
0.0
  0
SPLINE
  5
25F
330
1F
100
AcDbEntity
  8
0
100
AcDbSpline
210
0.0
220
0.0
230
1.0
 70
     8
 71
     3
 72
    12
 73
     8
 74
     0
 42
0.00000001
 43
0.00000001
 40
0.0
 40
0.0
 40
0.0
 40
0.0
 40
0.2174770912066491
 40
0.4353705208257737
 40
0.6490388720033441
 40
0.8610609605882539
 40
1.0
 40
1.0
 40
1.0
 40
1.0
 10
549.1302681735785
 20
363.0219084495519
 30
0.0
 10
549.0724955334186
 20
363.0308860151627
 30
0.0
 10
548.9568396530848
 20
363.048858333047
 30
0.0
 10
548.8027347900323
 20
363.0605269618252
 30
0.0
 10
548.6874824683731
 20
363.0575428144399
 30
0.0
 10
548.6267709234791
 20
363.0427339025786
 30
0.0
 10
548.6192810204375
 20
363.0278146905196
 30
0.0
 10
548.616315905925
 20
363.0219084495519
 30
0.0
  0
LINE
  5
260
330
1F
100
AcDbEntity
  8
0
100
AcDbLine
 10
550.0923442029
 20
362.7938329302
 30
0.0
 11
549.1302681736
 21
363.0219084496
 31
0.0
  0
LINE
  5
261
330
1F
100
AcDbEntity
  8
0
100
AcDbLine
 10
547.1302681736
 20
363.0219084496
 30
0.0
 11
546.1681921443
 21
362.7938329302
 31
0.0
  0
SPLINE
  5
262
330
1F
100
AcDbEntity
  8
0
100
AcDbSpline
210
0.0
220
0.0
230
1.0
 70
     8
 71
     3
 72
    12
 73
     8
 74
     0
 42
0.00000001
 43
0.00000001
 40
0.0
 40
0.0
 40
0.0
 40
0.0
 40
0.2174770912066796
 40
0.4353705208258723
 40
0.649038872003461
 40
0.8610609605884173
 40
1.0
 40
1.0
 40
1.0
 40
1.0
 10
547.6442204412322
 20
363.0219084495519
 30
0.0
 10
547.6376118028606
 20
363.0308860151627
 30
0.0
 10
547.624381874532
 20
363.048858333047
 30
0.0
 10
547.5334938865758
 20
363.0605269618251
 30
0.0
 10
547.4021560312269
 20
363.0575428144399
 30
0.0
 10
547.2599313670573
 20
363.0427339025786
 30
0.0
 10
547.1670415424148
 20
363.0278146905196
 30
0.0
 10
547.1302681735788
 20
363.021908449552
 30
0.0
  0
CIRCLE
  5
263
330
1F
100
AcDbEntity
  8
0
100
AcDbCircle
 10
548.1302681736
 20
210.654655409
 30
0.0
 40
95.49999999999885
  0
CIRCLE
  5
264
330
1F
100
AcDbEntity
  8
0
100
AcDbCircle
 10
548.1302681736
 20
210.654655409
 30
0.0
 40
99.29999999999885
  0
CIRCLE
  5
265
330
1F
100
AcDbEntity
  8
0
100
AcDbCircle
 10
548.1302681736
 20
210.654655409
 30
0.0
 40
149.2
  0
SPLINE
  5
266
330
1F
100
AcDbEntity
  8
0
100
AcDbSpline
210
0.0
220
0.0
230
1.0
 70
     8
 71
     3
 72
     9
 73
     5
 74
     0
 42
0.00000001
 43
0.00000001
 40
0.0
 40
0.0
 40
0.0
 40
0.0
 40
0.5841839831166485
 40
1.0
 40
1.0
 40
1.0
 40
1.0
 10
592.9007960139313
 20
65.24068655832716
 30
0.0
 10
592.3988123172363
 20
65.08542333211665
 30
0.0
 10
591.5395219032526
 20
64.8196453739772
 30
0.0
 10
590.6553971165192
 20
64.65618547237145
 30
0.0
 10
590.287763869272
 20
64.58821622716562
 30
0.0
  0
SPLINE
  5
267
330
1F
100
AcDbEntity
  8
0
100
AcDbSpline
210
0.0
220
0.0
230
1.0
 70
     8
 71
     3
 72
    10
 73
     6
 74
     0
 42
0.00000001
 43
0.00000001
 40
0.0
 40
0.0
 40
0.0
 40
0.0
 40
0.2975930922679148
 40
0.8935712300320282
 40
1.0
 40
1.0
 40
1.0
 40
1.0
 10
541.8564002806812
 20
362.6752496771899
 30
0.0
 10
542.3807602651979
 20
362.6888623177581
 30
0.0
 10
543.9552356428802
 20
362.7297364653527
 30
0.0
 10
545.728726992843
 20
362.6777618107422
 30
0.0
 10
546.9489013645621
 20
362.4623147903536
 30
0.0
 10
547.1337823161857
 20
362.4296702347253
 30
0.0
  0
SPLINE
  5
268
330
1F
100
AcDbEntity
  8
0
100
AcDbSpline
210
0.0
220
0.0
230
1.0
 70
     8
 71
     3
 72
    26
 73
    22
 74
     0
 42
0.00000001
 43
0.00000001
 40
0.0
 40
0.0
 40
0.0
 40
0.0
 40
0.0562117974016211
 40
0.1124762672052922
 40
0.1686890536796403
 40
0.2249520211882389
 40
0.2811666379159732
 40
0.3374272067729278
 40
0.39364449476463
 40
0.4437437830359386
 40
0.4937960935281145
 40
0.5438994814603673
 40
0.5939500273591974
 40
0.644052315314718
 40
0.6941072136928438
 40
0.7531441949601867
 40
0.812133730368805
 40
0.8711750631133574
 40
0.9301636068258525
 40
0.9802669332196339
 40
0.9999999999999999
 40
0.9999999999999999
 40
0.9999999999999999
 40
0.9999999999999999
 10
541.8564002806793
 20
362.6752496771898
 30
0.0
 10
546.422179902569
 20
362.7448812620851
 30
0.0
 10
555.5580174400702
 20
362.8842096790838
 30
0.0
 10
569.2123431870737
 20
361.5300872960242
 30
0.0
 10
582.697322335791
 20
359.0411589089617
 30
0.0
 10
595.8982211219343
 20
355.3273767719563
 30
0.0
 10
608.7164940682894
 20
350.4461375176458
 30
0.0
 10
621.0395155758094
 20
344.432462859366
 30
0.0
 10
632.3476893745367
 20
337.5919577477429
 30
0.0
 10
642.6212374647273
 20
330.1148080854617
 30
0.0
 10
651.8870447499971
 20
322.161659726196
 30
0.0
 10
660.4824877101497
 20
313.4955818984812
 30
0.0
 10
668.3595935741683
 20
304.1650018112393
 30
0.0
 10
675.4613223054392
 20
294.2374972181981
 30
0.0
 10
682.121084720599
 20
283.146657651467
 30
0.0
 10
688.1083500691665
 20
270.862904628145
 30
0.0
 10
693.1609970881055
 20
257.3846657773522
 30
0.0
 10
696.9391236088501
 20
243.4944524215931
 30
0.0
 10
699.1926412987598
 20
230.0210125157387
 30
0.0
 10
700.2082571013912
 20
219.5896683613449
 30
0.0
 10
700.166370919562
 20
213.9189695369611
 30
0.0
 10
700.1545355027307
 20
212.3166491205291
 30
0.0
  0
SPLINE
  5
269
330
1F
100
AcDbEntity
  8
0
100
AcDbSpline
210
0.0
220
0.0
230
1.0
 70
     8
 71
     3
 72
    26
 73
    22
 74
     0
 42
0.00000001
 43
0.00000001
 40
0.0
 40
0.0
 40
0.0
 40
0.0
 40
0.0151832118168049
 40
0.0671738630185073
 40
0.1191149039184417
 40
0.1710992262604972
 40
0.2230508846315486
 40
0.284302500587042
 40
0.3455212897927175
 40
0.4067836468651
 40
0.4679961305355398
 40
0.5199869174300134
 40
0.5719276766510067
 40
0.62391234213147
 40
0.6758634748758451
 40
0.7278366278130488
 40
0.7798039187875634
 40
0.8410399125565692
 40
0.9022697740256381
 40
0.9635221740662281
 40
1.0
 40
1.0
 40
1.0
 40
1.0
 10
700.1639119481496
 20
208.4966397170739
 30
0.0
 10
700.1762963009138
 20
207.3086529692632
 30
0.0
 10
700.2310873969087
 20
202.0527387379333
 30
0.0
 10
699.3422872037723
 20
192.7538268337475
 30
0.0
 10
697.4799470791012
 20
180.6947643862669
 30
0.0
 10
694.5857657712141
 20
168.8322475011184
 30
0.0
 10
690.5423241710146
 20
156.5456041428596
 30
0.0
 10
685.1493002398672
 20
143.988842584413
 30
0.0
 10
678.2474122347371
 20
131.3566455547711
 30
0.0
 10
670.1862296460301
 20
119.4353050716701
 30
0.0
 10
661.4948401767584
 20
108.8845404138532
 30
0.0
 10
652.433198525015
 20
99.65837481666654
 30
0.0
 10
643.2066779201766
 20
91.6599012103567
 30
0.0
 10
633.3725009383029
 20
84.42845319652578
 30
0.0
 10
622.988002616567
 20
78.00641207422404
 30
0.0
 10
612.1240127517154
 20
72.43656694319326
 30
0.0
 10
600.177621208869
 20
67.47956297756724
 30
0.0
 10
587.1469026657419
 20
63.34778048306259
 30
0.0
 10
573.0738759855225
 20
60.37113556481549
 30
0.0
 10
560.7084220552163
 20
58.761377849087
 30
0.0
 10
553.0591559677262
 20
58.70375151447729
 30
0.0
 10
550.2040659065021
 20
58.68224247382861
 30
0.0
  0
SPLINE
  5
26A
330
1F
100
AcDbEntity
  8
0
100
AcDbSpline
210
0.0
220
0.0
230
1.0
 70
     8
 71
     3
 72
    27
 73
    23
 74
     0
 42
0.00000001
 43
0.00000001
 40
0.0
 40
0.0
 40
0.0
 40
0.0
 40
0.0069764740917179
 40
0.0589910333742492
 40
0.110971188957981
 40
0.1629744365060692
 40
0.2149706457114005
 40
0.2669576189790122
 40
0.3189676274144573
 40
0.3802252726571368
 40
0.4415056328627143
 40
0.5027773934708761
 40
0.564041265231574
 40
0.6160450475184
 40
0.6680406184221687
 40
0.7200282207961234
 40
0.7720377981411336
 40
0.824012092726267
 40
0.8760302852901369
 40
0.937279738148587
 40
0.9985728800012974
 40
0.9999999999999999
 40
0.9999999999999999
 40
0.9999999999999999
 40
0.9999999999999999
 10
546.0351971733317
 20
58.58756264503145
 30
0.0
 10
545.489866912182
 20
58.57260308642864
 30
0.0
 10
540.878713023765
 20
58.4461094150985
 30
0.0
 10
532.2098861237941
 20
59.24708601663284
 30
0.0
 10
520.1283203884273
 20
60.91862389746586
 30
0.0
 10
508.2276920031641
 20
63.66632579591577
 30
0.0
 10
496.583036276789
 20
67.32792484995434
 30
0.0
 10
485.2687424533565
 20
71.9189062332179
 30
0.0
 10
473.7114625156437
 20
77.72401540916074
 30
0.0
 10
462.0794662425225
 20
84.90141586024517
 30
0.0
 10
450.5989627594095
 20
93.58086633007447
 30
0.0
 10
439.9880877232937
 20
103.3052660894719
 30
0.0
 10
430.8283851923133
 20
113.4489268411699
 30
0.0
 10
423.0302840803778
 20
123.7681236677392
 30
0.0
 10
416.4730995865159
 20
134.0668277491038
 30
0.0
 10
410.7622276793099
 20
144.8580363101488
 30
0.0
 10
405.9324067234097
 20
156.0701104120527
 30
0.0
 10
402.0241013634416
 20
167.6357518475269
 30
0.0
 10
398.8432705590689
 20
180.1783329109651
 30
0.0
 10
396.8039187606622
 20
193.6735652240215
 30
0.0
 10
395.8570557048373
 20
203.3646608310101
 30
0.0
 10
396.0092822176059
 20
208.2662187989056
 30
0.0
 10
396.0127459388068
 20
208.3777475329111
 30
0.0
  0
SPLINE
  5
26B
330
1F
100
AcDbEntity
  8
0
100
AcDbSpline
210
0.0
220
0.0
230
1.0
 70
     8
 71
     3
 72
    23
 73
    19
 74
     0
 42
0.00000001
 43
0.00000001
 40
0.0
 40
0.0
 40
0.0
 40
0.0
 40
0.0486583718716011
 40
0.122293868683164
 40
0.184764772909591
 40
0.2472607882152441
 40
0.3097154081834763
 40
0.3722220251537543
 40
0.4346679866931483
 40
0.4971787206002716
 40
0.5707743631461047
 40
0.6444346647264997
 40
0.7180345899644545
 40
0.7916858689358155
 40
0.8564316099335704
 40
0.9212249314169967
 40
0.9859642496366959
 40
1.0
 40
1.0
 40
1.0
 40
1.0
 10
396.1491193149071
 20
212.9114566354236
 30
0.0
 10
396.1931969979376
 20
216.078928295224
 30
0.0
 10
396.303978147677
 20
224.0397857658241
 30
0.0
 10
397.9347037405028
 20
235.9836534571921
 30
0.0
 10
400.6203977392628
 20
248.6307448977293
 30
0.0
 10
404.1442098588321
 20
260.3210601136518
 30
0.0
 10
408.5828974989101
 20
271.6952356751218
 30
0.0
 10
413.9194545693774
 20
282.6733979152126
 30
0.0
 10
420.1197593852778
 20
293.1930936317736
 30
0.0
 10
427.5572872222739
 20
303.7719465573655
 30
0.0
 10
436.3647202354784
 20
314.2264737920054
 30
0.0
 10
446.6338838395649
 20
324.3076969879962
 30
0.0
 10
457.8115478307015
 20
333.3800589545583
 30
0.0
 10
469.3132334415168
 20
341.0278676825195
 30
0.0
 10
480.9340020600862
 20
347.3736509780077
 30
0.0
 10
492.5312936006919
 20
352.4111587998501
 30
0.0
 10
501.3228226839187
 20
355.6490141470607
 30
0.0
 10
506.2991757610292
 20
356.8799631394709
 30
0.0
 10
507.185837629643
 20
357.0992875155486
 30
0.0
  0
SPLINE
  5
26C
330
1F
100
AcDbEntity
  8
0
100
AcDbSpline
210
0.0
220
0.0
230
1.0
 70
     8
 71
     3
 72
    10
 73
     6
 74
     0
 42
0.00000001
 43
0.00000001
 40
0.0
 40
0.0
 40
0.0
 40
0.0
 40
0.291568632242337
 40
0.5830562725316708
 40
1.0
 40
1.0
 40
1.0
 40
1.0
 10
506.9866309113865
 20
357.0600758102266
 30
0.0
 10
507.1117334596969
 20
357.110072639006
 30
0.0
 10
507.3619038053241
 20
357.2100524084424
 30
0.0
 10
507.8003144031651
 20
357.3565297945158
 30
0.0
 10
508.1151288642405
 20
357.4460945913953
 30
0.0
 10
508.30041133596
 20
357.4988075032742
 30
0.0
  0
SPLINE
  5
26D
330
1F
100
AcDbEntity
  8
0
100
AcDbSpline
210
0.0
220
0.0
230
1.0
 70
     8
 71
     3
 72
    13
 73
     9
 74
     0
 42
0.00000001
 43
0.00000001
 40
0.0
 40
0.0
 40
0.0
 40
0.0
 40
0.1276661522358851
 40
0.2554364881888848
 40
0.3831026404247703
 40
0.5108729763777692
 40
0.7550705383215564
 40
1.0
 40
1.0
 40
1.0
 40
1.0
 10
508.30041133596
 20
357.4988075032742
 30
0.0
 10
509.7008754271991
 20
357.8663152850861
 30
0.0
 10
512.5029464776353
 20
358.6016307584832
 30
0.0
 10
516.7432346790555
 20
359.5515302936
 30
0.0
 10
521.0079458333227
 20
360.3896597909324
 30
0.0
 10
526.5980261708356
 20
361.316157329886
 30
0.0
 10
533.5434351342401
 20
362.2009163815342
 30
0.0
 10
539.0826490516658
 20
362.5169809320898
 30
0.0
 10
541.8564002806812
 20
362.6752496771899
 30
0.0
  0
INSERT
  5
279
330
1F
100
AcDbEntity
  8
0
  6
Continuous
 62
     7
370
    18
100
AcDbBlockReference
  2
SW_CENTERMARKSYMBOL_0
 10
548.1302681736
 20
210.654655409
 30
0.0
  0
ENDSEC
  0
SECTION
  2
OBJECTS
  0
DICTIONARY
  5
C
330
0
100
AcDbDictionary
281
     1
  3
ACAD_GROUP
350
D
  3
ACAD_LAYOUT
350
1A
  3
ACAD_MLINESTYLE
350
17
  3
ACAD_PLOTSETTINGS
350
19
  3
ACAD_PLOTSTYLENAME
350
E
  3
ACAD_SCALELIST
350
47
  3
DWGPROPS
350
27A
  0
DICTIONARY
  5
D
102
{ACAD_REACTORS
330
C
102
}
330
C
100
AcDbDictionary
281
     1
  0
DICTIONARY
  5
1A
102
{ACAD_REACTORS
330
C
102
}
330
C
100
AcDbDictionary
281
     1
  3
Layout1
350
1E
  3
Layout2
350
26
  3
Model
350
22
  0
DICTIONARY
  5
17
102
{ACAD_REACTORS
330
C
102
}
330
C
100
AcDbDictionary
281
     1
  3
Standard
350
18
  0
DICTIONARY
  5
19
102
{ACAD_REACTORS
330
C
102
}
330
C
100
AcDbDictionary
281
     1
  0
ACDBDICTIONARYWDFLT
  5
E
102
{ACAD_REACTORS
330
C
102
}
330
C
100
AcDbDictionary
281
     1
  3
Normal
350
F
100
AcDbDictionaryWithDefault
340
F
  0
DICTIONARY
  5
47
102
{ACAD_REACTORS
330
C
102
}
330
C
100
AcDbDictionary
281
     1
  3
A0
350
48
  3
A1
350
49
  3
A2
350
4A
  3
A3
350
4B
  3
A4
350
4C
  3
A5
350
4D
  3
A6
350
4E
  3
A7
350
4F
  3
A8
350
50
  3
A9
350
51
  3
B0
350
52
  3
B1
350
53
  3
B2
350
54
  3
B3
350
55
  3
B4
350
56
  3
B5
350
57
  3
B6
350
58
  3
B7
350
59
  3
B8
350
5A
  3
B9
350
5B
  3
C0
350
5C
  3
C1
350
5D
  3
C2
350
5E
  3
C3
350
5F
  3
C4
350
60
  3
C5
350
61
  3
C6
350
62
  3
C7
350
63
  3
C8
350
64
  3
C9
350
65
  3
D0
350
66
  3
D1
350
67
  3
D2
350
68
  0
XRECORD
  5
27A
102
{ACAD_REACTORS
330
C
102
}
330
C
100
AcDbXrecord
280
     1
  1
DWGPROPS COOKIE
  2

  3

  4

  6

  7

  8
Emilis.Masalas
  9

300
=
301
=
302
=
303
=
304
=
305
=
306
=
307
=
308
=
309
=
 40
0.0
 41
2459179.618038842
 42
2459179.618039456
  1

 90
        0
  0
LAYOUT
  5
1E
102
{ACAD_REACTORS
330
1A
102
}
330
1A
100
AcDbPlotSettings
  1

  2
none_device
  4

  6

 40
0.0
 41
0.0
 42
0.0
 43
0.0
 44
0.0
 45
0.0
 46
0.0
 47
0.0
 48
0.0
 49
0.0
140
0.0
141
0.0
142
1.0
143
1.0
 70
   688
 72
     1
 73
     0
 74
     5
  7

 75
    16
147
1.0
148
0.0
149
0.0
100
AcDbLayout
  1
Layout1
 70
     1
 71
     1
 10
0.0
 20
0.0
 11
420.0
 21
297.0
 12
0.0
 22
0.0
 32
0.0
 14
1.0000000000E+20
 24
1.0000000000E+20
 34
1.0000000000E+20
 15
-1.0000000000E+20
 25
-1.0000000000E+20
 35
-1.0000000000E+20
146
0.0
 13
0.0
 23
0.0
 33
0.0
 16
1.0
 26
0.0
 36
0.0
 17
0.0
 27
1.0
 37
0.0
 76
     0
330
1B
  0
LAYOUT
  5
26
102
{ACAD_REACTORS
330
1A
102
}
330
1A
100
AcDbPlotSettings
  1

  2
none_device
  4

  6

 40
0.0
 41
0.0
 42
0.0
 43
0.0
 44
0.0
 45
0.0
 46
0.0
 47
0.0
 48
0.0
 49
0.0
140
0.0
141
0.0
142
1.0
143
1.0
 70
   688
 72
     1
 73
     0
 74
     5
  7

 75
    16
147
1.0
148
0.0
149
0.0
100
AcDbLayout
  1
Layout2
 70
     1
 71
     2
 10
0.0
 20
0.0
 11
0.0
 21
0.0
 12
0.0
 22
0.0
 32
0.0
 14
0.0
 24
0.0
 34
0.0
 15
0.0
 25
0.0
 35
0.0
146
0.0
 13
0.0
 23
0.0
 33
0.0
 16
1.0
 26
0.0
 36
0.0
 17
0.0
 27
1.0
 37
0.0
 76
     0
330
23
  0
LAYOUT
  5
22
102
{ACAD_REACTORS
330
1A
102
}
330
1A
100
AcDbPlotSettings
  1

  2
none_device
  4
Letter_(8.50_x_11.00_Inches)
  6

 40
6.35
 41
6.35
 42
6.35000508
 43
6.35000508
 44
215.9
 45
279.4
 46
0.0
 47
0.0
 48
0.0
 49
0.0
140
0.0
141
0.0
142
1.0
143
1.0
 70
  1712
 72
     1
 73
     0
 74
     0
  7

 75
     0
147
1.0
148
0.0
149
0.0
100
AcDbLayout
  1
Model
 70
     1
 71
     0
 10
0.0
 20
0.0
 11
420.0
 21
297.0
 12
0.0
 22
0.0
 32
0.0
 14
0.0
 24
0.0
 34
0.0
 15
420.0
 25
297.0
 35
0.0
146
0.0
 13
0.0
 23
0.0
 33
0.0
 16
1.0
 26
0.0
 36
0.0
 17
0.0
 27
1.0
 37
0.0
 76
     0
330
1F
331
29
  0
MLINESTYLE
  5
18
102
{ACAD_REACTORS
330
17
102
}
330
17
100
AcDbMlineStyle
  2
Standard
 70
     0
  3

 62
   256
 51
90.0
 52
90.0
 71
     2
 49
0.5
 62
   256
  6
BYLAYER
 49
-0.5
 62
   256
  6
BYLAYER
  0
ACDBPLACEHOLDER
  5
F
102
{ACAD_REACTORS
330
E
102
}
330
E
  0
SCALE
  5
48
102
{ACAD_REACTORS
330
47
102
}
330
47
100
AcDbScale
 70
     0
300
1:1
140
1.0
141
1.0
290
     1
  0
SCALE
  5
49
102
{ACAD_REACTORS
330
47
102
}
330
47
100
AcDbScale
 70
     0
300
1:2
140
1.0
141
2.0
290
     0
  0
SCALE
  5
4A
102
{ACAD_REACTORS
330
47
102
}
330
47
100
AcDbScale
 70
     0
300
1:4
140
1.0
141
4.0
290
     0
  0
SCALE
  5
4B
102
{ACAD_REACTORS
330
47
102
}
330
47
100
AcDbScale
 70
     0
300
1:5
140
1.0
141
5.0
290
     0
  0
SCALE
  5
4C
102
{ACAD_REACTORS
330
47
102
}
330
47
100
AcDbScale
 70
     0
300
1:8
140
1.0
141
8.0
290
     0
  0
SCALE
  5
4D
102
{ACAD_REACTORS
330
47
102
}
330
47
100
AcDbScale
 70
     0
300
1:10
140
1.0
141
10.0
290
     0
  0
SCALE
  5
4E
102
{ACAD_REACTORS
330
47
102
}
330
47
100
AcDbScale
 70
     0
300
1:16
140
1.0
141
16.0
290
     0
  0
SCALE
  5
4F
102
{ACAD_REACTORS
330
47
102
}
330
47
100
AcDbScale
 70
     0
300
1:20
140
1.0
141
20.0
290
     0
  0
SCALE
  5
50
102
{ACAD_REACTORS
330
47
102
}
330
47
100
AcDbScale
 70
     0
300
1:30
140
1.0
141
30.0
290
     0
  0
SCALE
  5
51
102
{ACAD_REACTORS
330
47
102
}
330
47
100
AcDbScale
 70
     0
300
1:40
140
1.0
141
40.0
290
     0
  0
SCALE
  5
52
102
{ACAD_REACTORS
330
47
102
}
330
47
100
AcDbScale
 70
     0
300
1:50
140
1.0
141
50.0
290
     0
  0
SCALE
  5
53
102
{ACAD_REACTORS
330
47
102
}
330
47
100
AcDbScale
 70
     0
300
1:100
140
1.0
141
100.0
290
     0
  0
SCALE
  5
54
102
{ACAD_REACTORS
330
47
102
}
330
47
100
AcDbScale
 70
     0
300
2:1
140
2.0
141
1.0
290
     0
  0
SCALE
  5
55
102
{ACAD_REACTORS
330
47
102
}
330
47
100
AcDbScale
 70
     0
300
4:1
140
4.0
141
1.0
290
     0
  0
SCALE
  5
56
102
{ACAD_REACTORS
330
47
102
}
330
47
100
AcDbScale
 70
     0
300
8:1
140
8.0
141
1.0
290
     0
  0
SCALE
  5
57
102
{ACAD_REACTORS
330
47
102
}
330
47
100
AcDbScale
 70
     0
300
10:1
140
10.0
141
1.0
290
     0
  0
SCALE
  5
58
102
{ACAD_REACTORS
330
47
102
}
330
47
100
AcDbScale
 70
     0
300
100:1
140
100.0
141
1.0
290
     0
  0
SCALE
  5
59
102
{ACAD_REACTORS
330
47
102
}
330
47
100
AcDbScale
 70
     0
300
1/128" = 1'-0"
140
0.0078125
141
12.0
290
     0
  0
SCALE
  5
5A
102
{ACAD_REACTORS
330
47
102
}
330
47
100
AcDbScale
 70
     0
300
1/64" = 1'-0"
140
0.015625
141
12.0
290
     0
  0
SCALE
  5
5B
102
{ACAD_REACTORS
330
47
102
}
330
47
100
AcDbScale
 70
     0
300
1/32" = 1'-0"
140
0.03125
141
12.0
290
     0
  0
SCALE
  5
5C
102
{ACAD_REACTORS
330
47
102
}
330
47
100
AcDbScale
 70
     0
300
1/16" = 1'-0"
140
0.0625
141
12.0
290
     0
  0
SCALE
  5
5D
102
{ACAD_REACTORS
330
47
102
}
330
47
100
AcDbScale
 70
     0
300
3/32" = 1'-0"
140
0.09375
141
12.0
290
     0
  0
SCALE
  5
5E
102
{ACAD_REACTORS
330
47
102
}
330
47
100
AcDbScale
 70
     0
300
1/8" = 1'-0"
140
0.125
141
12.0
290
     0
  0
SCALE
  5
5F
102
{ACAD_REACTORS
330
47
102
}
330
47
100
AcDbScale
 70
     0
300
3/16" = 1'-0"
140
0.1875
141
12.0
290
     0
  0
SCALE
  5
60
102
{ACAD_REACTORS
330
47
102
}
330
47
100
AcDbScale
 70
     0
300
1/4" = 1'-0"
140
0.25
141
12.0
290
     0
  0
SCALE
  5
61
102
{ACAD_REACTORS
330
47
102
}
330
47
100
AcDbScale
 70
     0
300
3/8" = 1'-0"
140
0.375
141
12.0
290
     0
  0
SCALE
  5
62
102
{ACAD_REACTORS
330
47
102
}
330
47
100
AcDbScale
 70
     0
300
1/2" = 1'-0"
140
0.5
141
12.0
290
     0
  0
SCALE
  5
63
102
{ACAD_REACTORS
330
47
102
}
330
47
100
AcDbScale
 70
     0
300
3/4" = 1'-0"
140
0.75
141
12.0
290
     0
  0
SCALE
  5
64
102
{ACAD_REACTORS
330
47
102
}
330
47
100
AcDbScale
 70
     0
300
1" = 1'-0"
140
1.0
141
12.0
290
     0
  0
SCALE
  5
65
102
{ACAD_REACTORS
330
47
102
}
330
47
100
AcDbScale
 70
     0
300
1-1/2" = 1'-0"
140
1.5
141
12.0
290
     0
  0
SCALE
  5
66
102
{ACAD_REACTORS
330
47
102
}
330
47
100
AcDbScale
 70
     0
300
3" = 1'-0"
140
3.0
141
12.0
290
     0
  0
SCALE
  5
67
102
{ACAD_REACTORS
330
47
102
}
330
47
100
AcDbScale
 70
     0
300
6" = 1'-0"
140
6.0
141
12.0
290
     0
  0
SCALE
  5
68
102
{ACAD_REACTORS
330
47
102
}
330
47
100
AcDbScale
 70
     0
300
1'-0" = 1'-0"
140
12.0
141
12.0
290
     0
  0
ENDSEC
  0
EOF
