  0
SECTION
  2
HEADER
  9
$ACADVER
  1
AC1015
  9
$ACADMAINTVER
 70
     6
  9
$DWGCODEPAGE
  3
ANSI_1257
  9
$INSBASE
 10
0.0
 20
0.0
 30
0.0
  9
$EXTMIN
 10
0.0
 20
0.0
 30
0.0
  9
$EXTMAX
 10
420.0
 20
297.0
 30
0.0
  9
$LIMMIN
 10
0.0
 20
0.0
  9
$LIMMAX
 10
420.0
 20
297.0
  9
$ORTHOMODE
 70
     0
  9
$REGENMODE
 70
     1
  9
$FILLMODE
 70
     1
  9
$QTEXTMODE
 70
     0
  9
$MIRRTEXT
 70
     1
  9
$LTSCALE
 40
1.0
  9
$ATTMODE
 70
     1
  9
$TEXTSIZE
 40
5.6444444444
  9
$TRACEWID
 40
1.0
  9
$TEXTSTYLE
  7
Standard
  9
$CLAYER
  8
0
  9
$CELTYPE
  6
ByLayer
  9
$CECOLOR
 62
   256
  9
$CELTSCALE
 40
1.0
  9
$DISPSILH
 70
     0
  9
$DIMSCALE
 40
1.0
  9
$DIMASZ
 40
3.175
  9
$DIMEXO
 40
1.0
  9
$DIMDLI
 40
3.75
  9
$DIMRND
 40
0.0
  9
$DIMDLE
 40
0.0
  9
$DIMEXE
 40
1.0
  9
$DIMTP
 40
0.0
  9
$DIMTM
 40
0.0
  9
$DIMTXT
 40
4.9388888889
  9
$DIMCEN
 40
2.5
  9
$DIMTSZ
 40
0.0
  9
$DIMTOL
 70
     0
  9
$DIMLIM
 70
     0
  9
$DIMTIH
 70
     1
  9
$DIMTOH
 70
     1
  9
$DIMSE1
 70
     0
  9
$DIMSE2
 70
     0
  9
$DIMTAD
 70
     1
  9
$DIMZIN
 70
     0
  9
$DIMBLK
  1

  9
$DIMASO
 70
     1
  9
$DIMSHO
 70
     1
  9
$DIMPOST
  1

  9
$DIMAPOST
  1

  9
$DIMALT
 70
     0
  9
$DIMALTD
 70
     3
  9
$DIMALTF
 40
0.0393700787
  9
$DIMLFAC
 40
1.0
  9
$DIMTOFL
 70
     1
  9
$DIMTVP
 40
0.0
  9
$DIMTIX
 70
     0
  9
$DIMSOXD
 70
     0
  9
$DIMSAH
 70
     0
  9
$DIMBLK1
  1

  9
$DIMBLK2
  1

  9
$DIMSTYLE
  2
ISO-25
  9
$DIMCLRD
 70
     0
  9
$DIMCLRE
 70
     0
  9
$DIMCLRT
 70
     0
  9
$DIMTFAC
 40
1.0
  9
$DIMGAP
 40
1.524
  9
$DIMJUST
 70
     0
  9
$DIMSD1
 70
     0
  9
$DIMSD2
 70
     0
  9
$DIMTOLJ
 70
     0
  9
$DIMTZIN
 70
     0
  9
$DIMALTZ
 70
     0
  9
$DIMALTTZ
 70
     0
  9
$DIMUPT
 70
     0
  9
$DIMDEC
 70
     1
  9
$DIMTDEC
 70
     1
  9
$DIMALTU
 70
     2
  9
$DIMALTTD
 70
     3
  9
$DIMTXSTY
  7
Standard
  9
$DIMAUNIT
 70
     0
  9
$DIMADEC
 70
     1
  9
$DIMALTRND
 40
0.0
  9
$DIMAZIN
 70
     0
  9
$DIMDSEP
 70
    44
  9
$DIMATFIT
 70
     3
  9
$DIMFRAC
 70
     0
  9
$DIMLDRBLK
  1

  9
$DIMLUNIT
 70
     2
  9
$DIMLWD
 70
    -2
  9
$DIMLWE
 70
    -2
  9
$DIMTMOVE
 70
     0
  9
$LUNITS
 70
     2
  9
$LUPREC
 70
     1
  9
$SKETCHINC
 40
1.0
  9
$FILLETRAD
 40
10.0
  9
$AUNITS
 70
     0
  9
$AUPREC
 70
     1
  9
$MENU
  1
.
  9
$ELEVATION
 40
0.0
  9
$PELEVATION
 40
0.0
  9
$THICKNESS
 40
0.0
  9
$LIMCHECK
 70
     0
  9
$CHAMFERA
 40
0.0
  9
$CHAMFERB
 40
0.0
  9
$CHAMFERC
 40
0.0
  9
$CHAMFERD
 40
0.0
  9
$SKPOLY
 70
     0
  9
$TDCREATE
 40
2459180.398726262
  9
$TDUCREATE
 40
2459180.315392928
  9
$TDUPDATE
 40
2459180.398726794
  9
$TDUUPDATE
 40
2459180.31539346
  9
$TDINDWG
 40
0.0000000116
  9
$TDUSRTIMER
 40
0.0000000116
  9
$USRTIMER
 70
     1
  9
$ANGBASE
 50
0.0
  9
$ANGDIR
 70
     0
  9
$PDMODE
 70
     0
  9
$PDSIZE
 40
-1.0
  9
$PLINEWID
 40
0.0
  9
$SPLFRAME
 70
     0
  9
$SPLINETYPE
 70
     6
  9
$SPLINESEGS
 70
     8
  9
$HANDSEED
  5
282
  9
$SURFTAB1
 70
     6
  9
$SURFTAB2
 70
     6
  9
$SURFTYPE
 70
     6
  9
$SURFU
 70
     6
  9
$SURFV
 70
     6
  9
$UCSBASE
  2

  9
$UCSNAME
  2

  9
$UCSORG
 10
0.0
 20
0.0
 30
0.0
  9
$UCSXDIR
 10
1.0
 20
0.0
 30
0.0
  9
$UCSYDIR
 10
0.0
 20
1.0
 30
0.0
  9
$UCSORTHOREF
  2

  9
$UCSORTHOVIEW
 70
     0
  9
$UCSORGTOP
 10
0.0
 20
0.0
 30
0.0
  9
$UCSORGBOTTOM
 10
0.0
 20
0.0
 30
0.0
  9
$UCSORGLEFT
 10
0.0
 20
0.0
 30
0.0
  9
$UCSORGRIGHT
 10
0.0
 20
0.0
 30
0.0
  9
$UCSORGFRONT
 10
0.0
 20
0.0
 30
0.0
  9
$UCSORGBACK
 10
0.0
 20
0.0
 30
0.0
  9
$PUCSBASE
  2

  9
$PUCSNAME
  2

  9
$PUCSORG
 10
0.0
 20
0.0
 30
0.0
  9
$PUCSXDIR
 10
1.0
 20
0.0
 30
0.0
  9
$PUCSYDIR
 10
0.0
 20
1.0
 30
0.0
  9
$PUCSORTHOREF
  2

  9
$PUCSORTHOVIEW
 70
     0
  9
$PUCSORGTOP
 10
0.0
 20
0.0
 30
0.0
  9
$PUCSORGBOTTOM
 10
0.0
 20
0.0
 30
0.0
  9
$PUCSORGLEFT
 10
0.0
 20
0.0
 30
0.0
  9
$PUCSORGRIGHT
 10
0.0
 20
0.0
 30
0.0
  9
$PUCSORGFRONT
 10
0.0
 20
0.0
 30
0.0
  9
$PUCSORGBACK
 10
0.0
 20
0.0
 30
0.0
  9
$USERI1
 70
     0
  9
$USERI2
 70
     0
  9
$USERI3
 70
     0
  9
$USERI4
 70
     0
  9
$USERI5
 70
     0
  9
$USERR1
 40
0.0
  9
$USERR2
 40
0.0
  9
$USERR3
 40
0.0
  9
$USERR4
 40
0.0
  9
$USERR5
 40
0.0
  9
$WORLDVIEW
 70
     1
  9
$SHADEDGE
 70
     3
  9
$SHADEDIF
 70
    70
  9
$TILEMODE
 70
     1
  9
$MAXACTVP
 70
    64
  9
$PINSBASE
 10
0.0
 20
0.0
 30
0.0
  9
$PLIMCHECK
 70
     0
  9
$PEXTMIN
 10
1.0000000000E+20
 20
1.0000000000E+20
 30
1.0000000000E+20
  9
$PEXTMAX
 10
-1.0000000000E+20
 20
-1.0000000000E+20
 30
-1.0000000000E+20
  9
$PLIMMIN
 10
0.0
 20
0.0
  9
$PLIMMAX
 10
420.0
 20
297.0
  9
$UNITMODE
 70
     0
  9
$VISRETAIN
 70
     1
  9
$PLINEGEN
 70
     0
  9
$PSLTSCALE
 70
     1
  9
$TREEDEPTH
 70
  3020
  9
$CMLSTYLE
  2
Standard
  9
$CMLJUST
 70
     0
  9
$CMLSCALE
 40
20.0
  9
$PROXYGRAPHICS
 70
     1
  9
$MEASUREMENT
 70
     1
  9
$CELWEIGHT
370
    -1
  9
$ENDCAPS
280
     0
  9
$JOINSTYLE
280
     0
  9
$LWDISPLAY
290
     1
  9
$INSUNITS
 70
     4
  9
$HYPERLINKBASE
  1

  9
$STYLESHEET
  1

  9
$XEDIT
290
     1
  9
$CEPSNTYPE
380
     0
  9
$PSTYLEMODE
290
     1
  9
$FINGERPRINTGUID
  2
{3ba68aea-b950-4840-8860-593f0dd98e95}
  9
$VERSIONGUID
  2
{FAEB1C32-E019-11D5-929B-00C0DF256EC4}
  9
$EXTNAMES
290
     1
  9
$PSVPSCALE
 40
0.0
  9
$OLESTARTUP
290
     0
  0
ENDSEC
  0
SECTION
  2
CLASSES
  0
CLASS
  1
ACDBDICTIONARYWDFLT
  2
AcDbDictionaryWithDefault
  3
ObjectDBX Classes
 90
        0
280
     0
281
     0
  0
CLASS
  1
VISUALSTYLE
  2
AcDbVisualStyle
  3
ObjectDBX Classes
 90
     4095
280
     0
281
     0
  0
CLASS
  1
MATERIAL
  2
AcDbMaterial
  3
ObjectDBX Classes
 90
     1153
280
     0
281
     0
  0
CLASS
  1
SCALE
  2
AcDbScale
  3
ObjectDBX Classes
 90
     1153
280
     0
281
     0
  0
CLASS
  1
TABLESTYLE
  2
AcDbTableStyle
  3
ObjectDBX Classes
 90
     4095
280
     0
281
     0
  0
CLASS
  1
MLEADERSTYLE
  2
AcDbMLeaderStyle
  3
ACDB_MLEADERSTYLE_CLASS
 90
     4095
280
     0
281
     0
  0
CLASS
  1
SUN
  2
AcDbSun
  3
SCENEOE
 90
     1153
280
     0
281
     0
  0
CLASS
  1
ACDBPLACEHOLDER
  2
AcDbPlaceHolder
  3
ObjectDBX Classes
 90
        0
280
     0
281
     0
  0
CLASS
  1
LAYOUT
  2
AcDbLayout
  3
ObjectDBX Classes
 90
        0
280
     0
281
     0
  0
ENDSEC
  0
SECTION
  2
TABLES
  0
TABLE
  2
VPORT
  5
8
330
0
100
AcDbSymbolTable
 70
     1
  0
VPORT
  5
29
330
8
100
AcDbSymbolTableRecord
100
AcDbViewportTableRecord
  2
*Active
 70
     0
 10
0.0
 20
0.0
 11
1.0
 21
1.0
 12
210.0
 22
148.5
 13
0.0
 23
0.0
 14
10.0
 24
10.0
 15
10.0
 25
10.0
 16
0.0
 26
0.0
 36
1.0
 17
0.0
 27
0.0
 37
0.0
 40
297.0
 41
1.4141414141
 42
50.0
 43
0.0
 44
0.0
 50
0.0
 51
0.0
 71
     0
 72
  2000
 73
     1
 74
     3
 75
     0
 76
     0
 77
     0
 78
     0
281
     0
 65
     1
110
0.0
120
0.0
130
0.0
111
1.0
121
0.0
131
0.0
112
0.0
122
1.0
132
0.0
 79
     0
146
0.0
  0
ENDTAB
  0
TABLE
  2
LTYPE
  5
5
330
0
100
AcDbSymbolTable
 70
     6
  0
LTYPE
  5
14
330
5
100
AcDbSymbolTableRecord
100
AcDbLinetypeTableRecord
  2
ByBlock
 70
     0
  3

 72
    65
 73
     0
 40
0.0
  0
LTYPE
  5
15
330
5
100
AcDbSymbolTableRecord
100
AcDbLinetypeTableRecord
  2
ByLayer
 70
     0
  3

 72
    65
 73
     0
 40
0.0
  0
LTYPE
  5
16
330
5
100
AcDbSymbolTableRecord
100
AcDbLinetypeTableRecord
  2
Continuous
 70
     0
  3
Solid line
 72
    65
 73
     0
 40
0.0
  0
LTYPE
  5
6E
330
5
100
AcDbSymbolTableRecord
100
AcDbLinetypeTableRecord
  2
HIDDEN
 70
     0
  3
Hidden __ __ __ __ __ __ __ __ __ __ __ __ __ __
 72
    65
 73
     2
 40
1.905
 49
1.27
 74
     0
 49
-0.635
 74
     0
  0
LTYPE
  5
6F
330
5
100
AcDbSymbolTableRecord
100
AcDbLinetypeTableRecord
  2
PHANTOM
 70
     0
  3
Phantom ______  __  __  ______  __  __  ______
 72
    65
 73
     6
 40
12.7
 49
6.35
 74
     0
 49
-1.27
 74
     0
 49
1.27
 74
     0
 49
-1.27
 74
     0
 49
1.27
 74
     0
 49
-1.27
 74
     0
  0
LTYPE
  5
70
330
5
100
AcDbSymbolTableRecord
100
AcDbLinetypeTableRecord
  2
CENTER
 70
     0
  3
Center ____ _ ____ _ ____ _ ____ _ ____ _ ____
 72
    65
 73
     4
 40
10.16
 49
6.35
 74
     0
 49
-1.27
 74
     0
 49
1.27
 74
     0
 49
-1.27
 74
     0
  0
LTYPE
  5
71
330
5
100
AcDbSymbolTableRecord
100
AcDbLinetypeTableRecord
  2
CENTERX2
 70
     0
  3
Center (2x) ________  __  ________  __  _____
 72
    65
 73
     4
 40
20.32
 49
12.7
 74
     0
 49
-2.54
 74
     0
 49
2.54
 74
     0
 49
-2.54
 74
     0
  0
LTYPE
  5
72
330
5
100
AcDbSymbolTableRecord
100
AcDbLinetypeTableRecord
  2
DOT2
 70
     0
  3
Dot (.5x) ........................................
 72
    65
 73
     2
 40
0.635
 49
0.0
 74
     0
 49
-0.635
 74
     0
  0
ENDTAB
  0
TABLE
  2
LAYER
  5
2
330
0
100
AcDbSymbolTable
 70
     2
  0
LAYER
  5
10
330
2
100
AcDbSymbolTableRecord
100
AcDbLayerTableRecord
  2
0
 70
     0
 62
     7
  6
Continuous
370
    -3
390
F
  0
LAYER
  5
73
330
2
100
AcDbSymbolTableRecord
100
AcDbLayerTableRecord
  2
LENKIMO
 70
     0
 62
     1
  6
CENTERX2
370
    -3
390
F
  0
ENDTAB
  0
TABLE
  2
STYLE
  5
3
330
0
100
AcDbSymbolTable
 70
     1
  0
STYLE
  5
11
330
3
100
AcDbSymbolTableRecord
100
AcDbTextStyleTableRecord
  2
Standard
 70
     0
 40
0.0
 41
1.0
 50
0.0
 71
     0
 42
5.6444444444
  3
txt
  4

  0
ENDTAB
  0
TABLE
  2
VIEW
  5
6
330
0
100
AcDbSymbolTable
 70
     0
  0
ENDTAB
  0
TABLE
  2
UCS
  5
7
330
0
100
AcDbSymbolTable
 70
     0
  0
ENDTAB
  0
TABLE
  2
APPID
  5
9
330
0
100
AcDbSymbolTable
 70
     1
  0
APPID
  5
12
330
9
100
AcDbSymbolTableRecord
100
AcDbRegAppTableRecord
  2
ACAD
 70
     0
  0
ENDTAB
  0
TABLE
  2
DIMSTYLE
  5
A
330
0
100
AcDbSymbolTable
 70
     1
100
AcDbDimStyleTable
  0
DIMSTYLE
105
27
330
A
100
AcDbSymbolTableRecord
100
AcDbDimStyleTableRecord
  2
ISO-25
 70
     0
 41
2.5
 42
0.625
 43
3.75
 44
1.25
 73
     0
 74
     0
 77
     1
 78
     8
140
2.5
141
2.5
143
0.0393700787
147
0.625
171
     3
172
     1
178
     0
271
     2
272
     2
274
     3
278
    44
283
     0
284
     8
340
11
  0
ENDTAB
  0
TABLE
  2
BLOCK_RECORD
  5
1
330
0
100
AcDbSymbolTable
 70
     3
  0
BLOCK_RECORD
  5
1F
330
1
100
AcDbSymbolTableRecord
100
AcDbBlockTableRecord
  2
*Model_Space
340
22
  0
BLOCK_RECORD
  5
1B
330
1
100
AcDbSymbolTableRecord
100
AcDbBlockTableRecord
  2
*Paper_Space
340
1E
  0
BLOCK_RECORD
  5
23
330
1
100
AcDbSymbolTableRecord
100
AcDbBlockTableRecord
  2
*Paper_Space0
340
26
  0
BLOCK_RECORD
  5
74
330
1
100
AcDbSymbolTableRecord
100
AcDbBlockTableRecord
  2
Block11_2
340
0
  0
BLOCK_RECORD
  5
275
330
1
100
AcDbSymbolTableRecord
100
AcDbBlockTableRecord
  2
SW_CENTERMARKSYMBOL_0
340
0
102
{BLKREFS
331
280
102
}
  0
ENDTAB
  0
ENDSEC
  0
SECTION
  2
BLOCKS
  0
BLOCK
  5
20
330
1F
100
AcDbEntity
  8
0
100
AcDbBlockBegin
  2
*Model_Space
 70
     0
 10
0.0
 20
0.0
 30
0.0
  3
*Model_Space
  1

  0
ENDBLK
  5
21
330
1F
100
AcDbEntity
  8
0
100
AcDbBlockEnd
  0
BLOCK
  5
1C
330
1B
100
AcDbEntity
 67
     1
  8
0
100
AcDbBlockBegin
  2
*Paper_Space
 70
     0
 10
0.0
 20
0.0
 30
0.0
  3
*Paper_Space
  1

  0
ENDBLK
  5
1D
330
1B
100
AcDbEntity
 67
     1
  8
0
100
AcDbBlockEnd
  0
BLOCK
  5
24
330
23
100
AcDbEntity
  8
0
100
AcDbBlockBegin
  2
*Paper_Space0
 70
     0
 10
0.0
 20
0.0
 30
0.0
  3
*Paper_Space0
  1

  0
ENDBLK
  5
25
330
23
100
AcDbEntity
  8
0
100
AcDbBlockEnd
  0
BLOCK
  5
75
330
74
100
AcDbEntity
  8
0
100
AcDbBlockBegin
  2
Block11_2
 70
     0
 10
0.0
 20
0.0
 30
0.0
  3
Block11_2
  1

  0
LINE
  5
77
330
74
100
AcDbEntity
  8
0
  6
Continuous
100
AcDbLine
 10
-15.7956326374
 20
2.3055746011
 30
0.0
 11
-18.0649288667
 21
1.8146036087
 31
0.0
  0
LINE
  5
78
330
74
100
AcDbEntity
  8
0
  6
Continuous
100
AcDbLine
 10
-15.6988785554
 20
-9.1195335787
 30
0.0
 11
-10.2261014967
 21
-7.9354771524
 31
0.0
  0
LINE
  5
79
330
74
100
AcDbEntity
  8
0
  6
Continuous
100
AcDbLine
 10
-10.2261014967
 20
-7.9354771524
 30
0.0
 11
-10.6655808869
 21
-5.9041780766
 31
0.0
  0
LINE
  5
7A
330
74
100
AcDbEntity
  8
0
  6
Continuous
100
AcDbLine
 10
-10.6655808869
 20
-5.9041780766
 30
0.0
 11
-13.8699456036
 21
-6.5974547429
 31
0.0
  0
LINE
  5
7B
330
74
100
AcDbEntity
  8
0
  6
Continuous
100
AcDbLine
 10
-8.296070931
 20
1.802048972
 30
0.0
 11
-6.9198111955
 21
2.0998080743
 31
0.0
  0
LINE
  5
7C
330
74
100
AcDbEntity
  8
0
  6
Continuous
100
AcDbLine
 10
-5.4333831358
 20
-4.7719736412
 30
0.0
 11
-6.8095376466
 21
-5.0697099777
 31
0.0
  0
LINE
  5
7D
330
74
100
AcDbEntity
  8
0
  6
Continuous
100
AcDbLine
 10
-11.0044904538
 20
3.3421566929
 30
0.0
 11
-8.6388294738
 21
-7.5920647278
 31
0.0
  0
LINE
  5
7E
330
74
100
AcDbEntity
  8
0
  6
Continuous
100
AcDbLine
 10
-8.6388294738
 20
-7.5920647278
 30
0.0
 11
-8.6384401425
 21
-7.5919804944
 31
0.0
  0
LINE
  5
7F
330
74
100
AcDbEntity
  8
0
  6
Continuous
100
AcDbLine
 10
-8.6384401425
 20
-7.5919804944
 30
0.0
 11
-4.4940245505
 21
-6.6953201952
 31
0.0
  0
LINE
  5
80
330
74
100
AcDbEntity
  8
0
  6
Continuous
100
AcDbLine
 10
-6.8595855671
 20
4.238922853
 30
0.0
 11
-11.0044904538
 21
3.3421566929
 31
0.0
  0
LINE
  5
81
330
74
100
AcDbEntity
  8
0
  6
Continuous
100
AcDbLine
 10
-32.9933593229
 20
-3.3005605139
 30
0.0
 11
-32.8591663041
 21
-3.2715273367
 31
0.0
  0
LINE
  5
82
330
74
100
AcDbEntity
  8
0
  6
Continuous
100
AcDbLine
 10
-31.5697721187
 20
-3.9678201523
 30
0.0
 11
-29.2969561243
 21
-3.4760876451
 31
0.0
  0
LINE
  5
83
330
74
100
AcDbEntity
  8
0
  6
Continuous
100
AcDbLine
 10
-33.2794920496
 20
-1.2667721217
 30
0.0
 11
-33.3448839193
 21
-1.2809199049
 31
0.0
  0
LINE
  5
84
330
74
100
AcDbEntity
  8
0
  6
Continuous
100
AcDbLine
 10
-31.3289079349
 20
-10.5856399919
 30
0.0
 11
-31.4650581325
 21
-10.6150966123
 31
0.0
  0
LINE
  5
85
330
74
100
AcDbEntity
  8
0
  6
Continuous
100
AcDbLine
 10
-32.8822392925
 20
-9.9377601564
 30
0.0
 11
-35.1888692339
 21
-10.4368084414
 31
0.0
  0
LINE
  5
86
330
74
100
AcDbEntity
  8
0
  6
Continuous
100
AcDbLine
 10
-31.5949683304
 20
-12.7295787952
 30
0.0
 11
-30.2063920476
 21
-12.4291549603
 31
0.0
  0
LINE
  5
87
330
74
100
AcDbEntity
  8
0
  6
Continuous
100
AcDbLine
 10
6.262509235
 20
-4.3681026205
 30
0.0
 11
8.6370616994
 21
-3.8543590356
 31
0.0
  0
LINE
  5
88
330
74
100
AcDbEntity
  8
0
  6
Continuous
100
AcDbLine
 10
8.6370616994
 20
-3.8543590356
 30
0.0
 11
3.9059396663
 21
6.5680857621
 31
0.0
  0
LINE
  5
89
330
74
100
AcDbEntity
  8
0
  6
Continuous
100
AcDbLine
 10
3.9059396663
 20
6.5680857621
 30
0.0
 11
0.0
 21
5.7230206493
 31
0.0
  0
LINE
  5
8A
330
74
100
AcDbEntity
  8
0
  6
Continuous
100
AcDbLine
 10
0.0
 20
5.7230206493
 30
0.0
 11
0.0
 21
-5.7230206493
 31
0.0
  0
LINE
  5
8B
330
74
100
AcDbEntity
  8
0
  6
Continuous
100
AcDbLine
 10
0.0
 20
-5.7230206493
 30
0.0
 11
2.3746576891
 21
-5.2092542987
 31
0.0
  0
LINE
  5
8C
330
74
100
AcDbEntity
  8
0
  6
Continuous
100
AcDbLine
 10
2.3746576891
 20
-5.2092542987
 30
0.0
 11
2.3747844598
 21
-3.0912381741
 31
0.0
  0
LINE
  5
8D
330
74
100
AcDbEntity
  8
0
  6
Continuous
100
AcDbLine
 10
2.3747844598
 20
-3.0912381741
 30
0.0
 11
4.0318309599
 21
-2.7327297722
 31
0.0
  0
LINE
  5
8E
330
74
100
AcDbEntity
  8
0
  6
Continuous
100
AcDbLine
 10
4.0318309599
 20
-2.7327297722
 30
0.0
 11
3.5923515697
 21
-0.7014306964
 31
0.0
  0
LINE
  5
8F
330
74
100
AcDbEntity
  8
0
  6
Continuous
100
AcDbLine
 10
3.5923515697
 20
-0.7014306964
 30
0.0
 11
2.3750284336
 21
-0.9648032524
 31
0.0
  0
LINE
  5
90
330
74
100
AcDbEntity
  8
0
  6
Continuous
100
AcDbLine
 10
2.3750284336
 20
-0.9648032524
 30
0.0
 11
2.3752084601
 21
4.1936873712
 31
0.0
  0
LINE
  5
91
330
74
100
AcDbEntity
  8
0
  6
Continuous
100
AcDbLine
 10
2.3752084601
 20
4.1936873712
 30
0.0
 11
6.262509235
 21
-4.3681026205
 31
0.0
  0
LINE
  5
92
330
74
100
AcDbEntity
  8
0
  6
Continuous
100
AcDbLine
 10
-53.0629352118
 20
-11.4801779454
 30
0.0
 11
-50.7945341276
 21
-8.0228043203
 31
0.0
  0
LINE
  5
93
330
74
100
AcDbEntity
  8
0
  6
Continuous
100
AcDbLine
 10
-50.7945341276
 20
-8.0228043203
 30
0.0
 11
-54.2891069366
 21
-5.8122833411
 31
0.0
  0
LINE
  5
94
330
74
100
AcDbEntity
  8
0
  6
Continuous
100
AcDbLine
 10
-54.2891069366
 20
-5.8122833411
 30
0.0
 11
-51.4073820962
 21
-5.1888110564
 31
0.0
  0
LINE
  5
95
330
74
100
AcDbEntity
  8
0
  6
Continuous
100
AcDbLine
 10
-51.4073820962
 20
-5.1888110564
 30
0.0
 11
-47.9127327975
 21
-7.3992273667
 31
0.0
  0
LINE
  5
96
330
74
100
AcDbEntity
  8
0
  6
Continuous
100
AcDbLine
 10
-47.9127327975
 20
-7.3992273667
 30
0.0
 11
-50.1813587974
 21
-10.8569360435
 31
0.0
  0
LINE
  5
97
330
74
100
AcDbEntity
  8
0
  6
Continuous
100
AcDbLine
 10
-50.1813587974
 20
-10.8569360435
 30
0.0
 11
-53.0628942334
 21
-11.4803673498
 31
0.0
  0
LINE
  5
98
330
74
100
AcDbEntity
  8
0
  6
Continuous
100
AcDbLine
 10
-53.0628942334
 20
-11.4803673498
 30
0.0
 11
-53.0629352118
 21
-11.4801779454
 31
0.0
  0
LINE
  5
99
330
74
100
AcDbEntity
  8
0
  6
Continuous
100
AcDbLine
 10
-42.7624916815
 20
-3.31845567
 30
0.0
 11
-45.0307950789
 21
-6.7757971452
 31
0.0
  0
LINE
  5
9A
330
74
100
AcDbEntity
  8
0
  6
Continuous
100
AcDbLine
 10
-45.0307950789
 20
-6.7757971452
 30
0.0
 11
-48.5254573289
 21
-4.5652955168
 31
0.0
  0
LINE
  5
9B
330
74
100
AcDbEntity
  8
0
  6
Continuous
100
AcDbLine
 10
-48.5254573289
 20
-4.5652955168
 30
0.0
 11
-48.5257466967
 21
-4.5653581227
 31
0.0
  0
LINE
  5
9C
330
74
100
AcDbEntity
  8
0
  6
Continuous
100
AcDbLine
 10
-48.5257466967
 20
-4.5653581227
 30
0.0
 11
-47.9126146215
 21
-7.399289919
 31
0.0
  0
LINE
  5
9D
330
74
100
AcDbEntity
  8
0
  6
Continuous
100
AcDbLine
 10
-47.9126146215
 20
-7.399289919
 30
0.0
 11
-44.4177372167
 21
-9.6098441329
 31
0.0
  0
LINE
  5
9E
330
74
100
AcDbEntity
  8
0
  6
Continuous
100
AcDbLine
 10
-44.4177372167
 20
-9.6098441329
 30
0.0
 11
-42.1490649772
 21
-6.1523237222
 31
0.0
  0
LINE
  5
9F
330
74
100
AcDbEntity
  8
0
  6
Continuous
100
AcDbLine
 10
-42.1490649772
 20
-6.1523237222
 30
0.0
 11
-42.7621970524
 21
-3.3183919259
 31
0.0
  0
LINE
  5
A0
330
74
100
AcDbEntity
  8
0
  6
Continuous
100
AcDbLine
 10
-42.7621970524
 20
-3.3183919259
 30
0.0
 11
-42.7624916815
 21
-3.31845567
 31
0.0
  0
LINE
  5
A1
330
74
100
AcDbEntity
  8
0
  6
Continuous
100
AcDbLine
 10
-41.535889647
 20
-8.9864554454
 30
0.0
 11
-43.8045413973
 21
-12.4440705583
 31
0.0
  0
LINE
  5
A2
330
74
100
AcDbEntity
  8
0
  6
Continuous
100
AcDbLine
 10
-43.8045413973
 20
-12.4440705583
 30
0.0
 11
-40.3564529382
 21
-14.625159785
 31
0.0
  0
LINE
  5
A3
330
74
100
AcDbEntity
  8
0
  6
Continuous
100
AcDbLine
 10
-40.3564529382
 20
-14.625159785
 30
0.0
 11
-43.2382724808
 21
-15.2486525588
 31
0.0
  0
LINE
  5
A4
330
74
100
AcDbEntity
  8
0
  6
Continuous
100
AcDbLine
 10
-43.2382724808
 20
-15.2486525588
 30
0.0
 11
-46.686243472
 21
-13.0676480676
 31
0.0
  0
LINE
  5
A5
330
74
100
AcDbEntity
  8
0
  6
Continuous
100
AcDbLine
 10
-46.686243472
 20
-13.0676480676
 30
0.0
 11
-44.4177144509
 21
-9.6099493576
 31
0.0
  0
LINE
  5
A6
330
74
100
AcDbEntity
  8
0
  6
Continuous
100
AcDbLine
 10
-44.4177144509
 20
-9.6099493576
 30
0.0
 11
-41.535889647
 21
-8.9864554454
 31
0.0
  0
LINE
  5
A7
330
74
100
AcDbEntity
  8
0
  6
Continuous
100
AcDbLine
 10
-51.8063383656
 20
-17.1023866618
 30
0.0
 11
-49.5681857438
 21
-13.6910572443
 31
0.0
  0
LINE
  5
A8
330
74
100
AcDbEntity
  8
0
  6
Continuous
100
AcDbLine
 10
-49.5681857438
 20
-13.6910572443
 30
0.0
 11
-46.1199973213
 21
-15.8721248435
 31
0.0
  0
LINE
  5
A9
330
74
100
AcDbEntity
  8
0
  6
Continuous
100
AcDbLine
 10
-46.1199973213
 20
-15.8721248435
 30
0.0
 11
-46.0813956519
 21
-15.8637732234
 31
0.0
  0
LINE
  5
AA
330
74
100
AcDbEntity
  8
0
  6
Continuous
100
AcDbLine
 10
-46.0813956519
 20
-15.8637732234
 30
0.0
 11
-46.6863662012
 21
-13.0675644704
 31
0.0
  0
LINE
  5
AB
330
74
100
AcDbEntity
  8
0
  6
Continuous
100
AcDbLine
 10
-46.6863662012
 20
-13.0675644704
 30
0.0
 11
-50.1813587974
 21
-10.8569360435
 31
0.0
  0
LINE
  5
AC
330
74
100
AcDbEntity
  8
0
  6
Continuous
100
AcDbLine
 10
-50.1813587974
 20
-10.8569360435
 30
0.0
 11
-52.4497621582
 21
-14.3142991462
 31
0.0
  0
LINE
  5
AD
330
74
100
AcDbEntity
  8
0
  6
Continuous
100
AcDbLine
 10
-52.4497621582
 20
-14.3142991462
 30
0.0
 11
-51.8447506306
 21
-17.1106973035
 31
0.0
  0
LINE
  5
AE
330
74
100
AcDbEntity
  8
0
  6
Continuous
100
AcDbLine
 10
-51.8447506306
 20
-17.1106973035
 30
0.0
 11
-51.8063383656
 21
-17.1023866618
 31
0.0
  0
LINE
  5
AF
330
74
100
AcDbEntity
  8
0
  6
Continuous
100
AcDbLine
 10
-20.0432683672
 20
-10.0594590717
 30
0.0
 11
-17.6687053803
 21
-9.5457132103
 31
0.0
  0
LINE
  5
B0
330
74
100
AcDbEntity
  8
0
  6
Continuous
100
AcDbLine
 10
-17.6687053803
 20
-9.5457132103
 30
0.0
 11
-22.3998379359
 21
0.8767293109
 31
0.0
  0
LINE
  5
B1
330
74
100
AcDbEntity
  8
0
  6
Continuous
100
AcDbLine
 10
-22.3998379359
 20
0.8767293109
 30
0.0
 11
-26.3058670432
 21
0.0316448472
 31
0.0
  0
LINE
  5
B2
330
74
100
AcDbEntity
  8
0
  6
Continuous
100
AcDbLine
 10
-26.3058670432
 20
0.0316448472
 30
0.0
 11
-26.3056723775
 21
-11.4143543348
 31
0.0
  0
LINE
  5
B3
330
74
100
AcDbEntity
  8
0
  6
Continuous
100
AcDbLine
 10
-26.3056723775
 20
-11.4143543348
 30
0.0
 11
-23.9311146519
 21
-10.9006096116
 31
0.0
  0
LINE
  5
B4
330
74
100
AcDbEntity
  8
0
  6
Continuous
100
AcDbLine
 10
-23.9311146519
 20
-10.9006096116
 30
0.0
 11
-23.9309931424
 21
-8.7825946253
 31
0.0
  0
LINE
  5
B5
330
74
100
AcDbEntity
  8
0
  6
Continuous
100
AcDbLine
 10
-23.9309931424
 20
-8.7825946253
 30
0.0
 11
-22.2738308951
 21
-8.4240611811
 31
0.0
  0
LINE
  5
B6
330
74
100
AcDbEntity
  8
0
  6
Continuous
100
AcDbLine
 10
-22.2738308951
 20
-8.4240611811
 30
0.0
 11
-22.7133102854
 21
-6.3927621053
 31
0.0
  0
LINE
  5
B7
330
74
100
AcDbEntity
  8
0
  6
Continuous
100
AcDbLine
 10
-22.7133102854
 20
-6.3927621053
 30
0.0
 11
-23.9308333483
 21
-6.6561779162
 31
0.0
  0
LINE
  5
B8
330
74
100
AcDbEntity
  8
0
  6
Continuous
100
AcDbLine
 10
-23.9308333483
 20
-6.6561779162
 30
0.0
 11
-23.9305586196
 21
-1.4976668035
 31
0.0
  0
LINE
  5
B9
330
74
100
AcDbEntity
  8
0
  6
Continuous
100
AcDbLine
 10
-23.9305586196
 20
-1.4976668035
 30
0.0
 11
-20.0432683672
 21
-10.0594590717
 31
0.0
  0
SPLINE
  5
BA
330
74
100
AcDbEntity
  8
0
100
AcDbSpline
210
0.0
220
0.0
230
1.0
 70
     8
 71
     3
 72
     8
 73
     4
 74
     0
 42
0.00000001
 43
0.00000001
 40
0.0
 40
0.0
 40
0.0
 40
0.0
 40
1.0
 40
1.0
 40
1.0
 40
1.0
 10
-13.86994560355125
 20
-6.597454742918429
 30
0.0
 10
-13.88373254946556
 20
-6.53373068413859
 30
0.0
 10
-15.11365515797402
 20
-0.8489574873494021
 30
0.0
 10
-15.79563263740206
 20
2.305574601061459
 30
0.0
  0
SPLINE
  5
BB
330
74
100
AcDbEntity
  8
0
100
AcDbSpline
210
0.0
220
0.0
230
1.0
 70
     8
 71
     3
 72
     8
 73
     4
 74
     0
 42
0.00000001
 43
0.00000001
 40
2.0
 40
2.0
 40
2.0
 40
2.0
 40
3.0
 40
3.0
 40
3.0
 40
3.0
 10
-18.06492886668426
 20
1.814603608696524
 30
0.0
 10
-17.24003965005502
 20
-1.995739949107536
 30
0.0
 10
-15.71186186991051
 20
-9.059523950669432
 30
0.0
 10
-15.69887855542093
 20
-9.119533578677906
 30
0.0
  0
SPLINE
  5
BC
330
74
100
AcDbEntity
  8
0
100
AcDbSpline
210
0.0
220
0.0
230
1.0
 70
     8
 71
     3
 72
     8
 73
     4
 74
     0
 42
0.00000001
 43
0.00000001
 40
0.0
 40
0.0
 40
0.0
 40
0.0
 40
1.0
 40
1.0
 40
1.0
 40
1.0
 10
-6.809537646582547
 20
-5.069709977697404
 30
0.0
 10
-7.284290309572815
 20
-2.875375801708635
 30
0.0
 10
-7.897830097865885
 20
-0.0390758678013329
 30
0.0
 10
-8.296070930952649
 20
1.80204897196991
 30
0.0
  0
SPLINE
  5
BD
330
74
100
AcDbEntity
  8
0
100
AcDbSpline
210
0.0
220
0.0
230
1.0
 70
     8
 71
     3
 72
     8
 73
     4
 74
     0
 42
0.00000001
 43
0.00000001
 40
2.0
 40
2.0
 40
2.0
 40
2.0
 40
3.0
 40
3.0
 40
3.0
 40
3.0
 10
-6.919811195494074
 20
2.099808074263809
 30
0.0
 10
-6.228016878711183
 20
2.249480443098069
 30
0.0
 10
-5.547633595833446
 20
1.815851349115847
 30
0.0
 10
-5.399398884916104
 20
1.130701970100344
 30
0.0
  0
SPLINE
  5
BE
330
74
100
AcDbEntity
  8
0
100
AcDbSpline
210
0.0
220
0.0
230
1.0
 70
     8
 71
     3
 72
     8
 73
     4
 74
     0
 42
0.00000001
 43
0.00000001
 40
3.0
 40
3.0
 40
3.0
 40
3.0
 40
4.0
 40
4.0
 40
4.0
 40
4.0
 10
-5.399398884916104
 20
1.130701970100344
 30
0.0
 10
-5.107009087764085
 20
-0.2207405274728672
 30
0.0
 10
-4.711497421058354
 20
-2.048334586467611
 30
0.0
 10
-4.449160707297047
 20
-3.260870000165379
 30
0.0
  0
SPLINE
  5
BF
330
74
100
AcDbEntity
  8
0
100
AcDbSpline
210
0.0
220
0.0
230
1.0
 70
     8
 71
     3
 72
     8
 73
     4
 74
     0
 42
0.00000001
 43
0.00000001
 40
4.0
 40
4.0
 40
4.0
 40
4.0
 40
5.0
 40
5.0
 40
5.0
 40
5.0
 10
-4.449160707297047
 20
-3.260870000165379
 30
0.0
 10
-4.300905507193207
 20
-3.946114081381999
 30
0.0
 10
-4.741570606399121
 20
-4.622385452066122
 30
0.0
 10
-5.433383135791953
 20
-4.771973641166296
 30
0.0
  0
SPLINE
  5
C0
330
74
100
AcDbEntity
  8
0
100
AcDbSpline
210
0.0
220
0.0
230
1.0
 70
     8
 71
     3
 72
     8
 73
     4
 74
     0
 42
0.00000001
 43
0.00000001
 40
3.0
 40
3.0
 40
3.0
 40
3.0
 40
4.0
 40
4.0
 40
4.0
 40
4.0
 10
-4.494024550545999
 20
-6.695320195210662
 30
0.0
 10
-2.825524345390513
 20
-6.334333740063992
 30
0.0
 10
-1.762658323115034
 20
-4.702068307882374
 30
0.0
 10
-2.120071189640999
 20
-3.049576315093403
 30
0.0
  0
SPLINE
  5
C1
330
74
100
AcDbEntity
  8
0
100
AcDbSpline
210
0.0
220
0.0
230
1.0
 70
     8
 71
     3
 72
     8
 73
     4
 74
     0
 42
0.00000001
 43
0.00000001
 40
4.0
 40
4.0
 40
4.0
 40
4.0
 40
5.0
 40
5.0
 40
5.0
 40
5.0
 10
-2.120071189640999
 20
-3.049576315093403
 30
0.0
 10
-2.485983017556096
 20
-1.358310753073632
 30
0.0
 10
-2.867352798370483
 20
0.4044023583376265
 30
0.0
 10
-3.190995488197396
 20
1.900704823656681
 30
0.0
  0
SPLINE
  5
C2
330
74
100
AcDbEntity
  8
0
100
AcDbSpline
210
0.0
220
0.0
230
1.0
 70
     8
 71
     3
 72
     8
 73
     4
 74
     0
 42
0.00000001
 43
0.00000001
 40
5.0
 40
5.0
 40
5.0
 40
5.0
 40
6.0
 40
6.0
 40
6.0
 40
6.0
 10
-3.190995488197396
 20
1.900704823656681
 30
0.0
 10
-3.54857504695031
 20
3.553458157285876
 30
0.0
 10
-5.190901218780231
 20
4.599949148191988
 30
0.0
 10
-6.859585567104196
 20
4.238922852960538
 30
0.0
  0
SPLINE
  5
C3
330
74
100
AcDbEntity
  8
0
100
AcDbSpline
210
0.0
220
0.0
230
1.0
 70
     8
 71
     3
 72
     8
 73
     4
 74
     0
 42
0.00000001
 43
0.00000001
 40
0.0
 40
0.0
 40
0.0
 40
0.0
 40
1.0
 40
1.0
 40
1.0
 40
1.0
 10
-30.23703582864644
 20
-6.251438951366732
 30
0.0
 10
-30.9104300186728
 20
-6.015603382360459
 30
0.0
 10
-31.40848551125485
 20
-5.893156856121871
 30
0.0
 10
-32.67210357750635
 20
-5.496689523479785
 30
0.0
  0
SPLINE
  5
C4
330
74
100
AcDbEntity
  8
0
100
AcDbSpline
210
0.0
220
0.0
230
1.0
 70
     8
 71
     3
 72
     8
 73
     4
 74
     0
 42
0.00000001
 43
0.00000001
 40
1.0
 40
1.0
 40
1.0
 40
1.0
 40
2.0
 40
2.0
 40
2.0
 40
2.0
 10
-32.67210357750635
 20
-5.496689523479785
 30
0.0
 10
-33.03332194555517
 20
-5.383421617718132
 30
0.0
 10
-33.81210282496122
 20
-5.206692347750555
 30
0.0
 10
-33.94849250952588
 20
-4.576291363356936
 30
0.0
  0
SPLINE
  5
C5
330
74
100
AcDbEntity
  8
0
100
AcDbSpline
210
0.0
220
0.0
230
1.0
 70
     8
 71
     3
 72
     8
 73
     4
 74
     0
 42
0.00000001
 43
0.00000001
 40
2.0
 40
2.0
 40
2.0
 40
2.0
 40
3.0
 40
3.0
 40
3.0
 40
3.0
 10
-33.94849250952588
 20
-4.576291363356936
 30
0.0
 10
-34.11622381965225
 20
-3.801027578894063
 30
0.0
 10
-33.67528356585564
 20
-3.448097454184924
 30
0.0
 10
-32.99335932290604
 20
-3.30056051389548
 30
0.0
  0
SPLINE
  5
C6
330
74
100
AcDbEntity
  8
0
100
AcDbSpline
210
0.0
220
0.0
230
1.0
 70
     8
 71
     3
 72
     8
 73
     4
 74
     0
 42
0.00000001
 43
0.00000001
 40
4.0
 40
4.0
 40
4.0
 40
4.0
 40
5.0
 40
5.0
 40
5.0
 40
5.0
 10
-32.85916630414497
 20
-3.271527336675416
 30
0.0
 10
-32.2786944245911
 20
-3.14594000653005
 30
0.0
 10
-31.77109773641243
 20
-3.328116480283148
 30
0.0
 10
-31.56977211870437
 20
-3.967820152272103
 30
0.0
  0
SPLINE
  5
C7
330
74
100
AcDbEntity
  8
0
100
AcDbSpline
210
0.0
220
0.0
230
1.0
 70
     8
 71
     3
 72
     8
 73
     4
 74
     0
 42
0.00000001
 43
0.00000001
 40
6.0
 40
6.0
 40
6.0
 40
6.0
 40
7.0
 40
7.0
 40
7.0
 40
7.0
 10
-29.29695612428625
 20
-3.476087645143529
 30
0.0
 10
-29.68810071971012
 20
-1.866802583842748
 30
0.0
 10
-30.87776107222441
 20
-0.7599478056671497
 30
0.0
 10
-33.27949204955325
 20
-1.266772121690862
 30
0.0
  0
SPLINE
  5
C8
330
74
100
AcDbEntity
  8
0
100
AcDbSpline
210
0.0
220
0.0
230
1.0
 70
     8
 71
     3
 72
     8
 73
     4
 74
     0
 42
0.00000001
 43
0.00000001
 40
8.0
 40
8.0
 40
8.0
 40
8.0
 40
9.0
 40
9.0
 40
9.0
 40
9.0
 10
-33.34488391931659
 20
-1.280919904944554
 30
0.0
 10
-35.81152992452102
 20
-1.828202838410209
 30
0.0
 10
-36.33378487826545
 20
-3.54465012997844
 30
0.0
 10
-36.09207577942843
 20
-4.962606301827474
 30
0.0
  0
SPLINE
  5
C9
330
74
100
AcDbEntity
  8
0
100
AcDbSpline
210
0.0
220
0.0
230
1.0
 70
     8
 71
     3
 72
     8
 73
     4
 74
     0
 42
0.00000001
 43
0.00000001
 40
9.0
 40
9.0
 40
9.0
 40
9.0
 40
10.0
 40
10.0
 40
10.0
 40
10.0
 10
-36.09207577942843
 20
-4.962606301827474
 30
0.0
 10
-35.83736690020325
 20
-6.457652824126185
 30
0.0
 10
-34.96800490008025
 20
-7.196828812263726
 30
0.0
 10
-33.99931718292642
 20
-7.502708028683521
 30
0.0
  0
SPLINE
  5
CA
330
74
100
AcDbEntity
  8
0
100
AcDbSpline
210
0.0
220
0.0
230
1.0
 70
     8
 71
     3
 72
     8
 73
     4
 74
     0
 42
0.00000001
 43
0.00000001
 40
10.0
 40
10.0
 40
10.0
 40
10.0
 40
11.0
 40
11.0
 40
11.0
 40
11.0
 10
-33.99931718292642
 20
-7.502708028683521
 30
0.0
 10
-33.40907414696034
 20
-7.689011641945549
 30
0.0
 10
-32.48616403135102
 20
-7.975318844696811
 30
0.0
 10
-31.47547483016511
 20
-8.271505052332133
 30
0.0
  0
SPLINE
  5
CB
330
74
100
AcDbEntity
  8
0
100
AcDbSpline
210
0.0
220
0.0
230
1.0
 70
     8
 71
     3
 72
     8
 73
     4
 74
     0
 42
0.00000001
 43
0.00000001
 40
11.0
 40
11.0
 40
11.0
 40
11.0
 40
12.0
 40
12.0
 40
12.0
 40
12.0
 10
-31.47547483016511
 20
-8.271505052332133
 30
0.0
 10
-31.11213516930565
 20
-8.377980375833697
 30
0.0
 10
-30.40258052645035
 20
-8.55729511966404
 30
0.0
 10
-30.28870163819746
 20
-9.336631754491275
 30
0.0
  0
SPLINE
  5
CC
330
74
100
AcDbEntity
  8
0
100
AcDbSpline
210
0.0
220
0.0
230
1.0
 70
     8
 71
     3
 72
     8
 73
     4
 74
     0
 42
0.00000001
 43
0.00000001
 40
12.0
 40
12.0
 40
12.0
 40
12.0
 40
13.0
 40
13.0
 40
13.0
 40
13.0
 10
-30.28870163819746
 20
-9.336631754491275
 30
0.0
 10
-30.1883718252622
 20
-10.02498578462436
 30
0.0
 10
-30.64014408852681
 20
-10.43662327702193
 30
0.0
 10
-31.32890793487913
 20
-10.58563999188937
 30
0.0
  0
SPLINE
  5
CD
330
74
100
AcDbEntity
  8
0
100
AcDbSpline
210
0.0
220
0.0
230
1.0
 70
     8
 71
     3
 72
     8
 73
     4
 74
     0
 42
0.00000001
 43
0.00000001
 40
14.0
 40
14.0
 40
14.0
 40
14.0
 40
15.0
 40
15.0
 40
15.0
 40
15.0
 10
-31.46505813246006
 20
-10.61509661229636
 30
0.0
 10
-32.05208024758041
 20
-10.74210111117219
 30
0.0
 10
-32.71260096537058
 20
-10.55064660173623
 30
0.0
 10
-32.8822392924921
 20
-9.937760156430087
 30
0.0
  0
SPLINE
  5
CE
330
74
100
AcDbEntity
  8
0
100
AcDbSpline
210
0.0
220
0.0
230
1.0
 70
     8
 71
     3
 72
     8
 73
     4
 74
     0
 42
0.00000001
 43
0.00000001
 40
16.0
 40
16.0
 40
16.0
 40
16.0
 40
17.0
 40
17.0
 40
17.0
 40
17.0
 10
-35.1888692338865
 20
-10.43680844141459
 30
0.0
 10
-34.81471685749703
 20
-11.8843133271045
 30
0.0
 10
-33.72975075395794
 20
-12.95131992706823
 30
0.0
 10
-31.59496833044066
 20
-12.72957879515504
 30
0.0
  0
SPLINE
  5
CF
330
74
100
AcDbEntity
  8
0
100
AcDbSpline
210
0.0
220
0.0
230
1.0
 70
     8
 71
     3
 72
     8
 73
     4
 74
     0
 42
0.00000001
 43
0.00000001
 40
18.0
 40
18.0
 40
18.0
 40
18.0
 40
19.0
 40
19.0
 40
19.0
 40
19.0
 10
-30.20639204762402
 20
-12.42915496033268
 30
0.0
 10
-28.36320980349184
 20
-11.79454394754582
 30
0.0
 10
-27.78707037380765
 20
-10.41512978795686
 30
0.0
 10
-27.91988511866083
 20
-9.073464993912006
 30
0.0
  0
SPLINE
  5
D0
330
74
100
AcDbEntity
  8
0
100
AcDbSpline
210
0.0
220
0.0
230
1.0
 70
     8
 71
     3
 72
     8
 73
     4
 74
     0
 42
0.00000001
 43
0.00000001
 40
19.0
 40
19.0
 40
19.0
 40
19.0
 40
20.0
 40
20.0
 40
20.0
 40
20.0
 10
-27.91988511866083
 20
-9.073464993912006
 30
0.0
 10
-28.12563217330358
 20
-6.994152508733083
 30
0.0
 10
-29.51271678483619
 20
-6.50510505043454
 30
0.0
 10
-30.23703582864644
 20
-6.251438951366732
 30
0.0
  0
HATCH
  5
D1
330
74
100
AcDbEntity
  8
0
100
AcDbHatch
 10
0.0
 20
0.0
 30
0.0
210
0.0
220
0.0
230
1.0
  2
SOLID
 70
     1
 71
     0
 91
        1
 92
        0
 93
        7
 72
     1
 10
-53.06293521179145
 20
-11.48017794540906
 11
-53.0628942334185
 21
-11.48036734981106
 72
     1
 10
-53.0628942334185
 20
-11.48036734981106
 11
-50.18135879739363
 21
-10.85693604353014
 72
     1
 10
-50.18135879739363
 20
-10.85693604353014
 11
-47.91273279754322
 21
-7.399227366744369
 72
     1
 10
-47.91273279754322
 20
-7.399227366744369
 11
-51.40738209617635
 21
-5.188811056417426
 72
     1
 10
-51.40738209617635
 20
-5.188811056417426
 11
-54.28910693660305
 21
-5.812283341071309
 72
     1
 10
-54.28910693660305
 20
-5.812283341071309
 11
-50.79453412756107
 21
-8.022804320319173
 72
     1
 10
-50.79453412756107
 20
-8.022804320319173
 11
-53.06293521179145
 21
-11.48017794540906
 97
        0
 75
     0
 76
     1
 98
        1
 10
0.0
 20
0.0
  0
HATCH
  5
D2
330
74
100
AcDbEntity
  8
0
100
AcDbHatch
 10
0.0
 20
0.0
 30
0.0
210
0.0
220
0.0
230
1.0
  2
SOLID
 70
     1
 71
     0
 91
        1
 92
        0
 93
        6
 72
     1
 10
-41.53588964704281
 20
-8.986455445432597
 11
-44.41771445090438
 21
-9.609949357561213
 72
     1
 10
-44.41771445090438
 20
-9.609949357561213
 11
-46.68624347197728
 21
-13.06764806762683
 72
     1
 10
-46.68624347197728
 20
-13.06764806762683
 11
-43.23827248082917
 21
-15.24865255879992
 72
     1
 10
-43.23827248082917
 20
-15.24865255879992
 11
-40.35645293820115
 21
-14.62515978495947
 72
     1
 10
-40.35645293820115
 20
-14.62515978495947
 11
-43.80454139731328
 21
-12.44407055830516
 72
     1
 10
-43.80454139731328
 20
-12.44407055830516
 11
-41.53588964704281
 21
-8.986455445432597
 97
        0
 75
     0
 76
     1
 98
        1
 10
0.0
 20
0.0
  0
HATCH
  5
D3
330
74
100
AcDbEntity
  8
0
100
AcDbHatch
 10
0.0
 20
0.0
 30
0.0
210
0.0
220
0.0
230
1.0
  2
SOLID
 70
     1
 71
     0
 91
        1
 92
        0
 93
       20
 72
     4
 94
        3
 73
     1
 74
     0
 95
        8
 96
        4
 40
18.0
 40
18.0
 40
18.0
 40
18.0
 40
19.0
 40
19.0
 40
19.0
 40
19.0
 10
-30.20639204762402
 20
-12.42915496033267
 42
1.0
 10
-28.36320980349188
 20
-11.79454394754584
 42
1.0
 10
-27.78707037380775
 20
-10.41512978795687
 42
1.0
 10
-27.91988511866085
 20
-9.073464993912015
 42
1.0
 72
     4
 94
        3
 73
     1
 74
     0
 95
        8
 96
        4
 40
19.0
 40
19.0
 40
19.0
 40
19.0
 40
20.0
 40
20.0
 40
20.0
 40
20.0
 10
-27.91988511866085
 20
-9.073464993912015
 42
1.0
 10
-28.1256321733036
 20
-6.994152508733093
 42
1.0
 10
-29.51271678483624
 20
-6.505105050434554
 42
1.0
 10
-30.23703582864647
 20
-6.251438951366739
 42
1.0
 72
     4
 94
        3
 73
     1
 74
     0
 95
        8
 96
        4
 40
0.0
 40
0.0
 40
0.0
 40
0.0
 40
1.0
 40
1.0
 40
1.0
 40
1.0
 10
-30.23703582864647
 20
-6.251438951366739
 42
1.0
 10
-30.91043001867278
 20
-6.015603382360466
 42
1.0
 10
-31.40848551125484
 20
-5.893156856121866
 42
1.0
 10
-32.67210357750633
 20
-5.496689523479784
 42
1.0
 72
     4
 94
        3
 73
     1
 74
     0
 95
        8
 96
        4
 40
1.0
 40
1.0
 40
1.0
 40
1.0
 40
2.0
 40
2.0
 40
2.0
 40
2.0
 10
-32.67210357750633
 20
-5.496689523479784
 42
1.0
 10
-33.03332194555515
 20
-5.383421617718138
 42
1.0
 10
-33.81210282496121
 20
-5.206692347750558
 42
1.0
 10
-33.94849250952591
 20
-4.576291363356954
 42
1.0
 72
     4
 94
        3
 73
     1
 74
     0
 95
        8
 96
        4
 40
2.0
 40
2.0
 40
2.0
 40
2.0
 40
3.0
 40
3.0
 40
3.0
 40
3.0
 10
-33.94849250952591
 20
-4.576291363356954
 42
1.0
 10
-34.11622381965228
 20
-3.801027578894066
 42
1.0
 10
-33.67528356585566
 20
-3.448097454184939
 42
1.0
 10
-32.99335932290605
 20
-3.300560513895483
 42
1.0
 72
     1
 10
-32.99335932290605
 20
-3.300560513895483
 11
-32.85916630414502
 21
-3.271527336675422
 72
     4
 94
        3
 73
     1
 74
     0
 95
        8
 96
        4
 40
4.0
 40
4.0
 40
4.0
 40
4.0
 40
5.0
 40
5.0
 40
5.0
 40
5.0
 10
-32.85916630414502
 20
-3.271527336675422
 42
1.0
 10
-32.27869442459117
 20
-3.145940006530068
 42
1.0
 10
-31.77109773641243
 20
-3.328116480283154
 42
1.0
 10
-31.5697721187044
 20
-3.967820152272114
 42
1.0
 72
     1
 10
-31.5697721187044
 20
-3.967820152272114
 11
-29.29695612428624
 21
-3.476087645143523
 72
     4
 94
        3
 73
     1
 74
     0
 95
        8
 96
        4
 40
6.0
 40
6.0
 40
6.0
 40
6.0
 40
7.0
 40
7.0
 40
7.0
 40
7.0
 10
-29.2969561242863
 20
-3.476087645143538
 42
1.0
 10
-29.6881007197101
 20
-1.866802583842747
 42
1.0
 10
-30.87776107222446
 20
-0.7599478056671519
 42
1.0
 10
-33.27949204955327
 20
-1.266772121690873
 42
1.0
 72
     1
 10
-33.27949204955321
 20
-1.266772121690857
 11
-33.3448839193166
 21
-1.280919904944549
 72
     4
 94
        3
 73
     1
 74
     0
 95
        8
 96
        4
 40
8.0
 40
8.0
 40
8.0
 40
8.0
 40
9.0
 40
9.0
 40
9.0
 40
9.0
 10
-33.34488391931666
 20
-1.280919904944565
 42
1.0
 10
-35.8115299245211
 20
-1.828202838410234
 42
1.0
 10
-36.3337848782655
 20
-3.544650129978449
 42
1.0
 10
-36.09207577942846
 20
-4.962606301827486
 42
1.0
 72
     4
 94
        3
 73
     1
 74
     0
 95
        8
 96
        4
 40
9.0
 40
9.0
 40
9.0
 40
9.0
 40
10.0
 40
10.0
 40
10.0
 40
10.0
 10
-36.09207577942846
 20
-4.962606301827486
 42
1.0
 10
-35.83736690020323
 20
-6.457652824126184
 42
1.0
 10
-34.96800490008029
 20
-7.196828812263736
 42
1.0
 10
-33.99931718292643
 20
-7.502708028683525
 42
1.0
 72
     4
 94
        3
 73
     1
 74
     0
 95
        8
 96
        4
 40
10.0
 40
10.0
 40
10.0
 40
10.0
 40
11.0
 40
11.0
 40
11.0
 40
11.0
 10
-33.99931718292643
 20
-7.502708028683525
 42
1.0
 10
-33.40907414696031
 20
-7.689011641945555
 42
1.0
 10
-32.48616403135106
 20
-7.975318844696822
 42
1.0
 10
-31.47547483016516
 20
-8.27150505233215
 42
1.0
 72
     4
 94
        3
 73
     1
 74
     0
 95
        8
 96
        4
 40
11.0
 40
11.0
 40
11.0
 40
11.0
 40
12.0
 40
12.0
 40
12.0
 40
12.0
 10
-31.47547483016516
 20
-8.27150505233215
 42
1.0
 10
-31.11213516930568
 20
-8.377980375833708
 42
1.0
 10
-30.40258052645039
 20
-8.557295119664056
 42
1.0
 10
-30.28870163819752
 20
-9.336631754491272
 42
1.0
 72
     4
 94
        3
 73
     1
 74
     0
 95
        8
 96
        4
 40
12.0
 40
12.0
 40
12.0
 40
12.0
 40
13.0
 40
13.0
 40
13.0
 40
13.0
 10
-30.28870163819752
 20
-9.336631754491272
 42
1.0
 10
-30.18837182526216
 20
-10.02498578462435
 42
1.0
 10
-30.64014408852681
 20
-10.43662327702195
 42
1.0
 10
-31.32890793487914
 20
-10.58563999188937
 42
1.0
 72
     1
 10
-31.32890793487914
 20
-10.58563999188937
 11
-31.46505813246008
 21
-10.61509661229637
 72
     4
 94
        3
 73
     1
 74
     0
 95
        8
 96
        4
 40
14.0
 40
14.0
 40
14.0
 40
14.0
 40
15.0
 40
15.0
 40
15.0
 40
15.0
 10
-31.46505813246008
 20
-10.61509661229637
 42
1.0
 10
-32.05208024758041
 20
-10.7421011111722
 42
1.0
 10
-32.71260096537064
 20
-10.55064660173623
 42
1.0
 10
-32.88223929249212
 20
-9.937760156430087
 42
1.0
 72
     1
 10
-32.88223929249212
 20
-9.937760156430087
 11
-35.18886923388655
 21
-10.43680844141459
 72
     4
 94
        3
 73
     1
 74
     0
 95
        8
 96
        4
 40
16.0
 40
16.0
 40
16.0
 40
16.0
 40
17.0
 40
17.0
 40
17.0
 40
17.0
 10
-35.18886923388649
 20
-10.43680844141459
 42
1.0
 10
-34.81471685749708
 20
-11.88431332710451
 42
1.0
 10
-33.72975075395801
 20
-12.95131992706824
 42
1.0
 10
-31.59496833044075
 20
-12.72957879515506
 42
1.0
 72
     1
 10
-31.59496833044068
 20
-12.72957879515504
 11
-30.20639204762409
 21
-12.42915496033269
 97
        0
 75
     0
 76
     1
 98
        1
 10
0.0
 20
0.0
  0
HATCH
  5
D4
330
74
100
AcDbEntity
  8
0
100
AcDbHatch
 10
0.0
 20
0.0
 30
0.0
210
0.0
220
0.0
230
1.0
  2
SOLID
 70
     1
 71
     0
 91
        1
 92
        0
 93
       11
 72
     1
 10
-23.93083334830058
 20
-6.656177916224847
 11
-23.9305586195879
 21
-1.497666803489873
 72
     1
 10
-23.9305586195879
 20
-1.497666803489873
 11
-20.04326836721582
 21
-10.05945907169815
 72
     1
 10
-20.04326836721582
 20
-10.05945907169815
 11
-17.66870538033285
 21
-9.545713210289948
 72
     1
 10
-17.66870538033285
 20
-9.545713210289948
 11
-22.39983793591613
 21
0.8767293108990284
 72
     1
 10
-22.39983793591613
 20
0.8767293108990277
 11
-26.30586704316552
 21
0.0316448471579831
 72
     1
 10
-26.30586704316552
 20
0.0316448471579831
 11
-26.30567237753049
 21
-11.41435433475813
 72
     1
 10
-26.30567237753049
 20
-11.41435433475813
 11
-23.93111465188077
 21
-10.90060961163804
 72
     1
 10
-23.93111465188077
 20
-10.90060961163804
 11
-23.93099314235586
 21
-8.782594625323274
 72
     1
 10
-23.93099314235586
 20
-8.782594625323274
 11
-22.27383089514867
 21
-8.42406118111162
 72
     1
 10
-22.27383089514867
 20
-8.42406118111162
 11
-22.7133102853523
 21
-6.392762105309743
 72
     1
 10
-22.7133102853523
 20
-6.392762105309743
 11
-23.93083334830058
 21
-6.656177916224847
 97
        0
 75
     0
 76
     1
 98
        1
 10
0.0
 20
0.0
  0
HATCH
  5
D5
330
74
100
AcDbEntity
  8
0
100
AcDbHatch
 10
0.0
 20
0.0
 30
0.0
210
0.0
220
0.0
230
1.0
  2
SOLID
 70
     1
 71
     0
 91
        1
 92
        0
 93
        6
 72
     1
 10
-15.79563263740209
 20
2.305574601061446
 11
-18.06492886668423
 21
1.814603608696526
 72
     4
 94
        3
 73
     1
 74
     0
 95
        8
 96
        4
 40
2.0
 40
2.0
 40
2.0
 40
2.0
 40
3.0
 40
3.0
 40
3.0
 40
3.0
 10
-18.06492886668423
 20
1.814603608696526
 42
1.0
 10
-17.240039650055
 20
-1.995739949107533
 42
1.0
 10
-15.71186186991055
 20
-9.059523950669437
 42
1.0
 10
-15.69887855542098
 20
-9.119533578677919
 42
1.0
 72
     1
 10
-15.69887855542092
 20
-9.119533578677903
 11
-10.22610149671526
 21
-7.93547715235816
 72
     1
 10
-10.22610149671526
 20
-7.93547715235816
 11
-10.66558088691882
 21
-5.904178076556605
 72
     1
 10
-10.66558088691882
 20
-5.904178076556605
 11
-13.86994560355126
 21
-6.597454742918437
 72
     4
 94
        3
 73
     1
 74
     0
 95
        8
 96
        4
 40
0.0
 40
0.0
 40
0.0
 40
0.0
 40
1.0
 40
1.0
 40
1.0
 40
1.0
 10
-13.86994560355126
 20
-6.597454742918437
 42
1.0
 10
-13.88373254946556
 20
-6.533730684138598
 42
1.0
 10
-15.1136551579741
 20
-0.8489574873494129
 42
1.0
 10
-15.79563263740209
 20
2.305574601061446
 42
1.0
 97
        0
 75
     0
 76
     1
 98
        1
 10
0.0
 20
0.0
  0
HATCH
  5
D6
330
74
100
AcDbEntity
  8
0
100
AcDbHatch
 10
0.0
 20
0.0
 30
0.0
210
0.0
220
0.0
230
1.0
  2
SOLID
 70
     1
 71
     0
 91
        1
 92
        0
 93
       11
 72
     1
 10
2.375028433631206
 20
-0.9648032523823513
 11
2.375208460142868
 21
4.193687371166118
 72
     1
 10
2.375208460142868
 20
4.193687371166118
 11
6.262509234981617
 21
-4.368102620465918
 72
     1
 10
6.262509234981617
 20
-4.368102620465917
 11
8.637061699398163
 21
-3.854359035633896
 72
     1
 10
8.637061699398163
 20
-3.854359035633896
 11
3.905939666281055
 21
6.568085762131229
 72
     1
 10
3.905939666281055
 20
6.56808576213123
 11
-0.0000000000001235
 21
5.723020649288631
 72
     1
 10
-0.0000000000001234
 20
5.723020649288631
 11
-0.000000000000185
 21
-5.723020649288538
 72
     1
 10
-0.000000000000185
 20
-5.723020649288538
 11
2.37465768908423
 21
-5.20925429869377
 72
     1
 10
2.37465768908423
 20
-5.20925429869377
 11
2.374784459841949
 21
-3.091238174090979
 72
     1
 10
2.374784459841949
 20
-3.091238174090979
 11
4.031830959914354
 21
-2.732729772218408
 72
     1
 10
4.031830959914354
 20
-2.732729772218408
 11
3.592351569710606
 21
-0.701430696416514
 72
     1
 10
3.592351569710606
 20
-0.7014306964165138
 11
2.375028433631206
 21
-0.9648032523823513
 97
        0
 75
     0
 76
     1
 98
        1
 10
0.0
 20
0.0
  0
HATCH
  5
D7
330
74
100
AcDbEntity
  8
0
100
AcDbHatch
 10
0.0
 20
0.0
 30
0.0
210
0.0
220
0.0
230
1.0
  2
SOLID
 70
     1
 71
     0
 91
        1
 92
        0
 93
        8
 72
     1
 10
-42.14906497721024
 20
-6.152323722221632
 11
-42.76219705242848
 21
-3.318391925879333
 72
     1
 10
-42.76219705242848
 20
-3.318391925879333
 11
-42.76249168149826
 21
-3.318455670015027
 72
     1
 10
-42.76249168149826
 20
-3.318455670015027
 11
-45.03079507887072
 21
-6.775797145163721
 72
     1
 10
-45.03079507887072
 20
-6.775797145163721
 11
-48.52545732888054
 21
-4.565295516814268
 72
     1
 10
-48.52545732888054
 20
-4.565295516814268
 11
-48.52574669671678
 21
-4.565358122661792
 72
     1
 10
-48.52574669671678
 20
-4.565358122661792
 11
-47.91261462149855
 21
-7.39928991900409
 72
     1
 10
-47.91261462149855
 20
-7.39928991900409
 11
-44.41773721666716
 21
-9.60984413289331
 72
     1
 10
-44.41773721666716
 20
-9.60984413289331
 11
-42.14906497721024
 21
-6.152323722221632
 97
        0
 75
     0
 76
     1
 98
        1
 10
0.0
 20
0.0
  0
HATCH
  5
D8
330
74
100
AcDbEntity
  8
0
100
AcDbHatch
 10
0.0
 20
0.0
 30
0.0
210
0.0
220
0.0
230
1.0
  2
SOLID
 70
     1
 71
     0
 91
        1
 92
        0
 93
        8
 72
     1
 10
-46.11999732125613
 20
-15.87212484345383
 11
-46.08139565189786
 21
-15.8637732233933
 72
     1
 10
-46.08139565189786
 20
-15.8637732233933
 11
-46.68636620117444
 21
-13.06756447043367
 72
     1
 10
-46.68636620117444
 20
-13.06756447043367
 11
-50.18135879739361
 21
-10.85693604353009
 72
     1
 10
-50.18135879739361
 20
-10.85693604353009
 11
-52.44976215820033
 21
-14.31429914615315
 72
     1
 10
-52.44976215820033
 20
-14.31429914615315
 11
-51.84475063055083
 21
-17.11069730351469
 72
     1
 10
-51.84475063055083
 20
-17.11069730351469
 11
-51.80633836559459
 21
-17.1023866618271
 72
     1
 10
-51.80633836559459
 20
-17.1023866618271
 11
-49.56818574380249
 21
-13.69105724427409
 72
     1
 10
-49.56818574380249
 20
-13.69105724427409
 11
-46.11999732125613
 21
-15.87212484345383
 97
        0
 75
     0
 76
     1
 98
        1
 10
0.0
 20
0.0
  0
HATCH
  5
D9
330
74
100
AcDbEntity
  8
0
100
AcDbHatch
 10
0.0
 20
0.0
 30
0.0
210
0.0
220
0.0
230
1.0
  2
SOLID
 70
     1
 71
     0
 91
        2
 92
        0
 93
        7
 72
     1
 10
-6.859585567104196
 20
4.238922852960538
 11
-11.00449045380928
 21
3.342156692939393
 72
     1
 10
-11.00449045380928
 20
3.342156692939393
 11
-8.638829473816639
 21
-7.592064727757185
 72
     1
 10
-8.638829473816639
 20
-7.592064727757185
 11
-8.63844014254617
 21
-7.591980494435086
 72
     1
 10
-8.63844014254617
 20
-7.591980494435086
 11
-4.494024550545999
 21
-6.695320195210662
 72
     4
 94
        3
 73
     1
 74
     0
 95
        8
 96
        4
 40
3.0
 40
3.0
 40
3.0
 40
3.0
 40
4.0
 40
4.0
 40
4.0
 40
4.0
 10
-4.494024550545999
 20
-6.695320195210662
 42
1.0
 10
-2.825524345390513
 20
-6.334333740063992
 42
1.0
 10
-1.762658323115034
 20
-4.702068307882374
 42
1.0
 10
-2.120071189640999
 20
-3.049576315093403
 42
1.0
 72
     4
 94
        3
 73
     1
 74
     0
 95
        8
 96
        4
 40
4.0
 40
4.0
 40
4.0
 40
4.0
 40
5.0
 40
5.0
 40
5.0
 40
5.0
 10
-2.120071189640999
 20
-3.049576315093403
 42
1.0
 10
-2.485983017556096
 20
-1.358310753073632
 42
1.0
 10
-2.867352798370483
 20
0.4044023583376265
 42
1.0
 10
-3.190995488197396
 20
1.900704823656681
 42
1.0
 72
     4
 94
        3
 73
     1
 74
     0
 95
        8
 96
        4
 40
5.0
 40
5.0
 40
5.0
 40
5.0
 40
6.0
 40
6.0
 40
6.0
 40
6.0
 10
-3.190995488197396
 20
1.900704823656681
 42
1.0
 10
-3.54857504695031
 20
3.553458157285876
 42
1.0
 10
-5.190901218780231
 20
4.599949148191988
 42
1.0
 10
-6.859585567104196
 20
4.238922852960538
 42
1.0
 97
        0
 92
        0
 93
        6
 72
     4
 94
        3
 73
     1
 74
     0
 95
        8
 96
        4
 40
2.0
 40
2.0
 40
2.0
 40
2.0
 40
3.0
 40
3.0
 40
3.0
 40
3.0
 10
-6.919811195494074
 20
2.099808074263809
 42
1.0
 10
-6.228016878711183
 20
2.249480443098069
 42
1.0
 10
-5.547633595833446
 20
1.815851349115847
 42
1.0
 10
-5.399398884916104
 20
1.130701970100344
 42
1.0
 72
     4
 94
        3
 73
     1
 74
     0
 95
        8
 96
        4
 40
3.0
 40
3.0
 40
3.0
 40
3.0
 40
4.0
 40
4.0
 40
4.0
 40
4.0
 10
-5.399398884916104
 20
1.130701970100344
 42
1.0
 10
-5.107009087764085
 20
-0.2207405274728672
 42
1.0
 10
-4.711497421058354
 20
-2.048334586467611
 42
1.0
 10
-4.449160707297047
 20
-3.260870000165379
 42
1.0
 72
     4
 94
        3
 73
     1
 74
     0
 95
        8
 96
        4
 40
4.0
 40
4.0
 40
4.0
 40
4.0
 40
5.0
 40
5.0
 40
5.0
 40
5.0
 10
-4.449160707297047
 20
-3.260870000165379
 42
1.0
 10
-4.300905507193207
 20
-3.946114081381999
 42
1.0
 10
-4.741570606399121
 20
-4.622385452066122
 42
1.0
 10
-5.433383135791953
 20
-4.771973641166296
 42
1.0
 72
     1
 10
-5.433383135791953
 20
-4.771973641166296
 11
-6.809537646582547
 21
-5.069709977697404
 72
     4
 94
        3
 73
     1
 74
     0
 95
        8
 96
        4
 40
0.0
 40
0.0
 40
0.0
 40
0.0
 40
1.0
 40
1.0
 40
1.0
 40
1.0
 10
-6.809537646582547
 20
-5.069709977697404
 42
1.0
 10
-7.284290309572815
 20
-2.875375801708635
 42
1.0
 10
-7.897830097865885
 20
-0.0390758678013329
 42
1.0
 10
-8.296070930952649
 20
1.80204897196991
 42
1.0
 72
     1
 10
-8.296070930952649
 20
1.80204897196991
 11
-6.919811195494074
 21
2.099808074263809
 97
        0
 75
     0
 76
     1
 98
        1
 10
0.0
 20
0.0
  0
ENDBLK
  5
76
330
74
100
AcDbEntity
  8
0
100
AcDbBlockEnd
  0
BLOCK
  5
276
330
275
100
AcDbEntity
  8
0
100
AcDbBlockBegin
  2
SW_CENTERMARKSYMBOL_0
 70
     0
 10
0.0
 20
0.0
 30
0.0
  3
SW_CENTERMARKSYMBOL_0
  1

  0
LINE
  5
278
330
275
100
AcDbEntity
  8
0
  6
Continuous
 62
     0
370
    18
100
AcDbLine
 10
0.0
 20
0.0
 30
0.0
 11
0.0
 21
2.5
 31
0.0
  0
LINE
  5
279
330
275
100
AcDbEntity
  8
0
  6
Continuous
 62
     0
370
    18
100
AcDbLine
 10
0.0
 20
0.0
 30
0.0
 11
-2.5
 21
0.0
 31
0.0
  0
LINE
  5
27A
330
275
100
AcDbEntity
  8
0
  6
Continuous
 62
     0
370
    18
100
AcDbLine
 10
0.0
 20
0.0
 30
0.0
 11
0.0
 21
-2.5
 31
0.0
  0
LINE
  5
27B
330
275
100
AcDbEntity
  8
0
  6
Continuous
 62
     0
370
    18
100
AcDbLine
 10
0.0
 20
0.0
 30
0.0
 11
2.5
 21
0.0
 31
0.0
  0
LINE
  5
27C
330
275
100
AcDbEntity
  8
0
  6
Continuous
 62
     0
370
    18
100
AcDbLine
 10
0.0
 20
5.0
 30
0.0
 11
0.0
 21
156.7
 31
0.0
  0
LINE
  5
27D
330
275
100
AcDbEntity
  8
0
  6
Continuous
 62
     0
370
    18
100
AcDbLine
 10
-5.0
 20
0.0
 30
0.0
 11
-156.7
 21
0.0
 31
0.0
  0
LINE
  5
27E
330
275
100
AcDbEntity
  8
0
  6
Continuous
 62
     0
370
    18
100
AcDbLine
 10
0.0
 20
-5.0
 30
0.0
 11
0.0
 21
-156.7
 31
0.0
  0
LINE
  5
27F
330
275
100
AcDbEntity
  8
0
  6
Continuous
 62
     0
370
    18
100
AcDbLine
 10
5.0
 20
0.0
 30
0.0
 11
156.7
 21
0.0
 31
0.0
  0
ENDBLK
  5
277
330
275
100
AcDbEntity
  8
0
100
AcDbBlockEnd
  0
ENDSEC
  0
SECTION
  2
ENTITIES
  0
LINE
  5
DA
330
1F
100
AcDbEntity
  8
0
100
AcDbLine
 10
-30.4350746047
 20
393.8623379389
 30
0.0
 11
-30.4912494294
 21
393.8623379389
 31
0.0
  0
LINE
  5
DB
330
1F
100
AcDbEntity
  8
0
100
AcDbLine
 10
-152.4350746047
 20
393.8623379389
 30
0.0
 11
-152.4912494294
 21
393.8623379389
 31
0.0
  0
LINE
  5
DC
330
1F
100
AcDbEntity
  8
0
100
AcDbLine
 10
-274.4350746047
 20
393.8623379389
 30
0.0
 11
-274.4912494294
 21
393.8623379389
 31
0.0
  0
LINE
  5
DD
330
1F
100
AcDbEntity
  8
0
100
AcDbLine
 10
-396.4350746047
 20
393.8623379389
 30
0.0
 11
-396.4912494294
 21
393.8623379389
 31
0.0
  0
ARC
  5
DE
330
1F
100
AcDbEntity
  8
0
100
AcDbCircle
 10
68.4069019967
 20
395.2623379389
 30
0.0
 40
0.1999999999999886
100
AcDbArc
 50
0.0
 51
90.0
  0
ARC
  5
DF
330
1F
100
AcDbEntity
  8
0
100
AcDbCircle
 10
57.8069019967
 20
395.2623379389
 30
0.0
 40
0.1999999999999886
100
AcDbArc
 50
90.0
 51
180.0
  0
LINE
  5
E0
330
1F
100
AcDbEntity
  8
0
100
AcDbLine
 10
68.6069019967
 20
394.6623379389
 30
0.0
 11
68.6069019967
 21
395.2623379389
 31
0.0
  0
LINE
  5
E1
330
1F
100
AcDbEntity
  8
0
100
AcDbLine
 10
57.6069019967
 20
395.2623379389
 30
0.0
 11
57.6069019967
 21
394.6623379389
 31
0.0
  0
ARC
  5
E2
330
1F
100
AcDbEntity
  8
0
100
AcDbCircle
 10
68.4069019967
 20
394.6623379389
 30
0.0
 40
0.1999999999999886
100
AcDbArc
 50
270.0
 51
0.0
  0
ARC
  5
E3
330
1F
100
AcDbEntity
  8
0
100
AcDbCircle
 10
57.8069019967
 20
394.6623379389
 30
0.0
 40
0.1999999999999744
100
AcDbArc
 50
180.0
 51
270.0
  0
ARC
  5
E4
330
1F
100
AcDbEntity
  8
0
100
AcDbCircle
 10
63.4970395341
 20
388.4718565578
 30
0.0
 40
7.999999999999989
100
AcDbArc
 50
107.1467397277
 51
119.0955287963
  0
ARC
  5
E5
330
1F
100
AcDbEntity
  8
0
100
AcDbCircle
 10
62.7167644592
 20
388.4718565578
 30
0.0
 40
7.999999999999986
100
AcDbArc
 50
60.9044712037
 51
72.8515803462
  0
ARC
  5
E6
330
1F
100
AcDbEntity
  8
0
100
AcDbCircle
 10
57.8069019967
 20
-21.9376620611
 30
0.0
 40
0.199999999999978
100
AcDbArc
 50
90.0
 51
180.0
  0
ARC
  5
E7
330
1F
100
AcDbEntity
  8
0
100
AcDbCircle
 10
68.4069019967
 20
-21.9376620611
 30
0.0
 40
0.1999999999999886
100
AcDbArc
 50
0.0
 51
90.0
  0
LINE
  5
E8
330
1F
100
AcDbEntity
  8
0
100
AcDbLine
 10
57.6069019967
 20
-21.9376620611
 30
0.0
 11
57.6069019967
 21
-22.5376620611
 31
0.0
  0
LINE
  5
E9
330
1F
100
AcDbEntity
  8
0
100
AcDbLine
 10
68.6069019967
 20
-22.5376620611
 30
0.0
 11
68.6069019967
 21
-21.9376620611
 31
0.0
  0
ARC
  5
EA
330
1F
100
AcDbEntity
  8
0
100
AcDbCircle
 10
57.8069019967
 20
-22.5376620611
 30
0.0
 40
0.2000000000000028
100
AcDbArc
 50
180.0
 51
270.0
  0
ARC
  5
EB
330
1F
100
AcDbEntity
  8
0
100
AcDbCircle
 10
68.4069019967
 20
-22.5376620611
 30
0.0
 40
0.2000000000000028
100
AcDbArc
 50
270.0
 51
0.0
  0
ARC
  5
EC
330
1F
100
AcDbEntity
  8
0
100
AcDbCircle
 10
62.7167644592
 20
-15.7471806799
 30
0.0
 40
7.999999999999999
100
AcDbArc
 50
287.1467397277
 51
299.0955287963
  0
ARC
  5
ED
330
1F
100
AcDbEntity
  8
0
100
AcDbCircle
 10
63.4970395341
 20
-15.7471806799
 30
0.0
 40
7.999999999999999
100
AcDbArc
 50
240.9044712037
 51
252.8515803462
  0
ARC
  5
EE
330
1F
100
AcDbEntity
  8
0
100
AcDbCircle
 10
-511.5930980033
 20
395.2623379389
 30
0.0
 40
0.2000000000000455
100
AcDbArc
 50
0.0
 51
90.0
  0
ARC
  5
EF
330
1F
100
AcDbEntity
  8
0
100
AcDbCircle
 10
-511.5930980033
 20
394.6623379389
 30
0.0
 40
0.1999999999999886
100
AcDbArc
 50
270.0
 51
0.0
  0
LINE
  5
F0
330
1F
100
AcDbEntity
  8
0
100
AcDbLine
 10
-511.3930980033
 20
394.6623379389
 30
0.0
 11
-511.3930980033
 21
395.2623379389
 31
0.0
  0
ARC
  5
F1
330
1F
100
AcDbEntity
  8
0
100
AcDbCircle
 10
-516.5029604659
 20
388.4718565578
 30
0.0
 40
7.99999999999998
100
AcDbArc
 50
107.1467397277
 51
119.0955287963
  0
ARC
  5
F2
330
1F
100
AcDbEntity
  8
0
100
AcDbCircle
 10
-517.2832355408
 20
388.4718565578
 30
0.0
 40
8.000000000000071
100
AcDbArc
 50
60.9044712037
 51
72.8515803462
  0
ARC
  5
F3
330
1F
100
AcDbEntity
  8
0
100
AcDbCircle
 10
-522.1930980033
 20
-21.9376620611
 30
0.0
 40
0.199999999999978
100
AcDbArc
 50
90.0
 51
180.0
  0
ARC
  5
F4
330
1F
100
AcDbEntity
  8
0
100
AcDbCircle
 10
-511.5930980033
 20
-21.9376620611
 30
0.0
 40
0.1999999999999886
100
AcDbArc
 50
0.0
 51
90.0
  0
LINE
  5
F5
330
1F
100
AcDbEntity
  8
0
100
AcDbLine
 10
-522.3930980033
 20
-21.9376620611
 30
0.0
 11
-522.3930980033
 21
-22.5376620611
 31
0.0
  0
LINE
  5
F6
330
1F
100
AcDbEntity
  8
0
100
AcDbLine
 10
-511.3930980033
 20
-22.5376620611
 30
0.0
 11
-511.3930980033
 21
-21.9376620611
 31
0.0
  0
ARC
  5
F7
330
1F
100
AcDbEntity
  8
0
100
AcDbCircle
 10
-522.1930980033
 20
-22.5376620611
 30
0.0
 40
0.2000000000000028
100
AcDbArc
 50
180.0
 51
270.0
  0
ARC
  5
F8
330
1F
100
AcDbEntity
  8
0
100
AcDbCircle
 10
-511.5930980033
 20
-22.5376620611
 30
0.0
 40
0.2000000000000028
100
AcDbArc
 50
270.0
 51
0.0
  0
ARC
  5
F9
330
1F
100
AcDbEntity
  8
0
100
AcDbCircle
 10
-517.2832355408
 20
-15.7471806799
 30
0.0
 40
7.999999999999988
100
AcDbArc
 50
287.1467397277
 51
299.0955287963
  0
ARC
  5
FA
330
1F
100
AcDbEntity
  8
0
100
AcDbCircle
 10
-516.5029604659
 20
-15.7471806799
 30
0.0
 40
8.0
100
AcDbArc
 50
240.9044712037
 51
252.8515803462
  0
ARC
  5
FB
330
1F
100
AcDbEntity
  8
0
100
AcDbCircle
 10
156.7417855632
 20
350.7623379389
 30
0.0
 40
0.5000000000000037
100
AcDbArc
 50
4.9871394293
 51
180.0
  0
ARC
  5
FC
330
1F
100
AcDbEntity
  8
0
100
AcDbCircle
 10
156.7417855632
 20
21.9623379389
 30
0.0
 40
0.500000000000003
100
AcDbArc
 50
180.0
 51
355.0128605707
  0
ARC
  5
FD
330
1F
100
AcDbEntity
  8
0
100
AcDbCircle
 10
160.9417855632
 20
350.7623379389
 30
0.0
 40
0.5000000000000037
100
AcDbArc
 50
4.9871394293
 51
180.0
  0
ARC
  5
FE
330
1F
100
AcDbEntity
  8
0
100
AcDbCircle
 10
160.9417855632
 20
21.9623379389
 30
0.0
 40
0.5000000000000009
100
AcDbArc
 50
180.0
 51
355.0128605707
  0
LINE
  5
FF
330
1F
100
AcDbEntity
  8
0
100
AcDbLine
 10
161.4398926811
 20
21.9188718712
 30
0.0
 11
162.1218664192
 21
29.7340709728
 31
0.0
  0
LINE
  5
100
330
1F
100
AcDbEntity
  8
0
100
AcDbLine
 10
162.1218664192
 20
342.9906049051
 30
0.0
 11
161.4398926811
 21
350.8058040066
 31
0.0
  0
LINE
  5
101
330
1F
100
AcDbEntity
  8
0
100
AcDbLine
 10
157.2398926811
 20
21.9188718712
 30
0.0
 11
157.9218664192
 21
29.7340709728
 31
0.0
  0
LINE
  5
102
330
1F
100
AcDbEntity
  8
0
100
AcDbLine
 10
157.9218664192
 20
342.9906049051
 30
0.0
 11
157.2398926811
 21
350.8058040066
 31
0.0
  0
ARC
  5
103
330
1F
100
AcDbEntity
  8
0
100
AcDbCircle
 10
162.3709199782
 20
343.0123379389
 30
0.0
 40
0.250000000000016
100
AcDbArc
 50
184.9871394293
 51
270.0
  0
ARC
  5
104
330
1F
100
AcDbEntity
  8
0
100
AcDbCircle
 10
162.3709199782
 20
29.7123379389
 30
0.0
 40
0.2500000000000169
100
AcDbArc
 50
90.0
 51
175.0128605707
  0
ARC
  5
105
330
1F
100
AcDbEntity
  8
0
100
AcDbCircle
 10
158.1709199782
 20
343.0123379389
 30
0.0
 40
0.250000000000016
100
AcDbArc
 50
184.9871394293
 51
270.0
  0
ARC
  5
106
330
1F
100
AcDbEntity
  8
0
100
AcDbCircle
 10
158.1709199782
 20
29.7123379389
 30
0.0
 40
0.25
100
AcDbArc
 50
90.0
 51
175.0128605707
  0
LINE
  5
107
330
1F
100
AcDbEntity
  8
0
100
AcDbLine
 10
160.4417855632
 20
342.7623379389
 30
0.0
 11
158.1709199782
 21
342.7623379389
 31
0.0
  0
LINE
  5
108
330
1F
100
AcDbEntity
  8
0
100
AcDbLine
 10
158.1709199782
 20
29.9623379389
 30
0.0
 11
160.4417855632
 21
29.9623379389
 31
0.0
  0
LINE
  5
109
330
1F
100
AcDbEntity
  8
0
100
AcDbLine
 10
164.4917855632
 20
342.7623379389
 30
0.0
 11
162.3709199782
 21
342.7623379389
 31
0.0
  0
LINE
  5
10A
330
1F
100
AcDbEntity
  8
0
100
AcDbLine
 10
162.3709199782
 20
29.9623379389
 30
0.0
 11
164.4917855632
 21
29.9623379389
 31
0.0
  0
ARC
  5
10B
330
1F
100
AcDbEntity
  8
0
100
AcDbCircle
 10
-610.5279815698
 20
21.9623379389
 30
0.0
 40
0.4999999999999747
100
AcDbArc
 50
184.9871394293
 51
0.0
  0
ARC
  5
10C
330
1F
100
AcDbEntity
  8
0
100
AcDbCircle
 10
-610.5279815698
 20
350.7623379389
 30
0.0
 40
0.5000000000001137
100
AcDbArc
 50
0.0
 51
175.0128605707
  0
ARC
  5
10D
330
1F
100
AcDbEntity
  8
0
100
AcDbCircle
 10
-614.7279815698
 20
21.9623379389
 30
0.0
 40
0.5000000000001137
100
AcDbArc
 50
184.9871394293
 51
0.0
  0
ARC
  5
10E
330
1F
100
AcDbEntity
  8
0
100
AcDbCircle
 10
-614.7279815698
 20
350.7623379389
 30
0.0
 40
0.5000000000000886
100
AcDbArc
 50
0.0
 51
175.0128605707
  0
LINE
  5
10F
330
1F
100
AcDbEntity
  8
0
100
AcDbLine
 10
-611.0260886878
 20
350.8058040066
 30
0.0
 11
-611.7080624258
 21
342.9906049051
 31
0.0
  0
LINE
  5
110
330
1F
100
AcDbEntity
  8
0
100
AcDbLine
 10
-611.7080624258
 20
29.7340709728
 30
0.0
 11
-611.0260886878
 21
21.9188718712
 31
0.0
  0
LINE
  5
111
330
1F
100
AcDbEntity
  8
0
100
AcDbLine
 10
-615.2260886878
 20
350.8058040066
 30
0.0
 11
-615.9080624258
 21
342.9906049051
 31
0.0
  0
LINE
  5
112
330
1F
100
AcDbEntity
  8
0
100
AcDbLine
 10
-615.9080624258
 20
29.7340709728
 30
0.0
 11
-615.2260886878
 21
21.9188718712
 31
0.0
  0
ARC
  5
113
330
1F
100
AcDbEntity
  8
0
100
AcDbCircle
 10
-611.9571159848
 20
29.7123379389
 30
0.0
 40
0.25
100
AcDbArc
 50
4.9871394293
 51
90.0
  0
ARC
  5
114
330
1F
100
AcDbEntity
  8
0
100
AcDbCircle
 10
-611.9571159848
 20
343.0123379389
 30
0.0
 40
0.2500000000001009
100
AcDbArc
 50
270.0
 51
355.0128605707
  0
ARC
  5
115
330
1F
100
AcDbEntity
  8
0
100
AcDbCircle
 10
-616.1571159848
 20
29.7123379389
 30
0.0
 40
0.25
100
AcDbArc
 50
4.9871394293
 51
90.0
  0
ARC
  5
116
330
1F
100
AcDbEntity
  8
0
100
AcDbCircle
 10
-616.1571159848
 20
343.0123379389
 30
0.0
 40
0.2499999999999877
100
AcDbArc
 50
270.0
 51
355.0128605707
  0
LINE
  5
117
330
1F
100
AcDbEntity
  8
0
100
AcDbLine
 10
-618.2779815698
 20
29.9623379389
 30
0.0
 11
-616.1571159848
 21
29.9623379389
 31
0.0
  0
LINE
  5
118
330
1F
100
AcDbEntity
  8
0
100
AcDbLine
 10
-616.1571159848
 20
342.7623379389
 30
0.0
 11
-618.2779815698
 21
342.7623379389
 31
0.0
  0
LINE
  5
119
330
1F
100
AcDbEntity
  8
0
100
AcDbLine
 10
-614.2279815698
 20
29.9623379389
 30
0.0
 11
-611.9571159848
 21
29.9623379389
 31
0.0
  0
LINE
  5
11A
330
1F
100
AcDbEntity
  8
0
100
AcDbLine
 10
-611.9571159848
 20
342.7623379389
 30
0.0
 11
-614.2279815698
 21
342.7623379389
 31
0.0
  0
ARC
  5
11B
330
1F
100
AcDbEntity
  8
0
100
AcDbCircle
 10
76.3182101413
 20
393.0123379389
 30
0.0
 40
2.749999999999998
100
AcDbArc
 50
8.8498830984
 51
171.1501169016
  0
ARC
  5
11C
330
1F
100
AcDbEntity
  8
0
100
AcDbCircle
 10
76.3182101413
 20
-20.2876620611
 30
0.0
 40
2.750000000000003
100
AcDbArc
 50
188.8498830984
 51
351.1501169016
  0
ARC
  5
11D
330
1F
100
AcDbEntity
  8
0
100
AcDbCircle
 10
79.529518286
 20
393.5123379389
 30
0.0
 40
0.4999999999999542
100
AcDbArc
 50
188.8498830984
 51
270.0
  0
ARC
  5
11E
330
1F
100
AcDbEntity
  8
0
100
AcDbCircle
 10
79.529518286
 20
-20.7876620611
 30
0.0
 40
0.5
100
AcDbArc
 50
90.0
 51
171.1501169016
  0
ARC
  5
11F
330
1F
100
AcDbEntity
  8
0
100
AcDbCircle
 10
73.1069019967
 20
393.5123379389
 30
0.0
 40
0.5000000000000244
100
AcDbArc
 50
270.0
 51
351.1501169016
  0
ARC
  5
120
330
1F
100
AcDbEntity
  8
0
100
AcDbCircle
 10
73.1069019967
 20
-20.7876620611
 30
0.0
 40
0.5000000000000233
100
AcDbArc
 50
8.8498830984
 51
90.0
  0
ARC
  5
121
330
1F
100
AcDbEntity
  8
0
100
AcDbCircle
 10
81.1069019967
 20
384.2623379389
 30
0.0
 40
8.750000000000059
100
AcDbArc
 50
20.0
 51
90.0
  0
ARC
  5
122
330
1F
100
AcDbEntity
  8
0
100
AcDbCircle
 10
81.1069019967
 20
-11.5376620611
 30
0.0
 40
8.750000000000009
100
AcDbArc
 50
270.0
 51
340.0
  0
LINE
  5
123
330
1F
100
AcDbEntity
  8
0
100
AcDbLine
 10
81.1069019967
 20
393.0123379389
 30
0.0
 11
79.529518286
 21
393.0123379389
 31
0.0
  0
LINE
  5
124
330
1F
100
AcDbEntity
  8
0
100
AcDbLine
 10
79.529518286
 20
-20.2876620611
 30
0.0
 11
81.1069019967
 21
-20.2876620611
 31
0.0
  0
LINE
  5
125
330
1F
100
AcDbEntity
  8
0
100
AcDbLine
 10
89.3292124286
 20
-14.5303383152
 30
0.0
 11
103.7674518125
 21
25.1383983689
 31
0.0
  0
LINE
  5
126
330
1F
100
AcDbEntity
  8
0
100
AcDbLine
 10
103.7674518125
 20
347.586277509
 30
0.0
 11
89.3292124286
 21
387.255014193
 31
0.0
  0
ARC
  5
127
330
1F
100
AcDbEntity
  8
0
100
AcDbCircle
 10
106.5865296749
 20
348.6123379389
 30
0.0
 40
3.0
100
AcDbArc
 50
200.0
 51
270.0
  0
ARC
  5
128
330
1F
100
AcDbEntity
  8
0
100
AcDbCircle
 10
106.5865296749
 20
24.1123379389
 30
0.0
 40
3.000000000000014
100
AcDbArc
 50
100.4753138431
 51
160.0
  0
ARC
  5
129
330
1F
100
AcDbEntity
  8
0
100
AcDbCircle
 10
124.2804774185
 20
343.0623379389
 30
0.0
 40
2.750000000000006
100
AcDbArc
 50
8.8498830984
 51
171.1501169016
  0
ARC
  5
12A
330
1F
100
AcDbEntity
  8
0
100
AcDbCircle
 10
124.2804774185
 20
29.6623379389
 30
0.0
 40
2.750000000000059
100
AcDbArc
 50
188.8498830984
 51
351.1501169016
  0
LINE
  5
12B
330
1F
100
AcDbEntity
  8
0
100
AcDbLine
 10
116.0195423767
 20
27.1123379389
 30
0.0
 11
117.4917855632
 21
29.6623379389
 31
0.0
  0
LINE
  5
12C
330
1F
100
AcDbEntity
  8
0
100
AcDbLine
 10
117.4917855632
 20
343.0623379389
 30
0.0
 11
116.0195423768
 21
345.6123379389
 31
0.0
  0
LINE
  5
12D
330
1F
100
AcDbEntity
  8
0
100
AcDbLine
 10
116.0195423768
 20
345.6123379389
 30
0.0
 11
106.5865296749
 21
345.6123379389
 31
0.0
  0
LINE
  5
12E
330
1F
100
AcDbEntity
  8
0
100
AcDbLine
 10
107.2213431047
 20
27.1123379389
 30
0.0
 11
116.0195423767
 21
27.1123379389
 31
0.0
  0
ARC
  5
12F
330
1F
100
AcDbEntity
  8
0
100
AcDbCircle
 10
121.0691692739
 20
343.5623379389
 30
0.0
 40
0.5000000000000568
100
AcDbArc
 50
270.0
 51
351.1501169016
  0
ARC
  5
130
330
1F
100
AcDbEntity
  8
0
100
AcDbCircle
 10
121.0691692739
 20
29.1623379389
 30
0.0
 40
0.5
100
AcDbArc
 50
8.8498830984
 51
90.0
  0
ARC
  5
131
330
1F
100
AcDbEntity
  8
0
100
AcDbCircle
 10
127.4917855632
 20
343.5623379389
 30
0.0
 40
0.5
100
AcDbArc
 50
188.8498830984
 51
270.0
  0
ARC
  5
132
330
1F
100
AcDbEntity
  8
0
100
AcDbCircle
 10
127.4917855632
 20
29.1623379389
 30
0.0
 40
0.500000000000019
100
AcDbArc
 50
90.0
 51
171.1501169016
  0
LINE
  5
133
330
1F
100
AcDbEntity
  8
0
100
AcDbLine
 10
121.0691692739
 20
343.0623379389
 30
0.0
 11
117.4917855632
 21
343.0623379389
 31
0.0
  0
LINE
  5
134
330
1F
100
AcDbEntity
  8
0
100
AcDbLine
 10
117.4917855632
 20
29.6623379389
 30
0.0
 11
121.0691692739
 21
29.6623379389
 31
0.0
  0
LINE
  5
135
330
1F
100
AcDbEntity
  8
0
100
AcDbLine
 10
168.1917855632
 20
343.0623379389
 30
0.0
 11
164.4917855632
 21
343.0623379389
 31
0.0
  0
LINE
  5
136
330
1F
100
AcDbEntity
  8
0
100
AcDbLine
 10
164.4917855632
 20
29.6623379389
 30
0.0
 11
168.1917855632
 21
29.6623379389
 31
0.0
  0
LINE
  5
137
330
1F
100
AcDbEntity
  8
0
100
AcDbLine
 10
150.8326078863
 20
343.0623379389
 30
0.0
 11
127.4917855632
 21
343.0623379389
 31
0.0
  0
LINE
  5
138
330
1F
100
AcDbEntity
  8
0
100
AcDbLine
 10
127.4917855632
 20
29.6623379389
 30
0.0
 11
150.8326078863
 21
29.6623379389
 31
0.0
  0
LINE
  5
139
330
1F
100
AcDbEntity
  8
0
100
AcDbLine
 10
150.8326078863
 20
29.6623379389
 30
0.0
 11
156.2417855632
 21
31.7430031719
 31
0.0
  0
LINE
  5
13A
330
1F
100
AcDbEntity
  8
0
100
AcDbLine
 10
156.2417855632
 20
340.981672706
 30
0.0
 11
150.8326078863
 21
343.0623379389
 31
0.0
  0
ARC
  5
13B
330
1F
100
AcDbEntity
  8
0
100
AcDbCircle
 10
168.1917855632
 20
341.762337939
 30
0.0
 40
1.299999999983783
100
AcDbArc
 50
0.0
 51
90.0
  0
ARC
  5
13C
330
1F
100
AcDbEntity
  8
0
100
AcDbCircle
 10
168.1917855632
 20
30.9623379389
 30
0.0
 40
1.299999999983754
100
AcDbArc
 50
270.0
 51
0.0
  0
ARC
  5
13D
330
1F
100
AcDbEntity
  8
0
100
AcDbCircle
 10
-530.104406148
 20
-20.2876620611
 30
0.0
 40
2.749999999999961
100
AcDbArc
 50
188.8498830984
 51
351.1501169016
  0
ARC
  5
13E
330
1F
100
AcDbEntity
  8
0
100
AcDbCircle
 10
-530.104406148
 20
393.0123379389
 30
0.0
 40
2.750000000000068
100
AcDbArc
 50
8.8498830984
 51
171.1501169016
  0
ARC
  5
13F
330
1F
100
AcDbEntity
  8
0
100
AcDbCircle
 10
-533.3157142927
 20
-20.7876620611
 30
0.0
 40
0.5000000000000654
100
AcDbArc
 50
8.8498830984
 51
90.0
  0
ARC
  5
140
330
1F
100
AcDbEntity
  8
0
100
AcDbCircle
 10
-533.3157142927
 20
393.5123379389
 30
0.0
 40
0.4999999999999542
100
AcDbArc
 50
270.0
 51
351.1501169016
  0
ARC
  5
141
330
1F
100
AcDbEntity
  8
0
100
AcDbCircle
 10
-526.8930980033
 20
-20.7876620611
 30
0.0
 40
0.5000000000000654
100
AcDbArc
 50
90.0
 51
171.1501169016
  0
ARC
  5
142
330
1F
100
AcDbEntity
  8
0
100
AcDbCircle
 10
-526.8930980033
 20
393.5123379389
 30
0.0
 40
0.5
100
AcDbArc
 50
188.8498830984
 51
270.0
  0
ARC
  5
143
330
1F
100
AcDbEntity
  8
0
100
AcDbCircle
 10
-534.8930980033
 20
-11.5376620611
 30
0.0
 40
8.750000000000036
100
AcDbArc
 50
200.0
 51
270.0
  0
ARC
  5
144
330
1F
100
AcDbEntity
  8
0
100
AcDbCircle
 10
-534.8930980033
 20
384.2623379389
 30
0.0
 40
8.750000000000057
100
AcDbArc
 50
90.0
 51
160.0
  0
LINE
  5
145
330
1F
100
AcDbEntity
  8
0
100
AcDbLine
 10
-534.8930980033
 20
-20.2876620611
 30
0.0
 11
-533.3157142927
 21
-20.2876620611
 31
0.0
  0
LINE
  5
146
330
1F
100
AcDbEntity
  8
0
100
AcDbLine
 10
-533.3157142927
 20
393.0123379389
 30
0.0
 11
-534.8930980033
 21
393.0123379389
 31
0.0
  0
LINE
  5
147
330
1F
100
AcDbEntity
  8
0
100
AcDbLine
 10
-543.1154084352
 20
387.255014193
 30
0.0
 11
-557.5536478191
 21
347.586277509
 31
0.0
  0
LINE
  5
148
330
1F
100
AcDbEntity
  8
0
100
AcDbLine
 10
-557.5536478191
 20
25.1383983689
 30
0.0
 11
-543.1154084352
 21
-14.5303383152
 31
0.0
  0
ARC
  5
149
330
1F
100
AcDbEntity
  8
0
100
AcDbCircle
 10
-560.3727256815
 20
24.1123379389
 30
0.0
 40
3.000000000000121
100
AcDbArc
 50
20.0
 51
90.0
  0
ARC
  5
14A
330
1F
100
AcDbEntity
  8
0
100
AcDbCircle
 10
-560.3727256815
 20
348.6123379389
 30
0.0
 40
3.0
100
AcDbArc
 50
270.0
 51
340.0
  0
ARC
  5
14B
330
1F
100
AcDbEntity
  8
0
100
AcDbCircle
 10
-578.0666734252
 20
29.6623379389
 30
0.0
 40
2.749999999999965
100
AcDbArc
 50
188.8498830984
 51
351.1501169016
  0
ARC
  5
14C
330
1F
100
AcDbEntity
  8
0
100
AcDbCircle
 10
-578.0666734252
 20
343.0623379389
 30
0.0
 40
2.749999999999964
100
AcDbArc
 50
8.8498830984
 51
171.1501169016
  0
LINE
  5
14D
330
1F
100
AcDbEntity
  8
0
100
AcDbLine
 10
-569.8057383834
 20
345.6123379389
 30
0.0
 11
-571.2779815698
 21
343.0623379389
 31
0.0
  0
LINE
  5
14E
330
1F
100
AcDbEntity
  8
0
100
AcDbLine
 10
-571.2779815698
 20
29.6623379389
 30
0.0
 11
-569.8057383834
 21
27.1123379389
 31
0.0
  0
LINE
  5
14F
330
1F
100
AcDbEntity
  8
0
100
AcDbLine
 10
-569.8057383834
 20
27.1123379389
 30
0.0
 11
-560.3727256815
 21
27.1123379389
 31
0.0
  0
LINE
  5
150
330
1F
100
AcDbEntity
  8
0
100
AcDbLine
 10
-560.3727256815
 20
345.6123379389
 30
0.0
 11
-563.5169730621
 21
345.6123379389
 31
0.0
  0
LINE
  5
151
330
1F
100
AcDbEntity
  8
0
100
AcDbLine
 10
-568.2889019926
 20
345.6123379389
 30
0.0
 11
-569.8057383834
 21
345.6123379389
 31
0.0
  0
ARC
  5
152
330
1F
100
AcDbEntity
  8
0
100
AcDbCircle
 10
-574.8553652805
 20
29.1623379389
 30
0.0
 40
0.5000000000000611
100
AcDbArc
 50
90.0
 51
171.1501169016
  0
ARC
  5
153
330
1F
100
AcDbEntity
  8
0
100
AcDbCircle
 10
-574.8553652805
 20
343.5623379389
 30
0.0
 40
0.5000000000000665
100
AcDbArc
 50
188.8498830984
 51
270.0
  0
ARC
  5
154
330
1F
100
AcDbEntity
  8
0
100
AcDbCircle
 10
-581.2779815698
 20
29.1623379389
 30
0.0
 40
0.5000000000000611
100
AcDbArc
 50
8.8498830984
 51
90.0
  0
ARC
  5
155
330
1F
100
AcDbEntity
  8
0
100
AcDbCircle
 10
-581.2779815698
 20
343.5623379389
 30
0.0
 40
0.5000000000000577
100
AcDbArc
 50
270.0
 51
351.1501169016
  0
LINE
  5
156
330
1F
100
AcDbEntity
  8
0
100
AcDbLine
 10
-604.6188038929
 20
343.0623379389
 30
0.0
 11
-610.0279815698
 21
340.981672706
 31
0.0
  0
LINE
  5
157
330
1F
100
AcDbEntity
  8
0
100
AcDbLine
 10
-610.0279815698
 20
31.7430031719
 30
0.0
 11
-604.6188038929
 21
29.6623379389
 31
0.0
  0
LINE
  5
158
330
1F
100
AcDbEntity
  8
0
100
AcDbLine
 10
-604.6188038929
 20
29.6623379389
 30
0.0
 11
-581.2779815698
 21
29.6623379389
 31
0.0
  0
LINE
  5
159
330
1F
100
AcDbEntity
  8
0
100
AcDbLine
 10
-581.2779815698
 20
343.0623379389
 30
0.0
 11
-604.6188038929
 21
343.0623379389
 31
0.0
  0
LINE
  5
15A
330
1F
100
AcDbEntity
  8
0
100
AcDbLine
 10
-574.8553652805
 20
29.6623379389
 30
0.0
 11
-571.2779815698
 21
29.6623379389
 31
0.0
  0
LINE
  5
15B
330
1F
100
AcDbEntity
  8
0
100
AcDbLine
 10
-571.2779815698
 20
343.0623379389
 30
0.0
 11
-574.8553652805
 21
343.0623379389
 31
0.0
  0
LINE
  5
15C
330
1F
100
AcDbEntity
  8
0
100
AcDbLine
 10
-621.9779815698
 20
29.6623379389
 30
0.0
 11
-618.2779815698
 21
29.6623379389
 31
0.0
  0
LINE
  5
15D
330
1F
100
AcDbEntity
  8
0
100
AcDbLine
 10
-618.2779815698
 20
343.0623379389
 30
0.0
 11
-621.9779815698
 21
343.0623379389
 31
0.0
  0
ARC
  5
15E
330
1F
100
AcDbEntity
  8
0
100
AcDbCircle
 10
-621.9779815698
 20
30.9623379389
 30
0.0
 40
1.299999999983733
100
AcDbArc
 50
180.0
 51
270.0
  0
ARC
  5
15F
330
1F
100
AcDbEntity
  8
0
100
AcDbCircle
 10
-621.9779815698
 20
341.762337939
 30
0.0
 40
1.299999999983811
100
AcDbArc
 50
90.0
 51
180.0
  0
SPLINE
  5
160
330
1F
100
AcDbEntity
  8
0
100
AcDbSpline
210
0.0
220
0.0
230
1.0
 70
     8
 71
     3
 72
    63
 73
    59
 74
     0
 42
0.00000001
 43
0.00000001
 40
0.0
 40
0.0
 40
0.0
 40
0.0
 40
0.0096737712780356
 40
0.0173974949427986
 40
0.0231987295057204
 40
0.0283441428599252
 40
0.0364310791222928
 40
0.0443884700909837
 40
0.0531954296544416
 40
0.061536306278537
 40
0.0700016761028825
 40
0.0859701146505321
 40
0.101433903285506
 40
0.1167875803754563
 40
0.1321550359415406
 40
0.1567489896730746
 40
0.1813290573425421
 40
0.2059317164809474
 40
0.2305177218207737
 40
0.2551231341594682
 40
0.2797180000146302
 40
0.3043212779837385
 40
0.3289274536460295
 40
0.3535247778434671
 40
0.3781378481224013
 40
0.402733566177533
 40
0.4273498115946558
 40
0.4519481398202862
 40
0.4765641017344174
 40
0.501170030065251
 40
0.5257816899874818
 40
0.5503974237715268
 40
0.575002669760092
 40
0.5996245524106465
 40
0.6242285583398923
 40
0.6488532756701146
 40
0.6734607691880901
 40
0.6980852769180892
 40
0.7227014963449405
 40
0.747322196080813
 40
0.7719495534170713
 40
0.7965665386191151
 40
0.8212026369082589
 40
0.8458227200885681
 40
0.8704668722450131
 40
0.8858670756541
 40
0.901264743017267
 40
0.916948477870903
 40
0.9330010320821095
 40
0.9413519688984389
 40
0.948938555020836
 40
0.9572287865390559
 40
0.9662189046759784
 40
0.9716078852252846
 40
0.9768246249077335
 40
0.9830679203679743
 40
0.990796858346548
 40
1.0
 40
1.0
 40
1.0
 40
1.0
 10
-403.9430255172436
 20
394.5123379388899
 30
0.0
 10
-403.835820367295
 20
394.5004576092473
 30
0.0
 10
-403.643020579036
 20
394.4790917976176
 30
0.0
 10
-403.3909653769429
 20
394.3566096949903
 30
0.0
 10
-403.1123586007471
 20
394.1691677404949
 30
0.0
 10
-402.7902695297297
 20
393.8854542461581
 30
0.0
 10
-402.4263393919165
 20
393.4812622325208
 30
0.0
 10
-401.9785708474122
 20
392.8637198547909
 30
0.0
 10
-401.5108198857901
 20
392.0872545865604
 30
0.0
 10
-401.018705500554
 20
391.1293995613322
 30
0.0
 10
-400.3744942995996
 20
389.6991887924679
 30
0.0
 10
-399.5811759786301
 20
387.6204747317299
 30
0.0
 10
-398.6426463636939
 20
384.6808946471552
 30
0.0
 10
-397.7151501933672
 20
381.3034419410829
 30
0.0
 10
-396.5969180986225
 20
376.7034373983739
 30
0.0
 10
-395.2872309938779
 20
370.5143265218746
 30
0.0
 10
-393.794625573691
 20
362.330056352558
 30
0.0
 10
-392.292354754568
 20
353.0902134373065
 30
0.0
 10
-390.7974010964928
 20
342.8466148864225
 30
0.0
 10
-389.2944337552741
 20
331.6660655963267
 30
0.0
 10
-387.7963571664645
 20
319.6125169807192
 30
0.0
 10
-386.2952778412513
 20
306.7605173216522
 30
0.0
 10
-384.7933327623579
 20
293.1876193775741
 30
0.0
 10
-383.2951474656361
 20
278.972794045042
 30
0.0
 10
-381.7906098734849
 20
264.2063329595491
 30
0.0
 10
-380.2938545942229
 20
248.969296008587
 30
0.0
 10
-378.7885297426246
 20
233.3612565584664
 30
0.0
 10
-377.2912774492507
 20
217.4666749550702
 30
0.0
 10
-375.7869881950962
 20
201.3884528194238
 30
0.0
 10
-374.2873118629485
 20
185.2165108760817
 30
0.0
 10
-372.7856623152787
 20
169.0510460651248
 30
0.0
 10
-371.2825623170477
 20
152.9887318396333
 30
0.0
 10
-369.7839559671186
 20
137.1225841660529
 30
0.0
 10
-368.2785990382049
 20
121.5531321342675
 30
0.0
 10
-366.7812609530596
 20
106.365435901864
 30
0.0
 10
-365.2753091703136
 20
91.6585348464495
 30
0.0
 10
-363.7771734115631
 20
77.51202625525863
 30
0.0
 10
-362.2722748929102
 20
64.01668956132575
 30
0.0
 10
-360.7712708006675
 20
51.24883889435875
 30
0.0
 10
-359.2687102613928
 20
39.28564307779331
 30
0.0
 10
-357.7637205458535
 20
28.19986363684782
 30
0.0
 10
-356.2630692006861
 20
18.05296640065129
 30
0.0
 10
-354.7544624523886
 20
8.9095831276301
 30
0.0
 10
-353.2522944827513
 20
0.8171177016332021
 30
0.0
 10
-351.9283219405578
 20
-5.301735468541569
 30
0.0
 10
-350.7938687265476
 20
-9.853233323108945
 30
0.0
 10
-349.8410146664344
 20
-13.21672941742916
 30
0.0
 10
-348.8655403217742
 20
-16.15917056168031
 30
0.0
 10
-348.0289193729512
 20
-18.25099651769058
 30
0.0
 10
-347.3538712079264
 20
-19.66910100279773
 30
0.0
 10
-346.8332714280408
 20
-20.62649107689437
 30
0.0
 10
-346.280669239346
 20
-21.4919803083595
 30
0.0
 10
-345.7637774444859
 20
-22.15152631079631
 30
0.0
 10
-345.3005491297972
 20
-22.62981224168306
 30
0.0
 10
-344.9008478123872
 20
-22.97556416306881
 30
0.0
 10
-344.3794665781531
 20
-23.32568143214714
 30
0.0
 10
-343.7012191315245
 20
-23.62503622389128
 30
0.0
 10
-343.2100124754466
 20
-23.66560927469977
 30
0.0
 10
-342.9430255172437
 20
-23.68766206100944
 30
0.0
  0
SPLINE
  5
161
330
1F
100
AcDbEntity
  8
0
100
AcDbSpline
210
0.0
220
0.0
230
1.0
 70
     8
 71
     3
 72
    63
 73
    59
 74
     0
 42
0.00000001
 43
0.00000001
 40
0.0
 40
0.0
 40
0.0
 40
0.0
 40
0.0096737712780346
 40
0.0173974949427976
 40
0.0231987295057204
 40
0.0283441428599252
 40
0.0364310791222928
 40
0.0443884700909848
 40
0.0531954296544412
 40
0.0615363062785375
 40
0.070001676102882
 40
0.0859701146505319
 40
0.1014339032855057
 40
0.1167875803754569
 40
0.1321550359415422
 40
0.1567489896730737
 40
0.1813290573425413
 40
0.2059317164809474
 40
0.2305177218207728
 40
0.2551231341594684
 40
0.2797180000146308
 40
0.3043212779837384
 40
0.3289274536460287
 40
0.3535247778434668
 40
0.378137848122401
 40
0.4027335661775328
 40
0.4273498115946559
 40
0.4519481398202865
 40
0.4765641017344178
 40
0.5011700300652503
 40
0.5257816899874831
 40
0.5503974237715282
 40
0.5750026697600934
 40
0.5996245524106468
 40
0.6242285583398928
 40
0.6488532756701151
 40
0.6734607691880915
 40
0.6980852769180886
 40
0.7227014963449401
 40
0.7473221960808134
 40
0.7719495534170708
 40
0.7965665386191164
 40
0.8212026369082592
 40
0.8458227200885674
 40
0.8704668722450134
 40
0.8858670756541003
 40
0.9012647430172663
 40
0.9169484778709043
 40
0.9330010320821097
 40
0.9413519688984401
 40
0.9489385550208363
 40
0.9572287865390551
 40
0.9662189046759795
 40
0.9716078852252847
 40
0.9768246249077336
 40
0.9830679203679744
 40
0.9907968583465481
 40
1.0
 40
1.0
 40
1.0
 40
1.0
 10
-281.9430255172439
 20
394.5123379388899
 30
0.0
 10
-281.8358203672953
 20
394.5004576092473
 30
0.0
 10
-281.6430205790362
 20
394.4790917976176
 30
0.0
 10
-281.3909653769433
 20
394.3566096949904
 30
0.0
 10
-281.1123586007475
 20
394.1691677404949
 30
0.0
 10
-280.7902695297299
 20
393.8854542461581
 30
0.0
 10
-280.4263393919169
 20
393.4812622325209
 30
0.0
 10
-279.9785708474125
 20
392.8637198547909
 30
0.0
 10
-279.5108198857902
 20
392.0872545865604
 30
0.0
 10
-279.0187055005543
 20
391.1293995613323
 30
0.0
 10
-278.3744942995998
 20
389.6991887924679
 30
0.0
 10
-277.5811759786303
 20
387.62047473173
 30
0.0
 10
-276.642646363694
 20
384.6808946471553
 30
0.0
 10
-275.7151501933675
 20
381.3034419410828
 30
0.0
 10
-274.5969180986227
 20
376.7034373983738
 30
0.0
 10
-273.2872309938782
 20
370.5143265218748
 30
0.0
 10
-271.7946255736915
 20
362.3300563525582
 30
0.0
 10
-270.2923547545683
 20
353.0902134373067
 30
0.0
 10
-268.797401096493
 20
342.8466148864226
 30
0.0
 10
-267.2944337552744
 20
331.6660655963268
 30
0.0
 10
-265.7963571664648
 20
319.6125169807192
 30
0.0
 10
-264.2952778412516
 20
306.7605173216524
 30
0.0
 10
-262.7933327623584
 20
293.1876193775744
 30
0.0
 10
-261.2951474656364
 20
278.9727940450424
 30
0.0
 10
-259.7906098734852
 20
264.2063329595494
 30
0.0
 10
-258.2938545942231
 20
248.9692960085872
 30
0.0
 10
-256.7885297426248
 20
233.3612565584665
 30
0.0
 10
-255.2912774492509
 20
217.4666749550702
 30
0.0
 10
-253.7869881950964
 20
201.3884528194241
 30
0.0
 10
-252.2873118629487
 20
185.2165108760817
 30
0.0
 10
-250.7856623152788
 20
169.0510460651245
 30
0.0
 10
-249.282562317048
 20
152.9887318396327
 30
0.0
 10
-247.7839559671187
 20
137.1225841660525
 30
0.0
 10
-246.2785990382052
 20
121.5531321342672
 30
0.0
 10
-244.7812609530599
 20
106.365435901864
 30
0.0
 10
-243.275309170314
 20
91.65853484644931
 30
0.0
 10
-241.7771734115633
 20
77.51202625525865
 30
0.0
 10
-240.2722748929106
 20
64.0166895613259
 30
0.0
 10
-238.771270800668
 20
51.24883889435916
 30
0.0
 10
-237.2687102613929
 20
39.28564307779359
 30
0.0
 10
-235.7637205458537
 20
28.19986363684795
 30
0.0
 10
-234.2630692006863
 20
18.05296640065115
 30
0.0
 10
-232.7544624523888
 20
8.909583127630128
 30
0.0
 10
-231.2522944827518
 20
0.8171177016333686
 30
0.0
 10
-229.9283219405579
 20
-5.301735468541457
 30
0.0
 10
-228.7938687265481
 20
-9.853233323108807
 30
0.0
 10
-227.8410146664344
 20
-13.2167294174293
 30
0.0
 10
-226.8655403217745
 20
-16.15917056168029
 30
0.0
 10
-226.0289193729514
 20
-18.25099651769072
 30
0.0
 10
-225.3538712079267
 20
-19.6691010027977
 30
0.0
 10
-224.8332714280411
 20
-20.62649107689435
 30
0.0
 10
-224.2806692393463
 20
-21.49198030835942
 30
0.0
 10
-223.7637774444863
 20
-22.15152631079614
 30
0.0
 10
-223.3005491297975
 20
-22.62981224168314
 30
0.0
 10
-222.9008478123874
 20
-22.97556416306876
 30
0.0
 10
-222.3794665781535
 20
-23.32568143214711
 30
0.0
 10
-221.7012191315247
 20
-23.62503622389125
 30
0.0
 10
-221.2100124754468
 20
-23.66560927469977
 30
0.0
 10
-220.943025517244
 20
-23.68766206100944
 30
0.0
  0
SPLINE
  5
162
330
1F
100
AcDbEntity
  8
0
100
AcDbSpline
210
0.0
220
0.0
230
1.0
 70
     8
 71
     3
 72
    63
 73
    59
 74
     0
 42
0.00000001
 43
0.00000001
 40
0.0
 40
0.0
 40
0.0
 40
0.0
 40
0.0096737712780346
 40
0.0173974949427986
 40
0.0231987295057214
 40
0.0283441428599252
 40
0.0364310791222918
 40
0.0443884700909838
 40
0.0531954296544421
 40
0.0615363062785365
 40
0.0700016761028819
 40
0.0859701146505319
 40
0.1014339032855056
 40
0.1167875803754559
 40
0.1321550359415401
 40
0.1567489896730747
 40
0.1813290573425423
 40
0.2059317164809464
 40
0.2305177218207757
 40
0.2551231341594693
 40
0.2797180000146297
 40
0.3043212779837394
 40
0.3289274536460286
 40
0.3535247778434666
 40
0.3781378481223999
 40
0.4027335661775327
 40
0.4273498115946557
 40
0.4519481398202864
 40
0.4765641017344176
 40
0.5011700300652491
 40
0.5257816899874839
 40
0.550397423771527
 40
0.5750026697600912
 40
0.5996245524106476
 40
0.6242285583398924
 40
0.6488532756701139
 40
0.6734607691880913
 40
0.6980852769180884
 40
0.7227014963449407
 40
0.7473221960808121
 40
0.7719495534170714
 40
0.796566538619117
 40
0.8212026369082578
 40
0.8458227200885681
 40
0.8704668722450138
 40
0.8858670756540997
 40
0.9012647430172668
 40
0.9169484778709027
 40
0.9330010320821093
 40
0.9413519688984406
 40
0.948938555020836
 40
0.9572287865390559
 40
0.9662189046759783
 40
0.9716078852252836
 40
0.9768246249077335
 40
0.9830679203679753
 40
0.990796858346548
 40
1.0
 40
1.0
 40
1.0
 40
1.0
 10
-159.9430255172442
 20
394.5123379388899
 30
0.0
 10
-159.8358203672955
 20
394.5004576092473
 30
0.0
 10
-159.6430205790363
 20
394.4790917976176
 30
0.0
 10
-159.3909653769435
 20
394.3566096949904
 30
0.0
 10
-159.1123586007477
 20
394.1691677404948
 30
0.0
 10
-158.7902695297301
 20
393.8854542461581
 30
0.0
 10
-158.4263393919171
 20
393.4812622325209
 30
0.0
 10
-157.9785708474127
 20
392.863719854791
 30
0.0
 10
-157.5108198857907
 20
392.0872545865603
 30
0.0
 10
-157.0187055005545
 20
391.1293995613324
 30
0.0
 10
-156.3744942996004
 20
389.6991887924678
 30
0.0
 10
-155.5811759786305
 20
387.6204747317301
 30
0.0
 10
-154.6426463636944
 20
384.6808946471553
 30
0.0
 10
-153.7151501933678
 20
381.303441941083
 30
0.0
 10
-152.596918098623
 20
376.7034373983741
 30
0.0
 10
-151.2872309938785
 20
370.5143265218746
 30
0.0
 10
-149.7946255736916
 20
362.3300563525581
 30
0.0
 10
-148.2923547545685
 20
353.0902134373064
 30
0.0
 10
-146.7974010964929
 20
342.8466148864222
 30
0.0
 10
-145.2944337552747
 20
331.6660655963263
 30
0.0
 10
-143.7963571664649
 20
319.612516980719
 30
0.0
 10
-142.2952778412519
 20
306.7605173216524
 30
0.0
 10
-140.7933327623585
 20
293.1876193775742
 30
0.0
 10
-139.2951474656367
 20
278.9727940450426
 30
0.0
 10
-137.7906098734855
 20
264.2063329595495
 30
0.0
 10
-136.2938545942234
 20
248.9692960085874
 30
0.0
 10
-134.7885297426252
 20
233.3612565584665
 30
0.0
 10
-133.2912774492514
 20
217.4666749550703
 30
0.0
 10
-131.7869881950967
 20
201.3884528194243
 30
0.0
 10
-130.2873118629493
 20
185.2165108760817
 30
0.0
 10
-128.7856623152792
 20
169.0510460651247
 30
0.0
 10
-127.2825623170481
 20
152.9887318396332
 30
0.0
 10
-125.7839559671193
 20
137.1225841660529
 30
0.0
 10
-124.2785990382054
 20
121.5531321342675
 30
0.0
 10
-122.7812609530603
 20
106.3654359018639
 30
0.0
 10
-121.2753091703144
 20
91.65853484644958
 30
0.0
 10
-119.7771734115637
 20
77.51202625525876
 30
0.0
 10
-118.2722748929108
 20
64.0166895613258
 30
0.0
 10
-116.7712708006682
 20
51.2488388943591
 30
0.0
 10
-115.2687102613934
 20
39.28564307779353
 30
0.0
 10
-113.7637205458541
 20
28.19986363684771
 30
0.0
 10
-112.2630692006867
 20
18.05296640065118
 30
0.0
 10
-110.7544624523892
 20
8.909583127629933
 30
0.0
 10
-109.2522944827518
 20
0.8171177016332853
 30
0.0
 10
-107.9283219405585
 20
-5.301735468541569
 30
0.0
 10
-106.7938687265481
 20
-9.853233323109
 30
0.0
 10
-105.8410146664349
 20
-13.21672941742921
 30
0.0
 10
-104.8655403217749
 20
-16.15917056168029
 30
0.0
 10
-104.0289193729516
 20
-18.25099651769074
 30
0.0
 10
-103.353871207927
 20
-19.6691010027977
 30
0.0
 10
-102.8332714280413
 20
-20.62649107689446
 30
0.0
 10
-102.2806692393465
 20
-21.49198030835944
 30
0.0
 10
-101.7637774444863
 20
-22.15152631079639
 30
0.0
 10
-101.3005491297979
 20
-22.62981224168301
 30
0.0
 10
-100.9008478123878
 20
-22.97556416306887
 30
0.0
 10
-100.3794665781536
 20
-23.32568143214714
 30
0.0
 10
-99.70121913152508
 20
-23.62503622389123
 30
0.0
 10
-99.21001247544714
 20
-23.66560927469979
 30
0.0
 10
-98.94302551724427
 20
-23.68766206100944
 30
0.0
  0
SPLINE
  5
163
330
1F
100
AcDbEntity
  8
0
100
AcDbSpline
210
0.0
220
0.0
230
1.0
 70
     8
 71
     3
 72
    63
 73
    59
 74
     0
 42
0.00000001
 43
0.00000001
 40
0.0
 40
0.0
 40
0.0
 40
0.0
 40
0.0096737712780326
 40
0.0173974949427956
 40
0.0231987295057184
 40
0.0283441428599242
 40
0.0364310791222918
 40
0.0443884700909838
 40
0.0531954296544422
 40
0.0615363062785365
 40
0.070001676102882
 40
0.0859701146505309
 40
0.1014339032855037
 40
0.1167875803754561
 40
0.1321550359415419
 40
0.1567489896730724
 40
0.1813290573425411
 40
0.2059317164809477
 40
0.2305177218207728
 40
0.2551231341594684
 40
0.2797180000146288
 40
0.3043212779837405
 40
0.3289274536460268
 40
0.3535247778434678
 40
0.378137848122401
 40
0.4027335661775326
 40
0.4273498115946551
 40
0.4519481398202864
 40
0.4765641017344177
 40
0.5011700300652512
 40
0.525781689987482
 40
0.550397423771525
 40
0.57500266976009
 40
0.5996245524106473
 40
0.6242285583398932
 40
0.6488532756701152
 40
0.6734607691880913
 40
0.6980852769180883
 40
0.7227014963449407
 40
0.7473221960808131
 40
0.7719495534170744
 40
0.7965665386191141
 40
0.8212026369082579
 40
0.8458227200885668
 40
0.8704668722450143
 40
0.8858670756541018
 40
0.9012647430172669
 40
0.9169484778709028
 40
0.9330010320821074
 40
0.9413519688984407
 40
0.9489385550208341
 40
0.957228786539054
 40
0.9662189046759785
 40
0.9716078852252817
 40
0.9768246249077336
 40
0.9830679203679734
 40
0.9907968583465471
 40
1.0
 40
1.0
 40
1.0
 40
1.0
 10
-37.94302551724444
 20
394.5123379388899
 30
0.0
 10
-37.83582036729602
 20
394.5004576092472
 30
0.0
 10
-37.64302057903712
 20
394.4790917976175
 30
0.0
 10
-37.390965376944
 20
394.3566096949905
 30
0.0
 10
-37.11235860074838
 20
394.1691677404948
 30
0.0
 10
-36.79026952973039
 20
393.8854542461582
 30
0.0
 10
-36.4263393919175
 20
393.4812622325209
 30
0.0
 10
-35.97857084741299
 20
392.8637198547909
 30
0.0
 10
-35.51081988579089
 20
392.0872545865602
 30
0.0
 10
-35.018705500555
 20
391.1293995613324
 30
0.0
 10
-34.37449429960041
 20
389.699188792468
 30
0.0
 10
-33.58117597863111
 20
387.6204747317301
 30
0.0
 10
-32.64264636369435
 20
384.6808946471557
 30
0.0
 10
-31.71515019336846
 20
381.303441941083
 30
0.0
 10
-30.59691809862336
 20
376.703437398374
 30
0.0
 10
-29.28723099387881
 20
370.5143265218749
 30
0.0
 10
-27.79462557369192
 20
362.3300563525584
 30
0.0
 10
-26.29235475456881
 20
353.0902134373067
 30
0.0
 10
-24.79740109649353
 20
342.8466148864226
 30
0.0
 10
-23.29443375527504
 20
331.6660655963271
 30
0.0
 10
-21.79635716646544
 20
319.6125169807191
 30
0.0
 10
-20.29527784125243
 20
306.7605173216527
 30
0.0
 10
-18.79333276235878
 20
293.1876193775742
 30
0.0
 10
-17.29514746563712
 20
278.9727940450426
 30
0.0
 10
-15.79060987348563
 20
264.2063329595492
 30
0.0
 10
-14.29385459422389
 20
248.9692960085874
 30
0.0
 10
-12.78852974262545
 20
233.3612565584667
 30
0.0
 10
-11.29127744925174
 20
217.4666749550704
 30
0.0
 10
-9.786988195096852
 20
201.3884528194239
 30
0.0
 10
-8.287311862949675
 20
185.2165108760817
 30
0.0
 10
-6.785662315279523
 20
169.0510460651252
 30
0.0
 10
-5.282562317048544
 20
152.9887318396342
 30
0.0
 10
-3.783955967119529
 20
137.1225841660537
 30
0.0
 10
-2.278599038205598
 20
121.5531321342676
 30
0.0
 10
-0.7812609530604697
 20
106.3654359018636
 30
0.0
 10
0.7246908296852095
 20
91.65853484644917
 30
0.0
 10
2.222826588436255
 20
77.51202625525863
 30
0.0
 10
3.727725107088797
 20
64.01668956132566
 30
0.0
 10
5.228729199331511
 20
51.248838894359
 30
0.0
 10
6.731289738606677
 20
39.28564307779281
 30
0.0
 10
8.236279454145595
 20
28.19986363684762
 30
0.0
 10
9.736930799313065
 20
18.0529664006511
 30
0.0
 10
11.24553754761046
 20
8.909583127630489
 30
0.0
 10
12.74770551724774
 20
0.8171177016332853
 30
0.0
 10
14.0716780594414
 20
-5.301735468541735
 30
0.0
 10
15.20613127345161
 20
-9.853233323109222
 30
0.0
 10
16.15898533356508
 20
-13.21672941742935
 30
0.0
 10
17.13445967822477
 20
-16.15917056168009
 30
0.0
 10
17.97108062704816
 20
-18.25099651769069
 30
0.0
 10
18.6461287920727
 20
-19.66910100279762
 30
0.0
 10
19.16672857195831
 20
-20.62649107689413
 30
0.0
 10
19.71933076065305
 20
-21.4919803083595
 30
0.0
 10
20.23622255551344
 20
-22.15152631079611
 30
0.0
 10
20.69945087020167
 20
-22.62981224168306
 30
0.0
 10
21.09915218761213
 20
-22.97556416306873
 30
0.0
 10
21.62053342184605
 20
-23.32568143214719
 30
0.0
 10
22.29878086847481
 20
-23.62503622389123
 30
0.0
 10
22.78998752455261
 20
-23.66560927469974
 30
0.0
 10
23.05697448275545
 20
-23.68766206100944
 30
0.0
  0
SPLINE
  5
164
330
1F
100
AcDbEntity
  8
0
100
AcDbSpline
210
0.0
220
0.0
230
1.0
 70
     8
 71
     3
 72
    14
 73
    10
 74
     0
 42
0.00000001
 43
0.00000001
 40
0.0
 40
0.0
 40
0.0
 40
0.0
 40
0.175992833984437
 40
0.3425743577257672
 40
0.5007940822247244
 40
0.6550170253350985
 40
0.8055939675803276
 40
0.9367630410928278
 40
1.0
 40
1.0
 40
1.0
 40
1.0
 10
-281.9430255172438
 20
396.4123379388894
 30
0.0
 10
-282.1731953777524
 20
396.3949604074674
 30
0.0
 10
-282.621226643267
 20
396.361134617343
 30
0.0
 10
-283.2085838167272
 20
396.1284757357845
 30
0.0
 10
-283.6624773611209
 20
395.8710677464201
 30
0.0
 10
-284.1089449802718
 20
395.5317767550488
 30
0.0
 10
-284.5161352342794
 20
395.1392818241721
 30
0.0
 10
-284.8341338806157
 20
394.7825904771786
 30
0.0
 10
-285.0183885603515
 20
394.5409420433879
 30
0.0
 10
-285.0783234577714
 20
394.46233793894
 30
0.0
  0
SPLINE
  5
165
330
1F
100
AcDbEntity
  8
0
100
AcDbSpline
210
0.0
220
0.0
230
1.0
 70
     8
 71
     3
 72
    14
 73
    10
 74
     0
 42
0.00000001
 43
0.00000001
 40
0.0
 40
0.0
 40
0.0
 40
0.0
 40
0.1759928339844619
 40
0.3425743577257931
 40
0.500794082224751
 40
0.655017025335125
 40
0.8055939675803543
 40
0.9367630410928294
 40
1.0
 40
1.0
 40
1.0
 40
1.0
 10
-159.9430255172441
 20
396.4123379388894
 30
0.0
 10
-160.1731953777526
 20
396.3949604074674
 30
0.0
 10
-160.6212266432671
 20
396.3611346173431
 30
0.0
 10
-161.2085838167276
 20
396.1284757357843
 30
0.0
 10
-161.6624773611214
 20
395.8710677464201
 30
0.0
 10
-162.1089449802721
 20
395.5317767550488
 30
0.0
 10
-162.5161352342798
 20
395.1392818241721
 30
0.0
 10
-162.834133880616
 20
394.7825904771785
 30
0.0
 10
-163.0183885603517
 20
394.5409420433879
 30
0.0
 10
-163.0783234577717
 20
394.46233793894
 30
0.0
  0
SPLINE
  5
166
330
1F
100
AcDbEntity
  8
0
100
AcDbSpline
210
0.0
220
0.0
230
1.0
 70
     8
 71
     3
 72
    14
 73
    10
 74
     0
 42
0.00000001
 43
0.00000001
 40
0.0
 40
0.0
 40
0.0
 40
0.0
 40
0.1759928339844618
 40
0.3425743577257909
 40
0.500794082224748
 40
0.655017025335121
 40
0.8055939675803748
 40
0.9367630410928491
 40
1.0
 40
1.0
 40
1.0
 40
1.0
 10
-37.94302551724438
 20
396.4123379388894
 30
0.0
 10
-38.17319537775302
 20
396.3949604074674
 30
0.0
 10
-38.62122664326764
 20
396.3611346173431
 30
0.0
 10
-39.20858381672776
 20
396.1284757357844
 30
0.0
 10
-39.66247736112172
 20
395.8710677464201
 30
0.0
 10
-40.10894498027231
 20
395.5317767550489
 30
0.0
 10
-40.51613523428021
 20
395.139281824172
 30
0.0
 10
-40.83413388061633
 20
394.7825904771787
 30
0.0
 10
-41.01838856035214
 20
394.5409420433879
 30
0.0
 10
-41.07832345777218
 20
394.46233793894
 30
0.0
  0
SPLINE
  5
167
330
1F
100
AcDbEntity
  8
0
100
AcDbSpline
210
0.0
220
0.0
230
1.0
 70
     8
 71
     3
 72
    14
 73
    10
 74
     0
 42
0.00000001
 43
0.00000001
 40
0.0
 40
0.0
 40
0.0
 40
0.0
 40
0.1759928339844487
 40
0.342574357725791
 40
0.5007940822247479
 40
0.6550170253351212
 40
0.805593967580337
 40
0.9367630410928368
 40
1.0
 40
1.0
 40
1.0
 40
1.0
 10
-403.9430255172435
 20
396.4123379388894
 30
0.0
 10
-404.1731953777521
 20
396.3949604074674
 30
0.0
 10
-404.6212266432667
 20
396.361134617343
 30
0.0
 10
-405.2085838167269
 20
396.1284757357843
 30
0.0
 10
-405.6624773611208
 20
395.8710677464201
 30
0.0
 10
-406.1089449802715
 20
395.5317767550488
 30
0.0
 10
-406.5161352342792
 20
395.1392818241721
 30
0.0
 10
-406.8341338806155
 20
394.7825904771786
 30
0.0
 10
-407.0183885603512
 20
394.5409420433879
 30
0.0
 10
-407.0783234577711
 20
394.46233793894
 30
0.0
  0
LINE
  5
168
330
1F
100
AcDbEntity
  8
0
100
AcDbLine
 10
-525.9430255172
 20
396.4123379389
 30
0.0
 11
-526.8913757409
 21
396.2100653166
 31
0.0
  0
SPLINE
  5
169
330
1F
100
AcDbEntity
  8
0
100
AcDbSpline
210
0.0
220
0.0
230
1.0
 70
     8
 71
     3
 72
    63
 73
    59
 74
     0
 42
0.00000001
 43
0.00000001
 40
0.0
 40
0.0
 40
0.0
 40
0.0
 40
0.0096737712780354
 40
0.0173974949427986
 40
0.023198729505721
 40
0.0283441428599258
 40
0.036431079122293
 40
0.044388470090984
 40
0.0531954296544416
 40
0.061536306278537
 40
0.0700016761028833
 40
0.0859701146505323
 40
0.1014339032855059
 40
0.1167875803754569
 40
0.1321550359415412
 40
0.1567489896730752
 40
0.1813290573425418
 40
0.2059317164809474
 40
0.2305177218207741
 40
0.2551231341594694
 40
0.2797180000146304
 40
0.3043212779837388
 40
0.3289274536460293
 40
0.3535247778434668
 40
0.3781378481224015
 40
0.4027335661775338
 40
0.4273498115946561
 40
0.451948139820286
 40
0.4765641017344178
 40
0.5011700300652503
 40
0.5257816899874828
 40
0.5503974237715277
 40
0.5750026697600934
 40
0.5996245524106474
 40
0.6242285583398925
 40
0.6488532756701147
 40
0.6734607691880911
 40
0.6980852769180886
 40
0.7227014963449411
 40
0.7473221960808136
 40
0.7719495534170722
 40
0.7965665386191174
 40
0.8212026369082587
 40
0.8458227200885687
 40
0.8704668722450134
 40
0.8858670756541006
 40
0.9012647430172672
 40
0.9169484778709036
 40
0.9330010320821095
 40
0.9413519688984404
 40
0.9489385550208363
 40
0.9572287865390561
 40
0.9662189046759786
 40
0.9716078852252839
 40
0.9768246249077333
 40
0.9830679203679753
 40
0.9907968583465484
 40
1.0
 40
1.0
 40
1.0
 40
1.0
 10
-525.9430255172433
 20
394.5123379388899
 30
0.0
 10
-525.8358203672947
 20
394.5004576092472
 30
0.0
 10
-525.6430205790355
 20
394.4790917976175
 30
0.0
 10
-525.3909653769429
 20
394.3566096949904
 30
0.0
 10
-525.1123586007467
 20
394.1691677404949
 30
0.0
 10
-524.7902695297294
 20
393.885454246158
 30
0.0
 10
-524.4263393919161
 20
393.4812622325208
 30
0.0
 10
-523.9785708474118
 20
392.8637198547908
 30
0.0
 10
-523.5108198857898
 20
392.0872545865604
 30
0.0
 10
-523.0187055005538
 20
391.1293995613322
 30
0.0
 10
-522.3744942995994
 20
389.6991887924678
 30
0.0
 10
-521.5811759786297
 20
387.6204747317299
 30
0.0
 10
-520.6426463636935
 20
384.6808946471552
 30
0.0
 10
-519.715150193367
 20
381.303441941083
 30
0.0
 10
-518.5969180986223
 20
376.7034373983738
 30
0.0
 10
-517.2872309938774
 20
370.5143265218746
 30
0.0
 10
-515.794625573691
 20
362.330056352558
 30
0.0
 10
-514.2923547545676
 20
353.0902134373065
 30
0.0
 10
-512.7974010964924
 20
342.8466148864223
 30
0.0
 10
-511.2944337552737
 20
331.6660655963266
 30
0.0
 10
-509.7963571664643
 20
319.612516980719
 30
0.0
 10
-508.2952778412508
 20
306.7605173216523
 30
0.0
 10
-506.7933327623578
 20
293.1876193775743
 30
0.0
 10
-505.2951474656359
 20
278.9727940450422
 30
0.0
 10
-503.7906098734846
 20
264.2063329595491
 30
0.0
 10
-502.2938545942226
 20
248.9692960085869
 30
0.0
 10
-500.7885297426242
 20
233.3612565584664
 30
0.0
 10
-499.2912774492505
 20
217.4666749550703
 30
0.0
 10
-497.7869881950959
 20
201.3884528194242
 30
0.0
 10
-496.2873118629482
 20
185.2165108760818
 30
0.0
 10
-494.7856623152784
 20
169.0510460651246
 30
0.0
 10
-493.2825623170473
 20
152.988731839633
 30
0.0
 10
-491.7839559671182
 20
137.1225841660524
 30
0.0
 10
-490.2785990382047
 20
121.5531321342672
 30
0.0
 10
-488.7812609530594
 20
106.3654359018639
 30
0.0
 10
-487.2753091703133
 20
91.65853484644956
 30
0.0
 10
-485.777173411563
 20
77.51202625525885
 30
0.0
 10
-484.2722748929099
 20
64.01668956132579
 30
0.0
 10
-482.7712708006674
 20
51.24883889435897
 30
0.0
 10
-481.2687102613924
 20
39.28564307779322
 30
0.0
 10
-479.7637205458531
 20
28.19986363684745
 30
0.0
 10
-478.2630692006858
 20
18.05296640065102
 30
0.0
 10
-476.7544624523881
 20
8.909583127629878
 30
0.0
 10
-475.2522944827512
 20
0.8171177016332853
 30
0.0
 10
-473.9283219405575
 20
-5.301735468541569
 30
0.0
 10
-472.7938687265473
 20
-9.853233323108974
 30
0.0
 10
-471.8410146664341
 20
-13.21672941742924
 30
0.0
 10
-470.8655403217738
 20
-16.15917056168034
 30
0.0
 10
-470.0289193729508
 20
-18.25099651769069
 30
0.0
 10
-469.3538712079261
 20
-19.66910100279781
 30
0.0
 10
-468.8332714280406
 20
-20.62649107689432
 30
0.0
 10
-468.2806692393457
 20
-21.49198030835947
 30
0.0
 10
-467.7637774444856
 20
-22.15152631079625
 30
0.0
 10
-467.3005491297969
 20
-22.62981224168314
 30
0.0
 10
-466.9008478123869
 20
-22.97556416306884
 30
0.0
 10
-466.3794665781527
 20
-23.32568143214705
 30
0.0
 10
-465.7012191315242
 20
-23.62503622389128
 30
0.0
 10
-465.2100124754464
 20
-23.66560927469979
 30
0.0
 10
-464.9430255172434
 20
-23.68766206100947
 30
0.0
  0
LINE
  5
16A
330
1F
100
AcDbEntity
  8
0
100
AcDbLine
 10
-522.0501399182
 20
396.4123379389
 30
0.0
 11
-525.9430390927
 21
396.4123379389
 31
0.0
  0
LINE
  5
16B
330
1F
100
AcDbEntity
  8
0
100
AcDbLine
 10
-400.0501399182
 20
396.4123379389
 30
0.0
 11
-403.9430390927
 21
396.4123379389
 31
0.0
  0
LINE
  5
16C
330
1F
100
AcDbEntity
  8
0
100
AcDbLine
 10
-278.0501399182
 20
396.4123379389
 30
0.0
 11
-281.9430390927
 21
396.4123379389
 31
0.0
  0
LINE
  5
16D
330
1F
100
AcDbEntity
  8
0
100
AcDbLine
 10
-156.0501399182
 20
396.4123379389
 30
0.0
 11
-159.9430390927
 21
396.4123379389
 31
0.0
  0
LINE
  5
16E
330
1F
100
AcDbEntity
  8
0
100
AcDbLine
 10
-34.0501399182
 20
396.4123379389
 30
0.0
 11
-37.9430390927
 21
396.4123379389
 31
0.0
  0
LINE
  5
16F
330
1F
100
AcDbEntity
  8
0
100
AcDbLine
 10
23.0569609073
 20
-23.6876620611
 30
0.0
 11
26.9498600818
 21
-23.6876620611
 31
0.0
  0
LINE
  5
170
330
1F
100
AcDbEntity
  8
0
100
AcDbLine
 10
-98.9430390927
 20
-23.6876620611
 30
0.0
 11
-95.0501399182
 21
-23.6876620611
 31
0.0
  0
LINE
  5
171
330
1F
100
AcDbEntity
  8
0
100
AcDbLine
 10
-220.9430390927
 20
-23.6876620611
 30
0.0
 11
-217.0501399182
 21
-23.6876620611
 31
0.0
  0
LINE
  5
172
330
1F
100
AcDbEntity
  8
0
100
AcDbLine
 10
-342.9430390927
 20
-23.6876620611
 30
0.0
 11
-339.0501399182
 21
-23.6876620611
 31
0.0
  0
LINE
  5
173
330
1F
100
AcDbEntity
  8
0
100
AcDbLine
 10
-464.9430390927
 20
-23.6876620611
 30
0.0
 11
-461.0501399182
 21
-23.6876620611
 31
0.0
  0
SPLINE
  5
174
330
1F
100
AcDbEntity
  8
0
100
AcDbSpline
210
0.0
220
0.0
230
1.0
 70
     8
 71
     3
 72
     9
 73
     5
 74
     0
 42
0.00000001
 43
0.00000001
 40
0.0
 40
0.0
 40
0.0
 40
0.0
 40
0.9216249688314238
 40
1.0
 40
1.0
 40
1.0
 40
1.0
 10
-337.0807065561297
 20
-22.72029583337429
 30
0.0
 10
-336.7775386630312
 20
-22.41841949251136
 30
0.0
 10
-336.4485893578893
 20
-22.09087157326861
 30
0.0
 10
-336.1196311186926
 20
-21.76333291371171
 30
0.0
 10
-336.0938490064424
 20
-21.73766206106009
 30
0.0
  0
SPLINE
  5
175
330
1F
100
AcDbEntity
  8
0
100
AcDbSpline
210
0.0
220
0.0
230
1.0
 70
     8
 71
     3
 72
     9
 73
     5
 74
     0
 42
0.00000001
 43
0.00000001
 40
0.0
 40
0.0
 40
0.0
 40
0.0
 40
0.9216249688314931
 40
1.0
 40
1.0
 40
1.0
 40
1.0
 10
-215.0807065561299
 20
-22.72029583337429
 30
0.0
 10
-214.7775386630314
 20
-22.4184194925113
 30
0.0
 10
-214.4485893578895
 20
-22.09087157326847
 30
0.0
 10
-214.1196311186929
 20
-21.76333291371171
 30
0.0
 10
-214.0938490064427
 20
-21.73766206106009
 30
0.0
  0
SPLINE
  5
176
330
1F
100
AcDbEntity
  8
0
100
AcDbSpline
210
0.0
220
0.0
230
1.0
 70
     8
 71
     3
 72
     9
 73
     5
 74
     0
 42
0.00000001
 43
0.00000001
 40
0.0
 40
0.0
 40
0.0
 40
0.0
 40
0.921624968831439
 40
1.0
 40
1.0
 40
1.0
 40
1.0
 10
-93.08070655613021
 20
-22.72029583337429
 30
0.0
 10
-92.7775386630317
 20
-22.41841949251117
 30
0.0
 10
-92.44858935788983
 20
-22.09087157326822
 30
0.0
 10
-92.11963111869315
 20
-21.76333291371177
 30
0.0
 10
-92.09384900644294
 20
-21.73766206106012
 30
0.0
  0
SPLINE
  5
177
330
1F
100
AcDbEntity
  8
0
100
AcDbSpline
210
0.0
220
0.0
230
1.0
 70
     8
 71
     3
 72
     9
 73
     5
 74
     0
 42
0.00000001
 43
0.00000001
 40
0.0
 40
0.0
 40
0.0
 40
0.0
 40
0.9216249688314649
 40
1.0
 40
1.0
 40
1.0
 40
1.0
 10
28.91929344386956
 20
-22.72029583337429
 30
0.0
 10
29.22246133696815
 20
-22.41841949251128
 30
0.0
 10
29.55141064210998
 20
-22.09087157326833
 30
0.0
 10
29.88036888130657
 20
-21.76333291371171
 30
0.0
 10
29.90615099355676
 20
-21.73766206106009
 30
0.0
  0
SPLINE
  5
178
330
1F
100
AcDbEntity
  8
0
100
AcDbSpline
210
0.0
220
0.0
230
1.0
 70
     8
 71
     3
 72
     9
 73
     5
 74
     0
 42
0.00000001
 43
0.00000001
 40
0.0
 40
0.0
 40
0.0
 40
0.0
 40
0.4999954666038438
 40
1.0
 40
1.0
 40
1.0
 40
1.0
 10
-396.2616840456514
 20
393.6337628859094
 30
0.0
 10
-396.5648558321429
 20
393.9356240195766
 30
0.0
 10
-397.1712049027673
 20
394.539351760785
 30
0.0
 10
-397.7775375058448
 20
395.1430965697549
 30
0.0
 10
-398.0807065561295
 20
395.4449717112543
 30
0.0
  0
SPLINE
  5
179
330
1F
100
AcDbEntity
  8
0
100
AcDbSpline
210
0.0
220
0.0
230
1.0
 70
     8
 71
     3
 72
     9
 73
     5
 74
     0
 42
0.00000001
 43
0.00000001
 40
0.0
 40
0.0
 40
0.0
 40
0.0
 40
0.4999954666038476
 40
1.0
 40
1.0
 40
1.0
 40
1.0
 10
-274.2616840456516
 20
393.6337628859094
 30
0.0
 10
-274.5648558321432
 20
393.9356240195766
 30
0.0
 10
-275.1712049027675
 20
394.5393517607849
 30
0.0
 10
-275.7775375058451
 20
395.1430965697549
 30
0.0
 10
-276.0807065561298
 20
395.4449717112543
 30
0.0
  0
SPLINE
  5
17A
330
1F
100
AcDbEntity
  8
0
100
AcDbSpline
210
0.0
220
0.0
230
1.0
 70
     8
 71
     3
 72
     9
 73
     5
 74
     0
 42
0.00000001
 43
0.00000001
 40
0.0
 40
0.0
 40
0.0
 40
0.0
 40
0.4999954666038476
 40
1.0
 40
1.0
 40
1.0
 40
1.0
 10
-152.2616840456519
 20
393.6337628859094
 30
0.0
 10
-152.5648558321435
 20
393.9356240195766
 30
0.0
 10
-153.1712049027678
 20
394.5393517607849
 30
0.0
 10
-153.7775375058454
 20
395.1430965697549
 30
0.0
 10
-154.0807065561301
 20
395.4449717112543
 30
0.0
  0
SPLINE
  5
17B
330
1F
100
AcDbEntity
  8
0
100
AcDbSpline
210
0.0
220
0.0
230
1.0
 70
     8
 71
     3
 72
     9
 73
     5
 74
     0
 42
0.00000001
 43
0.00000001
 40
0.0
 40
0.0
 40
0.0
 40
0.0
 40
0.4999954666039313
 40
1.0
 40
1.0
 40
1.0
 40
1.0
 10
-30.26168404565222
 20
393.6337628859094
 30
0.0
 10
-30.56485583214386
 20
393.9356240195767
 30
0.0
 10
-31.17120490276812
 20
394.5393517607851
 30
0.0
 10
-31.77753750584578
 20
395.1430965697549
 30
0.0
 10
-32.08070655613038
 20
395.4449717112543
 30
0.0
  0
SPLINE
  5
17C
330
1F
100
AcDbEntity
  8
0
100
AcDbSpline
210
0.0
220
0.0
230
1.0
 70
     8
 71
     3
 72
     9
 73
     5
 74
     0
 42
0.00000001
 43
0.00000001
 40
0.0
 40
0.0
 40
0.0
 40
0.0
 40
0.4999954666038322
 40
1.0
 40
1.0
 40
1.0
 40
1.0
 10
-518.2616840456511
 20
393.6337628859094
 30
0.0
 10
-518.5648558321427
 20
393.9356240195766
 30
0.0
 10
-519.171204902767
 20
394.5393517607851
 30
0.0
 10
-519.7775375058444
 20
395.1430965697549
 30
0.0
 10
-520.0807065561293
 20
395.4449717112543
 30
0.0
  0
SPLINE
  5
17D
330
1F
100
AcDbEntity
  8
0
100
AcDbSpline
210
0.0
220
0.0
230
1.0
 70
     8
 71
     3
 72
     9
 73
     5
 74
     0
 42
0.00000001
 43
0.00000001
 40
0.0
 40
0.0
 40
0.0
 40
0.0
 40
0.9216249688314682
 40
1.0
 40
1.0
 40
1.0
 40
1.0
 10
-459.0807065561294
 20
-22.72029583337429
 30
0.0
 10
-458.7775386630308
 20
-22.41841949251117
 30
0.0
 10
-458.448589357889
 20
-22.09087157326828
 30
0.0
 10
-458.1196311186923
 20
-21.76333291371174
 30
0.0
 10
-458.0938490064421
 20
-21.73766206106012
 30
0.0
  0
LINE
  5
17E
330
1F
100
AcDbEntity
  8
0
100
AcDbLine
 10
-403.6640579882
 20
394.4623379389
 30
0.0
 11
-511.5930980033
 21
394.4623379389
 31
0.0
  0
LINE
  5
17F
330
1F
100
AcDbEntity
  8
0
100
AcDbLine
 10
-281.6640579882
 20
394.4623379389
 30
0.0
 11
-397.0938490064
 21
394.4623379389
 31
0.0
  0
LINE
  5
180
330
1F
100
AcDbEntity
  8
0
100
AcDbLine
 10
-159.6640579882
 20
394.4623379389
 30
0.0
 11
-275.0938490064
 21
394.4623379389
 31
0.0
  0
LINE
  5
181
330
1F
100
AcDbEntity
  8
0
100
AcDbLine
 10
-37.6640579882
 20
394.4623379389
 30
0.0
 11
-153.0938490064
 21
394.4623379389
 31
0.0
  0
LINE
  5
182
330
1F
100
AcDbEntity
  8
0
100
AcDbLine
 10
73.1069019967
 20
394.4623379389
 30
0.0
 11
68.4069019967
 21
394.4623379389
 31
0.0
  0
LINE
  5
183
330
1F
100
AcDbEntity
  8
0
100
AcDbLine
 10
57.8069019967
 20
394.4623379389
 30
0.0
 11
-31.0938490064
 21
394.4623379389
 31
0.0
  0
LINE
  5
184
330
1F
100
AcDbEntity
  8
0
100
AcDbLine
 10
29.106966863
 20
-21.7376620611
 30
0.0
 11
57.8069019967
 21
-21.7376620611
 31
0.0
  0
LINE
  5
185
330
1F
100
AcDbEntity
  8
0
100
AcDbLine
 10
68.4069019967
 20
-21.7376620611
 30
0.0
 11
73.1069019967
 21
-21.7376620611
 31
0.0
  0
LINE
  5
186
330
1F
100
AcDbEntity
  8
0
100
AcDbLine
 10
-92.893033137
 20
-21.7376620611
 30
0.0
 11
19.9361530029
 21
-21.7376620611
 31
0.0
  0
LINE
  5
187
330
1F
100
AcDbEntity
  8
0
100
AcDbLine
 10
-214.893033137
 20
-21.7376620611
 30
0.0
 11
-102.0638469971
 21
-21.7376620611
 31
0.0
  0
LINE
  5
188
330
1F
100
AcDbEntity
  8
0
100
AcDbLine
 10
-336.893033137
 20
-21.7376620611
 30
0.0
 11
-224.0638469971
 21
-21.7376620611
 31
0.0
  0
LINE
  5
189
330
1F
100
AcDbEntity
  8
0
100
AcDbLine
 10
-458.893033137
 20
-21.7376620611
 30
0.0
 11
-346.0638469971
 21
-21.7376620611
 31
0.0
  0
LINE
  5
18A
330
1F
100
AcDbEntity
  8
0
100
AcDbLine
 10
-526.8930980033
 20
-21.7376620611
 30
0.0
 11
-522.1930980033
 21
-21.7376620611
 31
0.0
  0
LINE
  5
18B
330
1F
100
AcDbEntity
  8
0
100
AcDbLine
 10
-511.5930980033
 20
-21.7376620611
 30
0.0
 11
-468.0638469971
 21
-21.7376620611
 31
0.0
  0
LINE
  5
18C
330
1F
100
AcDbEntity
  8
0
100
AcDbLine
 10
105.6497799751
 20
26.9623379484
 30
0.0
 11
107.0750896471
 21
26.9623379484
 31
0.0
  0
LINE
  5
18D
330
1F
100
AcDbEntity
  8
0
100
AcDbLine
 10
-563.9249103529
 20
345.7623379295
 30
0.0
 11
-568.0053035717
 21
345.7623379295
 31
0.0
  0
LINE
  5
18E
330
1F
100
AcDbEntity
  8
0
100
AcDbLine
 10
-561.3134064483
 20
344.4399296587
 30
0.0
 11
-561.3913164253
 21
344.5172635661
 31
0.0
  0
LINE
  5
18F
330
1F
100
AcDbEntity
  8
0
100
AcDbLine
 10
-563.9502047846
 20
345.6623379389
 30
0.0
 11
-567.9930980034
 21
345.6623379389
 31
0.0
  0
LINE
  5
190
330
1F
100
AcDbEntity
  8
0
100
AcDbLine
 10
-518.8551740326
 20
186.8244139682
 30
0.0
 11
-517.8930980033
 21
186.8483856713
 31
0.0
  0
LINE
  5
191
330
1F
100
AcDbEntity
  8
0
100
AcDbLine
 10
-518.8551740326
 20
185.9002619096
 30
0.0
 11
-518.8551740326
 21
186.8244139682
 31
0.0
  0
LINE
  5
192
330
1F
100
AcDbEntity
  8
0
100
AcDbLine
 10
-517.8930980033
 20
185.8762902066
 30
0.0
 11
-518.8551740326
 21
185.9002619096
 31
0.0
  0
SPLINE
  5
193
330
1F
100
AcDbEntity
  8
0
100
AcDbSpline
210
0.0
220
0.0
230
1.0
 70
     8
 71
     3
 72
    12
 73
     8
 74
     0
 42
0.00000001
 43
0.00000001
 40
0.0
 40
0.0
 40
0.0
 40
0.0
 40
0.2174770912066427
 40
0.435370520825797
 40
0.6490388720033414
 40
0.8610609605882483
 40
1.0
 40
1.0
 40
1.0
 40
1.0
 10
-517.37914573567
 20
185.3623379389383
 30
0.0
 10
-517.3857543740414
 20
185.4201105790983
 30
0.0
 10
-517.3989843023701
 20
185.5357664594321
 30
0.0
 10
-517.4898722903265
 20
185.6898713224846
 30
0.0
 10
-517.6212101456751
 20
185.8051236441439
 30
0.0
 10
-517.763434809845
 20
185.8658351890379
 30
0.0
 10
-517.8563246344875
 20
185.8733250920795
 30
0.0
 10
-517.8930980033236
 20
185.8762902065919
 30
0.0
  0
LINE
  5
194
330
1F
100
AcDbEntity
  8
0
100
AcDbLine
 10
-517.3551740326
 20
184.4002619096
 30
0.0
 11
-517.3791457357
 21
185.3623379389
 31
0.0
  0
LINE
  5
195
330
1F
100
AcDbEntity
  8
0
100
AcDbLine
 10
-516.431021974
 20
184.4002619096
 30
0.0
 11
-517.3551740326
 21
184.4002619096
 31
0.0
  0
LINE
  5
196
330
1F
100
AcDbEntity
  8
0
100
AcDbLine
 10
-516.407050271
 20
185.3623379389
 30
0.0
 11
-516.431021974
 21
184.4002619096
 31
0.0
  0
SPLINE
  5
197
330
1F
100
AcDbEntity
  8
0
100
AcDbSpline
210
0.0
220
0.0
230
1.0
 70
     8
 71
     3
 72
    12
 73
     8
 74
     0
 42
0.00000001
 43
0.00000001
 40
0.0
 40
0.0
 40
0.0
 40
0.0
 40
0.2174770912066681
 40
0.4353705208257855
 40
0.6490388720033297
 40
0.8610609605882581
 40
0.9999999999999999
 40
0.9999999999999999
 40
0.9999999999999999
 40
0.9999999999999999
 10
-515.8930980033236
 20
185.8762902065919
 30
0.0
 10
-515.9508706434834
 20
185.8696815682203
 30
0.0
 10
-516.0665265238172
 20
185.8564516398918
 30
0.0
 10
-516.22063138687
 20
185.7655636519356
 30
0.0
 10
-516.3358837085289
 20
185.6342257965866
 30
0.0
 10
-516.3965952534231
 20
185.492001132417
 30
0.0
 10
-516.4040851564647
 20
185.3991113077745
 30
0.0
 10
-516.4070502709772
 20
185.3623379389383
 30
0.0
  0
LINE
  5
198
330
1F
100
AcDbEntity
  8
0
100
AcDbLine
 10
-514.931021974
 20
185.9002619096
 30
0.0
 11
-515.8930980033
 21
185.8762902066
 31
0.0
  0
LINE
  5
199
330
1F
100
AcDbEntity
  8
0
100
AcDbLine
 10
-514.931021974
 20
186.8244139682
 30
0.0
 11
-514.931021974
 21
185.9002619096
 31
0.0
  0
LINE
  5
19A
330
1F
100
AcDbEntity
  8
0
100
AcDbLine
 10
-515.8930980033
 20
186.8483856713
 30
0.0
 11
-514.931021974
 21
186.8244139682
 31
0.0
  0
SPLINE
  5
19B
330
1F
100
AcDbEntity
  8
0
100
AcDbSpline
210
0.0
220
0.0
230
1.0
 70
     8
 71
     3
 72
    12
 73
     8
 74
     0
 42
0.00000001
 43
0.00000001
 40
0.0
 40
0.0
 40
0.0
 40
0.0
 40
0.2174770912066437
 40
0.4353705208257987
 40
0.6490388720033432
 40
0.8610609605882535
 40
0.9999999999999999
 40
0.9999999999999999
 40
0.9999999999999999
 40
0.9999999999999999
 10
-516.4070502709772
 20
187.3623379389384
 30
0.0
 10
-516.4004416326055
 20
187.3045652987784
 30
0.0
 10
-516.387211704277
 20
187.1889094184446
 30
0.0
 10
-516.2963237163207
 20
187.0348045553921
 30
0.0
 10
-516.1649858609718
 20
186.9195522337328
 30
0.0
 10
-516.0227611968022
 20
186.8588406888388
 30
0.0
 10
-515.9298713721597
 20
186.8513507857971
 30
0.0
 10
-515.8930980033236
 20
186.8483856712848
 30
0.0
  0
LINE
  5
19C
330
1F
100
AcDbEntity
  8
0
100
AcDbLine
 10
-516.431021974
 20
188.3244139682
 30
0.0
 11
-516.407050271
 21
187.3623379389
 31
0.0
  0
LINE
  5
19D
330
1F
100
AcDbEntity
  8
0
100
AcDbLine
 10
-517.3551740326
 20
188.3244139682
 30
0.0
 11
-516.431021974
 21
188.3244139682
 31
0.0
  0
LINE
  5
19E
330
1F
100
AcDbEntity
  8
0
100
AcDbLine
 10
-517.3791457357
 20
187.3623379389
 30
0.0
 11
-517.3551740326
 21
188.3244139682
 31
0.0
  0
SPLINE
  5
19F
330
1F
100
AcDbEntity
  8
0
100
AcDbSpline
210
0.0
220
0.0
230
1.0
 70
     8
 71
     3
 72
    12
 73
     8
 74
     0
 42
0.00000001
 43
0.00000001
 40
0.0
 40
0.0
 40
0.0
 40
0.0
 40
0.2174770912067096
 40
0.4353705208258686
 40
0.6490388720034539
 40
0.8610609605884234
 40
1.0
 40
1.0
 40
1.0
 40
1.0
 10
-517.8930980033236
 20
186.8483856712848
 30
0.0
 10
-517.8353253631635
 20
186.8549943096563
 30
0.0
 10
-517.7196694828298
 20
186.8682242379849
 30
0.0
 10
-517.5655646197773
 20
186.9591122259411
 30
0.0
 10
-517.450312298118
 20
187.09045008129
 30
0.0
 10
-517.3896007532239
 20
187.2326747454597
 30
0.0
 10
-517.3821108501824
 20
187.3255645701021
 30
0.0
 10
-517.37914573567
 20
187.3623379389382
 30
0.0
  0
CIRCLE
  5
1A0
330
1F
100
AcDbEntity
  8
0
100
AcDbCircle
 10
-516.8930980033
 20
186.3623379389
 30
0.0
 40
3.5
  0
ARC
  5
1A1
330
1F
100
AcDbEntity
  8
0
100
AcDbCircle
 10
-517.8930980033
 20
187.3623379389
 30
0.0
 40
0.7102084705314837
100
AcDbArc
 50
270.0
 51
0.0
  0
ARC
  5
1A2
330
1F
100
AcDbEntity
  8
0
100
AcDbCircle
 10
-517.8930980033
 20
185.3623379389
 30
0.0
 40
0.7102084705314837
100
AcDbArc
 50
0.0
 51
90.0
  0
ARC
  5
1A3
330
1F
100
AcDbEntity
  8
0
100
AcDbCircle
 10
-515.8930980033
 20
187.3623379389
 30
0.0
 40
0.71020847053137
100
AcDbArc
 50
180.0
 51
270.0
  0
ARC
  5
1A4
330
1F
100
AcDbEntity
  8
0
100
AcDbCircle
 10
-515.8930980033
 20
185.3623379389
 30
0.0
 40
0.7102084705313416
100
AcDbArc
 50
90.0
 51
180.0
  0
LINE
  5
1A5
330
1F
100
AcDbEntity
  8
0
100
AcDbLine
 10
-517.1828895328
 20
188.1521294684
 30
0.0
 11
-517.3551740326
 21
188.3244139682
 31
0.0
  0
LINE
  5
1A6
330
1F
100
AcDbEntity
  8
0
100
AcDbLine
 10
-517.1828895328
 20
187.3623379389
 30
0.0
 11
-517.1828895328
 21
188.1521294684
 31
0.0
  0
LINE
  5
1A7
330
1F
100
AcDbEntity
  8
0
100
AcDbLine
 10
-516.6033064739
 20
188.1521294684
 30
0.0
 11
-516.6033064739
 21
187.3623379389
 31
0.0
  0
LINE
  5
1A8
330
1F
100
AcDbEntity
  8
0
100
AcDbLine
 10
-516.6033064739
 20
188.1521294684
 30
0.0
 11
-516.431021974
 21
188.3244139682
 31
0.0
  0
LINE
  5
1A9
330
1F
100
AcDbEntity
  8
0
100
AcDbLine
 10
-515.1033064739
 20
186.6521294684
 30
0.0
 11
-514.931021974
 21
186.8244139682
 31
0.0
  0
LINE
  5
1AA
330
1F
100
AcDbEntity
  8
0
100
AcDbLine
 10
-515.8930980033
 20
186.6521294684
 30
0.0
 11
-515.1033064739
 21
186.6521294684
 31
0.0
  0
LINE
  5
1AB
330
1F
100
AcDbEntity
  8
0
100
AcDbLine
 10
-518.6828895328
 20
186.6521294684
 30
0.0
 11
-517.8930980033
 21
186.6521294684
 31
0.0
  0
LINE
  5
1AC
330
1F
100
AcDbEntity
  8
0
100
AcDbLine
 10
-518.6828895328
 20
186.6521294684
 30
0.0
 11
-518.8551740326
 21
186.8244139682
 31
0.0
  0
LINE
  5
1AD
330
1F
100
AcDbEntity
  8
0
100
AcDbLine
 10
-518.6828895328
 20
186.0725464095
 30
0.0
 11
-518.8551740326
 21
185.9002619096
 31
0.0
  0
LINE
  5
1AE
330
1F
100
AcDbEntity
  8
0
100
AcDbLine
 10
-517.8930980033
 20
186.0725464095
 30
0.0
 11
-518.6828895328
 21
186.0725464095
 31
0.0
  0
LINE
  5
1AF
330
1F
100
AcDbEntity
  8
0
100
AcDbLine
 10
-515.1033064739
 20
186.0725464095
 30
0.0
 11
-515.8930980033
 21
186.0725464095
 31
0.0
  0
LINE
  5
1B0
330
1F
100
AcDbEntity
  8
0
100
AcDbLine
 10
-515.1033064739
 20
186.0725464095
 30
0.0
 11
-514.931021974
 21
185.9002619096
 31
0.0
  0
LINE
  5
1B1
330
1F
100
AcDbEntity
  8
0
100
AcDbLine
 10
-517.1828895328
 20
184.5725464095
 30
0.0
 11
-517.1828895328
 21
185.3623379389
 31
0.0
  0
LINE
  5
1B2
330
1F
100
AcDbEntity
  8
0
100
AcDbLine
 10
-517.1828895328
 20
184.5725464095
 30
0.0
 11
-517.3551740326
 21
184.4002619096
 31
0.0
  0
LINE
  5
1B3
330
1F
100
AcDbEntity
  8
0
100
AcDbLine
 10
-516.6033064739
 20
184.5725464095
 30
0.0
 11
-516.431021974
 21
184.4002619096
 31
0.0
  0
LINE
  5
1B4
330
1F
100
AcDbEntity
  8
0
100
AcDbLine
 10
-516.6033064739
 20
185.3623379389
 30
0.0
 11
-516.6033064739
 21
184.5725464095
 31
0.0
  0
LINE
  5
1B5
330
1F
100
AcDbEntity
  8
0
100
AcDbLine
 10
-517.1828895328
 20
188.1521294684
 30
0.0
 11
-516.6033064739
 21
188.1521294684
 31
0.0
  0
LINE
  5
1B6
330
1F
100
AcDbEntity
  8
0
100
AcDbLine
 10
-518.6828895328
 20
186.0725464095
 30
0.0
 11
-518.6828895328
 21
186.6521294684
 31
0.0
  0
LINE
  5
1B7
330
1F
100
AcDbEntity
  8
0
100
AcDbLine
 10
-515.1033064739
 20
186.6521294684
 30
0.0
 11
-515.1033064739
 21
186.0725464095
 31
0.0
  0
LINE
  5
1B8
330
1F
100
AcDbEntity
  8
0
100
AcDbLine
 10
-516.6033064739
 20
184.5725464095
 30
0.0
 11
-517.1828895328
 21
184.5725464095
 31
0.0
  0
CIRCLE
  5
1B9
330
1F
100
AcDbEntity
  8
0
100
AcDbCircle
 10
-516.8930980033
 20
186.3623379389
 30
0.0
 40
5.5
  0
LINE
  5
1BA
330
1F
100
AcDbEntity
  8
0
100
AcDbLine
 10
65.068978026
 20
185.9002619096
 30
0.0
 11
64.1069019967
 21
185.8762902066
 31
0.0
  0
LINE
  5
1BB
330
1F
100
AcDbEntity
  8
0
100
AcDbLine
 10
65.068978026
 20
186.8244139682
 30
0.0
 11
65.068978026
 21
185.9002619096
 31
0.0
  0
LINE
  5
1BC
330
1F
100
AcDbEntity
  8
0
100
AcDbLine
 10
64.1069019967
 20
186.8483856713
 30
0.0
 11
65.068978026
 21
186.8244139682
 31
0.0
  0
SPLINE
  5
1BD
330
1F
100
AcDbEntity
  8
0
100
AcDbSpline
210
0.0
220
0.0
230
1.0
 70
     8
 71
     3
 72
    12
 73
     8
 74
     0
 42
0.00000001
 43
0.00000001
 40
0.0
 40
0.0
 40
0.0
 40
0.0
 40
0.2174770912066439
 40
0.4353705208257988
 40
0.6490388720033432
 40
0.8610609605882535
 40
0.9999999999999999
 40
0.9999999999999999
 40
0.9999999999999999
 40
0.9999999999999999
 10
63.59294972902274
 20
187.3623379389384
 30
0.0
 10
63.59955836739434
 20
187.3045652987784
 30
0.0
 10
63.61278829572281
 20
187.1889094184446
 30
0.0
 10
63.70367628367924
 20
187.0348045553921
 30
0.0
 10
63.83501413902798
 20
186.9195522337328
 30
0.0
 10
63.97723880319766
 20
186.8588406888388
 30
0.0
 10
64.07012862784023
 20
186.8513507857971
 30
0.0
 10
64.10690199667634
 20
186.8483856712848
 30
0.0
  0
LINE
  5
1BE
330
1F
100
AcDbEntity
  8
0
100
AcDbLine
 10
63.568978026
 20
188.3244139682
 30
0.0
 11
63.592949729
 21
187.3623379389
 31
0.0
  0
LINE
  5
1BF
330
1F
100
AcDbEntity
  8
0
100
AcDbLine
 10
62.6448259674
 20
188.3244139682
 30
0.0
 11
63.568978026
 21
188.3244139682
 31
0.0
  0
LINE
  5
1C0
330
1F
100
AcDbEntity
  8
0
100
AcDbLine
 10
62.6208542643
 20
187.3623379389
 30
0.0
 11
62.6448259674
 21
188.3244139682
 31
0.0
  0
SPLINE
  5
1C1
330
1F
100
AcDbEntity
  8
0
100
AcDbSpline
210
0.0
220
0.0
230
1.0
 70
     8
 71
     3
 72
    12
 73
     8
 74
     0
 42
0.00000001
 43
0.00000001
 40
0.0
 40
0.0
 40
0.0
 40
0.0
 40
0.2174770912066677
 40
0.4353705208257847
 40
0.6490388720033288
 40
0.8610609605882574
 40
1.0
 40
1.0
 40
1.0
 40
1.0
 10
62.10690199667629
 20
186.8483856712848
 30
0.0
 10
62.16467463683634
 20
186.8549943096563
 30
0.0
 10
62.28033051717002
 20
186.8682242379849
 30
0.0
 10
62.43443538022253
 20
186.9591122259411
 30
0.0
 10
62.54968770188174
 20
187.09045008129
 30
0.0
 10
62.61039924677597
 20
187.2326747454597
 30
0.0
 10
62.61788914981747
 20
187.3255645701022
 30
0.0
 10
62.62085426432984
 20
187.3623379389384
 30
0.0
  0
LINE
  5
1C2
330
1F
100
AcDbEntity
  8
0
100
AcDbLine
 10
61.1448259674
 20
186.8244139682
 30
0.0
 11
62.1069019967
 21
186.8483856713
 31
0.0
  0
LINE
  5
1C3
330
1F
100
AcDbEntity
  8
0
100
AcDbLine
 10
61.1448259674
 20
185.9002619096
 30
0.0
 11
61.1448259674
 21
186.8244139682
 31
0.0
  0
LINE
  5
1C4
330
1F
100
AcDbEntity
  8
0
100
AcDbLine
 10
62.1069019967
 20
185.8762902066
 30
0.0
 11
61.1448259674
 21
185.9002619096
 31
0.0
  0
SPLINE
  5
1C5
330
1F
100
AcDbEntity
  8
0
100
AcDbSpline
210
0.0
220
0.0
230
1.0
 70
     8
 71
     3
 72
    12
 73
     8
 74
     0
 42
0.00000001
 43
0.00000001
 40
0.0
 40
0.0
 40
0.0
 40
0.0
 40
0.2174770912066424
 40
0.4353705208257968
 40
0.6490388720033414
 40
0.8610609605882484
 40
1.0
 40
1.0
 40
1.0
 40
1.0
 10
62.62085426432984
 20
185.3623379389383
 30
0.0
 10
62.6142456259583
 20
185.4201105790983
 30
0.0
 10
62.60101569762971
 20
185.5357664594321
 30
0.0
 10
62.51012770967345
 20
185.6898713224846
 30
0.0
 10
62.37878985432466
 20
185.8051236441439
 30
0.0
 10
62.23656519015497
 20
185.8658351890379
 30
0.0
 10
62.14367536551235
 20
185.8733250920795
 30
0.0
 10
62.10690199667629
 20
185.8762902065919
 30
0.0
  0
LINE
  5
1C6
330
1F
100
AcDbEntity
  8
0
100
AcDbLine
 10
62.6448259674
 20
184.4002619096
 30
0.0
 11
62.6208542643
 21
185.3623379389
 31
0.0
  0
LINE
  5
1C7
330
1F
100
AcDbEntity
  8
0
100
AcDbLine
 10
63.568978026
 20
184.4002619096
 30
0.0
 11
62.6448259674
 21
184.4002619096
 31
0.0
  0
LINE
  5
1C8
330
1F
100
AcDbEntity
  8
0
100
AcDbLine
 10
63.592949729
 20
185.3623379389
 30
0.0
 11
63.568978026
 21
184.4002619096
 31
0.0
  0
SPLINE
  5
1C9
330
1F
100
AcDbEntity
  8
0
100
AcDbSpline
210
0.0
220
0.0
230
1.0
 70
     8
 71
     3
 72
    12
 73
     8
 74
     0
 42
0.00000001
 43
0.00000001
 40
0.0
 40
0.0
 40
0.0
 40
0.0
 40
0.21747709120671
 40
0.4353705208258695
 40
0.6490388720034549
 40
0.8610609605884242
 40
1.0
 40
1.0
 40
1.0
 40
1.0
 10
64.10690199667634
 20
185.8762902065919
 30
0.0
 10
64.04912935651636
 20
185.8696815682203
 30
0.0
 10
63.93347347618267
 20
185.8564516398918
 30
0.0
 10
63.77936861313
 20
185.7655636519356
 30
0.0
 10
63.66411629147073
 20
185.6342257965866
 30
0.0
 10
63.60340474657666
 20
185.4920011324171
 30
0.0
 10
63.59591484353516
 20
185.3991113077746
 30
0.0
 10
63.59294972902274
 20
185.3623379389385
 30
0.0
  0
CIRCLE
  5
1CA
330
1F
100
AcDbEntity
  8
0
100
AcDbCircle
 10
63.1069019967
 20
186.3623379389
 30
0.0
 40
3.5
  0
ARC
  5
1CB
330
1F
100
AcDbEntity
  8
0
100
AcDbCircle
 10
64.1069019967
 20
187.3623379389
 30
0.0
 40
0.7102084705313771
100
AcDbArc
 50
180.0
 51
270.0
  0
ARC
  5
1CC
330
1F
100
AcDbEntity
  8
0
100
AcDbCircle
 10
62.1069019967
 20
185.3623379389
 30
0.0
 40
0.7102084705313771
100
AcDbArc
 50
0.0
 51
90.0
  0
ARC
  5
1CD
330
1F
100
AcDbEntity
  8
0
100
AcDbCircle
 10
64.1069019967
 20
185.3623379389
 30
0.0
 40
0.7102084705313771
100
AcDbArc
 50
90.0
 51
180.0
  0
ARC
  5
1CE
330
1F
100
AcDbEntity
  8
0
100
AcDbCircle
 10
62.1069019967
 20
187.3623379389
 30
0.0
 40
0.7102084705313771
100
AcDbArc
 50
270.0
 51
0.0
  0
LINE
  5
1CF
330
1F
100
AcDbEntity
  8
0
100
AcDbLine
 10
62.8171104672
 20
188.1521294684
 30
0.0
 11
62.6448259674
 21
188.3244139682
 31
0.0
  0
LINE
  5
1D0
330
1F
100
AcDbEntity
  8
0
100
AcDbLine
 10
62.8171104672
 20
187.3623379389
 30
0.0
 11
62.8171104672
 21
188.1521294684
 31
0.0
  0
LINE
  5
1D1
330
1F
100
AcDbEntity
  8
0
100
AcDbLine
 10
63.3966935261
 20
188.1521294684
 30
0.0
 11
63.3966935261
 21
187.3623379389
 31
0.0
  0
LINE
  5
1D2
330
1F
100
AcDbEntity
  8
0
100
AcDbLine
 10
63.3966935261
 20
188.1521294684
 30
0.0
 11
63.568978026
 21
188.3244139682
 31
0.0
  0
LINE
  5
1D3
330
1F
100
AcDbEntity
  8
0
100
AcDbLine
 10
64.8966935261
 20
186.6521294684
 30
0.0
 11
65.068978026
 21
186.8244139682
 31
0.0
  0
LINE
  5
1D4
330
1F
100
AcDbEntity
  8
0
100
AcDbLine
 10
64.1069019967
 20
186.6521294684
 30
0.0
 11
64.8966935261
 21
186.6521294684
 31
0.0
  0
LINE
  5
1D5
330
1F
100
AcDbEntity
  8
0
100
AcDbLine
 10
63.3966935261
 20
184.5725464095
 30
0.0
 11
63.568978026
 21
184.4002619096
 31
0.0
  0
LINE
  5
1D6
330
1F
100
AcDbEntity
  8
0
100
AcDbLine
 10
63.3966935261
 20
185.3623379389
 30
0.0
 11
63.3966935261
 21
184.5725464095
 31
0.0
  0
LINE
  5
1D7
330
1F
100
AcDbEntity
  8
0
100
AcDbLine
 10
61.3171104672
 20
186.6521294684
 30
0.0
 11
62.1069019967
 21
186.6521294684
 31
0.0
  0
LINE
  5
1D8
330
1F
100
AcDbEntity
  8
0
100
AcDbLine
 10
61.3171104672
 20
186.6521294684
 30
0.0
 11
61.1448259674
 21
186.8244139682
 31
0.0
  0
LINE
  5
1D9
330
1F
100
AcDbEntity
  8
0
100
AcDbLine
 10
61.3171104672
 20
186.0725464095
 30
0.0
 11
61.1448259674
 21
185.9002619096
 31
0.0
  0
LINE
  5
1DA
330
1F
100
AcDbEntity
  8
0
100
AcDbLine
 10
62.1069019967
 20
186.0725464095
 30
0.0
 11
61.3171104672
 21
186.0725464095
 31
0.0
  0
LINE
  5
1DB
330
1F
100
AcDbEntity
  8
0
100
AcDbLine
 10
62.8171104672
 20
184.5725464095
 30
0.0
 11
62.8171104672
 21
185.3623379389
 31
0.0
  0
LINE
  5
1DC
330
1F
100
AcDbEntity
  8
0
100
AcDbLine
 10
62.8171104672
 20
184.5725464095
 30
0.0
 11
62.6448259674
 21
184.4002619096
 31
0.0
  0
LINE
  5
1DD
330
1F
100
AcDbEntity
  8
0
100
AcDbLine
 10
64.8966935261
 20
186.0725464095
 30
0.0
 11
64.1069019967
 21
186.0725464095
 31
0.0
  0
LINE
  5
1DE
330
1F
100
AcDbEntity
  8
0
100
AcDbLine
 10
64.8966935261
 20
186.0725464095
 30
0.0
 11
65.068978026
 21
185.9002619096
 31
0.0
  0
LINE
  5
1DF
330
1F
100
AcDbEntity
  8
0
100
AcDbLine
 10
62.8171104672
 20
188.1521294684
 30
0.0
 11
63.3966935261
 21
188.1521294684
 31
0.0
  0
LINE
  5
1E0
330
1F
100
AcDbEntity
  8
0
100
AcDbLine
 10
64.8966935261
 20
186.6521294684
 30
0.0
 11
64.8966935261
 21
186.0725464095
 31
0.0
  0
LINE
  5
1E1
330
1F
100
AcDbEntity
  8
0
100
AcDbLine
 10
61.3171104672
 20
186.0725464095
 30
0.0
 11
61.3171104672
 21
186.6521294684
 31
0.0
  0
LINE
  5
1E2
330
1F
100
AcDbEntity
  8
0
100
AcDbLine
 10
63.3966935261
 20
184.5725464095
 30
0.0
 11
62.8171104672
 21
184.5725464095
 31
0.0
  0
CIRCLE
  5
1E3
330
1F
100
AcDbEntity
  8
0
100
AcDbCircle
 10
63.1069019967
 20
186.3623379389
 30
0.0
 40
5.5
  0
LINE
  5
1E4
330
1F
100
AcDbEntity
  8
0
100
AcDbLine
 10
63.1069019967
 20
395.4623379389
 30
0.0
 11
57.8069019967
 21
395.4623379389
 31
0.0
  0
LINE
  5
1E5
330
1F
100
AcDbEntity
  8
0
100
AcDbLine
 10
68.4069019967
 20
395.4623379389
 30
0.0
 11
63.1069019967
 21
395.4623379389
 31
0.0
  0
LINE
  5
1E6
330
1F
100
AcDbEntity
  8
0
100
AcDbLine
 10
63.1069019967
 20
394.4623379389
 30
0.0
 11
57.8069019967
 21
394.4623379389
 31
0.0
  0
LINE
  5
1E7
330
1F
100
AcDbEntity
  8
0
100
AcDbLine
 10
68.4069019967
 20
394.4623379389
 30
0.0
 11
63.1069019967
 21
394.4623379389
 31
0.0
  0
LINE
  5
1E8
330
1F
100
AcDbEntity
  8
0
100
AcDbLine
 10
65.068978026
 20
396.1015154601
 30
0.0
 11
64.1069019967
 21
396.3295909795
 31
0.0
  0
LINE
  5
1E9
330
1F
100
AcDbEntity
  8
0
100
AcDbLine
 10
62.1069019967
 20
396.3295909795
 30
0.0
 11
61.1448259674
 21
396.1015154601
 31
0.0
  0
SPLINE
  5
1EA
330
1F
100
AcDbEntity
  8
0
100
AcDbSpline
210
0.0
220
0.0
230
1.0
 70
     8
 71
     3
 72
    12
 73
     8
 74
     0
 42
0.00000001
 43
0.00000001
 40
0.0
 40
0.0
 40
0.0
 40
0.0
 40
0.2174770912066464
 40
0.4353705208257975
 40
0.6490388720033402
 40
0.8610609605882492
 40
1.0
 40
1.0
 40
1.0
 40
1.0
 10
62.62085426432989
 20
396.3295909795241
 30
0.0
 10
62.61424562595835
 20
396.3385685451348
 30
0.0
 10
62.60101569762966
 20
396.3565408630191
 30
0.0
 10
62.51012770967357
 20
396.3682094917973
 30
0.0
 10
62.37878985432472
 20
396.3652253444122
 30
0.0
 10
62.23656519015508
 20
396.3504164325508
 30
0.0
 10
62.14367536551241
 20
396.3354972204918
 30
0.0
 10
62.10690199667634
 20
396.3295909795241
 30
0.0
  0
LINE
  5
1EB
330
1F
100
AcDbEntity
  8
0
100
AcDbLine
 10
62.6448259674
 20
396.1015154601
 30
0.0
 11
62.6208542643
 21
396.3295909795
 31
0.0
  0
LINE
  5
1EC
330
1F
100
AcDbEntity
  8
0
100
AcDbLine
 10
63.568978026
 20
396.1015154601
 30
0.0
 11
62.6448259674
 21
396.1015154601
 31
0.0
  0
LINE
  5
1ED
330
1F
100
AcDbEntity
  8
0
100
AcDbLine
 10
63.592949729
 20
396.3295909795
 30
0.0
 11
63.568978026
 21
396.1015154601
 31
0.0
  0
SPLINE
  5
1EE
330
1F
100
AcDbEntity
  8
0
100
AcDbSpline
210
0.0
220
0.0
230
1.0
 70
     8
 71
     3
 72
    12
 73
     8
 74
     0
 42
0.00000001
 43
0.00000001
 40
0.0
 40
0.0
 40
0.0
 40
0.0
 40
0.2174770912067142
 40
0.4353705208258709
 40
0.6490388720034552
 40
0.8610609605884242
 40
1.0
 40
1.0
 40
1.0
 40
1.0
 10
64.1069019966764
 20
396.3295909795241
 30
0.0
 10
64.0491293565164
 20
396.3385685451349
 30
0.0
 10
63.93347347618256
 20
396.3565408630192
 30
0.0
 10
63.7793686131301
 20
396.3682094917973
 30
0.0
 10
63.66411629147078
 20
396.3652253444121
 30
0.0
 10
63.60340474657677
 20
396.3504164325508
 30
0.0
 10
63.59591484353511
 20
396.3354972204919
 30
0.0
 10
63.5929497290228
 20
396.3295909795241
 30
0.0
  0
LINE
  5
1EF
330
1F
100
AcDbEntity
  8
0
100
AcDbLine
 10
57.8069019967
 20
-21.7376620611
 30
0.0
 11
68.4069019967
 21
-21.7376620611
 31
0.0
  0
LINE
  5
1F0
330
1F
100
AcDbEntity
  8
0
100
AcDbLine
 10
57.8069019967
 20
-22.7376620611
 30
0.0
 11
68.4069019967
 21
-22.7376620611
 31
0.0
  0
LINE
  5
1F1
330
1F
100
AcDbEntity
  8
0
100
AcDbLine
 10
64.1069019967
 20
-23.6049151016
 30
0.0
 11
65.068978026
 21
-23.3768395822
 31
0.0
  0
SPLINE
  5
1F2
330
1F
100
AcDbEntity
  8
0
100
AcDbSpline
210
0.0
220
0.0
230
1.0
 70
     8
 71
     3
 72
    12
 73
     8
 74
     0
 42
0.00000001
 43
0.00000001
 40
0.0
 40
0.0
 40
0.0
 40
0.0
 40
0.2174770912066442
 40
0.4353705208257991
 40
0.6490388720033435
 40
0.8610609605882537
 40
1.0
 40
1.0
 40
1.0
 40
1.0
 10
63.59294972902274
 20
-23.60491510163931
 30
0.0
 10
63.59955836739428
 20
-23.61389266725008
 30
0.0
 10
63.61278829572292
 20
-23.63186498513439
 30
0.0
 10
63.70367628367912
 20
-23.64353361391258
 30
0.0
 10
63.83501413902798
 20
-23.64054946652733
 30
0.0
 10
63.97723880319756
 20
-23.62574055466598
 30
0.0
 10
64.07012862784029
 20
-23.61082134260709
 30
0.0
 10
64.10690199667634
 20
-23.60491510163934
 30
0.0
  0
LINE
  5
1F3
330
1F
100
AcDbEntity
  8
0
100
AcDbLine
 10
63.568978026
 20
-23.3768395822
 30
0.0
 11
63.592949729
 21
-23.6049151016
 31
0.0
  0
LINE
  5
1F4
330
1F
100
AcDbEntity
  8
0
100
AcDbLine
 10
62.6448259674
 20
-23.3768395822
 30
0.0
 11
63.568978026
 21
-23.3768395822
 31
0.0
  0
LINE
  5
1F5
330
1F
100
AcDbEntity
  8
0
100
AcDbLine
 10
62.6208542643
 20
-23.6049151016
 30
0.0
 11
62.6448259674
 21
-23.3768395822
 31
0.0
  0
SPLINE
  5
1F6
330
1F
100
AcDbEntity
  8
0
100
AcDbSpline
210
0.0
220
0.0
230
1.0
 70
     8
 71
     3
 72
    12
 73
     8
 74
     0
 42
0.00000001
 43
0.00000001
 40
0.0
 40
0.0
 40
0.0
 40
0.0
 40
0.2174770912066672
 40
0.4353705208257837
 40
0.6490388720033273
 40
0.8610609605882523
 40
1.0
 40
1.0
 40
1.0
 40
1.0
 10
62.10690199667629
 20
-23.60491510163931
 30
0.0
 10
62.16467463683628
 20
-23.61389266725011
 30
0.0
 10
62.28033051717002
 20
-23.63186498513436
 30
0.0
 10
62.43443538022269
 20
-23.64353361391264
 30
0.0
 10
62.54968770188174
 20
-23.64054946652727
 30
0.0
 10
62.61039924677597
 20
-23.6257405546661
 30
0.0
 10
62.61788914981747
 20
-23.610821342607
 30
0.0
 10
62.62085426432984
 20
-23.60491510163931
 30
0.0
  0
LINE
  5
1F7
330
1F
100
AcDbEntity
  8
0
100
AcDbLine
 10
61.1448259674
 20
-23.3768395822
 30
0.0
 11
62.1069019967
 21
-23.6049151016
 31
0.0
  0
LINE
  5
1F8
330
1F
100
AcDbEntity
  8
0
100
AcDbLine
 10
-511.5930980033
 20
395.4623379389
 30
0.0
 11
-520.2517314602
 21
395.4623379389
 31
0.0
  0
LINE
  5
1F9
330
1F
100
AcDbEntity
  8
0
100
AcDbLine
 10
-511.5930980033
 20
394.4623379389
 30
0.0
 11
-519.1042084911
 21
394.4623379389
 31
0.0
  0
LINE
  5
1FA
330
1F
100
AcDbEntity
  8
0
100
AcDbLine
 10
-517.8930980033
 20
396.3295909795
 30
0.0
 11
-518.8551740326
 21
396.1015154601
 31
0.0
  0
SPLINE
  5
1FB
330
1F
100
AcDbEntity
  8
0
100
AcDbSpline
210
0.0
220
0.0
230
1.0
 70
     8
 71
     3
 72
    12
 73
     8
 74
     0
 42
0.00000001
 43
0.00000001
 40
0.0
 40
0.0
 40
0.0
 40
0.0
 40
0.217477091206644
 40
0.4353705208257972
 40
0.6490388720033418
 40
0.861060960588253
 40
0.9999999999999999
 40
0.9999999999999999
 40
0.9999999999999999
 40
0.9999999999999999
 10
-517.3791457356701
 20
396.3295909795231
 30
0.0
 10
-517.3857543740417
 20
396.338568545134
 30
0.0
 10
-517.3989843023701
 20
396.3565408630182
 30
0.0
 10
-517.4898722903265
 20
396.3682094917963
 30
0.0
 10
-517.6212101456751
 20
396.3652253444111
 30
0.0
 10
-517.763434809845
 20
396.3504164325499
 30
0.0
 10
-517.8563246344874
 20
396.3354972204909
 30
0.0
 10
-517.8930980033236
 20
396.3295909795231
 30
0.0
  0
LINE
  5
1FC
330
1F
100
AcDbEntity
  8
0
100
AcDbLine
 10
-517.3551740326
 20
396.1015154601
 30
0.0
 11
-517.3791457357
 21
396.3295909795
 31
0.0
  0
LINE
  5
1FD
330
1F
100
AcDbEntity
  8
0
100
AcDbLine
 10
-516.431021974
 20
396.1015154601
 30
0.0
 11
-517.3551740326
 21
396.1015154601
 31
0.0
  0
LINE
  5
1FE
330
1F
100
AcDbEntity
  8
0
100
AcDbLine
 10
-516.407050271
 20
396.3295909795
 30
0.0
 11
-516.431021974
 21
396.1015154601
 31
0.0
  0
SPLINE
  5
1FF
330
1F
100
AcDbEntity
  8
0
100
AcDbSpline
210
0.0
220
0.0
230
1.0
 70
     8
 71
     3
 72
    12
 73
     8
 74
     0
 42
0.00000001
 43
0.00000001
 40
0.0
 40
0.0
 40
0.0
 40
0.0
 40
0.2174770912066686
 40
0.4353705208257842
 40
0.6490388720033283
 40
0.8610609605882574
 40
1.0
 40
1.0
 40
1.0
 40
1.0
 10
-515.8930980033236
 20
396.3295909795231
 30
0.0
 10
-515.9508706434837
 20
396.338568545134
 30
0.0
 10
-516.0665265238174
 20
396.3565408630183
 30
0.0
 10
-516.2206313868699
 20
396.3682094917963
 30
0.0
 10
-516.335883708529
 20
396.3652253444111
 30
0.0
 10
-516.3965952534232
 20
396.3504164325499
 30
0.0
 10
-516.4040851564648
 20
396.3354972204909
 30
0.0
 10
-516.4070502709773
 20
396.3295909795231
 30
0.0
  0
LINE
  5
200
330
1F
100
AcDbEntity
  8
0
100
AcDbLine
 10
-514.931021974
 20
396.1015154601
 30
0.0
 11
-515.8930980033
 21
396.3295909795
 31
0.0
  0
LINE
  5
201
330
1F
100
AcDbEntity
  8
0
100
AcDbLine
 10
-516.8930980033
 20
-21.7376620611
 30
0.0
 11
-511.5930980033
 21
-21.7376620611
 31
0.0
  0
LINE
  5
202
330
1F
100
AcDbEntity
  8
0
100
AcDbLine
 10
-522.1930980033
 20
-21.7376620611
 30
0.0
 11
-516.8930980033
 21
-21.7376620611
 31
0.0
  0
LINE
  5
203
330
1F
100
AcDbEntity
  8
0
100
AcDbLine
 10
-516.8930980033
 20
-22.7376620611
 30
0.0
 11
-511.5930980033
 21
-22.7376620611
 31
0.0
  0
LINE
  5
204
330
1F
100
AcDbEntity
  8
0
100
AcDbLine
 10
-522.1930980033
 20
-22.7376620611
 30
0.0
 11
-516.8930980033
 21
-22.7376620611
 31
0.0
  0
LINE
  5
205
330
1F
100
AcDbEntity
  8
0
100
AcDbLine
 10
-518.8551740326
 20
-23.3768395822
 30
0.0
 11
-517.8930980033
 21
-23.6049151016
 31
0.0
  0
LINE
  5
206
330
1F
100
AcDbEntity
  8
0
100
AcDbLine
 10
-515.8930980033
 20
-23.6049151016
 30
0.0
 11
-514.931021974
 21
-23.3768395822
 31
0.0
  0
SPLINE
  5
207
330
1F
100
AcDbEntity
  8
0
100
AcDbSpline
210
0.0
220
0.0
230
1.0
 70
     8
 71
     3
 72
    12
 73
     8
 74
     0
 42
0.00000001
 43
0.00000001
 40
0.0
 40
0.0
 40
0.0
 40
0.0
 40
0.2174770912066439
 40
0.435370520825799
 40
0.6490388720033435
 40
0.8610609605882537
 40
1.0
 40
1.0
 40
1.0
 40
1.0
 10
-516.4070502709773
 20
-23.60491510163934
 30
0.0
 10
-516.4004416326055
 20
-23.61389266725008
 30
0.0
 10
-516.387211704277
 20
-23.63186498513436
 30
0.0
 10
-516.2963237163207
 20
-23.64353361391253
 30
0.0
 10
-516.1649858609719
 20
-23.64054946652733
 30
0.0
 10
-516.022761196802
 20
-23.62574055466604
 30
0.0
 10
-515.9298713721598
 20
-23.61082134260709
 30
0.0
 10
-515.8930980033236
 20
-23.60491510163934
 30
0.0
  0
LINE
  5
208
330
1F
100
AcDbEntity
  8
0
100
AcDbLine
 10
-516.431021974
 20
-23.3768395822
 30
0.0
 11
-516.407050271
 21
-23.6049151016
 31
0.0
  0
LINE
  5
209
330
1F
100
AcDbEntity
  8
0
100
AcDbLine
 10
-517.3551740326
 20
-23.3768395822
 30
0.0
 11
-516.431021974
 21
-23.3768395822
 31
0.0
  0
LINE
  5
20A
330
1F
100
AcDbEntity
  8
0
100
AcDbLine
 10
-517.3791457357
 20
-23.6049151016
 30
0.0
 11
-517.3551740326
 21
-23.3768395822
 31
0.0
  0
SPLINE
  5
20B
330
1F
100
AcDbEntity
  8
0
100
AcDbSpline
210
0.0
220
0.0
230
1.0
 70
     8
 71
     3
 72
    12
 73
     8
 74
     0
 42
0.00000001
 43
0.00000001
 40
0.0
 40
0.0
 40
0.0
 40
0.0
 40
0.2174770912067091
 40
0.4353705208258676
 40
0.6490388720034524
 40
0.8610609605884183
 40
1.0
 40
1.0
 40
1.0
 40
1.0
 10
-517.8930980033236
 20
-23.60491510163934
 30
0.0
 10
-517.8353253631636
 20
-23.61389266725014
 30
0.0
 10
-517.71966948283
 20
-23.63186498513448
 30
0.0
 10
-517.5655646197772
 20
-23.64353361391247
 30
0.0
 10
-517.450312298118
 20
-23.64054946652724
 30
0.0
 10
-517.3896007532239
 20
-23.6257405546661
 30
0.0
 10
-517.3821108501824
 20
-23.61082134260709
 30
0.0
 10
-517.37914573567
 20
-23.60491510163934
 30
0.0
  0
LINE
  5
20C
330
1F
100
AcDbEntity
  8
0
100
AcDbLine
 10
156.2417855632
 20
350.7623379389
 30
0.0
 11
156.2417855632
 21
21.9623379389
 31
0.0
  0
LINE
  5
20D
330
1F
100
AcDbEntity
  8
0
100
AcDbLine
 10
160.4417855632
 20
350.7623379389
 30
0.0
 11
160.4417855632
 21
21.9623379389
 31
0.0
  0
LINE
  5
20E
330
1F
100
AcDbEntity
  8
0
100
AcDbLine
 10
-610.0279815698
 20
199.0316621055
 30
0.0
 11
-610.0279815698
 21
350.7623379389
 31
0.0
  0
LINE
  5
20F
330
1F
100
AcDbEntity
  8
0
100
AcDbLine
 10
-610.0279815698
 20
21.9623379389
 30
0.0
 11
-610.0279815698
 21
199.0316621055
 31
0.0
  0
LINE
  5
210
330
1F
100
AcDbEntity
  8
0
100
AcDbLine
 10
-614.2279815698
 20
199.0316621055
 30
0.0
 11
-614.2279815698
 21
350.7623379389
 31
0.0
  0
LINE
  5
211
330
1F
100
AcDbEntity
  8
0
100
AcDbLine
 10
-614.2279815698
 20
21.9623379389
 30
0.0
 11
-614.2279815698
 21
199.0316621055
 31
0.0
  0
LINE
  5
212
330
1F
100
AcDbEntity
  8
0
100
AcDbLine
 10
117.4917855632
 20
343.0623379389
 30
0.0
 11
117.4917855632
 21
29.6623379389
 31
0.0
  0
LINE
  5
213
330
1F
100
AcDbEntity
  8
0
100
AcDbLine
 10
116.0195423768
 20
345.6123379389
 30
0.0
 11
116.0195423767
 21
27.1123379389
 31
0.0
  0
LINE
  5
214
330
1F
100
AcDbEntity
  8
0
100
AcDbLine
 10
164.4917855632
 20
343.0623379389
 30
0.0
 11
164.4917855632
 21
29.6623379389
 31
0.0
  0
LINE
  5
215
330
1F
100
AcDbEntity
  8
0
100
AcDbLine
 10
150.8326078863
 20
343.0623379389
 30
0.0
 11
150.8326078863
 21
29.6623379389
 31
0.0
  0
LINE
  5
216
330
1F
100
AcDbEntity
  8
0
100
AcDbLine
 10
169.4917855632
 20
30.9623379389
 30
0.0
 11
169.4917855632
 21
341.762337939
 31
0.0
  0
LINE
  5
217
330
1F
100
AcDbEntity
  8
0
100
AcDbLine
 10
-571.2779815698
 20
29.6623379389
 30
0.0
 11
-571.2779815698
 21
343.0623379389
 31
0.0
  0
LINE
  5
218
330
1F
100
AcDbEntity
  8
0
100
AcDbLine
 10
-569.8057383834
 20
27.1123379389
 30
0.0
 11
-569.8057383834
 21
345.6123379389
 31
0.0
  0
LINE
  5
219
330
1F
100
AcDbEntity
  8
0
100
AcDbLine
 10
-604.6188038929
 20
29.6623379389
 30
0.0
 11
-604.6188038929
 21
343.0623379389
 31
0.0
  0
LINE
  5
21A
330
1F
100
AcDbEntity
  8
0
100
AcDbLine
 10
-618.2779815698
 20
29.6623379389
 30
0.0
 11
-618.2779815698
 21
343.0623379389
 31
0.0
  0
LINE
  5
21B
330
1F
100
AcDbEntity
  8
0
100
AcDbLine
 10
-623.2779815698
 20
30.9623379389
 30
0.0
 11
-623.2779815698
 21
341.762337937
 31
0.0
  0
SPLINE
  5
21C
330
1F
100
AcDbEntity
  8
0
100
AcDbSpline
210
0.0
220
0.0
230
1.0
 70
     8
 71
     3
 72
    10
 73
     6
 74
     0
 42
0.00000001
 43
0.00000001
 40
0.0
 40
0.0
 40
0.0
 40
0.0
 40
0.0000010499899013
 40
0.7931950801965364
 40
1.0
 40
1.0
 40
1.0
 40
1.0
 10
-522.0501418010956
 20
396.4123373038776
 30
0.0
 10
-522.0501411734544
 20
396.4123375155656
 30
0.0
 10
-521.5760014229026
 20
396.5722532450893
 30
0.0
 10
-520.9783686079209
 20
396.3040841471756
 30
0.0
 10
-520.3797619591363
 20
395.5615418486389
 30
0.0
 10
-520.2559670291571
 20
395.4079802869014
 30
0.0
  0
SPLINE
  5
21D
330
1F
100
AcDbEntity
  8
0
100
AcDbSpline
210
0.0
220
0.0
230
1.0
 70
     8
 71
     3
 72
    10
 73
     6
 74
     0
 42
0.00000001
 43
0.00000001
 40
0.0
 40
0.0
 40
0.0
 40
0.0
 40
0.000001320100757
 40
0.9973550677237281
 40
1.0
 40
1.0
 40
1.0
 40
1.0
 10
-461.050141801232
 20
-23.68766135726627
 30
0.0
 10
-461.0501411735454
 20
-23.68766159186475
 30
0.0
 10
-460.5759149149573
 20
-23.86490410171588
 30
0.0
 10
-460.1008103519024
 20
-23.68559108947868
 30
0.0
 10
-459.6247920738348
 20
-23.12071549410191
 30
0.0
 10
-459.6235330360649
 20
-23.11922143443532
 30
0.0
  0
SPLINE
  5
21E
330
1F
100
AcDbEntity
  8
0
100
AcDbSpline
210
0.0
220
0.0
230
1.0
 70
     8
 71
     3
 72
    10
 73
     6
 74
     0
 42
0.00000001
 43
0.00000001
 40
0.0
 40
0.0
 40
0.0
 40
0.0
 40
0.0000010499899014
 40
0.7931950801965365
 40
1.0
 40
1.0
 40
1.0
 40
1.0
 10
-400.050141801096
 20
396.4123373038776
 30
0.0
 10
-400.0501411734547
 20
396.4123375155655
 30
0.0
 10
-399.57600142396
 20
396.5722532468081
 30
0.0
 10
-398.9783686078173
 20
396.3040841470068
 30
0.0
 10
-398.3797619591188
 20
395.56154184861
 30
0.0
 10
-398.2559670291574
 20
395.4079802869014
 30
0.0
  0
SPLINE
  5
21F
330
1F
100
AcDbEntity
  8
0
100
AcDbSpline
210
0.0
220
0.0
230
1.0
 70
     8
 71
     3
 72
    10
 73
     6
 74
     0
 42
0.00000001
 43
0.00000001
 40
0.0
 40
0.0
 40
0.0
 40
0.0
 40
0.0000013201007783
 40
0.9973550677237284
 40
0.9999999999999999
 40
0.9999999999999999
 40
0.9999999999999999
 40
0.9999999999999999
 10
-339.0501418012324
 20
-23.68766135726627
 30
0.0
 10
-339.0501411735457
 20
-23.68766159186472
 30
0.0
 10
-338.5759149061607
 20
-23.86490407873496
 30
0.0
 10
-338.1008103519138
 20
-23.68559108949886
 30
0.0
 10
-337.6247920738351
 20
-23.12071549410199
 30
0.0
 10
-337.6235330360652
 20
-23.11922143443535
 30
0.0
  0
SPLINE
  5
220
330
1F
100
AcDbEntity
  8
0
100
AcDbSpline
210
0.0
220
0.0
230
1.0
 70
     8
 71
     3
 72
    10
 73
     6
 74
     0
 42
0.00000001
 43
0.00000001
 40
0.0
 40
0.0
 40
0.0
 40
0.0
 40
0.0000010499899013
 40
0.7931950801965364
 40
1.0
 40
1.0
 40
1.0
 40
1.0
 10
-278.0501418010963
 20
396.4123373038776
 30
0.0
 10
-278.0501411734551
 20
396.4123375155656
 30
0.0
 10
-277.5760014296848
 20
396.5722532450893
 30
0.0
 10
-276.978368607256
 20
396.3040841471756
 30
0.0
 10
-276.3797619590227
 20
395.5615418486389
 30
0.0
 10
-276.2559670291577
 20
395.4079802869014
 30
0.0
  0
SPLINE
  5
221
330
1F
100
AcDbEntity
  8
0
100
AcDbSpline
210
0.0
220
0.0
230
1.0
 70
     8
 71
     3
 72
    10
 73
     6
 74
     0
 42
0.00000001
 43
0.00000001
 40
0.0
 40
0.0
 40
0.0
 40
0.0
 40
0.0000013201007786
 40
0.9973550677237277
 40
1.0
 40
1.0
 40
1.0
 40
1.0
 10
-217.0501418012327
 20
-23.6876613572663
 30
0.0
 10
-217.050141173546
 20
-23.68766159186472
 30
0.0
 10
-216.5759148995622
 20
-23.86490409613903
 30
0.0
 10
-216.1008103519271
 20
-23.68559108948986
 30
0.0
 10
-215.6247920738353
 20
-23.12071549410191
 30
0.0
 10
-215.6235330360655
 20
-23.11922143443532
 30
0.0
  0
SPLINE
  5
222
330
1F
100
AcDbEntity
  8
0
100
AcDbSpline
210
0.0
220
0.0
230
1.0
 70
     8
 71
     3
 72
    10
 73
     6
 74
     0
 42
0.00000001
 43
0.00000001
 40
0.0
 40
0.0
 40
0.0
 40
0.0
 40
0.0000010499898673
 40
0.7931950801965294
 40
1.0
 40
1.0
 40
1.0
 40
1.0
 10
-156.0501418010965
 20
396.4123373038776
 30
0.0
 10
-156.0501411734553
 20
396.4123375155656
 30
0.0
 10
-155.5760014337649
 20
396.5722532497045
 30
0.0
 10
-154.978368606856
 20
396.3040841467226
 30
0.0
 10
-154.3797619589545
 20
395.5615418485614
 30
0.0
 10
-154.2559670291579
 20
395.4079802869014
 30
0.0
  0
SPLINE
  5
223
330
1F
100
AcDbEntity
  8
0
100
AcDbSpline
210
0.0
220
0.0
230
1.0
 70
     8
 71
     3
 72
    10
 73
     6
 74
     0
 42
0.00000001
 43
0.00000001
 40
0.0
 40
0.0
 40
0.0
 40
0.0
 40
0.0000013201007783
 40
0.9973550677237285
 40
1.0
 40
1.0
 40
1.0
 40
1.0
 10
-95.05014180123294
 20
-23.68766135726627
 30
0.0
 10
-95.05014117354632
 20
-23.68766159186472
 30
0.0
 10
-94.57591492450817
 20
-23.86490407873501
 30
0.0
 10
-94.10081035189982
 20
-23.68559108949894
 30
0.0
 10
-93.62479207383554
 20
-23.12071549410199
 30
0.0
 10
-93.62353303606574
 20
-23.11922143443535
 30
0.0
  0
SPLINE
  5
224
330
1F
100
AcDbEntity
  8
0
100
AcDbSpline
210
0.0
220
0.0
230
1.0
 70
     8
 71
     3
 72
    10
 73
     6
 74
     0
 42
0.00000001
 43
0.00000001
 40
0.0
 40
0.0
 40
0.0
 40
0.0
 40
0.0000010499898673
 40
0.7931950801965225
 40
1.0
 40
1.0
 40
1.0
 40
1.0
 10
-34.05014180109678
 20
396.4123373038776
 30
0.0
 10
-34.05014117345556
 20
396.4123375155656
 30
0.0
 10
-33.57600142545142
 20
396.5722532566936
 30
0.0
 10
-32.97836860767187
 20
396.3040841460369
 30
0.0
 10
-32.37976195909456
 20
395.5615418484438
 30
0.0
 10
-32.25596702915828
 20
395.4079802869013
 30
0.0
  0
SPLINE
  5
225
330
1F
100
AcDbEntity
  8
0
100
AcDbSpline
210
0.0
220
0.0
230
1.0
 70
     8
 71
     3
 72
    10
 73
     6
 74
     0
 42
0.00000001
 43
0.00000001
 40
0.0
 40
0.0
 40
0.0
 40
0.0
 40
0.0000013201007783
 40
0.9973550677237281
 40
1.0
 40
1.0
 40
1.0
 40
1.0
 10
26.94985819876683
 20
-23.68766135726627
 30
0.0
 10
26.94985882645351
 20
-23.68766159186472
 30
0.0
 10
27.42408507156041
 20
-23.86490407873487
 30
0.0
 10
27.89918964811711
 20
-23.68559108950058
 30
0.0
 10
28.3752079261641
 20
-23.12071549410199
 30
0.0
 10
28.37646696393392
 20
-23.11922143443532
 30
0.0
  0
SPLINE
  5
226
330
1F
100
AcDbEntity
  8
0
100
AcDbSpline
210
0.0
220
0.0
230
1.0
 70
     8
 71
     3
 72
     9
 73
     5
 74
     0
 42
0.00000001
 43
0.00000001
 40
0.0
 40
0.0
 40
0.0
 40
0.0
 40
0.3189825026632588
 40
1.0
 40
1.0
 40
1.0
 40
1.0
 10
-520.6235330360649
 20
395.8438973123153
 30
0.0
 10
-520.5658758506157
 20
395.8283188837316
 30
0.0
 10
-520.3851224081304
 20
395.7794810056237
 30
0.0
 10
-520.2040934660729
 20
395.5162748164509
 30
0.0
 10
-520.0808095890073
 20
395.3370267962169
 30
0.0
  0
SPLINE
  5
227
330
1F
100
AcDbEntity
  8
0
100
AcDbSpline
210
0.0
220
0.0
230
1.0
 70
     8
 71
     3
 72
    10
 73
     6
 74
     0
 42
0.00000001
 43
0.00000001
 40
0.0
 40
0.0
 40
0.0
 40
0.0
 40
0.0007073349166632
 40
0.7940565700846491
 40
1.0
 40
1.0
 40
1.0
 40
1.0
 10
-460.8746316542324
 20
-23.61396484465306
 30
0.0
 10
-460.8742088437107
 20
-23.6141229223476
 30
0.0
 10
-460.3995603217502
 20
-23.79158147696081
 30
0.0
 10
-459.8021397104079
 20
-23.50500804569738
 30
0.0
 10
-459.2040661027469
 20
-22.76488275115371
 30
0.0
 10
-459.0808095890076
 20
-22.61235091833705
 30
0.0
  0
SPLINE
  5
228
330
1F
100
AcDbEntity
  8
0
100
AcDbSpline
210
0.0
220
0.0
230
1.0
 70
     8
 71
     3
 72
     9
 73
     5
 74
     0
 42
0.00000001
 43
0.00000001
 40
0.0
 40
0.0
 40
0.0
 40
0.0
 40
0.3189825026632775
 40
1.0
 40
1.0
 40
1.0
 40
1.0
 10
-398.6235330360651
 20
395.8438973123153
 30
0.0
 10
-398.5658758506161
 20
395.8283188837316
 30
0.0
 10
-398.3851224081306
 20
395.7794810056237
 30
0.0
 10
-398.2040934660731
 20
395.5162748164509
 30
0.0
 10
-398.0808095890076
 20
395.3370267962169
 30
0.0
  0
SPLINE
  5
229
330
1F
100
AcDbEntity
  8
0
100
AcDbSpline
210
0.0
220
0.0
230
1.0
 70
     8
 71
     3
 72
    10
 73
     6
 74
     0
 42
0.00000001
 43
0.00000001
 40
0.0
 40
0.0
 40
0.0
 40
0.0
 40
0.0007073349166462
 40
0.7940565700846389
 40
1.0
 40
1.0
 40
1.0
 40
1.0
 10
-338.8746316542327
 20
-23.61396484465309
 30
0.0
 10
-338.8742088437109
 20
-23.61412292234763
 30
0.0
 10
-338.3995603217468
 20
-23.79158147694893
 30
0.0
 10
-337.8021397104085
 20
-23.50500804569866
 30
0.0
 10
-337.2040661027473
 20
-22.76488275115396
 30
0.0
 10
-337.0808095890077
 20
-22.61235091833699
 30
0.0
  0
SPLINE
  5
22A
330
1F
100
AcDbEntity
  8
0
100
AcDbSpline
210
0.0
220
0.0
230
1.0
 70
     8
 71
     3
 72
     9
 73
     5
 74
     0
 42
0.00000001
 43
0.00000001
 40
0.0
 40
0.0
 40
0.0
 40
0.0
 40
0.31898250266324
 40
1.0
 40
1.0
 40
1.0
 40
1.0
 10
-276.6235330360653
 20
395.8438973123153
 30
0.0
 10
-276.5658758506163
 20
395.8283188837316
 30
0.0
 10
-276.3851224081309
 20
395.7794810056237
 30
0.0
 10
-276.2040934660735
 20
395.5162748164509
 30
0.0
 10
-276.0808095890079
 20
395.3370267962169
 30
0.0
  0
SPLINE
  5
22B
330
1F
100
AcDbEntity
  8
0
100
AcDbSpline
210
0.0
220
0.0
230
1.0
 70
     8
 71
     3
 72
    10
 73
     6
 74
     0
 42
0.00000001
 43
0.00000001
 40
0.0
 40
0.0
 40
0.0
 40
0.0
 40
0.0007073349166463
 40
0.794056570084652
 40
1.0
 40
1.0
 40
1.0
 40
1.0
 10
-216.8746316542329
 20
-23.61396484465309
 30
0.0
 10
-216.8742088437111
 20
-23.6141229223476
 30
0.0
 10
-216.3995603217468
 20
-23.79158147695565
 30
0.0
 10
-215.8021397104089
 20
-23.50500804569797
 30
0.0
 10
-215.2040661027476
 20
-22.76488275115379
 30
0.0
 10
-215.0808095890081
 20
-22.61235091833702
 30
0.0
  0
SPLINE
  5
22C
330
1F
100
AcDbEntity
  8
0
100
AcDbSpline
210
0.0
220
0.0
230
1.0
 70
     8
 71
     3
 72
     9
 73
     5
 74
     0
 42
0.00000001
 43
0.00000001
 40
0.0
 40
0.0
 40
0.0
 40
0.0
 40
0.31898250266324
 40
1.0
 40
1.0
 40
1.0
 40
1.0
 10
-154.6235330360656
 20
395.8438973123153
 30
0.0
 10
-154.5658758506166
 20
395.8283188837316
 30
0.0
 10
-154.3851224081311
 20
395.7794810056237
 30
0.0
 10
-154.2040934660737
 20
395.5162748164509
 30
0.0
 10
-154.0808095890082
 20
395.3370267962169
 30
0.0
  0
SPLINE
  5
22D
330
1F
100
AcDbEntity
  8
0
100
AcDbSpline
210
0.0
220
0.0
230
1.0
 70
     8
 71
     3
 72
    10
 73
     6
 74
     0
 42
0.00000001
 43
0.00000001
 40
0.0
 40
0.0
 40
0.0
 40
0.0
 40
0.0007073349166462
 40
0.7940565700846388
 40
1.0
 40
1.0
 40
1.0
 40
1.0
 10
-94.87463165423327
 20
-23.61396484465309
 30
0.0
 10
-94.8742088437115
 20
-23.61412292234763
 30
0.0
 10
-94.39956032174307
 20
-23.79158147693858
 30
0.0
 10
-93.80213971040955
 20
-23.50500804569966
 30
0.0
 10
-93.20406610274782
 20
-22.76488275115413
 30
0.0
 10
-93.08080958900824
 20
-22.61235091833699
 30
0.0
  0
SPLINE
  5
22E
330
1F
100
AcDbEntity
  8
0
100
AcDbSpline
210
0.0
220
0.0
230
1.0
 70
     8
 71
     3
 72
     9
 73
     5
 74
     0
 42
0.00000001
 43
0.00000001
 40
0.0
 40
0.0
 40
0.0
 40
0.0
 40
0.318982502663204
 40
1.0
 40
1.0
 40
1.0
 40
1.0
 10
-32.62353303606591
 20
395.8438973123153
 30
0.0
 10
-32.56587585061691
 20
395.8283188837316
 30
0.0
 10
-32.38512240813144
 20
395.7794810056236
 30
0.0
 10
-32.20409346607397
 20
395.5162748164508
 30
0.0
 10
-32.08080958900844
 20
395.3370267962168
 30
0.0
  0
SPLINE
  5
22F
330
1F
100
AcDbEntity
  8
0
100
AcDbSpline
210
0.0
220
0.0
230
1.0
 70
     8
 71
     3
 72
    10
 73
     6
 74
     0
 42
0.00000001
 43
0.00000001
 40
0.0
 40
0.0
 40
0.0
 40
0.0
 40
0.0007073349166126
 40
0.7940565700846176
 40
1.0
 40
1.0
 40
1.0
 40
1.0
 10
27.12536834576651
 20
-23.61396484465311
 30
0.0
 10
27.12579115628827
 20
-23.61412292234763
 30
0.0
 10
27.60043967825132
 20
-23.79158147693988
 30
0.0
 10
28.19786028959059
 20
-23.5050080456996
 30
0.0
 10
28.79593389725199
 20
-22.76488275115402
 30
0.0
 10
28.9191904109915
 20
-22.61235091833694
 30
0.0
  0
SPLINE
  5
230
330
1F
100
AcDbEntity
  8
0
100
AcDbSpline
210
0.0
220
0.0
230
1.0
 70
    24
 71
     3
 72
    22
 73
    18
 74
     0
 42
0.00000001
 43
0.00000001
 40
0.0
 40
0.0
 40
0.0
 40
0.0
 40
0.1427947350697548
 40
0.4229825937746146
 40
0.4577913923439885
 40
0.4752113494154499
 40
0.481606423073726
 40
0.4896102461724267
 40
0.4921854409838706
 40
0.4947843157415384
 40
0.4970575783580601
 40
0.5003965315664602
 40
0.5068511539272967
 40
0.5305342847648884
 40
0.6244358494358782
 40
0.9983757100959787
 40
1.0
 40
1.0
 40
1.0
 40
1.0
 10
-526.8930980033238
 20
396.2167811166065
 30
0.0
 10
-526.8930980033238
 20
396.2171625989299
 30
0.0
 10
-526.8930980033242
 20
396.2182926152612
 30
0.0
 10
-526.893098003321
 20
396.0941320812732
 30
0.0
 10
-526.8930980033244
 20
395.7531048020033
 30
0.0
 10
-526.8930980033222
 20
395.6622823392838
 30
0.0
 10
-526.8930980033252
 20
395.5934142565122
 30
0.0
 10
-526.8930980033175
 20
395.544580654682
 30
0.0
 10
-526.8930980033246
 20
395.4913887298804
 30
0.0
 10
-526.8930980033234
 20
395.4571227867604
 30
0.0
 10
-526.8930980033238
 20
395.4205892296308
 30
0.0
 10
-526.8930980033235
 20
395.374698088749
 30
0.0
 10
-526.8930980033238
 20
395.2812830340253
 30
0.0
 10
-526.8930980033235
 20
395.0890170185166
 30
0.0
 10
-526.8930980033251
 20
394.7271635521407
 30
0.0
 10
-526.893098003312
 20
394.559646546824
 30
0.0
 10
-526.8930980033238
 20
394.4627569798555
 30
0.0
 10
-526.8930980033238
 20
394.4623379389402
 30
0.0
  0
LINE
  5
231
330
1F
100
AcDbEntity
  8
0
100
AcDbLine
 10
-459.0698098323
 20
-21.8108853658
 30
0.0
 11
-458.8834076871
 21
-21.7376620611
 31
0.0
  0
LINE
  5
232
330
1F
100
AcDbEntity
  8
0
100
AcDbLine
 10
-337.0698098323
 20
-21.8108853658
 30
0.0
 11
-336.8834076871
 21
-21.7376620611
 31
0.0
  0
LINE
  5
233
330
1F
100
AcDbEntity
  8
0
100
AcDbLine
 10
-215.0698098323
 20
-21.8108853658
 30
0.0
 11
-214.8834076871
 21
-21.7376620611
 31
0.0
  0
LINE
  5
234
330
1F
100
AcDbEntity
  8
0
100
AcDbLine
 10
-93.0698098323
 20
-21.8108853658
 30
0.0
 11
-92.8834076871
 21
-21.7376620611
 31
0.0
  0
LINE
  5
235
330
1F
100
AcDbEntity
  8
0
100
AcDbLine
 10
28.9301901677
 20
-21.8108853658
 30
0.0
 11
29.1165923129
 21
-21.7376620611
 31
0.0
  0
SPLINE
  5
236
330
1F
100
AcDbEntity
  8
0
100
AcDbSpline
210
0.0
220
0.0
230
1.0
 70
     8
 71
     3
 72
     9
 73
     5
 74
     0
 42
0.00000001
 43
0.00000001
 40
0.0
 40
0.0
 40
0.0
 40
0.0
 40
0.2121958382657329
 40
1.0
 40
1.0
 40
1.0
 40
1.0
 10
-518.5734034951724
 20
393.9441375971594
 30
0.0
 10
-518.5390071581317
 20
393.9334886012483
 30
0.0
 10
-518.3769100250208
 20
393.8833038473992
 30
0.0
 10
-518.2145658791972
 20
393.6426052723203
 30
0.0
 10
-518.0866704854839
 20
393.4529819331495
 30
0.0
  0
SPLINE
  5
237
330
1F
100
AcDbEntity
  8
0
100
AcDbSpline
210
0.0
220
0.0
230
1.0
 70
     8
 71
     3
 72
     9
 73
     5
 74
     0
 42
0.00000001
 43
0.00000001
 40
0.0
 40
0.0
 40
0.0
 40
0.0
 40
0.2121958382658133
 40
1.0
 40
1.0
 40
1.0
 40
1.0
 10
-396.5734034951727
 20
393.9441375971594
 30
0.0
 10
-396.5390071581318
 20
393.9334886012482
 30
0.0
 10
-396.3769100250212
 20
393.8833038473992
 30
0.0
 10
-396.2145658791973
 20
393.6426052723202
 30
0.0
 10
-396.0866704854842
 20
393.4529819331495
 30
0.0
  0
SPLINE
  5
238
330
1F
100
AcDbEntity
  8
0
100
AcDbSpline
210
0.0
220
0.0
230
1.0
 70
     8
 71
     3
 72
     9
 73
     5
 74
     0
 42
0.00000001
 43
0.00000001
 40
0.0
 40
0.0
 40
0.0
 40
0.0
 40
0.2121958382657513
 40
0.9999999999999999
 40
0.9999999999999999
 40
0.9999999999999999
 40
0.9999999999999999
 10
-274.573403495173
 20
393.9441375971594
 30
0.0
 10
-274.5390071581321
 20
393.9334886012482
 30
0.0
 10
-274.3769100250213
 20
393.883303847399
 30
0.0
 10
-274.2145658791976
 20
393.6426052723202
 30
0.0
 10
-274.0866704854845
 20
393.4529819331495
 30
0.0
  0
SPLINE
  5
239
330
1F
100
AcDbEntity
  8
0
100
AcDbSpline
210
0.0
220
0.0
230
1.0
 70
     8
 71
     3
 72
     9
 73
     5
 74
     0
 42
0.00000001
 43
0.00000001
 40
0.0
 40
0.0
 40
0.0
 40
0.0
 40
0.2121958382657513
 40
0.9999999999999999
 40
0.9999999999999999
 40
0.9999999999999999
 40
0.9999999999999999
 10
-152.5734034951733
 20
393.9441375971594
 30
0.0
 10
-152.5390071581324
 20
393.9334886012482
 30
0.0
 10
-152.3769100250217
 20
393.883303847399
 30
0.0
 10
-152.2145658791979
 20
393.6426052723202
 30
0.0
 10
-152.0866704854847
 20
393.4529819331495
 30
0.0
  0
SPLINE
  5
23A
330
1F
100
AcDbEntity
  8
0
100
AcDbSpline
210
0.0
220
0.0
230
1.0
 70
     8
 71
     3
 72
     9
 73
     5
 74
     0
 42
0.00000001
 43
0.00000001
 40
0.0
 40
0.0
 40
0.0
 40
0.0
 40
0.2121958382657513
 40
0.9999999999999999
 40
0.9999999999999999
 40
0.9999999999999999
 40
0.9999999999999999
 10
-30.57340349517357
 20
393.9441375971594
 30
0.0
 10
-30.53900715813265
 20
393.9334886012482
 30
0.0
 10
-30.37691002502196
 20
393.8833038473991
 30
0.0
 10
-30.2145658791981
 20
393.6426052723202
 30
0.0
 10
-30.08667048548494
 20
393.4529819331495
 30
0.0
  0
LINE
  5
23B
330
1F
100
AcDbEntity
  8
0
100
AcDbLine
 10
73.1069019967
 20
394.4623379389
 30
0.0
 11
73.1069019967
 21
-21.7376620611
 31
0.0
  0
LINE
  5
23C
330
1F
100
AcDbEntity
  8
0
100
AcDbLine
 10
-526.8930980033
 20
394.4623379389
 30
0.0
 11
-526.8930980033
 21
-21.7376620611
 31
0.0
  0
LINE
  5
23D
330
1F
100
AcDbEntity
  8
0
100
AcDbLine
 10
-525.6640579882
 20
394.4623379389
 30
0.0
 11
-526.8930980033
 21
394.4623379389
 31
0.0
  0
LINE
  5
23E
330
1F
100
AcDbEntity
  8
0
100
AcDbLine
 10
-568.820965656
 20
345.5951479623
 30
0.0
 11
-568.5420181695
 21
345.5935264777
 31
0.0
  0
SPLINE
  5
23F
330
1F
100
AcDbEntity
  8
0
100
AcDbSpline
210
0.0
220
0.0
230
1.0
 70
     8
 71
     3
 72
     9
 73
     5
 74
     0
 42
0.00000001
 43
0.00000001
 40
0.0
 40
0.0
 40
0.0
 40
0.0
 40
0.6712153387075005
 40
1.0
 40
1.0
 40
1.0
 40
1.0
 10
-563.9261116331572
 20
345.7445813899638
 30
0.0
 10
-563.3981061265137
 20
345.6961731040191
 30
0.0
 10
-562.6114651244468
 20
345.6240527528397
 30
0.0
 10
-561.8241176133827
 20
344.7376240708477
 30
0.0
 10
-561.5652498286381
 20
344.446179916879
 30
0.0
  0
SPLINE
  5
240
330
1F
100
AcDbEntity
  8
0
100
AcDbSpline
210
0.0
220
0.0
230
1.0
 70
     8
 71
     3
 72
     9
 73
     5
 74
     0
 42
0.00000001
 43
0.00000001
 40
0.0
 40
0.0
 40
0.0
 40
0.0
 40
0.9557255138176437
 40
0.9999999999999999
 40
0.9999999999999999
 40
0.9999999999999999
 40
0.9999999999999999
 10
107.0742648045135
 20
27.06248479878678
 30
0.0
 10
107.493087898819
 20
27.00224621938574
 30
0.0
 10
107.9313131928496
 20
26.93921705616878
 30
0.0
 10
108.3705617616391
 20
27.33019540496162
 30
0.0
 10
108.3900092663285
 20
27.34750577046285
 30
0.0
  0
SPLINE
  5
241
330
1F
100
AcDbEntity
  8
0
100
AcDbSpline
210
0.0
220
0.0
230
1.0
 70
    24
 71
     3
 72
     9
 73
     5
 74
     0
 42
0.00000001
 43
0.00000001
 40
0.0
 40
0.0
 40
0.0
 40
0.0
 40
0.4529286909636659
 40
1.0
 40
1.0
 40
1.0
 40
1.0
 10
-568.8930980033235
 20
345.5955672580083
 30
0.0
 10
-568.8930980033235
 20
345.622462369112
 30
0.0
 10
-568.8930980033235
 20
345.6818428226805
 30
0.0
 10
-568.8930980033235
 20
345.5831475519399
 30
0.0
 10
-568.8930980033235
 20
345.5291542009802
 30
0.0
  0
SPLINE
  5
242
330
1F
100
AcDbEntity
  8
0
100
AcDbSpline
210
0.0
220
0.0
230
1.0
 70
     8
 71
     3
 72
     9
 73
     5
 74
     0
 42
0.00000001
 43
0.00000001
 40
0.0
 40
0.0
 40
0.0
 40
0.0
 40
0.2637258650485787
 40
0.9999999999999999
 40
0.9999999999999999
 40
0.9999999999999999
 40
0.9999999999999999
 10
-562.5619889327269
 20
345.3036640424315
 30
0.0
 10
-562.4591324286355
 20
345.2842203671727
 30
0.0
 10
-562.0691194730516
 20
345.210493524888
 30
0.0
 10
-561.678576274654
 20
344.72761189641
 30
0.0
 10
-561.3910294190927
 20
344.3720786431184
 30
0.0
  0
LINE
  5
243
330
1F
100
AcDbEntity
  8
0
100
AcDbLine
 10
107.2501038871
 20
27.1354877068
 30
0.0
 11
107.2824346092
 21
27.1415010981
 31
0.0
  0
LINE
  5
244
330
1F
100
AcDbEntity
  8
0
100
AcDbLine
 10
-563.9675783043
 20
345.65310919
 30
0.0
 11
-563.7440592538
 21
345.5787176331
 31
0.0
  0
SPLINE
  5
245
330
1F
100
AcDbEntity
  8
0
100
AcDbSpline
210
0.0
220
0.0
230
1.0
 70
     8
 71
     3
 72
     9
 73
     5
 74
     0
 42
0.00000001
 43
0.00000001
 40
0.0
 40
0.0
 40
0.0
 40
0.0
 40
0.8075693439379366
 40
1.0
 40
1.0
 40
1.0
 40
1.0
 10
-561.4156861739635
 20
344.2746267068927
 30
0.0
 10
-561.6424510488429
 20
344.5794226310448
 30
0.0
 10
-561.9232503097134
 20
344.9568464726507
 30
0.0
 10
-562.2040182723822
 20
345.0371872195652
 30
0.0
 10
-562.2580466356397
 20
345.0526472422024
 30
0.0
  0
SPLINE
  5
246
330
1F
100
AcDbEntity
  8
0
100
AcDbSpline
210
0.0
220
0.0
230
1.0
 70
     8
 71
     3
 72
     9
 73
     5
 74
     0
 42
0.00000001
 43
0.00000001
 40
0.0
 40
0.0
 40
0.0
 40
0.0
 40
0.9175691489317909
 40
0.9999999999999999
 40
0.9999999999999999
 40
0.9999999999999999
 40
0.9999999999999999
 10
-561.589801248796
 20
344.3444246710829
 30
0.0
 10
-561.8174542876136
 20
344.6593891996524
 30
0.0
 10
-562.065558791871
 20
345.0026489190274
 30
0.0
 10
-562.3136356418617
 20
345.0832966638302
 30
0.0
 10
-562.3340848277368
 20
345.089944526071
 30
0.0
  0
LINE
  5
247
330
1F
100
AcDbEntity
  8
0
100
AcDbLine
 10
-563.2473700246
 20
345.413409643
 30
0.0
 11
-563.9502047846
 21
345.6623379389
 31
0.0
  0
ARC
  5
248
330
1F
100
AcDbEntity
  8
0
100
AcDbCircle
 10
971.9012624056
 20
185.9722004015
 30
0.0
 40
8.000000000000002
100
AcDbArc
 50
17.1467397277
 51
24.6717675422
  0
ARC
  5
249
330
1F
100
AcDbEntity
  8
0
100
AcDbCircle
 10
971.9012624056
 20
186.7524754764
 30
0.0
 40
8.00000000000005
100
AcDbArc
 50
336.0860240596
 51
342.8515803462
  0
ARC
  5
24A
330
1F
100
AcDbEntity
  8
0
100
AcDbCircle
 10
567.6822251679
 20
186.7524754764
 30
0.0
 40
7.99999999999998
100
AcDbArc
 50
197.1467397277
 51
204.6717675423
  0
ARC
  5
24B
330
1F
100
AcDbEntity
  8
0
100
AcDbCircle
 10
567.6822251679
 20
185.9722004015
 30
0.0
 40
7.999999999999913
100
AcDbArc
 50
156.0860240595
 51
162.8515803462
  0
ARC
  5
24C
330
1F
100
AcDbEntity
  8
0
100
AcDbCircle
 10
769.4016062493
 20
-15.7471806799
 30
0.0
 40
7.999999999999999
100
AcDbArc
 50
287.1467397277
 51
294.6717675422
  0
ARC
  5
24D
330
1F
100
AcDbEntity
  8
0
100
AcDbCircle
 10
770.1818813242
 20
-15.7471806799
 30
0.0
 40
7.99999999999998
100
AcDbArc
 50
246.0860240595
 51
252.8515803462
  0
CIRCLE
  5
24E
330
1F
100
AcDbEntity
  8
0
100
AcDbCircle
 10
769.7917437867
 20
186.3623379389
 30
0.0
 40
164.9000000000001
  0
CIRCLE
  5
24F
330
1F
100
AcDbEntity
  8
0
100
AcDbCircle
 10
769.7917437867
 20
186.3623379389
 30
0.0
 40
209.4
  0
LINE
  5
250
330
1F
100
AcDbEntity
  8
0
100
AcDbLine
 10
979.5309213079
 20
186.8244139682
 30
0.0
 11
979.7589968273
 21
186.8483856713
 31
0.0
  0
SPLINE
  5
251
330
1F
100
AcDbEntity
  8
0
100
AcDbSpline
210
0.0
220
0.0
230
1.0
 70
     8
 71
     3
 72
     9
 73
     5
 74
     0
 42
0.00000001
 43
0.00000001
 40
0.0
 40
0.0
 40
0.0
 40
0.0
 40
0.4987608531415021
 40
1.0
 40
1.0
 40
1.0
 40
1.0
 10
979.5309213079169
 20
185.9002619096413
 30
0.0
 10
979.5390053758782
 20
186.0539048227636
 30
0.0
 10
979.5552136807411
 20
186.3619540855609
 30
0.0
 10
979.5390321330676
 20
186.6700061928099
 30
0.0
 10
979.5309213079169
 20
186.8244139682354
 30
0.0
  0
LINE
  5
252
330
1F
100
AcDbEntity
  8
0
100
AcDbLine
 10
979.7589968273
 20
185.8762902066
 30
0.0
 11
979.5309213079
 21
185.9002619096
 31
0.0
  0
SPLINE
  5
253
330
1F
100
AcDbEntity
  8
0
100
AcDbSpline
210
0.0
220
0.0
230
1.0
 70
     8
 71
     3
 72
    12
 73
     8
 74
     0
 42
0.00000001
 43
0.00000001
 40
0.0
 40
0.0
 40
0.0
 40
0.0
 40
0.2174770912066382
 40
0.4353705208257975
 40
0.6490388720033428
 40
0.8610609605882534
 40
1.0
 40
1.0
 40
1.0
 40
1.0
 10
979.758996827317
 20
185.3623379389383
 30
0.0
 10
979.7679743929278
 20
185.4201105790983
 30
0.0
 10
979.7859467108121
 20
185.5357664594321
 30
0.0
 10
979.7976153395902
 20
185.6898713224846
 30
0.0
 10
979.7946311922051
 20
185.8051236441439
 30
0.0
 10
979.7798222803438
 20
185.8658351890379
 30
0.0
 10
979.7649030682848
 20
185.8733250920795
 30
0.0
 10
979.758996827317
 20
185.8762902065919
 30
0.0
  0
LINE
  5
254
330
1F
100
AcDbEntity
  8
0
100
AcDbLine
 10
979.5309213079
 20
184.4002619096
 30
0.0
 11
979.7589968273
 21
185.3623379389
 31
0.0
  0
LINE
  5
255
330
1F
100
AcDbEntity
  8
0
100
AcDbLine
 10
979.7589968273
 20
187.3623379389
 30
0.0
 11
979.5309213079
 21
188.3244139682
 31
0.0
  0
SPLINE
  5
256
330
1F
100
AcDbEntity
  8
0
100
AcDbSpline
210
0.0
220
0.0
230
1.0
 70
     8
 71
     3
 72
    12
 73
     8
 74
     0
 42
0.00000001
 43
0.00000001
 40
0.0
 40
0.0
 40
0.0
 40
0.0
 40
0.2174770912067097
 40
0.4353705208258689
 40
0.649038872003455
 40
0.8610609605884181
 40
1.0
 40
1.0
 40
1.0
 40
1.0
 10
979.758996827317
 20
186.8483856712848
 30
0.0
 10
979.7679743929278
 20
186.8549943096563
 30
0.0
 10
979.7859467108123
 20
186.8682242379849
 30
0.0
 10
979.7976153395904
 20
186.9591122259411
 30
0.0
 10
979.794631192205
 20
187.09045008129
 30
0.0
 10
979.7798222803439
 20
187.2326747454597
 30
0.0
 10
979.7649030682848
 20
187.3255645701021
 30
0.0
 10
979.758996827317
 20
187.3623379389382
 30
0.0
  0
LINE
  5
257
330
1F
100
AcDbEntity
  8
0
100
AcDbLine
 10
560.0525662656
 20
185.9002619096
 30
0.0
 11
559.8244907462
 21
185.8762902066
 31
0.0
  0
SPLINE
  5
258
330
1F
100
AcDbEntity
  8
0
100
AcDbSpline
210
0.0
220
0.0
230
1.0
 70
     8
 71
     3
 72
     9
 73
     5
 74
     0
 42
0.00000001
 43
0.00000001
 40
0.0
 40
0.0
 40
0.0
 40
0.0
 40
0.4987608531415024
 40
1.0
 40
1.0
 40
1.0
 40
1.0
 10
560.0525662655607
 20
186.8244139682392
 30
0.0
 10
560.0444821975993
 20
186.6707710551169
 30
0.0
 10
560.0282738927365
 20
186.3627217923197
 30
0.0
 10
560.0444554404099
 20
186.0546696850706
 30
0.0
 10
560.0525662655607
 20
185.9002619096451
 30
0.0
  0
LINE
  5
259
330
1F
100
AcDbEntity
  8
0
100
AcDbLine
 10
559.8244907462
 20
186.8483856713
 30
0.0
 11
560.0525662656
 21
186.8244139682
 31
0.0
  0
SPLINE
  5
25A
330
1F
100
AcDbEntity
  8
0
100
AcDbSpline
210
0.0
220
0.0
230
1.0
 70
     8
 71
     3
 72
    12
 73
     8
 74
     0
 42
0.00000001
 43
0.00000001
 40
0.0
 40
0.0
 40
0.0
 40
0.0
 40
0.2174770912066387
 40
0.4353705208257962
 40
0.649038872003342
 40
0.8610609605882531
 40
1.0
 40
1.0
 40
1.0
 40
1.0
 10
559.8244907461604
 20
187.3623379389422
 30
0.0
 10
559.8155131805497
 20
187.3045652987822
 30
0.0
 10
559.7975408626654
 20
187.1889094184484
 30
0.0
 10
559.7858722338871
 20
187.0348045553959
 30
0.0
 10
559.7888563812724
 20
186.9195522337366
 30
0.0
 10
559.8036652931337
 20
186.8588406888426
 30
0.0
 10
559.8185845051927
 20
186.8513507858009
 30
0.0
 10
559.8244907461604
 20
186.8483856712886
 30
0.0
  0
LINE
  5
25B
330
1F
100
AcDbEntity
  8
0
100
AcDbLine
 10
560.0525662656
 20
188.3244139682
 30
0.0
 11
559.8244907462
 21
187.3623379389
 31
0.0
  0
LINE
  5
25C
330
1F
100
AcDbEntity
  8
0
100
AcDbLine
 10
559.8244907462
 20
185.3623379389
 30
0.0
 11
560.0525662656
 21
184.4002619096
 31
0.0
  0
SPLINE
  5
25D
330
1F
100
AcDbEntity
  8
0
100
AcDbSpline
210
0.0
220
0.0
230
1.0
 70
     8
 71
     3
 72
    12
 73
     8
 74
     0
 42
0.00000001
 43
0.00000001
 40
0.0
 40
0.0
 40
0.0
 40
0.0
 40
0.2174770912067091
 40
0.4353705208258676
 40
0.6490388720034529
 40
0.8610609605884185
 40
1.0
 40
1.0
 40
1.0
 40
1.0
 10
559.8244907461604
 20
185.8762902065957
 30
0.0
 10
559.8155131805497
 20
185.8696815682242
 30
0.0
 10
559.7975408626654
 20
185.8564516398956
 30
0.0
 10
559.7858722338871
 20
185.7655636519394
 30
0.0
 10
559.7888563812724
 20
185.6342257965905
 30
0.0
 10
559.8036652931337
 20
185.4920011324209
 30
0.0
 10
559.8185845051926
 20
185.3991113077784
 30
0.0
 10
559.8244907461604
 20
185.3623379389423
 30
0.0
  0
SPLINE
  5
25E
330
1F
100
AcDbEntity
  8
0
100
AcDbSpline
210
0.0
220
0.0
230
1.0
 70
     8
 71
     3
 72
    12
 73
     8
 74
     0
 42
0.00000001
 43
0.00000001
 40
0.0
 40
0.0
 40
0.0
 40
0.0
 40
0.217477091206639
 40
0.4353705208257966
 40
0.6490388720033422
 40
0.8610609605882531
 40
0.9999999999999999
 40
0.9999999999999999
 40
0.9999999999999999
 40
0.9999999999999999
 10
770.7917437867359
 20
396.3295909795231
 30
0.0
 10
770.733971146576
 20
396.338568545134
 30
0.0
 10
770.6183152662421
 20
396.3565408630182
 30
0.0
 10
770.4642104031896
 20
396.3682094917964
 30
0.0
 10
770.3489580815302
 20
396.365225344411
 30
0.0
 10
770.2882465366363
 20
396.35041643255
 30
0.0
 10
770.2807566335946
 20
396.3354972204909
 30
0.0
 10
770.2777915190823
 20
396.3295909795231
 30
0.0
  0
LINE
  5
25F
330
1F
100
AcDbEntity
  8
0
100
AcDbLine
 10
771.753819816
 20
396.1015154601
 30
0.0
 11
770.7917437867
 21
396.3295909795
 31
0.0
  0
LINE
  5
260
330
1F
100
AcDbEntity
  8
0
100
AcDbLine
 10
768.7917437867
 20
396.3295909795
 30
0.0
 11
767.8296677574
 21
396.1015154601
 31
0.0
  0
SPLINE
  5
261
330
1F
100
AcDbEntity
  8
0
100
AcDbSpline
210
0.0
220
0.0
230
1.0
 70
     8
 71
     3
 72
    12
 73
     8
 74
     0
 42
0.00000001
 43
0.00000001
 40
0.0
 40
0.0
 40
0.0
 40
0.0
 40
0.2174770912067092
 40
0.4353705208258679
 40
0.6490388720034532
 40
0.8610609605884187
 40
1.0
 40
1.0
 40
1.0
 40
1.0
 10
769.3056960543895
 20
396.3295909795231
 30
0.0
 10
769.2990874160179
 20
396.338568545134
 30
0.0
 10
769.2858574876893
 20
396.3565408630182
 30
0.0
 10
769.1949694997331
 20
396.3682094917964
 30
0.0
 10
769.0636316443841
 20
396.3652253444112
 30
0.0
 10
768.9214069802146
 20
396.3504164325499
 30
0.0
 10
768.8285171555721
 20
396.3354972204909
 30
0.0
 10
768.791743786736
 20
396.3295909795231
 30
0.0
  0
LINE
  5
262
330
1F
100
AcDbEntity
  8
0
100
AcDbLine
 10
770.253819816
 20
-23.3768395822
 30
0.0
 11
770.2777915191
 21
-23.6049151016
 31
0.0
  0
SPLINE
  5
263
330
1F
100
AcDbEntity
  8
0
100
AcDbSpline
210
0.0
220
0.0
230
1.0
 70
     8
 71
     3
 72
     9
 73
     5
 74
     0
 42
0.00000001
 43
0.00000001
 40
0.0
 40
0.0
 40
0.0
 40
0.0
 40
0.498760853141502
 40
1.0
 40
1.0
 40
1.0
 40
1.0
 10
769.3296677574194
 20
-23.3768395822391
 30
0.0
 10
769.4833106705418
 20
-23.38492365020042
 30
0.0
 10
769.791359933339
 20
-23.40113195506324
 30
0.0
 10
770.099412040588
 20
-23.38495040738978
 30
0.0
 10
770.2538198160136
 20
-23.37683958223913
 30
0.0
  0
LINE
  5
264
330
1F
100
AcDbEntity
  8
0
100
AcDbLine
 10
769.3056960544
 20
-23.6049151016
 30
0.0
 11
769.3296677574
 21
-23.3768395822
 31
0.0
  0
SPLINE
  5
265
330
1F
100
AcDbEntity
  8
0
100
AcDbSpline
210
0.0
220
0.0
230
1.0
 70
     8
 71
     3
 72
    12
 73
     8
 74
     0
 42
0.00000001
 43
0.00000001
 40
0.0
 40
0.0
 40
0.0
 40
0.0
 40
0.2174770912066387
 40
0.4353705208257962
 40
0.6490388720033416
 40
0.861060960588253
 40
1.0
 40
1.0
 40
1.0
 40
1.0
 10
768.7917437867164
 20
-23.60491510163929
 30
0.0
 10
768.8495164268764
 20
-23.61389266725006
 30
0.0
 10
768.9651723072103
 20
-23.63186498513431
 30
0.0
 10
769.1192771702628
 20
-23.64353361391258
 30
0.0
 10
769.2345294919221
 20
-23.64054946652722
 30
0.0
 10
769.295241036816
 20
-23.62574055466601
 30
0.0
 10
769.3027309398577
 20
-23.61082134260698
 30
0.0
 10
769.3056960543701
 20
-23.60491510163929
 30
0.0
  0
LINE
  5
266
330
1F
100
AcDbEntity
  8
0
100
AcDbLine
 10
767.8296677574
 20
-23.3768395822
 30
0.0
 11
768.7917437867
 21
-23.6049151016
 31
0.0
  0
LINE
  5
267
330
1F
100
AcDbEntity
  8
0
100
AcDbLine
 10
770.7917437867
 20
-23.6049151016
 30
0.0
 11
771.753819816
 21
-23.3768395822
 31
0.0
  0
SPLINE
  5
268
330
1F
100
AcDbEntity
  8
0
100
AcDbSpline
210
0.0
220
0.0
230
1.0
 70
     8
 71
     3
 72
    12
 73
     8
 74
     0
 42
0.00000001
 43
0.00000001
 40
0.0
 40
0.0
 40
0.0
 40
0.0
 40
0.2174770912067091
 40
0.4353705208258676
 40
0.6490388720034524
 40
0.8610609605884183
 40
1.0
 40
1.0
 40
1.0
 40
1.0
 10
770.2777915190629
 20
-23.60491510163934
 30
0.0
 10
770.2844001574344
 20
-23.61389266725014
 30
0.0
 10
770.2976300857631
 20
-23.63186498513448
 30
0.0
 10
770.3885180737192
 20
-23.64353361391247
 30
0.0
 10
770.5198559290683
 20
-23.64054946652724
 30
0.0
 10
770.6620805932379
 20
-23.6257405546661
 30
0.0
 10
770.7549704178804
 20
-23.61082134260709
 30
0.0
 10
770.7917437867163
 20
-23.60491510163934
 30
0.0
  0
CIRCLE
  5
269
330
1F
100
AcDbEntity
  8
0
100
AcDbCircle
 10
769.7917437867
 20
186.3623379389
 30
0.0
 40
156.7
  0
CIRCLE
  5
26A
330
1F
100
AcDbEntity
  8
0
100
AcDbCircle
 10
769.7917437867
 20
186.3623379389
 30
0.0
 40
152.9
  0
CIRCLE
  5
26B
330
1F
100
AcDbEntity
  8
0
100
AcDbCircle
 10
769.7917437867
 20
186.3623379389
 30
0.0
 40
206.65
  0
SPLINE
  5
26C
330
1F
100
AcDbEntity
  8
0
100
AcDbSpline
210
0.0
220
0.0
230
1.0
 70
     8
 71
     3
 72
     9
 73
     5
 74
     0
 42
0.00000001
 43
0.00000001
 40
0.0
 40
0.0
 40
0.0
 40
0.0
 40
0.4117002198289554
 40
1.0
 40
1.0
 40
1.0
 40
1.0
 10
657.5074162609237
 20
363.8820052777317
 30
0.0
 10
658.0397196937794
 20
364.215456262279
 30
0.0
 10
659.3326590880719
 20
365.0253926394951
 30
0.0
 10
660.6743219426727
 20
365.7521505237005
 30
0.0
 10
661.4636219050981
 20
366.1797020272161
 30
0.0
  0
SPLINE
  5
26D
330
1F
100
AcDbEntity
  8
0
100
AcDbSpline
210
0.0
220
0.0
230
1.0
 70
     8
 71
     3
 72
    12
 73
     8
 74
     0
 42
0.00000001
 43
0.00000001
 40
0.0
 40
0.0
 40
0.0
 40
0.0
 40
0.185751667529872
 40
0.557379576315002
 40
0.9315040978037169
 40
0.9779830036655227
 40
1.0
 40
1.0
 40
1.0
 40
1.0
 10
759.509966926857
 20
396.1605447105994
 30
0.0
 10
760.1375222935288
 20
396.1866844306626
 30
0.0
 10
762.020609261421
 20
396.2651211213667
 30
0.0
 10
765.1686733404151
 20
396.2346210916314
 30
0.0
 10
767.8527028533672
 20
396.080428510181
 30
0.0
 10
769.3202307744874
 20
395.7586410061229
 30
0.0
 10
769.5345911805358
 20
395.6703330381814
 30
0.0
 10
769.6034941677642
 20
395.6419477458626
 30
0.0
  0
SPLINE
  5
26E
330
1F
100
AcDbEntity
  8
0
100
AcDbSpline
210
0.0
220
0.0
230
1.0
 70
     8
 71
     3
 72
    93
 73
    89
 74
     0
 42
0.00000001
 43
0.00000001
 40
0.0
 40
0.0
 40
0.0
 40
0.0
 40
0.0080682343514063
 40
0.0201431362670159
 40
0.0322243233552155
 40
0.0442938533792347
 40
0.0563765379164315
 40
0.0684473079079981
 40
0.0805266985547914
 40
0.0919152553007914
 40
0.1032964366561074
 40
0.1146891778563371
 40
0.126069799710632
 40
0.1374590903456355
 40
0.1495377326352651
 40
0.1616091225430348
 40
0.1736916573183709
 40
0.1857609806636119
 40
0.1978426169469379
 40
0.209916486069154
 40
0.2213022210599363
 40
0.2326938240731993
 40
0.2440732708609516
 40
0.255465241006068
 40
0.266849946409867
 40
0.2789248483254766
 40
0.2910060354136763
 40
0.3030755654376954
 40
0.3151582499748922
 40
0.3272290199664588
 40
0.3393084106132519
 40
0.3506969673592518
 40
0.3620781487145676
 40
0.3734708899147971
 40
0.3848515117690918
 40
0.3962408024040958
 40
0.4083194446937255
 40
0.4203908346014953
 40
0.4324733693768314
 40
0.4445426927220723
 40
0.4566243290053985
 40
0.4686981981276147
 40
0.4800839331183969
 40
0.4914755361316597
 40
0.5028549829194121
 40
0.5142469530645286
 40
0.5256316584683276
 40
0.537706560383937
 40
0.5497877474721367
 40
0.5618572774961559
 40
0.5739399620333526
 40
0.5860107320249194
 40
0.5980901226717126
 40
0.6094786794177124
 40
0.6208598607730282
 40
0.6322526019732579
 40
0.6436332238275527
 40
0.6550225144625567
 40
0.6671011567521862
 40
0.6791725466599562
 40
0.6912550814352924
 40
0.7033244047805333
 40
0.7154060410638594
 40
0.7274799101860752
 40
0.7388656451768574
 40
0.7502572481901204
 40
0.7616366949778727
 40
0.7730286651229892
 40
0.7844133705267882
 40
0.7964882724423975
 40
0.8085694595305973
 40
0.8206389895546163
 40
0.832721674091813
 40
0.8447924440833797
 40
0.856871834730173
 40
0.868260391476173
 40
0.8796415728314887
 40
0.8910343140317184
 40
0.9024149358860131
 40
0.9138042265210171
 40
0.9251304033958676
 40
0.9364478020741873
 40
0.9477773600679276
 40
0.9590956470814216
 40
0.9704206694107944
 40
0.9817478325885844
 40
0.9950862456339798
 40
1.0
 40
1.0
 40
1.0
 40
1.0
 10
759.509966926857
 20
396.1605447105994
 30
0.0
 10
762.9368366595255
 20
396.2785594126987
 30
0.0
 10
771.492352152506
 20
396.5731946603084
 30
0.0
 10
785.1908261083883
 20
396.0249632633303
 30
0.0
 10
800.502991742439
 20
394.3481949066996
 30
0.0
 10
815.6552084501508
 20
391.5362207808017
 30
0.0
 10
830.5558060806048
 20
387.6281217245975
 30
0.0
 10
845.134700276187
 20
382.6363949345468
 30
0.0
 10
859.0371170703414
 20
376.7066595248767
 30
0.0
 10
872.2199131482807
 20
369.937283634952
 30
0.0
 10
884.6543506173864
 20
362.4245391488935
 30
0.0
 10
896.5369603284547
 20
354.0732906709667
 30
0.0
 10
907.817658840243
 20
344.9187619175089
 30
0.0
 10
918.6521235264145
 20
334.8085548511954
 30
0.0
 10
928.9408444904005
 20
323.7364667839489
 30
0.0
 10
938.5755419480001
 20
311.7103974770047
 30
0.0
 10
947.3010113742986
 20
299.0147052924227
 30
0.0
 10
955.0758214791659
 20
285.7097089261617
 30
0.0
 10
961.8534619974622
 20
271.8749994913203
 30
0.0
 10
967.4913351594276
 20
257.8502100200816
 30
0.0
 10
972.0268205011469
 20
243.7409757891342
 30
0.0
 10
975.5061813772496
 20
229.6390194245048
 30
0.0
 10
978.0039756087349
 20
215.3273075001971
 30
0.0
 10
979.5071365748508
 20
200.8807587584778
 30
0.0
 10
980.019140781849
 20
186.0691045486384
 30
0.0
 10
979.4653268823088
 20
170.9639282122051
 30
0.0
 10
977.7746672350346
 20
155.6509099219659
 30
0.0
 10
974.9664133279077
 20
140.4989215636306
 30
0.0
 10
971.0573168867021
 20
125.5982627130557
 30
0.0
 10
966.0658573675225
 20
111.0193849227284
 30
0.0
 10
960.1360511683707
 20
97.11696378347098
 30
0.0
 10
953.3666931908466
 20
83.93416880500631
 30
0.0
 10
945.8539440022405
 20
71.49973104725542
 30
0.0
 10
937.5026967849867
 20
59.61712141356809
 30
0.0
 10
928.3481676940894
 20
48.3364228810676
 30
0.0
 10
918.2379607193783
 20
37.50195820051847
 30
0.0
 10
907.1658726261587
 20
27.2132372349381
 30
0.0
 10
895.139803326306
 20
17.57853977777354
 30
0.0
 10
882.4441111398229
 20
8.853070351358571
 30
0.0
 10
869.1391147740711
 20
1.078260246522189
 30
0.0
 10
855.3044053390931
 20
-5.699380271782351
 30
0.0
 10
841.2796158678905
 20
-11.33725343374578
 30
0.0
 10
827.170381636934
 20
-15.87273877546527
 30
0.0
 10
813.0684252723072
 20
-19.35209965156792
 30
0.0
 10
798.7567133479989
 20
-21.84989388305325
 30
0.0
 10
784.3101646062796
 20
-23.35305484916939
 30
0.0
 10
769.4985103964402
 20
-23.86505905616726
 30
0.0
 10
754.3933340600069
 20
-23.31124515662725
 30
0.0
 10
739.0803157697678
 20
-21.620585509353
 30
0.0
 10
723.9283274114326
 20
-18.81233160222606
 30
0.0
 10
709.0276685608574
 20
-14.90323516102038
 30
0.0
 10
694.4487907705301
 20
-9.91177564184098
 30
0.0
 10
680.5463696312726
 20
-3.981969442689082
 30
0.0
 10
667.363574652808
 20
2.787388534835011
 30
0.0
 10
654.929136895057
 20
10.30013772344127
 30
0.0
 10
643.0465272613696
 20
18.65138494069501
 30
0.0
 10
631.765828728869
 20
27.80591403159238
 30
0.0
 10
620.9313640483201
 20
37.91612100630346
 30
0.0
 10
610.6426430827395
 20
48.98820909952315
 30
0.0
 10
601.0079456255753
 20
61.01427839937559
 30
0.0
 10
592.2824761991601
 20
73.70997058585885
 30
0.0
 10
584.5076660943238
 20
87.01496695161073
 30
0.0
 10
577.7300255760193
 20
100.8496763865884
 30
0.0
 10
572.092152414056
 20
114.874465857791
 30
0.0
 10
567.5566670723362
 20
128.9837000887474
 30
0.0
 10
564.0773061962348
 20
143.0856564533748
 30
0.0
 10
561.5795119647449
 20
157.3973683776806
 30
0.0
 10
560.0763509986451
 20
171.8439171194097
 30
0.0
 10
559.5643467915855
 20
186.6555713292103
 30
0.0
 10
560.1181606913692
 20
201.7607476657989
 30
0.0
 10
561.8088203377229
 20
217.0737659554508
 30
0.0
 10
564.617074248282
 20
232.2257543159743
 30
0.0
 10
568.5261706766725
 20
247.1264131583799
 30
0.0
 10
573.517630243656
 20
261.705290979181
 30
0.0
 10
579.4474362677187
 20
275.607712006824
 30
0.0
 10
586.2167948627228
 20
288.7905073789155
 30
0.0
 10
593.7295417765431
 20
301.2249436865524
 30
0.0
 10
602.0807974920548
 20
313.1075587376476
 30
0.0
 10
611.2352948835091
 20
324.3882370626162
 30
0.0
 10
621.1273159409744
 20
334.9888345021467
 30
0.0
 10
631.7062562025902
 20
344.8645038932977
 30
0.0
 10
642.9190872364194
 20
353.9743154014579
 30
0.0
 10
654.72751504165
 20
362.2915847443715
 30
0.0
 10
667.0837400634342
 20
369.7752454232208
 30
0.0
 10
679.9190756591141
 20
376.4106112246174
 30
0.0
 10
693.9858681937665
 20
382.4167629036733
 30
0.0
 10
705.8283357032325
 20
386.7196004491277
 30
0.0
 10
713.3598928775892
 20
388.5781000745838
 30
0.0
 10
715.3874998523795
 20
389.0784357576281
 30
0.0
  0
SPLINE
  5
26F
330
1F
100
AcDbEntity
  8
0
100
AcDbSpline
210
0.0
220
0.0
230
1.0
 70
     8
 71
     3
 72
    11
 73
     7
 74
     0
 42
0.00000001
 43
0.00000001
 40
0.0
 40
0.0
 40
0.0
 40
0.0
 40
0.0331097321442457
 40
0.4283445194885196
 40
0.9865275324504319
 40
1.0
 40
1.0
 40
1.0
 40
1.0
 10
763.0046590092718
 20
395.4851135272024
 30
0.0
 10
762.9672875857647
 20
395.4936096889552
 30
0.0
 10
762.4838090612323
 20
395.6035255380962
 30
0.0
 10
761.3298435206904
 20
395.5931696405864
 30
0.0
 10
760.2155797435506
 20
395.5942028987524
 30
0.0
 10
759.554906821943
 20
395.5620223620801
 30
0.0
 10
759.5393364394299
 20
395.561263948576
 30
0.0
  0
SPLINE
  5
270
330
1F
100
AcDbEntity
  8
0
100
AcDbSpline
210
0.0
220
0.0
230
1.0
 70
     8
 71
     3
 72
    10
 73
     6
 74
     0
 42
0.00000001
 43
0.00000001
 40
0.0
 40
0.0
 40
0.0
 40
0.0
 40
0.2118594437510152
 40
0.6056387401611922
 40
1.0
 40
1.0
 40
1.0
 40
1.0
 10
720.6868722664906
 20
389.9747493803353
 30
0.0
 10
720.5561556508836
 20
389.9424912182681
 30
0.0
 10
720.1824784383285
 20
389.850275396833
 30
0.0
 10
719.5688377809486
 20
389.6838857489288
 30
0.0
 10
719.093031545153
 20
389.5271461122271
 30
0.0
 10
718.8549527594596
 20
389.4487184255583
 30
0.0
  0
ARC
  5
271
330
1F
100
AcDbEntity
  8
0
100
AcDbCircle
 10
769.7917437867
 20
186.3623379389
 30
0.0
 40
210.050000000001
100
AcDbArc
 50
92.8057030444
 51
104.2915778728
  0
ARC
  5
272
330
1F
100
AcDbEntity
  8
0
100
AcDbCircle
 10
769.7917437867
 20
186.3623379389
 30
0.0
 40
209.450000000001
100
AcDbArc
 50
92.8057030444
 51
103.5590127585
  0
SPLINE
  5
273
330
1F
100
AcDbEntity
  8
0
100
AcDbSpline
210
0.0
220
0.0
230
1.0
 70
     8
 71
     3
 72
    10
 73
     6
 74
     0
 42
0.00000001
 43
0.00000001
 40
0.0
 40
0.0
 40
0.0
 40
0.0
 40
0.2113152312582864
 40
0.605408410405767
 40
0.9999999999999999
 40
0.9999999999999999
 40
0.9999999999999999
 40
0.9999999999999999
 10
716.1095304912328
 20
389.3610244544996
 30
0.0
 10
716.2365405373677
 20
389.4057779306727
 30
0.0
 10
716.6004184730857
 20
389.5339945798406
 30
0.0
 10
717.2105209867314
 20
389.7190394560286
 30
0.0
 10
717.69641871496
 20
389.8474637512783
 30
0.0
 10
717.9395211109502
 20
389.91171647786
 30
0.0
  0
LINE
  5
274
330
1F
100
AcDbEntity
  8
0
100
AcDbLine
 10
709.4691733058
 20
386.7621182823
 30
0.0
 11
716.1095304912
 21
389.3610244545
 31
0.0
  0
INSERT
  5
280
330
1F
100
AcDbEntity
  8
0
  6
Continuous
 62
     7
370
    18
100
AcDbBlockReference
  2
SW_CENTERMARKSYMBOL_0
 10
769.7917437867
 20
186.3623379389
 30
0.0
  0
ENDSEC
  0
SECTION
  2
OBJECTS
  0
DICTIONARY
  5
C
330
0
100
AcDbDictionary
281
     1
  3
ACAD_GROUP
350
D
  3
ACAD_LAYOUT
350
1A
  3
ACAD_MLINESTYLE
350
17
  3
ACAD_PLOTSETTINGS
350
19
  3
ACAD_PLOTSTYLENAME
350
E
  3
ACAD_SCALELIST
350
47
  3
DWGPROPS
350
281
  0
DICTIONARY
  5
D
102
{ACAD_REACTORS
330
C
102
}
330
C
100
AcDbDictionary
281
     1
  0
DICTIONARY
  5
1A
102
{ACAD_REACTORS
330
C
102
}
330
C
100
AcDbDictionary
281
     1
  3
Layout1
350
1E
  3
Layout2
350
26
  3
Model
350
22
  0
DICTIONARY
  5
17
102
{ACAD_REACTORS
330
C
102
}
330
C
100
AcDbDictionary
281
     1
  3
Standard
350
18
  0
DICTIONARY
  5
19
102
{ACAD_REACTORS
330
C
102
}
330
C
100
AcDbDictionary
281
     1
  0
ACDBDICTIONARYWDFLT
  5
E
102
{ACAD_REACTORS
330
C
102
}
330
C
100
AcDbDictionary
281
     1
  3
Normal
350
F
100
AcDbDictionaryWithDefault
340
F
  0
DICTIONARY
  5
47
102
{ACAD_REACTORS
330
C
102
}
330
C
100
AcDbDictionary
281
     1
  3
A0
350
48
  3
A1
350
49
  3
A2
350
4A
  3
A3
350
4B
  3
A4
350
4C
  3
A5
350
4D
  3
A6
350
4E
  3
A7
350
4F
  3
A8
350
50
  3
A9
350
51
  3
B0
350
52
  3
B1
350
53
  3
B2
350
54
  3
B3
350
55
  3
B4
350
56
  3
B5
350
57
  3
B6
350
58
  3
B7
350
59
  3
B8
350
5A
  3
B9
350
5B
  3
C0
350
5C
  3
C1
350
5D
  3
C2
350
5E
  3
C3
350
5F
  3
C4
350
60
  3
C5
350
61
  3
C6
350
62
  3
C7
350
63
  3
C8
350
64
  3
C9
350
65
  3
D0
350
66
  3
D1
350
67
  3
D2
350
68
  0
XRECORD
  5
281
102
{ACAD_REACTORS
330
C
102
}
330
C
100
AcDbXrecord
280
     1
  1
DWGPROPS COOKIE
  2

  3

  4

  6

  7

  8
Emilis.Masalas
  9

300
=
301
=
302
=
303
=
304
=
305
=
306
=
307
=
308
=
309
=
 40
0.0
 41
2459180.315392928
 42
2459180.31539346
  1

 90
        0
  0
LAYOUT
  5
1E
102
{ACAD_REACTORS
330
1A
102
}
330
1A
100
AcDbPlotSettings
  1

  2
none_device
  4

  6

 40
0.0
 41
0.0
 42
0.0
 43
0.0
 44
0.0
 45
0.0
 46
0.0
 47
0.0
 48
0.0
 49
0.0
140
0.0
141
0.0
142
1.0
143
1.0
 70
   688
 72
     1
 73
     0
 74
     5
  7

 75
    16
147
1.0
148
0.0
149
0.0
100
AcDbLayout
  1
Layout1
 70
     1
 71
     1
 10
0.0
 20
0.0
 11
420.0
 21
297.0
 12
0.0
 22
0.0
 32
0.0
 14
1.0000000000E+20
 24
1.0000000000E+20
 34
1.0000000000E+20
 15
-1.0000000000E+20
 25
-1.0000000000E+20
 35
-1.0000000000E+20
146
0.0
 13
0.0
 23
0.0
 33
0.0
 16
1.0
 26
0.0
 36
0.0
 17
0.0
 27
1.0
 37
0.0
 76
     0
330
1B
  0
LAYOUT
  5
26
102
{ACAD_REACTORS
330
1A
102
}
330
1A
100
AcDbPlotSettings
  1

  2
none_device
  4

  6

 40
0.0
 41
0.0
 42
0.0
 43
0.0
 44
0.0
 45
0.0
 46
0.0
 47
0.0
 48
0.0
 49
0.0
140
0.0
141
0.0
142
1.0
143
1.0
 70
   688
 72
     1
 73
     0
 74
     5
  7

 75
    16
147
1.0
148
0.0
149
0.0
100
AcDbLayout
  1
Layout2
 70
     1
 71
     2
 10
0.0
 20
0.0
 11
0.0
 21
0.0
 12
0.0
 22
0.0
 32
0.0
 14
0.0
 24
0.0
 34
0.0
 15
0.0
 25
0.0
 35
0.0
146
0.0
 13
0.0
 23
0.0
 33
0.0
 16
1.0
 26
0.0
 36
0.0
 17
0.0
 27
1.0
 37
0.0
 76
     0
330
23
  0
LAYOUT
  5
22
102
{ACAD_REACTORS
330
1A
102
}
330
1A
100
AcDbPlotSettings
  1

  2
none_device
  4
Letter_(8.50_x_11.00_Inches)
  6

 40
6.35
 41
6.35
 42
6.35000508
 43
6.35000508
 44
215.9
 45
279.4
 46
0.0
 47
0.0
 48
0.0
 49
0.0
140
0.0
141
0.0
142
1.0
143
1.0
 70
  1712
 72
     1
 73
     0
 74
     0
  7

 75
     0
147
1.0
148
0.0
149
0.0
100
AcDbLayout
  1
Model
 70
     1
 71
     0
 10
0.0
 20
0.0
 11
420.0
 21
297.0
 12
0.0
 22
0.0
 32
0.0
 14
0.0
 24
0.0
 34
0.0
 15
420.0
 25
297.0
 35
0.0
146
0.0
 13
0.0
 23
0.0
 33
0.0
 16
1.0
 26
0.0
 36
0.0
 17
0.0
 27
1.0
 37
0.0
 76
     0
330
1F
331
29
  0
MLINESTYLE
  5
18
102
{ACAD_REACTORS
330
17
102
}
330
17
100
AcDbMlineStyle
  2
Standard
 70
     0
  3

 62
   256
 51
90.0
 52
90.0
 71
     2
 49
0.5
 62
   256
  6
BYLAYER
 49
-0.5
 62
   256
  6
BYLAYER
  0
ACDBPLACEHOLDER
  5
F
102
{ACAD_REACTORS
330
E
102
}
330
E
  0
SCALE
  5
48
102
{ACAD_REACTORS
330
47
102
}
330
47
100
AcDbScale
 70
     0
300
1:1
140
1.0
141
1.0
290
     1
  0
SCALE
  5
49
102
{ACAD_REACTORS
330
47
102
}
330
47
100
AcDbScale
 70
     0
300
1:2
140
1.0
141
2.0
290
     0
  0
SCALE
  5
4A
102
{ACAD_REACTORS
330
47
102
}
330
47
100
AcDbScale
 70
     0
300
1:4
140
1.0
141
4.0
290
     0
  0
SCALE
  5
4B
102
{ACAD_REACTORS
330
47
102
}
330
47
100
AcDbScale
 70
     0
300
1:5
140
1.0
141
5.0
290
     0
  0
SCALE
  5
4C
102
{ACAD_REACTORS
330
47
102
}
330
47
100
AcDbScale
 70
     0
300
1:8
140
1.0
141
8.0
290
     0
  0
SCALE
  5
4D
102
{ACAD_REACTORS
330
47
102
}
330
47
100
AcDbScale
 70
     0
300
1:10
140
1.0
141
10.0
290
     0
  0
SCALE
  5
4E
102
{ACAD_REACTORS
330
47
102
}
330
47
100
AcDbScale
 70
     0
300
1:16
140
1.0
141
16.0
290
     0
  0
SCALE
  5
4F
102
{ACAD_REACTORS
330
47
102
}
330
47
100
AcDbScale
 70
     0
300
1:20
140
1.0
141
20.0
290
     0
  0
SCALE
  5
50
102
{ACAD_REACTORS
330
47
102
}
330
47
100
AcDbScale
 70
     0
300
1:30
140
1.0
141
30.0
290
     0
  0
SCALE
  5
51
102
{ACAD_REACTORS
330
47
102
}
330
47
100
AcDbScale
 70
     0
300
1:40
140
1.0
141
40.0
290
     0
  0
SCALE
  5
52
102
{ACAD_REACTORS
330
47
102
}
330
47
100
AcDbScale
 70
     0
300
1:50
140
1.0
141
50.0
290
     0
  0
SCALE
  5
53
102
{ACAD_REACTORS
330
47
102
}
330
47
100
AcDbScale
 70
     0
300
1:100
140
1.0
141
100.0
290
     0
  0
SCALE
  5
54
102
{ACAD_REACTORS
330
47
102
}
330
47
100
AcDbScale
 70
     0
300
2:1
140
2.0
141
1.0
290
     0
  0
SCALE
  5
55
102
{ACAD_REACTORS
330
47
102
}
330
47
100
AcDbScale
 70
     0
300
4:1
140
4.0
141
1.0
290
     0
  0
SCALE
  5
56
102
{ACAD_REACTORS
330
47
102
}
330
47
100
AcDbScale
 70
     0
300
8:1
140
8.0
141
1.0
290
     0
  0
SCALE
  5
57
102
{ACAD_REACTORS
330
47
102
}
330
47
100
AcDbScale
 70
     0
300
10:1
140
10.0
141
1.0
290
     0
  0
SCALE
  5
58
102
{ACAD_REACTORS
330
47
102
}
330
47
100
AcDbScale
 70
     0
300
100:1
140
100.0
141
1.0
290
     0
  0
SCALE
  5
59
102
{ACAD_REACTORS
330
47
102
}
330
47
100
AcDbScale
 70
     0
300
1/128" = 1'-0"
140
0.0078125
141
12.0
290
     0
  0
SCALE
  5
5A
102
{ACAD_REACTORS
330
47
102
}
330
47
100
AcDbScale
 70
     0
300
1/64" = 1'-0"
140
0.015625
141
12.0
290
     0
  0
SCALE
  5
5B
102
{ACAD_REACTORS
330
47
102
}
330
47
100
AcDbScale
 70
     0
300
1/32" = 1'-0"
140
0.03125
141
12.0
290
     0
  0
SCALE
  5
5C
102
{ACAD_REACTORS
330
47
102
}
330
47
100
AcDbScale
 70
     0
300
1/16" = 1'-0"
140
0.0625
141
12.0
290
     0
  0
SCALE
  5
5D
102
{ACAD_REACTORS
330
47
102
}
330
47
100
AcDbScale
 70
     0
300
3/32" = 1'-0"
140
0.09375
141
12.0
290
     0
  0
SCALE
  5
5E
102
{ACAD_REACTORS
330
47
102
}
330
47
100
AcDbScale
 70
     0
300
1/8" = 1'-0"
140
0.125
141
12.0
290
     0
  0
SCALE
  5
5F
102
{ACAD_REACTORS
330
47
102
}
330
47
100
AcDbScale
 70
     0
300
3/16" = 1'-0"
140
0.1875
141
12.0
290
     0
  0
SCALE
  5
60
102
{ACAD_REACTORS
330
47
102
}
330
47
100
AcDbScale
 70
     0
300
1/4" = 1'-0"
140
0.25
141
12.0
290
     0
  0
SCALE
  5
61
102
{ACAD_REACTORS
330
47
102
}
330
47
100
AcDbScale
 70
     0
300
3/8" = 1'-0"
140
0.375
141
12.0
290
     0
  0
SCALE
  5
62
102
{ACAD_REACTORS
330
47
102
}
330
47
100
AcDbScale
 70
     0
300
1/2" = 1'-0"
140
0.5
141
12.0
290
     0
  0
SCALE
  5
63
102
{ACAD_REACTORS
330
47
102
}
330
47
100
AcDbScale
 70
     0
300
3/4" = 1'-0"
140
0.75
141
12.0
290
     0
  0
SCALE
  5
64
102
{ACAD_REACTORS
330
47
102
}
330
47
100
AcDbScale
 70
     0
300
1" = 1'-0"
140
1.0
141
12.0
290
     0
  0
SCALE
  5
65
102
{ACAD_REACTORS
330
47
102
}
330
47
100
AcDbScale
 70
     0
300
1-1/2" = 1'-0"
140
1.5
141
12.0
290
     0
  0
SCALE
  5
66
102
{ACAD_REACTORS
330
47
102
}
330
47
100
AcDbScale
 70
     0
300
3" = 1'-0"
140
3.0
141
12.0
290
     0
  0
SCALE
  5
67
102
{ACAD_REACTORS
330
47
102
}
330
47
100
AcDbScale
 70
     0
300
6" = 1'-0"
140
6.0
141
12.0
290
     0
  0
SCALE
  5
68
102
{ACAD_REACTORS
330
47
102
}
330
47
100
AcDbScale
 70
     0
300
1'-0" = 1'-0"
140
12.0
141
12.0
290
     0
  0
ENDSEC
  0
EOF
