  0
SECTION
  2
HEADER
  9
$ACADVER
  1
AC1015
  9
$ACADMAINTVER
 70
     6
  9
$DWGCODEPAGE
  3
ANSI_1257
  9
$INSBASE
 10
0.0
 20
0.0
 30
0.0
  9
$EXTMIN
 10
0.0
 20
0.0
 30
0.0
  9
$EXTMAX
 10
420.0
 20
297.0
 30
0.0
  9
$LIMMIN
 10
0.0
 20
0.0
  9
$LIMMAX
 10
420.0
 20
297.0
  9
$ORTHOMODE
 70
     0
  9
$REGENMODE
 70
     1
  9
$FILLMODE
 70
     1
  9
$QTEXTMODE
 70
     0
  9
$MIRRTEXT
 70
     1
  9
$LTSCALE
 40
1.0
  9
$ATTMODE
 70
     1
  9
$TEXTSIZE
 40
5.6444444444
  9
$TRACEWID
 40
1.0
  9
$TEXTSTYLE
  7
Standard
  9
$CLAYER
  8
0
  9
$CELTYPE
  6
ByLayer
  9
$CECOLOR
 62
   256
  9
$CELTSCALE
 40
1.0
  9
$DISPSILH
 70
     0
  9
$DIMSCALE
 40
1.0
  9
$DIMASZ
 40
3.175
  9
$DIMEXO
 40
1.0
  9
$DIMDLI
 40
3.75
  9
$DIMRND
 40
0.0
  9
$DIMDLE
 40
0.0
  9
$DIMEXE
 40
1.0
  9
$DIMTP
 40
0.0
  9
$DIMTM
 40
0.0
  9
$DIMTXT
 40
4.9388888889
  9
$DIMCEN
 40
2.5
  9
$DIMTSZ
 40
0.0
  9
$DIMTOL
 70
     0
  9
$DIMLIM
 70
     0
  9
$DIMTIH
 70
     1
  9
$DIMTOH
 70
     1
  9
$DIMSE1
 70
     0
  9
$DIMSE2
 70
     0
  9
$DIMTAD
 70
     1
  9
$DIMZIN
 70
     0
  9
$DIMBLK
  1

  9
$DIMASO
 70
     1
  9
$DIMSHO
 70
     1
  9
$DIMPOST
  1

  9
$DIMAPOST
  1

  9
$DIMALT
 70
     0
  9
$DIMALTD
 70
     3
  9
$DIMALTF
 40
0.0393700787
  9
$DIMLFAC
 40
1.0
  9
$DIMTOFL
 70
     1
  9
$DIMTVP
 40
0.0
  9
$DIMTIX
 70
     0
  9
$DIMSOXD
 70
     0
  9
$DIMSAH
 70
     0
  9
$DIMBLK1
  1

  9
$DIMBLK2
  1

  9
$DIMSTYLE
  2
ISO-25
  9
$DIMCLRD
 70
     0
  9
$DIMCLRE
 70
     0
  9
$DIMCLRT
 70
     0
  9
$DIMTFAC
 40
1.0
  9
$DIMGAP
 40
1.524
  9
$DIMJUST
 70
     0
  9
$DIMSD1
 70
     0
  9
$DIMSD2
 70
     0
  9
$DIMTOLJ
 70
     0
  9
$DIMTZIN
 70
     0
  9
$DIMALTZ
 70
     0
  9
$DIMALTTZ
 70
     0
  9
$DIMUPT
 70
     0
  9
$DIMDEC
 70
     1
  9
$DIMTDEC
 70
     1
  9
$DIMALTU
 70
     2
  9
$DIMALTTD
 70
     3
  9
$DIMTXSTY
  7
Standard
  9
$DIMAUNIT
 70
     0
  9
$DIMADEC
 70
     1
  9
$DIMALTRND
 40
0.0
  9
$DIMAZIN
 70
     0
  9
$DIMDSEP
 70
    44
  9
$DIMATFIT
 70
     3
  9
$DIMFRAC
 70
     0
  9
$DIMLDRBLK
  1

  9
$DIMLUNIT
 70
     2
  9
$DIMLWD
 70
    -2
  9
$DIMLWE
 70
    -2
  9
$DIMTMOVE
 70
     0
  9
$LUNITS
 70
     2
  9
$LUPREC
 70
     1
  9
$SKETCHINC
 40
1.0
  9
$FILLETRAD
 40
10.0
  9
$AUNITS
 70
     0
  9
$AUPREC
 70
     1
  9
$MENU
  1
.
  9
$ELEVATION
 40
0.0
  9
$PELEVATION
 40
0.0
  9
$THICKNESS
 40
0.0
  9
$LIMCHECK
 70
     0
  9
$CHAMFERA
 40
0.0
  9
$CHAMFERB
 40
0.0
  9
$CHAMFERC
 40
0.0
  9
$CHAMFERD
 40
0.0
  9
$SKPOLY
 70
     0
  9
$TDCREATE
 40
2459180.403472778
  9
$TDUCREATE
 40
2459180.320139444
  9
$TDUPDATE
 40
2459180.403473588
  9
$TDUUPDATE
 40
2459180.320140255
  9
$TDINDWG
 40
0.0000000116
  9
$TDUSRTIMER
 40
0.0000000116
  9
$USRTIMER
 70
     1
  9
$ANGBASE
 50
0.0
  9
$ANGDIR
 70
     0
  9
$PDMODE
 70
     0
  9
$PDSIZE
 40
-1.0
  9
$PLINEWID
 40
0.0
  9
$SPLFRAME
 70
     0
  9
$SPLINETYPE
 70
     6
  9
$SPLINESEGS
 70
     8
  9
$HANDSEED
  5
2A7
  9
$SURFTAB1
 70
     6
  9
$SURFTAB2
 70
     6
  9
$SURFTYPE
 70
     6
  9
$SURFU
 70
     6
  9
$SURFV
 70
     6
  9
$UCSBASE
  2

  9
$UCSNAME
  2

  9
$UCSORG
 10
0.0
 20
0.0
 30
0.0
  9
$UCSXDIR
 10
1.0
 20
0.0
 30
0.0
  9
$UCSYDIR
 10
0.0
 20
1.0
 30
0.0
  9
$UCSORTHOREF
  2

  9
$UCSORTHOVIEW
 70
     0
  9
$UCSORGTOP
 10
0.0
 20
0.0
 30
0.0
  9
$UCSORGBOTTOM
 10
0.0
 20
0.0
 30
0.0
  9
$UCSORGLEFT
 10
0.0
 20
0.0
 30
0.0
  9
$UCSORGRIGHT
 10
0.0
 20
0.0
 30
0.0
  9
$UCSORGFRONT
 10
0.0
 20
0.0
 30
0.0
  9
$UCSORGBACK
 10
0.0
 20
0.0
 30
0.0
  9
$PUCSBASE
  2

  9
$PUCSNAME
  2

  9
$PUCSORG
 10
0.0
 20
0.0
 30
0.0
  9
$PUCSXDIR
 10
1.0
 20
0.0
 30
0.0
  9
$PUCSYDIR
 10
0.0
 20
1.0
 30
0.0
  9
$PUCSORTHOREF
  2

  9
$PUCSORTHOVIEW
 70
     0
  9
$PUCSORGTOP
 10
0.0
 20
0.0
 30
0.0
  9
$PUCSORGBOTTOM
 10
0.0
 20
0.0
 30
0.0
  9
$PUCSORGLEFT
 10
0.0
 20
0.0
 30
0.0
  9
$PUCSORGRIGHT
 10
0.0
 20
0.0
 30
0.0
  9
$PUCSORGFRONT
 10
0.0
 20
0.0
 30
0.0
  9
$PUCSORGBACK
 10
0.0
 20
0.0
 30
0.0
  9
$USERI1
 70
     0
  9
$USERI2
 70
     0
  9
$USERI3
 70
     0
  9
$USERI4
 70
     0
  9
$USERI5
 70
     0
  9
$USERR1
 40
0.0
  9
$USERR2
 40
0.0
  9
$USERR3
 40
0.0
  9
$USERR4
 40
0.0
  9
$USERR5
 40
0.0
  9
$WORLDVIEW
 70
     1
  9
$SHADEDGE
 70
     3
  9
$SHADEDIF
 70
    70
  9
$TILEMODE
 70
     1
  9
$MAXACTVP
 70
    64
  9
$PINSBASE
 10
0.0
 20
0.0
 30
0.0
  9
$PLIMCHECK
 70
     0
  9
$PEXTMIN
 10
1.0000000000E+20
 20
1.0000000000E+20
 30
1.0000000000E+20
  9
$PEXTMAX
 10
-1.0000000000E+20
 20
-1.0000000000E+20
 30
-1.0000000000E+20
  9
$PLIMMIN
 10
0.0
 20
0.0
  9
$PLIMMAX
 10
420.0
 20
297.0
  9
$UNITMODE
 70
     0
  9
$VISRETAIN
 70
     1
  9
$PLINEGEN
 70
     0
  9
$PSLTSCALE
 70
     1
  9
$TREEDEPTH
 70
  3020
  9
$CMLSTYLE
  2
Standard
  9
$CMLJUST
 70
     0
  9
$CMLSCALE
 40
20.0
  9
$PROXYGRAPHICS
 70
     1
  9
$MEASUREMENT
 70
     1
  9
$CELWEIGHT
370
    -1
  9
$ENDCAPS
280
     0
  9
$JOINSTYLE
280
     0
  9
$LWDISPLAY
290
     1
  9
$INSUNITS
 70
     4
  9
$HYPERLINKBASE
  1

  9
$STYLESHEET
  1

  9
$XEDIT
290
     1
  9
$CEPSNTYPE
380
     0
  9
$PSTYLEMODE
290
     1
  9
$FINGERPRINTGUID
  2
{49b2f97e-1131-4e2c-a8ea-5b867f353eee}
  9
$VERSIONGUID
  2
{FAEB1C32-E019-11D5-929B-00C0DF256EC4}
  9
$EXTNAMES
290
     1
  9
$PSVPSCALE
 40
0.0
  9
$OLESTARTUP
290
     0
  0
ENDSEC
  0
SECTION
  2
CLASSES
  0
CLASS
  1
ACDBDICTIONARYWDFLT
  2
AcDbDictionaryWithDefault
  3
ObjectDBX Classes
 90
        0
280
     0
281
     0
  0
CLASS
  1
VISUALSTYLE
  2
AcDbVisualStyle
  3
ObjectDBX Classes
 90
     4095
280
     0
281
     0
  0
CLASS
  1
MATERIAL
  2
AcDbMaterial
  3
ObjectDBX Classes
 90
     1153
280
     0
281
     0
  0
CLASS
  1
SCALE
  2
AcDbScale
  3
ObjectDBX Classes
 90
     1153
280
     0
281
     0
  0
CLASS
  1
TABLESTYLE
  2
AcDbTableStyle
  3
ObjectDBX Classes
 90
     4095
280
     0
281
     0
  0
CLASS
  1
MLEADERSTYLE
  2
AcDbMLeaderStyle
  3
ACDB_MLEADERSTYLE_CLASS
 90
     4095
280
     0
281
     0
  0
CLASS
  1
SUN
  2
AcDbSun
  3
SCENEOE
 90
     1153
280
     0
281
     0
  0
CLASS
  1
ACDBPLACEHOLDER
  2
AcDbPlaceHolder
  3
ObjectDBX Classes
 90
        0
280
     0
281
     0
  0
CLASS
  1
LAYOUT
  2
AcDbLayout
  3
ObjectDBX Classes
 90
        0
280
     0
281
     0
  0
ENDSEC
  0
SECTION
  2
TABLES
  0
TABLE
  2
VPORT
  5
8
330
0
100
AcDbSymbolTable
 70
     1
  0
VPORT
  5
29
330
8
100
AcDbSymbolTableRecord
100
AcDbViewportTableRecord
  2
*Active
 70
     0
 10
0.0
 20
0.0
 11
1.0
 21
1.0
 12
210.0
 22
148.5
 13
0.0
 23
0.0
 14
10.0
 24
10.0
 15
10.0
 25
10.0
 16
0.0
 26
0.0
 36
1.0
 17
0.0
 27
0.0
 37
0.0
 40
297.0
 41
1.4141414141
 42
50.0
 43
0.0
 44
0.0
 50
0.0
 51
0.0
 71
     0
 72
  2000
 73
     1
 74
     3
 75
     0
 76
     0
 77
     0
 78
     0
281
     0
 65
     1
110
0.0
120
0.0
130
0.0
111
1.0
121
0.0
131
0.0
112
0.0
122
1.0
132
0.0
 79
     0
146
0.0
  0
ENDTAB
  0
TABLE
  2
LTYPE
  5
5
330
0
100
AcDbSymbolTable
 70
     6
  0
LTYPE
  5
14
330
5
100
AcDbSymbolTableRecord
100
AcDbLinetypeTableRecord
  2
ByBlock
 70
     0
  3

 72
    65
 73
     0
 40
0.0
  0
LTYPE
  5
15
330
5
100
AcDbSymbolTableRecord
100
AcDbLinetypeTableRecord
  2
ByLayer
 70
     0
  3

 72
    65
 73
     0
 40
0.0
  0
LTYPE
  5
16
330
5
100
AcDbSymbolTableRecord
100
AcDbLinetypeTableRecord
  2
Continuous
 70
     0
  3
Solid line
 72
    65
 73
     0
 40
0.0
  0
LTYPE
  5
6E
330
5
100
AcDbSymbolTableRecord
100
AcDbLinetypeTableRecord
  2
HIDDEN
 70
     0
  3
Hidden __ __ __ __ __ __ __ __ __ __ __ __ __ __
 72
    65
 73
     2
 40
1.905
 49
1.27
 74
     0
 49
-0.635
 74
     0
  0
LTYPE
  5
6F
330
5
100
AcDbSymbolTableRecord
100
AcDbLinetypeTableRecord
  2
PHANTOM
 70
     0
  3
Phantom ______  __  __  ______  __  __  ______
 72
    65
 73
     6
 40
12.7
 49
6.35
 74
     0
 49
-1.27
 74
     0
 49
1.27
 74
     0
 49
-1.27
 74
     0
 49
1.27
 74
     0
 49
-1.27
 74
     0
  0
LTYPE
  5
70
330
5
100
AcDbSymbolTableRecord
100
AcDbLinetypeTableRecord
  2
CENTER
 70
     0
  3
Center ____ _ ____ _ ____ _ ____ _ ____ _ ____
 72
    65
 73
     4
 40
10.16
 49
6.35
 74
     0
 49
-1.27
 74
     0
 49
1.27
 74
     0
 49
-1.27
 74
     0
  0
LTYPE
  5
71
330
5
100
AcDbSymbolTableRecord
100
AcDbLinetypeTableRecord
  2
CENTERX2
 70
     0
  3
Center (2x) ________  __  ________  __  _____
 72
    65
 73
     4
 40
20.32
 49
12.7
 74
     0
 49
-2.54
 74
     0
 49
2.54
 74
     0
 49
-2.54
 74
     0
  0
LTYPE
  5
72
330
5
100
AcDbSymbolTableRecord
100
AcDbLinetypeTableRecord
  2
DOT2
 70
     0
  3
Dot (.5x) ........................................
 72
    65
 73
     2
 40
0.635
 49
0.0
 74
     0
 49
-0.635
 74
     0
  0
ENDTAB
  0
TABLE
  2
LAYER
  5
2
330
0
100
AcDbSymbolTable
 70
     2
  0
LAYER
  5
10
330
2
100
AcDbSymbolTableRecord
100
AcDbLayerTableRecord
  2
0
 70
     0
 62
     7
  6
Continuous
370
    -3
390
F
  0
LAYER
  5
73
330
2
100
AcDbSymbolTableRecord
100
AcDbLayerTableRecord
  2
LENKIMO
 70
     0
 62
     1
  6
CENTERX2
370
    -3
390
F
  0
ENDTAB
  0
TABLE
  2
STYLE
  5
3
330
0
100
AcDbSymbolTable
 70
     1
  0
STYLE
  5
11
330
3
100
AcDbSymbolTableRecord
100
AcDbTextStyleTableRecord
  2
Standard
 70
     0
 40
0.0
 41
1.0
 50
0.0
 71
     0
 42
5.6444444444
  3
txt
  4

  0
ENDTAB
  0
TABLE
  2
VIEW
  5
6
330
0
100
AcDbSymbolTable
 70
     0
  0
ENDTAB
  0
TABLE
  2
UCS
  5
7
330
0
100
AcDbSymbolTable
 70
     0
  0
ENDTAB
  0
TABLE
  2
APPID
  5
9
330
0
100
AcDbSymbolTable
 70
     1
  0
APPID
  5
12
330
9
100
AcDbSymbolTableRecord
100
AcDbRegAppTableRecord
  2
ACAD
 70
     0
  0
ENDTAB
  0
TABLE
  2
DIMSTYLE
  5
A
330
0
100
AcDbSymbolTable
 70
     1
100
AcDbDimStyleTable
  0
DIMSTYLE
105
27
330
A
100
AcDbSymbolTableRecord
100
AcDbDimStyleTableRecord
  2
ISO-25
 70
     0
 41
2.5
 42
0.625
 43
3.75
 44
1.25
 73
     0
 74
     0
 77
     1
 78
     8
140
2.5
141
2.5
143
0.0393700787
147
0.625
171
     3
172
     1
178
     0
271
     2
272
     2
274
     3
278
    44
283
     0
284
     8
340
11
  0
ENDTAB
  0
TABLE
  2
BLOCK_RECORD
  5
1
330
0
100
AcDbSymbolTable
 70
     3
  0
BLOCK_RECORD
  5
1F
330
1
100
AcDbSymbolTableRecord
100
AcDbBlockTableRecord
  2
*Model_Space
340
22
  0
BLOCK_RECORD
  5
1B
330
1
100
AcDbSymbolTableRecord
100
AcDbBlockTableRecord
  2
*Paper_Space
340
1E
  0
BLOCK_RECORD
  5
23
330
1
100
AcDbSymbolTableRecord
100
AcDbBlockTableRecord
  2
*Paper_Space0
340
26
  0
BLOCK_RECORD
  5
74
330
1
100
AcDbSymbolTableRecord
100
AcDbBlockTableRecord
  2
Block11_2
340
0
  0
BLOCK_RECORD
  5
29A
330
1
100
AcDbSymbolTableRecord
100
AcDbBlockTableRecord
  2
SW_CENTERMARKSYMBOL_0
340
0
102
{BLKREFS
331
2A5
102
}
  0
ENDTAB
  0
ENDSEC
  0
SECTION
  2
BLOCKS
  0
BLOCK
  5
20
330
1F
100
AcDbEntity
  8
0
100
AcDbBlockBegin
  2
*Model_Space
 70
     0
 10
0.0
 20
0.0
 30
0.0
  3
*Model_Space
  1

  0
ENDBLK
  5
21
330
1F
100
AcDbEntity
  8
0
100
AcDbBlockEnd
  0
BLOCK
  5
1C
330
1B
100
AcDbEntity
 67
     1
  8
0
100
AcDbBlockBegin
  2
*Paper_Space
 70
     0
 10
0.0
 20
0.0
 30
0.0
  3
*Paper_Space
  1

  0
ENDBLK
  5
1D
330
1B
100
AcDbEntity
 67
     1
  8
0
100
AcDbBlockEnd
  0
BLOCK
  5
24
330
23
100
AcDbEntity
  8
0
100
AcDbBlockBegin
  2
*Paper_Space0
 70
     0
 10
0.0
 20
0.0
 30
0.0
  3
*Paper_Space0
  1

  0
ENDBLK
  5
25
330
23
100
AcDbEntity
  8
0
100
AcDbBlockEnd
  0
BLOCK
  5
75
330
74
100
AcDbEntity
  8
0
100
AcDbBlockBegin
  2
Block11_2
 70
     0
 10
0.0
 20
0.0
 30
0.0
  3
Block11_2
  1

  0
LINE
  5
77
330
74
100
AcDbEntity
  8
0
  6
Continuous
100
AcDbLine
 10
-15.7956326374
 20
2.3055746011
 30
0.0
 11
-18.0649288667
 21
1.8146036087
 31
0.0
  0
LINE
  5
78
330
74
100
AcDbEntity
  8
0
  6
Continuous
100
AcDbLine
 10
-15.6988785554
 20
-9.1195335787
 30
0.0
 11
-10.2261014967
 21
-7.9354771524
 31
0.0
  0
LINE
  5
79
330
74
100
AcDbEntity
  8
0
  6
Continuous
100
AcDbLine
 10
-10.2261014967
 20
-7.9354771524
 30
0.0
 11
-10.6655808869
 21
-5.9041780766
 31
0.0
  0
LINE
  5
7A
330
74
100
AcDbEntity
  8
0
  6
Continuous
100
AcDbLine
 10
-10.6655808869
 20
-5.9041780766
 30
0.0
 11
-13.8699456036
 21
-6.5974547429
 31
0.0
  0
LINE
  5
7B
330
74
100
AcDbEntity
  8
0
  6
Continuous
100
AcDbLine
 10
-8.296070931
 20
1.802048972
 30
0.0
 11
-6.9198111955
 21
2.0998080743
 31
0.0
  0
LINE
  5
7C
330
74
100
AcDbEntity
  8
0
  6
Continuous
100
AcDbLine
 10
-5.4333831358
 20
-4.7719736412
 30
0.0
 11
-6.8095376466
 21
-5.0697099777
 31
0.0
  0
LINE
  5
7D
330
74
100
AcDbEntity
  8
0
  6
Continuous
100
AcDbLine
 10
-11.0044904538
 20
3.3421566929
 30
0.0
 11
-8.6388294738
 21
-7.5920647278
 31
0.0
  0
LINE
  5
7E
330
74
100
AcDbEntity
  8
0
  6
Continuous
100
AcDbLine
 10
-8.6388294738
 20
-7.5920647278
 30
0.0
 11
-8.6384401425
 21
-7.5919804944
 31
0.0
  0
LINE
  5
7F
330
74
100
AcDbEntity
  8
0
  6
Continuous
100
AcDbLine
 10
-8.6384401425
 20
-7.5919804944
 30
0.0
 11
-4.4940245505
 21
-6.6953201952
 31
0.0
  0
LINE
  5
80
330
74
100
AcDbEntity
  8
0
  6
Continuous
100
AcDbLine
 10
-6.8595855671
 20
4.238922853
 30
0.0
 11
-11.0044904538
 21
3.3421566929
 31
0.0
  0
LINE
  5
81
330
74
100
AcDbEntity
  8
0
  6
Continuous
100
AcDbLine
 10
-32.9933593229
 20
-3.3005605139
 30
0.0
 11
-32.8591663041
 21
-3.2715273367
 31
0.0
  0
LINE
  5
82
330
74
100
AcDbEntity
  8
0
  6
Continuous
100
AcDbLine
 10
-31.5697721187
 20
-3.9678201523
 30
0.0
 11
-29.2969561243
 21
-3.4760876451
 31
0.0
  0
LINE
  5
83
330
74
100
AcDbEntity
  8
0
  6
Continuous
100
AcDbLine
 10
-33.2794920496
 20
-1.2667721217
 30
0.0
 11
-33.3448839193
 21
-1.2809199049
 31
0.0
  0
LINE
  5
84
330
74
100
AcDbEntity
  8
0
  6
Continuous
100
AcDbLine
 10
-31.3289079349
 20
-10.5856399919
 30
0.0
 11
-31.4650581325
 21
-10.6150966123
 31
0.0
  0
LINE
  5
85
330
74
100
AcDbEntity
  8
0
  6
Continuous
100
AcDbLine
 10
-32.8822392925
 20
-9.9377601564
 30
0.0
 11
-35.1888692339
 21
-10.4368084414
 31
0.0
  0
LINE
  5
86
330
74
100
AcDbEntity
  8
0
  6
Continuous
100
AcDbLine
 10
-31.5949683304
 20
-12.7295787952
 30
0.0
 11
-30.2063920476
 21
-12.4291549603
 31
0.0
  0
LINE
  5
87
330
74
100
AcDbEntity
  8
0
  6
Continuous
100
AcDbLine
 10
6.262509235
 20
-4.3681026205
 30
0.0
 11
8.6370616994
 21
-3.8543590356
 31
0.0
  0
LINE
  5
88
330
74
100
AcDbEntity
  8
0
  6
Continuous
100
AcDbLine
 10
8.6370616994
 20
-3.8543590356
 30
0.0
 11
3.9059396663
 21
6.5680857621
 31
0.0
  0
LINE
  5
89
330
74
100
AcDbEntity
  8
0
  6
Continuous
100
AcDbLine
 10
3.9059396663
 20
6.5680857621
 30
0.0
 11
0.0
 21
5.7230206493
 31
0.0
  0
LINE
  5
8A
330
74
100
AcDbEntity
  8
0
  6
Continuous
100
AcDbLine
 10
0.0
 20
5.7230206493
 30
0.0
 11
0.0
 21
-5.7230206493
 31
0.0
  0
LINE
  5
8B
330
74
100
AcDbEntity
  8
0
  6
Continuous
100
AcDbLine
 10
0.0
 20
-5.7230206493
 30
0.0
 11
2.3746576891
 21
-5.2092542987
 31
0.0
  0
LINE
  5
8C
330
74
100
AcDbEntity
  8
0
  6
Continuous
100
AcDbLine
 10
2.3746576891
 20
-5.2092542987
 30
0.0
 11
2.3747844598
 21
-3.0912381741
 31
0.0
  0
LINE
  5
8D
330
74
100
AcDbEntity
  8
0
  6
Continuous
100
AcDbLine
 10
2.3747844598
 20
-3.0912381741
 30
0.0
 11
4.0318309599
 21
-2.7327297722
 31
0.0
  0
LINE
  5
8E
330
74
100
AcDbEntity
  8
0
  6
Continuous
100
AcDbLine
 10
4.0318309599
 20
-2.7327297722
 30
0.0
 11
3.5923515697
 21
-0.7014306964
 31
0.0
  0
LINE
  5
8F
330
74
100
AcDbEntity
  8
0
  6
Continuous
100
AcDbLine
 10
3.5923515697
 20
-0.7014306964
 30
0.0
 11
2.3750284336
 21
-0.9648032524
 31
0.0
  0
LINE
  5
90
330
74
100
AcDbEntity
  8
0
  6
Continuous
100
AcDbLine
 10
2.3750284336
 20
-0.9648032524
 30
0.0
 11
2.3752084601
 21
4.1936873712
 31
0.0
  0
LINE
  5
91
330
74
100
AcDbEntity
  8
0
  6
Continuous
100
AcDbLine
 10
2.3752084601
 20
4.1936873712
 30
0.0
 11
6.262509235
 21
-4.3681026205
 31
0.0
  0
LINE
  5
92
330
74
100
AcDbEntity
  8
0
  6
Continuous
100
AcDbLine
 10
-53.0629352118
 20
-11.4801779454
 30
0.0
 11
-50.7945341276
 21
-8.0228043203
 31
0.0
  0
LINE
  5
93
330
74
100
AcDbEntity
  8
0
  6
Continuous
100
AcDbLine
 10
-50.7945341276
 20
-8.0228043203
 30
0.0
 11
-54.2891069366
 21
-5.8122833411
 31
0.0
  0
LINE
  5
94
330
74
100
AcDbEntity
  8
0
  6
Continuous
100
AcDbLine
 10
-54.2891069366
 20
-5.8122833411
 30
0.0
 11
-51.4073820962
 21
-5.1888110564
 31
0.0
  0
LINE
  5
95
330
74
100
AcDbEntity
  8
0
  6
Continuous
100
AcDbLine
 10
-51.4073820962
 20
-5.1888110564
 30
0.0
 11
-47.9127327975
 21
-7.3992273667
 31
0.0
  0
LINE
  5
96
330
74
100
AcDbEntity
  8
0
  6
Continuous
100
AcDbLine
 10
-47.9127327975
 20
-7.3992273667
 30
0.0
 11
-50.1813587974
 21
-10.8569360435
 31
0.0
  0
LINE
  5
97
330
74
100
AcDbEntity
  8
0
  6
Continuous
100
AcDbLine
 10
-50.1813587974
 20
-10.8569360435
 30
0.0
 11
-53.0628942334
 21
-11.4803673498
 31
0.0
  0
LINE
  5
98
330
74
100
AcDbEntity
  8
0
  6
Continuous
100
AcDbLine
 10
-53.0628942334
 20
-11.4803673498
 30
0.0
 11
-53.0629352118
 21
-11.4801779454
 31
0.0
  0
LINE
  5
99
330
74
100
AcDbEntity
  8
0
  6
Continuous
100
AcDbLine
 10
-42.7624916815
 20
-3.31845567
 30
0.0
 11
-45.0307950789
 21
-6.7757971452
 31
0.0
  0
LINE
  5
9A
330
74
100
AcDbEntity
  8
0
  6
Continuous
100
AcDbLine
 10
-45.0307950789
 20
-6.7757971452
 30
0.0
 11
-48.5254573289
 21
-4.5652955168
 31
0.0
  0
LINE
  5
9B
330
74
100
AcDbEntity
  8
0
  6
Continuous
100
AcDbLine
 10
-48.5254573289
 20
-4.5652955168
 30
0.0
 11
-48.5257466967
 21
-4.5653581227
 31
0.0
  0
LINE
  5
9C
330
74
100
AcDbEntity
  8
0
  6
Continuous
100
AcDbLine
 10
-48.5257466967
 20
-4.5653581227
 30
0.0
 11
-47.9126146215
 21
-7.399289919
 31
0.0
  0
LINE
  5
9D
330
74
100
AcDbEntity
  8
0
  6
Continuous
100
AcDbLine
 10
-47.9126146215
 20
-7.399289919
 30
0.0
 11
-44.4177372167
 21
-9.6098441329
 31
0.0
  0
LINE
  5
9E
330
74
100
AcDbEntity
  8
0
  6
Continuous
100
AcDbLine
 10
-44.4177372167
 20
-9.6098441329
 30
0.0
 11
-42.1490649772
 21
-6.1523237222
 31
0.0
  0
LINE
  5
9F
330
74
100
AcDbEntity
  8
0
  6
Continuous
100
AcDbLine
 10
-42.1490649772
 20
-6.1523237222
 30
0.0
 11
-42.7621970524
 21
-3.3183919259
 31
0.0
  0
LINE
  5
A0
330
74
100
AcDbEntity
  8
0
  6
Continuous
100
AcDbLine
 10
-42.7621970524
 20
-3.3183919259
 30
0.0
 11
-42.7624916815
 21
-3.31845567
 31
0.0
  0
LINE
  5
A1
330
74
100
AcDbEntity
  8
0
  6
Continuous
100
AcDbLine
 10
-41.535889647
 20
-8.9864554454
 30
0.0
 11
-43.8045413973
 21
-12.4440705583
 31
0.0
  0
LINE
  5
A2
330
74
100
AcDbEntity
  8
0
  6
Continuous
100
AcDbLine
 10
-43.8045413973
 20
-12.4440705583
 30
0.0
 11
-40.3564529382
 21
-14.625159785
 31
0.0
  0
LINE
  5
A3
330
74
100
AcDbEntity
  8
0
  6
Continuous
100
AcDbLine
 10
-40.3564529382
 20
-14.625159785
 30
0.0
 11
-43.2382724808
 21
-15.2486525588
 31
0.0
  0
LINE
  5
A4
330
74
100
AcDbEntity
  8
0
  6
Continuous
100
AcDbLine
 10
-43.2382724808
 20
-15.2486525588
 30
0.0
 11
-46.686243472
 21
-13.0676480676
 31
0.0
  0
LINE
  5
A5
330
74
100
AcDbEntity
  8
0
  6
Continuous
100
AcDbLine
 10
-46.686243472
 20
-13.0676480676
 30
0.0
 11
-44.4177144509
 21
-9.6099493576
 31
0.0
  0
LINE
  5
A6
330
74
100
AcDbEntity
  8
0
  6
Continuous
100
AcDbLine
 10
-44.4177144509
 20
-9.6099493576
 30
0.0
 11
-41.535889647
 21
-8.9864554454
 31
0.0
  0
LINE
  5
A7
330
74
100
AcDbEntity
  8
0
  6
Continuous
100
AcDbLine
 10
-51.8063383656
 20
-17.1023866618
 30
0.0
 11
-49.5681857438
 21
-13.6910572443
 31
0.0
  0
LINE
  5
A8
330
74
100
AcDbEntity
  8
0
  6
Continuous
100
AcDbLine
 10
-49.5681857438
 20
-13.6910572443
 30
0.0
 11
-46.1199973213
 21
-15.8721248435
 31
0.0
  0
LINE
  5
A9
330
74
100
AcDbEntity
  8
0
  6
Continuous
100
AcDbLine
 10
-46.1199973213
 20
-15.8721248435
 30
0.0
 11
-46.0813956519
 21
-15.8637732234
 31
0.0
  0
LINE
  5
AA
330
74
100
AcDbEntity
  8
0
  6
Continuous
100
AcDbLine
 10
-46.0813956519
 20
-15.8637732234
 30
0.0
 11
-46.6863662012
 21
-13.0675644704
 31
0.0
  0
LINE
  5
AB
330
74
100
AcDbEntity
  8
0
  6
Continuous
100
AcDbLine
 10
-46.6863662012
 20
-13.0675644704
 30
0.0
 11
-50.1813587974
 21
-10.8569360435
 31
0.0
  0
LINE
  5
AC
330
74
100
AcDbEntity
  8
0
  6
Continuous
100
AcDbLine
 10
-50.1813587974
 20
-10.8569360435
 30
0.0
 11
-52.4497621582
 21
-14.3142991462
 31
0.0
  0
LINE
  5
AD
330
74
100
AcDbEntity
  8
0
  6
Continuous
100
AcDbLine
 10
-52.4497621582
 20
-14.3142991462
 30
0.0
 11
-51.8447506306
 21
-17.1106973035
 31
0.0
  0
LINE
  5
AE
330
74
100
AcDbEntity
  8
0
  6
Continuous
100
AcDbLine
 10
-51.8447506306
 20
-17.1106973035
 30
0.0
 11
-51.8063383656
 21
-17.1023866618
 31
0.0
  0
LINE
  5
AF
330
74
100
AcDbEntity
  8
0
  6
Continuous
100
AcDbLine
 10
-20.0432683672
 20
-10.0594590717
 30
0.0
 11
-17.6687053803
 21
-9.5457132103
 31
0.0
  0
LINE
  5
B0
330
74
100
AcDbEntity
  8
0
  6
Continuous
100
AcDbLine
 10
-17.6687053803
 20
-9.5457132103
 30
0.0
 11
-22.3998379359
 21
0.8767293109
 31
0.0
  0
LINE
  5
B1
330
74
100
AcDbEntity
  8
0
  6
Continuous
100
AcDbLine
 10
-22.3998379359
 20
0.8767293109
 30
0.0
 11
-26.3058670432
 21
0.0316448472
 31
0.0
  0
LINE
  5
B2
330
74
100
AcDbEntity
  8
0
  6
Continuous
100
AcDbLine
 10
-26.3058670432
 20
0.0316448472
 30
0.0
 11
-26.3056723775
 21
-11.4143543348
 31
0.0
  0
LINE
  5
B3
330
74
100
AcDbEntity
  8
0
  6
Continuous
100
AcDbLine
 10
-26.3056723775
 20
-11.4143543348
 30
0.0
 11
-23.9311146519
 21
-10.9006096116
 31
0.0
  0
LINE
  5
B4
330
74
100
AcDbEntity
  8
0
  6
Continuous
100
AcDbLine
 10
-23.9311146519
 20
-10.9006096116
 30
0.0
 11
-23.9309931424
 21
-8.7825946253
 31
0.0
  0
LINE
  5
B5
330
74
100
AcDbEntity
  8
0
  6
Continuous
100
AcDbLine
 10
-23.9309931424
 20
-8.7825946253
 30
0.0
 11
-22.2738308951
 21
-8.4240611811
 31
0.0
  0
LINE
  5
B6
330
74
100
AcDbEntity
  8
0
  6
Continuous
100
AcDbLine
 10
-22.2738308951
 20
-8.4240611811
 30
0.0
 11
-22.7133102854
 21
-6.3927621053
 31
0.0
  0
LINE
  5
B7
330
74
100
AcDbEntity
  8
0
  6
Continuous
100
AcDbLine
 10
-22.7133102854
 20
-6.3927621053
 30
0.0
 11
-23.9308333483
 21
-6.6561779162
 31
0.0
  0
LINE
  5
B8
330
74
100
AcDbEntity
  8
0
  6
Continuous
100
AcDbLine
 10
-23.9308333483
 20
-6.6561779162
 30
0.0
 11
-23.9305586196
 21
-1.4976668035
 31
0.0
  0
LINE
  5
B9
330
74
100
AcDbEntity
  8
0
  6
Continuous
100
AcDbLine
 10
-23.9305586196
 20
-1.4976668035
 30
0.0
 11
-20.0432683672
 21
-10.0594590717
 31
0.0
  0
SPLINE
  5
BA
330
74
100
AcDbEntity
  8
0
100
AcDbSpline
210
0.0
220
0.0
230
1.0
 70
     8
 71
     3
 72
     8
 73
     4
 74
     0
 42
0.00000001
 43
0.00000001
 40
0.0
 40
0.0
 40
0.0
 40
0.0
 40
1.0
 40
1.0
 40
1.0
 40
1.0
 10
-13.86994560355125
 20
-6.597454742918429
 30
0.0
 10
-13.88373254946556
 20
-6.53373068413859
 30
0.0
 10
-15.11365515797402
 20
-0.8489574873494021
 30
0.0
 10
-15.79563263740206
 20
2.305574601061459
 30
0.0
  0
SPLINE
  5
BB
330
74
100
AcDbEntity
  8
0
100
AcDbSpline
210
0.0
220
0.0
230
1.0
 70
     8
 71
     3
 72
     8
 73
     4
 74
     0
 42
0.00000001
 43
0.00000001
 40
2.0
 40
2.0
 40
2.0
 40
2.0
 40
3.0
 40
3.0
 40
3.0
 40
3.0
 10
-18.06492886668426
 20
1.814603608696524
 30
0.0
 10
-17.24003965005502
 20
-1.995739949107536
 30
0.0
 10
-15.71186186991051
 20
-9.059523950669432
 30
0.0
 10
-15.69887855542093
 20
-9.119533578677906
 30
0.0
  0
SPLINE
  5
BC
330
74
100
AcDbEntity
  8
0
100
AcDbSpline
210
0.0
220
0.0
230
1.0
 70
     8
 71
     3
 72
     8
 73
     4
 74
     0
 42
0.00000001
 43
0.00000001
 40
0.0
 40
0.0
 40
0.0
 40
0.0
 40
1.0
 40
1.0
 40
1.0
 40
1.0
 10
-6.809537646582547
 20
-5.069709977697404
 30
0.0
 10
-7.284290309572815
 20
-2.875375801708635
 30
0.0
 10
-7.897830097865885
 20
-0.0390758678013329
 30
0.0
 10
-8.296070930952649
 20
1.80204897196991
 30
0.0
  0
SPLINE
  5
BD
330
74
100
AcDbEntity
  8
0
100
AcDbSpline
210
0.0
220
0.0
230
1.0
 70
     8
 71
     3
 72
     8
 73
     4
 74
     0
 42
0.00000001
 43
0.00000001
 40
2.0
 40
2.0
 40
2.0
 40
2.0
 40
3.0
 40
3.0
 40
3.0
 40
3.0
 10
-6.919811195494074
 20
2.099808074263809
 30
0.0
 10
-6.228016878711183
 20
2.249480443098069
 30
0.0
 10
-5.547633595833446
 20
1.815851349115847
 30
0.0
 10
-5.399398884916104
 20
1.130701970100344
 30
0.0
  0
SPLINE
  5
BE
330
74
100
AcDbEntity
  8
0
100
AcDbSpline
210
0.0
220
0.0
230
1.0
 70
     8
 71
     3
 72
     8
 73
     4
 74
     0
 42
0.00000001
 43
0.00000001
 40
3.0
 40
3.0
 40
3.0
 40
3.0
 40
4.0
 40
4.0
 40
4.0
 40
4.0
 10
-5.399398884916104
 20
1.130701970100344
 30
0.0
 10
-5.107009087764085
 20
-0.2207405274728672
 30
0.0
 10
-4.711497421058354
 20
-2.048334586467611
 30
0.0
 10
-4.449160707297047
 20
-3.260870000165379
 30
0.0
  0
SPLINE
  5
BF
330
74
100
AcDbEntity
  8
0
100
AcDbSpline
210
0.0
220
0.0
230
1.0
 70
     8
 71
     3
 72
     8
 73
     4
 74
     0
 42
0.00000001
 43
0.00000001
 40
4.0
 40
4.0
 40
4.0
 40
4.0
 40
5.0
 40
5.0
 40
5.0
 40
5.0
 10
-4.449160707297047
 20
-3.260870000165379
 30
0.0
 10
-4.300905507193207
 20
-3.946114081381999
 30
0.0
 10
-4.741570606399121
 20
-4.622385452066122
 30
0.0
 10
-5.433383135791953
 20
-4.771973641166296
 30
0.0
  0
SPLINE
  5
C0
330
74
100
AcDbEntity
  8
0
100
AcDbSpline
210
0.0
220
0.0
230
1.0
 70
     8
 71
     3
 72
     8
 73
     4
 74
     0
 42
0.00000001
 43
0.00000001
 40
3.0
 40
3.0
 40
3.0
 40
3.0
 40
4.0
 40
4.0
 40
4.0
 40
4.0
 10
-4.494024550545999
 20
-6.695320195210662
 30
0.0
 10
-2.825524345390513
 20
-6.334333740063992
 30
0.0
 10
-1.762658323115034
 20
-4.702068307882374
 30
0.0
 10
-2.120071189640999
 20
-3.049576315093403
 30
0.0
  0
SPLINE
  5
C1
330
74
100
AcDbEntity
  8
0
100
AcDbSpline
210
0.0
220
0.0
230
1.0
 70
     8
 71
     3
 72
     8
 73
     4
 74
     0
 42
0.00000001
 43
0.00000001
 40
4.0
 40
4.0
 40
4.0
 40
4.0
 40
5.0
 40
5.0
 40
5.0
 40
5.0
 10
-2.120071189640999
 20
-3.049576315093403
 30
0.0
 10
-2.485983017556096
 20
-1.358310753073632
 30
0.0
 10
-2.867352798370483
 20
0.4044023583376265
 30
0.0
 10
-3.190995488197396
 20
1.900704823656681
 30
0.0
  0
SPLINE
  5
C2
330
74
100
AcDbEntity
  8
0
100
AcDbSpline
210
0.0
220
0.0
230
1.0
 70
     8
 71
     3
 72
     8
 73
     4
 74
     0
 42
0.00000001
 43
0.00000001
 40
5.0
 40
5.0
 40
5.0
 40
5.0
 40
6.0
 40
6.0
 40
6.0
 40
6.0
 10
-3.190995488197396
 20
1.900704823656681
 30
0.0
 10
-3.54857504695031
 20
3.553458157285876
 30
0.0
 10
-5.190901218780231
 20
4.599949148191988
 30
0.0
 10
-6.859585567104196
 20
4.238922852960538
 30
0.0
  0
SPLINE
  5
C3
330
74
100
AcDbEntity
  8
0
100
AcDbSpline
210
0.0
220
0.0
230
1.0
 70
     8
 71
     3
 72
     8
 73
     4
 74
     0
 42
0.00000001
 43
0.00000001
 40
0.0
 40
0.0
 40
0.0
 40
0.0
 40
1.0
 40
1.0
 40
1.0
 40
1.0
 10
-30.23703582864644
 20
-6.251438951366732
 30
0.0
 10
-30.9104300186728
 20
-6.015603382360459
 30
0.0
 10
-31.40848551125485
 20
-5.893156856121871
 30
0.0
 10
-32.67210357750635
 20
-5.496689523479785
 30
0.0
  0
SPLINE
  5
C4
330
74
100
AcDbEntity
  8
0
100
AcDbSpline
210
0.0
220
0.0
230
1.0
 70
     8
 71
     3
 72
     8
 73
     4
 74
     0
 42
0.00000001
 43
0.00000001
 40
1.0
 40
1.0
 40
1.0
 40
1.0
 40
2.0
 40
2.0
 40
2.0
 40
2.0
 10
-32.67210357750635
 20
-5.496689523479785
 30
0.0
 10
-33.03332194555517
 20
-5.383421617718132
 30
0.0
 10
-33.81210282496122
 20
-5.206692347750555
 30
0.0
 10
-33.94849250952588
 20
-4.576291363356936
 30
0.0
  0
SPLINE
  5
C5
330
74
100
AcDbEntity
  8
0
100
AcDbSpline
210
0.0
220
0.0
230
1.0
 70
     8
 71
     3
 72
     8
 73
     4
 74
     0
 42
0.00000001
 43
0.00000001
 40
2.0
 40
2.0
 40
2.0
 40
2.0
 40
3.0
 40
3.0
 40
3.0
 40
3.0
 10
-33.94849250952588
 20
-4.576291363356936
 30
0.0
 10
-34.11622381965225
 20
-3.801027578894063
 30
0.0
 10
-33.67528356585564
 20
-3.448097454184924
 30
0.0
 10
-32.99335932290604
 20
-3.30056051389548
 30
0.0
  0
SPLINE
  5
C6
330
74
100
AcDbEntity
  8
0
100
AcDbSpline
210
0.0
220
0.0
230
1.0
 70
     8
 71
     3
 72
     8
 73
     4
 74
     0
 42
0.00000001
 43
0.00000001
 40
4.0
 40
4.0
 40
4.0
 40
4.0
 40
5.0
 40
5.0
 40
5.0
 40
5.0
 10
-32.85916630414497
 20
-3.271527336675416
 30
0.0
 10
-32.2786944245911
 20
-3.14594000653005
 30
0.0
 10
-31.77109773641243
 20
-3.328116480283148
 30
0.0
 10
-31.56977211870437
 20
-3.967820152272103
 30
0.0
  0
SPLINE
  5
C7
330
74
100
AcDbEntity
  8
0
100
AcDbSpline
210
0.0
220
0.0
230
1.0
 70
     8
 71
     3
 72
     8
 73
     4
 74
     0
 42
0.00000001
 43
0.00000001
 40
6.0
 40
6.0
 40
6.0
 40
6.0
 40
7.0
 40
7.0
 40
7.0
 40
7.0
 10
-29.29695612428625
 20
-3.476087645143529
 30
0.0
 10
-29.68810071971012
 20
-1.866802583842748
 30
0.0
 10
-30.87776107222441
 20
-0.7599478056671497
 30
0.0
 10
-33.27949204955325
 20
-1.266772121690862
 30
0.0
  0
SPLINE
  5
C8
330
74
100
AcDbEntity
  8
0
100
AcDbSpline
210
0.0
220
0.0
230
1.0
 70
     8
 71
     3
 72
     8
 73
     4
 74
     0
 42
0.00000001
 43
0.00000001
 40
8.0
 40
8.0
 40
8.0
 40
8.0
 40
9.0
 40
9.0
 40
9.0
 40
9.0
 10
-33.34488391931659
 20
-1.280919904944554
 30
0.0
 10
-35.81152992452102
 20
-1.828202838410209
 30
0.0
 10
-36.33378487826545
 20
-3.54465012997844
 30
0.0
 10
-36.09207577942843
 20
-4.962606301827474
 30
0.0
  0
SPLINE
  5
C9
330
74
100
AcDbEntity
  8
0
100
AcDbSpline
210
0.0
220
0.0
230
1.0
 70
     8
 71
     3
 72
     8
 73
     4
 74
     0
 42
0.00000001
 43
0.00000001
 40
9.0
 40
9.0
 40
9.0
 40
9.0
 40
10.0
 40
10.0
 40
10.0
 40
10.0
 10
-36.09207577942843
 20
-4.962606301827474
 30
0.0
 10
-35.83736690020325
 20
-6.457652824126185
 30
0.0
 10
-34.96800490008025
 20
-7.196828812263726
 30
0.0
 10
-33.99931718292642
 20
-7.502708028683521
 30
0.0
  0
SPLINE
  5
CA
330
74
100
AcDbEntity
  8
0
100
AcDbSpline
210
0.0
220
0.0
230
1.0
 70
     8
 71
     3
 72
     8
 73
     4
 74
     0
 42
0.00000001
 43
0.00000001
 40
10.0
 40
10.0
 40
10.0
 40
10.0
 40
11.0
 40
11.0
 40
11.0
 40
11.0
 10
-33.99931718292642
 20
-7.502708028683521
 30
0.0
 10
-33.40907414696034
 20
-7.689011641945549
 30
0.0
 10
-32.48616403135102
 20
-7.975318844696811
 30
0.0
 10
-31.47547483016511
 20
-8.271505052332133
 30
0.0
  0
SPLINE
  5
CB
330
74
100
AcDbEntity
  8
0
100
AcDbSpline
210
0.0
220
0.0
230
1.0
 70
     8
 71
     3
 72
     8
 73
     4
 74
     0
 42
0.00000001
 43
0.00000001
 40
11.0
 40
11.0
 40
11.0
 40
11.0
 40
12.0
 40
12.0
 40
12.0
 40
12.0
 10
-31.47547483016511
 20
-8.271505052332133
 30
0.0
 10
-31.11213516930565
 20
-8.377980375833697
 30
0.0
 10
-30.40258052645035
 20
-8.55729511966404
 30
0.0
 10
-30.28870163819746
 20
-9.336631754491275
 30
0.0
  0
SPLINE
  5
CC
330
74
100
AcDbEntity
  8
0
100
AcDbSpline
210
0.0
220
0.0
230
1.0
 70
     8
 71
     3
 72
     8
 73
     4
 74
     0
 42
0.00000001
 43
0.00000001
 40
12.0
 40
12.0
 40
12.0
 40
12.0
 40
13.0
 40
13.0
 40
13.0
 40
13.0
 10
-30.28870163819746
 20
-9.336631754491275
 30
0.0
 10
-30.1883718252622
 20
-10.02498578462436
 30
0.0
 10
-30.64014408852681
 20
-10.43662327702193
 30
0.0
 10
-31.32890793487913
 20
-10.58563999188937
 30
0.0
  0
SPLINE
  5
CD
330
74
100
AcDbEntity
  8
0
100
AcDbSpline
210
0.0
220
0.0
230
1.0
 70
     8
 71
     3
 72
     8
 73
     4
 74
     0
 42
0.00000001
 43
0.00000001
 40
14.0
 40
14.0
 40
14.0
 40
14.0
 40
15.0
 40
15.0
 40
15.0
 40
15.0
 10
-31.46505813246006
 20
-10.61509661229636
 30
0.0
 10
-32.05208024758041
 20
-10.74210111117219
 30
0.0
 10
-32.71260096537058
 20
-10.55064660173623
 30
0.0
 10
-32.8822392924921
 20
-9.937760156430087
 30
0.0
  0
SPLINE
  5
CE
330
74
100
AcDbEntity
  8
0
100
AcDbSpline
210
0.0
220
0.0
230
1.0
 70
     8
 71
     3
 72
     8
 73
     4
 74
     0
 42
0.00000001
 43
0.00000001
 40
16.0
 40
16.0
 40
16.0
 40
16.0
 40
17.0
 40
17.0
 40
17.0
 40
17.0
 10
-35.1888692338865
 20
-10.43680844141459
 30
0.0
 10
-34.81471685749703
 20
-11.8843133271045
 30
0.0
 10
-33.72975075395794
 20
-12.95131992706823
 30
0.0
 10
-31.59496833044066
 20
-12.72957879515504
 30
0.0
  0
SPLINE
  5
CF
330
74
100
AcDbEntity
  8
0
100
AcDbSpline
210
0.0
220
0.0
230
1.0
 70
     8
 71
     3
 72
     8
 73
     4
 74
     0
 42
0.00000001
 43
0.00000001
 40
18.0
 40
18.0
 40
18.0
 40
18.0
 40
19.0
 40
19.0
 40
19.0
 40
19.0
 10
-30.20639204762402
 20
-12.42915496033268
 30
0.0
 10
-28.36320980349184
 20
-11.79454394754582
 30
0.0
 10
-27.78707037380765
 20
-10.41512978795686
 30
0.0
 10
-27.91988511866083
 20
-9.073464993912006
 30
0.0
  0
SPLINE
  5
D0
330
74
100
AcDbEntity
  8
0
100
AcDbSpline
210
0.0
220
0.0
230
1.0
 70
     8
 71
     3
 72
     8
 73
     4
 74
     0
 42
0.00000001
 43
0.00000001
 40
19.0
 40
19.0
 40
19.0
 40
19.0
 40
20.0
 40
20.0
 40
20.0
 40
20.0
 10
-27.91988511866083
 20
-9.073464993912006
 30
0.0
 10
-28.12563217330358
 20
-6.994152508733083
 30
0.0
 10
-29.51271678483619
 20
-6.50510505043454
 30
0.0
 10
-30.23703582864644
 20
-6.251438951366732
 30
0.0
  0
HATCH
  5
D1
330
74
100
AcDbEntity
  8
0
100
AcDbHatch
 10
0.0
 20
0.0
 30
0.0
210
0.0
220
0.0
230
1.0
  2
SOLID
 70
     1
 71
     0
 91
        1
 92
        0
 93
        7
 72
     1
 10
-53.06293521179145
 20
-11.48017794540906
 11
-53.0628942334185
 21
-11.48036734981106
 72
     1
 10
-53.0628942334185
 20
-11.48036734981106
 11
-50.18135879739363
 21
-10.85693604353014
 72
     1
 10
-50.18135879739363
 20
-10.85693604353014
 11
-47.91273279754322
 21
-7.399227366744369
 72
     1
 10
-47.91273279754322
 20
-7.399227366744369
 11
-51.40738209617635
 21
-5.188811056417426
 72
     1
 10
-51.40738209617635
 20
-5.188811056417426
 11
-54.28910693660305
 21
-5.812283341071309
 72
     1
 10
-54.28910693660305
 20
-5.812283341071309
 11
-50.79453412756107
 21
-8.022804320319173
 72
     1
 10
-50.79453412756107
 20
-8.022804320319173
 11
-53.06293521179145
 21
-11.48017794540906
 97
        0
 75
     0
 76
     1
 98
        1
 10
0.0
 20
0.0
  0
HATCH
  5
D2
330
74
100
AcDbEntity
  8
0
100
AcDbHatch
 10
0.0
 20
0.0
 30
0.0
210
0.0
220
0.0
230
1.0
  2
SOLID
 70
     1
 71
     0
 91
        1
 92
        0
 93
        6
 72
     1
 10
-41.53588964704281
 20
-8.986455445432597
 11
-44.41771445090438
 21
-9.609949357561213
 72
     1
 10
-44.41771445090438
 20
-9.609949357561213
 11
-46.68624347197728
 21
-13.06764806762683
 72
     1
 10
-46.68624347197728
 20
-13.06764806762683
 11
-43.23827248082917
 21
-15.24865255879992
 72
     1
 10
-43.23827248082917
 20
-15.24865255879992
 11
-40.35645293820115
 21
-14.62515978495947
 72
     1
 10
-40.35645293820115
 20
-14.62515978495947
 11
-43.80454139731328
 21
-12.44407055830516
 72
     1
 10
-43.80454139731328
 20
-12.44407055830516
 11
-41.53588964704281
 21
-8.986455445432597
 97
        0
 75
     0
 76
     1
 98
        1
 10
0.0
 20
0.0
  0
HATCH
  5
D3
330
74
100
AcDbEntity
  8
0
100
AcDbHatch
 10
0.0
 20
0.0
 30
0.0
210
0.0
220
0.0
230
1.0
  2
SOLID
 70
     1
 71
     0
 91
        1
 92
        0
 93
       20
 72
     4
 94
        3
 73
     1
 74
     0
 95
        8
 96
        4
 40
18.0
 40
18.0
 40
18.0
 40
18.0
 40
19.0
 40
19.0
 40
19.0
 40
19.0
 10
-30.20639204762402
 20
-12.42915496033267
 42
1.0
 10
-28.36320980349188
 20
-11.79454394754584
 42
1.0
 10
-27.78707037380775
 20
-10.41512978795687
 42
1.0
 10
-27.91988511866085
 20
-9.073464993912015
 42
1.0
 72
     4
 94
        3
 73
     1
 74
     0
 95
        8
 96
        4
 40
19.0
 40
19.0
 40
19.0
 40
19.0
 40
20.0
 40
20.0
 40
20.0
 40
20.0
 10
-27.91988511866085
 20
-9.073464993912015
 42
1.0
 10
-28.1256321733036
 20
-6.994152508733093
 42
1.0
 10
-29.51271678483624
 20
-6.505105050434554
 42
1.0
 10
-30.23703582864647
 20
-6.251438951366739
 42
1.0
 72
     4
 94
        3
 73
     1
 74
     0
 95
        8
 96
        4
 40
0.0
 40
0.0
 40
0.0
 40
0.0
 40
1.0
 40
1.0
 40
1.0
 40
1.0
 10
-30.23703582864647
 20
-6.251438951366739
 42
1.0
 10
-30.91043001867278
 20
-6.015603382360466
 42
1.0
 10
-31.40848551125484
 20
-5.893156856121866
 42
1.0
 10
-32.67210357750633
 20
-5.496689523479784
 42
1.0
 72
     4
 94
        3
 73
     1
 74
     0
 95
        8
 96
        4
 40
1.0
 40
1.0
 40
1.0
 40
1.0
 40
2.0
 40
2.0
 40
2.0
 40
2.0
 10
-32.67210357750633
 20
-5.496689523479784
 42
1.0
 10
-33.03332194555515
 20
-5.383421617718138
 42
1.0
 10
-33.81210282496121
 20
-5.206692347750558
 42
1.0
 10
-33.94849250952591
 20
-4.576291363356954
 42
1.0
 72
     4
 94
        3
 73
     1
 74
     0
 95
        8
 96
        4
 40
2.0
 40
2.0
 40
2.0
 40
2.0
 40
3.0
 40
3.0
 40
3.0
 40
3.0
 10
-33.94849250952591
 20
-4.576291363356954
 42
1.0
 10
-34.11622381965228
 20
-3.801027578894066
 42
1.0
 10
-33.67528356585566
 20
-3.448097454184939
 42
1.0
 10
-32.99335932290605
 20
-3.300560513895483
 42
1.0
 72
     1
 10
-32.99335932290605
 20
-3.300560513895483
 11
-32.85916630414502
 21
-3.271527336675422
 72
     4
 94
        3
 73
     1
 74
     0
 95
        8
 96
        4
 40
4.0
 40
4.0
 40
4.0
 40
4.0
 40
5.0
 40
5.0
 40
5.0
 40
5.0
 10
-32.85916630414502
 20
-3.271527336675422
 42
1.0
 10
-32.27869442459117
 20
-3.145940006530068
 42
1.0
 10
-31.77109773641243
 20
-3.328116480283154
 42
1.0
 10
-31.5697721187044
 20
-3.967820152272114
 42
1.0
 72
     1
 10
-31.5697721187044
 20
-3.967820152272114
 11
-29.29695612428624
 21
-3.476087645143523
 72
     4
 94
        3
 73
     1
 74
     0
 95
        8
 96
        4
 40
6.0
 40
6.0
 40
6.0
 40
6.0
 40
7.0
 40
7.0
 40
7.0
 40
7.0
 10
-29.2969561242863
 20
-3.476087645143538
 42
1.0
 10
-29.6881007197101
 20
-1.866802583842747
 42
1.0
 10
-30.87776107222446
 20
-0.7599478056671519
 42
1.0
 10
-33.27949204955327
 20
-1.266772121690873
 42
1.0
 72
     1
 10
-33.27949204955321
 20
-1.266772121690857
 11
-33.3448839193166
 21
-1.280919904944549
 72
     4
 94
        3
 73
     1
 74
     0
 95
        8
 96
        4
 40
8.0
 40
8.0
 40
8.0
 40
8.0
 40
9.0
 40
9.0
 40
9.0
 40
9.0
 10
-33.34488391931666
 20
-1.280919904944565
 42
1.0
 10
-35.8115299245211
 20
-1.828202838410234
 42
1.0
 10
-36.3337848782655
 20
-3.544650129978449
 42
1.0
 10
-36.09207577942846
 20
-4.962606301827486
 42
1.0
 72
     4
 94
        3
 73
     1
 74
     0
 95
        8
 96
        4
 40
9.0
 40
9.0
 40
9.0
 40
9.0
 40
10.0
 40
10.0
 40
10.0
 40
10.0
 10
-36.09207577942846
 20
-4.962606301827486
 42
1.0
 10
-35.83736690020323
 20
-6.457652824126184
 42
1.0
 10
-34.96800490008029
 20
-7.196828812263736
 42
1.0
 10
-33.99931718292643
 20
-7.502708028683525
 42
1.0
 72
     4
 94
        3
 73
     1
 74
     0
 95
        8
 96
        4
 40
10.0
 40
10.0
 40
10.0
 40
10.0
 40
11.0
 40
11.0
 40
11.0
 40
11.0
 10
-33.99931718292643
 20
-7.502708028683525
 42
1.0
 10
-33.40907414696031
 20
-7.689011641945555
 42
1.0
 10
-32.48616403135106
 20
-7.975318844696822
 42
1.0
 10
-31.47547483016516
 20
-8.27150505233215
 42
1.0
 72
     4
 94
        3
 73
     1
 74
     0
 95
        8
 96
        4
 40
11.0
 40
11.0
 40
11.0
 40
11.0
 40
12.0
 40
12.0
 40
12.0
 40
12.0
 10
-31.47547483016516
 20
-8.27150505233215
 42
1.0
 10
-31.11213516930568
 20
-8.377980375833708
 42
1.0
 10
-30.40258052645039
 20
-8.557295119664056
 42
1.0
 10
-30.28870163819752
 20
-9.336631754491272
 42
1.0
 72
     4
 94
        3
 73
     1
 74
     0
 95
        8
 96
        4
 40
12.0
 40
12.0
 40
12.0
 40
12.0
 40
13.0
 40
13.0
 40
13.0
 40
13.0
 10
-30.28870163819752
 20
-9.336631754491272
 42
1.0
 10
-30.18837182526216
 20
-10.02498578462435
 42
1.0
 10
-30.64014408852681
 20
-10.43662327702195
 42
1.0
 10
-31.32890793487914
 20
-10.58563999188937
 42
1.0
 72
     1
 10
-31.32890793487914
 20
-10.58563999188937
 11
-31.46505813246008
 21
-10.61509661229637
 72
     4
 94
        3
 73
     1
 74
     0
 95
        8
 96
        4
 40
14.0
 40
14.0
 40
14.0
 40
14.0
 40
15.0
 40
15.0
 40
15.0
 40
15.0
 10
-31.46505813246008
 20
-10.61509661229637
 42
1.0
 10
-32.05208024758041
 20
-10.7421011111722
 42
1.0
 10
-32.71260096537064
 20
-10.55064660173623
 42
1.0
 10
-32.88223929249212
 20
-9.937760156430087
 42
1.0
 72
     1
 10
-32.88223929249212
 20
-9.937760156430087
 11
-35.18886923388655
 21
-10.43680844141459
 72
     4
 94
        3
 73
     1
 74
     0
 95
        8
 96
        4
 40
16.0
 40
16.0
 40
16.0
 40
16.0
 40
17.0
 40
17.0
 40
17.0
 40
17.0
 10
-35.18886923388649
 20
-10.43680844141459
 42
1.0
 10
-34.81471685749708
 20
-11.88431332710451
 42
1.0
 10
-33.72975075395801
 20
-12.95131992706824
 42
1.0
 10
-31.59496833044075
 20
-12.72957879515506
 42
1.0
 72
     1
 10
-31.59496833044068
 20
-12.72957879515504
 11
-30.20639204762409
 21
-12.42915496033269
 97
        0
 75
     0
 76
     1
 98
        1
 10
0.0
 20
0.0
  0
HATCH
  5
D4
330
74
100
AcDbEntity
  8
0
100
AcDbHatch
 10
0.0
 20
0.0
 30
0.0
210
0.0
220
0.0
230
1.0
  2
SOLID
 70
     1
 71
     0
 91
        1
 92
        0
 93
       11
 72
     1
 10
-23.93083334830058
 20
-6.656177916224847
 11
-23.9305586195879
 21
-1.497666803489873
 72
     1
 10
-23.9305586195879
 20
-1.497666803489873
 11
-20.04326836721582
 21
-10.05945907169815
 72
     1
 10
-20.04326836721582
 20
-10.05945907169815
 11
-17.66870538033285
 21
-9.545713210289948
 72
     1
 10
-17.66870538033285
 20
-9.545713210289948
 11
-22.39983793591613
 21
0.8767293108990284
 72
     1
 10
-22.39983793591613
 20
0.8767293108990277
 11
-26.30586704316552
 21
0.0316448471579831
 72
     1
 10
-26.30586704316552
 20
0.0316448471579831
 11
-26.30567237753049
 21
-11.41435433475813
 72
     1
 10
-26.30567237753049
 20
-11.41435433475813
 11
-23.93111465188077
 21
-10.90060961163804
 72
     1
 10
-23.93111465188077
 20
-10.90060961163804
 11
-23.93099314235586
 21
-8.782594625323274
 72
     1
 10
-23.93099314235586
 20
-8.782594625323274
 11
-22.27383089514867
 21
-8.42406118111162
 72
     1
 10
-22.27383089514867
 20
-8.42406118111162
 11
-22.7133102853523
 21
-6.392762105309743
 72
     1
 10
-22.7133102853523
 20
-6.392762105309743
 11
-23.93083334830058
 21
-6.656177916224847
 97
        0
 75
     0
 76
     1
 98
        1
 10
0.0
 20
0.0
  0
HATCH
  5
D5
330
74
100
AcDbEntity
  8
0
100
AcDbHatch
 10
0.0
 20
0.0
 30
0.0
210
0.0
220
0.0
230
1.0
  2
SOLID
 70
     1
 71
     0
 91
        1
 92
        0
 93
        6
 72
     1
 10
-15.79563263740209
 20
2.305574601061446
 11
-18.06492886668423
 21
1.814603608696526
 72
     4
 94
        3
 73
     1
 74
     0
 95
        8
 96
        4
 40
2.0
 40
2.0
 40
2.0
 40
2.0
 40
3.0
 40
3.0
 40
3.0
 40
3.0
 10
-18.06492886668423
 20
1.814603608696526
 42
1.0
 10
-17.240039650055
 20
-1.995739949107533
 42
1.0
 10
-15.71186186991055
 20
-9.059523950669437
 42
1.0
 10
-15.69887855542098
 20
-9.119533578677919
 42
1.0
 72
     1
 10
-15.69887855542092
 20
-9.119533578677903
 11
-10.22610149671526
 21
-7.93547715235816
 72
     1
 10
-10.22610149671526
 20
-7.93547715235816
 11
-10.66558088691882
 21
-5.904178076556605
 72
     1
 10
-10.66558088691882
 20
-5.904178076556605
 11
-13.86994560355126
 21
-6.597454742918437
 72
     4
 94
        3
 73
     1
 74
     0
 95
        8
 96
        4
 40
0.0
 40
0.0
 40
0.0
 40
0.0
 40
1.0
 40
1.0
 40
1.0
 40
1.0
 10
-13.86994560355126
 20
-6.597454742918437
 42
1.0
 10
-13.88373254946556
 20
-6.533730684138598
 42
1.0
 10
-15.1136551579741
 20
-0.8489574873494129
 42
1.0
 10
-15.79563263740209
 20
2.305574601061446
 42
1.0
 97
        0
 75
     0
 76
     1
 98
        1
 10
0.0
 20
0.0
  0
HATCH
  5
D6
330
74
100
AcDbEntity
  8
0
100
AcDbHatch
 10
0.0
 20
0.0
 30
0.0
210
0.0
220
0.0
230
1.0
  2
SOLID
 70
     1
 71
     0
 91
        1
 92
        0
 93
       11
 72
     1
 10
2.375028433631206
 20
-0.9648032523823513
 11
2.375208460142868
 21
4.193687371166118
 72
     1
 10
2.375208460142868
 20
4.193687371166118
 11
6.262509234981617
 21
-4.368102620465918
 72
     1
 10
6.262509234981617
 20
-4.368102620465917
 11
8.637061699398163
 21
-3.854359035633896
 72
     1
 10
8.637061699398163
 20
-3.854359035633896
 11
3.905939666281055
 21
6.568085762131229
 72
     1
 10
3.905939666281055
 20
6.56808576213123
 11
-0.0000000000001235
 21
5.723020649288631
 72
     1
 10
-0.0000000000001234
 20
5.723020649288631
 11
-0.000000000000185
 21
-5.723020649288538
 72
     1
 10
-0.000000000000185
 20
-5.723020649288538
 11
2.37465768908423
 21
-5.20925429869377
 72
     1
 10
2.37465768908423
 20
-5.20925429869377
 11
2.374784459841949
 21
-3.091238174090979
 72
     1
 10
2.374784459841949
 20
-3.091238174090979
 11
4.031830959914354
 21
-2.732729772218408
 72
     1
 10
4.031830959914354
 20
-2.732729772218408
 11
3.592351569710606
 21
-0.701430696416514
 72
     1
 10
3.592351569710606
 20
-0.7014306964165138
 11
2.375028433631206
 21
-0.9648032523823513
 97
        0
 75
     0
 76
     1
 98
        1
 10
0.0
 20
0.0
  0
HATCH
  5
D7
330
74
100
AcDbEntity
  8
0
100
AcDbHatch
 10
0.0
 20
0.0
 30
0.0
210
0.0
220
0.0
230
1.0
  2
SOLID
 70
     1
 71
     0
 91
        1
 92
        0
 93
        8
 72
     1
 10
-42.14906497721024
 20
-6.152323722221632
 11
-42.76219705242848
 21
-3.318391925879333
 72
     1
 10
-42.76219705242848
 20
-3.318391925879333
 11
-42.76249168149826
 21
-3.318455670015027
 72
     1
 10
-42.76249168149826
 20
-3.318455670015027
 11
-45.03079507887072
 21
-6.775797145163721
 72
     1
 10
-45.03079507887072
 20
-6.775797145163721
 11
-48.52545732888054
 21
-4.565295516814268
 72
     1
 10
-48.52545732888054
 20
-4.565295516814268
 11
-48.52574669671678
 21
-4.565358122661792
 72
     1
 10
-48.52574669671678
 20
-4.565358122661792
 11
-47.91261462149855
 21
-7.39928991900409
 72
     1
 10
-47.91261462149855
 20
-7.39928991900409
 11
-44.41773721666716
 21
-9.60984413289331
 72
     1
 10
-44.41773721666716
 20
-9.60984413289331
 11
-42.14906497721024
 21
-6.152323722221632
 97
        0
 75
     0
 76
     1
 98
        1
 10
0.0
 20
0.0
  0
HATCH
  5
D8
330
74
100
AcDbEntity
  8
0
100
AcDbHatch
 10
0.0
 20
0.0
 30
0.0
210
0.0
220
0.0
230
1.0
  2
SOLID
 70
     1
 71
     0
 91
        1
 92
        0
 93
        8
 72
     1
 10
-46.11999732125613
 20
-15.87212484345383
 11
-46.08139565189786
 21
-15.8637732233933
 72
     1
 10
-46.08139565189786
 20
-15.8637732233933
 11
-46.68636620117444
 21
-13.06756447043367
 72
     1
 10
-46.68636620117444
 20
-13.06756447043367
 11
-50.18135879739361
 21
-10.85693604353009
 72
     1
 10
-50.18135879739361
 20
-10.85693604353009
 11
-52.44976215820033
 21
-14.31429914615315
 72
     1
 10
-52.44976215820033
 20
-14.31429914615315
 11
-51.84475063055083
 21
-17.11069730351469
 72
     1
 10
-51.84475063055083
 20
-17.11069730351469
 11
-51.80633836559459
 21
-17.1023866618271
 72
     1
 10
-51.80633836559459
 20
-17.1023866618271
 11
-49.56818574380249
 21
-13.69105724427409
 72
     1
 10
-49.56818574380249
 20
-13.69105724427409
 11
-46.11999732125613
 21
-15.87212484345383
 97
        0
 75
     0
 76
     1
 98
        1
 10
0.0
 20
0.0
  0
HATCH
  5
D9
330
74
100
AcDbEntity
  8
0
100
AcDbHatch
 10
0.0
 20
0.0
 30
0.0
210
0.0
220
0.0
230
1.0
  2
SOLID
 70
     1
 71
     0
 91
        2
 92
        0
 93
        7
 72
     1
 10
-6.859585567104196
 20
4.238922852960538
 11
-11.00449045380928
 21
3.342156692939393
 72
     1
 10
-11.00449045380928
 20
3.342156692939393
 11
-8.638829473816639
 21
-7.592064727757185
 72
     1
 10
-8.638829473816639
 20
-7.592064727757185
 11
-8.63844014254617
 21
-7.591980494435086
 72
     1
 10
-8.63844014254617
 20
-7.591980494435086
 11
-4.494024550545999
 21
-6.695320195210662
 72
     4
 94
        3
 73
     1
 74
     0
 95
        8
 96
        4
 40
3.0
 40
3.0
 40
3.0
 40
3.0
 40
4.0
 40
4.0
 40
4.0
 40
4.0
 10
-4.494024550545999
 20
-6.695320195210662
 42
1.0
 10
-2.825524345390513
 20
-6.334333740063992
 42
1.0
 10
-1.762658323115034
 20
-4.702068307882374
 42
1.0
 10
-2.120071189640999
 20
-3.049576315093403
 42
1.0
 72
     4
 94
        3
 73
     1
 74
     0
 95
        8
 96
        4
 40
4.0
 40
4.0
 40
4.0
 40
4.0
 40
5.0
 40
5.0
 40
5.0
 40
5.0
 10
-2.120071189640999
 20
-3.049576315093403
 42
1.0
 10
-2.485983017556096
 20
-1.358310753073632
 42
1.0
 10
-2.867352798370483
 20
0.4044023583376265
 42
1.0
 10
-3.190995488197396
 20
1.900704823656681
 42
1.0
 72
     4
 94
        3
 73
     1
 74
     0
 95
        8
 96
        4
 40
5.0
 40
5.0
 40
5.0
 40
5.0
 40
6.0
 40
6.0
 40
6.0
 40
6.0
 10
-3.190995488197396
 20
1.900704823656681
 42
1.0
 10
-3.54857504695031
 20
3.553458157285876
 42
1.0
 10
-5.190901218780231
 20
4.599949148191988
 42
1.0
 10
-6.859585567104196
 20
4.238922852960538
 42
1.0
 97
        0
 92
        0
 93
        6
 72
     4
 94
        3
 73
     1
 74
     0
 95
        8
 96
        4
 40
2.0
 40
2.0
 40
2.0
 40
2.0
 40
3.0
 40
3.0
 40
3.0
 40
3.0
 10
-6.919811195494074
 20
2.099808074263809
 42
1.0
 10
-6.228016878711183
 20
2.249480443098069
 42
1.0
 10
-5.547633595833446
 20
1.815851349115847
 42
1.0
 10
-5.399398884916104
 20
1.130701970100344
 42
1.0
 72
     4
 94
        3
 73
     1
 74
     0
 95
        8
 96
        4
 40
3.0
 40
3.0
 40
3.0
 40
3.0
 40
4.0
 40
4.0
 40
4.0
 40
4.0
 10
-5.399398884916104
 20
1.130701970100344
 42
1.0
 10
-5.107009087764085
 20
-0.2207405274728672
 42
1.0
 10
-4.711497421058354
 20
-2.048334586467611
 42
1.0
 10
-4.449160707297047
 20
-3.260870000165379
 42
1.0
 72
     4
 94
        3
 73
     1
 74
     0
 95
        8
 96
        4
 40
4.0
 40
4.0
 40
4.0
 40
4.0
 40
5.0
 40
5.0
 40
5.0
 40
5.0
 10
-4.449160707297047
 20
-3.260870000165379
 42
1.0
 10
-4.300905507193207
 20
-3.946114081381999
 42
1.0
 10
-4.741570606399121
 20
-4.622385452066122
 42
1.0
 10
-5.433383135791953
 20
-4.771973641166296
 42
1.0
 72
     1
 10
-5.433383135791953
 20
-4.771973641166296
 11
-6.809537646582547
 21
-5.069709977697404
 72
     4
 94
        3
 73
     1
 74
     0
 95
        8
 96
        4
 40
0.0
 40
0.0
 40
0.0
 40
0.0
 40
1.0
 40
1.0
 40
1.0
 40
1.0
 10
-6.809537646582547
 20
-5.069709977697404
 42
1.0
 10
-7.284290309572815
 20
-2.875375801708635
 42
1.0
 10
-7.897830097865885
 20
-0.0390758678013329
 42
1.0
 10
-8.296070930952649
 20
1.80204897196991
 42
1.0
 72
     1
 10
-8.296070930952649
 20
1.80204897196991
 11
-6.919811195494074
 21
2.099808074263809
 97
        0
 75
     0
 76
     1
 98
        1
 10
0.0
 20
0.0
  0
ENDBLK
  5
76
330
74
100
AcDbEntity
  8
0
100
AcDbBlockEnd
  0
BLOCK
  5
29B
330
29A
100
AcDbEntity
  8
0
100
AcDbBlockBegin
  2
SW_CENTERMARKSYMBOL_0
 70
     0
 10
0.0
 20
0.0
 30
0.0
  3
SW_CENTERMARKSYMBOL_0
  1

  0
LINE
  5
29D
330
29A
100
AcDbEntity
  8
0
  6
Continuous
 62
     0
370
    18
100
AcDbLine
 10
0.0
 20
0.0
 30
0.0
 11
0.0
 21
2.5
 31
0.0
  0
LINE
  5
29E
330
29A
100
AcDbEntity
  8
0
  6
Continuous
 62
     0
370
    18
100
AcDbLine
 10
0.0
 20
0.0
 30
0.0
 11
-2.5
 21
0.0
 31
0.0
  0
LINE
  5
29F
330
29A
100
AcDbEntity
  8
0
  6
Continuous
 62
     0
370
    18
100
AcDbLine
 10
0.0
 20
0.0
 30
0.0
 11
0.0
 21
-2.5
 31
0.0
  0
LINE
  5
2A0
330
29A
100
AcDbEntity
  8
0
  6
Continuous
 62
     0
370
    18
100
AcDbLine
 10
0.0
 20
0.0
 30
0.0
 11
2.5
 21
0.0
 31
0.0
  0
LINE
  5
2A1
330
29A
100
AcDbEntity
  8
0
  6
Continuous
 62
     0
370
    18
100
AcDbLine
 10
0.0
 20
5.0
 30
0.0
 11
0.0
 21
157.9
 31
0.0
  0
LINE
  5
2A2
330
29A
100
AcDbEntity
  8
0
  6
Continuous
 62
     0
370
    18
100
AcDbLine
 10
-5.0
 20
0.0
 30
0.0
 11
-157.9
 21
0.0
 31
0.0
  0
LINE
  5
2A3
330
29A
100
AcDbEntity
  8
0
  6
Continuous
 62
     0
370
    18
100
AcDbLine
 10
0.0
 20
-5.0
 30
0.0
 11
0.0
 21
-157.9
 31
0.0
  0
LINE
  5
2A4
330
29A
100
AcDbEntity
  8
0
  6
Continuous
 62
     0
370
    18
100
AcDbLine
 10
5.0
 20
0.0
 30
0.0
 11
157.9
 21
0.0
 31
0.0
  0
ENDBLK
  5
29C
330
29A
100
AcDbEntity
  8
0
100
AcDbBlockEnd
  0
ENDSEC
  0
SECTION
  2
ENTITIES
  0
LINE
  5
DA
330
1F
100
AcDbEntity
  8
0
100
AcDbLine
 10
-1.7870848198
 20
465.76101646
 30
0.0
 11
-1.8432596568
 21
465.76101646
 31
0.0
  0
LINE
  5
DB
330
1F
100
AcDbEntity
  8
0
100
AcDbLine
 10
-123.7870848198
 20
465.76101646
 30
0.0
 11
-123.8432596568
 21
465.76101646
 31
0.0
  0
LINE
  5
DC
330
1F
100
AcDbEntity
  8
0
100
AcDbLine
 10
-245.7870848198
 20
465.76101646
 30
0.0
 11
-245.8432596568
 21
465.76101646
 31
0.0
  0
LINE
  5
DD
330
1F
100
AcDbEntity
  8
0
100
AcDbLine
 10
-367.7870848198
 20
465.76101646
 30
0.0
 11
-367.8432596568
 21
465.76101646
 31
0.0
  0
LINE
  5
DE
330
1F
100
AcDbEntity
  8
0
100
AcDbLine
 10
-489.7870848198
 20
465.76101646
 30
0.0
 11
-489.8432596568
 21
465.76101646
 31
0.0
  0
LINE
  5
DF
330
1F
100
AcDbEntity
  8
0
100
AcDbLine
 10
-611.7870848198
 20
465.76101646
 30
0.0
 11
-611.8432596568
 21
465.76101646
 31
0.0
  0
ARC
  5
E0
330
1F
100
AcDbEntity
  8
0
100
AcDbCircle
 10
-726.9451082184
 20
466.56101646
 30
0.0
 40
0.1999999999999886
100
AcDbArc
 50
270.0
 51
0.0
  0
LINE
  5
E1
330
1F
100
AcDbEntity
  8
0
100
AcDbLine
 10
-726.7451082184
 20
466.56101646
 30
0.0
 11
-726.7451082184
 21
467.16101646
 31
0.0
  0
ARC
  5
E2
330
1F
100
AcDbEntity
  8
0
100
AcDbCircle
 10
-726.9451082184
 20
467.16101646
 30
0.0
 40
0.2000000000000455
100
AcDbArc
 50
0.0
 51
90.0
  0
ARC
  5
E3
330
1F
100
AcDbEntity
  8
0
100
AcDbCircle
 10
-731.8549706809
 20
460.3705350789
 30
0.0
 40
8.000000000000083
100
AcDbArc
 50
107.1467397277
 51
119.0955287963
  0
ARC
  5
E4
330
1F
100
AcDbEntity
  8
0
100
AcDbCircle
 10
-732.6352457559
 20
460.3705350789
 30
0.0
 40
8.000000000000028
100
AcDbArc
 50
60.9044712037
 51
72.8515803462
  0
ARC
  5
E5
330
1F
100
AcDbEntity
  8
0
100
AcDbCircle
 10
-737.5451082184
 20
49.96101646
 30
0.0
 40
0.1999999999999744
100
AcDbArc
 50
90.0
 51
180.0
  0
ARC
  5
E6
330
1F
100
AcDbEntity
  8
0
100
AcDbCircle
 10
-726.9451082184
 20
49.96101646
 30
0.0
 40
0.1999999999999744
100
AcDbArc
 50
0.0
 51
90.0
  0
LINE
  5
E7
330
1F
100
AcDbEntity
  8
0
100
AcDbLine
 10
-737.7451082184
 20
49.96101646
 30
0.0
 11
-737.7451082184
 21
49.36101646
 31
0.0
  0
LINE
  5
E8
330
1F
100
AcDbEntity
  8
0
100
AcDbLine
 10
-726.7451082184
 20
49.36101646
 30
0.0
 11
-726.7451082184
 21
49.96101646
 31
0.0
  0
ARC
  5
E9
330
1F
100
AcDbEntity
  8
0
100
AcDbCircle
 10
-737.5451082184
 20
49.36101646
 30
0.0
 40
0.2000000000000028
100
AcDbArc
 50
180.0
 51
270.0
  0
ARC
  5
EA
330
1F
100
AcDbEntity
  8
0
100
AcDbCircle
 10
-726.9451082184
 20
49.36101646
 30
0.0
 40
0.2000000000000028
100
AcDbArc
 50
270.0
 51
0.0
  0
ARC
  5
EB
330
1F
100
AcDbEntity
  8
0
100
AcDbCircle
 10
-732.6352457559
 20
56.1514978411
 30
0.0
 40
8.000000000000046
100
AcDbArc
 50
287.1467397277
 51
299.0955287963
  0
ARC
  5
EC
330
1F
100
AcDbEntity
  8
0
100
AcDbCircle
 10
-731.8549706809
 20
56.1514978411
 30
0.0
 40
8.000000000000046
100
AcDbArc
 50
240.9044712037
 51
252.8515803462
  0
ARC
  5
ED
330
1F
100
AcDbEntity
  8
0
100
AcDbCircle
 10
142.4548917816
 20
49.96101646
 30
0.0
 40
0.1999999999999886
100
AcDbArc
 50
90.0
 51
180.0
  0
ARC
  5
EE
330
1F
100
AcDbEntity
  8
0
100
AcDbCircle
 10
153.0548917816
 20
49.96101646
 30
0.0
 40
0.1999999999999886
100
AcDbArc
 50
0.0
 51
90.0
  0
LINE
  5
EF
330
1F
100
AcDbEntity
  8
0
100
AcDbLine
 10
142.2548917816
 20
49.96101646
 30
0.0
 11
142.2548917816
 21
49.36101646
 31
0.0
  0
LINE
  5
F0
330
1F
100
AcDbEntity
  8
0
100
AcDbLine
 10
153.2548917816
 20
49.36101646
 30
0.0
 11
153.2548917816
 21
49.96101646
 31
0.0
  0
ARC
  5
F1
330
1F
100
AcDbEntity
  8
0
100
AcDbCircle
 10
142.4548917816
 20
49.36101646
 30
0.0
 40
0.2000000000000028
100
AcDbArc
 50
180.0
 51
270.0
  0
ARC
  5
F2
330
1F
100
AcDbEntity
  8
0
100
AcDbCircle
 10
153.0548917816
 20
49.36101646
 30
0.0
 40
0.2000000000000028
100
AcDbArc
 50
270.0
 51
0.0
  0
ARC
  5
F3
330
1F
100
AcDbEntity
  8
0
100
AcDbCircle
 10
147.3647542441
 20
56.1514978411
 30
0.0
 40
8.000000000000005
100
AcDbArc
 50
287.1467397277
 51
299.0955287963
  0
ARC
  5
F4
330
1F
100
AcDbEntity
  8
0
100
AcDbCircle
 10
148.1450293191
 20
56.1514978411
 30
0.0
 40
8.000000000000005
100
AcDbArc
 50
240.9044712037
 51
252.8515803462
  0
ARC
  5
F5
330
1F
100
AcDbEntity
  8
0
100
AcDbCircle
 10
153.0548917816
 20
467.16101646
 30
0.0
 40
0.1999999999999886
100
AcDbArc
 50
0.0
 51
90.0
  0
ARC
  5
F6
330
1F
100
AcDbEntity
  8
0
100
AcDbCircle
 10
142.4548917816
 20
467.16101646
 30
0.0
 40
0.1999999999999886
100
AcDbArc
 50
90.0
 51
180.0
  0
ARC
  5
F7
330
1F
100
AcDbEntity
  8
0
100
AcDbCircle
 10
153.0548917816
 20
466.56101646
 30
0.0
 40
0.1999999999999886
100
AcDbArc
 50
270.0
 51
0.0
  0
ARC
  5
F8
330
1F
100
AcDbEntity
  8
0
100
AcDbCircle
 10
142.4548917816
 20
466.56101646
 30
0.0
 40
0.1999999999999886
100
AcDbArc
 50
180.0
 51
270.0
  0
LINE
  5
F9
330
1F
100
AcDbEntity
  8
0
100
AcDbLine
 10
153.2548917816
 20
466.56101646
 30
0.0
 11
153.2548917816
 21
467.16101646
 31
0.0
  0
LINE
  5
FA
330
1F
100
AcDbEntity
  8
0
100
AcDbLine
 10
142.2548917816
 20
467.16101646
 30
0.0
 11
142.2548917816
 21
466.56101646
 31
0.0
  0
ARC
  5
FB
330
1F
100
AcDbEntity
  8
0
100
AcDbCircle
 10
148.1450293191
 20
460.3705350789
 30
0.0
 40
7.999999999999993
100
AcDbArc
 50
107.1467397277
 51
119.0955287963
  0
ARC
  5
FC
330
1F
100
AcDbEntity
  8
0
100
AcDbCircle
 10
147.3647542441
 20
460.3705350789
 30
0.0
 40
7.999999999999993
100
AcDbArc
 50
60.9044712037
 51
72.8515803462
  0
ARC
  5
FD
330
1F
100
AcDbEntity
  8
0
100
AcDbCircle
 10
-825.8799917849
 20
93.86101646
 30
0.0
 40
0.5000000000001137
100
AcDbArc
 50
184.9871394293
 51
0.0
  0
ARC
  5
FE
330
1F
100
AcDbEntity
  8
0
100
AcDbCircle
 10
-825.8799917849
 20
422.66101646
 30
0.0
 40
0.5
100
AcDbArc
 50
0.0
 51
175.0128605707
  0
ARC
  5
FF
330
1F
100
AcDbEntity
  8
0
100
AcDbCircle
 10
-830.0799917849
 20
93.86101646
 30
0.0
 40
0.4999999999999729
100
AcDbArc
 50
184.9871394293
 51
0.0
  0
ARC
  5
100
330
1F
100
AcDbEntity
  8
0
100
AcDbCircle
 10
-830.0799917849
 20
422.66101646
 30
0.0
 40
0.5
100
AcDbArc
 50
360.0
 51
175.0128605707
  0
LINE
  5
101
330
1F
100
AcDbEntity
  8
0
100
AcDbLine
 10
-826.3780989029
 20
422.7044825277
 30
0.0
 11
-827.0600726409
 21
414.8892834262
 31
0.0
  0
LINE
  5
102
330
1F
100
AcDbEntity
  8
0
100
AcDbLine
 10
-827.0600726409
 20
101.6327494938
 30
0.0
 11
-826.3780989029
 21
93.8175503923
 31
0.0
  0
LINE
  5
103
330
1F
100
AcDbEntity
  8
0
100
AcDbLine
 10
-830.5780989029
 20
422.7044825277
 30
0.0
 11
-831.2600726409
 21
414.8892834262
 31
0.0
  0
LINE
  5
104
330
1F
100
AcDbEntity
  8
0
100
AcDbLine
 10
-831.2600726409
 20
101.6327494938
 30
0.0
 11
-830.5780989029
 21
93.8175503923
 31
0.0
  0
ARC
  5
105
330
1F
100
AcDbEntity
  8
0
100
AcDbCircle
 10
-827.3091261999
 20
101.61101646
 30
0.0
 40
0.25
100
AcDbArc
 50
4.9871394293
 51
90.0
  0
ARC
  5
106
330
1F
100
AcDbEntity
  8
0
100
AcDbCircle
 10
-827.3091261999
 20
414.91101646
 30
0.0
 40
0.25
100
AcDbArc
 50
270.0
 51
355.0128605707
  0
ARC
  5
107
330
1F
100
AcDbEntity
  8
0
100
AcDbCircle
 10
-831.5091261999
 20
101.61101646
 30
0.0
 40
0.25
100
AcDbArc
 50
4.9871394293
 51
90.0
  0
ARC
  5
108
330
1F
100
AcDbEntity
  8
0
100
AcDbCircle
 10
-831.5091261999
 20
414.91101646
 30
0.0
 40
0.25
100
AcDbArc
 50
270.0
 51
355.0128605707
  0
LINE
  5
109
330
1F
100
AcDbEntity
  8
0
100
AcDbLine
 10
-829.5799917849
 20
101.86101646
 30
0.0
 11
-827.3091261999
 21
101.86101646
 31
0.0
  0
LINE
  5
10A
330
1F
100
AcDbEntity
  8
0
100
AcDbLine
 10
-827.3091261999
 20
414.66101646
 30
0.0
 11
-829.5799917849
 21
414.66101646
 31
0.0
  0
LINE
  5
10B
330
1F
100
AcDbEntity
  8
0
100
AcDbLine
 10
-833.6299917849
 20
101.86101646
 30
0.0
 11
-831.5091261999
 21
101.86101646
 31
0.0
  0
LINE
  5
10C
330
1F
100
AcDbEntity
  8
0
100
AcDbLine
 10
-831.5091261999
 20
414.66101646
 30
0.0
 11
-833.6299917849
 21
414.66101646
 31
0.0
  0
ARC
  5
10D
330
1F
100
AcDbEntity
  8
0
100
AcDbCircle
 10
241.3897753481
 20
422.66101646
 30
0.0
 40
0.4999999999999987
100
AcDbArc
 50
4.9871394293
 51
180.0
  0
ARC
  5
10E
330
1F
100
AcDbEntity
  8
0
100
AcDbCircle
 10
241.3897753481
 20
93.86101646
 30
0.0
 40
0.5000000000000568
100
AcDbArc
 50
180.0
 51
355.0128605707
  0
ARC
  5
10F
330
1F
100
AcDbEntity
  8
0
100
AcDbCircle
 10
245.5897753481
 20
422.66101646
 30
0.0
 40
0.4999999999999987
100
AcDbArc
 50
4.9871394293
 51
180.0
  0
ARC
  5
110
330
1F
100
AcDbEntity
  8
0
100
AcDbCircle
 10
245.5897753481
 20
93.86101646
 30
0.0
 40
0.5000000000000011
100
AcDbArc
 50
180.0
 51
355.0128605707
  0
LINE
  5
111
330
1F
100
AcDbEntity
  8
0
100
AcDbLine
 10
241.8878824661
 20
93.8175503923
 30
0.0
 11
242.5698562041
 21
101.6327494938
 31
0.0
  0
LINE
  5
112
330
1F
100
AcDbEntity
  8
0
100
AcDbLine
 10
242.5698562041
 20
414.8892834262
 30
0.0
 11
241.8878824661
 21
422.7044825277
 31
0.0
  0
LINE
  5
113
330
1F
100
AcDbEntity
  8
0
100
AcDbLine
 10
246.0878824661
 20
93.8175503923
 30
0.0
 11
246.7698562041
 21
101.6327494938
 31
0.0
  0
LINE
  5
114
330
1F
100
AcDbEntity
  8
0
100
AcDbLine
 10
246.7698562041
 20
414.8892834262
 30
0.0
 11
246.0878824661
 21
422.7044825277
 31
0.0
  0
ARC
  5
115
330
1F
100
AcDbEntity
  8
0
100
AcDbCircle
 10
242.8189097631
 20
414.91101646
 30
0.0
 40
0.250000000000016
100
AcDbArc
 50
184.9871394293
 51
270.0
  0
ARC
  5
116
330
1F
100
AcDbEntity
  8
0
100
AcDbCircle
 10
242.8189097631
 20
101.61101646
 30
0.0
 40
0.2500000000000172
100
AcDbArc
 50
90.0
 51
175.0128605707
  0
ARC
  5
117
330
1F
100
AcDbEntity
  8
0
100
AcDbCircle
 10
247.0189097631
 20
414.91101646
 30
0.0
 40
0.250000000000016
100
AcDbArc
 50
184.9871394293
 51
270.0
  0
ARC
  5
118
330
1F
100
AcDbEntity
  8
0
100
AcDbCircle
 10
247.0189097631
 20
101.61101646
 30
0.0
 40
0.2500000000000172
100
AcDbArc
 50
90.0
 51
175.0128605707
  0
LINE
  5
119
330
1F
100
AcDbEntity
  8
0
100
AcDbLine
 10
249.1397753481
 20
414.66101646
 30
0.0
 11
247.0189097631
 21
414.66101646
 31
0.0
  0
LINE
  5
11A
330
1F
100
AcDbEntity
  8
0
100
AcDbLine
 10
247.0189097631
 20
101.86101646
 30
0.0
 11
249.1397753481
 21
101.86101646
 31
0.0
  0
LINE
  5
11B
330
1F
100
AcDbEntity
  8
0
100
AcDbLine
 10
245.0897753481
 20
414.66101646
 30
0.0
 11
242.8189097631
 21
414.66101646
 31
0.0
  0
LINE
  5
11C
330
1F
100
AcDbEntity
  8
0
100
AcDbLine
 10
242.8189097631
 20
101.86101646
 30
0.0
 11
245.0897753481
 21
101.86101646
 31
0.0
  0
ARC
  5
11D
330
1F
100
AcDbEntity
  8
0
100
AcDbCircle
 10
160.9661999263
 20
464.91101646
 30
0.0
 40
2.750000000000003
100
AcDbArc
 50
8.8498830984
 51
171.1501169016
  0
ARC
  5
11E
330
1F
100
AcDbEntity
  8
0
100
AcDbCircle
 10
160.9661999263
 20
51.61101646
 30
0.0
 40
2.750000000000017
100
AcDbArc
 50
188.8498830984
 51
351.1501169016
  0
ARC
  5
11F
330
1F
100
AcDbEntity
  8
0
100
AcDbCircle
 10
164.1775080709
 20
465.41101646
 30
0.0
 40
0.5
100
AcDbArc
 50
188.8498830984
 51
270.0
  0
ARC
  5
120
330
1F
100
AcDbEntity
  8
0
100
AcDbCircle
 10
164.1775080709
 20
51.11101646
 30
0.0
 40
0.5
100
AcDbArc
 50
90.0
 51
171.1501169016
  0
ARC
  5
121
330
1F
100
AcDbEntity
  8
0
100
AcDbCircle
 10
157.7548917816
 20
465.41101646
 30
0.0
 40
0.5000000000000384
100
AcDbArc
 50
270.0
 51
351.1501169016
  0
ARC
  5
122
330
1F
100
AcDbEntity
  8
0
100
AcDbCircle
 10
157.7548917816
 20
51.11101646
 30
0.0
 40
0.5000000000000093
100
AcDbArc
 50
8.8498830984
 51
90.0
  0
ARC
  5
123
330
1F
100
AcDbEntity
  8
0
100
AcDbCircle
 10
165.7548917816
 20
456.16101646
 30
0.0
 40
8.750000000000039
100
AcDbArc
 50
20.0
 51
90.0
  0
ARC
  5
124
330
1F
100
AcDbEntity
  8
0
100
AcDbCircle
 10
165.7548917816
 20
60.36101646
 30
0.0
 40
8.750000000000014
100
AcDbArc
 50
270.0
 51
340.0
  0
LINE
  5
125
330
1F
100
AcDbEntity
  8
0
100
AcDbLine
 10
165.7548917816
 20
464.91101646
 30
0.0
 11
164.1775080709
 21
464.91101646
 31
0.0
  0
LINE
  5
126
330
1F
100
AcDbEntity
  8
0
100
AcDbLine
 10
164.1775080709
 20
51.61101646
 30
0.0
 11
165.7548917816
 21
51.61101646
 31
0.0
  0
LINE
  5
127
330
1F
100
AcDbEntity
  8
0
100
AcDbLine
 10
173.9772022135
 20
57.3683402059
 30
0.0
 11
188.4154415974
 21
97.03707689
 31
0.0
  0
LINE
  5
128
330
1F
100
AcDbEntity
  8
0
100
AcDbLine
 10
188.4154415974
 20
419.48495603
 30
0.0
 11
173.9772022135
 21
459.1536927141
 31
0.0
  0
ARC
  5
129
330
1F
100
AcDbEntity
  8
0
100
AcDbCircle
 10
191.2345194598
 20
420.51101646
 30
0.0
 40
3.0
100
AcDbArc
 50
200.0
 51
270.0
  0
ARC
  5
12A
330
1F
100
AcDbEntity
  8
0
100
AcDbCircle
 10
191.2345194598
 20
96.01101646
 30
0.0
 40
3.000000000000014
100
AcDbArc
 50
90.0
 51
160.0
  0
ARC
  5
12B
330
1F
100
AcDbEntity
  8
0
100
AcDbCircle
 10
208.9284672034
 20
414.96101646
 30
0.0
 40
2.750000000000012
100
AcDbArc
 50
8.8498830984
 51
171.1501169016
  0
ARC
  5
12C
330
1F
100
AcDbEntity
  8
0
100
AcDbCircle
 10
208.9284672034
 20
101.56101646
 30
0.0
 40
2.750000000000046
100
AcDbArc
 50
188.8498830984
 51
351.1501169016
  0
LINE
  5
12D
330
1F
100
AcDbEntity
  8
0
100
AcDbLine
 10
200.6675321617
 20
417.51101646
 30
0.0
 11
197.1310167228
 21
417.51101646
 31
0.0
  0
LINE
  5
12E
330
1F
100
AcDbEntity
  8
0
100
AcDbLine
 10
192.3590877923
 20
417.51101646
 30
0.0
 11
191.2345194598
 21
417.51101646
 31
0.0
  0
LINE
  5
12F
330
1F
100
AcDbEntity
  8
0
100
AcDbLine
 10
191.2345194598
 20
99.01101646
 30
0.0
 11
200.6675321617
 21
99.01101646
 31
0.0
  0
LINE
  5
130
330
1F
100
AcDbEntity
  8
0
100
AcDbLine
 10
200.6675321617
 20
99.01101646
 30
0.0
 11
202.1397753481
 21
101.56101646
 31
0.0
  0
LINE
  5
131
330
1F
100
AcDbEntity
  8
0
100
AcDbLine
 10
202.1397753481
 20
414.96101646
 30
0.0
 11
200.6675321617
 21
417.51101646
 31
0.0
  0
ARC
  5
132
330
1F
100
AcDbEntity
  8
0
100
AcDbCircle
 10
212.1397753481
 20
415.46101646
 30
0.0
 40
0.5000000000000017
100
AcDbArc
 50
188.8498830984
 51
270.0
  0
ARC
  5
133
330
1F
100
AcDbEntity
  8
0
100
AcDbCircle
 10
212.1397753481
 20
101.06101646
 30
0.0
 40
0.5
100
AcDbArc
 50
90.0
 51
171.1501169016
  0
ARC
  5
134
330
1F
100
AcDbEntity
  8
0
100
AcDbCircle
 10
205.7171590588
 20
415.46101646
 30
0.0
 40
0.5000000000000298
100
AcDbArc
 50
270.0
 51
351.1501169016
  0
ARC
  5
135
330
1F
100
AcDbEntity
  8
0
100
AcDbCircle
 10
205.7171590588
 20
101.06101646
 30
0.0
 40
0.5
100
AcDbArc
 50
8.8498830984
 51
90.0
  0
LINE
  5
136
330
1F
100
AcDbEntity
  8
0
100
AcDbLine
 10
205.7171590588
 20
414.96101646
 30
0.0
 11
202.1397753481
 21
414.96101646
 31
0.0
  0
LINE
  5
137
330
1F
100
AcDbEntity
  8
0
100
AcDbLine
 10
202.1397753481
 20
101.56101646
 30
0.0
 11
205.7171590588
 21
101.56101646
 31
0.0
  0
LINE
  5
138
330
1F
100
AcDbEntity
  8
0
100
AcDbLine
 10
235.4805976712
 20
414.96101646
 30
0.0
 11
212.1397753481
 21
414.96101646
 31
0.0
  0
LINE
  5
139
330
1F
100
AcDbEntity
  8
0
100
AcDbLine
 10
212.1397753481
 20
101.56101646
 30
0.0
 11
235.4805976712
 21
101.56101646
 31
0.0
  0
LINE
  5
13A
330
1F
100
AcDbEntity
  8
0
100
AcDbLine
 10
252.8397753481
 20
414.96101646
 30
0.0
 11
249.1397753481
 21
414.96101646
 31
0.0
  0
LINE
  5
13B
330
1F
100
AcDbEntity
  8
0
100
AcDbLine
 10
249.1397753481
 20
101.56101646
 30
0.0
 11
252.8397753481
 21
101.56101646
 31
0.0
  0
LINE
  5
13C
330
1F
100
AcDbEntity
  8
0
100
AcDbLine
 10
235.4805976712
 20
101.56101646
 30
0.0
 11
240.8897753481
 21
103.6416816929
 31
0.0
  0
LINE
  5
13D
330
1F
100
AcDbEntity
  8
0
100
AcDbLine
 10
240.8897753481
 20
412.8803512271
 30
0.0
 11
235.4805976712
 21
414.96101646
 31
0.0
  0
ARC
  5
13E
330
1F
100
AcDbEntity
  8
0
100
AcDbCircle
 10
252.8397753481
 20
413.66101646
 30
0.0
 40
1.299999999983697
100
AcDbArc
 50
0.0
 51
90.0
  0
ARC
  5
13F
330
1F
100
AcDbEntity
  8
0
100
AcDbCircle
 10
252.8397753481
 20
102.86101646
 30
0.0
 40
1.299999999983754
100
AcDbArc
 50
270.0
 51
0.0
  0
ARC
  5
140
330
1F
100
AcDbEntity
  8
0
100
AcDbCircle
 10
-745.4564163631
 20
51.61101646
 30
0.0
 40
2.750000000000069
100
AcDbArc
 50
188.8498830984
 51
351.1501169016
  0
ARC
  5
141
330
1F
100
AcDbEntity
  8
0
100
AcDbCircle
 10
-745.4564163631
 20
464.91101646
 30
0.0
 40
2.750000000000059
100
AcDbArc
 50
8.8498830984
 51
171.1501169016
  0
ARC
  5
142
330
1F
100
AcDbEntity
  8
0
100
AcDbCircle
 10
-742.2451082184
 20
51.11101646
 30
0.0
 40
0.5
100
AcDbArc
 50
90.0
 51
171.1501169016
  0
ARC
  5
143
330
1F
100
AcDbEntity
  8
0
100
AcDbCircle
 10
-742.2451082184
 20
465.41101646
 30
0.0
 40
0.5000000000000665
100
AcDbArc
 50
188.8498830984
 51
270.0
  0
ARC
  5
144
330
1F
100
AcDbEntity
  8
0
100
AcDbCircle
 10
-748.6677245077
 20
51.11101646
 30
0.0
 40
0.5
100
AcDbArc
 50
8.8498830984
 51
90.0
  0
ARC
  5
145
330
1F
100
AcDbEntity
  8
0
100
AcDbCircle
 10
-748.6677245077
 20
465.41101646
 30
0.0
 40
0.5
100
AcDbArc
 50
270.0
 51
351.1501169016
  0
LINE
  5
146
330
1F
100
AcDbEntity
  8
0
100
AcDbLine
 10
-750.2451082184
 20
51.61101646
 30
0.0
 11
-748.6677245077
 21
51.61101646
 31
0.0
  0
LINE
  5
147
330
1F
100
AcDbEntity
  8
0
100
AcDbLine
 10
-748.6677245077
 20
464.91101646
 30
0.0
 11
-750.2451082184
 21
464.91101646
 31
0.0
  0
ARC
  5
148
330
1F
100
AcDbEntity
  8
0
100
AcDbCircle
 10
-750.2451082184
 20
60.36101646
 30
0.0
 40
8.750000000000037
100
AcDbArc
 50
200.0
 51
270.0
  0
ARC
  5
149
330
1F
100
AcDbEntity
  8
0
100
AcDbCircle
 10
-750.2451082184
 20
456.16101646
 30
0.0
 40
8.750000000000119
100
AcDbArc
 50
90.0
 51
160.0
  0
LINE
  5
14A
330
1F
100
AcDbEntity
  8
0
100
AcDbLine
 10
-758.4674186503
 20
459.1536927141
 30
0.0
 11
-772.9056580342
 21
419.48495603
 31
0.0
  0
LINE
  5
14B
330
1F
100
AcDbEntity
  8
0
100
AcDbLine
 10
-772.9056580342
 20
97.03707689
 30
0.0
 11
-758.4674186503
 21
57.3683402059
 31
0.0
  0
ARC
  5
14C
330
1F
100
AcDbEntity
  8
0
100
AcDbCircle
 10
-775.7247358966
 20
96.01101646
 30
0.0
 40
3.0
100
AcDbArc
 50
20.0
 51
90.0
  0
ARC
  5
14D
330
1F
100
AcDbEntity
  8
0
100
AcDbCircle
 10
-775.7247358966
 20
420.51101646
 30
0.0
 40
3.0
100
AcDbArc
 50
270.0
 51
340.0
  0
ARC
  5
14E
330
1F
100
AcDbEntity
  8
0
100
AcDbCircle
 10
-793.4186836402
 20
101.56101646
 30
0.0
 40
2.750000000000187
100
AcDbArc
 50
188.8498830984
 51
351.1501169016
  0
ARC
  5
14F
330
1F
100
AcDbEntity
  8
0
100
AcDbCircle
 10
-793.4186836402
 20
414.96101646
 30
0.0
 40
2.750000000000076
100
AcDbArc
 50
8.8498830984
 51
171.1501169016
  0
LINE
  5
150
330
1F
100
AcDbEntity
  8
0
100
AcDbLine
 10
-785.1577485985
 20
99.01101646
 30
0.0
 11
-775.7247358966
 21
99.01101646
 31
0.0
  0
LINE
  5
151
330
1F
100
AcDbEntity
  8
0
100
AcDbLine
 10
-775.7247358966
 20
417.51101646
 30
0.0
 11
-778.8689832772
 21
417.51101646
 31
0.0
  0
LINE
  5
152
330
1F
100
AcDbEntity
  8
0
100
AcDbLine
 10
-783.6409122077
 20
417.51101646
 30
0.0
 11
-785.1577485985
 21
417.51101646
 31
0.0
  0
LINE
  5
153
330
1F
100
AcDbEntity
  8
0
100
AcDbLine
 10
-785.1577485985
 20
417.51101646
 30
0.0
 11
-786.6299917849
 21
414.96101646
 31
0.0
  0
LINE
  5
154
330
1F
100
AcDbEntity
  8
0
100
AcDbLine
 10
-786.6299917849
 20
101.56101646
 30
0.0
 11
-785.1577485985
 21
99.01101646
 31
0.0
  0
ARC
  5
155
330
1F
100
AcDbEntity
  8
0
100
AcDbCircle
 10
-796.6299917849
 20
101.06101646
 30
0.0
 40
0.5
100
AcDbArc
 50
8.8498830984
 51
90.0
  0
ARC
  5
156
330
1F
100
AcDbEntity
  8
0
100
AcDbCircle
 10
-796.6299917849
 20
415.46101646
 30
0.0
 40
0.5000000000000577
100
AcDbArc
 50
270.0
 51
351.1501169016
  0
ARC
  5
157
330
1F
100
AcDbEntity
  8
0
100
AcDbCircle
 10
-790.2073754956
 20
101.06101646
 30
0.0
 40
0.5
100
AcDbArc
 50
90.0
 51
171.1501169016
  0
ARC
  5
158
330
1F
100
AcDbEntity
  8
0
100
AcDbCircle
 10
-790.2073754956
 20
415.46101646
 30
0.0
 40
0.5
100
AcDbArc
 50
188.8498830984
 51
270.0
  0
LINE
  5
159
330
1F
100
AcDbEntity
  8
0
100
AcDbLine
 10
-819.970814108
 20
101.56101646
 30
0.0
 11
-796.6299917849
 21
101.56101646
 31
0.0
  0
LINE
  5
15A
330
1F
100
AcDbEntity
  8
0
100
AcDbLine
 10
-796.6299917849
 20
414.96101646
 30
0.0
 11
-819.970814108
 21
414.96101646
 31
0.0
  0
LINE
  5
15B
330
1F
100
AcDbEntity
  8
0
100
AcDbLine
 10
-790.2073754956
 20
101.56101646
 30
0.0
 11
-786.6299917849
 21
101.56101646
 31
0.0
  0
LINE
  5
15C
330
1F
100
AcDbEntity
  8
0
100
AcDbLine
 10
-786.6299917849
 20
414.96101646
 30
0.0
 11
-790.2073754956
 21
414.96101646
 31
0.0
  0
LINE
  5
15D
330
1F
100
AcDbEntity
  8
0
100
AcDbLine
 10
-819.970814108
 20
414.96101646
 30
0.0
 11
-825.3799917849
 21
412.8803512271
 31
0.0
  0
LINE
  5
15E
330
1F
100
AcDbEntity
  8
0
100
AcDbLine
 10
-825.3799917849
 20
103.6416816929
 30
0.0
 11
-819.970814108
 21
101.56101646
 31
0.0
  0
LINE
  5
15F
330
1F
100
AcDbEntity
  8
0
100
AcDbLine
 10
-837.3299917849
 20
101.56101646
 30
0.0
 11
-833.6299917849
 21
101.56101646
 31
0.0
  0
LINE
  5
160
330
1F
100
AcDbEntity
  8
0
100
AcDbLine
 10
-833.6299917849
 20
414.96101646
 30
0.0
 11
-837.3299917849
 21
414.96101646
 31
0.0
  0
ARC
  5
161
330
1F
100
AcDbEntity
  8
0
100
AcDbCircle
 10
-837.3299917849
 20
102.86101646
 30
0.0
 40
1.299999999983726
100
AcDbArc
 50
180.0
 51
270.0
  0
ARC
  5
162
330
1F
100
AcDbEntity
  8
0
100
AcDbCircle
 10
-837.3299917849
 20
413.66101646
 30
0.0
 40
1.299999999983697
100
AcDbArc
 50
90.0
 51
180.0
  0
SPLINE
  5
163
330
1F
100
AcDbEntity
  8
0
100
AcDbSpline
210
0.0
220
0.0
230
1.0
 70
     8
 71
     3
 72
    69
 73
    65
 74
     0
 42
0.00000001
 43
0.00000001
 40
0.0
 40
0.0
 40
0.0
 40
0.0
 40
0.0096413941086841
 40
0.018186016432982
 40
0.0262280564035387
 40
0.0340362398208017
 40
0.0421470535266921
 40
0.0489008906577764
 40
0.0550937684002702
 40
0.0597919019326449
 40
0.0646513356636089
 40
0.0709871620433968
 40
0.0827322851497379
 40
0.0936244397885118
 40
0.1044401021960844
 40
0.1152487365764958
 40
0.1260662466517273
 40
0.1506621549899587
 40
0.1752433112028353
 40
0.1998452464137856
 40
0.2244370837744251
 40
0.2490385244998449
 40
0.2736429562006241
 40
0.2982394597193079
 40
0.3228515588615141
 40
0.3474465573059801
 40
0.372062236733747
 40
0.3966599885874165
 40
0.4212756788329812
 40
0.4458808538408034
 40
0.4704926764295888
 40
0.4951079672454747
 40
0.5197131807445166
 40
0.5443345719149132
 40
0.5689382004588387
 40
0.5935623666837269
 40
0.6181689301651092
 40
0.6427927221907616
 40
0.6674075474670603
 40
0.6920272227676778
 40
0.716652418870656
 40
0.74126694479964
 40
0.7658994286116676
 40
0.790514836543887
 40
0.8151523838689053
 40
0.839774993724893
 40
0.8644169033882132
 40
0.8767422093136088
 40
0.8890600106016218
 40
0.9013809514272151
 40
0.9137132875669173
 40
0.9266007408138281
 40
0.9330379612558046
 40
0.9386408151783079
 40
0.9429367168402119
 40
0.9476141879545864
 40
0.9536152676786389
 40
0.9599122068100244
 40
0.9645676523514003
 40
0.9689651110869414
 40
0.9739914029787095
 40
0.9808399130870586
 40
0.9895136419246122
 40
1.0
 40
1.0
 40
1.0
 40
1.0
 10
-619.2950767215979
 20
466.4110164597942
 30
0.0
 10
-619.2233443196433
 20
466.4098666984634
 30
0.0
 10
-619.0880395467012
 20
466.4076979686907
 30
0.0
 10
-618.7105108927457
 20
466.2497625566984
 30
0.0
 10
-618.3032205689999
 20
465.9424428346089
 30
0.0
 10
-617.8973378912608
 20
465.5230463724197
 30
0.0
 10
-617.4922597568344
 20
464.9961831581026
 30
0.0
 10
-617.1038258266035
 20
464.393262543191
 30
0.0
 10
-616.7725599115055
 20
463.8069442909059
 30
0.0
 10
-616.471229274918
 20
463.2193994685361
 30
0.0
 10
-616.1603316867306
 20
462.565263251176
 30
0.0
 10
-615.7087629238328
 20
461.5317936110848
 30
0.0
 10
-615.133664582548
 20
460.0460090633953
 30
0.0
 10
-614.4644339659269
 20
458.0697423191985
 30
0.0
 10
-613.8116190766383
 20
455.9108318040336
 30
0.0
 10
-613.1600844236272
 20
453.5233718558739
 30
0.0
 10
-612.2271128876257
 20
449.7944994518897
 30
0.0
 10
-611.009477052463
 20
444.2703883669408
 30
0.0
 10
-609.5173546901523
 20
436.3563907524068
 30
0.0
 10
-608.016100691019
 20
427.371876327804
 30
0.0
 10
-606.5193020088356
 20
417.3703659907924
 30
0.0
 10
-605.0188123260677
 20
406.4137160567981
 30
0.0
 10
-603.5174955815233
 20
394.5691921233156
 30
0.0
 10
-602.0195210434321
 20
381.9056307123311
 30
0.0
 10
-600.5152723271523
 20
368.5040709259462
 30
0.0
 10
-599.018634358329
 20
354.4380971546117
 30
0.0
 10
-597.5133989414603
 20
339.7998614411914
 30
0.0
 10
-596.0162665714938
 20
324.6686257193941
 30
0.0
 10
-594.5119361413556
 20
309.1424782274774
 30
0.0
 10
-593.0124163005337
 20
293.3081735076266
 30
0.0
 10
-591.5106453217858
 20
277.2640173810308
 30
0.0
 10
-590.0076751764796
 20
261.1057872792255
 30
0.0
 10
-588.5089915631643
 20
244.9274763121117
 30
0.0
 10
-587.0037247711838
 20
228.8314135203233
 30
0.0
 10
-585.5064276398379
 20
212.9057840397632
 30
0.0
 10
-584.0005535261733
 20
197.2544848727963
 30
0.0
 10
-582.5026227122911
 20
181.9621928636748
 30
0.0
 10
-580.9978526356883
 20
167.1274724658837
 30
0.0
 10
-579.4972857483712
 20
152.8337695217436
 30
0.0
 10
-577.9950661042051
 20
139.1686385469502
 30
0.0
 10
-576.4908707526959
 20
126.2145880319212
 30
0.0
 10
-574.9912348006252
 20
114.045097032195
 30
0.0
 10
-573.4843245408453
 20
102.7377837030224
 30
0.0
 10
-571.9849969839323
 20
92.3531404117748
 30
0.0
 10
-570.4762891968796
 20
82.95784974144141
 30
0.0
 10
-568.9737991710466
 20
74.60209475197537
 30
0.0
 10
-567.7148348887405
 20
68.54553278584568
 30
0.0
 10
-566.7058216547985
 20
64.265624389936
 30
0.0
 10
-565.9498011960603
 20
61.34153596962266
 30
0.0
 10
-565.1907889811216
 20
58.70532874125844
 30
0.0
 10
-564.414785552239
 20
56.32483331960095
 30
0.0
 10
-563.7554816156966
 20
54.5733241465389
 30
0.0
 10
-563.2330004644621
 20
53.35046583394229
 30
0.0
 10
-562.8889581115418
 20
52.61289934746574
 30
0.0
 10
-562.5799143652544
 20
52.00026980843542
 30
0.0
 10
-562.2556240394397
 20
51.40607165816391
 30
0.0
 10
-561.8819785562192
 20
50.79003046981934
 30
0.0
 10
-561.502654484453
 20
50.24315510845928
 30
0.0
 10
-561.1501727837696
 20
49.80058803513376
 30
0.0
 10
-560.8251871725007
 20
49.44086912190421
 30
0.0
 10
-560.4179609915135
 20
49.05395802723189
 30
0.0
 10
-559.8527798916654
 20
48.64016350736705
 30
0.0
 10
-559.1143000289675
 20
48.28558489391582
 30
0.0
 10
-558.5848473483346
 20
48.23739234768287
 30
0.0
 10
-558.2950767215982
 20
48.21101646021114
 30
0.0
  0
SPLINE
  5
164
330
1F
100
AcDbEntity
  8
0
100
AcDbSpline
210
0.0
220
0.0
230
1.0
 70
     8
 71
     3
 72
    69
 73
    65
 74
     0
 42
0.00000001
 43
0.00000001
 40
0.0
 40
0.0
 40
0.0
 40
0.0
 40
0.0096413941086841
 40
0.0181860164329825
 40
0.0262280564035377
 40
0.0340362398208016
 40
0.0421470535266911
 40
0.0489008906577764
 40
0.0550937684002712
 40
0.0597919019326448
 40
0.0646513356636098
 40
0.0709871620433982
 40
0.0827322851497376
 40
0.0936244397885114
 40
0.1044401021960825
 40
0.1152487365764947
 40
0.1260662466517277
 40
0.1506621549899587
 40
0.1752433112028348
 40
0.1998452464137838
 40
0.2244370837744261
 40
0.2490385244998438
 40
0.2736429562006255
 40
0.2982394597193075
 40
0.3228515588615141
 40
0.3474465573059794
 40
0.3720622367337473
 40
0.3966599885874159
 40
0.4212756788329793
 40
0.4458808538408023
 40
0.4704926764295886
 40
0.4951079672454746
 40
0.5197131807445174
 40
0.5443345719149122
 40
0.5689382004588386
 40
0.5935623666837269
 40
0.6181689301651091
 40
0.6427927221907614
 40
0.6674075474670592
 40
0.6920272227676777
 40
0.7166524188706559
 40
0.7412669447996398
 40
0.7658994286116666
 40
0.790514836543886
 40
0.8151523838689053
 40
0.8397749937248918
 40
0.8644169033882132
 40
0.8767422093136088
 40
0.8890600106016218
 40
0.9013809514272151
 40
0.9137132875669162
 40
0.926600740813828
 40
0.9330379612558046
 40
0.9386408151783078
 40
0.942936716840211
 40
0.9476141879545865
 40
0.953615267678639
 40
0.9599122068100245
 40
0.9645676523513994
 40
0.9689651110869405
 40
0.9739914029787096
 40
0.9808399130870588
 40
0.9895136419246122
 40
1.0
 40
1.0
 40
1.0
 40
1.0
 10
-497.2950767215982
 20
466.4110164597942
 30
0.0
 10
-497.2233443196437
 20
466.4098666984635
 30
0.0
 10
-497.0880395467016
 20
466.4076979686907
 30
0.0
 10
-496.710510892746
 20
466.2497625566987
 30
0.0
 10
-496.3032205690001
 20
465.9424428346088
 30
0.0
 10
-495.8973378912612
 20
465.5230463724198
 30
0.0
 10
-495.4922597568345
 20
464.9961831581024
 30
0.0
 10
-495.1038258266038
 20
464.3932625431911
 30
0.0
 10
-494.7725599115059
 20
463.8069442909058
 30
0.0
 10
-494.4712292749181
 20
463.219399468536
 30
0.0
 10
-494.1603316867309
 20
462.5652632511761
 30
0.0
 10
-493.7087629238328
 20
461.5317936110847
 30
0.0
 10
-493.1336645825484
 20
460.0460090633952
 30
0.0
 10
-492.4644339659273
 20
458.0697423191987
 30
0.0
 10
-491.8116190766387
 20
455.9108318040338
 30
0.0
 10
-491.1600844236276
 20
453.523371855874
 30
0.0
 10
-490.2271128876258
 20
449.7944994518899
 30
0.0
 10
-489.0094770524634
 20
444.2703883669407
 30
0.0
 10
-487.5173546901526
 20
436.356390752407
 30
0.0
 10
-486.0161006910193
 20
427.3718763278043
 30
0.0
 10
-484.5193020088359
 20
417.3703659907926
 30
0.0
 10
-483.0188123260681
 20
406.4137160567979
 30
0.0
 10
-481.5174955815235
 20
394.5691921233155
 30
0.0
 10
-480.0195210434325
 20
381.9056307123309
 30
0.0
 10
-478.5152723271525
 20
368.5040709259463
 30
0.0
 10
-477.0186343583295
 20
354.4380971546117
 30
0.0
 10
-475.5133989414607
 20
339.7998614411914
 30
0.0
 10
-474.0162665714941
 20
324.6686257193945
 30
0.0
 10
-472.511936141356
 20
309.1424782274781
 30
0.0
 10
-471.012416300534
 20
293.3081735076271
 30
0.0
 10
-469.5106453217861
 20
277.264017381031
 30
0.0
 10
-468.0076751764797
 20
261.1057872792252
 30
0.0
 10
-466.5089915631648
 20
244.9274763121116
 30
0.0
 10
-465.0037247711839
 20
228.8314135203234
 30
0.0
 10
-463.5064276398382
 20
212.9057840397633
 30
0.0
 10
-462.0005535261736
 20
197.2544848727964
 30
0.0
 10
-460.5026227122913
 20
181.9621928636748
 30
0.0
 10
-458.9978526356887
 20
167.1274724658839
 30
0.0
 10
-457.4972857483712
 20
152.8337695217438
 30
0.0
 10
-455.9950661042054
 20
139.1686385469504
 30
0.0
 10
-454.4908707526961
 20
126.2145880319211
 30
0.0
 10
-452.9912348006255
 20
114.0450970321951
 30
0.0
 10
-451.4843245408458
 20
102.7377837030229
 30
0.0
 10
-449.9849969839329
 20
92.353140411775
 30
0.0
 10
-448.4762891968799
 20
82.95784974144175
 30
0.0
 10
-446.9737991710469
 20
74.60209475197546
 30
0.0
 10
-445.7148348887411
 20
68.54553278584574
 30
0.0
 10
-444.7058216547988
 20
64.26562438993602
 30
0.0
 10
-443.9498011960605
 20
61.34153596962263
 30
0.0
 10
-443.190788981122
 20
58.70532874125861
 30
0.0
 10
-442.4147855522393
 20
56.32483331960092
 30
0.0
 10
-441.7554816156969
 20
54.57332414653912
 30
0.0
 10
-441.2330004644622
 20
53.35046583394226
 30
0.0
 10
-440.8889581115423
 20
52.61289934746574
 30
0.0
 10
-440.5799143652546
 20
52.00026980843555
 30
0.0
 10
-440.25562403944
 20
51.40607165816394
 30
0.0
 10
-439.8819785562195
 20
50.79003046981934
 30
0.0
 10
-439.5026544844534
 20
50.24315510845923
 30
0.0
 10
-439.1501727837697
 20
49.80058803513382
 30
0.0
 10
-438.8251871725012
 20
49.44086912190429
 30
0.0
 10
-438.4179609915139
 20
49.05395802723181
 30
0.0
 10
-437.8527798916656
 20
48.64016350736699
 30
0.0
 10
-437.1143000289676
 20
48.28558489391596
 30
0.0
 10
-436.5848473483348
 20
48.23739234768293
 30
0.0
 10
-436.2950767215984
 20
48.21101646021114
 30
0.0
  0
SPLINE
  5
165
330
1F
100
AcDbEntity
  8
0
100
AcDbSpline
210
0.0
220
0.0
230
1.0
 70
     8
 71
     3
 72
    69
 73
    65
 74
     0
 42
0.00000001
 43
0.00000001
 40
0.0
 40
0.0
 40
0.0
 40
0.0
 40
0.0096413941086831
 40
0.0181860164329815
 40
0.0262280564035387
 40
0.0340362398208026
 40
0.0421470535266921
 40
0.0489008906577764
 40
0.0550937684002702
 40
0.0597919019326448
 40
0.0646513356636088
 40
0.0709871620433951
 40
0.0827322851497376
 40
0.0936244397885114
 40
0.1044401021960845
 40
0.1152487365764957
 40
0.1260662466517267
 40
0.1506621549899577
 40
0.1752433112028348
 40
0.1998452464137858
 40
0.2244370837744251
 40
0.2490385244998449
 40
0.2736429562006246
 40
0.2982394597193077
 40
0.3228515588615131
 40
0.3474465573059795
 40
0.3720622367337464
 40
0.396659988587416
 40
0.4212756788329804
 40
0.4458808538408034
 40
0.4704926764295887
 40
0.4951079672454747
 40
0.5197131807445176
 40
0.5443345719149133
 40
0.5689382004588387
 40
0.5935623666837279
 40
0.6181689301651101
 40
0.6427927221907624
 40
0.6674075474670612
 40
0.6920272227676766
 40
0.7166524188706559
 40
0.7412669447996398
 40
0.7658994286116666
 40
0.7905148365438849
 40
0.8151523838689052
 40
0.8397749937248917
 40
0.864416903388213
 40
0.8767422093136088
 40
0.8890600106016208
 40
0.9013809514272161
 40
0.9137132875669162
 40
0.926600740813828
 40
0.9330379612558046
 40
0.9386408151783078
 40
0.942936716840211
 40
0.9476141879545875
 40
0.95361526767864
 40
0.9599122068100255
 40
0.9645676523514004
 40
0.9689651110869415
 40
0.9739914029787106
 40
0.9808399130870578
 40
0.9895136419246132
 40
1.0
 40
1.0
 40
1.0
 40
1.0
 10
-375.2950767215984
 20
466.4110164597942
 30
0.0
 10
-375.223344319644
 20
466.4098666984635
 30
0.0
 10
-375.0880395467018
 20
466.4076979686909
 30
0.0
 10
-374.7105108927462
 20
466.2497625566986
 30
0.0
 10
-374.3032205690004
 20
465.9424428346088
 30
0.0
 10
-373.8973378912614
 20
465.5230463724197
 30
0.0
 10
-373.4922597568348
 20
464.9961831581024
 30
0.0
 10
-373.1038258266042
 20
464.3932625431911
 30
0.0
 10
-372.7725599115061
 20
463.806944290906
 30
0.0
 10
-372.4712292749185
 20
463.219399468536
 30
0.0
 10
-372.1603316867312
 20
462.5652632511762
 30
0.0
 10
-371.7087629238335
 20
461.5317936110849
 30
0.0
 10
-371.1336645825486
 20
460.0460090633954
 30
0.0
 10
-370.4644339659276
 20
458.0697423191986
 30
0.0
 10
-369.8116190766391
 20
455.9108318040336
 30
0.0
 10
-369.1600844236277
 20
453.523371855874
 30
0.0
 10
-368.2271128876265
 20
449.7944994518899
 30
0.0
 10
-367.0094770524635
 20
444.2703883669409
 30
0.0
 10
-365.5173546901529
 20
436.356390752407
 30
0.0
 10
-364.0161006910196
 20
427.371876327804
 30
0.0
 10
-362.519302008836
 20
417.3703659907924
 30
0.0
 10
-361.0188123260683
 20
406.413716056798
 30
0.0
 10
-359.5174955815237
 20
394.5691921233155
 30
0.0
 10
-358.0195210434327
 20
381.9056307123313
 30
0.0
 10
-356.5152723271527
 20
368.5040709259465
 30
0.0
 10
-355.0186343583296
 20
354.4380971546121
 30
0.0
 10
-353.5133989414608
 20
339.7998614411916
 30
0.0
 10
-352.0162665714943
 20
324.6686257193946
 30
0.0
 10
-350.5119361413563
 20
309.1424782274776
 30
0.0
 10
-349.0124163005342
 20
293.3081735076268
 30
0.0
 10
-347.5106453217865
 20
277.2640173810308
 30
0.0
 10
-346.00767517648
 20
261.1057872792252
 30
0.0
 10
-344.5089915631651
 20
244.9274763121114
 30
0.0
 10
-343.0037247711842
 20
228.8314135203232
 30
0.0
 10
-341.5064276398384
 20
212.9057840397629
 30
0.0
 10
-340.0005535261739
 20
197.2544848727959
 30
0.0
 10
-338.5026227122915
 20
181.9621928636741
 30
0.0
 10
-336.9978526356891
 20
167.1274724658831
 30
0.0
 10
-335.4972857483714
 20
152.8337695217435
 30
0.0
 10
-333.9950661042058
 20
139.1686385469501
 30
0.0
 10
-332.4908707526963
 20
126.2145880319214
 30
0.0
 10
-330.9912348006259
 20
114.0450970321951
 30
0.0
 10
-329.4843245408461
 20
102.7377837030231
 30
0.0
 10
-327.9849969839331
 20
92.35314041177512
 30
0.0
 10
-326.4762891968803
 20
82.95784974144185
 30
0.0
 10
-324.9737991710471
 20
74.60209475197546
 30
0.0
 10
-323.7148348887414
 20
68.54553278584568
 30
0.0
 10
-322.7058216547991
 20
64.26562438993605
 30
0.0
 10
-321.9498011960608
 20
61.34153596962269
 30
0.0
 10
-321.1907889811221
 20
58.70532874125844
 30
0.0
 10
-320.4147855522396
 20
56.32483331960086
 30
0.0
 10
-319.7554816156971
 20
54.57332414653906
 30
0.0
 10
-319.2330004644626
 20
53.35046583394229
 30
0.0
 10
-318.8889581115424
 20
52.61289934746577
 30
0.0
 10
-318.5799143652549
 20
52.00026980843548
 30
0.0
 10
-318.2556240394403
 20
51.40607165816372
 30
0.0
 10
-317.8819785562196
 20
50.79003046981936
 30
0.0
 10
-317.5026544844536
 20
50.24315510845917
 30
0.0
 10
-317.15017278377
 20
49.80058803513382
 30
0.0
 10
-316.8251871725013
 20
49.44086912190418
 30
0.0
 10
-316.4179609915143
 20
49.05395802723181
 30
0.0
 10
-315.8527798916657
 20
48.64016350736699
 30
0.0
 10
-315.114300028968
 20
48.2855848939158
 30
0.0
 10
-314.5848473483352
 20
48.23739234768284
 30
0.0
 10
-314.2950767215987
 20
48.21101646021114
 30
0.0
  0
SPLINE
  5
166
330
1F
100
AcDbEntity
  8
0
100
AcDbSpline
210
0.0
220
0.0
230
1.0
 70
     8
 71
     3
 72
    69
 73
    65
 74
     0
 42
0.00000001
 43
0.00000001
 40
0.0
 40
0.0
 40
0.0
 40
0.0
 40
0.0096413941086841
 40
0.0181860164329825
 40
0.0262280564035367
 40
0.0340362398208016
 40
0.0421470535266881
 40
0.0489008906577774
 40
0.0550937684002682
 40
0.0597919019326439
 40
0.0646513356636088
 40
0.0709871620433982
 40
0.0827322851497366
 40
0.0936244397885104
 40
0.1044401021960835
 40
0.1152487365764939
 40
0.1260662466517273
 40
0.1506621549899581
 40
0.1752433112028356
 40
0.1998452464137862
 40
0.2244370837744261
 40
0.2490385244998439
 40
0.2736429562006236
 40
0.2982394597193076
 40
0.3228515588615141
 40
0.3474465573059795
 40
0.3720622367337474
 40
0.3966599885874178
 40
0.4212756788329808
 40
0.4458808538408023
 40
0.4704926764295877
 40
0.4951079672454727
 40
0.5197131807445176
 40
0.5443345719149112
 40
0.5689382004588381
 40
0.5935623666837262
 40
0.6181689301651101
 40
0.6427927221907618
 40
0.6674075474670622
 40
0.6920272227676787
 40
0.7166524188706549
 40
0.7412669447996398
 40
0.7658994286116666
 40
0.7905148365438879
 40
0.8151523838689072
 40
0.8397749937248927
 40
0.8644169033882115
 40
0.8767422093136079
 40
0.8890600106016188
 40
0.9013809514272151
 40
0.9137132875669142
 40
0.926600740813827
 40
0.9330379612558035
 40
0.9386408151783068
 40
0.94293671684021
 40
0.9476141879545855
 40
0.953615267678636
 40
0.9599122068100235
 40
0.9645676523513983
 40
0.9689651110869395
 40
0.9739914029787096
 40
0.9808399130870578
 40
0.9895136419246112
 40
1.0
 40
1.0
 40
1.0
 40
1.0
 10
-253.2950767215987
 20
466.4110164597942
 30
0.0
 10
-253.2233443196443
 20
466.4098666984635
 30
0.0
 10
-253.0880395467022
 20
466.4076979686907
 30
0.0
 10
-252.7105108927466
 20
466.2497625566986
 30
0.0
 10
-252.3032205690007
 20
465.9424428346089
 30
0.0
 10
-251.8973378912619
 20
465.5230463724199
 30
0.0
 10
-251.4922597568352
 20
464.9961831581026
 30
0.0
 10
-251.1038258266045
 20
464.3932625431913
 30
0.0
 10
-250.7725599115065
 20
463.8069442909061
 30
0.0
 10
-250.4712292749187
 20
463.2193994685362
 30
0.0
 10
-250.1603316867314
 20
462.5652632511761
 30
0.0
 10
-249.7087629238335
 20
461.5317936110847
 30
0.0
 10
-249.1336645825491
 20
460.0460090633954
 30
0.0
 10
-248.4644339659278
 20
458.0697423191988
 30
0.0
 10
-247.8116190766393
 20
455.910831804034
 30
0.0
 10
-247.1600844236283
 20
453.523371855874
 30
0.0
 10
-246.2271128876264
 20
449.79449945189
 30
0.0
 10
-245.0094770524639
 20
444.2703883669407
 30
0.0
 10
-243.5173546901531
 20
436.3563907524068
 30
0.0
 10
-242.0161006910198
 20
427.3718763278037
 30
0.0
 10
-240.5193020088364
 20
417.3703659907923
 30
0.0
 10
-239.0188123260686
 20
406.4137160567981
 30
0.0
 10
-237.517495581524
 20
394.5691921233159
 30
0.0
 10
-236.0195210434331
 20
381.9056307123312
 30
0.0
 10
-234.5152723271531
 20
368.5040709259463
 30
0.0
 10
-233.0186343583301
 20
354.4380971546117
 30
0.0
 10
-231.5133989414612
 20
339.7998614411911
 30
0.0
 10
-230.0162665714944
 20
324.6686257193938
 30
0.0
 10
-228.5119361413567
 20
309.1424782274773
 30
0.0
 10
-227.0124163005344
 20
293.3081735076271
 30
0.0
 10
-225.5106453217872
 20
277.2640173810316
 30
0.0
 10
-224.0076751764799
 20
261.105787279226
 30
0.0
 10
-222.5089915631658
 20
244.9274763121123
 30
0.0
 10
-221.0037247711844
 20
228.8314135203237
 30
0.0
 10
-219.506427639839
 20
212.9057840397639
 30
0.0
 10
-218.0005535261744
 20
197.2544848727963
 30
0.0
 10
-216.5026227122916
 20
181.9621928636749
 30
0.0
 10
-214.9978526356896
 20
167.1274724658829
 30
0.0
 10
-213.4972857483716
 20
152.8337695217431
 30
0.0
 10
-211.995066104206
 20
139.1686385469499
 30
0.0
 10
-210.4908707526965
 20
126.2145880319212
 30
0.0
 10
-208.9912348006262
 20
114.0450970321953
 30
0.0
 10
-207.4843245408465
 20
102.7377837030225
 30
0.0
 10
-205.9849969839333
 20
92.35314041177448
 30
0.0
 10
-204.4762891968804
 20
82.95784974144118
 30
0.0
 10
-202.9737991710475
 20
74.60209475197533
 30
0.0
 10
-201.7148348887417
 20
68.54553278584591
 30
0.0
 10
-200.7058216547992
 20
64.26562438993635
 30
0.0
 10
-199.9498011960612
 20
61.34153596962302
 30
0.0
 10
-199.1907889811226
 20
58.70532874125892
 30
0.0
 10
-198.4147855522397
 20
56.32483331960103
 30
0.0
 10
-197.7554816156978
 20
54.57332414653937
 30
0.0
 10
-197.2330004644628
 20
53.35046583394237
 30
0.0
 10
-196.888958111543
 20
52.61289934746593
 30
0.0
 10
-196.5799143652551
 20
52.00026980843572
 30
0.0
 10
-196.2556240394408
 20
51.40607165816402
 30
0.0
 10
-195.8819785562198
 20
50.79003046981945
 30
0.0
 10
-195.5026544844543
 20
50.24315510845948
 30
0.0
 10
-195.1501727837704
 20
49.80058803513391
 30
0.0
 10
-194.8251871725018
 20
49.44086912190437
 30
0.0
 10
-194.4179609915145
 20
49.05395802723186
 30
0.0
 10
-193.8527798916662
 20
48.64016350736708
 30
0.0
 10
-193.1143000289681
 20
48.28558489391582
 30
0.0
 10
-192.5848473483354
 20
48.23739234768281
 30
0.0
 10
-192.2950767215989
 20
48.21101646021111
 30
0.0
  0
SPLINE
  5
167
330
1F
100
AcDbEntity
  8
0
100
AcDbSpline
210
0.0
220
0.0
230
1.0
 70
     8
 71
     3
 72
    69
 73
    65
 74
     0
 42
0.00000001
 43
0.00000001
 40
0.0
 40
0.0
 40
0.0
 40
0.0
 40
0.0096413941086841
 40
0.0181860164329845
 40
0.0262280564035407
 40
0.0340362398208016
 40
0.0421470535266901
 40
0.0489008906577794
 40
0.0550937684002702
 40
0.0597919019326459
 40
0.0646513356636088
 40
0.0709871620433982
 40
0.0827322851497386
 40
0.0936244397885124
 40
0.1044401021960855
 40
0.1152487365764978
 40
0.1260662466517288
 40
0.1506621549899587
 40
0.1752433112028357
 40
0.1998452464137883
 40
0.2244370837744262
 40
0.2490385244998439
 40
0.2736429562006236
 40
0.2982394597193057
 40
0.3228515588615142
 40
0.34744655730598
 40
0.3720622367337489
 40
0.3966599885874179
 40
0.4212756788329809
 40
0.4458808538408044
 40
0.4704926764295898
 40
0.4951079672454747
 40
0.5197131807445196
 40
0.5443345719149133
 40
0.5689382004588397
 40
0.5935623666837269
 40
0.6181689301651101
 40
0.6427927221907619
 40
0.6674075474670603
 40
0.6920272227676788
 40
0.716652418870655
 40
0.741266944799638
 40
0.7658994286116668
 40
0.7905148365438887
 40
0.8151523838689088
 40
0.8397749937248968
 40
0.8644169033882136
 40
0.87674220931361
 40
0.8890600106016209
 40
0.9013809514272151
 40
0.9137132875669183
 40
0.9266007408138291
 40
0.9330379612558055
 40
0.9386408151783108
 40
0.9429367168402099
 40
0.9476141879545855
 40
0.9536152676786379
 40
0.9599122068100255
 40
0.9645676523514003
 40
0.9689651110869394
 40
0.9739914029787096
 40
0.9808399130870598
 40
0.9895136419246132
 40
1.0
 40
1.0
 40
1.0
 40
1.0
 10
-131.2950767215991
 20
466.4110164597942
 30
0.0
 10
-131.2233443196447
 20
466.4098666984634
 30
0.0
 10
-131.0880395467025
 20
466.4076979686906
 30
0.0
 10
-130.7105108927466
 20
466.2497625566986
 30
0.0
 10
-130.3032205690008
 20
465.9424428346088
 30
0.0
 10
-129.8973378912621
 20
465.5230463724198
 30
0.0
 10
-129.4922597568356
 20
464.9961831581024
 30
0.0
 10
-129.1038258266047
 20
464.393262543191
 30
0.0
 10
-128.7725599115065
 20
463.8069442909057
 30
0.0
 10
-128.4712292749189
 20
463.2193994685361
 30
0.0
 10
-128.1603316867319
 20
462.565263251176
 30
0.0
 10
-127.7087629238334
 20
461.5317936110847
 30
0.0
 10
-127.1336645825493
 20
460.0460090633952
 30
0.0
 10
-126.464433965928
 20
458.0697423191983
 30
0.0
 10
-125.8116190766397
 20
455.9108318040333
 30
0.0
 10
-125.1600844236283
 20
453.5233718558736
 30
0.0
 10
-124.2271128876267
 20
449.7944994518894
 30
0.0
 10
-123.0094770524642
 20
444.2703883669406
 30
0.0
 10
-121.5173546901532
 20
436.3563907524064
 30
0.0
 10
-120.0161006910197
 20
427.3718763278036
 30
0.0
 10
-118.5193020088366
 20
417.3703659907919
 30
0.0
 10
-117.0188123260689
 20
406.4137160567982
 30
0.0
 10
-115.5174955815242
 20
394.5691921233162
 30
0.0
 10
-114.0195210434334
 20
381.9056307123316
 30
0.0
 10
-112.5152723271533
 20
368.5040709259466
 30
0.0
 10
-111.0186343583305
 20
354.4380971546113
 30
0.0
 10
-109.5133989414614
 20
339.7998614411907
 30
0.0
 10
-108.0162665714949
 20
324.6686257193936
 30
0.0
 10
-106.511936141357
 20
309.1424782274769
 30
0.0
 10
-105.0124163005348
 20
293.3081735076263
 30
0.0
 10
-103.510645321787
 20
277.2640173810303
 30
0.0
 10
-102.0076751764805
 20
261.1057872792246
 30
0.0
 10
-100.5089915631655
 20
244.9274763121109
 30
0.0
 10
-99.00372477118493
 20
228.8314135203225
 30
0.0
 10
-97.50642763983916
 20
212.9057840397629
 30
0.0
 10
-96.00055352617443
 20
197.2544848727958
 30
0.0
 10
-94.5026227122921
 20
181.9621928636747
 30
0.0
 10
-92.9978526356898
 20
167.1274724658834
 30
0.0
 10
-91.49728574837197
 20
152.8337695217434
 30
0.0
 10
-89.99506610420657
 20
139.1686385469503
 30
0.0
 10
-88.49087075269688
 20
126.2145880319215
 30
0.0
 10
-86.99123480062681
 20
114.0450970321955
 30
0.0
 10
-85.48432454084647
 20
102.7377837030228
 30
0.0
 10
-83.98499698393377
 20
92.35314041177419
 30
0.0
 10
-82.47628919688046
 20
82.95784974144044
 30
0.0
 10
-80.97379917104769
 20
74.60209475197455
 30
0.0
 10
-79.71483488874192
 20
68.54553278584518
 30
0.0
 10
-78.7058216547994
 20
64.26562438993582
 30
0.0
 10
-77.94980119606146
 20
61.34153596962269
 30
0.0
 10
-77.19078898112275
 20
58.70532874125847
 30
0.0
 10
-76.41478555224029
 20
56.32483331960076
 30
0.0
 10
-75.75548161569756
 20
54.57332414653879
 30
0.0
 10
-75.23300046446313
 20
53.35046583394207
 30
0.0
 10
-74.88895811154289
 20
52.61289934746571
 30
0.0
 10
-74.5799143652554
 20
52.00026980843542
 30
0.0
 10
-74.25562403944095
 20
51.40607165816407
 30
0.0
 10
-73.88197855622012
 20
50.79003046981925
 30
0.0
 10
-73.50265448445445
 20
50.24315510845926
 30
0.0
 10
-73.15017278377032
 20
49.80058803513379
 30
0.0
 10
-72.8251871725022
 20
49.44086912190432
 30
0.0
 10
-72.41796099151462
 20
49.05395802723172
 30
0.0
 10
-71.85277989166653
 20
48.64016350736716
 30
0.0
 10
-71.11430002896851
 20
48.28558489391574
 30
0.0
 10
-70.58484734833579
 20
48.23739234768281
 30
0.0
 10
-70.29507672159929
 20
48.21101646021114
 30
0.0
  0
SPLINE
  5
168
330
1F
100
AcDbEntity
  8
0
100
AcDbSpline
210
0.0
220
0.0
230
1.0
 70
     8
 71
     3
 72
    69
 73
    65
 74
     0
 42
0.00000001
 43
0.00000001
 40
0.0
 40
0.0
 40
0.0
 40
0.0
 40
0.0096413941086822
 40
0.0181860164329805
 40
0.0262280564035367
 40
0.0340362398207997
 40
0.0421470535266901
 40
0.0489008906577754
 40
0.0550937684002682
 40
0.0597919019326419
 40
0.0646513356636089
 40
0.0709871620433942
 40
0.0827322851497346
 40
0.0936244397885105
 40
0.1044401021960836
 40
0.1152487365764938
 40
0.1260662466517288
 40
0.1506621549899588
 40
0.175243311202832
 40
0.1998452464137835
 40
0.2244370837744242
 40
0.2490385244998439
 40
0.2736429562006217
 40
0.2982394597193077
 40
0.3228515588615163
 40
0.3474465573059776
 40
0.3720622367337456
 40
0.3966599885874159
 40
0.4212756788329789
 40
0.4458808538408044
 40
0.4704926764295898
 40
0.4951079672454728
 40
0.5197131807445137
 40
0.5443345719149133
 40
0.5689382004588378
 40
0.593562366683727
 40
0.6181689301651104
 40
0.6427927221907612
 40
0.6674075474670603
 40
0.6920272227676768
 40
0.716652418870657
 40
0.7412669447996401
 40
0.7658994286116686
 40
0.790514836543886
 40
0.8151523838689053
 40
0.8397749937248927
 40
0.8644169033882135
 40
0.87674220931361
 40
0.8890600106016208
 40
0.9013809514272171
 40
0.9137132875669143
 40
0.926600740813825
 40
0.9330379612558035
 40
0.9386408151783067
 40
0.9429367168402099
 40
0.9476141879545875
 40
0.9536152676786399
 40
0.9599122068100254
 40
0.9645676523514003
 40
0.9689651110869394
 40
0.9739914029787095
 40
0.9808399130870596
 40
0.9895136419246111
 40
1.0
 40
1.0
 40
1.0
 40
1.0
 10
-9.295076721599349
 20
466.4110164597942
 30
0.0
 10
-9.223344319644887
 20
466.4098666984635
 30
0.0
 10
-9.088039546702564
 20
466.4076979686909
 30
0.0
 10
-8.710510892747381
 20
466.2497625566986
 30
0.0
 10
-8.303220569001567
 20
465.9424428346089
 30
0.0
 10
-7.897337891262291
 20
465.52304637242
 30
0.0
 10
-7.492259756836095
 20
464.9961831581024
 30
0.0
 10
-7.103825826604959
 20
464.3932625431913
 30
0.0
 10
-6.772559911506937
 20
463.8069442909061
 30
0.0
 10
-6.471229274919388
 20
463.2193994685364
 30
0.0
 10
-6.160331686732079
 20
462.5652632511763
 30
0.0
 10
-5.708762923834431
 20
461.531793611085
 30
0.0
 10
-5.13366458254999
 20
460.0460090633957
 30
0.0
 10
-4.464433965928494
 20
458.069742319199
 30
0.0
 10
-3.811619076639794
 20
455.9108318040339
 30
0.0
 10
-3.160084423629028
 20
453.5233718558739
 30
0.0
 10
-2.227112887627003
 20
449.7944994518899
 30
0.0
 10
-1.009477052464292
 20
444.2703883669408
 30
0.0
 10
0.4826453098460415
 20
436.3563907524074
 30
0.0
 10
1.983899308979631
 20
427.3718763278049
 30
0.0
 10
3.480697991162907
 20
417.3703659907929
 30
0.0
 10
4.981187673930521
 20
406.4137160567988
 30
0.0
 10
6.482504418475532
 20
394.5691921233162
 30
0.0
 10
7.980478956566229
 20
381.9056307123312
 30
0.0
 10
9.484727672846581
 20
368.5040709259464
 30
0.0
 10
10.98136564166929
 20
354.4380971546121
 30
0.0
 10
12.48660105853833
 20
339.7998614411923
 30
0.0
 10
13.9837334285044
 20
324.668625719395
 30
0.0
 10
15.48806385864304
 20
309.1424782274778
 30
0.0
 10
16.9875836994649
 20
293.3081735076267
 30
0.0
 10
18.48935467821233
 20
277.2640173810307
 30
0.0
 10
19.99232482351959
 20
261.1057872792263
 30
0.0
 10
21.4910084368336
 20
244.9274763121128
 30
0.0
 10
22.99627522881498
 20
228.8314135203242
 30
0.0
 10
24.49357236016053
 20
212.9057840397635
 30
0.0
 10
25.99944647382524
 20
197.2544848727962
 30
0.0
 10
27.49737728770763
 20
181.9621928636747
 30
0.0
 10
29.00214736431028
 20
167.1274724658835
 30
0.0
 10
30.50271425162765
 20
152.8337695217439
 30
0.0
 10
32.0049338957934
 20
139.1686385469502
 30
0.0
 10
33.50912924730276
 20
126.2145880319211
 30
0.0
 10
35.00876519937335
 20
114.0450970321947
 30
0.0
 10
36.51567545915352
 20
102.7377837030224
 30
0.0
 10
38.01500301606558
 20
92.35314041177489
 30
0.0
 10
39.52371080311934
 20
82.95784974144149
 30
0.0
 10
41.02620082895198
 20
74.60209475197537
 30
0.0
 10
42.28516511125796
 20
68.54553278584541
 30
0.0
 10
43.29417834519988
 20
64.26562438993594
 30
0.0
 10
44.05019880393879
 20
61.34153596962244
 30
0.0
 10
44.80921101887675
 20
58.70532874125864
 30
0.0
 10
45.58521444775954
 20
56.3248333196012
 30
0.0
 10
46.24451838430171
 20
54.57332414653931
 30
0.0
 10
46.76699953553659
 20
53.35046583394254
 30
0.0
 10
47.11104188845655
 20
52.61289934746586
 30
0.0
 10
47.4200856347442
 20
52.00026980843558
 30
0.0
 10
47.74437596055864
 20
51.4060716581638
 30
0.0
 10
48.11802144377969
 20
50.79003046981934
 30
0.0
 10
48.49734551554524
 20
50.2431551084592
 30
0.0
 10
48.84982721622922
 20
49.80058803513382
 30
0.0
 10
49.1748128274977
 20
49.44086912190429
 30
0.0
 10
49.58203900848485
 20
49.05395802723181
 30
0.0
 10
50.14722010833328
 20
48.64016350736722
 30
0.0
 10
50.88569997103099
 20
48.28558489391568
 30
0.0
 10
51.41515265166385
 20
48.23739234768281
 30
0.0
 10
51.70492327840049
 20
48.21101646021114
 30
0.0
  0
SPLINE
  5
169
330
1F
100
AcDbEntity
  8
0
100
AcDbSpline
210
0.0
220
0.0
230
1.0
 70
     8
 71
     3
 72
    48
 73
    44
 74
     0
 42
0.00000001
 43
0.00000001
 40
0.0
 40
0.0
 40
0.0
 40
0.0
 40
0.0127951725508767
 40
0.0241348103448597
 40
0.0348074670088608
 40
0.0451697707386535
 40
0.0559336975862636
 40
0.0648967697829453
 40
0.0731153882118247
 40
0.0793503194402503
 40
0.0857993134743424
 40
0.0942076402026134
 40
0.1097946886193523
 40
0.1242497556441996
 40
0.1386033092067786
 40
0.1529475358173446
 40
0.1673035414347052
 40
0.1999449714691647
 40
0.2325668238380652
 40
0.2652162521843387
 40
0.2978522795913226
 40
0.3305010517018257
 40
0.3631537931600569
 40
0.3957960130633387
 40
0.4284589300454618
 40
0.4610991525525047
 40
0.4937668209607234
 40
0.5264106975395155
 40
0.5590783803041192
 40
0.5917321082111758
 40
0.6243946581770041
 40
0.6570618108552265
 40
0.6897155898442976
 40
0.7223908383526181
 40
0.7550425139348586
 40
0.7877214452405685
 40
0.8203770158021824
 40
0.8530554505050433
 40
0.8857219853618985
 40
0.9183949567254795
 40
0.9510752547907793
 40
0.9837413923813719
 40
1.0
 40
1.0
 40
1.0
 40
1.0
 10
112.7049232784004
 20
466.4110164597942
 30
0.0
 10
112.7766556803549
 20
466.4098666984635
 30
0.0
 10
112.9119604532972
 20
466.4076979686909
 30
0.0
 10
113.2894891072529
 20
466.2497625566986
 30
0.0
 10
113.6967794309984
 20
465.9424428346089
 30
0.0
 10
114.1026621087375
 20
465.5230463724199
 30
0.0
 10
114.5077402431639
 20
464.9961831581026
 30
0.0
 10
114.8961741733949
 20
464.3932625431913
 30
0.0
 10
115.2274400884924
 20
463.806944290906
 30
0.0
 10
115.5287707250807
 20
463.2193994685363
 30
0.0
 10
115.8396683132675
 20
462.5652632511763
 30
0.0
 10
116.2912370761657
 20
461.5317936110848
 30
0.0
 10
116.86633541745
 20
460.0460090633954
 30
0.0
 10
117.5355660340715
 20
458.0697423191985
 30
0.0
 10
118.1883809233601
 20
455.9108318040336
 30
0.0
 10
118.8399155763715
 20
453.523371855874
 30
0.0
 10
119.7728871123723
 20
449.7944994518899
 30
0.0
 10
120.9905229475354
 20
444.2703883669412
 30
0.0
 10
122.4826453098458
 20
436.3563907524073
 30
0.0
 10
123.9838993089795
 20
427.3718763278046
 30
0.0
 10
125.4806979911625
 20
417.3703659907929
 30
0.0
 10
126.9811876739305
 20
406.4137160567984
 30
0.0
 10
128.482504418475
 20
394.569192123318
 30
0.0
 10
129.980478956566
 20
381.9056307123268
 30
0.0
 10
131.484727672846
 20
368.5040709259682
 30
0.0
 10
132.9813656416689
 20
354.4380971545353
 30
0.0
 10
134.4866010585374
 20
339.7998614414805
 30
0.0
 10
135.9837334285049
 20
324.6686257183192
 30
0.0
 10
137.4880638586411
 20
309.142478231495
 30
0.0
 10
138.9875836994694
 20
293.3081734926424
 30
0.0
 10
140.4893546781953
 20
277.2640174369772
 30
0.0
 10
141.9923248235815
 20
261.1057870704419
 30
0.0
 10
143.4910084366001
 20
244.9274770911661
 30
0.0
 10
144.9962752296869
 20
228.8314106115791
 30
0.0
 10
146.493572356906
 20
212.9057948902306
 30
0.0
 10
147.999446485979
 20
197.2544443520064
 30
0.0
 10
149.4973772423705
 20
181.9623440097406
 30
0.0
 10
151.0021475336193
 20
167.1269080158909
 30
0.0
 10
152.5027136199739
 20
152.8358753534105
 30
0.0
 10
154.0049362539212
 20
139.1607769240865
 30
0.0
 10
155.5091204461138
 20
126.2439297873433
 30
0.0
 10
156.7574450308781
 20
115.9985439143369
 30
0.0
 10
157.508572688705
 20
110.4231683931624
 30
0.0
 10
157.7581864538433
 20
108.5703668601623
 30
0.0
  0
SPLINE
  5
16A
330
1F
100
AcDbEntity
  8
0
100
AcDbSpline
210
0.0
220
0.0
230
1.0
 70
     8
 71
     3
 72
    13
 73
     9
 74
     0
 42
0.00000001
 43
0.00000001
 40
0.0
 40
0.0
 40
0.0
 40
0.0
 40
0.2445656842686792
 40
0.4410686370146167
 40
0.590771434417704
 40
0.7270868655837628
 40
0.8634045429662457
 40
1.0
 40
1.0
 40
1.0
 40
1.0
 10
-497.2950767215983
 20
468.3110164597923
 30
0.0
 10
-497.5799886485962
 20
468.2864863708711
 30
0.0
 10
-498.0938208147315
 20
468.2422469146341
 30
0.0
 10
-498.7850485741958
 20
467.9164926375055
 30
0.0
 10
-499.2672158860099
 20
467.587190863352
 30
0.0
 10
-499.6624978648294
 20
467.2413620776952
 30
0.0
 10
-500.04396008093
 20
466.8587335128377
 30
0.0
 10
-500.2869530334265
 20
466.5270346821468
 30
0.0
 10
-500.4085731726449
 20
466.3610164600018
 30
0.0
  0
SPLINE
  5
16B
330
1F
100
AcDbEntity
  8
0
100
AcDbSpline
210
0.0
220
0.0
230
1.0
 70
     8
 71
     3
 72
    13
 73
     9
 74
     0
 42
0.00000001
 43
0.00000001
 40
0.0
 40
0.0
 40
0.0
 40
0.0
 40
0.2445656842686795
 40
0.4410686370145915
 40
0.5907714344176785
 40
0.7270868655837376
 40
0.8634045429662205
 40
1.0
 40
1.0
 40
1.0
 40
1.0
 10
-375.2950767215985
 20
468.3110164597923
 30
0.0
 10
-375.5799886485964
 20
468.2864863708711
 30
0.0
 10
-376.0938208147318
 20
468.242246914634
 30
0.0
 10
-376.785048574196
 20
467.9164926375054
 30
0.0
 10
-377.26721588601
 20
467.5871908633523
 30
0.0
 10
-377.6624978648296
 20
467.2413620776953
 30
0.0
 10
-378.0439600809302
 20
466.8587335128379
 30
0.0
 10
-378.2869530334268
 20
466.5270346821468
 30
0.0
 10
-378.4085731726452
 20
466.3610164600018
 30
0.0
  0
SPLINE
  5
16C
330
1F
100
AcDbEntity
  8
0
100
AcDbSpline
210
0.0
220
0.0
230
1.0
 70
     8
 71
     3
 72
    13
 73
     9
 74
     0
 42
0.00000001
 43
0.00000001
 40
0.0
 40
0.0
 40
0.0
 40
0.0
 40
0.2445656842687271
 40
0.4410686370146104
 40
0.5907714344176708
 40
0.7270868655837778
 40
0.8634045429662592
 40
1.0
 40
1.0
 40
1.0
 40
1.0
 10
-253.2950767215988
 20
468.3110164597923
 30
0.0
 10
-253.5799886485968
 20
468.2864863708712
 30
0.0
 10
-254.0938208147322
 20
468.2422469146341
 30
0.0
 10
-254.7850485741961
 20
467.9164926375055
 30
0.0
 10
-255.2672158860108
 20
467.587190863352
 30
0.0
 10
-255.6624978648297
 20
467.2413620776952
 30
0.0
 10
-256.0439600809308
 20
466.8587335128377
 30
0.0
 10
-256.2869530334272
 20
466.5270346821467
 30
0.0
 10
-256.4085731726456
 20
466.3610164600018
 30
0.0
  0
SPLINE
  5
16D
330
1F
100
AcDbEntity
  8
0
100
AcDbSpline
210
0.0
220
0.0
230
1.0
 70
     8
 71
     3
 72
    13
 73
     9
 74
     0
 42
0.00000001
 43
0.00000001
 40
0.0
 40
0.0
 40
0.0
 40
0.0
 40
0.2445656842686764
 40
0.4410686370145599
 40
0.5907714344176711
 40
0.7270868655837278
 40
0.8634045429662093
 40
1.0
 40
1.0
 40
1.0
 40
1.0
 10
-131.2950767215991
 20
468.3110164597923
 30
0.0
 10
-131.579988648597
 20
468.2864863708711
 30
0.0
 10
-132.0938208147323
 20
468.242246914634
 30
0.0
 10
-132.7850485741964
 20
467.9164926375055
 30
0.0
 10
-133.2672158860107
 20
467.5871908633522
 30
0.0
 10
-133.6624978648299
 20
467.2413620776952
 30
0.0
 10
-134.0439600809308
 20
466.8587335128379
 30
0.0
 10
-134.2869530334274
 20
466.5270346821468
 30
0.0
 10
-134.4085731726459
 20
466.3610164600018
 30
0.0
  0
SPLINE
  5
16E
330
1F
100
AcDbEntity
  8
0
100
AcDbSpline
210
0.0
220
0.0
230
1.0
 70
     8
 71
     3
 72
    13
 73
     9
 74
     0
 42
0.00000001
 43
0.00000001
 40
0.0
 40
0.0
 40
0.0
 40
0.0
 40
0.2445656842686765
 40
0.44106863701461
 40
0.590771434417721
 40
0.7270868655837769
 40
0.8634045429662588
 40
1.0
 40
1.0
 40
1.0
 40
1.0
 10
-9.295076721599404
 20
468.3110164597923
 30
0.0
 10
-9.579988648597382
 20
468.2864863708711
 30
0.0
 10
-10.09382081473292
 20
468.242246914634
 30
0.0
 10
-10.78504857419688
 20
467.9164926375054
 30
0.0
 10
-11.26721588601121
 20
467.5871908633521
 30
0.0
 10
-11.66249786483026
 20
467.2413620776952
 30
0.0
 10
-12.04396008093128
 20
466.8587335128377
 30
0.0
 10
-12.2869530334278
 20
466.5270346821467
 30
0.0
 10
-12.40857317264621
 20
466.3610164600018
 30
0.0
  0
SPLINE
  5
16F
330
1F
100
AcDbEntity
  8
0
100
AcDbSpline
210
0.0
220
0.0
230
1.0
 70
     8
 71
     3
 72
    13
 73
     9
 74
     0
 42
0.00000001
 43
0.00000001
 40
0.0
 40
0.0
 40
0.0
 40
0.0
 40
0.2445656842686793
 40
0.4410686370145666
 40
0.5907714344177308
 40
0.7270868655837397
 40
0.8634045429662724
 40
1.0
 40
1.0
 40
1.0
 40
1.0
 10
112.7049232784003
 20
468.3110164597923
 30
0.0
 10
112.4200113514026
 20
468.2864863708712
 30
0.0
 10
111.9061791852673
 20
468.2422469146341
 30
0.0
 10
111.2149514258026
 20
467.9164926375054
 30
0.0
 10
110.732784113989
 20
467.5871908633523
 30
0.0
 10
110.3375021351688
 20
467.2413620776949
 30
0.0
 10
109.9560399190689
 20
466.8587335128379
 30
0.0
 10
109.7130469665721
 20
466.5270346821468
 30
0.0
 10
109.5914268273537
 20
466.3610164600018
 30
0.0
  0
SPLINE
  5
170
330
1F
100
AcDbEntity
  8
0
100
AcDbSpline
210
0.0
220
0.0
230
1.0
 70
     8
 71
     3
 72
    13
 73
     9
 74
     0
 42
0.00000001
 43
0.00000001
 40
0.0
 40
0.0
 40
0.0
 40
0.0
 40
0.2445656842686794
 40
0.4410686370146041
 40
0.5907714344176913
 40
0.72708686558375
 40
0.8634045429662202
 40
1.0
 40
1.0
 40
1.0
 40
1.0
 10
-619.295076721598
 20
468.3110164597923
 30
0.0
 10
-619.5799886485958
 20
468.2864863708711
 30
0.0
 10
-620.0938208147311
 20
468.2422469146339
 30
0.0
 10
-620.7850485741955
 20
467.9164926375055
 30
0.0
 10
-621.2672158860097
 20
467.5871908633521
 30
0.0
 10
-621.6624978648291
 20
467.2413620776953
 30
0.0
 10
-622.0439600809298
 20
466.8587335128379
 30
0.0
 10
-622.2869530334262
 20
466.5270346821468
 30
0.0
 10
-622.4085731726447
 20
466.3610164600018
 30
0.0
  0
SPLINE
  5
171
330
1F
100
AcDbEntity
  8
0
100
AcDbSpline
210
0.0
220
0.0
230
1.0
 70
     8
 71
     3
 72
     9
 73
     5
 74
     0
 42
0.00000001
 43
0.00000001
 40
0.0
 40
0.0
 40
0.0
 40
0.0
 40
0.8619160081490412
 40
1.0
 40
1.0
 40
1.0
 40
1.0
 10
-741.2950767215978
 20
468.3110164597923
 30
0.0
 10
-741.5727810472658
 20
468.3014806549638
 30
0.0
 10
-741.8949752321313
 20
468.2904171583605
 30
0.0
 10
-742.2072385746775
 20
468.1488979855699
 30
0.0
 10
-742.2503571435251
 20
468.1293564532674
 30
0.0
  0
SPLINE
  5
172
330
1F
100
AcDbEntity
  8
0
100
AcDbSpline
210
0.0
220
0.0
230
1.0
 70
     8
 71
     3
 72
    69
 73
    65
 74
     0
 42
0.00000001
 43
0.00000001
 40
0.0
 40
0.0
 40
0.0
 40
0.0
 40
0.0096413941086839
 40
0.0181860164329826
 40
0.0262280564035391
 40
0.0340362398208018
 40
0.0421470535266923
 40
0.0489008906577766
 40
0.0550937684002705
 40
0.0597919019326447
 40
0.0646513356636091
 40
0.0709871620433976
 40
0.0827322851497381
 40
0.0936244397885119
 40
0.1044401021960846
 40
0.1152487365764961
 40
0.1260662466517279
 40
0.1506621549899587
 40
0.1752433112028358
 40
0.1998452464137853
 40
0.2244370837744255
 40
0.2490385244998449
 40
0.2736429562006248
 40
0.2982394597193081
 40
0.3228515588615148
 40
0.3474465573059803
 40
0.3720622367337477
 40
0.3966599885874167
 40
0.4212756788329809
 40
0.4458808538408037
 40
0.4704926764295895
 40
0.495107967245475
 40
0.5197131807445176
 40
0.544334571914914
 40
0.5689382004588395
 40
0.5935623666837277
 40
0.618168930165111
 40
0.6427927221907617
 40
0.6674075474670612
 40
0.6920272227676787
 40
0.716652418870656
 40
0.7412669447996405
 40
0.7658994286116676
 40
0.790514836543887
 40
0.8151523838689059
 40
0.8397749937248934
 40
0.8644169033882139
 40
0.8767422093136095
 40
0.8890600106016225
 40
0.9013809514272157
 40
0.9137132875669175
 40
0.9266007408138284
 40
0.9330379612558047
 40
0.9386408151783079
 40
0.9429367168402114
 40
0.947614187954587
 40
0.9536152676786395
 40
0.959912206810025
 40
0.9645676523514009
 40
0.968965111086941
 40
0.9739914029787111
 40
0.9808399130870592
 40
0.9895136419246128
 40
1.0
 40
1.0
 40
1.0
 40
1.0
 10
-741.2950767215975
 20
466.4110164597942
 30
0.0
 10
-741.223344319643
 20
466.4098666984635
 30
0.0
 10
-741.0880395467009
 20
466.4076979686907
 30
0.0
 10
-740.7105108927456
 20
466.2497625566985
 30
0.0
 10
-740.3032205689997
 20
465.9424428346089
 30
0.0
 10
-739.8973378912603
 20
465.5230463724197
 30
0.0
 10
-739.4922597568341
 20
464.9961831581026
 30
0.0
 10
-739.1038258266032
 20
464.393262543191
 30
0.0
 10
-738.7725599115054
 20
463.8069442909061
 30
0.0
 10
-738.4712292749175
 20
463.219399468536
 30
0.0
 10
-738.1603316867305
 20
462.5652632511762
 30
0.0
 10
-737.7087629238323
 20
461.5317936110847
 30
0.0
 10
-737.1336645825479
 20
460.0460090633953
 30
0.0
 10
-736.4644339659267
 20
458.0697423191984
 30
0.0
 10
-735.8116190766382
 20
455.9108318040336
 30
0.0
 10
-735.1600844236268
 20
453.5233718558737
 30
0.0
 10
-734.2271128876256
 20
449.7944994518897
 30
0.0
 10
-733.0094770524627
 20
444.2703883669406
 30
0.0
 10
-731.5173546901522
 20
436.3563907524069
 30
0.0
 10
-730.0161006910187
 20
427.3718763278039
 30
0.0
 10
-728.5193020088354
 20
417.3703659907925
 30
0.0
 10
-727.0188123260675
 20
406.413716056798
 30
0.0
 10
-725.5174955815229
 20
394.5691921233155
 30
0.0
 10
-724.0195210434322
 20
381.905630712331
 30
0.0
 10
-722.5152723271518
 20
368.5040709259462
 30
0.0
 10
-721.0186343583287
 20
354.4380971546115
 30
0.0
 10
-719.51339894146
 20
339.7998614411912
 30
0.0
 10
-718.0162665714936
 20
324.6686257193941
 30
0.0
 10
-716.5119361413555
 20
309.1424782274775
 30
0.0
 10
-715.0124163005335
 20
293.3081735076266
 30
0.0
 10
-713.5106453217854
 20
277.2640173810307
 30
0.0
 10
-712.007675176479
 20
261.1057872792252
 30
0.0
 10
-710.5089915631642
 20
244.9274763121114
 30
0.0
 10
-709.0037247711832
 20
228.8314135203231
 30
0.0
 10
-707.5064276398377
 20
212.9057840397628
 30
0.0
 10
-706.0005535261732
 20
197.2544848727958
 30
0.0
 10
-704.5026227122905
 20
181.9621928636745
 30
0.0
 10
-702.9978526356883
 20
167.1274724658833
 30
0.0
 10
-701.4972857483706
 20
152.8337695217435
 30
0.0
 10
-699.9950661042047
 20
139.1686385469501
 30
0.0
 10
-698.4908707526955
 20
126.2145880319212
 30
0.0
 10
-696.9912348006251
 20
114.045097032195
 30
0.0
 10
-695.484324540845
 20
102.7377837030227
 30
0.0
 10
-693.9849969839324
 20
92.35314041177497
 30
0.0
 10
-692.4762891968792
 20
82.95784974144149
 30
0.0
 10
-690.9737991710464
 20
74.6020947519754
 30
0.0
 10
-689.7148348887401
 20
68.54553278584568
 30
0.0
 10
-688.7058216547982
 20
64.26562438993588
 30
0.0
 10
-687.9498011960601
 20
61.34153596962275
 30
0.0
 10
-687.1907889811213
 20
58.70532874125847
 30
0.0
 10
-686.4147855522386
 20
56.32483331960106
 30
0.0
 10
-685.7554816156966
 20
54.57332414653901
 30
0.0
 10
-685.2330004644617
 20
53.35046583394234
 30
0.0
 10
-684.8889581115417
 20
52.61289934746577
 30
0.0
 10
-684.579914365254
 20
52.00026980843558
 30
0.0
 10
-684.2556240394393
 20
51.40607165816377
 30
0.0
 10
-683.8819785562189
 20
50.79003046981936
 30
0.0
 10
-683.5026544844528
 20
50.24315510845917
 30
0.0
 10
-683.1501727837691
 20
49.80058803513388
 30
0.0
 10
-682.8251871725005
 20
49.44086912190412
 30
0.0
 10
-682.4179609915133
 20
49.05395802723181
 30
0.0
 10
-681.8527798916648
 20
48.64016350736708
 30
0.0
 10
-681.114300028967
 20
48.28558489391577
 30
0.0
 10
-680.5848473483343
 20
48.23739234768281
 30
0.0
 10
-680.2950767215979
 20
48.21101646021114
 30
0.0
  0
LINE
  5
173
330
1F
100
AcDbEntity
  8
0
100
AcDbLine
 10
-737.4021501333
 20
468.31101646
 30
0.0
 11
-741.2950493077
 21
468.31101646
 31
0.0
  0
LINE
  5
174
330
1F
100
AcDbEntity
  8
0
100
AcDbLine
 10
-615.4021501333
 20
468.31101646
 30
0.0
 11
-619.2950493077
 21
468.31101646
 31
0.0
  0
LINE
  5
175
330
1F
100
AcDbEntity
  8
0
100
AcDbLine
 10
-493.4021501333
 20
468.31101646
 30
0.0
 11
-497.2950493077
 21
468.31101646
 31
0.0
  0
LINE
  5
176
330
1F
100
AcDbEntity
  8
0
100
AcDbLine
 10
-371.4021501333
 20
468.31101646
 30
0.0
 11
-375.2950493077
 21
468.31101646
 31
0.0
  0
LINE
  5
177
330
1F
100
AcDbEntity
  8
0
100
AcDbLine
 10
-249.4021501333
 20
468.31101646
 30
0.0
 11
-253.2950493077
 21
468.31101646
 31
0.0
  0
LINE
  5
178
330
1F
100
AcDbEntity
  8
0
100
AcDbLine
 10
-127.4021501333
 20
468.31101646
 30
0.0
 11
-131.2950493077
 21
468.31101646
 31
0.0
  0
LINE
  5
179
330
1F
100
AcDbEntity
  8
0
100
AcDbLine
 10
-5.4021501333
 20
468.31101646
 30
0.0
 11
-9.2950493077
 21
468.31101646
 31
0.0
  0
LINE
  5
17A
330
1F
100
AcDbEntity
  8
0
100
AcDbLine
 10
116.5978498667
 20
468.31101646
 30
0.0
 11
112.7049506923
 21
468.31101646
 31
0.0
  0
LINE
  5
17B
330
1F
100
AcDbEntity
  8
0
100
AcDbLine
 10
51.7049506923
 20
48.21101646
 30
0.0
 11
55.5978498667
 21
48.21101646
 31
0.0
  0
LINE
  5
17C
330
1F
100
AcDbEntity
  8
0
100
AcDbLine
 10
-70.2950493077
 20
48.21101646
 30
0.0
 11
-66.4021501333
 21
48.21101646
 31
0.0
  0
LINE
  5
17D
330
1F
100
AcDbEntity
  8
0
100
AcDbLine
 10
-192.2950493077
 20
48.21101646
 30
0.0
 11
-188.4021501333
 21
48.21101646
 31
0.0
  0
LINE
  5
17E
330
1F
100
AcDbEntity
  8
0
100
AcDbLine
 10
-314.2950493077
 20
48.21101646
 30
0.0
 11
-310.4021501333
 21
48.21101646
 31
0.0
  0
LINE
  5
17F
330
1F
100
AcDbEntity
  8
0
100
AcDbLine
 10
-436.2950493077
 20
48.21101646
 30
0.0
 11
-432.4021501333
 21
48.21101646
 31
0.0
  0
LINE
  5
180
330
1F
100
AcDbEntity
  8
0
100
AcDbLine
 10
-558.2950493077
 20
48.21101646
 30
0.0
 11
-554.4021501333
 21
48.21101646
 31
0.0
  0
LINE
  5
181
330
1F
100
AcDbEntity
  8
0
100
AcDbLine
 10
-680.2950493077
 20
48.21101646
 30
0.0
 11
-676.4021501333
 21
48.21101646
 31
0.0
  0
SPLINE
  5
182
330
1F
100
AcDbEntity
  8
0
100
AcDbSpline
210
0.0
220
0.0
230
1.0
 70
     8
 71
     3
 72
     9
 73
     5
 74
     0
 42
0.00000001
 43
0.00000001
 40
0.0
 40
0.0
 40
0.0
 40
0.0
 40
0.9215104366193593
 40
1.0
 40
1.0
 40
1.0
 40
1.0
 10
-552.4328410548334
 20
49.1782589464696
 30
0.0
 10
-552.1296726651939
 20
49.4801357809315
 30
0.0
 10
-551.8006819369372
 20
49.80772494592164
 30
0.0
 10
-551.4716822700778
 20
50.1353048558956
 30
0.0
 10
-551.4458592298737
 20
50.16101646000165
 30
0.0
  0
SPLINE
  5
183
330
1F
100
AcDbEntity
  8
0
100
AcDbSpline
210
0.0
220
0.0
230
1.0
 70
     8
 71
     3
 72
     9
 73
     5
 74
     0
 42
0.00000001
 43
0.00000001
 40
0.0
 40
0.0
 40
0.0
 40
0.0
 40
0.9215104366193569
 40
0.9999999999999999
 40
0.9999999999999999
 40
0.9999999999999999
 40
0.9999999999999999
 10
-430.4328410548337
 20
49.17825894646963
 30
0.0
 10
-430.1296726651939
 20
49.48013578093182
 30
0.0
 10
-429.8006819369369
 20
49.80772494592237
 30
0.0
 10
-429.4716822700781
 20
50.13530485589557
 30
0.0
 10
-429.445859229874
 20
50.16101646000165
 30
0.0
  0
SPLINE
  5
184
330
1F
100
AcDbEntity
  8
0
100
AcDbSpline
210
0.0
220
0.0
230
1.0
 70
     8
 71
     3
 72
     9
 73
     5
 74
     0
 42
0.00000001
 43
0.00000001
 40
0.0
 40
0.0
 40
0.0
 40
0.0
 40
0.9215104366193755
 40
1.0
 40
1.0
 40
1.0
 40
1.0
 10
-308.4328410548339
 20
49.1782589464696
 30
0.0
 10
-308.1296726651943
 20
49.48013578093166
 30
0.0
 10
-307.8006819369375
 20
49.80772494592215
 30
0.0
 10
-307.4716822700783
 20
50.13530485589551
 30
0.0
 10
-307.4458592298741
 20
50.16101646000165
 30
0.0
  0
SPLINE
  5
185
330
1F
100
AcDbEntity
  8
0
100
AcDbSpline
210
0.0
220
0.0
230
1.0
 70
     8
 71
     3
 72
     9
 73
     5
 74
     0
 42
0.00000001
 43
0.00000001
 40
0.0
 40
0.0
 40
0.0
 40
0.0
 40
0.9215104366193739
 40
1.0
 40
1.0
 40
1.0
 40
1.0
 10
-186.4328410548341
 20
49.17825894646963
 30
0.0
 10
-186.1296726651947
 20
49.48013578093182
 30
0.0
 10
-185.8006819369381
 20
49.80772494592234
 30
0.0
 10
-185.4716822700789
 20
50.13530485589557
 30
0.0
 10
-185.4458592298748
 20
50.16101646000165
 30
0.0
  0
SPLINE
  5
186
330
1F
100
AcDbEntity
  8
0
100
AcDbSpline
210
0.0
220
0.0
230
1.0
 70
     8
 71
     3
 72
     9
 73
     5
 74
     0
 42
0.00000001
 43
0.00000001
 40
0.0
 40
0.0
 40
0.0
 40
0.0
 40
0.9215104366193733
 40
1.0
 40
1.0
 40
1.0
 40
1.0
 10
-64.43284105483448
 20
49.17825894646963
 30
0.0
 10
-64.12967266519479
 20
49.48013578093169
 30
0.0
 10
-63.80068193693791
 20
49.80772494592209
 30
0.0
 10
-63.47168227007896
 20
50.13530485589557
 30
0.0
 10
-63.44585922987478
 20
50.16101646000165
 30
0.0
  0
SPLINE
  5
187
330
1F
100
AcDbEntity
  8
0
100
AcDbSpline
210
0.0
220
0.0
230
1.0
 70
     8
 71
     3
 72
     9
 73
     5
 74
     0
 42
0.00000001
 43
0.00000001
 40
0.0
 40
0.0
 40
0.0
 40
0.0
 40
0.921510436619279
 40
1.0
 40
1.0
 40
1.0
 40
1.0
 10
57.56715894516518
 20
49.17825894646963
 30
0.0
 10
57.87032733480463
 20
49.4801357809318
 30
0.0
 10
58.19931806306117
 20
49.80772494592239
 30
0.0
 10
58.52831772992084
 20
50.13530485589551
 30
0.0
 10
58.554140770125
 20
50.16101646000165
 30
0.0
  0
SPLINE
  5
188
330
1F
100
AcDbEntity
  8
0
100
AcDbSpline
210
0.0
220
0.0
230
1.0
 70
     8
 71
     3
 72
     9
 73
     5
 74
     0
 42
0.00000001
 43
0.00000001
 40
0.0
 40
0.0
 40
0.0
 40
0.0
 40
0.4999954648754144
 40
1.0
 40
1.0
 40
1.0
 40
1.0
 10
-611.6138155611375
 20
465.5325621703165
 30
0.0
 10
-611.9169878453632
 20
465.8344238019294
 30
0.0
 10
-612.5233379135606
 20
466.4381525411254
 30
0.0
 10
-613.1296715078768
 20
467.0418983373561
 30
0.0
 10
-613.4328410548333
 20
467.3437739735338
 30
0.0
  0
SPLINE
  5
189
330
1F
100
AcDbEntity
  8
0
100
AcDbSpline
210
0.0
220
0.0
230
1.0
 70
     8
 71
     3
 72
     9
 73
     5
 74
     0
 42
0.00000001
 43
0.00000001
 40
0.0
 40
0.0
 40
0.0
 40
0.0
 40
0.4999954648753914
 40
1.0
 40
1.0
 40
1.0
 40
1.0
 10
-489.6138155611378
 20
465.5325621703165
 30
0.0
 10
-489.9169878453634
 20
465.8344238019295
 30
0.0
 10
-490.5233379135609
 20
466.4381525411255
 30
0.0
 10
-491.1296715078771
 20
467.0418983373561
 30
0.0
 10
-491.4328410548336
 20
467.3437739735338
 30
0.0
  0
SPLINE
  5
18A
330
1F
100
AcDbEntity
  8
0
100
AcDbSpline
210
0.0
220
0.0
230
1.0
 70
     8
 71
     3
 72
     9
 73
     5
 74
     0
 42
0.00000001
 43
0.00000001
 40
0.0
 40
0.0
 40
0.0
 40
0.0
 40
0.4999954648754219
 40
1.0
 40
1.0
 40
1.0
 40
1.0
 10
-367.6138155611381
 20
465.5325621703165
 30
0.0
 10
-367.9169878453637
 20
465.8344238019294
 30
0.0
 10
-368.5233379135611
 20
466.4381525411254
 30
0.0
 10
-369.1296715078773
 20
467.0418983373561
 30
0.0
 10
-369.4328410548339
 20
467.3437739735338
 30
0.0
  0
SPLINE
  5
18B
330
1F
100
AcDbEntity
  8
0
100
AcDbSpline
210
0.0
220
0.0
230
1.0
 70
     8
 71
     3
 72
     9
 73
     5
 74
     0
 42
0.00000001
 43
0.00000001
 40
0.0
 40
0.0
 40
0.0
 40
0.0
 40
0.4999954648754372
 40
1.0
 40
1.0
 40
1.0
 40
1.0
 10
-245.6138155611384
 20
465.5325621703165
 30
0.0
 10
-245.916987845364
 20
465.8344238019294
 30
0.0
 10
-246.5233379135614
 20
466.4381525411254
 30
0.0
 10
-247.1296715078776
 20
467.0418983373561
 30
0.0
 10
-247.4328410548341
 20
467.3437739735338
 30
0.0
  0
SPLINE
  5
18C
330
1F
100
AcDbEntity
  8
0
100
AcDbSpline
210
0.0
220
0.0
230
1.0
 70
     8
 71
     3
 72
     9
 73
     5
 74
     0
 42
0.00000001
 43
0.00000001
 40
0.0
 40
0.0
 40
0.0
 40
0.0
 40
0.4999954648753226
 40
1.0
 40
1.0
 40
1.0
 40
1.0
 10
-123.6138155611387
 20
465.5325621703165
 30
0.0
 10
-123.9169878453642
 20
465.8344238019294
 30
0.0
 10
-124.5233379135615
 20
466.4381525411255
 30
0.0
 10
-125.1296715078778
 20
467.041898337356
 30
0.0
 10
-125.4328410548344
 20
467.3437739735338
 30
0.0
  0
SPLINE
  5
18D
330
1F
100
AcDbEntity
  8
0
100
AcDbSpline
210
0.0
220
0.0
230
1.0
 70
     8
 71
     3
 72
     9
 73
     5
 74
     0
 42
0.00000001
 43
0.00000001
 40
0.0
 40
0.0
 40
0.0
 40
0.0
 40
0.4999954648754449
 40
1.0
 40
1.0
 40
1.0
 40
1.0
 10
-1.613815561138932
 20
465.5325621703165
 30
0.0
 10
-1.916987845364537
 20
465.8344238019295
 30
0.0
 10
-2.523337913562018
 20
466.4381525411254
 30
0.0
 10
-3.12967150787824
 20
467.041898337356
 30
0.0
 10
-3.432841054834657
 20
467.3437739735338
 30
0.0
  0
SPLINE
  5
18E
330
1F
100
AcDbEntity
  8
0
100
AcDbSpline
210
0.0
220
0.0
230
1.0
 70
     8
 71
     3
 72
     9
 73
     5
 74
     0
 42
0.00000001
 43
0.00000001
 40
0.0
 40
0.0
 40
0.0
 40
0.0
 40
0.4999954648754449
 40
1.0
 40
1.0
 40
1.0
 40
1.0
 10
120.3861844388608
 20
465.5325621703165
 30
0.0
 10
120.0830121546353
 20
465.8344238019295
 30
0.0
 10
119.4766620864378
 20
466.4381525411254
 30
0.0
 10
118.8703284921216
 20
467.041898337356
 30
0.0
 10
118.5671589451651
 20
467.3437739735338
 30
0.0
  0
SPLINE
  5
18F
330
1F
100
AcDbEntity
  8
0
100
AcDbSpline
210
0.0
220
0.0
230
1.0
 70
     8
 71
     3
 72
     9
 73
     5
 74
     0
 42
0.00000001
 43
0.00000001
 40
0.0
 40
0.0
 40
0.0
 40
0.0
 40
0.4999954648753914
 40
1.0
 40
1.0
 40
1.0
 40
1.0
 10
-733.6138155611374
 20
465.5325621703165
 30
0.0
 10
-733.9169878453629
 20
465.8344238019294
 30
0.0
 10
-734.5233379135605
 20
466.4381525411254
 30
0.0
 10
-735.1296715078765
 20
467.0418983373561
 30
0.0
 10
-735.4328410548329
 20
467.3437739735338
 30
0.0
  0
SPLINE
  5
190
330
1F
100
AcDbEntity
  8
0
100
AcDbSpline
210
0.0
220
0.0
230
1.0
 70
     8
 71
     3
 72
     9
 73
     5
 74
     0
 42
0.00000001
 43
0.00000001
 40
0.0
 40
0.0
 40
0.0
 40
0.0
 40
0.9215104366193991
 40
0.9999999999999999
 40
0.9999999999999999
 40
0.9999999999999999
 40
0.9999999999999999
 10
-674.432841054833
 20
49.17825894646963
 30
0.0
 10
-674.1296726651933
 20
49.48013578093172
 30
0.0
 10
-673.8006819369365
 20
49.80772494592209
 30
0.0
 10
-673.4716822700775
 20
50.13530485589557
 30
0.0
 10
-673.4458592298735
 20
50.16101646000165
 30
0.0
  0
LINE
  5
191
330
1F
100
AcDbEntity
  8
0
100
AcDbLine
 10
-619.0082905501
 20
466.36101646
 30
0.0
 11
-726.9451082184
 21
466.36101646
 31
0.0
  0
LINE
  5
192
330
1F
100
AcDbEntity
  8
0
100
AcDbLine
 10
-497.0082905501
 20
466.36101646
 30
0.0
 11
-612.4458592299
 21
466.36101646
 31
0.0
  0
LINE
  5
193
330
1F
100
AcDbEntity
  8
0
100
AcDbLine
 10
-375.0082905501
 20
466.36101646
 30
0.0
 11
-490.4458592299
 21
466.36101646
 31
0.0
  0
LINE
  5
194
330
1F
100
AcDbEntity
  8
0
100
AcDbLine
 10
-253.0082905501
 20
466.36101646
 30
0.0
 11
-368.4458592299
 21
466.36101646
 31
0.0
  0
LINE
  5
195
330
1F
100
AcDbEntity
  8
0
100
AcDbLine
 10
-131.0082905501
 20
466.36101646
 30
0.0
 11
-246.4458592299
 21
466.36101646
 31
0.0
  0
LINE
  5
196
330
1F
100
AcDbEntity
  8
0
100
AcDbLine
 10
-9.0082905501
 20
466.36101646
 30
0.0
 11
-124.4458592299
 21
466.36101646
 31
0.0
  0
LINE
  5
197
330
1F
100
AcDbEntity
  8
0
100
AcDbLine
 10
112.9917094499
 20
466.36101646
 30
0.0
 11
-2.4458592299
 21
466.36101646
 31
0.0
  0
LINE
  5
198
330
1F
100
AcDbEntity
  8
0
100
AcDbLine
 10
157.7548917816
 20
466.36101646
 30
0.0
 11
153.0548917816
 21
466.36101646
 31
0.0
  0
LINE
  5
199
330
1F
100
AcDbEntity
  8
0
100
AcDbLine
 10
142.4548917816
 20
466.36101646
 30
0.0
 11
119.5541407701
 21
466.36101646
 31
0.0
  0
LINE
  5
19A
330
1F
100
AcDbEntity
  8
0
100
AcDbLine
 10
57.7549566479
 20
50.16101646
 30
0.0
 11
142.4548917816
 21
50.16101646
 31
0.0
  0
LINE
  5
19B
330
1F
100
AcDbEntity
  8
0
100
AcDbLine
 10
153.0548917816
 20
50.16101646
 30
0.0
 11
157.7548917816
 21
50.16101646
 31
0.0
  0
LINE
  5
19C
330
1F
100
AcDbEntity
  8
0
100
AcDbLine
 10
-64.2450433521
 20
50.16101646
 30
0.0
 11
48.5693264601
 21
50.16101646
 31
0.0
  0
LINE
  5
19D
330
1F
100
AcDbEntity
  8
0
100
AcDbLine
 10
-186.2450433521
 20
50.16101646
 30
0.0
 11
-73.4306735399
 21
50.16101646
 31
0.0
  0
LINE
  5
19E
330
1F
100
AcDbEntity
  8
0
100
AcDbLine
 10
-308.2450433521
 20
50.16101646
 30
0.0
 11
-195.4306735399
 21
50.16101646
 31
0.0
  0
LINE
  5
19F
330
1F
100
AcDbEntity
  8
0
100
AcDbLine
 10
-430.2450433521
 20
50.16101646
 30
0.0
 11
-317.4306735399
 21
50.16101646
 31
0.0
  0
LINE
  5
1A0
330
1F
100
AcDbEntity
  8
0
100
AcDbLine
 10
-552.2450433521
 20
50.16101646
 30
0.0
 11
-439.4306735399
 21
50.16101646
 31
0.0
  0
LINE
  5
1A1
330
1F
100
AcDbEntity
  8
0
100
AcDbLine
 10
-674.2450433521
 20
50.16101646
 30
0.0
 11
-561.4306735399
 21
50.16101646
 31
0.0
  0
LINE
  5
1A2
330
1F
100
AcDbEntity
  8
0
100
AcDbLine
 10
-742.2451082184
 20
50.16101646
 30
0.0
 11
-737.5451082184
 21
50.16101646
 31
0.0
  0
LINE
  5
1A3
330
1F
100
AcDbEntity
  8
0
100
AcDbLine
 10
-726.9451082184
 20
50.16101646
 30
0.0
 11
-683.4306735399
 21
50.16101646
 31
0.0
  0
SPLINE
  5
1A4
330
1F
100
AcDbEntity
  8
0
100
AcDbSpline
210
0.0
220
0.0
230
1.0
 70
     8
 71
     3
 72
     9
 73
     5
 74
     0
 42
0.00000001
 43
0.00000001
 40
0.0
 40
0.0
 40
0.0
 40
0.0
 40
0.9194828204457411
 40
1.0
 40
1.0
 40
1.0
 40
1.0
 10
191.9745970922049
 20
417.5639160832849
 30
0.0
 10
191.8783672144907
 20
417.5620894675474
 30
0.0
 10
191.7737106884803
 20
417.5601028989059
 30
0.0
 10
191.6671648054997
 20
417.5146742469282
 30
0.0
 10
191.658586031509
 20
417.51101646
 30
0.0
  0
LINE
  5
1A5
330
1F
100
AcDbEntity
  8
0
100
AcDbLine
 10
192.6424099129
 20
417.6610164591
 30
0.0
 11
192.3209550076
 21
417.6142767273
 31
0.0
  0
LINE
  5
1A6
330
1F
100
AcDbEntity
  8
0
100
AcDbLine
 10
196.723066628
 20
417.6610164517
 30
0.0
 11
192.6426734091
 21
417.6610164517
 31
0.0
  0
LINE
  5
1A7
330
1F
100
AcDbEntity
  8
0
100
AcDbLine
 10
-779.276933372
 20
417.6610164517
 30
0.0
 11
-783.3573265909
 21
417.6610164517
 31
0.0
  0
LINE
  5
1A8
330
1F
100
AcDbEntity
  8
0
100
AcDbLine
 10
199.334476648
 20
416.3387140802
 30
0.0
 11
199.2565660333
 21
416.416048621
 31
0.0
  0
LINE
  5
1A9
330
1F
100
AcDbEntity
  8
0
100
AcDbLine
 10
-776.665523352
 20
416.3387140802
 30
0.0
 11
-776.7434339667
 21
416.416048621
 31
0.0
  0
LINE
  5
1AA
330
1F
100
AcDbEntity
  8
0
100
AcDbLine
 10
192.6549204349
 20
417.5610164598
 30
0.0
 11
192.3139954636
 21
417.51101646
 31
0.0
  0
LINE
  5
1AB
330
1F
100
AcDbEntity
  8
0
100
AcDbLine
 10
-779.3022149997
 20
417.56101646
 30
0.0
 11
-779.3185528496
 21
417.56101646
 31
0.0
  0
LINE
  5
1AC
330
1F
100
AcDbEntity
  8
0
100
AcDbLine
 10
-726.9451082184
 20
466.36101646
 30
0.0
 11
-734.4562187141
 21
466.36101646
 31
0.0
  0
LINE
  5
1AD
330
1F
100
AcDbEntity
  8
0
100
AcDbLine
 10
-726.9451082184
 20
467.36101646
 30
0.0
 11
-735.6037416753
 21
467.36101646
 31
0.0
  0
LINE
  5
1AE
330
1F
100
AcDbEntity
  8
0
100
AcDbLine
 10
-733.2451082184
 20
468.2282695006
 30
0.0
 11
-734.2071842477
 21
468.0001939812
 31
0.0
  0
SPLINE
  5
1AF
330
1F
100
AcDbEntity
  8
0
100
AcDbSpline
210
0.0
220
0.0
230
1.0
 70
     8
 71
     3
 72
    12
 73
     8
 74
     0
 42
0.00000001
 43
0.00000001
 40
0.0
 40
0.0
 40
0.0
 40
0.0
 40
0.2174770912066442
 40
0.4353705208257973
 40
0.649038872003342
 40
0.8610609605882531
 40
1.0
 40
1.0
 40
1.0
 40
1.0
 10
-732.7311559507519
 20
468.2282695005876
 30
0.0
 10
-732.7377645891236
 20
468.2372470661984
 30
0.0
 10
-732.7509945174521
 20
468.2552193840827
 30
0.0
 10
-732.8418825054082
 20
468.2668880128608
 30
0.0
 10
-732.9732203607573
 20
468.2639038654757
 30
0.0
 10
-733.1154450249269
 20
468.2490949536143
 30
0.0
 10
-733.2083348495693
 20
468.2341757415553
 30
0.0
 10
-733.2451082184054
 20
468.2282695005876
 30
0.0
  0
LINE
  5
1B0
330
1F
100
AcDbEntity
  8
0
100
AcDbLine
 10
-732.7071842477
 20
468.0001939812
 30
0.0
 11
-732.7311559508
 21
468.2282695006
 31
0.0
  0
LINE
  5
1B1
330
1F
100
AcDbEntity
  8
0
100
AcDbLine
 10
-731.7830321891
 20
468.0001939812
 30
0.0
 11
-732.7071842477
 21
468.0001939812
 31
0.0
  0
LINE
  5
1B2
330
1F
100
AcDbEntity
  8
0
100
AcDbLine
 10
-731.7590604861
 20
468.2282695006
 30
0.0
 11
-731.7830321891
 21
468.0001939812
 31
0.0
  0
SPLINE
  5
1B3
330
1F
100
AcDbEntity
  8
0
100
AcDbSpline
210
0.0
220
0.0
230
1.0
 70
     8
 71
     3
 72
    12
 73
     8
 74
     0
 42
0.00000001
 43
0.00000001
 40
0.0
 40
0.0
 40
0.0
 40
0.0
 40
0.2174770912066685
 40
0.4353705208257841
 40
0.6490388720033282
 40
0.8610609605882573
 40
0.9999999999999999
 40
0.9999999999999999
 40
0.9999999999999999
 40
0.9999999999999999
 10
-731.2451082184054
 20
468.2282695005876
 30
0.0
 10
-731.3028808585653
 20
468.2372470661984
 30
0.0
 10
-731.4185367388991
 20
468.2552193840826
 30
0.0
 10
-731.5726416019518
 20
468.2668880128608
 30
0.0
 10
-731.6878939236109
 20
468.2639038654756
 30
0.0
 10
-731.7486054685052
 20
468.2490949536143
 30
0.0
 10
-731.7560953715465
 20
468.2341757415554
 30
0.0
 10
-731.759060486059
 20
468.2282695005876
 30
0.0
  0
LINE
  5
1B4
330
1F
100
AcDbEntity
  8
0
100
AcDbLine
 10
-730.2830321891
 20
468.0001939812
 30
0.0
 11
-731.2451082184
 21
468.2282695006
 31
0.0
  0
LINE
  5
1B5
330
1F
100
AcDbEntity
  8
0
100
AcDbLine
 10
-732.2451082184
 20
50.16101646
 30
0.0
 11
-726.9451082184
 21
50.16101646
 31
0.0
  0
LINE
  5
1B6
330
1F
100
AcDbEntity
  8
0
100
AcDbLine
 10
-737.5451082184
 20
50.16101646
 30
0.0
 11
-732.2451082184
 21
50.16101646
 31
0.0
  0
LINE
  5
1B7
330
1F
100
AcDbEntity
  8
0
100
AcDbLine
 10
-732.2451082184
 20
49.16101646
 30
0.0
 11
-726.9451082184
 21
49.16101646
 31
0.0
  0
LINE
  5
1B8
330
1F
100
AcDbEntity
  8
0
100
AcDbLine
 10
-737.5451082184
 20
49.16101646
 30
0.0
 11
-732.2451082184
 21
49.16101646
 31
0.0
  0
LINE
  5
1B9
330
1F
100
AcDbEntity
  8
0
100
AcDbLine
 10
-734.2071842477
 20
48.5218389388
 30
0.0
 11
-733.2451082184
 21
48.2937634194
 31
0.0
  0
LINE
  5
1BA
330
1F
100
AcDbEntity
  8
0
100
AcDbLine
 10
-731.2451082184
 20
48.2937634194
 30
0.0
 11
-730.2830321891
 21
48.5218389388
 31
0.0
  0
SPLINE
  5
1BB
330
1F
100
AcDbEntity
  8
0
100
AcDbSpline
210
0.0
220
0.0
230
1.0
 70
     8
 71
     3
 72
    12
 73
     8
 74
     0
 42
0.00000001
 43
0.00000001
 40
0.0
 40
0.0
 40
0.0
 40
0.0
 40
0.2174770912066438
 40
0.4353705208257989
 40
0.6490388720033433
 40
0.8610609605882537
 40
1.0
 40
1.0
 40
1.0
 40
1.0
 10
-731.7590604860588
 20
48.29376341943365
 30
0.0
 10
-731.7524518476874
 20
48.28478585382282
 30
0.0
 10
-731.739221919359
 20
48.26681353593856
 30
0.0
 10
-731.6483339314026
 20
48.25514490716035
 30
0.0
 10
-731.5169960760536
 20
48.25812905454574
 30
0.0
 10
-731.3747714118841
 20
48.27293796640691
 30
0.0
 10
-731.2818815872415
 20
48.28785717846584
 30
0.0
 10
-731.2451082184054
 20
48.29376341943362
 30
0.0
  0
LINE
  5
1BC
330
1F
100
AcDbEntity
  8
0
100
AcDbLine
 10
-731.7830321891
 20
48.5218389388
 30
0.0
 11
-731.7590604861
 21
48.2937634194
 31
0.0
  0
LINE
  5
1BD
330
1F
100
AcDbEntity
  8
0
100
AcDbLine
 10
-732.7071842477
 20
48.5218389388
 30
0.0
 11
-731.7830321891
 21
48.5218389388
 31
0.0
  0
LINE
  5
1BE
330
1F
100
AcDbEntity
  8
0
100
AcDbLine
 10
-732.7311559508
 20
48.2937634194
 30
0.0
 11
-732.7071842477
 21
48.5218389388
 31
0.0
  0
SPLINE
  5
1BF
330
1F
100
AcDbEntity
  8
0
100
AcDbSpline
210
0.0
220
0.0
230
1.0
 70
     8
 71
     3
 72
    12
 73
     8
 74
     0
 42
0.00000001
 43
0.00000001
 40
0.0
 40
0.0
 40
0.0
 40
0.0
 40
0.2174770912067091
 40
0.4353705208258676
 40
0.6490388720034524
 40
0.8610609605884183
 40
0.9999999999999999
 40
0.9999999999999999
 40
0.9999999999999999
 40
0.9999999999999999
 10
-733.2451082184054
 20
48.29376341943362
 30
0.0
 10
-733.1873355782456
 20
48.28478585382279
 30
0.0
 10
-733.0716796979118
 20
48.26681353593851
 30
0.0
 10
-732.917574834859
 20
48.25514490716051
 30
0.0
 10
-732.8023225131998
 20
48.25812905454571
 30
0.0
 10
-732.7416109683058
 20
48.2729379664068
 30
0.0
 10
-732.734121065264
 20
48.28785717846593
 30
0.0
 10
-732.7311559507519
 20
48.29376341943362
 30
0.0
  0
LINE
  5
1C0
330
1F
100
AcDbEntity
  8
0
100
AcDbLine
 10
149.7169678109
 20
257.7989404307
 30
0.0
 11
148.7548917816
 21
257.7749687277
 31
0.0
  0
LINE
  5
1C1
330
1F
100
AcDbEntity
  8
0
100
AcDbLine
 10
149.7169678109
 20
258.7230924893
 30
0.0
 11
149.7169678109
 21
257.7989404307
 31
0.0
  0
LINE
  5
1C2
330
1F
100
AcDbEntity
  8
0
100
AcDbLine
 10
148.7548917816
 20
258.7470641923
 30
0.0
 11
149.7169678109
 21
258.7230924893
 31
0.0
  0
SPLINE
  5
1C3
330
1F
100
AcDbEntity
  8
0
100
AcDbSpline
210
0.0
220
0.0
230
1.0
 70
     8
 71
     3
 72
    12
 73
     8
 74
     0
 42
0.00000001
 43
0.00000001
 40
0.0
 40
0.0
 40
0.0
 40
0.0
 40
0.2174770912066439
 40
0.4353705208257988
 40
0.6490388720033432
 40
0.8610609605882535
 40
0.9999999999999999
 40
0.9999999999999999
 40
0.9999999999999999
 40
0.9999999999999999
 10
148.240939513941
 20
259.2610164600001
 30
0.0
 10
148.2475481523126
 20
259.2032438198401
 30
0.0
 10
148.2607780806411
 20
259.0875879395063
 30
0.0
 10
148.3516660685975
 20
258.9334830764539
 30
0.0
 10
148.4830039239461
 20
258.8182307547946
 30
0.0
 10
148.6252285881159
 20
258.7575192099005
 30
0.0
 10
148.7181184127585
 20
258.7500293068589
 30
0.0
 10
148.7548917815946
 20
258.7470641923466
 30
0.0
  0
LINE
  5
1C4
330
1F
100
AcDbEntity
  8
0
100
AcDbLine
 10
148.2169678109
 20
260.2230924893
 30
0.0
 11
148.2409395139
 21
259.26101646
 31
0.0
  0
LINE
  5
1C5
330
1F
100
AcDbEntity
  8
0
100
AcDbLine
 10
147.2928157523
 20
260.2230924893
 30
0.0
 11
148.2169678109
 21
260.2230924893
 31
0.0
  0
LINE
  5
1C6
330
1F
100
AcDbEntity
  8
0
100
AcDbLine
 10
147.2688440492
 20
259.26101646
 30
0.0
 11
147.2928157523
 21
260.2230924893
 31
0.0
  0
SPLINE
  5
1C7
330
1F
100
AcDbEntity
  8
0
100
AcDbSpline
210
0.0
220
0.0
230
1.0
 70
     8
 71
     3
 72
    10
 73
     6
 74
     0
 42
0.00000001
 43
0.00000001
 40
0.0
 40
0.0
 40
0.0
 40
0.0
 40
0.0740313826267851
 40
0.6334260977629577
 40
1.0
 40
1.0
 40
1.0
 40
1.0
 10
147.1754207903144
 20
258.9776305713148
 30
0.0
 10
147.1804816448106
 20
258.98320889587
 30
0.0
 10
147.223783244769
 20
259.0309380646314
 30
0.0
 10
147.2568855061779
 20
259.1325622082844
 30
0.0
 10
147.265452524612
 20
259.2245859553196
 30
0.0
 10
147.2688440492481
 20
259.2610164600001
 30
0.0
  0
LINE
  5
1C8
330
1F
100
AcDbEntity
  8
0
100
AcDbLine
 10
148.2169678109
 20
256.2989404307
 30
0.0
 11
147.6687869546
 21
256.2989404307
 31
0.0
  0
LINE
  5
1C9
330
1F
100
AcDbEntity
  8
0
100
AcDbLine
 10
148.2409395139
 20
257.26101646
 30
0.0
 11
148.2169678109
 21
256.2989404307
 31
0.0
  0
SPLINE
  5
1CA
330
1F
100
AcDbEntity
  8
0
100
AcDbSpline
210
0.0
220
0.0
230
1.0
 70
     8
 71
     3
 72
    12
 73
     8
 74
     0
 42
0.00000001
 43
0.00000001
 40
0.0
 40
0.0
 40
0.0
 40
0.0
 40
0.21747709120671
 40
0.4353705208258695
 40
0.6490388720034549
 40
0.8610609605884242
 40
1.0
 40
1.0
 40
1.0
 40
1.0
 10
148.7548917815946
 20
257.7749687276536
 30
0.0
 10
148.6971191414346
 20
257.7683600892821
 30
0.0
 10
148.5814632611008
 20
257.7551301609535
 30
0.0
 10
148.4273583980483
 20
257.6642421729973
 30
0.0
 10
148.3121060763889
 20
257.5329043176483
 30
0.0
 10
148.2513945314948
 20
257.3906796534788
 30
0.0
 10
148.2439046284534
 20
257.2977898288364
 30
0.0
 10
148.240939513941
 20
257.2610164600003
 30
0.0
  0
ARC
  5
1CB
330
1F
100
AcDbEntity
  8
0
100
AcDbCircle
 10
147.7548917816
 20
258.26101646
 30
0.0
 40
3.500000000000218
100
AcDbArc
 50
281.3101592926
 51
89.2980984124
  0
LINE
  5
1CC
330
1F
100
AcDbEntity
  8
0
100
AcDbLine
 10
148.1325789765
 20
260.1387036549
 30
0.0
 11
148.2169678109
 21
260.2230924893
 31
0.0
  0
LINE
  5
1CD
330
1F
100
AcDbEntity
  8
0
100
AcDbLine
 10
149.5446833111
 20
258.5508079895
 30
0.0
 11
149.7169678109
 21
258.7230924893
 31
0.0
  0
LINE
  5
1CE
330
1F
100
AcDbEntity
  8
0
100
AcDbLine
 10
149.2179422511
 20
258.5508079895
 30
0.0
 11
149.5446833111
 21
258.5508079895
 31
0.0
  0
LINE
  5
1CF
330
1F
100
AcDbEntity
  8
0
100
AcDbLine
 10
148.1659398085
 20
256.3499684331
 30
0.0
 11
148.2169678109
 21
256.2989404307
 31
0.0
  0
LINE
  5
1D0
330
1F
100
AcDbEntity
  8
0
100
AcDbLine
 10
149.5446833111
 20
257.9712249305
 30
0.0
 11
149.2718865047
 21
257.9712249305
 31
0.0
  0
LINE
  5
1D1
330
1F
100
AcDbEntity
  8
0
100
AcDbLine
 10
149.5446833111
 20
257.9712249305
 30
0.0
 11
149.7169678109
 21
257.7989404307
 31
0.0
  0
LINE
  5
1D2
330
1F
100
AcDbEntity
  8
0
100
AcDbLine
 10
149.5446833111
 20
258.5508079895
 30
0.0
 11
149.5446833111
 21
257.9712249305
 31
0.0
  0
LWPOLYLINE
  5
1D3
330
1F
100
AcDbEntity
  8
0
100
AcDbPolyline
 90
        3
 70
   128
 43
0.0
 10
142.3863628871
 20
257.065651449
 10
142.2548917816
 20
258.26101646
 10
142.2582926659
 20
258.4544025026
  0
ARC
  5
1D4
330
1F
100
AcDbEntity
  8
0
100
AcDbCircle
 10
147.7548917816
 20
258.26101646
 30
0.0
 40
5.5
100
AcDbArc
 50
280.7722444611
 51
90.0
  0
LINE
  5
1D5
330
1F
100
AcDbEntity
  8
0
100
AcDbLine
 10
142.4548917816
 20
50.16101646
 30
0.0
 11
153.0548917816
 21
50.16101646
 31
0.0
  0
LINE
  5
1D6
330
1F
100
AcDbEntity
  8
0
100
AcDbLine
 10
142.4548917816
 20
49.16101646
 30
0.0
 11
153.0548917816
 21
49.16101646
 31
0.0
  0
LINE
  5
1D7
330
1F
100
AcDbEntity
  8
0
100
AcDbLine
 10
148.7548917816
 20
48.2937634194
 30
0.0
 11
149.7169678109
 21
48.5218389388
 31
0.0
  0
SPLINE
  5
1D8
330
1F
100
AcDbEntity
  8
0
100
AcDbSpline
210
0.0
220
0.0
230
1.0
 70
     8
 71
     3
 72
    12
 73
     8
 74
     0
 42
0.00000001
 43
0.00000001
 40
0.0
 40
0.0
 40
0.0
 40
0.0
 40
0.217477091206644
 40
0.4353705208257991
 40
0.6490388720033435
 40
0.8610609605882537
 40
1.0
 40
1.0
 40
1.0
 40
1.0
 10
148.240939513941
 20
48.29376341943362
 30
0.0
 10
148.2475481523126
 20
48.28478585382282
 30
0.0
 10
148.2607780806412
 20
48.26681353593851
 30
0.0
 10
148.3516660685973
 20
48.2551449071604
 30
0.0
 10
148.4830039239463
 20
48.2581290545456
 30
0.0
 10
148.6252285881157
 20
48.27293796640697
 30
0.0
 10
148.7181184127585
 20
48.28785717846587
 30
0.0
 10
148.7548917815946
 20
48.29376341943362
 30
0.0
  0
LINE
  5
1D9
330
1F
100
AcDbEntity
  8
0
100
AcDbLine
 10
148.2169678109
 20
48.5218389388
 30
0.0
 11
148.2409395139
 21
48.2937634194
 31
0.0
  0
LINE
  5
1DA
330
1F
100
AcDbEntity
  8
0
100
AcDbLine
 10
147.2928157523
 20
48.5218389388
 30
0.0
 11
148.2169678109
 21
48.5218389388
 31
0.0
  0
LINE
  5
1DB
330
1F
100
AcDbEntity
  8
0
100
AcDbLine
 10
147.2688440492
 20
48.2937634194
 30
0.0
 11
147.2928157523
 21
48.5218389388
 31
0.0
  0
SPLINE
  5
1DC
330
1F
100
AcDbEntity
  8
0
100
AcDbSpline
210
0.0
220
0.0
230
1.0
 70
     8
 71
     3
 72
    12
 73
     8
 74
     0
 42
0.00000001
 43
0.00000001
 40
0.0
 40
0.0
 40
0.0
 40
0.0
 40
0.2174770912066672
 40
0.4353705208257837
 40
0.6490388720033273
 40
0.8610609605882523
 40
1.0
 40
1.0
 40
1.0
 40
1.0
 10
146.7548917815945
 20
48.29376341943365
 30
0.0
 10
146.8126644217546
 20
48.28478585382287
 30
0.0
 10
146.9283203020883
 20
48.26681353593862
 30
0.0
 10
147.0824251651409
 20
48.25514490716035
 30
0.0
 10
147.1976774867998
 20
48.25812905454574
 30
0.0
 10
147.2583890316942
 20
48.27293796640686
 30
0.0
 10
147.2658789347356
 20
48.28785717846596
 30
0.0
 10
147.2688440492481
 20
48.29376341943365
 30
0.0
  0
LINE
  5
1DD
330
1F
100
AcDbEntity
  8
0
100
AcDbLine
 10
145.7928157523
 20
48.5218389388
 30
0.0
 11
146.7548917816
 21
48.2937634194
 31
0.0
  0
LINE
  5
1DE
330
1F
100
AcDbEntity
  8
0
100
AcDbLine
 10
-734.2071842477
 20
258.7230924893
 30
0.0
 11
-733.2451082184
 21
258.7470641923
 31
0.0
  0
LINE
  5
1DF
330
1F
100
AcDbEntity
  8
0
100
AcDbLine
 10
-734.2071842477
 20
257.7989404307
 30
0.0
 11
-734.2071842477
 21
258.7230924893
 31
0.0
  0
LINE
  5
1E0
330
1F
100
AcDbEntity
  8
0
100
AcDbLine
 10
-733.2451082184
 20
257.7749687277
 30
0.0
 11
-734.2071842477
 21
257.7989404307
 31
0.0
  0
SPLINE
  5
1E1
330
1F
100
AcDbEntity
  8
0
100
AcDbSpline
210
0.0
220
0.0
230
1.0
 70
     8
 71
     3
 72
    12
 73
     8
 74
     0
 42
0.00000001
 43
0.00000001
 40
0.0
 40
0.0
 40
0.0
 40
0.0
 40
0.2174770912066427
 40
0.435370520825797
 40
0.6490388720033414
 40
0.8610609605882483
 40
1.0
 40
1.0
 40
1.0
 40
1.0
 10
-732.7311559507519
 20
257.2610164600001
 30
0.0
 10
-732.7377645891233
 20
257.3187891001601
 30
0.0
 10
-732.750994517452
 20
257.4344449804938
 30
0.0
 10
-732.8418825054084
 20
257.5885498435463
 30
0.0
 10
-732.9732203607571
 20
257.7038021652057
 30
0.0
 10
-733.1154450249268
 20
257.7645137100996
 30
0.0
 10
-733.2083348495694
 20
257.7720036131413
 30
0.0
 10
-733.2451082184053
 20
257.7749687276536
 30
0.0
  0
LINE
  5
1E2
330
1F
100
AcDbEntity
  8
0
100
AcDbLine
 10
-732.7071842477
 20
256.2989404307
 30
0.0
 11
-732.7311559508
 21
257.26101646
 31
0.0
  0
LINE
  5
1E3
330
1F
100
AcDbEntity
  8
0
100
AcDbLine
 10
-731.7830321891
 20
256.2989404307
 30
0.0
 11
-732.7071842477
 21
256.2989404307
 31
0.0
  0
LINE
  5
1E4
330
1F
100
AcDbEntity
  8
0
100
AcDbLine
 10
-731.7590604861
 20
257.26101646
 30
0.0
 11
-731.7830321891
 21
256.2989404307
 31
0.0
  0
SPLINE
  5
1E5
330
1F
100
AcDbEntity
  8
0
100
AcDbSpline
210
0.0
220
0.0
230
1.0
 70
     8
 71
     3
 72
    12
 73
     8
 74
     0
 42
0.00000001
 43
0.00000001
 40
0.0
 40
0.0
 40
0.0
 40
0.0
 40
0.2174770912066681
 40
0.4353705208257855
 40
0.6490388720033297
 40
0.8610609605882581
 40
0.9999999999999999
 40
0.9999999999999999
 40
0.9999999999999999
 40
0.9999999999999999
 10
-731.2451082184053
 20
257.7749687276536
 30
0.0
 10
-731.3028808585653
 20
257.7683600892821
 30
0.0
 10
-731.418536738899
 20
257.7551301609535
 30
0.0
 10
-731.5726416019518
 20
257.6642421729973
 30
0.0
 10
-731.6878939236107
 20
257.5329043176483
 30
0.0
 10
-731.748605468505
 20
257.3906796534787
 30
0.0
 10
-731.7560953715465
 20
257.2977898288362
 30
0.0
 10
-731.7590604860588
 20
257.2610164600001
 30
0.0
  0
LINE
  5
1E6
330
1F
100
AcDbEntity
  8
0
100
AcDbLine
 10
-730.2830321891
 20
257.7989404307
 30
0.0
 11
-731.2451082184
 21
257.7749687277
 31
0.0
  0
LINE
  5
1E7
330
1F
100
AcDbEntity
  8
0
100
AcDbLine
 10
-730.2830321891
 20
258.7230924893
 30
0.0
 11
-730.2830321891
 21
257.7989404307
 31
0.0
  0
LINE
  5
1E8
330
1F
100
AcDbEntity
  8
0
100
AcDbLine
 10
-731.2451082184
 20
258.7470641923
 30
0.0
 11
-730.2830321891
 21
258.7230924893
 31
0.0
  0
SPLINE
  5
1E9
330
1F
100
AcDbEntity
  8
0
100
AcDbSpline
210
0.0
220
0.0
230
1.0
 70
     8
 71
     3
 72
    12
 73
     8
 74
     0
 42
0.00000001
 43
0.00000001
 40
0.0
 40
0.0
 40
0.0
 40
0.0
 40
0.2174770912066437
 40
0.4353705208257987
 40
0.6490388720033432
 40
0.8610609605882535
 40
0.9999999999999999
 40
0.9999999999999999
 40
0.9999999999999999
 40
0.9999999999999999
 10
-731.7590604860588
 20
259.2610164600001
 30
0.0
 10
-731.7524518476874
 20
259.2032438198401
 30
0.0
 10
-731.7392219193588
 20
259.0875879395063
 30
0.0
 10
-731.6483339314026
 20
258.9334830764539
 30
0.0
 10
-731.5169960760536
 20
258.8182307547946
 30
0.0
 10
-731.3747714118841
 20
258.7575192099005
 30
0.0
 10
-731.2818815872415
 20
258.7500293068589
 30
0.0
 10
-731.2451082184054
 20
258.7470641923466
 30
0.0
  0
LINE
  5
1EA
330
1F
100
AcDbEntity
  8
0
100
AcDbLine
 10
-731.7830321891
 20
260.2230924893
 30
0.0
 11
-731.7590604861
 21
259.26101646
 31
0.0
  0
LINE
  5
1EB
330
1F
100
AcDbEntity
  8
0
100
AcDbLine
 10
-732.7071842477
 20
260.2230924893
 30
0.0
 11
-731.7830321891
 21
260.2230924893
 31
0.0
  0
LINE
  5
1EC
330
1F
100
AcDbEntity
  8
0
100
AcDbLine
 10
-732.7311559508
 20
259.26101646
 30
0.0
 11
-732.7071842477
 21
260.2230924893
 31
0.0
  0
SPLINE
  5
1ED
330
1F
100
AcDbEntity
  8
0
100
AcDbSpline
210
0.0
220
0.0
230
1.0
 70
     8
 71
     3
 72
    12
 73
     8
 74
     0
 42
0.00000001
 43
0.00000001
 40
0.0
 40
0.0
 40
0.0
 40
0.0
 40
0.2174770912067096
 40
0.4353705208258686
 40
0.6490388720034539
 40
0.8610609605884234
 40
1.0
 40
1.0
 40
1.0
 40
1.0
 10
-733.2451082184054
 20
258.7470641923466
 30
0.0
 10
-733.1873355782453
 20
258.7536728307181
 30
0.0
 10
-733.0716796979116
 20
258.7669027590467
 30
0.0
 10
-732.9175748348591
 20
258.8577907470029
 30
0.0
 10
-732.8023225131997
 20
258.9891286023518
 30
0.0
 10
-732.7416109683058
 20
259.1313532665214
 30
0.0
 10
-732.7341210652643
 20
259.2242430911639
 30
0.0
 10
-732.7311559507519
 20
259.26101646
 30
0.0
  0
CIRCLE
  5
1EE
330
1F
100
AcDbEntity
  8
0
100
AcDbCircle
 10
-732.2451082184
 20
258.26101646
 30
0.0
 40
3.5
  0
ARC
  5
1EF
330
1F
100
AcDbEntity
  8
0
100
AcDbCircle
 10
-731.2451082184
 20
257.26101646
 30
0.0
 40
0.7102084705314837
100
AcDbArc
 50
90.0
 51
180.0
  0
ARC
  5
1F0
330
1F
100
AcDbEntity
  8
0
100
AcDbCircle
 10
-733.2451082184
 20
257.26101646
 30
0.0
 40
0.71020847053137
100
AcDbArc
 50
0.0
 51
90.0
  0
ARC
  5
1F1
330
1F
100
AcDbEntity
  8
0
100
AcDbCircle
 10
-731.2451082184
 20
259.26101646
 30
0.0
 40
0.7102084705314837
100
AcDbArc
 50
180.0
 51
270.0
  0
ARC
  5
1F2
330
1F
100
AcDbEntity
  8
0
100
AcDbCircle
 10
-733.2451082184
 20
259.26101646
 30
0.0
 40
0.71020847053137
100
AcDbArc
 50
270.0
 51
0.0
  0
LINE
  5
1F3
330
1F
100
AcDbEntity
  8
0
100
AcDbLine
 10
-732.5348997479
 20
260.0508079895
 30
0.0
 11
-732.7071842477
 21
260.2230924893
 31
0.0
  0
LINE
  5
1F4
330
1F
100
AcDbEntity
  8
0
100
AcDbLine
 10
-732.5348997479
 20
259.26101646
 30
0.0
 11
-732.5348997479
 21
260.0508079895
 31
0.0
  0
LINE
  5
1F5
330
1F
100
AcDbEntity
  8
0
100
AcDbLine
 10
-731.9553166889
 20
260.0508079895
 30
0.0
 11
-731.9553166889
 21
259.26101646
 31
0.0
  0
LINE
  5
1F6
330
1F
100
AcDbEntity
  8
0
100
AcDbLine
 10
-731.9553166889
 20
260.0508079895
 30
0.0
 11
-731.7830321891
 21
260.2230924893
 31
0.0
  0
LINE
  5
1F7
330
1F
100
AcDbEntity
  8
0
100
AcDbLine
 10
-734.0348997479
 20
258.5508079895
 30
0.0
 11
-733.2451082184
 21
258.5508079895
 31
0.0
  0
LINE
  5
1F8
330
1F
100
AcDbEntity
  8
0
100
AcDbLine
 10
-734.0348997479
 20
258.5508079895
 30
0.0
 11
-734.2071842477
 21
258.7230924893
 31
0.0
  0
LINE
  5
1F9
330
1F
100
AcDbEntity
  8
0
100
AcDbLine
 10
-730.4553166889
 20
258.5508079895
 30
0.0
 11
-730.2830321891
 21
258.7230924893
 31
0.0
  0
LINE
  5
1FA
330
1F
100
AcDbEntity
  8
0
100
AcDbLine
 10
-731.2451082184
 20
258.5508079895
 30
0.0
 11
-730.4553166889
 21
258.5508079895
 31
0.0
  0
LINE
  5
1FB
330
1F
100
AcDbEntity
  8
0
100
AcDbLine
 10
-730.4553166889
 20
257.9712249305
 30
0.0
 11
-731.2451082184
 21
257.9712249305
 31
0.0
  0
LINE
  5
1FC
330
1F
100
AcDbEntity
  8
0
100
AcDbLine
 10
-730.4553166889
 20
257.9712249305
 30
0.0
 11
-730.2830321891
 21
257.7989404307
 31
0.0
  0
LINE
  5
1FD
330
1F
100
AcDbEntity
  8
0
100
AcDbLine
 10
-731.9553166889
 20
256.4712249305
 30
0.0
 11
-731.7830321891
 21
256.2989404307
 31
0.0
  0
LINE
  5
1FE
330
1F
100
AcDbEntity
  8
0
100
AcDbLine
 10
-731.9553166889
 20
257.26101646
 30
0.0
 11
-731.9553166889
 21
256.4712249305
 31
0.0
  0
LINE
  5
1FF
330
1F
100
AcDbEntity
  8
0
100
AcDbLine
 10
-732.5348997479
 20
256.4712249305
 30
0.0
 11
-732.5348997479
 21
257.26101646
 31
0.0
  0
LINE
  5
200
330
1F
100
AcDbEntity
  8
0
100
AcDbLine
 10
-732.5348997479
 20
256.4712249305
 30
0.0
 11
-732.7071842477
 21
256.2989404307
 31
0.0
  0
LINE
  5
201
330
1F
100
AcDbEntity
  8
0
100
AcDbLine
 10
-734.0348997479
 20
257.9712249305
 30
0.0
 11
-734.2071842477
 21
257.7989404307
 31
0.0
  0
LINE
  5
202
330
1F
100
AcDbEntity
  8
0
100
AcDbLine
 10
-733.2451082184
 20
257.9712249305
 30
0.0
 11
-734.0348997479
 21
257.9712249305
 31
0.0
  0
LINE
  5
203
330
1F
100
AcDbEntity
  8
0
100
AcDbLine
 10
-732.5348997479
 20
260.0508079895
 30
0.0
 11
-731.9553166889
 21
260.0508079895
 31
0.0
  0
LINE
  5
204
330
1F
100
AcDbEntity
  8
0
100
AcDbLine
 10
-734.0348997479
 20
257.9712249305
 30
0.0
 11
-734.0348997479
 21
258.5508079895
 31
0.0
  0
LINE
  5
205
330
1F
100
AcDbEntity
  8
0
100
AcDbLine
 10
-730.4553166889
 20
258.5508079895
 30
0.0
 11
-730.4553166889
 21
257.9712249305
 31
0.0
  0
LINE
  5
206
330
1F
100
AcDbEntity
  8
0
100
AcDbLine
 10
-731.9553166889
 20
256.4712249305
 30
0.0
 11
-732.5348997479
 21
256.4712249305
 31
0.0
  0
CIRCLE
  5
207
330
1F
100
AcDbEntity
  8
0
100
AcDbCircle
 10
-732.2451082184
 20
258.26101646
 30
0.0
 40
5.5
  0
LINE
  5
208
330
1F
100
AcDbEntity
  8
0
100
AcDbLine
 10
147.7548917816
 20
467.36101646
 30
0.0
 11
142.4548917816
 21
467.36101646
 31
0.0
  0
LINE
  5
209
330
1F
100
AcDbEntity
  8
0
100
AcDbLine
 10
153.0548917816
 20
467.36101646
 30
0.0
 11
147.7548917816
 21
467.36101646
 31
0.0
  0
LINE
  5
20A
330
1F
100
AcDbEntity
  8
0
100
AcDbLine
 10
147.7548917816
 20
466.36101646
 30
0.0
 11
142.4548917816
 21
466.36101646
 31
0.0
  0
LINE
  5
20B
330
1F
100
AcDbEntity
  8
0
100
AcDbLine
 10
153.0548917816
 20
466.36101646
 30
0.0
 11
147.7548917816
 21
466.36101646
 31
0.0
  0
LINE
  5
20C
330
1F
100
AcDbEntity
  8
0
100
AcDbLine
 10
149.7169678109
 20
468.0001939812
 30
0.0
 11
148.7548917816
 21
468.2282695006
 31
0.0
  0
LINE
  5
20D
330
1F
100
AcDbEntity
  8
0
100
AcDbLine
 10
146.7548917816
 20
468.2282695006
 30
0.0
 11
145.7928157523
 21
468.0001939812
 31
0.0
  0
SPLINE
  5
20E
330
1F
100
AcDbEntity
  8
0
100
AcDbSpline
210
0.0
220
0.0
230
1.0
 70
     8
 71
     3
 72
    12
 73
     8
 74
     0
 42
0.00000001
 43
0.00000001
 40
0.0
 40
0.0
 40
0.0
 40
0.0
 40
0.2174770912066465
 40
0.4353705208257976
 40
0.6490388720033402
 40
0.8610609605882492
 40
1.0
 40
1.0
 40
1.0
 40
1.0
 10
147.2688440492481
 20
468.2282695005878
 30
0.0
 10
147.2622354108765
 20
468.2372470661986
 30
0.0
 10
147.249005482548
 20
468.2552193840829
 30
0.0
 10
147.1581174945917
 20
468.266888012861
 30
0.0
 10
147.0267796392428
 20
468.2639038654758
 30
0.0
 10
146.8845549750732
 20
468.2490949536145
 30
0.0
 10
146.7916651504307
 20
468.2341757415556
 30
0.0
 10
146.7548917815946
 20
468.2282695005878
 30
0.0
  0
LINE
  5
20F
330
1F
100
AcDbEntity
  8
0
100
AcDbLine
 10
147.2928157523
 20
468.0001939812
 30
0.0
 11
147.2688440492
 21
468.2282695006
 31
0.0
  0
LINE
  5
210
330
1F
100
AcDbEntity
  8
0
100
AcDbLine
 10
148.2169678109
 20
468.0001939812
 30
0.0
 11
147.2928157523
 21
468.0001939812
 31
0.0
  0
LINE
  5
211
330
1F
100
AcDbEntity
  8
0
100
AcDbLine
 10
148.2409395139
 20
468.2282695006
 30
0.0
 11
148.2169678109
 21
468.0001939812
 31
0.0
  0
SPLINE
  5
212
330
1F
100
AcDbEntity
  8
0
100
AcDbSpline
210
0.0
220
0.0
230
1.0
 70
     8
 71
     3
 72
    12
 73
     8
 74
     0
 42
0.00000001
 43
0.00000001
 40
0.0
 40
0.0
 40
0.0
 40
0.0
 40
0.2174770912067142
 40
0.4353705208258708
 40
0.6490388720034551
 40
0.861060960588424
 40
1.0
 40
1.0
 40
1.0
 40
1.0
 10
148.7548917815946
 20
468.2282695005878
 30
0.0
 10
148.6971191414346
 20
468.2372470661986
 30
0.0
 10
148.5814632611007
 20
468.2552193840829
 30
0.0
 10
148.4273583980484
 20
468.2668880128611
 30
0.0
 10
148.3121060763891
 20
468.2639038654758
 30
0.0
 10
148.251394531495
 20
468.2490949536146
 30
0.0
 10
148.2439046284534
 20
468.2341757415556
 30
0.0
 10
148.240939513941
 20
468.2282695005879
 30
0.0
  0
LINE
  5
213
330
1F
100
AcDbEntity
  8
0
100
AcDbLine
 10
-825.3799917849
 20
270.9303406266
 30
0.0
 11
-825.3799917849
 21
422.66101646
 31
0.0
  0
LINE
  5
214
330
1F
100
AcDbEntity
  8
0
100
AcDbLine
 10
-825.3799917849
 20
93.86101646
 30
0.0
 11
-825.3799917849
 21
270.9303406266
 31
0.0
  0
LINE
  5
215
330
1F
100
AcDbEntity
  8
0
100
AcDbLine
 10
-829.5799917849
 20
270.9303406266
 30
0.0
 11
-829.5799917849
 21
422.66101646
 31
0.0
  0
LINE
  5
216
330
1F
100
AcDbEntity
  8
0
100
AcDbLine
 10
-829.5799917849
 20
93.86101646
 30
0.0
 11
-829.5799917849
 21
270.9303406266
 31
0.0
  0
LINE
  5
217
330
1F
100
AcDbEntity
  8
0
100
AcDbLine
 10
240.8897753481
 20
422.66101646
 30
0.0
 11
240.8897753481
 21
93.86101646
 31
0.0
  0
LINE
  5
218
330
1F
100
AcDbEntity
  8
0
100
AcDbLine
 10
245.0897753481
 20
422.66101646
 30
0.0
 11
245.0897753481
 21
93.86101646
 31
0.0
  0
LINE
  5
219
330
1F
100
AcDbEntity
  8
0
100
AcDbLine
 10
200.6675321617
 20
417.51101646
 30
0.0
 11
200.6675321617
 21
99.01101646
 31
0.0
  0
LINE
  5
21A
330
1F
100
AcDbEntity
  8
0
100
AcDbLine
 10
202.1397753481
 20
414.96101646
 30
0.0
 11
202.1397753481
 21
101.56101646
 31
0.0
  0
LINE
  5
21B
330
1F
100
AcDbEntity
  8
0
100
AcDbLine
 10
235.4805976712
 20
414.96101646
 30
0.0
 11
235.4805976712
 21
101.56101646
 31
0.0
  0
LINE
  5
21C
330
1F
100
AcDbEntity
  8
0
100
AcDbLine
 10
249.1397753481
 20
414.96101646
 30
0.0
 11
249.1397753481
 21
101.56101646
 31
0.0
  0
LINE
  5
21D
330
1F
100
AcDbEntity
  8
0
100
AcDbLine
 10
254.1397753481
 20
102.86101646
 30
0.0
 11
254.1397753481
 21
413.66101646
 31
0.0
  0
LINE
  5
21E
330
1F
100
AcDbEntity
  8
0
100
AcDbLine
 10
-785.1577485985
 20
99.01101646
 30
0.0
 11
-785.1577485985
 21
417.51101646
 31
0.0
  0
LINE
  5
21F
330
1F
100
AcDbEntity
  8
0
100
AcDbLine
 10
-786.6299917849
 20
101.56101646
 30
0.0
 11
-786.6299917849
 21
414.96101646
 31
0.0
  0
LINE
  5
220
330
1F
100
AcDbEntity
  8
0
100
AcDbLine
 10
-819.970814108
 20
101.56101646
 30
0.0
 11
-819.970814108
 21
414.96101646
 31
0.0
  0
LINE
  5
221
330
1F
100
AcDbEntity
  8
0
100
AcDbLine
 10
-833.6299917849
 20
101.56101646
 30
0.0
 11
-833.6299917849
 21
414.96101646
 31
0.0
  0
LINE
  5
222
330
1F
100
AcDbEntity
  8
0
100
AcDbLine
 10
-838.6299917849
 20
102.86101646
 30
0.0
 11
-838.6299917849
 21
413.6610164581
 31
0.0
  0
SPLINE
  5
223
330
1F
100
AcDbEntity
  8
0
100
AcDbSpline
210
0.0
220
0.0
230
1.0
 70
    24
 71
     3
 72
    10
 73
     6
 74
     0
 42
0.00000001
 43
0.00000001
 40
0.0
 40
0.0
 40
0.0
 40
0.0
 40
0.2108548865661078
 40
0.6051786219462919
 40
1.0
 40
1.0
 40
1.0
 40
1.0
 10
157.7548917815944
 20
150.3440308247795
 30
0.0
 10
157.7548917815944
 20
150.2233473808706
 30
0.0
 10
157.7548917815945
 20
149.8769715322196
 30
0.0
 10
157.7548917815944
 20
149.317442702305
 30
0.0
 10
157.7548917815945
 20
148.8851647497551
 30
0.0
 10
157.7548917815946
 20
148.668889474115
 30
0.0
  0
SPLINE
  5
224
330
1F
100
AcDbEntity
  8
0
100
AcDbSpline
210
0.0
220
0.0
230
1.0
 70
     8
 71
     3
 72
     9
 73
     5
 74
     0
 42
0.00000001
 43
0.00000001
 40
0.0
 40
0.0
 40
0.0
 40
0.0
 40
0.7931959723240974
 40
1.0
 40
1.0
 40
1.0
 40
1.0
 10
-737.4021501332537
 20
468.3110164600027
 30
0.0
 10
-736.9280646401118
 20
468.2717756505972
 30
0.0
 10
-736.3303743974934
 20
468.2223038797173
 30
0.0
 10
-735.7317729464323
 20
467.4635708355336
 30
0.0
 10
-735.6079797553803
 20
467.3066617860657
 30
0.0
  0
SPLINE
  5
225
330
1F
100
AcDbEntity
  8
0
100
AcDbSpline
210
0.0
220
0.0
230
1.0
 70
     8
 71
     3
 72
     9
 73
     5
 74
     0
 42
0.00000001
 43
0.00000001
 40
0.0
 40
0.0
 40
0.0
 40
0.0
 40
0.9973550642321677
 40
1.0
 40
1.0
 40
1.0
 40
1.0
 10
-676.4021501332539
 20
48.2110164600007
 30
0.0
 10
-675.9281138265853
 20
48.21197177866426
 30
0.0
 10
-675.4528203993307
 20
48.21292963078525
 30
0.0
 10
-674.9768022884743
 20
48.77796261068779
 30
0.0
 10
-674.9755432511467
 20
48.77945708662637
 30
0.0
  0
SPLINE
  5
226
330
1F
100
AcDbEntity
  8
0
100
AcDbSpline
210
0.0
220
0.0
230
1.0
 70
     8
 71
     3
 72
     9
 73
     5
 74
     0
 42
0.00000001
 43
0.00000001
 40
0.0
 40
0.0
 40
0.0
 40
0.0
 40
0.7931959723240906
 40
1.0
 40
1.0
 40
1.0
 40
1.0
 10
-615.402150133254
 20
468.3110164600027
 30
0.0
 10
-614.9280646401119
 20
468.2717756505971
 30
0.0
 10
-614.3303743974938
 20
468.2223038797173
 30
0.0
 10
-613.7317729464327
 20
467.4635708355336
 30
0.0
 10
-613.6079797553805
 20
467.3066617860656
 30
0.0
  0
SPLINE
  5
227
330
1F
100
AcDbEntity
  8
0
100
AcDbSpline
210
0.0
220
0.0
230
1.0
 70
     8
 71
     3
 72
     9
 73
     5
 74
     0
 42
0.00000001
 43
0.00000001
 40
0.0
 40
0.0
 40
0.0
 40
0.0
 40
0.9973550642321467
 40
1.0
 40
1.0
 40
1.0
 40
1.0
 10
-554.4021501332542
 20
48.2110164600007
 30
0.0
 10
-553.9281138265837
 20
48.21197177866254
 30
0.0
 10
-553.452820399327
 20
48.21292963078172
 30
0.0
 10
-552.9768022884745
 20
48.77796261068782
 30
0.0
 10
-552.975543251147
 20
48.7794570866264
 30
0.0
  0
SPLINE
  5
228
330
1F
100
AcDbEntity
  8
0
100
AcDbSpline
210
0.0
220
0.0
230
1.0
 70
     8
 71
     3
 72
     9
 73
     5
 74
     0
 42
0.00000001
 43
0.00000001
 40
0.0
 40
0.0
 40
0.0
 40
0.0
 40
0.7931959723240772
 40
1.0
 40
1.0
 40
1.0
 40
1.0
 10
-493.4021501332544
 20
468.3110164600027
 30
0.0
 10
-492.9280646401123
 20
468.2717756505972
 30
0.0
 10
-492.3303743974942
 20
468.2223038797173
 30
0.0
 10
-491.7317729464328
 20
467.4635708355336
 30
0.0
 10
-491.6079797553807
 20
467.3066617860656
 30
0.0
  0
SPLINE
  5
229
330
1F
100
AcDbEntity
  8
0
100
AcDbSpline
210
0.0
220
0.0
230
1.0
 70
     8
 71
     3
 72
     9
 73
     5
 74
     0
 42
0.00000001
 43
0.00000001
 40
0.0
 40
0.0
 40
0.0
 40
0.0
 40
0.9973550642321459
 40
1.0
 40
1.0
 40
1.0
 40
1.0
 10
-432.4021501332545
 20
48.21101646000067
 30
0.0
 10
-431.9281138265881
 20
48.21197177866441
 30
0.0
 10
-431.4528203993358
 20
48.21292963078547
 30
0.0
 10
-430.9768022884749
 20
48.77796261068779
 30
0.0
 10
-430.9755432511473
 20
48.7794570866264
 30
0.0
  0
SPLINE
  5
22A
330
1F
100
AcDbEntity
  8
0
100
AcDbSpline
210
0.0
220
0.0
230
1.0
 70
     8
 71
     3
 72
     9
 73
     5
 74
     0
 42
0.00000001
 43
0.00000001
 40
0.0
 40
0.0
 40
0.0
 40
0.0
 40
0.793195972324104
 40
0.9999999999999999
 40
0.9999999999999999
 40
0.9999999999999999
 40
0.9999999999999999
 10
-371.4021501332546
 20
468.3110164600027
 30
0.0
 10
-370.9280646401124
 20
468.2717756505971
 30
0.0
 10
-370.3303743974943
 20
468.2223038797172
 30
0.0
 10
-369.7317729464332
 20
467.4635708355336
 30
0.0
 10
-369.6079797553811
 20
467.3066617860657
 30
0.0
  0
SPLINE
  5
22B
330
1F
100
AcDbEntity
  8
0
100
AcDbSpline
210
0.0
220
0.0
230
1.0
 70
     8
 71
     3
 72
     9
 73
     5
 74
     0
 42
0.00000001
 43
0.00000001
 40
0.0
 40
0.0
 40
0.0
 40
0.0
 40
0.9973550642321467
 40
1.0
 40
1.0
 40
1.0
 40
1.0
 10
-310.4021501332548
 20
48.2110164600007
 30
0.0
 10
-309.9281138265872
 20
48.21197177866254
 30
0.0
 10
-309.4528203993335
 20
48.21292963078172
 30
0.0
 10
-308.9768022884751
 20
48.77796261068782
 30
0.0
 10
-308.9755432511475
 20
48.7794570866264
 30
0.0
  0
SPLINE
  5
22C
330
1F
100
AcDbEntity
  8
0
100
AcDbSpline
210
0.0
220
0.0
230
1.0
 70
     8
 71
     3
 72
     9
 73
     5
 74
     0
 42
0.00000001
 43
0.00000001
 40
0.0
 40
0.0
 40
0.0
 40
0.0
 40
0.7931959723240973
 40
1.0
 40
1.0
 40
1.0
 40
1.0
 10
-249.4021501332549
 20
468.3110164600027
 30
0.0
 10
-248.9280646401128
 20
468.2717756505971
 30
0.0
 10
-248.3303743974945
 20
468.2223038797173
 30
0.0
 10
-247.7317729464334
 20
467.4635708355336
 30
0.0
 10
-247.6079797553814
 20
467.3066617860657
 30
0.0
  0
SPLINE
  5
22D
330
1F
100
AcDbEntity
  8
0
100
AcDbSpline
210
0.0
220
0.0
230
1.0
 70
     8
 71
     3
 72
     9
 73
     5
 74
     0
 42
0.00000001
 43
0.00000001
 40
0.0
 40
0.0
 40
0.0
 40
0.0
 40
0.9973550642321461
 40
1.0
 40
1.0
 40
1.0
 40
1.0
 10
-188.402150133255
 20
48.21101646000067
 30
0.0
 10
-187.9281138265891
 20
48.2119717786608
 30
0.0
 10
-187.4528203993372
 20
48.21292963077833
 30
0.0
 10
-186.9768022884754
 20
48.77796261068782
 30
0.0
 10
-186.9755432511479
 20
48.77945708662643
 30
0.0
  0
SPLINE
  5
22E
330
1F
100
AcDbEntity
  8
0
100
AcDbSpline
210
0.0
220
0.0
230
1.0
 70
     8
 71
     3
 72
     9
 73
     5
 74
     0
 42
0.00000001
 43
0.00000001
 40
0.0
 40
0.0
 40
0.0
 40
0.0
 40
0.7931959723240972
 40
1.0
 40
1.0
 40
1.0
 40
1.0
 10
-127.4021501332552
 20
468.3110164600027
 30
0.0
 10
-126.928064640113
 20
468.2717756505971
 30
0.0
 10
-126.3303743974949
 20
468.2223038797173
 30
0.0
 10
-125.7317729464338
 20
467.4635708355337
 30
0.0
 10
-125.6079797553817
 20
467.3066617860657
 30
0.0
  0
SPLINE
  5
22F
330
1F
100
AcDbEntity
  8
0
100
AcDbSpline
210
0.0
220
0.0
230
1.0
 70
     8
 71
     3
 72
     9
 73
     5
 74
     0
 42
0.00000001
 43
0.00000001
 40
0.0
 40
0.0
 40
0.0
 40
0.0
 40
0.9973550642321461
 40
1.0
 40
1.0
 40
1.0
 40
1.0
 10
-66.40215013325532
 20
48.21101646000067
 30
0.0
 10
-65.92811382658864
 20
48.2119717786608
 30
0.0
 10
-65.45282039933609
 20
48.21292963077833
 30
0.0
 10
-64.97680228847571
 20
48.77796261068782
 30
0.0
 10
-64.97554325114818
 20
48.77945708662643
 30
0.0
  0
SPLINE
  5
230
330
1F
100
AcDbEntity
  8
0
100
AcDbSpline
210
0.0
220
0.0
230
1.0
 70
     8
 71
     3
 72
     9
 73
     5
 74
     0
 42
0.00000001
 43
0.00000001
 40
0.0
 40
0.0
 40
0.0
 40
0.0
 40
0.7931959723241114
 40
1.0
 40
1.0
 40
1.0
 40
1.0
 10
-5.402150133255512
 20
468.3110164600027
 30
0.0
 10
-4.92806464011325
 20
468.2717756505971
 30
0.0
 10
-4.330374397495063
 20
468.2223038797173
 30
0.0
 10
-3.731772946434064
 20
467.4635708355337
 30
0.0
 10
-3.607979755381963
 20
467.3066617860657
 30
0.0
  0
SPLINE
  5
231
330
1F
100
AcDbEntity
  8
0
100
AcDbSpline
210
0.0
220
0.0
230
1.0
 70
     8
 71
     3
 72
     9
 73
     5
 74
     0
 42
0.00000001
 43
0.00000001
 40
0.0
 40
0.0
 40
0.0
 40
0.0
 40
0.9973550642321461
 40
1.0
 40
1.0
 40
1.0
 40
1.0
 10
55.59784986674449
 20
48.21101646000067
 30
0.0
 10
56.07188617340009
 20
48.2119717786608
 30
0.0
 10
56.54717960064143
 20
48.21292963077833
 30
0.0
 10
57.02319771152414
 20
48.77796261068782
 30
0.0
 10
57.02445674885159
 20
48.77945708662643
 30
0.0
  0
SPLINE
  5
232
330
1F
100
AcDbEntity
  8
0
100
AcDbSpline
210
0.0
220
0.0
230
1.0
 70
     8
 71
     3
 72
     9
 73
     5
 74
     0
 42
0.00000001
 43
0.00000001
 40
0.0
 40
0.0
 40
0.0
 40
0.0
 40
0.7931959723240972
 40
1.0
 40
1.0
 40
1.0
 40
1.0
 10
116.5978498667444
 20
468.3110164600027
 30
0.0
 10
117.0719353598865
 20
468.2717756505971
 30
0.0
 10
117.6696256025046
 20
468.2223038797173
 30
0.0
 10
118.2682270535658
 20
467.4635708355337
 30
0.0
 10
118.3920202446178
 20
467.3066617860657
 30
0.0
  0
SPLINE
  5
233
330
1F
100
AcDbEntity
  8
0
100
AcDbSpline
210
0.0
220
0.0
230
1.0
 70
     8
 71
     3
 72
     9
 73
     5
 74
     0
 42
0.00000001
 43
0.00000001
 40
0.0
 40
0.0
 40
0.0
 40
0.0
 40
0.3189839786109273
 40
1.0
 40
1.0
 40
1.0
 40
1.0
 10
-735.9755432511465
 20
467.7425758333771
 30
0.0
 10
-735.9178860657407
 20
467.726997438435
 30
0.0
 10
-735.7371334597422
 20
467.6781598917661
 30
0.0
 10
-735.556105355446
 20
467.4149550259207
 30
0.0
 10
-735.4328223160987
 20
467.2357082953724
 30
0.0
  0
SPLINE
  5
234
330
1F
100
AcDbEntity
  8
0
100
AcDbSpline
210
0.0
220
0.0
230
1.0
 70
     8
 71
     3
 72
    10
 73
     6
 74
     0
 42
0.00000001
 43
0.00000001
 40
0.0
 40
0.0
 40
0.0
 40
0.0
 40
0.0007066051731214
 40
0.7940575305653227
 40
1.0
 40
1.0
 40
1.0
 40
1.0
 10
-676.2266405579988
 20
48.28471318647465
 30
0.0
 10
-676.2262181845824
 20
48.28455527231279
 30
0.0
 10
-675.7515700997874
 20
48.10709700538845
 30
0.0
 10
-675.1541507621873
 20
48.39366978396325
 30
0.0
 10
-674.5560779923243
 20
49.13379386472655
 30
0.0
 10
-674.4328223160989
 20
49.28632462463101
 30
0.0
  0
SPLINE
  5
235
330
1F
100
AcDbEntity
  8
0
100
AcDbSpline
210
0.0
220
0.0
230
1.0
 70
     8
 71
     3
 72
     9
 73
     5
 74
     0
 42
0.00000001
 43
0.00000001
 40
0.0
 40
0.0
 40
0.0
 40
0.0
 40
0.3189839786109459
 40
1.0
 40
1.0
 40
1.0
 40
1.0
 10
-613.9755432511469
 20
467.742575833377
 30
0.0
 10
-613.9178860657411
 20
467.7269974384349
 30
0.0
 10
-613.7371334597424
 20
467.6781598917661
 30
0.0
 10
-613.5561053554463
 20
467.4149550259207
 30
0.0
 10
-613.432822316099
 20
467.2357082953724
 30
0.0
  0
SPLINE
  5
236
330
1F
100
AcDbEntity
  8
0
100
AcDbSpline
210
0.0
220
0.0
230
1.0
 70
     8
 71
     3
 72
    10
 73
     6
 74
     0
 42
0.00000001
 43
0.00000001
 40
0.0
 40
0.0
 40
0.0
 40
0.0
 40
0.0007066051731041
 40
0.7940575305653262
 40
1.0
 40
1.0
 40
1.0
 40
1.0
 10
-554.2266405579992
 20
48.28471318647465
 30
0.0
 10
-554.2262181845826
 20
48.28455527231274
 30
0.0
 10
-553.7515700998152
 20
48.10709700538474
 30
0.0
 10
-553.1541507621848
 20
48.3936697839637
 30
0.0
 10
-552.5560779923242
 20
49.13379386472658
 30
0.0
 10
-552.4328223160991
 20
49.28632462463098
 30
0.0
  0
SPLINE
  5
237
330
1F
100
AcDbEntity
  8
0
100
AcDbSpline
210
0.0
220
0.0
230
1.0
 70
     8
 71
     3
 72
     9
 73
     5
 74
     0
 42
0.00000001
 43
0.00000001
 40
0.0
 40
0.0
 40
0.0
 40
0.0
 40
0.3189839786109084
 40
1.0
 40
1.0
 40
1.0
 40
1.0
 10
-491.9755432511471
 20
467.742575833377
 30
0.0
 10
-491.9178860657414
 20
467.726997438435
 30
0.0
 10
-491.7371334597426
 20
467.6781598917661
 30
0.0
 10
-491.5561053554466
 20
467.4149550259207
 30
0.0
 10
-491.4328223160993
 20
467.2357082953724
 30
0.0
  0
SPLINE
  5
238
330
1F
100
AcDbEntity
  8
0
100
AcDbSpline
210
0.0
220
0.0
230
1.0
 70
     8
 71
     3
 72
    10
 73
     6
 74
     0
 42
0.00000001
 43
0.00000001
 40
0.0
 40
0.0
 40
0.0
 40
0.0
 40
0.0007066051731044
 40
0.7940575305653121
 40
1.0
 40
1.0
 40
1.0
 40
1.0
 10
-432.2266405579994
 20
48.28471318647465
 30
0.0
 10
-432.2262181845828
 20
48.28455527231279
 30
0.0
 10
-431.7515700997984
 20
48.1070970053899
 30
0.0
 10
-431.1541507621868
 20
48.3936697839632
 30
0.0
 10
-430.5560779923248
 20
49.13379386472649
 30
0.0
 10
-430.4328223160994
 20
49.28632462463104
 30
0.0
  0
SPLINE
  5
239
330
1F
100
AcDbEntity
  8
0
100
AcDbSpline
210
0.0
220
0.0
230
1.0
 70
     8
 71
     3
 72
     9
 73
     5
 74
     0
 42
0.00000001
 43
0.00000001
 40
0.0
 40
0.0
 40
0.0
 40
0.0
 40
0.3189839786109084
 40
1.0
 40
1.0
 40
1.0
 40
1.0
 10
-369.9755432511474
 20
467.742575833377
 30
0.0
 10
-369.9178860657416
 20
467.726997438435
 30
0.0
 10
-369.7371334597428
 20
467.6781598917661
 30
0.0
 10
-369.5561053554468
 20
467.4149550259207
 30
0.0
 10
-369.4328223160996
 20
467.2357082953724
 30
0.0
  0
SPLINE
  5
23A
330
1F
100
AcDbEntity
  8
0
100
AcDbSpline
210
0.0
220
0.0
230
1.0
 70
     8
 71
     3
 72
    10
 73
     6
 74
     0
 42
0.00000001
 43
0.00000001
 40
0.0
 40
0.0
 40
0.0
 40
0.0
 40
0.0007066051731041
 40
0.7940575305653259
 40
0.9999999999999999
 40
0.9999999999999999
 40
0.9999999999999999
 40
0.9999999999999999
 10
-310.2266405579997
 20
48.28471318647465
 30
0.0
 10
-310.2262181845832
 20
48.28455527231274
 30
0.0
 10
-309.7515700998148
 20
48.10709700538468
 30
0.0
 10
-309.1541507621855
 20
48.39366978396384
 30
0.0
 10
-308.5560779923248
 20
49.13379386472655
 30
0.0
 10
-308.4328223160996
 20
49.28632462463095
 30
0.0
  0
SPLINE
  5
23B
330
1F
100
AcDbEntity
  8
0
100
AcDbSpline
210
0.0
220
0.0
230
1.0
 70
     8
 71
     3
 72
     9
 73
     5
 74
     0
 42
0.00000001
 43
0.00000001
 40
0.0
 40
0.0
 40
0.0
 40
0.0
 40
0.3189839786109444
 40
1.0
 40
1.0
 40
1.0
 40
1.0
 10
-247.9755432511477
 20
467.742575833377
 30
0.0
 10
-247.9178860657419
 20
467.726997438435
 30
0.0
 10
-247.7371334597432
 20
467.6781598917661
 30
0.0
 10
-247.5561053554472
 20
467.4149550259208
 30
0.0
 10
-247.4328223160999
 20
467.2357082953725
 30
0.0
  0
SPLINE
  5
23C
330
1F
100
AcDbEntity
  8
0
100
AcDbSpline
210
0.0
220
0.0
230
1.0
 70
     8
 71
     3
 72
    10
 73
     6
 74
     0
 42
0.00000001
 43
0.00000001
 40
0.0
 40
0.0
 40
0.0
 40
0.0
 40
0.0007066051731044
 40
0.7940575305653121
 40
1.0
 40
1.0
 40
1.0
 40
1.0
 10
-188.226640558
 20
48.28471318647465
 30
0.0
 10
-188.2262181845834
 20
48.28455527231279
 30
0.0
 10
-187.7515700997974
 20
48.1070970053899
 30
0.0
 10
-187.1541507621875
 20
48.3936697839632
 30
0.0
 10
-186.5560779923254
 20
49.13379386472649
 30
0.0
 10
-186.4328223160999
 20
49.28632462463104
 30
0.0
  0
SPLINE
  5
23D
330
1F
100
AcDbEntity
  8
0
100
AcDbSpline
210
0.0
220
0.0
230
1.0
 70
     8
 71
     3
 72
     9
 73
     5
 74
     0
 42
0.00000001
 43
0.00000001
 40
0.0
 40
0.0
 40
0.0
 40
0.0
 40
0.3189839786109446
 40
1.0
 40
1.0
 40
1.0
 40
1.0
 10
-125.975543251148
 20
467.742575833377
 30
0.0
 10
-125.9178860657423
 20
467.726997438435
 30
0.0
 10
-125.7371334597435
 20
467.6781598917661
 30
0.0
 10
-125.5561053554476
 20
467.4149550259208
 30
0.0
 10
-125.4328223161003
 20
467.2357082953725
 30
0.0
  0
SPLINE
  5
23E
330
1F
100
AcDbEntity
  8
0
100
AcDbSpline
210
0.0
220
0.0
230
1.0
 70
     8
 71
     3
 72
    10
 73
     6
 74
     0
 42
0.00000001
 43
0.00000001
 40
0.0
 40
0.0
 40
0.0
 40
0.0
 40
0.0007066051731044
 40
0.7940575305653121
 40
1.0
 40
1.0
 40
1.0
 40
1.0
 10
-66.22664055800031
 20
48.28471318647465
 30
0.0
 10
-66.2262181845838
 20
48.28455527231279
 30
0.0
 10
-65.75157009978913
 20
48.1070970053899
 30
0.0
 10
-65.15415076218869
 20
48.3936697839632
 30
0.0
 10
-64.55607799232588
 20
49.13379386472649
 30
0.0
 10
-64.43282231610026
 20
49.28632462463104
 30
0.0
  0
SPLINE
  5
23F
330
1F
100
AcDbEntity
  8
0
100
AcDbSpline
210
0.0
220
0.0
230
1.0
 70
     8
 71
     3
 72
     9
 73
     5
 74
     0
 42
0.00000001
 43
0.00000001
 40
0.0
 40
0.0
 40
0.0
 40
0.0
 40
0.3189839786108722
 40
1.0
 40
1.0
 40
1.0
 40
1.0
 10
-3.975543251148239
 20
467.742575833377
 30
0.0
 10
-3.917886065742504
 20
467.726997438435
 30
0.0
 10
-3.737133459743747
 20
467.6781598917661
 30
0.0
 10
-3.556105355447647
 20
467.4149550259208
 30
0.0
 10
-3.432822316100315
 20
467.2357082953724
 30
0.0
  0
SPLINE
  5
240
330
1F
100
AcDbEntity
  8
0
100
AcDbSpline
210
0.0
220
0.0
230
1.0
 70
     8
 71
     3
 72
    10
 73
     6
 74
     0
 42
0.00000001
 43
0.00000001
 40
0.0
 40
0.0
 40
0.0
 40
0.0
 40
0.0007066051731039
 40
0.7940575305653664
 40
1.0
 40
1.0
 40
1.0
 40
1.0
 10
55.77335944199957
 20
48.28471318647465
 30
0.0
 10
55.77378181541609
 20
48.28455527231277
 30
0.0
 10
56.24842990017037
 20
48.10709700537991
 30
0.0
 10
56.84584923781516
 20
48.39366978396409
 30
0.0
 10
57.44392200767445
 20
49.13379386472658
 30
0.0
 10
57.5671776838993
 20
49.28632462463089
 30
0.0
  0
SPLINE
  5
241
330
1F
100
AcDbEntity
  8
0
100
AcDbSpline
210
0.0
220
0.0
230
1.0
 70
     8
 71
     3
 72
     9
 73
     5
 74
     0
 42
0.00000001
 43
0.00000001
 40
0.0
 40
0.0
 40
0.0
 40
0.0
 40
0.3189839786109441
 40
1.0
 40
1.0
 40
1.0
 40
1.0
 10
118.0244567488515
 20
467.742575833377
 30
0.0
 10
118.0821139342573
 20
467.726997438435
 30
0.0
 10
118.262866540256
 20
467.6781598917661
 30
0.0
 10
118.443894644552
 20
467.4149550259207
 30
0.0
 10
118.5671776838993
 20
467.2357082953725
 30
0.0
  0
SPLINE
  5
242
330
1F
100
AcDbEntity
  8
0
100
AcDbSpline
210
0.0
220
0.0
230
1.0
 70
    24
 71
     3
 72
    18
 73
    14
 74
     0
 42
0.00000001
 43
0.00000001
 40
0.0
 40
0.0
 40
0.0
 40
0.0
 40
0.1801995088966507
 40
0.5407201287322176
 40
0.9036972937377202
 40
0.9487907456781439
 40
0.9713633870213269
 40
0.9826773029869889
 40
0.9871684486725287
 40
0.9917040865285938
 40
0.9946352669344412
 40
0.9975671936602721
 40
1.0
 40
1.0
 40
1.0
 40
1.0
 10
157.7548917815945
 20
115.1777997422231
 30
0.0
 10
157.7548917815946
 20
114.7209239823254
 30
0.0
 10
157.7548917815949
 20
113.3499883942145
 30
0.0
 10
157.7548917815946
 20
111.18252931825
 30
0.0
 10
157.7548917815938
 20
109.3975442281848
 30
0.0
 10
157.7548917815948
 20
108.6251846197448
 30
0.0
 10
157.7548917815944
 20
108.5144789334125
 30
0.0
 10
157.7548917815946
 20
108.4832499579779
 30
0.0
 10
157.7548917815945
 20
108.4839115776843
 30
0.0
 10
157.7548917815945
 20
108.4953778294553
 30
0.0
 10
157.7548917815948
 20
108.5183502367931
 30
0.0
 10
157.7548917815947
 20
108.5432986299759
 30
0.0
 10
157.7548917815948
 20
108.561865281014
 30
0.0
 10
157.7548917815948
 20
108.5702849108076
 30
0.0
  0
SPLINE
  5
243
330
1F
100
AcDbEntity
  8
0
100
AcDbSpline
210
0.0
220
0.0
230
1.0
 70
    24
 71
     3
 72
    22
 73
    18
 74
     0
 42
0.00000001
 43
0.00000001
 40
0.0
 40
0.0
 40
0.0
 40
0.0
 40
0.1718559226721468
 40
0.442544782410409
 40
0.4761734843718593
 40
0.4930028656953747
 40
0.4991811319646652
 40
0.5069136074478952
 40
0.509401497359813
 40
0.5119122644144863
 40
0.5141084583123814
 40
0.5173342134927773
 40
0.5235700096295983
 40
0.5464502290334399
 40
0.6371683193387142
 40
0.9984307771791532
 40
1.0
 40
1.0
 40
1.0
 40
1.0
 10
-742.2451082184054
 20
468.118423055267
 30
0.0
 10
-742.2451082184057
 20
468.1196381233191
 30
0.0
 10
-742.2451082184062
 20
468.1227670351331
 30
0.0
 10
-742.2451082184011
 20
467.9929431137152
 30
0.0
 10
-742.2451082184066
 20
467.6517792094489
 30
0.0
 10
-742.2451082184039
 20
467.5609611074004
 30
0.0
 10
-742.2451082184072
 20
467.492092726678
 30
0.0
 10
-742.2451082183995
 20
467.4432591800398
 30
0.0
 10
-742.2451082184062
 20
467.3900672503249
 30
0.0
 10
-742.2451082184053
 20
467.355801307963
 30
0.0
 10
-742.2451082184054
 20
467.3192677506387
 30
0.0
 10
-742.2451082184054
 20
467.2733766098443
 30
0.0
 10
-742.2451082184052
 20
467.1799615550422
 30
0.0
 10
-742.2451082184056
 20
466.9876955396518
 30
0.0
 10
-742.245108218405
 20
466.6258420730748
 30
0.0
 10
-742.2451082184045
 20
466.4583250678895
 30
0.0
 10
-742.2451082184054
 20
466.3614355009173
 30
0.0
 10
-742.2451082184054
 20
466.3610164600018
 30
0.0
  0
LINE
  5
244
330
1F
100
AcDbEntity
  8
0
100
AcDbLine
 10
157.7548917816
 20
148.6688894741
 30
0.0
 11
157.7548917816
 21
115.1777997422
 31
0.0
  0
SPLINE
  5
245
330
1F
100
AcDbEntity
  8
0
100
AcDbSpline
210
0.0
220
0.0
230
1.0
 70
    24
 71
     3
 72
    11
 73
     7
 74
     0
 42
0.00000001
 43
0.00000001
 40
0.0
 40
0.0
 40
0.0
 40
0.0
 40
0.2619554995006753
 40
0.5239109959547614
 40
0.7618960218850775
 40
1.0
 40
1.0
 40
1.0
 40
1.0
 10
157.7548917815945
 20
168.3036258773922
 30
0.0
 10
157.7548917815945
 20
166.7094413731162
 30
0.0
 10
157.7548917815945
 20
163.5210723831046
 30
0.0
 10
157.7548917815944
 20
158.9418411469262
 30
0.0
 10
157.7548917815946
 20
154.5441671826071
 30
0.0
 10
157.7548917815945
 20
151.744309461513
 30
0.0
 10
157.7548917815945
 20
150.3440308247795
 30
0.0
  0
LINE
  5
246
330
1F
100
AcDbEntity
  8
0
100
AcDbLine
 10
-674.4218200474
 20
50.0877931553
 30
0.0
 11
-674.2354179022
 21
50.16101646
 31
0.0
  0
LINE
  5
247
330
1F
100
AcDbEntity
  8
0
100
AcDbLine
 10
-552.4218200474
 20
50.0877931553
 30
0.0
 11
-552.2354179022
 21
50.16101646
 31
0.0
  0
LINE
  5
248
330
1F
100
AcDbEntity
  8
0
100
AcDbLine
 10
-430.4218200474
 20
50.0877931553
 30
0.0
 11
-430.2354179022
 21
50.16101646
 31
0.0
  0
LINE
  5
249
330
1F
100
AcDbEntity
  8
0
100
AcDbLine
 10
-308.4218200474
 20
50.0877931553
 30
0.0
 11
-308.2354179022
 21
50.16101646
 31
0.0
  0
LINE
  5
24A
330
1F
100
AcDbEntity
  8
0
100
AcDbLine
 10
-186.4218200474
 20
50.0877931553
 30
0.0
 11
-186.2354179022
 21
50.16101646
 31
0.0
  0
LINE
  5
24B
330
1F
100
AcDbEntity
  8
0
100
AcDbLine
 10
-64.4218200474
 20
50.0877931553
 30
0.0
 11
-64.2354179022
 21
50.16101646
 31
0.0
  0
LINE
  5
24C
330
1F
100
AcDbEntity
  8
0
100
AcDbLine
 10
57.5781799526
 20
50.0877931553
 30
0.0
 11
57.7645820978
 21
50.16101646
 31
0.0
  0
SPLINE
  5
24D
330
1F
100
AcDbEntity
  8
0
100
AcDbSpline
210
0.0
220
0.0
230
1.0
 70
    24
 71
     3
 72
    10
 73
     6
 74
     0
 42
0.00000001
 43
0.00000001
 40
0.0
 40
0.0
 40
0.0
 40
0.0
 40
0.2132191486649574
 40
0.606415349643897
 40
1.0
 40
1.0
 40
1.0
 40
1.0
 10
157.7548917815945
 20
170.0454026114127
 30
0.0
 10
157.7548917815945
 20
169.9232264353745
 30
0.0
 10
157.7548917815943
 20
169.575745878519
 30
0.0
 10
157.7548917815944
 20
168.9981406516532
 30
0.0
 10
157.7548917815945
 20
168.5352069886692
 30
0.0
 10
157.7548917815945
 20
168.3036258773922
 30
0.0
  0
SPLINE
  5
24E
330
1F
100
AcDbEntity
  8
0
100
AcDbSpline
210
0.0
220
0.0
230
1.0
 70
     8
 71
     3
 72
     9
 73
     5
 74
     0
 42
0.00000001
 43
0.00000001
 40
0.0
 40
0.0
 40
0.0
 40
0.0
 40
0.2121965187127212
 40
1.0
 40
1.0
 40
1.0
 40
1.0
 10
-733.9254137297082
 20
465.8428161258605
 30
0.0
 10
-733.8910173861952
 20
465.8321671371112
 30
0.0
 10
-733.7289207423785
 20
465.78198257794
 30
0.0
 10
-733.5665770865938
 20
465.541284772543
 30
0.0
 10
-733.4386821894017
 20
465.3516622035131
 30
0.0
  0
SPLINE
  5
24F
330
1F
100
AcDbEntity
  8
0
100
AcDbSpline
210
0.0
220
0.0
230
1.0
 70
     8
 71
     3
 72
     9
 73
     5
 74
     0
 42
0.00000001
 43
0.00000001
 40
0.0
 40
0.0
 40
0.0
 40
0.0
 40
0.212196518712678
 40
1.0
 40
1.0
 40
1.0
 40
1.0
 10
-611.9254137297085
 20
465.8428161258605
 30
0.0
 10
-611.8910173861955
 20
465.8321671371112
 30
0.0
 10
-611.7289207423784
 20
465.7819825779399
 30
0.0
 10
-611.566577086594
 20
465.541284772543
 30
0.0
 10
-611.438682189402
 20
465.3516622035131
 30
0.0
  0
SPLINE
  5
250
330
1F
100
AcDbEntity
  8
0
100
AcDbSpline
210
0.0
220
0.0
230
1.0
 70
     8
 71
     3
 72
     9
 73
     5
 74
     0
 42
0.00000001
 43
0.00000001
 40
0.0
 40
0.0
 40
0.0
 40
0.0
 40
0.2121965187126788
 40
1.0
 40
1.0
 40
1.0
 40
1.0
 10
-489.9254137297088
 20
465.8428161258605
 30
0.0
 10
-489.8910173861958
 20
465.8321671371112
 30
0.0
 10
-489.7289207423787
 20
465.7819825779399
 30
0.0
 10
-489.5665770865941
 20
465.541284772543
 30
0.0
 10
-489.4386821894022
 20
465.3516622035131
 30
0.0
  0
SPLINE
  5
251
330
1F
100
AcDbEntity
  8
0
100
AcDbSpline
210
0.0
220
0.0
230
1.0
 70
     8
 71
     3
 72
     9
 73
     5
 74
     0
 42
0.00000001
 43
0.00000001
 40
0.0
 40
0.0
 40
0.0
 40
0.0
 40
0.2121965187126778
 40
1.0
 40
1.0
 40
1.0
 40
1.0
 10
-367.925413729709
 20
465.8428161258605
 30
0.0
 10
-367.891017386196
 20
465.8321671371112
 30
0.0
 10
-367.728920742379
 20
465.7819825779399
 30
0.0
 10
-367.5665770865945
 20
465.541284772543
 30
0.0
 10
-367.4386821894025
 20
465.3516622035131
 30
0.0
  0
SPLINE
  5
252
330
1F
100
AcDbEntity
  8
0
100
AcDbSpline
210
0.0
220
0.0
230
1.0
 70
     8
 71
     3
 72
     9
 73
     5
 74
     0
 42
0.00000001
 43
0.00000001
 40
0.0
 40
0.0
 40
0.0
 40
0.0
 40
0.2121965187127053
 40
0.9999999999999999
 40
0.9999999999999999
 40
0.9999999999999999
 40
0.9999999999999999
 10
-245.9254137297093
 20
465.8428161258605
 30
0.0
 10
-245.8910173861964
 20
465.8321671371113
 30
0.0
 10
-245.7289207423793
 20
465.7819825779399
 30
0.0
 10
-245.5665770865948
 20
465.541284772543
 30
0.0
 10
-245.4386821894028
 20
465.3516622035132
 30
0.0
  0
SPLINE
  5
253
330
1F
100
AcDbEntity
  8
0
100
AcDbSpline
210
0.0
220
0.0
230
1.0
 70
     8
 71
     3
 72
     9
 73
     5
 74
     0
 42
0.00000001
 43
0.00000001
 40
0.0
 40
0.0
 40
0.0
 40
0.0
 40
0.2121965187125065
 40
1.0
 40
1.0
 40
1.0
 40
1.0
 10
-123.9254137297094
 20
465.8428161258605
 30
0.0
 10
-123.8910173861965
 20
465.8321671371112
 30
0.0
 10
-123.7289207423798
 20
465.7819825779398
 30
0.0
 10
-123.5665770865951
 20
465.5412847725431
 30
0.0
 10
-123.4386821894031
 20
465.3516622035132
 30
0.0
  0
SPLINE
  5
254
330
1F
100
AcDbEntity
  8
0
100
AcDbSpline
210
0.0
220
0.0
230
1.0
 70
     8
 71
     3
 72
     9
 73
     5
 74
     0
 42
0.00000001
 43
0.00000001
 40
0.0
 40
0.0
 40
0.0
 40
0.0
 40
0.2121965187126512
 40
1.0
 40
1.0
 40
1.0
 40
1.0
 10
-1.92541372970978
 20
465.8428161258605
 30
0.0
 10
-1.891017386196903
 20
465.8321671371112
 30
0.0
 10
-1.728920742379958
 20
465.7819825779399
 30
0.0
 10
-1.566577086595355
 20
465.541284772543
 30
0.0
 10
-1.438682189403351
 20
465.3516622035131
 30
0.0
  0
SPLINE
  5
255
330
1F
100
AcDbEntity
  8
0
100
AcDbSpline
210
0.0
220
0.0
230
1.0
 70
     8
 71
     3
 72
     9
 73
     5
 74
     0
 42
0.00000001
 43
0.00000001
 40
0.0
 40
0.0
 40
0.0
 40
0.0
 40
0.2121965187127053
 40
0.9999999999999999
 40
0.9999999999999999
 40
0.9999999999999999
 40
0.9999999999999999
 10
120.0745862702899
 20
465.8428161258605
 30
0.0
 10
120.108982613803
 20
465.8321671371113
 30
0.0
 10
120.2710792576198
 20
465.7819825779399
 30
0.0
 10
120.4334229134044
 20
465.541284772543
 30
0.0
 10
120.5613178105964
 20
465.3516622035132
 30
0.0
  0
LINE
  5
256
330
1F
100
AcDbEntity
  8
0
100
AcDbLine
 10
157.7548917816
 20
108.0982994438
 30
0.0
 11
157.7548917816
 21
50.16101646
 31
0.0
  0
LINE
  5
257
330
1F
100
AcDbEntity
  8
0
100
AcDbLine
 10
157.7548917816
 20
466.36101646
 30
0.0
 11
157.7548917816
 21
170.0454026114
 31
0.0
  0
LINE
  5
258
330
1F
100
AcDbEntity
  8
0
100
AcDbLine
 10
-742.2451082184
 20
466.36101646
 30
0.0
 11
-742.2451082184
 21
50.16101646
 31
0.0
  0
LINE
  5
259
330
1F
100
AcDbEntity
  8
0
100
AcDbLine
 10
-741.0082905501
 20
466.36101646
 30
0.0
 11
-742.2451082184
 21
466.36101646
 31
0.0
  0
LINE
  5
25A
330
1F
100
AcDbEntity
  8
0
100
AcDbLine
 10
-784.173921342
 20
417.4938319792
 30
0.0
 11
-783.3576742268
 21
417.4890872435
 31
0.0
  0
SPLINE
  5
25B
330
1F
100
AcDbEntity
  8
0
100
AcDbSpline
210
0.0
220
0.0
230
1.0
 70
     8
 71
     3
 72
    13
 73
     9
 74
     0
 42
0.00000001
 43
0.00000001
 40
0.0
 40
0.0
 40
0.0
 40
0.0
 40
0.0846636374147018
 40
0.3006102697103382
 40
0.5163656399230341
 40
0.7322992222508007
 40
0.9480723505072485
 40
1.0
 40
1.0
 40
1.0
 40
1.0
 10
-783.14995719327
 20
417.4878798119964
 30
0.0
 10
-782.9142721341573
 20
417.5087073763742
 30
0.0
 10
-782.0774388566132
 20
417.5826586019087
 30
0.0
 10
-780.6343689569335
 20
416.2675583487802
 30
0.0
 10
-778.8337396218674
 20
413.6043254096829
 30
0.0
 10
-777.0249367308921
 20
409.4175016591586
 30
0.0
 10
-775.6799328686515
 20
405.6015265909293
 30
0.0
 10
-774.9332260732172
 20
402.8198778649562
 30
0.0
 10
-774.788382531584
 20
402.2803034891597
 30
0.0
  0
SPLINE
  5
25C
330
1F
100
AcDbEntity
  8
0
100
AcDbSpline
210
0.0
220
0.0
230
1.0
 70
    24
 71
     3
 72
     9
 73
     5
 74
     0
 42
0.00000001
 43
0.00000001
 40
0.0
 40
0.0
 40
0.0
 40
0.0
 40
0.4529286909640416
 40
1.0
 40
1.0
 40
1.0
 40
1.0
 10
-784.2451082184054
 20
417.4942457790701
 30
0.0
 10
-784.2451082184054
 20
417.5211408901738
 30
0.0
 10
-784.2451082184054
 20
417.5805213437422
 30
0.0
 10
-784.2451082184054
 20
417.4818260730018
 30
0.0
 10
-784.2451082184054
 20
417.4278327220421
 30
0.0
  0
SPLINE
  5
25D
330
1F
100
AcDbEntity
  8
0
100
AcDbSpline
210
0.0
220
0.0
230
1.0
 70
    24
 71
     3
 72
     9
 73
     5
 74
     0
 42
0.00000001
 43
0.00000001
 40
0.0
 40
0.0
 40
0.0
 40
0.0
 40
0.4601675155979671
 40
1.0
 40
1.0
 40
1.0
 40
1.0
 10
199.7548917815944
 20
407.0843050608699
 30
0.0
 10
199.7548917815945
 20
406.8493247994368
 30
0.0
 10
199.7548917815945
 20
406.3386841012818
 30
0.0
 10
199.7548917815944
 20
405.6860373572713
 30
0.0
 10
199.7548917815944
 20
405.3337174440152
 30
0.0
  0
SPLINE
  5
25E
330
1F
100
AcDbEntity
  8
0
100
AcDbSpline
210
0.0
220
0.0
230
1.0
 70
     8
 71
     3
 72
     9
 73
     5
 74
     0
 42
0.00000001
 43
0.00000001
 40
0.0
 40
0.0
 40
0.0
 40
0.0
 40
0.6713450789559717
 40
1.0
 40
1.0
 40
1.0
 40
1.0
 10
-779.2781346768016
 20
417.6432640575262
 30
0.0
 10
-778.7501249153383
 20
417.5948790174508
 30
0.0
 10
-777.9636295971864
 20
417.5228072296441
 30
0.0
 10
-777.1764279008532
 20
416.6365778872357
 30
0.0
 10
-776.9177101894992
 20
416.3453142526796
 30
0.0
  0
SPLINE
  5
25F
330
1F
100
AcDbEntity
  8
0
100
AcDbSpline
210
0.0
220
0.0
230
1.0
 70
     8
 71
     3
 72
     9
 73
     5
 74
     0
 42
0.00000001
 43
0.00000001
 40
0.0
 40
0.0
 40
0.0
 40
0.0
 40
0.6713361582020018
 40
1.0
 40
1.0
 40
1.0
 40
1.0
 10
196.7218653231984
 20
417.6432640575262
 30
0.0
 10
197.249847408686
 20
417.5877939775521
 30
0.0
 10
198.0363119526214
 20
417.5051675924001
 30
0.0
 10
198.8236671166233
 20
416.6555230665933
 30
0.0
 10
199.0824422896837
 20
416.3762756325789
 30
0.0
  0
SPLINE
  5
260
330
1F
100
AcDbEntity
  8
0
100
AcDbSpline
210
0.0
220
0.0
230
1.0
 70
    24
 71
     3
 72
    10
 73
     6
 74
     0
 42
0.00000001
 43
0.00000001
 40
0.0
 40
0.0
 40
0.0
 40
0.0
 40
0.2436852007316177
 40
0.6206464526155357
 40
1.0
 40
1.0
 40
1.0
 40
1.0
 10
199.7548917815947
 20
415.7223132563784
 30
0.0
 10
199.7548917815946
 20
415.2563591023413
 30
0.0
 10
199.7548917815941
 20
414.0696116432572
 30
0.0
 10
199.7548917815949
 20
411.3469186668756
 30
0.0
 10
199.7548917815946
 20
408.5081693407307
 30
0.0
 10
199.7548917815944
 20
407.0843050608699
 30
0.0
  0
SPLINE
  5
261
330
1F
100
AcDbEntity
  8
0
100
AcDbSpline
210
0.0
220
0.0
230
1.0
 70
     8
 71
     3
 72
     9
 73
     5
 74
     0
 42
0.00000001
 43
0.00000001
 40
0.0
 40
0.0
 40
0.0
 40
0.0
 40
0.2638273216549081
 40
1.0
 40
1.0
 40
1.0
 40
1.0
 10
-777.9139991478089
 20
417.2023425634932
 30
0.0
 10
-777.8111426484465
 20
417.1829025374493
 30
0.0
 10
-777.4212796929454
 20
417.1092178791586
 30
0.0
 10
-777.030886698539
 20
416.6265357779538
 30
0.0
 10
-776.7434900422398
 20
416.2711984027209
 30
0.0
  0
SPLINE
  5
262
330
1F
100
AcDbEntity
  8
0
100
AcDbSpline
210
0.0
220
0.0
230
1.0
 70
     8
 71
     3
 72
     9
 73
     5
 74
     0
 42
0.00000001
 43
0.00000001
 40
0.0
 40
0.0
 40
0.0
 40
0.0
 40
0.2638025383111691
 40
1.0
 40
1.0
 40
1.0
 40
1.0
 10
198.0860008521908
 20
417.2023425634933
 30
0.0
 10
198.188854561934
 20
417.182043745864
 30
0.0
 10
198.5787435690748
 20
417.1050967317855
 30
0.0
 10
198.9692829711223
 20
416.6560966748035
 30
0.0
 10
199.256797087599
 20
416.3255439725553
 30
0.0
  0
LINE
  5
263
330
1F
100
AcDbEntity
  8
0
100
AcDbLine
 10
-779.3196091149
 20
417.5517945656
 30
0.0
 11
-779.1263361975
 21
417.4874695196
 31
0.0
  0
LINE
  5
264
330
1F
100
AcDbEntity
  8
0
100
AcDbLine
 10
199.2327378601
 20
416.2148010135
 30
0.0
 11
198.3625721643
 21
417.0060041546
 31
0.0
  0
LINE
  5
265
330
1F
100
AcDbEntity
  8
0
100
AcDbLine
 10
-776.9785060097
 20
416.4068757116
 30
0.0
 11
-777.5356153391
 21
416.9134305592
 31
0.0
  0
SPLINE
  5
266
330
1F
100
AcDbEntity
  8
0
100
AcDbSpline
210
0.0
220
0.0
230
1.0
 70
    24
 71
     3
 72
    10
 73
     6
 74
     0
 42
0.00000001
 43
0.00000001
 40
0.0
 40
0.0
 40
0.0
 40
0.0
 40
0.327620480363829
 40
0.6552468648241913
 40
0.9999999999999999
 40
0.9999999999999999
 40
0.9999999999999999
 40
0.9999999999999999
 10
199.7548917815946
 20
415.5914249506566
 30
0.0
 10
199.7548917815967
 20
415.6113435939897
 30
0.0
 10
199.7548917816008
 20
415.6511812396125
 30
0.0
 10
199.7548917815707
 20
415.7011919678845
 30
0.0
 10
199.754891781583
 20
415.7169328019843
 30
0.0
 10
199.7548917815892
 20
415.7250036931219
 30
0.0
  0
LINE
  5
267
330
1F
100
AcDbEntity
  8
0
100
AcDbLine
 10
199.0583615809
 20
416.2639392957
 30
0.0
 11
198.2737577003
 21
417.0214906041
 31
0.0
  0
LINE
  5
268
330
1F
100
AcDbEntity
  8
0
100
AcDbLine
 10
197.4616751278
 20
417.3145189343
 30
0.0
 11
196.6977850003
 21
417.56101646
 31
0.0
  0
LINE
  5
269
330
1F
100
AcDbEntity
  8
0
100
AcDbLine
 10
-776.9416384191
 20
416.2639392957
 30
0.0
 11
-777.7262422997
 21
417.0214906041
 31
0.0
  0
LINE
  5
26A
330
1F
100
AcDbEntity
  8
0
100
AcDbLine
 10
-778.5383248722
 20
417.3145189343
 30
0.0
 11
-779.3022149997
 21
417.56101646
 31
0.0
  0
SPLINE
  5
26B
330
1F
100
AcDbEntity
  8
0
100
AcDbSpline
210
0.0
220
0.0
230
1.0
 70
    24
 71
     3
 72
    10
 73
     6
 74
     0
 42
0.00000001
 43
0.00000001
 40
0.0
 40
0.0
 40
0.0
 40
0.0
 40
0.1473370676247211
 40
0.96285006917668
 40
1.0
 40
1.0
 40
1.0
 40
1.0
 10
199.7548917815948
 20
405.6837274440153
 30
0.0
 10
199.7548917815948
 20
405.7605031233868
 30
0.0
 10
199.754891781595
 20
406.2622334033885
 30
0.0
 10
199.7548917815949
 20
406.6692075289607
 30
0.0
 10
199.7548917815947
 20
407.0126023263997
 30
0.0
 10
199.7548917815947
 20
407.0275637988474
 30
0.0
  0
LINE
  5
26C
330
1F
100
AcDbEntity
  8
0
100
AcDbLine
 10
199.7548917816
 20
407.0275637988
 30
0.0
 11
199.7548917816
 21
415.5914249507
 31
0.0
  0
ARC
  5
26D
330
1F
100
AcDbEntity
  8
0
100
AcDbCircle
 10
727.3315476303
 20
258.6511539975
 30
0.0
 40
8.000000000000009
100
AcDbArc
 50
197.1467397277
 51
204.6717675423
  0
ARC
  5
26E
330
1F
100
AcDbEntity
  8
0
100
AcDbCircle
 10
727.3315476303
 20
257.8708789225
 30
0.0
 40
8.000000000000087
100
AcDbArc
 50
156.0860240595
 51
162.8515803462
  0
ARC
  5
26F
330
1F
100
AcDbEntity
  8
0
100
AcDbCircle
 10
929.0509287117
 20
56.1514978411
 30
0.0
 40
8.000000000000048
100
AcDbArc
 50
287.1467397277
 51
294.671767542
  0
ARC
  5
270
330
1F
100
AcDbEntity
  8
0
100
AcDbCircle
 10
929.8312037866
 20
56.1514978411
 30
0.0
 40
8.000000000000062
100
AcDbArc
 50
246.0860240597
 51
252.8515803462
  0
ARC
  5
271
330
1F
100
AcDbEntity
  8
0
100
AcDbCircle
 10
1131.5505848681
 20
257.8708789225
 30
0.0
 40
7.999999999999856
100
AcDbArc
 50
17.1467397277
 51
24.6717675422
  0
ARC
  5
272
330
1F
100
AcDbEntity
  8
0
100
AcDbCircle
 10
1131.5505848681
 20
258.6511539975
 30
0.0
 40
7.999999999999996
100
AcDbArc
 50
336.0860240596
 51
342.8515803462
  0
CIRCLE
  5
273
330
1F
100
AcDbEntity
  8
0
100
AcDbCircle
 10
929.4410662492
 20
258.26101646
 30
0.0
 40
164.9000000000001
  0
CIRCLE
  5
274
330
1F
100
AcDbEntity
  8
0
100
AcDbCircle
 10
929.4410662492
 20
258.26101646
 30
0.0
 40
209.3999999999999
  0
LINE
  5
275
330
1F
100
AcDbEntity
  8
0
100
AcDbLine
 10
719.701888728
 20
257.7989404307
 30
0.0
 11
719.4738132086
 21
257.7749687277
 31
0.0
  0
SPLINE
  5
276
330
1F
100
AcDbEntity
  8
0
100
AcDbSpline
210
0.0
220
0.0
230
1.0
 70
     8
 71
     3
 72
     9
 73
     5
 74
     0
 42
0.00000001
 43
0.00000001
 40
0.0
 40
0.0
 40
0.0
 40
0.0
 40
0.4987608531415029
 40
1.0
 40
1.0
 40
1.0
 40
1.0
 10
719.7018887280044
 20
258.723092489301
 30
0.0
 10
719.693804660043
 20
258.5694495761786
 30
0.0
 10
719.6775963551803
 20
258.2614003133814
 30
0.0
 10
719.6937779028539
 20
257.9533482061324
 30
0.0
 10
719.7018887280044
 20
257.7989404307068
 30
0.0
  0
LINE
  5
277
330
1F
100
AcDbEntity
  8
0
100
AcDbLine
 10
719.4738132086
 20
258.7470641924
 30
0.0
 11
719.701888728
 21
258.7230924893
 31
0.0
  0
SPLINE
  5
278
330
1F
100
AcDbEntity
  8
0
100
AcDbSpline
210
0.0
220
0.0
230
1.0
 70
     8
 71
     3
 72
    12
 73
     8
 74
     0
 42
0.00000001
 43
0.00000001
 40
0.0
 40
0.0
 40
0.0
 40
0.0
 40
0.2174770912066513
 40
0.4353705208257977
 40
0.6490388720033398
 40
0.8610609605882491
 40
1.0
 40
1.0
 40
1.0
 40
1.0
 10
719.4738132086043
 20
259.2610164600039
 30
0.0
 10
719.4648356429935
 20
259.2032438198439
 30
0.0
 10
719.4468633251091
 20
259.0875879395102
 30
0.0
 10
719.4351946963311
 20
258.9334830764577
 30
0.0
 10
719.4381788437163
 20
258.8182307547984
 30
0.0
 10
719.4529877555775
 20
258.7575192099044
 30
0.0
 10
719.4679069676366
 20
258.7500293068627
 30
0.0
 10
719.4738132086043
 20
258.7470641923503
 30
0.0
  0
LINE
  5
279
330
1F
100
AcDbEntity
  8
0
100
AcDbLine
 10
719.701888728
 20
260.2230924893
 30
0.0
 11
719.4738132086
 21
259.26101646
 31
0.0
  0
LINE
  5
27A
330
1F
100
AcDbEntity
  8
0
100
AcDbLine
 10
719.4738132086
 20
257.26101646
 30
0.0
 11
719.701888728
 21
256.2989404307
 31
0.0
  0
SPLINE
  5
27B
330
1F
100
AcDbEntity
  8
0
100
AcDbSpline
210
0.0
220
0.0
230
1.0
 70
     8
 71
     3
 72
    12
 73
     8
 74
     0
 42
0.00000001
 43
0.00000001
 40
0.0
 40
0.0
 40
0.0
 40
0.0
 40
0.217477091206714
 40
0.4353705208258704
 40
0.6490388720034546
 40
0.8610609605884236
 40
1.0
 40
1.0
 40
1.0
 40
1.0
 10
719.4738132086043
 20
257.7749687276575
 30
0.0
 10
719.4648356429934
 20
257.7683600892859
 30
0.0
 10
719.4468633251092
 20
257.7551301609573
 30
0.0
 10
719.4351946963311
 20
257.6642421730011
 30
0.0
 10
719.4381788437162
 20
257.5329043176522
 30
0.0
 10
719.4529877555775
 20
257.3906796534826
 30
0.0
 10
719.4679069676365
 20
257.2977898288401
 30
0.0
 10
719.4738132086043
 20
257.261016460004
 30
0.0
  0
SPLINE
  5
27C
330
1F
100
AcDbEntity
  8
0
100
AcDbSpline
210
0.0
220
0.0
230
1.0
 70
     8
 71
     3
 72
    12
 73
     8
 74
     0
 42
0.00000001
 43
0.00000001
 40
0.0
 40
0.0
 40
0.0
 40
0.0
 40
0.2174770912066517
 40
0.4353705208257981
 40
0.6490388720033401
 40
0.8610609605882492
 40
1.0
 40
1.0
 40
1.0
 40
1.0
 10
930.4410662491827
 20
468.2282695005876
 30
0.0
 10
930.3832936090228
 20
468.2372470661984
 30
0.0
 10
930.2676377286889
 20
468.2552193840826
 30
0.0
 10
930.1135328656364
 20
468.2668880128608
 30
0.0
 10
929.9982805439771
 20
468.2639038654756
 30
0.0
 10
929.9375689990832
 20
468.2490949536143
 30
0.0
 10
929.9300790960415
 20
468.2341757415553
 30
0.0
 10
929.9271139815291
 20
468.2282695005876
 30
0.0
  0
LINE
  5
27D
330
1F
100
AcDbEntity
  8
0
100
AcDbLine
 10
931.4031422785
 20
468.0001939812
 30
0.0
 11
930.4410662492
 21
468.2282695006
 31
0.0
  0
LINE
  5
27E
330
1F
100
AcDbEntity
  8
0
100
AcDbLine
 10
928.4410662492
 20
468.2282695006
 30
0.0
 11
927.4789902199
 21
468.0001939812
 31
0.0
  0
SPLINE
  5
27F
330
1F
100
AcDbEntity
  8
0
100
AcDbSpline
210
0.0
220
0.0
230
1.0
 70
     8
 71
     3
 72
    12
 73
     8
 74
     0
 42
0.00000001
 43
0.00000001
 40
0.0
 40
0.0
 40
0.0
 40
0.0
 40
0.2174770912067142
 40
0.4353705208258708
 40
0.6490388720034551
 40
0.861060960588424
 40
1.0
 40
1.0
 40
1.0
 40
1.0
 10
928.9550185168363
 20
468.2282695005876
 30
0.0
 10
928.9484098784648
 20
468.2372470661984
 30
0.0
 10
928.9351799501361
 20
468.2552193840826
 30
0.0
 10
928.8442919621799
 20
468.2668880128608
 30
0.0
 10
928.7129541068309
 20
468.2639038654756
 30
0.0
 10
928.5707294426614
 20
468.2490949536143
 30
0.0
 10
928.4778396180188
 20
468.2341757415554
 30
0.0
 10
928.4410662491829
 20
468.2282695005876
 30
0.0
  0
LINE
  5
280
330
1F
100
AcDbEntity
  8
0
100
AcDbLine
 10
929.9031422785
 20
48.5218389388
 30
0.0
 11
929.9271139815
 21
48.2937634194
 31
0.0
  0
SPLINE
  5
281
330
1F
100
AcDbEntity
  8
0
100
AcDbSpline
210
0.0
220
0.0
230
1.0
 70
     8
 71
     3
 72
     9
 73
     5
 74
     0
 42
0.00000001
 43
0.00000001
 40
0.0
 40
0.0
 40
0.0
 40
0.0
 40
0.4987608531415027
 40
1.0
 40
1.0
 40
1.0
 40
1.0
 10
928.9789902198786
 20
48.52183893883383
 30
0.0
 10
929.132633133001
 20
48.5137548708725
 30
0.0
 10
929.4406823957981
 20
48.49754656600974
 30
0.0
 10
929.7487345030473
 20
48.51372811368318
 30
0.0
 10
929.9031422784727
 20
48.52183893883383
 30
0.0
  0
LINE
  5
282
330
1F
100
AcDbEntity
  8
0
100
AcDbLine
 10
928.9550185168
 20
48.2937634194
 30
0.0
 11
928.9789902199
 21
48.5218389388
 31
0.0
  0
SPLINE
  5
283
330
1F
100
AcDbEntity
  8
0
100
AcDbSpline
210
0.0
220
0.0
230
1.0
 70
     8
 71
     3
 72
    12
 73
     8
 74
     0
 42
0.00000001
 43
0.00000001
 40
0.0
 40
0.0
 40
0.0
 40
0.0
 40
0.2174770912066513
 40
0.4353705208257977
 40
0.6490388720033394
 40
0.861060960588249
 40
1.0
 40
1.0
 40
1.0
 40
1.0
 10
928.4410662491756
 20
48.2937634194337
 30
0.0
 10
928.4988388893356
 20
48.28478585382292
 30
0.0
 10
928.6144947696694
 20
48.26681353593854
 30
0.0
 10
928.7685996327219
 20
48.25514490716054
 30
0.0
 10
928.8838519543813
 20
48.25812905454563
 30
0.0
 10
928.9445634992752
 20
48.27293796640689
 30
0.0
 10
928.9520534023169
 20
48.28785717846596
 30
0.0
 10
928.9550185168292
 20
48.29376341943365
 30
0.0
  0
LINE
  5
284
330
1F
100
AcDbEntity
  8
0
100
AcDbLine
 10
927.4789902199
 20
48.5218389388
 30
0.0
 11
928.4410662492
 21
48.2937634194
 31
0.0
  0
LINE
  5
285
330
1F
100
AcDbEntity
  8
0
100
AcDbLine
 10
930.4410662492
 20
48.2937634194
 30
0.0
 11
931.4031422785
 21
48.5218389388
 31
0.0
  0
SPLINE
  5
286
330
1F
100
AcDbEntity
  8
0
100
AcDbSpline
210
0.0
220
0.0
230
1.0
 70
     8
 71
     3
 72
    12
 73
     8
 74
     0
 42
0.00000001
 43
0.00000001
 40
0.0
 40
0.0
 40
0.0
 40
0.0
 40
0.217477091206714
 40
0.4353705208258703
 40
0.6490388720034541
 40
0.8610609605884234
 40
0.9999999999999999
 40
0.9999999999999999
 40
0.9999999999999999
 40
0.9999999999999999
 10
929.9271139815221
 20
48.29376341943367
 30
0.0
 10
929.9337226198937
 20
48.28478585382287
 30
0.0
 10
929.9469525482223
 20
48.26681353593859
 30
0.0
 10
930.0378405361785
 20
48.25514490716046
 30
0.0
 10
930.1691783915273
 20
48.25812905454563
 30
0.0
 10
930.3114030556969
 20
48.27293796640686
 30
0.0
 10
930.4042928803394
 20
48.28785717846587
 30
0.0
 10
930.4410662491756
 20
48.29376341943359
 30
0.0
  0
LINE
  5
287
330
1F
100
AcDbEntity
  8
0
100
AcDbLine
 10
1139.1802437704
 20
258.7230924893
 30
0.0
 11
1139.4083192898
 21
258.7470641923
 31
0.0
  0
SPLINE
  5
288
330
1F
100
AcDbEntity
  8
0
100
AcDbSpline
210
0.0
220
0.0
230
1.0
 70
     8
 71
     3
 72
     9
 73
     5
 74
     0
 42
0.00000001
 43
0.00000001
 40
0.0
 40
0.0
 40
0.0
 40
0.0
 40
0.4987608531415027
 40
1.0
 40
1.0
 40
1.0
 40
1.0
 10
1139.180243770364
 20
257.7989404307031
 30
0.0
 10
1139.188327838325
 20
257.9525833438254
 30
0.0
 10
1139.204536143188
 20
258.2606326066226
 30
0.0
 10
1139.188354595514
 20
258.5686847138717
 30
0.0
 10
1139.180243770364
 20
258.7230924892971
 30
0.0
  0
LINE
  5
289
330
1F
100
AcDbEntity
  8
0
100
AcDbLine
 10
1139.4083192898
 20
257.7749687277
 30
0.0
 11
1139.1802437704
 21
257.7989404307
 31
0.0
  0
SPLINE
  5
28A
330
1F
100
AcDbEntity
  8
0
100
AcDbSpline
210
0.0
220
0.0
230
1.0
 70
     8
 71
     3
 72
    12
 73
     8
 74
     0
 42
0.00000001
 43
0.00000001
 40
0.0
 40
0.0
 40
0.0
 40
0.0
 40
0.2174770912066508
 40
0.435370520825799
 40
0.6490388720033406
 40
0.8610609605882495
 40
1.0
 40
1.0
 40
1.0
 40
1.0
 10
1139.408319289764
 20
257.2610164600001
 30
0.0
 10
1139.417296855375
 20
257.3187891001601
 30
0.0
 10
1139.435269173259
 20
257.4344449804938
 30
0.0
 10
1139.446937802037
 20
257.5885498435463
 30
0.0
 10
1139.443953654652
 20
257.7038021652057
 30
0.0
 10
1139.429144742791
 20
257.7645137100996
 30
0.0
 10
1139.414225530732
 20
257.7720036131413
 30
0.0
 10
1139.408319289764
 20
257.7749687276536
 30
0.0
  0
LINE
  5
28B
330
1F
100
AcDbEntity
  8
0
100
AcDbLine
 10
1139.1802437704
 20
256.2989404307
 30
0.0
 11
1139.4083192898
 21
257.26101646
 31
0.0
  0
LINE
  5
28C
330
1F
100
AcDbEntity
  8
0
100
AcDbLine
 10
1139.4083192898
 20
259.26101646
 30
0.0
 11
1139.1802437704
 21
260.2230924893
 31
0.0
  0
SPLINE
  5
28D
330
1F
100
AcDbEntity
  8
0
100
AcDbSpline
210
0.0
220
0.0
230
1.0
 70
     8
 71
     3
 72
    12
 73
     8
 74
     0
 42
0.00000001
 43
0.00000001
 40
0.0
 40
0.0
 40
0.0
 40
0.0
 40
0.2174770912067147
 40
0.4353705208258718
 40
0.6490388720034568
 40
0.8610609605884233
 40
1.0
 40
1.0
 40
1.0
 40
1.0
 10
1139.408319289764
 20
258.7470641923466
 30
0.0
 10
1139.417296855375
 20
258.7536728307181
 30
0.0
 10
1139.435269173259
 20
258.7669027590467
 30
0.0
 10
1139.446937802037
 20
258.8577907470029
 30
0.0
 10
1139.443953654652
 20
258.9891286023518
 30
0.0
 10
1139.429144742791
 20
259.1313532665214
 30
0.0
 10
1139.414225530732
 20
259.2242430911639
 30
0.0
 10
1139.408319289764
 20
259.26101646
 30
0.0
  0
CIRCLE
  5
28E
330
1F
100
AcDbEntity
  8
0
100
AcDbCircle
 10
929.4410662492
 20
258.26101646
 30
0.0
 40
156.7
  0
CIRCLE
  5
28F
330
1F
100
AcDbEntity
  8
0
100
AcDbCircle
 10
929.4410662492
 20
258.26101646
 30
0.0
 40
152.9
  0
CIRCLE
  5
290
330
1F
100
AcDbEntity
  8
0
100
AcDbCircle
 10
929.4410662492
 20
258.26101646
 30
0.0
 40
206.65
  0
SPLINE
  5
291
330
1F
100
AcDbEntity
  8
0
100
AcDbSpline
210
0.0
220
0.0
230
1.0
 70
     8
 71
     3
 72
     9
 73
     5
 74
     0
 42
0.00000001
 43
0.00000001
 40
0.0
 40
0.0
 40
0.0
 40
0.0
 40
0.4950962410589548
 40
0.9999999999999999
 40
0.9999999999999999
 40
0.9999999999999999
 40
0.9999999999999999
 10
1083.220764498641
 20
115.1777997422231
 30
0.0
 10
1082.791684013861
 20
114.7190293610753
 30
0.0
 10
1081.925023253396
 20
113.792400671335
 30
0.0
 10
1081.001411904245
 20
112.9225128587836
 30
0.0
 10
1080.535077062259
 20
112.4833032323693
 30
0.0
  0
SPLINE
  5
292
330
1F
100
AcDbEntity
  8
0
100
AcDbSpline
210
0.0
220
0.0
230
1.0
 70
     8
 71
     3
 72
    12
 73
     8
 74
     0
 42
0.00000001
 43
0.00000001
 40
0.0
 40
0.0
 40
0.0
 40
0.0
 40
0.1857516675298458
 40
0.5573795763149234
 40
0.9315040978035855
 40
0.9779830036653847
 40
1.0
 40
1.0
 40
1.0
 40
1.0
 10
919.159289389301
 20
468.0592232316612
 30
0.0
 10
919.7868447559728
 20
468.0853629517243
 30
0.0
 10
921.6699317238649
 20
468.1637996424285
 30
0.0
 10
924.8179958028591
 20
468.1332996126933
 30
0.0
 10
927.502025315811
 20
467.9791070312424
 30
0.0
 10
928.9695532369317
 20
467.6573195271846
 30
0.0
 10
929.1839136429805
 20
467.5690115592428
 30
0.0
 10
929.2528166302093
 20
467.5406262669239
 30
0.0
  0
SPLINE
  5
293
330
1F
100
AcDbEntity
  8
0
100
AcDbSpline
210
0.0
220
0.0
230
1.0
 70
     8
 71
     3
 72
    93
 73
    89
 74
     0
 42
0.00000001
 43
0.00000001
 40
0.0
 40
0.0
 40
0.0
 40
0.0
 40
0.0080682343514063
 40
0.0201431362670159
 40
0.0322243233552155
 40
0.0442938533792347
 40
0.0563765379164315
 40
0.0684473079079982
 40
0.0805266985547914
 40
0.0919152553007914
 40
0.1032964366561074
 40
0.1146891778563371
 40
0.126069799710632
 40
0.1374590903456355
 40
0.1495377326352651
 40
0.1616091225430348
 40
0.1736916573183709
 40
0.1857609806636119
 40
0.1978426169469379
 40
0.209916486069154
 40
0.2213022210599364
 40
0.2326938240731993
 40
0.2440732708609517
 40
0.2554652410060681
 40
0.266849946409867
 40
0.2789248483254766
 40
0.2910060354136763
 40
0.3030755654376955
 40
0.3151582499748922
 40
0.3272290199664589
 40
0.339308410613252
 40
0.3506969673592518
 40
0.3620781487145676
 40
0.3734708899147972
 40
0.3848515117690918
 40
0.3962408024040959
 40
0.4083194446937256
 40
0.4203908346014954
 40
0.4324733693768315
 40
0.4445426927220724
 40
0.4566243290053986
 40
0.4686981981276148
 40
0.4800839331183969
 40
0.4914755361316598
 40
0.5028549829194121
 40
0.5142469530645287
 40
0.5256316584683277
 40
0.5377065603839372
 40
0.5497877474721368
 40
0.5618572774961559
 40
0.5739399620333527
 40
0.5860107320249195
 40
0.5980901226717127
 40
0.6094786794177125
 40
0.6208598607730283
 40
0.632252601973258
 40
0.6436332238275527
 40
0.6550225144625567
 40
0.6671011567521863
 40
0.6791725466599562
 40
0.6912550814352925
 40
0.7033244047805334
 40
0.7154060410638594
 40
0.7274799101860753
 40
0.7388656451768575
 40
0.7502572481901205
 40
0.7616366949778728
 40
0.7730286651229893
 40
0.7844133705267883
 40
0.7964882724423976
 40
0.8085694595305974
 40
0.8206389895546164
 40
0.8327216740918131
 40
0.8447924440833797
 40
0.856871834730173
 40
0.868260391476173
 40
0.8796415728314887
 40
0.8910343140317183
 40
0.902414935886013
 40
0.913804226521017
 40
0.9251304033958675
 40
0.9364478020741872
 40
0.9477773600679275
 40
0.9590956470814215
 40
0.9704206694107944
 40
0.9817478325885844
 40
0.9950862456339797
 40
0.9999999999999999
 40
0.9999999999999999
 40
0.9999999999999999
 40
0.9999999999999999
 10
919.159289389301
 20
468.0592232316612
 30
0.0
 10
922.5861591219694
 20
468.1772379337605
 30
0.0
 10
931.1416746149498
 20
468.4718731813701
 30
0.0
 10
944.840148570832
 20
467.923641784392
 30
0.0
 10
960.1523142048829
 20
466.2468734277613
 30
0.0
 10
975.3045309125947
 20
463.4348993018637
 30
0.0
 10
990.2051285430487
 20
459.5268002456592
 30
0.0
 10
1004.784022738631
 20
454.5350734556086
 30
0.0
 10
1018.686439532785
 20
448.6053380459385
 30
0.0
 10
1031.869235610725
 20
441.8359621560137
 30
0.0
 10
1044.30367307983
 20
434.3232176699552
 30
0.0
 10
1056.186282790899
 20
425.9719691920285
 30
0.0
 10
1067.466981302687
 20
416.8174404385706
 30
0.0
 10
1078.301445988858
 20
406.7072333722572
 30
0.0
 10
1088.590166952844
 20
395.6351453050106
 30
0.0
 10
1098.224864410444
 20
383.6090759980664
 30
0.0
 10
1106.950333836742
 20
370.9133838134844
 30
0.0
 10
1114.72514394161
 20
357.6083874472235
 30
0.0
 10
1121.502784459906
 20
343.7736780123821
 30
0.0
 10
1127.140657621871
 20
329.7488885411433
 30
0.0
 10
1131.676142963591
 20
315.6396543101959
 30
0.0
 10
1135.155503839693
 20
301.5376979455665
 30
0.0
 10
1137.653298071179
 20
287.2259860212588
 30
0.0
 10
1139.156459037295
 20
272.7794372795396
 30
0.0
 10
1139.668463244293
 20
257.9677830697001
 30
0.0
 10
1139.114649344753
 20
242.8626067332669
 30
0.0
 10
1137.423989697478
 20
227.5495884430276
 30
0.0
 10
1134.615735790351
 20
212.3976000846924
 30
0.0
 10
1130.706639349146
 20
197.4969412341174
 30
0.0
 10
1125.715179829966
 20
182.9180634437901
 30
0.0
 10
1119.785373630815
 20
169.0156423045328
 30
0.0
 10
1113.01601565329
 20
155.832847326068
 30
0.0
 10
1105.503266464684
 20
143.3984095683172
 30
0.0
 10
1097.15201924743
 20
131.5157999346298
 30
0.0
 10
1087.997490156533
 20
120.2351014021293
 30
0.0
 10
1077.887283181822
 20
109.4006367215802
 30
0.0
 10
1066.815195088602
 20
99.11191575599985
 30
0.0
 10
1054.78912578875
 20
89.47721829883525
 30
0.0
 10
1042.093433602267
 20
80.7517488724203
 30
0.0
 10
1028.788437236515
 20
72.97693876758404
 30
0.0
 10
1014.953727801537
 20
66.19929824927937
 30
0.0
 10
1000.928938330334
 20
60.5614250873161
 30
0.0
 10
986.8197040993778
 20
56.02593974559642
 30
0.0
 10
972.7177477347511
 20
52.54657886949391
 30
0.0
 10
958.4060358104426
 20
50.04878463800846
 30
0.0
 10
943.9594870687237
 20
48.54562367189241
 30
0.0
 10
929.147832858884
 20
48.03361946489443
 30
0.0
 10
914.0426565224507
 20
48.58743336443452
 30
0.0
 10
898.7296382322118
 20
50.27809301170874
 30
0.0
 10
883.5776498738763
 20
53.08634691883562
 30
0.0
 10
868.6769910233013
 20
56.99544336004134
 30
0.0
 10
854.098113232974
 20
61.98690287922079
 30
0.0
 10
840.1956920937165
 20
67.91670907837269
 30
0.0
 10
827.0128971152517
 20
74.68606705589673
 30
0.0
 10
814.5784593575008
 20
82.19881624450298
 30
0.0
 10
802.6958497238137
 20
90.55006346175674
 30
0.0
 10
791.4151511913128
 20
99.7045925526542
 30
0.0
 10
780.5806865107639
 20
109.8147995273653
 30
0.0
 10
770.2919655451835
 20
120.8868876205848
 30
0.0
 10
760.657268088019
 20
132.9129569204375
 30
0.0
 10
751.9317986616039
 20
145.6086491069205
 30
0.0
 10
744.1569885567677
 20
158.9136454726724
 30
0.0
 10
737.3793480384629
 20
172.7483549076503
 30
0.0
 10
731.7414748765
 20
186.7731443788527
 30
0.0
 10
727.2059895347799
 20
200.8823786098091
 30
0.0
 10
723.7266286586786
 20
214.9843349744365
 30
0.0
 10
721.2288344271889
 20
229.2960468987423
 30
0.0
 10
719.7256734610891
 20
243.7425956404714
 30
0.0
 10
719.2136692540292
 20
258.554249850272
 30
0.0
 10
719.7674831538131
 20
273.6594261868607
 30
0.0
 10
721.4581428001667
 20
288.9724444765125
 30
0.0
 10
724.2663967107259
 20
304.1244328370361
 30
0.0
 10
728.1754931391163
 20
319.0250916794416
 30
0.0
 10
733.1669527060998
 20
333.6039695002428
 30
0.0
 10
739.0967587301626
 20
347.5063905278857
 30
0.0
 10
745.8661173251667
 20
360.6891858999772
 30
0.0
 10
753.3788642389869
 20
373.1236222076141
 30
0.0
 10
761.7301199544988
 20
385.0062372587095
 30
0.0
 10
770.884617345953
 20
396.2869155836779
 30
0.0
 10
780.7766384034182
 20
406.8875130232084
 30
0.0
 10
791.355578665034
 20
416.7631824143594
 30
0.0
 10
802.5684096988633
 20
425.8729939225196
 30
0.0
 10
814.3768375040938
 20
434.1902632654333
 30
0.0
 10
826.7330625258782
 20
441.6739239442826
 30
0.0
 10
839.5683981215578
 20
448.3092897456791
 30
0.0
 10
853.6351906562103
 20
454.315441424735
 30
0.0
 10
865.4776581656763
 20
458.6182789701895
 30
0.0
 10
873.009215340033
 20
460.4767785956455
 30
0.0
 10
875.0368223148233
 20
460.9771142786899
 30
0.0
  0
SPLINE
  5
294
330
1F
100
AcDbEntity
  8
0
100
AcDbSpline
210
0.0
220
0.0
230
1.0
 70
     8
 71
     3
 72
    11
 73
     7
 74
     0
 42
0.00000001
 43
0.00000001
 40
0.0
 40
0.0
 40
0.0
 40
0.0
 40
0.0331097321448924
 40
0.4283445194889019
 40
0.9865275324504408
 40
1.0
 40
1.0
 40
1.0
 40
1.0
 10
922.653981471718
 20
467.3837920482637
 30
0.0
 10
922.6166100482101
 20
467.3922882100165
 30
0.0
 10
922.133131523677
 20
467.5022040591579
 30
0.0
 10
920.9791659831341
 20
467.4918481616479
 30
0.0
 10
919.8649022059944
 20
467.4928814198149
 30
0.0
 10
919.2042292843869
 20
467.4607008831418
 30
0.0
 10
919.1886589018737
 20
467.4599424696378
 30
0.0
  0
SPLINE
  5
295
330
1F
100
AcDbEntity
  8
0
100
AcDbSpline
210
0.0
220
0.0
230
1.0
 70
     8
 71
     3
 72
    10
 73
     6
 74
     0
 42
0.00000001
 43
0.00000001
 40
0.0
 40
0.0
 40
0.0
 40
0.0
 40
0.2118594437510152
 40
0.6056387401611922
 40
1.0
 40
1.0
 40
1.0
 40
1.0
 10
880.3361947289344
 20
461.873427901397
 30
0.0
 10
880.2054781133274
 20
461.8411697393299
 30
0.0
 10
879.8318009007724
 20
461.7489539178948
 30
0.0
 10
879.2181602433925
 20
461.5825642699907
 30
0.0
 10
878.7423540075968
 20
461.4258246332888
 30
0.0
 10
878.5042752219034
 20
461.3473969466201
 30
0.0
  0
ARC
  5
296
330
1F
100
AcDbEntity
  8
0
100
AcDbCircle
 10
929.4410662492
 20
258.26101646
 30
0.0
 40
209.450000000001
100
AcDbArc
 50
92.8057030444
 51
103.5590127585
  0
ARC
  5
297
330
1F
100
AcDbEntity
  8
0
100
AcDbCircle
 10
929.4410662492
 20
258.26101646
 30
0.0
 40
210.050000000001
100
AcDbArc
 50
92.8057030444
 51
104.2915778728
  0
SPLINE
  5
298
330
1F
100
AcDbEntity
  8
0
100
AcDbSpline
210
0.0
220
0.0
230
1.0
 70
     8
 71
     3
 72
    10
 73
     6
 74
     0
 42
0.00000001
 43
0.00000001
 40
0.0
 40
0.0
 40
0.0
 40
0.0
 40
0.2113152312582864
 40
0.605408410405767
 40
0.9999999999999999
 40
0.9999999999999999
 40
0.9999999999999999
 40
0.9999999999999999
 10
875.7588529536766
 20
461.2597029755613
 30
0.0
 10
875.8858629998115
 20
461.3044564517344
 30
0.0
 10
876.2497409355296
 20
461.4326731009023
 30
0.0
 10
876.8598434491752
 20
461.6177179770903
 30
0.0
 10
877.345741177404
 20
461.7461422723401
 30
0.0
 10
877.5888435733941
 20
461.8103949989217
 30
0.0
  0
LINE
  5
299
330
1F
100
AcDbEntity
  8
0
100
AcDbLine
 10
869.1184957682
 20
458.6607968034
 30
0.0
 11
875.7588529537
 21
461.2597029756
 31
0.0
  0
INSERT
  5
2A5
330
1F
100
AcDbEntity
  8
0
  6
Continuous
 62
     7
370
    18
100
AcDbBlockReference
  2
SW_CENTERMARKSYMBOL_0
 10
929.4410662492
 20
258.26101646
 30
0.0
  0
ENDSEC
  0
SECTION
  2
OBJECTS
  0
DICTIONARY
  5
C
330
0
100
AcDbDictionary
281
     1
  3
ACAD_GROUP
350
D
  3
ACAD_LAYOUT
350
1A
  3
ACAD_MLINESTYLE
350
17
  3
ACAD_PLOTSETTINGS
350
19
  3
ACAD_PLOTSTYLENAME
350
E
  3
ACAD_SCALELIST
350
47
  3
DWGPROPS
350
2A6
  0
DICTIONARY
  5
D
102
{ACAD_REACTORS
330
C
102
}
330
C
100
AcDbDictionary
281
     1
  0
DICTIONARY
  5
1A
102
{ACAD_REACTORS
330
C
102
}
330
C
100
AcDbDictionary
281
     1
  3
Layout1
350
1E
  3
Layout2
350
26
  3
Model
350
22
  0
DICTIONARY
  5
17
102
{ACAD_REACTORS
330
C
102
}
330
C
100
AcDbDictionary
281
     1
  3
Standard
350
18
  0
DICTIONARY
  5
19
102
{ACAD_REACTORS
330
C
102
}
330
C
100
AcDbDictionary
281
     1
  0
ACDBDICTIONARYWDFLT
  5
E
102
{ACAD_REACTORS
330
C
102
}
330
C
100
AcDbDictionary
281
     1
  3
Normal
350
F
100
AcDbDictionaryWithDefault
340
F
  0
DICTIONARY
  5
47
102
{ACAD_REACTORS
330
C
102
}
330
C
100
AcDbDictionary
281
     1
  3
A0
350
48
  3
A1
350
49
  3
A2
350
4A
  3
A3
350
4B
  3
A4
350
4C
  3
A5
350
4D
  3
A6
350
4E
  3
A7
350
4F
  3
A8
350
50
  3
A9
350
51
  3
B0
350
52
  3
B1
350
53
  3
B2
350
54
  3
B3
350
55
  3
B4
350
56
  3
B5
350
57
  3
B6
350
58
  3
B7
350
59
  3
B8
350
5A
  3
B9
350
5B
  3
C0
350
5C
  3
C1
350
5D
  3
C2
350
5E
  3
C3
350
5F
  3
C4
350
60
  3
C5
350
61
  3
C6
350
62
  3
C7
350
63
  3
C8
350
64
  3
C9
350
65
  3
D0
350
66
  3
D1
350
67
  3
D2
350
68
  0
XRECORD
  5
2A6
102
{ACAD_REACTORS
330
C
102
}
330
C
100
AcDbXrecord
280
     1
  1
DWGPROPS COOKIE
  2

  3

  4

  6

  7

  8
Emilis.Masalas
  9

300
=
301
=
302
=
303
=
304
=
305
=
306
=
307
=
308
=
309
=
 40
0.0
 41
2459180.320139444
 42
2459180.320140255
  1

 90
        0
  0
LAYOUT
  5
1E
102
{ACAD_REACTORS
330
1A
102
}
330
1A
100
AcDbPlotSettings
  1

  2
none_device
  4

  6

 40
0.0
 41
0.0
 42
0.0
 43
0.0
 44
0.0
 45
0.0
 46
0.0
 47
0.0
 48
0.0
 49
0.0
140
0.0
141
0.0
142
1.0
143
1.0
 70
   688
 72
     1
 73
     0
 74
     5
  7

 75
    16
147
1.0
148
0.0
149
0.0
100
AcDbLayout
  1
Layout1
 70
     1
 71
     1
 10
0.0
 20
0.0
 11
420.0
 21
297.0
 12
0.0
 22
0.0
 32
0.0
 14
1.0000000000E+20
 24
1.0000000000E+20
 34
1.0000000000E+20
 15
-1.0000000000E+20
 25
-1.0000000000E+20
 35
-1.0000000000E+20
146
0.0
 13
0.0
 23
0.0
 33
0.0
 16
1.0
 26
0.0
 36
0.0
 17
0.0
 27
1.0
 37
0.0
 76
     0
330
1B
  0
LAYOUT
  5
26
102
{ACAD_REACTORS
330
1A
102
}
330
1A
100
AcDbPlotSettings
  1

  2
none_device
  4

  6

 40
0.0
 41
0.0
 42
0.0
 43
0.0
 44
0.0
 45
0.0
 46
0.0
 47
0.0
 48
0.0
 49
0.0
140
0.0
141
0.0
142
1.0
143
1.0
 70
   688
 72
     1
 73
     0
 74
     5
  7

 75
    16
147
1.0
148
0.0
149
0.0
100
AcDbLayout
  1
Layout2
 70
     1
 71
     2
 10
0.0
 20
0.0
 11
0.0
 21
0.0
 12
0.0
 22
0.0
 32
0.0
 14
0.0
 24
0.0
 34
0.0
 15
0.0
 25
0.0
 35
0.0
146
0.0
 13
0.0
 23
0.0
 33
0.0
 16
1.0
 26
0.0
 36
0.0
 17
0.0
 27
1.0
 37
0.0
 76
     0
330
23
  0
LAYOUT
  5
22
102
{ACAD_REACTORS
330
1A
102
}
330
1A
100
AcDbPlotSettings
  1

  2
none_device
  4
Letter_(8.50_x_11.00_Inches)
  6

 40
6.35
 41
6.35
 42
6.35000508
 43
6.35000508
 44
215.9
 45
279.4
 46
0.0
 47
0.0
 48
0.0
 49
0.0
140
0.0
141
0.0
142
1.0
143
1.0
 70
  1712
 72
     1
 73
     0
 74
     0
  7

 75
     0
147
1.0
148
0.0
149
0.0
100
AcDbLayout
  1
Model
 70
     1
 71
     0
 10
0.0
 20
0.0
 11
420.0
 21
297.0
 12
0.0
 22
0.0
 32
0.0
 14
0.0
 24
0.0
 34
0.0
 15
420.0
 25
297.0
 35
0.0
146
0.0
 13
0.0
 23
0.0
 33
0.0
 16
1.0
 26
0.0
 36
0.0
 17
0.0
 27
1.0
 37
0.0
 76
     0
330
1F
331
29
  0
MLINESTYLE
  5
18
102
{ACAD_REACTORS
330
17
102
}
330
17
100
AcDbMlineStyle
  2
Standard
 70
     0
  3

 62
   256
 51
90.0
 52
90.0
 71
     2
 49
0.5
 62
   256
  6
BYLAYER
 49
-0.5
 62
   256
  6
BYLAYER
  0
ACDBPLACEHOLDER
  5
F
102
{ACAD_REACTORS
330
E
102
}
330
E
  0
SCALE
  5
48
102
{ACAD_REACTORS
330
47
102
}
330
47
100
AcDbScale
 70
     0
300
1:1
140
1.0
141
1.0
290
     1
  0
SCALE
  5
49
102
{ACAD_REACTORS
330
47
102
}
330
47
100
AcDbScale
 70
     0
300
1:2
140
1.0
141
2.0
290
     0
  0
SCALE
  5
4A
102
{ACAD_REACTORS
330
47
102
}
330
47
100
AcDbScale
 70
     0
300
1:4
140
1.0
141
4.0
290
     0
  0
SCALE
  5
4B
102
{ACAD_REACTORS
330
47
102
}
330
47
100
AcDbScale
 70
     0
300
1:5
140
1.0
141
5.0
290
     0
  0
SCALE
  5
4C
102
{ACAD_REACTORS
330
47
102
}
330
47
100
AcDbScale
 70
     0
300
1:8
140
1.0
141
8.0
290
     0
  0
SCALE
  5
4D
102
{ACAD_REACTORS
330
47
102
}
330
47
100
AcDbScale
 70
     0
300
1:10
140
1.0
141
10.0
290
     0
  0
SCALE
  5
4E
102
{ACAD_REACTORS
330
47
102
}
330
47
100
AcDbScale
 70
     0
300
1:16
140
1.0
141
16.0
290
     0
  0
SCALE
  5
4F
102
{ACAD_REACTORS
330
47
102
}
330
47
100
AcDbScale
 70
     0
300
1:20
140
1.0
141
20.0
290
     0
  0
SCALE
  5
50
102
{ACAD_REACTORS
330
47
102
}
330
47
100
AcDbScale
 70
     0
300
1:30
140
1.0
141
30.0
290
     0
  0
SCALE
  5
51
102
{ACAD_REACTORS
330
47
102
}
330
47
100
AcDbScale
 70
     0
300
1:40
140
1.0
141
40.0
290
     0
  0
SCALE
  5
52
102
{ACAD_REACTORS
330
47
102
}
330
47
100
AcDbScale
 70
     0
300
1:50
140
1.0
141
50.0
290
     0
  0
SCALE
  5
53
102
{ACAD_REACTORS
330
47
102
}
330
47
100
AcDbScale
 70
     0
300
1:100
140
1.0
141
100.0
290
     0
  0
SCALE
  5
54
102
{ACAD_REACTORS
330
47
102
}
330
47
100
AcDbScale
 70
     0
300
2:1
140
2.0
141
1.0
290
     0
  0
SCALE
  5
55
102
{ACAD_REACTORS
330
47
102
}
330
47
100
AcDbScale
 70
     0
300
4:1
140
4.0
141
1.0
290
     0
  0
SCALE
  5
56
102
{ACAD_REACTORS
330
47
102
}
330
47
100
AcDbScale
 70
     0
300
8:1
140
8.0
141
1.0
290
     0
  0
SCALE
  5
57
102
{ACAD_REACTORS
330
47
102
}
330
47
100
AcDbScale
 70
     0
300
10:1
140
10.0
141
1.0
290
     0
  0
SCALE
  5
58
102
{ACAD_REACTORS
330
47
102
}
330
47
100
AcDbScale
 70
     0
300
100:1
140
100.0
141
1.0
290
     0
  0
SCALE
  5
59
102
{ACAD_REACTORS
330
47
102
}
330
47
100
AcDbScale
 70
     0
300
1/128" = 1'-0"
140
0.0078125
141
12.0
290
     0
  0
SCALE
  5
5A
102
{ACAD_REACTORS
330
47
102
}
330
47
100
AcDbScale
 70
     0
300
1/64" = 1'-0"
140
0.015625
141
12.0
290
     0
  0
SCALE
  5
5B
102
{ACAD_REACTORS
330
47
102
}
330
47
100
AcDbScale
 70
     0
300
1/32" = 1'-0"
140
0.03125
141
12.0
290
     0
  0
SCALE
  5
5C
102
{ACAD_REACTORS
330
47
102
}
330
47
100
AcDbScale
 70
     0
300
1/16" = 1'-0"
140
0.0625
141
12.0
290
     0
  0
SCALE
  5
5D
102
{ACAD_REACTORS
330
47
102
}
330
47
100
AcDbScale
 70
     0
300
3/32" = 1'-0"
140
0.09375
141
12.0
290
     0
  0
SCALE
  5
5E
102
{ACAD_REACTORS
330
47
102
}
330
47
100
AcDbScale
 70
     0
300
1/8" = 1'-0"
140
0.125
141
12.0
290
     0
  0
SCALE
  5
5F
102
{ACAD_REACTORS
330
47
102
}
330
47
100
AcDbScale
 70
     0
300
3/16" = 1'-0"
140
0.1875
141
12.0
290
     0
  0
SCALE
  5
60
102
{ACAD_REACTORS
330
47
102
}
330
47
100
AcDbScale
 70
     0
300
1/4" = 1'-0"
140
0.25
141
12.0
290
     0
  0
SCALE
  5
61
102
{ACAD_REACTORS
330
47
102
}
330
47
100
AcDbScale
 70
     0
300
3/8" = 1'-0"
140
0.375
141
12.0
290
     0
  0
SCALE
  5
62
102
{ACAD_REACTORS
330
47
102
}
330
47
100
AcDbScale
 70
     0
300
1/2" = 1'-0"
140
0.5
141
12.0
290
     0
  0
SCALE
  5
63
102
{ACAD_REACTORS
330
47
102
}
330
47
100
AcDbScale
 70
     0
300
3/4" = 1'-0"
140
0.75
141
12.0
290
     0
  0
SCALE
  5
64
102
{ACAD_REACTORS
330
47
102
}
330
47
100
AcDbScale
 70
     0
300
1" = 1'-0"
140
1.0
141
12.0
290
     0
  0
SCALE
  5
65
102
{ACAD_REACTORS
330
47
102
}
330
47
100
AcDbScale
 70
     0
300
1-1/2" = 1'-0"
140
1.5
141
12.0
290
     0
  0
SCALE
  5
66
102
{ACAD_REACTORS
330
47
102
}
330
47
100
AcDbScale
 70
     0
300
3" = 1'-0"
140
3.0
141
12.0
290
     0
  0
SCALE
  5
67
102
{ACAD_REACTORS
330
47
102
}
330
47
100
AcDbScale
 70
     0
300
6" = 1'-0"
140
6.0
141
12.0
290
     0
  0
SCALE
  5
68
102
{ACAD_REACTORS
330
47
102
}
330
47
100
AcDbScale
 70
     0
300
1'-0" = 1'-0"
140
12.0
141
12.0
290
     0
  0
ENDSEC
  0
EOF
