  0
SECTION
  2
HEADER
  9
$ACADVER
  1
AC1009
  9
$INSBASE
 10
0.0
 20
0.0
 30
0.0
  9
$EXTMIN
 10
78.659893638288509
 20
103.101227474369
 30
-0.0015258207003583
  9
$EXTMAX
 10
356.93499001616448
 20
222.61549830701321
 30
0.0000000349246037
  9
$LIMMIN
 10
0.0
 20
0.0
  9
$LIMMAX
 10
12.0
 20
9.0
  9
$ORTHOMODE
 70
     1
  9
$REGENMODE
 70
     1
  9
$FILLMODE
 70
     1
  9
$QTEXTMODE
 70
     0
  9
$MIRRTEXT
 70
     0
  9
$DRAGMODE
 70
     2
  9
$LTSCALE
 40
1.0
  9
$OSMODE
 70
   951
  9
$ATTMODE
 70
     1
  9
$TEXTSIZE
 40
0.2
  9
$TRACEWID
 40
0.05
  9
$TEXTSTYLE
  7
STANDARD
  9
$CLAYER
  8
0
  9
$CELTYPE
  6
BYLAYER
  9
$CECOLOR
 62
   256
  9
$DIMSCALE
 40
1.0
  9
$DIMASZ
 40
3.5
  9
$DIMEXO
 40
0.0
  9
$DIMDLI
 40
7.0
  9
$DIMRND
 40
0.0
  9
$DIMDLE
 40
0.0
  9
$DIMEXE
 40
1.25
  9
$DIMTP
 40
0.0
  9
$DIMTM
 40
0.000000001
  9
$DIMTXT
 40
3.5
  9
$DIMCEN
 40
3.0
  9
$DIMTSZ
 40
0.0
  9
$DIMTOL
 70
     0
  9
$DIMLIM
 70
     0
  9
$DIMTIH
 70
     0
  9
$DIMTOH
 70
     1
  9
$DIMSE1
 70
     0
  9
$DIMSE2
 70
     0
  9
$DIMTAD
 70
     1
  9
$DIMZIN
 70
     8
  9
$DIMBLK
  1

  9
$DIMASO
 70
     1
  9
$DIMSHO
 70
     1
  9
$DIMPOST
  1

  9
$DIMAPOST
  1

  9
$DIMALT
 70
     0
  9
$DIMALTD
 70
     3
  9
$DIMALTF
 40
0.03937007874016
  9
$DIMLFAC
 40
1.0
  9
$DIMTOFL
 70
     1
  9
$DIMTVP
 40
0.0
  9
$DIMTIX
 70
     0
  9
$DIMSOXD
 70
     0
  9
$DIMSAH
 70
     0
  9
$DIMBLK1
  1

  9
$DIMBLK2
  1

  9
$DIMSTYLE
  2
COPY_OF_ISO-25
  9
$DIMCLRD
 70
   256
  9
$DIMCLRE
 70
   256
  9
$DIMCLRT
 70
   256
  9
$DIMTFAC
 40
1.0
  9
$DIMGAP
 40
1.0
  9
$LUNITS
 70
     2
  9
$LUPREC
 70
     4
  9
$SKETCHINC
 40
0.1
  9
$FILLETRAD
 40
0.0
  9
$AUNITS
 70
     0
  9
$AUPREC
 70
     0
  9
$MENU
  1
.
  9
$ELEVATION
 40
0.0
  9
$PELEVATION
 40
0.0
  9
$THICKNESS
 40
0.0
  9
$LIMCHECK
 70
     0
  9
$BLIPMODE
 70
     0
  9
$CHAMFERA
 40
0.0
  9
$CHAMFERB
 40
0.0
  9
$SKPOLY
 70
     0
  9
$TDCREATE
 40
2455699.5552378241
  9
$TDUPDATE
 40
2455699.6044137161
  9
$TDINDWG
 40
0.0077569792
  9
$TDUSRTIMER
 40
0.0077569792
  9
$USRTIMER
 70
     1
  9
$ANGBASE
 50
0.0
  9
$ANGDIR
 70
     0
  9
$PDMODE
 70
     0
  9
$PDSIZE
 40
0.0
  9
$PLINEWID
 40
0.0
  9
$COORDS
 70
     1
  9
$SPLFRAME
 70
     0
  9
$SPLINETYPE
 70
     6
  9
$SPLINESEGS
 70
     8
  9
$ATTDIA
 70
     0
  9
$ATTREQ
 70
     1
  9
$HANDLING
 70
     1
  9
$HANDSEED
  5
77F
  9
$SURFTAB1
 70
     6
  9
$SURFTAB2
 70
     6
  9
$SURFTYPE
 70
     6
  9
$SURFU
 70
     6
  9
$SURFV
 70
     6
  9
$UCSNAME
  2

  9
$UCSORG
 10
0.0
 20
0.0
 30
0.0
  9
$UCSXDIR
 10
1.0
 20
0.0
 30
0.0
  9
$UCSYDIR
 10
0.0
 20
1.0
 30
0.0
  9
$PUCSNAME
  2

  9
$PUCSORG
 10
0.0
 20
0.0
 30
0.0
  9
$PUCSXDIR
 10
1.0
 20
0.0
 30
0.0
  9
$PUCSYDIR
 10
0.0
 20
1.0
 30
0.0
  9
$USERI1
 70
     0
  9
$USERI2
 70
     0
  9
$USERI3
 70
     0
  9
$USERI4
 70
     0
  9
$USERI5
 70
     0
  9
$USERR1
 40
0.0
  9
$USERR2
 40
0.0
  9
$USERR3
 40
0.0
  9
$USERR4
 40
0.0
  9
$USERR5
 40
0.0
  9
$WORLDVIEW
 70
     1
  9
$SHADEDGE
 70
     3
  9
$SHADEDIF
 70
    70
  9
$TILEMODE
 70
     1
  9
$MAXACTVP
 70
    64
  9
$PLIMCHECK
 70
     0
  9
$PEXTMIN
 10
0.0
 20
0.0
 30
0.0
  9
$PEXTMAX
 10
0.0
 20
0.0
 30
0.0
  9
$PLIMMIN
 10
0.0
 20
0.0
  9
$PLIMMAX
 10
12.0
 20
9.0
  9
$UNITMODE
 70
     0
  9
$VISRETAIN
 70
     1
  9
$PLINEGEN
 70
     0
  9
$PSLTSCALE
 70
     1
  0
ENDSEC
  0
SECTION
  2
TABLES
  0
TABLE
  2
VPORT
 70
     2
  0
VPORT
  2
*ACTIVE
 70
     0
 10
0.0
 20
0.0
 11
1.0
 21
1.0
 12
217.79744182722649
 22
162.8583628906911
 13
0.0
 23
0.0
 14
0.5
 24
0.5
 15
0.5
 25
0.5
 16
0.0
 26
0.0
 36
1.0
 17
0.0
 27
0.0
 37
0.0
 40
135.0357314082014
 41
2.0698027314112291
 42
50.0
 43
0.0
 44
0.0
 50
0.0
 51
0.0
 71
     0
 72
  1000
 73
     1
 74
     3
 75
     0
 76
     0
 77
     0
 78
     0
  0
ENDTAB
  0
TABLE
  2
LTYPE
 70
     2
  0
LTYPE
  2
CONTINUOUS
 70
     0
  3
Solid line
 72
    65
 73
     0
 40
0.0
  0
LTYPE
  2
CENTER2
 70
     0
  3
Center (.5x) ___ _ ___ _ ___ _ ___ _ ___ _ ___
 72
    65
 73
     4
 40
28.574999999999999
 49
19.050000000000001
 49
-3.174999999999998
 49
3.174999999999998
 49
-3.174999999999998
  0
ENDTAB
  0
TABLE
  2
LAYER
 70
     3
  0
LAYER
  2
0
 70
     0
 62
     7
  6
CONTINUOUS
  0
LAYER
  2
DEFPOINTS
 70
     0
 62
   142
  6
CONTINUOUS
  0
LAYER
  2
PAGR
 70
     0
 62
     7
  6
CONTINUOUS
  0
ENDTAB
  0
TABLE
  2
STYLE
 70
     4
  0
STYLE
  2
STANDARD
 70
     0
 40
0.0
 41
1.0
 50
0.0
 71
     0
 42
0.2
  3
txt
  4

  0
STYLE
  2
LIETUV2
 70
     0
 40
2.5
 41
1.0
 50
0.0
 71
     0
 42
2.5
  3
txt
  4

  0
STYLE
  2
ISO_PROPORTIONAL
 70
     0
 40
0.0
 41
1.0
 50
0.0
 71
     0
 42
40.0
  3
romanc.shx
  4

  0
STYLE
  2
GOST
 70
     0
 40
0.0
 41
0.8
 50
0.0
 71
     0
 42
3.5
  3
litc.shx
  4

  0
ENDTAB
  0
TABLE
  2
VIEW
 70
     0
  0
ENDTAB
  0
TABLE
  2
UCS
 70
     0
  0
ENDTAB
  0
TABLE
  2
APPID
 70
     1
  0
APPID
  2
ACAD
 70
     0
  0
ENDTAB
  0
TABLE
  2
DIMSTYLE
 70
     6
  0
DIMSTYLE
  2
STANDARD
 70
     0
  3

  4

  5

  6

  7

 40
1.0
 41
0.18
 42
0.0625
 43
0.38
 44
0.18
 45
0.0
 46
0.0
 47
0.0
 48
0.0
140
0.18
141
0.09
142
0.0
143
25.399999999999999
144
1.0
145
0.0
146
1.0
147
0.09
 71
     0
 72
     0
 73
     1
 74
     1
 75
     0
 76
     0
 77
     0
 78
     0
170
     0
171
     2
172
     0
173
     0
174
     0
175
     0
176
     0
177
     0
178
     0
  0
DIMSTYLE
  2
ISO-25
 70
     0
  3

  4

  5

  6

  7

 40
1.0
 41
5.0
 42
0.625
 43
3.75
 44
1.25
 45
0.0
 46
0.0
 47
0.0
 48
0.0
140
2.5
141
1.5
142
0.0
143
0.03937007874016
144
1.0
145
0.0
146
1.0
147
0.625
 71
     0
 72
     0
 73
     0
 74
     1
 75
     0
 76
     0
 77
     1
 78
     8
170
     0
171
     3
172
     1
173
     0
174
     0
175
     0
176
     0
177
     0
178
     0
  0
DIMSTYLE
  2
COPY_OF_STANDARD
 70
     0
  3

  4

  5

  6

  7

 40
1.0
 41
3.7299999999999991
 42
0.0
 43
0.0
 44
1.0
 45
0.1
 46
0.0
 47
0.0
 48
0.000000001
140
3.5
141
0.09
142
0.0
143
25.399999999999999
144
1.0
145
0.0
146
1.0
147
1.0
 71
     0
 72
     0
 73
     0
 74
     1
 75
     0
 76
     0
 77
     1
 78
     8
170
     0
171
     2
172
     0
173
     0
174
     0
175
     1
176
     0
177
     0
178
     0
  0
DIMSTYLE
  2
COPY_OF_ISO-25
 70
     0
  3

  4

  5

  6

  7

 40
1.0
 41
3.5
 42
0.0
 43
7.0
 44
1.25
 45
0.0
 46
0.0
 47
0.0
 48
0.000000001
140
3.5
141
3.0
142
0.0
143
0.03937007874016
144
1.0
145
0.0
146
1.0
147
1.0
 71
     0
 72
     0
 73
     0
 74
     1
 75
     0
 76
     0
 77
     1
 78
     8
170
     0
171
     3
172
     1
173
     0
174
     0
175
     0
176
   256
177
   256
178
   256
  0
DIMSTYLE
  2
GOST
 70
     0
  3

  4

  5

  6

  7

 40
0.0
 41
3.0
 42
0.0
 43
8.0
 44
1.25
 45
0.0
 46
0.0
 47
0.0
 48
0.0
140
3.0
141
5.0
142
0.0
143
25.399999999999999
144
1.0
145
0.0
146
1.0
147
0.625
 71
     0
 72
     0
 73
     0
 74
     1
 75
     0
 76
     0
 77
     1
 78
     8
170
     0
171
     2
172
     1
173
     0
174
     0
175
     0
176
     0
177
     0
178
     0
  0
DIMSTYLE
  2
ISO-25M
 70
     0
  3

  4

  5

  6

  7

 40
2.0
 41
2.5
 42
0.0
 43
3.75
 44
1.25
 45
0.0
 46
0.0
 47
0.0
 48
0.000000001
140
2.5
141
2.5
142
0.0
143
0.03937007874016
144
1.0
145
0.0
146
1.0
147
0.625
 71
     0
 72
     0
 73
     0
 74
     0
 75
     0
 76
     0
 77
     1
 78
     8
170
     0
171
     3
172
     1
173
     0
174
     0
175
     0
176
     0
177
     0
178
     0
  0
ENDTAB
  0
ENDSEC
  0
SECTION
  2
BLOCKS
  0
BLOCK
  8
0
  2
$MODEL_SPACE
 70
     0
 10
0.0
 20
0.0
 30
0.0
  3
$MODEL_SPACE
  1

  0
ENDBLK
  5
6CB
  8
0
  0
BLOCK
 67
     1
  8
0
  2
$PAPER_SPACE
 70
     0
 10
0.0
 20
0.0
 30
0.0
  3
$PAPER_SPACE
  1

  0
ENDBLK
  5
6C7
 67
     1
  8
0
  0
BLOCK
  8
0
  2
*D2
 70
     1
 10
0.0
 20
0.0
 30
0.0
  3
*D2
  1

  0
LINE
  5
501
  8
0
 10
243.17231105738909
 20
162.8569186414496
 30
0.0
 11
243.17231105738909
 21
93.767282039403554
 31
0.0
  0
LINE
  5
502
  8
0
 10
351.17231105738472
 20
162.8569186414787
 30
0.0
 11
351.17231105738472
 21
93.767282039403554
 31
0.0
  0
LINE
  5
503
  8
0
 10
246.67231105738909
 20
95.017282039403554
 30
0.0
 11
347.67231105738449
 21
95.017282039403554
 31
0.0
  0
SOLID
  5
504
  8
0
 10
246.67231105738909
 20
95.600615372736854
 30
0.0
 11
246.67231105738909
 21
94.433948706070197
 31
0.0
 12
243.17231105738909
 22
95.017282039403554
 32
0.0
 13
243.17231105738909
 23
95.017282039403554
 33
0.0
  0
SOLID
  5
505
  8
0
 10
347.67231105738449
 20
95.600615372736854
 30
0.0
 11
347.67231105738449
 21
94.433948706070197
 31
0.0
 12
351.17231105738472
 22
95.017282039403554
 32
0.0
 13
351.17231105738472
 23
95.017282039403554
 33
0.0
  0
INSERT
  5
506
  8
0
  2
*U3
 10
0.0
 20
0.0
 30
0.0
  0
POINT
  5
507
  8
DEFPOINTS
 62
     0
 10
243.17231105738909
 20
162.8569186414496
 30
0.0
  0
POINT
  5
508
  8
DEFPOINTS
 62
     0
 10
351.17231105738472
 20
162.8569186414787
 30
0.0
  0
POINT
  5
509
  8
DEFPOINTS
 62
     0
 10
351.17231105738472
 20
95.017282039403554
 30
0.0
  0
ENDBLK
  5
4CF
  8
0
  0
BLOCK
  8
0
  2
*U3
 70
     1
 10
0.0
 20
0.0
 30
0.0
  3
*U3
  1

  0
TEXT
  5
611
  8
0
 10
293.38064439072008
 20
96.017282039403526
 30
0.0
 40
3.5
  1
108
  0
ENDBLK
  5
613
  8
0
  0
BLOCK
  8
0
  2
*D4
 70
     1
 10
0.0
 20
0.0
 30
0.0
  3
*D4
  1

  0
LINE
  5
518
  8
0
 10
87.438113534106108
 20
133.784249350343
 30
0.0
 11
87.438113534106108
 21
131.06715709418069
 31
0.0
  0
LINE
  5
519
  8
0
 10
179.43811353410609
 20
133.784249350343
 30
0.0
 11
179.43811353410609
 21
131.06715709418069
 31
0.0
  0
LINE
  5
51A
  8
0
 10
90.938113534106066
 20
132.31715709418069
 30
0.0
 11
175.93811353410609
 21
132.31715709418069
 31
0.0
  0
SOLID
  5
51B
  8
0
 10
90.938113534106066
 20
132.900490427514
 30
0.0
 11
90.938113534106066
 21
131.73382376084729
 31
0.0
 12
87.438113534106108
 22
132.31715709418069
 32
0.0
 13
87.438113534106108
 23
132.31715709418069
 33
0.0
  0
SOLID
  5
51C
  8
0
 10
175.93811353410609
 20
132.900490427514
 30
0.0
 11
175.93811353410609
 21
131.73382376084729
 31
0.0
 12
179.43811353410609
 22
132.31715709418069
 32
0.0
 13
179.43811353410609
 23
132.31715709418069
 33
0.0
  0
INSERT
  5
51D
  8
0
  2
*U5
 10
0.0
 20
0.0
 30
0.0
  0
POINT
  5
51E
  8
DEFPOINTS
 62
     0
 10
87.438113534106108
 20
133.784249350343
 30
0.0
  0
POINT
  5
51F
  8
DEFPOINTS
 62
     0
 10
179.43811353410609
 20
133.784249350343
 30
0.0
  0
POINT
  5
520
  8
DEFPOINTS
 62
     0
 10
179.43811353410609
 20
132.31715709418069
 30
0.0
  0
ENDBLK
  5
516
  8
0
  0
BLOCK
  8
0
  2
*U5
 70
     1
 10
0.0
 20
0.0
 30
0.0
  3
*U5
  1

  0
TEXT
  5
615
  8
0
 10
130.10478020077269
 20
133.31715709418069
 30
0.0
 40
3.5
  1
92
  7
ISO_PROPORTIONAL
  0
ENDBLK
  5
617
  8
0
  0
BLOCK
  8
0
  2
*D6
 70
     1
 10
0.0
 20
0.0
 30
0.0
  3
*D6
  1

  0
LINE
  5
530
  8
0
 10
87.438113534106108
 20
212.35691864144599
 30
0.0
 11
81.793644632922209
 21
212.35691864144599
 31
0.0
  0
LINE
  5
531
  8
0
 10
87.438113534106108
 20
113.3569186414514
 30
0.0
 11
81.793644632922209
 21
113.3569186414514
 31
0.0
  0
LINE
  5
532
  8
0
 10
83.043644632922209
 20
208.85691864144599
 30
0.0
 11
83.043644632922209
 21
116.8569186414514
 31
0.0
  0
SOLID
  5
533
  8
0
 10
82.460311299588909
 20
208.85691864144599
 30
0.0
 11
83.626977966255552
 21
208.85691864144599
 31
0.0
 12
83.043644632922209
 22
212.35691864144599
 32
0.0
 13
83.043644632922209
 23
212.35691864144599
 33
0.0
  0
SOLID
  5
534
  8
0
 10
82.460311299588909
 20
116.8569186414514
 30
0.0
 11
83.626977966255552
 21
116.8569186414514
 31
0.0
 12
83.043644632922209
 22
113.3569186414514
 32
0.0
 13
83.043644632922209
 23
113.3569186414514
 33
0.0
  0
INSERT
  5
535
  8
0
  2
*U7
 10
0.0
 20
0.0
 30
0.0
  0
POINT
  5
536
  8
DEFPOINTS
 62
     0
 10
87.438113534106108
 20
212.35691864144599
 30
0.0
  0
POINT
  5
537
  8
DEFPOINTS
 62
     0
 10
87.438113534106108
 20
113.3569186414514
 30
0.0
  0
POINT
  5
538
  8
DEFPOINTS
 62
     0
 10
83.043644632922209
 20
113.3569186414514
 30
0.0
  0
ENDBLK
  5
52E
  8
0
  0
BLOCK
  8
0
  2
*U7
 70
     1
 10
0.0
 20
0.0
 30
0.0
  3
*U7
  1

  0
TEXT
  5
619
  8
0
 10
82.043644632922195
 20
159.5235853081154
 30
0.0
 40
3.5
  1
99
 50
90.0
  7
ISO_PROPORTIONAL
  0
ENDBLK
  5
61B
  8
0
  0
BLOCK
  8
0
  2
*D8
 70
     1
 10
0.0
 20
0.0
 30
0.0
  3
*D8
  1

  0
LINE
  5
548
  8
0
 10
353.21481589101859
 20
208.81756730027351
 30
0.0
 11
340.2148158910187
 21
208.81756730027351
 31
0.0
  0
LINE
  5
549
  8
0
 10
340.2148158910187
 20
208.81756730027351
 30
0.0
 11
335.10964597383338
 21
203.3662832308583
 31
0.0
  0
LINE
  5
54A
  8
0
 10
259.23497614093401
 20
122.3475540520535
 30
0.0
 11
256.84253159665337
 21
119.7929094383075
 31
0.0
  0
INSERT
  5
54B
  8
0
  2
*U9
 10
0.0
 20
0.0
 30
0.0
  0
LINE
  5
54C
  8
0
 10
261.62742068521459
 20
124.9021986657997
 30
0.0
 11
332.71720142955269
 21
200.81163861711229
 31
0.0
  0
SOLID
  5
54D
  8
0
 10
258.80920203864298
 20
122.74629480943371
 30
0.0
 11
259.6607502432251
 21
121.9488132946735
 31
0.0
 12
261.62742068521459
 22
124.9021986657997
 32
0.0
 13
261.62742068521459
 23
124.9021986657997
 33
0.0
  0
SOLID
  5
54E
  8
0
 10
334.68387187154241
 20
203.7650239882384
 30
0.0
 11
335.53542007612441
 21
202.96754247347829
 31
0.0
 12
332.71720142955269
 22
200.81163861711229
 32
0.0
 13
332.71720142955269
 23
200.81163861711229
 33
0.0
  0
POINT
  5
54F
  8
DEFPOINTS
 62
     0
 10
332.71720142955269
 20
200.81163861711229
 30
0.0
  0
POINT
  5
550
  8
DEFPOINTS
 62
     0
 10
261.62742068521459
 20
124.9021986657997
 30
0.0
  0
ENDBLK
  5
546
  8
0
  0
BLOCK
  8
0
  2
*U9
 70
     1
 10
0.0
 20
0.0
 30
0.0
  3
*U9
  1

  0
TEXT
  5
61D
  8
0
 10
340.88148255768539
 20
209.81756730027351
 30
0.0
 40
3.5
  1
\U+2205104
  7
ISO_PROPORTIONAL
  0
ENDBLK
  5
61F
  8
0
  0
ENDSEC
  0
SECTION
  2
ENTITIES
  0
POLYLINE
  5
2B6
  8
0
 66
     1
 10
0.0
 20
0.0
 30
0.0
  0
VERTEX
  5
6F5
  8
0
 10
252.50688818912809
 20
151.8569186414496
 30
0.0
  0
VERTEX
  5
6F6
  8
0
 10
341.83773392564092
 20
151.8569186414496
 30
0.0
  0
SEQEND
  5
6F7
  8
0
  0
POLYLINE
  5
2B7
  8
0
 66
     1
 10
0.0
 20
0.0
 30
0.0
  0
VERTEX
  5
6F8
  8
0
 10
252.50688818913
 20
173.8569186414496
 30
0.0
  0
VERTEX
  5
6F9
  8
0
 10
341.83773392563739
 20
173.8569186414496
 30
0.0
  0
SEQEND
  5
6FA
  8
0
  0
LINE
  5
2BC
  8
0
 10
141.93811353410609
 20
212.3569186414496
 30
0.0
 11
165.43811353410419
 21
212.3569186414496
 31
0.0
  0
LINE
  5
2BD
  8
0
 10
128.43811353410609
 20
161.59299617547541
 30
0.0
 11
128.43811353410609
 21
151.9569843383141
 31
0.0
  0
LINE
  5
2C5
  8
0
 10
128.43811353410609
 20
173.75685294458879
 30
0.0
 11
128.43811353410609
 21
164.12084110742379
 31
0.0
  0
LINE
  5
2C6
  8
0
 10
141.93811353410609
 20
113.3569186414496
 30
0.0
 11
165.43811353410419
 21
113.3569186414496
 31
0.0
  0
LINE
  5
2D1
  8
0
 10
128.43811353410609
 20
210.44023275399729
 30
0.0
 11
128.43811353410609
 21
173.75685294458501
 31
0.0
  0
POLYLINE
  5
2D2
  8
0
  6
CENTER2
 62
     7
 66
     1
 10
0.0
 20
0.0
 30
0.0
  0
VERTEX
  5
6FB
  8
0
  6
CENTER2
 62
     7
 10
120.39931617496561
 20
162.8569186414496
 30
0.0
  0
VERTEX
  5
6FC
  8
0
  6
CENTER2
 62
     7
 10
126.4874306076851
 20
162.8569186414496
 30
0.0
  0
SEQEND
  5
6FD
  8
0
  6
CENTER2
 62
     7
  0
POLYLINE
  5
2D3
  8
0
  6
CENTER2
 62
     7
 66
     1
 10
0.0
 20
0.0
 30
0.0
  0
VERTEX
  5
6FE
  8
0
  6
CENTER2
 62
     7
 10
123.18811353410609
 20
161.02778837037829
 30
0.0
  0
VERTEX
  5
6FF
  8
0
  6
CENTER2
 62
     7
 10
123.18811353410609
 20
165.11484140732119
 30
0.0
  0
SEQEND
  5
700
  8
0
  6
CENTER2
 62
     7
  0
POLYLINE
  5
2D4
  8
0
  6
CENTER2
 62
     7
 66
     1
 10
0.0
 20
0.0
 30
0.0
  0
VERTEX
  5
701
  8
0
  6
CENTER2
 62
     7
 10
123.18811353410609
 20
164.6860489125209
 30
0.0
  0
VERTEX
  5
702
  8
0
  6
CENTER2
 62
     7
 10
123.18811353410609
 20
160.598995875578
 30
0.0
  0
SEQEND
  5
703
  8
0
  6
CENTER2
 62
     7
  0
POLYLINE
  5
2D5
  8
0
  6
CENTER2
 62
     7
 66
     1
 10
0.0
 20
0.0
 30
0.0
  0
VERTEX
  5
704
  8
0
  6
CENTER2
 62
     7
 10
120.39931617496561
 20
162.8569186414496
 30
0.0
  0
VERTEX
  5
705
  8
0
  6
CENTER2
 62
     7
 10
125.06862109670659
 20
162.8569186414496
 30
0.0
  0
SEQEND
  5
706
  8
0
  6
CENTER2
 62
     7
  0
POLYLINE
  5
2DA
  8
0
  6
CENTER2
 62
     7
 66
     1
 10
0.0
 20
0.0
 30
0.0
  0
VERTEX
  5
707
  8
0
  6
CENTER2
 62
     7
 10
120.39931617496561
 20
162.8569186414496
 30
0.0
  0
VERTEX
  5
708
  8
0
  6
CENTER2
 62
     7
 10
125.06862109670659
 20
162.8569186414496
 30
0.0
  0
SEQEND
  5
709
  8
0
  6
CENTER2
 62
     7
  0
POLYLINE
  5
2DB
  8
0
  6
CENTER2
 62
     7
 66
     1
 10
0.0
 20
0.0
 30
0.0
  0
VERTEX
  5
70A
  8
0
  6
CENTER2
 62
     7
 10
123.18811353410609
 20
161.02778837037829
 30
0.0
  0
VERTEX
  5
70B
  8
0
  6
CENTER2
 62
     7
 10
123.18811353410609
 20
165.11484140732119
 30
0.0
  0
SEQEND
  5
70C
  8
0
  6
CENTER2
 62
     7
  0
POLYLINE
  5
2DC
  8
0
  6
CENTER2
 62
     7
 66
     1
 10
0.0
 20
0.0
 30
0.0
  0
VERTEX
  5
70D
  8
0
  6
CENTER2
 62
     7
 10
123.18811353410609
 20
164.6860489125209
 30
0.0
  0
VERTEX
  5
70E
  8
0
  6
CENTER2
 62
     7
 10
123.18811353410609
 20
160.598995875578
 30
0.0
  0
SEQEND
  5
70F
  8
0
  6
CENTER2
 62
     7
  0
POLYLINE
  5
2DD
  8
0
  6
CENTER2
 62
     7
 66
     1
 10
0.0
 20
0.0
 30
0.0
  0
VERTEX
  5
710
  8
0
  6
CENTER2
 62
     7
 10
120.39931617496561
 20
162.8569186414496
 30
0.0
  0
VERTEX
  5
711
  8
0
  6
CENTER2
 62
     7
 10
126.4874306076851
 20
162.8569186414496
 30
0.0
  0
SEQEND
  5
712
  8
0
  6
CENTER2
 62
     7
  0
LINE
  5
2DE
  8
0
 10
128.43811353410609
 20
115.2736045289019
 30
0.0
 11
128.43811353410609
 21
151.9569843383141
 31
0.0
  0
POLYLINE
  5
2FA
  8
0
 66
     1
 10
0.0
 20
0.0
 30
0.0
  0
VERTEX
  5
713
  8
0
 10
251.2158098850793
 20
160.85691864144599
 30
0.0
 42
0.9553437679437603
  0
VERTEX
  5
714
  8
0
 10
343.11967224385421
 20
160.6569186414452
 30
0.0
  0
SEQEND
  5
715
  8
0
  0
LINE
  5
2FB
  8
0
 10
261.77297337172757
 20
164.85691864144599
 30
0.0
 11
271.77297337172757
 21
164.85691864144781
 31
0.0
  0
LINE
  5
2FC
  8
0
 10
281.27297337172757
 20
164.8569186414496
 30
0.0
 11
291.27297337172848
 21
164.8569186414496
 31
0.0
  0
LINE
  5
2FD
  8
0
 10
303.07297009262282
 20
164.8569186414496
 30
0.0
 11
313.07297009262282
 21
164.85691864144781
 31
0.0
  0
LINE
  5
2FE
  8
0
 10
322.57297009262368
 20
164.85691864144781
 30
0.0
 11
332.57297009262447
 21
164.85691864144781
 31
0.0
  0
LINE
  5
2FF
  8
0
 10
333.07297009262368
 20
164.85691864144781
 30
0.0
 11
343.17231105738369
 21
164.85691864144781
 31
0.0
  0
LINE
  5
300
  8
0
 10
351.17231105738358
 20
164.3569186414496
 30
0.0
 11
351.17231105738472
 21
161.35691864144599
 31
0.0
  0
LINE
  5
301
  8
0
 10
291.27297337172848
 20
160.6569186414452
 30
0.0
 11
291.27297337172757
 21
164.8569186414496
 31
0.0
  0
ARC
  5
302
  8
0
 10
299.60212444208412
 20
164.6555365633665
 30
0.0
 40
0.2
 50
0.0000000002084408
 51
179.9999999997915
  0
ARC
  5
303
  8
0
 10
294.91169710413828
 20
161.05956589359241
 30
0.0
 40
0.2
 50
180.00000000020839
 51
359.9999999997915
  0
LINE
  5
304
  8
0
 10
294.57379920874678
 20
154.35370956135361
 30
0.0
 11
294.17508598690222
 21
154.38576836242271
 31
0.0
  0
LINE
  5
305
  8
0
 10
295.00341122022348
 20
164.68759536443741
 30
0.0
 11
294.17508598690142
 21
154.38576836242271
 31
0.0
  0
LINE
  5
306
  8
0
 10
300.32615721124222
 20
171.35691864144411
 30
0.0
 11
299.9261572112398
 21
171.35691864144411
 31
0.0
  0
POINT
  5
307
  8
0
  6
CONTINUOUS
 62
     7
 10
297.17231105738369
 20
162.85691864144411
 30
0.0
  0
POINT
  5
308
  8
0
  6
CONTINUOUS
 62
     7
 10
297.17231105738369
 20
162.85691864144781
 30
0.0
  0
ARC
  5
309
  8
0
 10
295.20212444206999
 20
164.6555365633665
 30
0.0
 40
0.2
 50
0.0000000002084408
 51
179.9999999997915
  0
ARC
  5
30A
  8
0
 10
295.60212444206962
 20
164.6555365633665
 30
0.0
 40
0.2
 50
0.0000000002084408
 51
179.9999999997915
  0
ARC
  5
30B
  8
0
 10
296.00212444207108
 20
164.6555365633665
 30
0.0
 40
0.2
 50
0.0000000002084408
 51
179.9999999997915
  0
ARC
  5
30C
  8
0
 10
296.40212444207248
 20
164.6555365633665
 30
0.0
 40
0.2
 50
0.0000000002084408
 51
179.9999999997915
  0
ARC
  5
30D
  8
0
 10
296.80212444207399
 20
164.6555365633665
 30
0.0
 40
0.2
 50
0.0000000002084408
 51
179.9999999997915
  0
ARC
  5
30E
  8
0
 10
297.2021244420755
 20
164.6555365633665
 30
0.0
 40
0.2
 50
0.0000000002084408
 51
179.9999999997915
  0
ARC
  5
30F
  8
0
 10
295.3209277507101
 20
161.05956589359241
 30
0.0
 40
0.2
 50
180.00000000020839
 51
359.9999999997915
  0
LINE
  5
310
  8
0
 10
295.4021244420689
 20
164.6555365633665
 30
0.0
 11
294.57379920874678
 21
154.35370956135361
 31
0.0
  0
LINE
  5
311
  8
0
 10
295.80212444207041
 20
164.6555365633665
 30
0.0
 11
295.52092775071083
 21
161.05956589359241
 31
0.0
  0
LINE
  5
312
  8
0
 10
296.20212444207181
 20
164.6555365633665
 30
0.0
 11
295.92092775071222
 21
161.05956589359241
 31
0.0
  0
ARC
  5
313
  8
0
 10
295.7209277507115
 20
161.05956589359241
 30
0.0
 40
0.2
 50
180.00000000020839
 51
359.9999999997915
  0
ARC
  5
314
  8
0
 10
296.12092775071301
 20
161.05956589359241
 30
0.0
 40
0.2
 50
180.00000000020839
 51
359.9999999997915
  0
LINE
  5
315
  8
0
 10
296.60212444207332
 20
164.6555365633665
 30
0.0
 11
296.32092775071368
 21
161.05956589359241
 31
0.0
  0
LINE
  5
316
  8
0
 10
297.00212444207472
 20
164.6555365633665
 30
0.0
 11
296.72092775071508
 21
161.05956589359241
 31
0.0
  0
ARC
  5
317
  8
0
 10
296.52092775071441
 20
161.05956589359241
 30
0.0
 40
0.2
 50
180.00000000020839
 51
359.9999999997915
  0
LINE
  5
318
  8
0
 10
297.40212444207617
 20
164.6555365633665
 30
0.0
 11
297.12092775071648
 21
161.05956589359241
 31
0.0
  0
ARC
  5
319
  8
0
 10
296.92092775071592
 20
161.05956589359241
 30
0.0
 40
0.2
 50
180.00000000020839
 51
359.9999999997915
  0
ARC
  5
31A
  8
0
 10
297.6021244420769
 20
164.6555365633665
 30
0.0
 40
0.2
 50
0.0000000002084408
 51
179.9999999997915
  0
ARC
  5
31B
  8
0
 10
298.0021244420783
 20
164.6555365633665
 30
0.0
 40
0.2
 50
0.0000000002084408
 51
179.9999999997915
  0
ARC
  5
31C
  8
0
 10
298.40212444207981
 20
164.6555365633665
 30
0.0
 40
0.2
 50
0.0000000002084408
 51
179.9999999997915
  0
ARC
  5
31D
  8
0
 10
298.80212444208132
 20
164.6555365633665
 30
0.0
 40
0.2
 50
0.0000000002084408
 51
179.9999999997915
  0
ARC
  5
31E
  8
0
 10
299.20212444208272
 20
164.6555365633665
 30
0.0
 40
0.2
 50
0.0000000002084408
 51
179.9999999997915
  0
ARC
  5
31F
  8
0
 10
297.32092775071732
 20
161.05956589359241
 30
0.0
 40
0.2
 50
180.00000000020839
 51
359.9999999997915
  0
LINE
  5
320
  8
0
 10
297.80212444207763
 20
164.6555365633665
 30
0.0
 11
297.52092775071799
 21
161.05956589359241
 31
0.0
  0
LINE
  5
321
  8
0
 10
298.20212444207903
 20
164.6555365633665
 30
0.0
 11
297.9209277507195
 21
161.05956589359241
 31
0.0
  0
ARC
  5
322
  8
0
 10
297.72092775071889
 20
161.05956589359241
 30
0.0
 40
0.2
 50
180.00000000020839
 51
359.9999999997915
  0
ARC
  5
323
  8
0
 10
298.12092775072023
 20
161.05956589359241
 30
0.0
 40
0.2
 50
180.00000000020839
 51
359.9999999997915
  0
LINE
  5
324
  8
0
 10
298.60212444208048
 20
164.6555365633665
 30
0.0
 11
298.32092775072101
 21
161.05956589359241
 31
0.0
  0
LINE
  5
325
  8
0
 10
299.00212444208199
 20
164.6555365633665
 30
0.0
 11
298.72092775072241
 21
161.05956589359241
 31
0.0
  0
ARC
  5
326
  8
0
 10
298.52092775072168
 20
161.05956589359241
 30
0.0
 40
0.2
 50
180.00000000020839
 51
359.9999999997915
  0
ARC
  5
327
  8
0
 10
298.92092775072319
 20
161.05956589359241
 30
0.0
 40
0.2
 50
180.00000000020839
 51
359.9999999997915
  0
POINT
  5
328
  8
0
  6
CONTINUOUS
 62
     7
 10
299.17231105739091
 20
162.85691864144781
 30
0.0
  0
POINT
  5
329
  8
0
  6
CONTINUOUS
 62
     7
 10
299.17231105739091
 20
162.85691864144411
 30
0.0
  0
ARC
  5
32A
  8
0
 10
299.32092775072448
 20
161.05956589358891
 30
0.0
 40
0.2
 50
180.00000000020839
 51
359.9999999997915
  0
LINE
  5
32B
  8
0
 10
299.9261572112398
 20
171.35691864144411
 30
0.0
 11
299.12092775072381
 21
161.05956589358891
 31
0.0
  0
LINE
  5
32C
  8
0
 10
300.32615721124222
 20
171.35691864144411
 30
0.0
 11
299.52092775072532
 21
161.05956589358891
 31
0.0
  0
LINE
  5
32D
  8
0
 10
351.17231105738472
 20
161.35691864144781
 30
0.0
 11
346.64957856479538
 21
161.3569186414488
 31
0.0
  0
LINE
  5
32E
  8
0
 10
351.17231105738358
 20
164.3569186414496
 30
0.0
 11
346.64957856479521
 21
164.3569186414496
 31
0.0
  0
ARC
  5
32F
  8
0
 10
344.4777133505292
 20
169.74552096221291
 30
0.0
 40
1.0
 50
281.1331325880372
 51
2.896174299963842
  0
LINE
  5
330
  8
0
 10
332.57297009262368
 20
160.85691864144781
 30
0.0
 11
322.57297009262368
 21
160.85691864144781
 31
0.0
  0
LINE
  5
331
  8
0
 10
303.07297009262368
 20
164.85691864144411
 30
0.0
 11
313.07297009262379
 21
164.85691864144411
 31
0.0
  0
LINE
  5
348
  8
0
 10
344.47922166827072
 20
168.7266380171458
 30
0.0
 11
344.67080273964228
 21
168.76433979249461
 31
0.0
  0
ARC
  5
349
  8
0
 10
344.67231105738358
 20
167.74545684742569
 30
0.0
 40
1.0
 50
101.1331325880372
 51
180.0
  0
LINE
  5
34A
  8
0
 10
343.67231105738358
 20
164.35691864144781
 30
0.0
 11
343.67231105738358
 21
167.74545684742569
 31
0.0
  0
ARC
  5
351
  8
0
 10
344.475571838039
 20
155.9454568474265
 30
0.0
 40
1.0
 50
357.76730013149108
 51
78.763822606954236
  0
ARC
  5
352
  8
0
 10
344.67231105738358
 20
157.9454568474265
 30
0.0
 40
1.0
 50
180.0
 51
258.76382260695431
  0
LINE
  5
353
  8
0
 10
344.47745735549478
 20
156.96462453002451
 30
0.0
 11
344.67042553992792
 21
156.9262891648284
 31
0.0
  0
LINE
  5
35B
  8
0
 10
343.67231105738358
 20
161.35691864144781
 30
0.0
 11
343.67231105738358
 21
157.9454568474265
 31
0.0
  0
LINE
  5
35C
  8
0
 10
332.57297009262368
 20
161.35691864144781
 30
0.0
 11
333.07297009262368
 21
161.35691864144781
 31
0.0
  0
LINE
  5
35D
  8
0
 10
332.57297009262368
 20
164.35691864144781
 30
0.0
 11
333.07297009262368
 21
164.35691864144781
 31
0.0
  0
LINE
  5
35E
  8
0
 10
322.57297009262368
 20
161.35691864144781
 30
0.0
 11
313.07297009262379
 21
161.35691864144781
 31
0.0
  0
LINE
  5
35F
  8
0
 10
322.57297009262368
 20
164.35691864144781
 30
0.0
 11
313.07297009262379
 21
164.35691864144781
 31
0.0
  0
LINE
  5
360
  8
0
 10
303.07297009262368
 20
161.35691864144781
 30
0.0
 11
299.54418005630367
 21
161.35691864144781
 31
0.0
  0
LINE
  5
361
  8
0
 10
303.07297009262368
 20
164.35691864144781
 30
0.0
 11
299.77877320278611
 21
164.35691864144781
 31
0.0
  0
LINE
  5
362
  8
0
 10
291.27297337172848
 20
160.6569186414452
 30
0.0
 11
294.67932198475478
 21
160.6569186414452
 31
0.0
  0
LINE
  5
363
  8
0
 10
303.07297009262368
 20
165.05691864144671
 30
0.0
 11
299.83351160363208
 21
165.0569186414485
 31
0.0
  0
LINE
  5
364
  8
0
 10
303.07297009262368
 20
160.8569186414442
 30
0.0
 11
313.07297009262379
 21
160.8569186414442
 31
0.0
  0
LINE
  5
365
  8
0
 10
303.07297009262368
 20
160.8569186414442
 30
0.0
 11
303.07297009262368
 21
165.05691864144671
 31
0.0
  0
LINE
  5
366
  8
0
 10
313.07297009262379
 20
160.8569186414442
 30
0.0
 11
313.07297009262379
 21
165.05691864144671
 31
0.0
  0
LINE
  5
367
  8
0
 10
322.57297009262368
 20
160.6569186414452
 30
0.0
 11
322.57297009262368
 21
164.85691864144781
 31
0.0
  0
LINE
  5
368
  8
0
 10
333.0729700926247
 20
165.05691864144671
 30
0.0
 11
313.07297009262379
 21
165.0569186414485
 31
0.0
  0
LINE
  5
369
  8
0
 10
332.57297009262368
 20
160.6569186414452
 30
0.0
 11
343.11967224385421
 21
160.6569186414452
 31
0.0
  0
LINE
  5
36A
  8
0
 10
332.57297009262368
 20
160.6569186414452
 30
0.0
 11
332.57297009262368
 21
164.85691864144781
 31
0.0
  0
LINE
  5
36B
  8
0
 10
333.07297009262368
 20
160.8569186414442
 30
0.0
 11
333.07297009262368
 21
165.05691864144671
 31
0.0
  0
LINE
  5
36C
  8
0
 10
343.12881222968798
 20
164.85691864144781
 30
0.0
 11
333.07297009262368
 21
164.85691864144781
 31
0.0
  0
LINE
  5
36D
  8
0
 10
342.12784464336221
 20
164.85691864144781
 30
0.0
 11
342.0381769572993
 21
164.85691864144781
 31
0.0
  0
POLYLINE
  5
36E
  8
0
  6
CONTINUOUS
 62
     7
 66
     1
 10
0.0
 20
0.0
 30
0.0
  0
VERTEX
  5
716
  8
0
  6
CONTINUOUS
 62
     7
 10
342.12784464336221
 20
164.85691864144781
 30
0.0
  0
VERTEX
  5
717
  8
0
  6
CONTINUOUS
 62
     7
 10
342.0381769572993
 20
164.85691864144781
 30
0.0
  0
SEQEND
  5
718
  8
0
  6
CONTINUOUS
 62
     7
  0
LINE
  5
36F
  8
0
 10
343.17231105738369
 20
160.85691864144781
 30
0.0
 11
343.17231105738369
 21
164.8569186414496
 31
0.0
  0
LINE
  5
370
  8
0
 10
333.07297009262368
 20
160.8569186414442
 30
0.0
 11
343.17231105738369
 21
160.85691864144599
 31
0.0
  0
LINE
  5
371
  8
0
 10
332.57297009262368
 20
164.85691864144781
 30
0.0
 11
322.57297009262368
 21
164.85691864144781
 31
0.0
  0
LINE
  5
380
  8
0
 10
294.73560594906638
 20
161.35691864144781
 30
0.0
 11
291.27297337172848
 21
161.35691864144781
 31
0.0
  0
LINE
  5
381
  8
0
 10
294.9768229389735
 20
164.35691864144781
 30
0.0
 11
291.27297337172757
 21
164.35691864144781
 31
0.0
  0
LINE
  5
382
  8
0
 10
295.08061291576422
 20
160.6569186414452
 30
0.0
 11
322.57297009262368
 21
160.6569186414452
 31
0.0
  0
POLYLINE
  5
628
  8
0
 66
     1
 10
0.0
 20
0.0
 30
0.0
 70
     8
  0
VERTEX
  5
629
  8
0
 10
345.37700000000001
 20
155.07599999999999
 30
0.0
 70
    32
  0
VERTEX
  5
62A
  8
0
 10
345.37700000000001
 20
155.07599999999999
 30
0.0
 70
    32
  0
VERTEX
  5
62B
  8
0
 10
345.37700000000001
 20
155.07599999999999
 30
0.0
 70
    32
  0
VERTEX
  5
62C
  8
0
 10
345.37599999999998
 20
155.07599999999999
 30
0.0
 70
    32
  0
VERTEX
  5
62D
  8
0
 10
345.37599999999998
 20
155.07599999999999
 30
0.0
 70
    32
  0
VERTEX
  5
62E
  8
0
 10
345.37599999999998
 20
155.07599999999999
 30
0.0
 70
    32
  0
VERTEX
  5
62F
  8
0
 10
345.37599999999998
 20
155.07599999999999
 30
0.0
 70
    32
  0
VERTEX
  5
630
  8
0
 10
345.37599999999998
 20
155.07599999999999
 30
0.0
 70
    32
  0
VERTEX
  5
631
  8
0
 10
345.375
 20
155.07599999999999
 30
0.0
 70
    32
  0
VERTEX
  5
632
  8
0
 10
345.375
 20
155.07599999999999
 30
0.0
 70
    32
  0
VERTEX
  5
633
  8
0
 10
345.375
 20
155.07599999999999
 30
0.0
 70
    32
  0
VERTEX
  5
634
  8
0
 10
345.375
 20
155.07599999999999
 30
0.0
 70
    32
  0
VERTEX
  5
635
  8
0
 10
345.37400000000002
 20
155.07599999999999
 30
0.0
 70
    32
  0
VERTEX
  5
636
  8
0
 10
345.37400000000002
 20
155.07599999999999
 30
0.0
 70
    32
  0
VERTEX
  5
637
  8
0
 10
345.37400000000002
 20
155.07599999999999
 30
0.0
 70
    32
  0
VERTEX
  5
638
  8
0
 10
345.37400000000002
 20
155.07599999999999
 30
0.0
 70
    32
  0
VERTEX
  5
639
  8
0
 10
345.37400000000002
 20
155.07599999999999
 30
0.0
 70
    32
  0
VERTEX
  5
63A
  8
0
 10
345.3730000000001
 20
155.07599999999999
 30
0.0
 70
    32
  0
VERTEX
  5
63B
  8
0
 10
345.3730000000001
 20
155.07599999999999
 30
0.0
 70
    32
  0
VERTEX
  5
63C
  8
0
 10
345.3730000000001
 20
155.07599999999999
 30
0.0
 70
    32
  0
VERTEX
  5
63D
  8
0
 10
345.3730000000001
 20
155.07599999999999
 30
0.0
 70
    32
  0
VERTEX
  5
63E
  8
0
 10
345.37200000000001
 20
155.07599999999999
 30
0.0
 70
    32
  0
VERTEX
  5
63F
  8
0
 10
345.37200000000001
 20
155.07599999999999
 30
0.0
 70
    32
  0
VERTEX
  5
640
  8
0
 10
345.37200000000001
 20
155.07599999999999
 30
0.0
 70
    32
  0
VERTEX
  5
641
  8
0
 10
345.37200000000001
 20
155.077
 30
0.0
 70
    32
  0
VERTEX
  5
642
  8
0
 10
345.37200000000001
 20
155.077
 30
0.0
 70
    32
  0
VERTEX
  5
643
  8
0
 10
345.37099999999998
 20
155.077
 30
0.0
 70
    32
  0
VERTEX
  5
644
  8
0
 10
345.37099999999998
 20
155.077
 30
0.0
 70
    32
  0
VERTEX
  5
645
  8
0
 10
345.37099999999998
 20
155.077
 30
0.0
 70
    32
  0
VERTEX
  5
646
  8
0
 10
345.37099999999998
 20
155.077
 30
0.0
 70
    32
  0
VERTEX
  5
647
  8
0
 10
345.37
 20
155.077
 30
0.0
 70
    32
  0
VERTEX
  5
648
  8
0
 10
345.37
 20
155.077
 30
0.0
 70
    32
  0
VERTEX
  5
649
  8
0
 10
345.37
 20
155.077
 30
0.0
 70
    32
  0
VERTEX
  5
64A
  8
0
 10
345.37
 20
155.077
 30
0.0
 70
    32
  0
VERTEX
  5
64B
  8
0
 10
345.36900000000003
 20
155.077
 30
0.0
 70
    32
  0
VERTEX
  5
64C
  8
0
 10
345.36900000000003
 20
155.077
 30
0.0
 70
    32
  0
VERTEX
  5
64D
  8
0
 10
345.36900000000003
 20
155.077
 30
0.0
 70
    32
  0
VERTEX
  5
64E
  8
0
 10
345.36900000000003
 20
155.077
 30
0.0
 70
    32
  0
VERTEX
  5
64F
  8
0
 10
345.36900000000003
 20
155.077
 30
0.0
 70
    32
  0
VERTEX
  5
650
  8
0
 10
345.36800000000011
 20
155.077
 30
0.0
 70
    32
  0
VERTEX
  5
651
  8
0
 10
345.36800000000011
 20
155.077
 30
0.0
 70
    32
  0
VERTEX
  5
652
  8
0
 10
345.36800000000011
 20
155.077
 30
0.0
 70
    32
  0
VERTEX
  5
653
  8
0
 10
345.36800000000011
 20
155.077
 30
0.0
 70
    32
  0
VERTEX
  5
654
  8
0
 10
345.36700000000002
 20
155.077
 30
0.0
 70
    32
  0
VERTEX
  5
655
  8
0
 10
345.36700000000002
 20
155.077
 30
0.0
 70
    32
  0
VERTEX
  5
656
  8
0
 10
345.36700000000002
 20
155.077
 30
0.0
 70
    32
  0
VERTEX
  5
657
  8
0
 10
345.36700000000002
 20
155.077
 30
0.0
 70
    32
  0
VERTEX
  5
658
  8
0
 10
345.36700000000002
 20
155.077
 30
0.0
 70
    32
  0
VERTEX
  5
659
  8
0
 10
345.36599999999999
 20
155.077
 30
0.0
 70
    32
  0
VERTEX
  5
65A
  8
0
 10
345.36599999999999
 20
155.077
 30
0.0
 70
    32
  0
VERTEX
  5
65B
  8
0
 10
345.36599999999999
 20
155.077
 30
0.0
 70
    32
  0
VERTEX
  5
65C
  8
0
 10
345.36599999999999
 20
155.077
 30
0.0
 70
    32
  0
VERTEX
  5
65D
  8
0
 10
345.36500000000001
 20
155.078
 30
0.0
 70
    32
  0
VERTEX
  5
65E
  8
0
 10
345.36500000000001
 20
155.078
 30
0.0
 70
    32
  0
VERTEX
  5
65F
  8
0
 10
345.36500000000001
 20
155.078
 30
0.0
 70
    32
  0
VERTEX
  5
660
  8
0
 10
345.36500000000001
 20
155.078
 30
0.0
 70
    32
  0
VERTEX
  5
661
  8
0
 10
345.36500000000001
 20
155.078
 30
0.0
 70
    32
  0
VERTEX
  5
662
  8
0
 10
345.36399999999998
 20
155.078
 30
0.0
 70
    32
  0
VERTEX
  5
663
  8
0
 10
345.36399999999998
 20
155.078
 30
0.0
 70
    32
  0
VERTEX
  5
664
  8
0
 10
345.36399999999998
 20
155.078
 30
0.0
 70
    32
  0
VERTEX
  5
665
  8
0
 10
345.36399999999998
 20
155.078
 30
0.0
 70
    32
  0
VERTEX
  5
666
  8
0
 10
345.363
 20
155.078
 30
0.0
 70
    32
  0
VERTEX
  5
667
  8
0
 10
345.363
 20
155.078
 30
0.0
 70
    32
  0
VERTEX
  5
668
  8
0
 10
345.363
 20
155.078
 30
0.0
 70
    32
  0
VERTEX
  5
669
  8
0
 10
345.363
 20
155.078
 30
0.0
 70
    32
  0
VERTEX
  5
66A
  8
0
 10
345.363
 20
155.078
 30
0.0
 70
    32
  0
VERTEX
  5
66B
  8
0
 10
345.36200000000002
 20
155.078
 30
0.0
 70
    32
  0
VERTEX
  5
66C
  8
0
 10
345.36200000000002
 20
155.078
 30
0.0
 70
    32
  0
VERTEX
  5
66D
  8
0
 10
345.36200000000002
 20
155.078
 30
0.0
 70
    32
  0
VERTEX
  5
66E
  8
0
 10
345.36200000000002
 20
155.078
 30
0.0
 70
    32
  0
VERTEX
  5
66F
  8
0
 10
345.36099999999999
 20
155.078
 30
0.0
 70
    32
  0
VERTEX
  5
670
  8
0
 10
345.36099999999999
 20
155.078
 30
0.0
 70
    32
  0
VERTEX
  5
671
  8
0
 10
345.36099999999999
 20
155.078
 30
0.0
 70
    32
  0
VERTEX
  5
672
  8
0
 10
345.36099999999999
 20
155.078
 30
0.0
 70
    32
  0
VERTEX
  5
673
  8
0
 10
345.36099999999999
 20
155.078
 30
0.0
 70
    32
  0
VERTEX
  5
674
  8
0
 10
345.36000000000001
 20
155.078
 30
0.0
 70
    32
  0
VERTEX
  5
675
  8
0
 10
345.36000000000001
 20
155.078
 30
0.0
 70
    32
  0
VERTEX
  5
676
  8
0
 10
345.36000000000001
 20
155.078
 30
0.0
 70
    32
  0
VERTEX
  5
677
  8
0
 10
345.36000000000001
 20
155.078
 30
0.0
 70
    32
  0
VERTEX
  5
678
  8
0
 10
345.35900000000009
 20
155.078
 30
0.0
 70
    32
  0
VERTEX
  5
679
  8
0
 10
345.35900000000009
 20
155.07900000000001
 30
0.0
 70
    32
  0
VERTEX
  5
67A
  8
0
 10
345.35900000000009
 20
155.07900000000001
 30
0.0
 70
    32
  0
VERTEX
  5
67B
  8
0
 10
345.35900000000009
 20
155.07900000000001
 30
0.0
 70
    32
  0
VERTEX
  5
67C
  8
0
 10
345.35900000000009
 20
155.07900000000001
 30
0.0
 70
    32
  0
VERTEX
  5
67D
  8
0
 10
345.358
 20
155.07900000000001
 30
0.0
 70
    32
  0
VERTEX
  5
67E
  8
0
 10
345.358
 20
155.07900000000001
 30
0.0
 70
    32
  0
VERTEX
  5
67F
  8
0
 10
345.358
 20
155.07900000000001
 30
0.0
 70
    32
  0
VERTEX
  5
680
  8
0
 10
345.358
 20
155.07900000000001
 30
0.0
 70
    32
  0
VERTEX
  5
681
  8
0
 10
345.35700000000003
 20
155.07900000000001
 30
0.0
 70
    32
  0
VERTEX
  5
682
  8
0
 10
345.35700000000003
 20
155.07900000000001
 30
0.0
 70
    32
  0
VERTEX
  5
683
  8
0
 10
345.35700000000003
 20
155.07900000000001
 30
0.0
 70
    32
  0
VERTEX
  5
684
  8
0
 10
345.35700000000003
 20
155.07900000000001
 30
0.0
 70
    32
  0
VERTEX
  5
685
  8
0
 10
345.35700000000003
 20
155.07900000000001
 30
0.0
 70
    32
  0
VERTEX
  5
686
  8
0
 10
345.35599999999999
 20
155.07900000000001
 30
0.0
 70
    32
  0
VERTEX
  5
687
  8
0
 10
345.35599999999999
 20
155.07900000000001
 30
0.0
 70
    32
  0
VERTEX
  5
688
  8
0
 10
345.35599999999999
 20
155.07900000000001
 30
0.0
 70
    32
  0
VERTEX
  5
689
  8
0
 10
345.35599999999999
 20
155.07900000000001
 30
0.0
 70
    32
  0
VERTEX
  5
68A
  8
0
 10
345.35500000000002
 20
155.07900000000001
 30
0.0
 70
    32
  0
VERTEX
  5
68B
  8
0
 10
345.35500000000002
 20
155.07900000000001
 30
0.0
 70
    32
  0
VERTEX
  5
68C
  8
0
 10
345.35500000000002
 20
155.07900000000001
 30
0.0
 70
    32
  0
VERTEX
  5
68D
  8
0
 10
345.35500000000002
 20
155.07900000000001
 30
0.0
 70
    32
  0
VERTEX
  5
68E
  8
0
 10
345.35500000000002
 20
155.07900000000001
 30
0.0
 70
    32
  0
VERTEX
  5
68F
  8
0
 10
345.35399999999998
 20
155.07900000000001
 30
0.0
 70
    32
  0
VERTEX
  5
690
  8
0
 10
345.35399999999998
 20
155.07900000000001
 30
0.0
 70
    32
  0
VERTEX
  5
691
  8
0
 10
345.35399999999998
 20
155.07900000000001
 30
0.0
 70
    32
  0
VERTEX
  5
692
  8
0
 10
345.35399999999998
 20
155.07900000000001
 30
0.0
 70
    32
  0
VERTEX
  5
693
  8
0
 10
345.35300000000001
 20
155.07900000000001
 30
0.0
 70
    32
  0
VERTEX
  5
694
  8
0
 10
345.35300000000001
 20
155.08000000000001
 30
0.0
 70
    32
  0
VERTEX
  5
695
  8
0
 10
345.35300000000001
 20
155.08000000000001
 30
0.0
 70
    32
  0
VERTEX
  5
696
  8
0
 10
345.35300000000001
 20
155.08000000000001
 30
0.0
 70
    32
  0
VERTEX
  5
697
  8
0
 10
345.35199999999998
 20
155.08000000000001
 30
0.0
 70
    32
  0
VERTEX
  5
698
  8
0
 10
345.35199999999998
 20
155.08000000000001
 30
0.0
 70
    32
  0
VERTEX
  5
699
  8
0
 10
345.35199999999998
 20
155.08000000000001
 30
0.0
 70
    32
  0
VERTEX
  5
69A
  8
0
 10
345.35199999999998
 20
155.08000000000001
 30
0.0
 70
    32
  0
VERTEX
  5
69B
  8
0
 10
345.35199999999998
 20
155.08000000000001
 30
0.0
 70
    32
  0
VERTEX
  5
69C
  8
0
 10
345.351
 20
155.08000000000001
 30
0.0
 70
    32
  0
VERTEX
  5
69D
  8
0
 10
345.351
 20
155.08000000000001
 30
0.0
 70
    32
  0
VERTEX
  5
69E
  8
0
 10
345.351
 20
155.08000000000001
 30
0.0
 70
    32
  0
VERTEX
  5
69F
  8
0
 10
345.351
 20
155.08000000000001
 30
0.0
 70
    32
  0
VERTEX
  5
6A0
  8
0
 10
345.35000000000002
 20
155.08000000000001
 30
0.0
 70
    32
  0
VERTEX
  5
6A1
  8
0
 10
345.35000000000002
 20
155.08000000000001
 30
0.0
 70
    32
  0
VERTEX
  5
6A2
  8
0
 10
345.35000000000002
 20
155.08000000000001
 30
0.0
 70
    32
  0
VERTEX
  5
6A3
  8
0
 10
345.35000000000002
 20
155.08000000000001
 30
0.0
 70
    32
  0
VERTEX
  5
6A4
  8
0
 10
345.35000000000002
 20
155.08000000000001
 30
0.0
 70
    32
  0
VERTEX
  5
6A5
  8
0
 10
345.34899999999999
 20
155.08000000000001
 30
0.0
 70
    32
  0
VERTEX
  5
6A6
  8
0
 10
345.34899999999999
 20
155.08000000000001
 30
0.0
 70
    32
  0
VERTEX
  5
6A7
  8
0
 10
345.34899999999999
 20
155.08000000000001
 30
0.0
 70
    32
  0
VERTEX
  5
6A8
  8
0
 10
345.34899999999999
 20
155.08000000000001
 30
0.0
 70
    32
  0
SEQEND
  5
6A9
  8
0
  0
ARC
  5
384
  8
0
 10
249.67231105738369
 20
157.95691864144811
 30
0.0
 40
1.0
 50
281.23617739304581
 51
0.0
  0
LINE
  5
385
  8
0
 10
249.67419657483941
 20
156.93775095885019
 30
0.0
 11
249.8671647592725
 21
156.97608632404609
 31
0.0
  0
LINE
  5
386
  8
0
 10
250.67231105738361
 20
161.45691864144811
 30
0.0
 11
251.1723110573827
 21
161.45691864144811
 31
0.0
  0
LINE
  5
387
  8
0
 10
250.67231105738361
 20
164.25691864144741
 30
0.0
 11
251.1723110573827
 21
164.25691864144741
 31
0.0
  0
ARC
  5
388
  8
0
 10
249.67231105738369
 20
167.75691864144741
 30
0.0
 40
1.0
 50
0.0
 51
78.763822606954236
  0
LINE
  5
389
  8
0
 10
249.67419657483941
 20
168.77608632404539
 30
0.0
 11
249.8671647592725
 21
168.7377509588494
 31
0.0
  0
LINE
  5
38A
  8
0
 10
250.67231105738361
 20
162.85691864144781
 30
0.0
 11
250.67231105738361
 21
157.95691864144811
 31
0.0
  0
LINE
  5
38B
  8
0
 10
250.67231105738361
 20
162.85691864144781
 30
0.0
 11
250.67231105738361
 21
167.75691864144741
 31
0.0
  0
LINE
  5
38C
  8
0
 10
271.77297337172757
 20
161.35691864144781
 30
0.0
 11
281.27297337172757
 21
161.3569186414496
 31
0.0
  0
LINE
  5
38D
  8
0
 10
271.77297337172757
 20
164.35691864144781
 30
0.0
 11
281.27297337172757
 21
164.3569186414496
 31
0.0
  0
LINE
  5
38E
  8
0
 10
261.27297337172757
 20
161.35691864144781
 30
0.0
 11
261.77297337172757
 21
161.35691864144781
 31
0.0
  0
LINE
  5
38F
  8
0
 10
261.27297337172757
 20
164.35691864144781
 30
0.0
 11
261.77297337172757
 21
164.35691864144781
 31
0.0
  0
LINE
  5
390
  8
0
 10
261.77297337172848
 20
164.85691864144411
 30
0.0
 11
271.77297337172848
 21
164.85691864144411
 31
0.0
  0
LINE
  5
391
  8
0
 10
281.27297337172848
 20
160.65691864144341
 30
0.0
 11
281.27297337172757
 21
164.85691864144781
 31
0.0
  0
LINE
  5
392
  8
0
 10
271.77297337172757
 20
160.8569186414442
 30
0.0
 11
271.77297337172757
 21
165.05691864144671
 31
0.0
  0
LINE
  5
393
  8
0
 10
261.77297337172848
 20
160.8569186414442
 30
0.0
 11
271.77297337172848
 21
160.8569186414442
 31
0.0
  0
LINE
  5
394
  8
0
 10
261.27297337172757
 20
160.6569186414452
 30
0.0
 11
281.27297337172848
 21
160.65691864144341
 31
0.0
  0
LINE
  5
395
  8
0
 10
261.77297337172757
 20
160.8569186414442
 30
0.0
 11
261.77297337172757
 21
165.05691864144671
 31
0.0
  0
LINE
  5
396
  8
0
 10
251.22494987091309
 20
165.05691864144671
 30
0.0
 11
261.77297337172672
 21
165.05691864144671
 31
0.0
  0
LINE
  5
397
  8
0
 10
261.27297337172757
 20
160.6569186414452
 30
0.0
 11
261.27297337172757
 21
164.85691864144781
 31
0.0
  0
LINE
  5
398
  8
0
 10
252.30776650705201
 20
164.85691864144781
 30
0.0
 11
261.27297337172757
 21
164.85691864144781
 31
0.0
  0
LINE
  5
399
  8
0
 10
251.17231105738361
 20
164.85691864144781
 30
0.0
 11
261.27297337172757
 21
164.85691864144599
 31
0.0
  0
LINE
  5
39A
  8
0
 10
261.27297337172757
 20
160.8569186414442
 30
0.0
 11
251.17231105738361
 21
160.85691864144599
 31
0.0
  0
LINE
  5
39B
  8
0
 10
251.17231105738361
 20
160.8569186414442
 30
0.0
 11
251.17231105738361
 21
164.85691864144781
 31
0.0
  0
LINE
  5
39C
  8
0
  6
CONTINUOUS
 62
     7
 10
260.27297337172757
 20
160.8569186414442
 30
0.0
 11
261.27297337172757
 21
160.8569186414442
 31
0.0
  0
LINE
  5
39D
  8
0
  6
CONTINUOUS
 62
     7
 10
259.77297337172757
 20
164.85691864144781
 30
0.0
 11
251.80746638696991
 21
164.85691864144781
 31
0.0
  0
ARC
  5
39E
  8
0
 10
249.8690502767283
 20
169.75691864144741
 30
0.0
 40
1.0
 50
176.78531329864319
 51
258.76382260695431
  0
ARC
  5
39F
  8
0
 10
249.8690502767283
 20
155.9569186414482
 30
0.0
 40
1.0
 50
101.23617739304569
 51
183.21468737610181
  0
LINE
  5
3A0
  8
0
 10
281.27297337172757
 20
160.85691864144781
 30
0.0
 11
291.27297337172757
 21
160.8569186414496
 31
0.0
  0
LINE
  5
3A1
  8
0
 10
291.27297337172757
 20
164.85691864144781
 30
0.0
 11
281.27297337172757
 21
164.85691864144781
 31
0.0
  0
LINE
  5
3A2
  8
0
 10
299.43351160362971
 20
165.0569186414485
 30
0.0
 11
271.77297337172757
 21
165.05691864144671
 31
0.0
  0
POLYLINE
  5
3A3
  8
0
 66
     1
 10
0.0
 20
0.0
 30
0.0
  0
VERTEX
  5
719
  8
0
 10
343.12881222968798
 20
164.85691864144781
 30
0.0
 42
0.9553437679437603
  0
VERTEX
  5
71A
  8
0
 10
251.22494987091309
 20
165.05691864144671
 30
0.0
 42
0.9553437679437603
  0
SEQEND
  5
71B
  8
0
  0
LINE
  5
3A4
  8
0
  6
CENTER2
 62
     1
 10
297.17231105738369
 20
104.0005281331831
 30
0.0
 11
297.17231105738369
 21
221.9936301388442
 31
0.0
  0
POLYLINE
  5
3A6
  8
0
 66
     1
 10
0.0
 20
0.0
 30
0.0
  0
VERTEX
  5
71C
  8
0
 10
297.17231105738369
 20
212.35691864144519
 30
0.0
 42
0.4142135623730793
  0
VERTEX
  5
71D
  8
0
 10
247.67231105738361
 20
162.85691864144781
 30
0.0
 42
0.4142135623730799
  0
VERTEX
  5
71E
  8
0
 10
297.17231105738369
 20
113.35691864145041
 30
0.0
 42
0.4142135623730799
  0
SEQEND
  5
71F
  8
0
  0
LINE
  5
3A8
  8
0
 10
179.43811353410609
 20
212.35691864145139
 30
0.0
 11
179.43811353410609
 21
211.65691864145069
 31
0.0
  0
LINE
  5
3AB
  8
0
 10
126.8289703671887
 20
212.9026344760313
 30
0.0
 11
127.54725670102169
 21
214.31120280686801
 31
0.0
  0
POLYLINE
  5
3AC
  8
0
 66
     1
 10
0.0
 20
0.0
 30
0.0
  0
VERTEX
  5
720
  8
0
 10
125.9381135341052
 20
212.3569186414496
 30
0.0
 42
0.2819402118154727
  0
VERTEX
  5
721
  8
0
 10
126.8289703671887
 20
212.90263447603311
 30
0.0
 42
0.2819402118154727
  0
SEQEND
  5
722
  8
0
  0
POLYLINE
  5
3AD
  8
0
 66
     1
 10
0.0
 20
0.0
 30
0.0
  0
VERTEX
  5
723
  8
0
 10
128.43811353410521
 20
214.8569186414496
 30
0.0
 42
0.2819402118154727
  0
VERTEX
  5
724
  8
0
 10
127.54725670102169
 20
214.31120280686611
 30
0.0
 42
0.2819402118154727
  0
SEQEND
  5
725
  8
0
  0
LINE
  5
3AF
  8
0
 10
128.43811353410521
 20
214.8569186414496
 30
0.0
 11
139.43811353410521
 21
214.8569186414496
 31
0.0
  0
POLYLINE
  5
3B2
  8
0
 66
     1
 10
0.0
 20
0.0
 30
0.0
  0
VERTEX
  5
726
  8
0
 10
139.43811353410521
 20
214.8569186414496
 30
0.0
 42
-0.2819402118154727
  0
VERTEX
  5
727
  8
0
 10
140.32897036718859
 20
214.31120280686611
 30
0.0
 42
-0.2819402118154727
  0
SEQEND
  5
728
  8
0
  0
LINE
  5
3B3
  8
0
 10
141.04725670102169
 20
212.9026344760313
 30
0.0
 11
140.32897036718859
 21
214.31120280686801
 31
0.0
  0
POLYLINE
  5
3B5
  8
0
 66
     1
 10
0.0
 20
0.0
 30
0.0
  0
VERTEX
  5
729
  8
0
 10
141.93811353410521
 20
212.3569186414496
 30
0.0
 42
-0.2819402118154727
  0
VERTEX
  5
72A
  8
0
 10
141.04725670102169
 20
212.90263447603311
 30
0.0
 42
-0.2819402118154727
  0
SEQEND
  5
72B
  8
0
  0
LINE
  5
3B6
  8
0
 10
87.438113534106108
 20
212.3569186414496
 30
0.0
 11
93.438113534104275
 21
212.3569186414496
 31
0.0
  0
LINE
  5
3B8
  8
0
 10
87.438113534106108
 20
211.65691864145069
 30
0.0
 11
87.438113534106108
 21
212.35691864145139
 31
0.0
  0
POLYLINE
  5
3B9
  8
0
 66
     1
 10
0.0
 20
0.0
 30
0.0
  0
VERTEX
  5
72C
  8
0
 10
128.43811353410521
 20
214.15691864145251
 30
0.0
  0
VERTEX
  5
72D
  8
0
 10
128.43811353410609
 20
208.1569186414489
 30
0.0
  0
SEQEND
  5
72E
  8
0
  0
LINE
  5
3BA
  8
0
 10
139.43811353410521
 20
214.1569186414489
 30
0.0
 11
139.43811353410521
 21
208.1569186414489
 31
0.0
  0
LINE
  5
3C2
  8
0
 10
179.43811353410609
 20
212.35691864144781
 30
0.0
 11
179.43811353410609
 21
211.65691864144719
 31
0.0
  0
LINE
  5
3C3
  8
0
 10
141.93811353410609
 20
212.35691864144781
 30
0.0
 11
165.43811353410419
 21
212.35691864144781
 31
0.0
  0
LINE
  5
3C7
  8
0
 10
87.438113534106108
 20
211.65691864144719
 30
0.0
 11
87.438113534106108
 21
212.35691864144781
 31
0.0
  0
LINE
  5
3C8
  8
0
 10
123.8391905596397
 20
212.35691864144781
 30
0.0
 11
101.4381135341079
 21
212.35691864144781
 31
0.0
  0
LINE
  5
3C9
  8
0
 10
87.438113534106108
 20
212.35691864144781
 30
0.0
 11
93.438113534104275
 21
212.35691864144781
 31
0.0
  0
POLYLINE
  5
3CF
  8
0
 66
     1
 10
0.0
 20
0.0
 30
0.0
  0
VERTEX
  5
72F
  8
0
 10
167.5546921444454
 20
211.14717255205861
 30
0.0
 42
0.313394503136401
  0
VERTEX
  5
730
  8
0
 10
171.32153492376679
 20
211.14717255205861
 30
0.0
 42
0.313394503136401
  0
SEQEND
  5
731
  8
0
  0
LINE
  5
3D0
  8
0
 10
166.1229940394374
 20
212.14228085577261
 30
0.0
 11
167.5546921444454
 21
211.14717255205861
 31
0.0
  0
LINE
  5
3D1
  8
0
 10
172.75323302877459
 20
212.14228085577261
 30
0.0
 11
171.32153492376679
 21
211.14717255205861
 31
0.0
  0
POLYLINE
  5
3D2
  8
0
 66
     1
 10
0.0
 20
0.0
 30
0.0
  0
VERTEX
  5
732
  8
0
 10
173.43811353410609
 20
212.3569186414496
 30
0.0
 42
0.1530277928365761
  0
VERTEX
  5
733
  8
0
 10
172.75323302877459
 20
212.14228085577261
 30
0.0
 42
0.1530277928365761
  0
SEQEND
  5
734
  8
0
  0
POLYLINE
  5
3D3
  8
0
 66
     1
 10
0.0
 20
0.0
 30
0.0
  0
VERTEX
  5
735
  8
0
 10
165.43811353410609
 20
212.3569186414496
 30
0.0
 42
-0.1530277928365761
  0
VERTEX
  5
736
  8
0
 10
166.1229940394374
 20
212.14228085577261
 30
0.0
 42
-0.1530277928365761
  0
SEQEND
  5
737
  8
0
  0
LINE
  5
3D5
  8
0
 10
173.43811353410609
 20
212.3569186414496
 30
0.0
 11
179.43811353410609
 21
212.3569186414496
 31
0.0
  0
LINE
  5
3D7
  8
0
 10
159.43811353410521
 20
212.3569186414496
 30
0.0
 11
165.43811353410521
 21
212.3569186414496
 31
0.0
  0
LINE
  5
3D8
  8
0
 10
173.43811353410791
 20
212.35691864144781
 30
0.0
 11
179.43811353410609
 21
212.35691864144781
 31
0.0
  0
LINE
  5
3D9
  8
0
 10
173.43811353410791
 20
212.3569186414496
 30
0.0
 11
179.43811353410609
 21
212.3569186414496
 31
0.0
  0
LINE
  5
3DC
  8
0
 10
93.438113534104275
 20
212.3569186414496
 30
0.0
 11
87.438113534106108
 21
212.3569186414496
 31
0.0
  0
LINE
  5
3DD
  8
0
 10
93.438113534104275
 20
212.35691864144781
 30
0.0
 11
87.438113534106108
 21
212.35691864144781
 31
0.0
  0
LINE
  5
3DE
  8
0
 10
107.438113534107
 20
212.3569186414496
 30
0.0
 11
101.438113534107
 21
212.3569186414496
 31
0.0
  0
LINE
  5
3E0
  8
0
 10
93.438113534106137
 20
212.3569186414496
 30
0.0
 11
87.438113534106108
 21
212.3569186414496
 31
0.0
  0
POLYLINE
  5
3E2
  8
0
 66
     1
 10
0.0
 20
0.0
 30
0.0
  0
VERTEX
  5
738
  8
0
 10
101.43811353410609
 20
212.3569186414496
 30
0.0
 42
0.1530277928365761
  0
VERTEX
  5
739
  8
0
 10
100.7532330287747
 20
212.14228085577261
 30
0.0
 42
0.1530277928365761
  0
SEQEND
  5
73A
  8
0
  0
POLYLINE
  5
3E3
  8
0
 66
     1
 10
0.0
 20
0.0
 30
0.0
  0
VERTEX
  5
73B
  8
0
 10
93.438113534106137
 20
212.3569186414496
 30
0.0
 42
-0.1530277928365761
  0
VERTEX
  5
73C
  8
0
 10
94.122994039437529
 20
212.14228085577261
 30
0.0
 42
-0.1530277928365761
  0
SEQEND
  5
73D
  8
0
  0
LINE
  5
3E4
  8
0
 10
94.122994039437529
 20
212.14228085577261
 30
0.0
 11
95.554692144445383
 21
211.14717255205861
 31
0.0
  0
LINE
  5
3E5
  8
0
 10
100.7532330287747
 20
212.14228085577261
 30
0.0
 11
99.321534923766833
 21
211.14717255205861
 31
0.0
  0
POLYLINE
  5
3E6
  8
0
 66
     1
 10
0.0
 20
0.0
 30
0.0
  0
VERTEX
  5
73E
  8
0
 10
99.321534923766833
 20
211.14717255205861
 30
0.0
 42
-0.313394503136401
  0
VERTEX
  5
73F
  8
0
 10
95.554692144445383
 20
211.14717255205861
 30
0.0
 42
-0.313394503136401
  0
SEQEND
  5
740
  8
0
  0
LINE
  5
3EC
  8
0
 10
87.438113534106108
 20
212.35691864144781
 30
0.0
 11
87.438113534106108
 21
211.65691864144719
 31
0.0
  0
LINE
  5
3ED
  8
0
 10
87.438113534106108
 20
212.35691864145139
 30
0.0
 11
87.438113534106108
 21
211.65691864145069
 31
0.0
  0
LINE
  5
3EE
  8
0
 10
101.4381135341079
 20
212.35691864144781
 30
0.0
 11
121.4381135341052
 21
212.35691864144781
 31
0.0
  0
LINE
  5
3EF
  8
0
 10
93.438113534104275
 20
212.35691864144781
 30
0.0
 11
89.438113534106108
 21
212.35691864144781
 31
0.0
  0
LINE
  5
3F0
  8
0
 10
101.4381135341079
 20
212.3569186414496
 30
0.0
 11
125.9381135341043
 21
212.3569186414496
 31
0.0
  0
LINE
  5
3FD
  8
0
 10
179.43811353410609
 20
113.3569186414514
 30
0.0
 11
179.43811353410609
 21
114.0569186414521
 31
0.0
  0
LINE
  5
3FE
  8
0
 10
141.93811353410609
 20
113.3569186414514
 30
0.0
 11
165.43811353410419
 21
113.3569186414514
 31
0.0
  0
LINE
  5
400
  8
0
 10
139.43811353410521
 20
111.5569186414503
 30
0.0
 11
139.43811353410521
 21
117.5569186414503
 31
0.0
  0
POLYLINE
  5
401
  8
0
 66
     1
 10
0.0
 20
0.0
 30
0.0
  0
VERTEX
  5
741
  8
0
 10
141.93811353410521
 20
113.3569186414496
 30
0.0
 42
0.2819402118154727
  0
VERTEX
  5
742
  8
0
 10
141.04725670102169
 20
112.81120280686611
 30
0.0
 42
0.2819402118154727
  0
SEQEND
  5
743
  8
0
  0
LINE
  5
403
  8
0
 10
141.04725670102169
 20
112.811202806868
 30
0.0
 11
140.32897036718859
 21
111.4026344760312
 31
0.0
  0
POLYLINE
  5
404
  8
0
 66
     1
 10
0.0
 20
0.0
 30
0.0
  0
VERTEX
  5
744
  8
0
 10
139.43811353410521
 20
110.8569186414495
 30
0.0
 42
0.2819402118154727
  0
VERTEX
  5
745
  8
0
 10
140.32897036718859
 20
111.4026344760331
 30
0.0
 42
0.2819402118154727
  0
SEQEND
  5
746
  8
0
  0
LINE
  5
407
  8
0
 10
179.43811353410609
 20
113.35691864144781
 30
0.0
 11
179.43811353410609
 21
114.0569186414485
 31
0.0
  0
LINE
  5
408
  8
0
 10
87.438113534106108
 20
114.0569186414521
 30
0.0
 11
87.438113534106108
 21
113.3569186414514
 31
0.0
  0
LINE
  5
409
  8
0
 10
123.8391905596397
 20
113.3569186414514
 30
0.0
 11
101.4381135341079
 21
113.3569186414514
 31
0.0
  0
LINE
  5
40A
  8
0
 10
87.438113534106108
 20
113.3569186414514
 30
0.0
 11
93.438113534104275
 21
113.3569186414514
 31
0.0
  0
POLYLINE
  5
40B
  8
0
 66
     1
 10
0.0
 20
0.0
 30
0.0
  0
VERTEX
  5
747
  8
0
 10
128.43811353410521
 20
111.5569186414467
 30
0.0
  0
VERTEX
  5
748
  8
0
 10
128.43811353410609
 20
117.5569186414503
 30
0.0
  0
SEQEND
  5
749
  8
0
  0
LINE
  5
40C
  8
0
 10
87.438113534106108
 20
114.0569186414485
 30
0.0
 11
87.438113534106108
 21
113.35691864144781
 31
0.0
  0
LINE
  5
40E
  8
0
 10
87.438113534106108
 20
113.3569186414496
 30
0.0
 11
93.438113534104275
 21
113.3569186414496
 31
0.0
  0
POLYLINE
  5
410
  8
0
 66
     1
 10
0.0
 20
0.0
 30
0.0
  0
VERTEX
  5
74A
  8
0
 10
128.43811353410521
 20
110.8569186414495
 30
0.0
 42
-0.2819402118154727
  0
VERTEX
  5
74B
  8
0
 10
127.54725670102169
 20
111.4026344760331
 30
0.0
 42
-0.2819402118154727
  0
SEQEND
  5
74C
  8
0
  0
POLYLINE
  5
411
  8
0
 66
     1
 10
0.0
 20
0.0
 30
0.0
  0
VERTEX
  5
74D
  8
0
 10
125.9381135341052
 20
113.3569186414496
 30
0.0
 42
-0.2819402118154727
  0
VERTEX
  5
74E
  8
0
 10
126.8289703671887
 20
112.81120280686611
 30
0.0
 42
-0.2819402118154727
  0
SEQEND
  5
74F
  8
0
  0
LINE
  5
412
  8
0
 10
126.8289703671887
 20
112.811202806868
 30
0.0
 11
127.54725670102169
 21
111.4026344760312
 31
0.0
  0
LINE
  5
417
  8
0
 10
128.43811353410521
 20
110.8569186414495
 30
0.0
 11
139.43811353410521
 21
110.8569186414495
 31
0.0
  0
LINE
  5
419
  8
0
 10
120.43811353410599
 20
162.85691864144781
 30
0.0
 11
126.43811353410609
 21
162.85691864144781
 31
0.0
  0
POLYLINE
  5
41A
  8
0
 66
     1
 10
0.0
 20
0.0
 30
0.0
 70
     1
  0
VERTEX
  5
750
  8
0
 10
121.68811353410609
 20
162.85691864144781
 30
0.0
 42
1.0
  0
VERTEX
  5
751
  8
0
 10
124.68811353410609
 20
162.85691864144781
 30
0.0
 42
1.0
  0
SEQEND
  5
752
  8
0
  0
LINE
  5
41B
  8
0
  6
CENTER2
 62
     1
 10
123.18811353410609
 20
159.85691864144781
 30
0.0
 11
123.18811353410609
 21
165.85691864144781
 31
0.0
  0
LINE
  5
41C
  8
0
  6
CENTER2
 62
     1
 10
120.43811353410599
 20
162.85691864144781
 30
0.0
 11
126.43811353410609
 21
162.85691864144781
 31
0.0
  0
LINE
  5
41D
  8
0
  6
CENTER2
 62
     1
 10
133.93811353410609
 20
162.85691864144781
 30
0.0
 11
133.93811353410609
 21
105.4620462300153
 31
0.0
  0
LINE
  5
41E
  8
0
 10
120.18811353410609
 20
162.85691864144781
 30
0.0
 11
126.18811353410609
 21
162.85691864144781
 31
0.0
  0
LINE
  5
41F
  8
0
 10
120.18811353410609
 20
162.85691864144781
 30
0.0
 11
126.18811353410609
 21
162.85691864144781
 31
0.0
  0
LINE
  5
420
  8
0
 10
141.93811353410609
 20
113.35691864144781
 30
0.0
 11
165.43811353410419
 21
113.35691864144781
 31
0.0
  0
LINE
  5
421
  8
0
 10
179.43811353410609
 20
113.35691864144781
 30
0.0
 11
179.43811353410609
 21
114.0569186414485
 31
0.0
  0
LINE
  5
423
  8
0
 10
179.43811353410609
 20
114.0569186414467
 30
0.0
 11
179.43811353410609
 21
162.85691864144781
 31
0.0
  0
LINE
  5
424
  8
0
 10
87.438113534106108
 20
162.85691864144781
 30
0.0
 11
87.438113534106108
 21
114.0569186414467
 31
0.0
  0
LINE
  5
425
  8
0
 10
87.438113534106108
 20
114.0569186414485
 30
0.0
 11
87.438113534106108
 21
113.35691864144781
 31
0.0
  0
LINE
  5
426
  8
0
  6
CENTER2
 62
     1
 10
78.686392795079627
 20
162.85691864144781
 30
0.0
 11
186.3213904334477
 21
162.85691864144781
 31
0.0
  0
LINE
  5
427
  8
0
 10
87.438113534106108
 20
113.35691864144781
 30
0.0
 11
93.438113534104275
 21
113.35691864144781
 31
0.0
  0
LINE
  5
428
  8
0
 10
123.8391905596397
 20
113.35691864144781
 30
0.0
 11
101.4381135341079
 21
113.35691864144781
 31
0.0
  0
LINE
  5
429
  8
0
 10
243.17231105738369
 20
164.3569186414496
 30
0.0
 11
243.17231105738369
 21
161.3569186414496
 31
0.0
  0
LINE
  5
42A
  8
0
 10
165.43811353410609
 20
162.8569186414496
 30
0.0
 11
165.438113534107
 21
115.3569186414496
 31
0.0
  0
LINE
  5
42B
  8
0
 10
173.43811353410521
 20
162.8569186414496
 30
0.0
 11
173.43811353410609
 21
115.35691864144781
 31
0.0
  0
POLYLINE
  5
42E
  8
0
 66
     1
 10
0.0
 20
0.0
 30
0.0
  0
VERTEX
  5
753
  8
0
 10
173.43811353410609
 20
113.3569186414496
 30
0.0
 42
-0.1530277928365761
  0
VERTEX
  5
754
  8
0
 10
172.75323302877459
 20
113.57155642712659
 30
0.0
 42
-0.1530277928365761
  0
SEQEND
  5
755
  8
0
  0
POLYLINE
  5
42F
  8
0
 66
     1
 10
0.0
 20
0.0
 30
0.0
  0
VERTEX
  5
756
  8
0
 10
165.43811353410609
 20
113.3569186414496
 30
0.0
 42
0.1530277928365761
  0
VERTEX
  5
757
  8
0
 10
166.1229940394374
 20
113.57155642712659
 30
0.0
 42
0.1530277928365761
  0
SEQEND
  5
758
  8
0
  0
LINE
  5
430
  8
0
 10
172.75323302877459
 20
113.57155642712659
 30
0.0
 11
171.32153492376679
 21
114.5666647308406
 31
0.0
  0
LINE
  5
431
  8
0
 10
166.1229940394374
 20
113.57155642712659
 30
0.0
 11
167.5546921444454
 21
114.5666647308406
 31
0.0
  0
POLYLINE
  5
432
  8
0
 66
     1
 10
0.0
 20
0.0
 30
0.0
  0
VERTEX
  5
759
  8
0
 10
167.5546921444454
 20
114.5666647308406
 30
0.0
 42
-0.313394503136401
  0
VERTEX
  5
75A
  8
0
 10
171.32153492376679
 20
114.5666647308406
 30
0.0
 42
-0.313394503136401
  0
SEQEND
  5
75B
  8
0
  0
LINE
  5
436
  8
0
 10
173.43811353410791
 20
113.35691864144781
 30
0.0
 11
179.43811353410609
 21
113.35691864144781
 31
0.0
  0
LINE
  5
437
  8
0
 10
173.43811353410791
 20
113.3569186414496
 30
0.0
 11
179.43811353410609
 21
113.3569186414496
 31
0.0
  0
LINE
  5
438
  8
0
 10
173.43811353410791
 20
113.3569186414514
 30
0.0
 11
179.43811353410609
 21
113.3569186414514
 31
0.0
  0
LINE
  5
43B
  8
0
 10
93.438113534104275
 20
113.3569186414514
 30
0.0
 11
87.438113534106108
 21
113.3569186414514
 31
0.0
  0
LINE
  5
43C
  8
0
 10
93.438113534104275
 20
113.3569186414496
 30
0.0
 11
87.438113534106108
 21
113.3569186414496
 31
0.0
  0
LINE
  5
43D
  8
0
 10
93.438113534104275
 20
113.35691864144781
 30
0.0
 11
87.438113534106108
 21
113.35691864144781
 31
0.0
  0
POLYLINE
  5
441
  8
0
 66
     1
 10
0.0
 20
0.0
 30
0.0
  0
VERTEX
  5
75C
  8
0
 10
99.321534923766833
 20
114.5666647308406
 30
0.0
 42
0.313394503136401
  0
VERTEX
  5
75D
  8
0
 10
95.554692144445383
 20
114.5666647308406
 30
0.0
 42
0.313394503136401
  0
SEQEND
  5
75E
  8
0
  0
LINE
  5
442
  8
0
 10
100.7532330287747
 20
113.57155642712659
 30
0.0
 11
99.321534923766833
 21
114.5666647308406
 31
0.0
  0
LINE
  5
443
  8
0
 10
94.122994039437529
 20
113.57155642712659
 30
0.0
 11
95.554692144445383
 21
114.5666647308406
 31
0.0
  0
POLYLINE
  5
444
  8
0
 66
     1
 10
0.0
 20
0.0
 30
0.0
  0
VERTEX
  5
75F
  8
0
 10
101.43811353410609
 20
113.3569186414496
 30
0.0
 42
-0.1530277928365761
  0
VERTEX
  5
760
  8
0
 10
100.7532330287747
 20
113.57155642712659
 30
0.0
 42
-0.1530277928365761
  0
SEQEND
  5
761
  8
0
  0
POLYLINE
  5
445
  8
0
 66
     1
 10
0.0
 20
0.0
 30
0.0
  0
VERTEX
  5
762
  8
0
 10
93.438113534106137
 20
113.3569186414496
 30
0.0
 42
0.1530277928365761
  0
VERTEX
  5
763
  8
0
 10
94.122994039437529
 20
113.57155642712659
 30
0.0
 42
0.1530277928365761
  0
SEQEND
  5
764
  8
0
  0
LINE
  5
448
  8
0
 10
93.438113534107003
 20
162.8569186414496
 30
0.0
 11
93.438113534106137
 21
115.35691864144781
 31
0.0
  0
LINE
  5
449
  8
0
 10
101.43811353410609
 20
162.8569186414496
 30
0.0
 11
101.4381135341052
 21
115.3569186414496
 31
0.0
  0
LINE
  5
44A
  8
0
 10
87.438113534106108
 20
114.0569186414467
 30
0.0
 11
87.438113534106108
 21
162.85691864144781
 31
0.0
  0
LINE
  5
44B
  8
0
 10
87.438113534106108
 20
113.35691864144781
 30
0.0
 11
87.438113534106108
 21
114.0569186414485
 31
0.0
  0
LINE
  5
44C
  8
0
 10
87.438113534106108
 20
113.35691864144781
 30
0.0
 11
87.438113534106108
 21
114.0569186414485
 31
0.0
  0
LINE
  5
44D
  8
0
 10
87.438113534106108
 20
113.3569186414514
 30
0.0
 11
87.438113534106108
 21
114.0569186414521
 31
0.0
  0
LINE
  5
44F
  8
0
 10
101.4381135341079
 20
113.35691864144781
 30
0.0
 11
121.4381135341052
 21
113.35691864144781
 31
0.0
  0
LINE
  5
450
  8
0
 10
101.4381135341079
 20
113.3569186414496
 30
0.0
 11
125.9381135341043
 21
113.3569186414496
 31
0.0
  0
LINE
  5
451
  8
0
 10
101.4381135341079
 20
113.3569186414514
 30
0.0
 11
121.4381135341052
 21
113.3569186414514
 31
0.0
  0
LINE
  5
452
  8
0
 10
93.438113534104275
 20
113.3569186414514
 30
0.0
 11
89.438113534106108
 21
113.3569186414514
 31
0.0
  0
LINE
  5
45F
  8
0
 10
139.43811353410521
 20
208.1569186414489
 30
0.0
 11
139.43811353409879
 21
117.5569186414503
 31
0.0
  0
LINE
  5
460
  8
0
  6
CENTER2
 62
     1
 10
133.93811353410609
 20
162.85691864144781
 30
0.0
 11
133.93811353410609
 21
221.9936301388442
 31
0.0
  0
LINE
  5
462
  8
0
 10
179.43811353410609
 20
211.6569186414489
 30
0.0
 11
179.43811353410609
 21
162.85691864144781
 31
0.0
  0
LINE
  5
463
  8
0
 10
87.438113534106108
 20
162.85691864144781
 30
0.0
 11
87.438113534106108
 21
211.6569186414489
 31
0.0
  0
LINE
  5
464
  8
0
 10
165.43811353410609
 20
162.8569186414496
 30
0.0
 11
165.438113534107
 21
210.3569186414496
 31
0.0
  0
LINE
  5
465
  8
0
 10
173.43811353410521
 20
162.8569186414496
 30
0.0
 11
173.43811353410609
 21
210.35691864145139
 31
0.0
  0
LINE
  5
466
  8
0
 10
101.43811353410609
 20
162.8569186414496
 30
0.0
 11
101.4381135341052
 21
210.3569186414496
 31
0.0
  0
LINE
  5
467
  8
0
 10
93.438113534107003
 20
162.8569186414496
 30
0.0
 11
93.438113534106137
 21
210.35691864145139
 31
0.0
  0
LINE
  5
468
  8
0
 10
87.438113534106108
 20
211.6569186414489
 30
0.0
 11
87.438113534106108
 21
162.85691864144781
 31
0.0
  0
POLYLINE
  5
46A
  8
0
 66
     1
 10
0.0
 20
0.0
 30
0.0
  0
VERTEX
  5
765
  8
0
 10
349.15067193958168
 20
164.3569186414496
 30
0.0
 42
0.9715581473309375
  0
VERTEX
  5
766
  8
0
 10
245.19395017518551
 20
164.35691864144781
 30
0.0
 42
0.9715581473309375
  0
SEQEND
  5
767
  8
0
  0
POLYLINE
  5
479
  8
0
 66
     1
 10
0.0
 20
0.0
 30
0.0
  0
VERTEX
  5
768
  8
0
 10
297.17231105738369
 20
211.65691864144779
 30
0.0
 42
0.4142135623730973
  0
VERTEX
  5
769
  8
0
 10
248.3723110573834
 20
162.85691864144781
 30
0.0
 42
0.4142135623730898
  0
VERTEX
  5
76A
  8
0
 10
297.17231105738369
 20
114.0569186414486
 30
0.0
 42
0.4142135623730898
  0
SEQEND
  5
76B
  8
0
  0
LINE
  5
47A
  8
0
  6
CENTER2
 62
     1
 10
238.76024910576751
 20
162.85691864144781
 30
0.0
 11
352.99079824289009
 21
162.85691864144781
 31
0.0
  0
LINE
  5
47F
  8
0
 10
243.17231105738369
 20
164.35691864144781
 30
0.0
 11
247.69273986708481
 21
164.35691864144781
 31
0.0
  0
LINE
  5
480
  8
0
 10
243.17231105738369
 20
161.35691864144781
 30
0.0
 11
247.69273986708481
 21
161.35691864144781
 31
0.0
  0
POLYLINE
  5
481
  8
0
 66
     1
 10
0.0
 20
0.0
 30
0.0
  0
VERTEX
  5
76C
  8
0
 10
245.19395017518551
 20
161.35691864144781
 30
0.0
 42
0.9715581473309375
  0
VERTEX
  5
76D
  8
0
 10
349.15067193958168
 20
161.35691864144781
 30
0.0
  0
SEQEND
  5
76E
  8
0
  0
LINE
  5
56A
  8
0
 10
126.5591189893112
 20
114.8421540049325
 30
0.0
 11
126.5591189893112
 21
162.8569186414496
 31
0.0
  0
LINE
  5
56B
  8
0
 10
126.5591189893112
 20
210.87168327796309
 30
0.0
 11
126.5591189893112
 21
162.85691864144599
 31
0.0
  0
LINE
  5
56C
  8
0
 10
141.31710807890121
 20
210.871683277963
 30
0.0
 11
141.31710807890099
 21
162.8569186414459
 31
0.0
  0
LINE
  5
56D
  8
0
 10
141.31710807890079
 20
114.8421540049325
 30
0.0
 11
141.31710807890099
 21
162.8569186414496
 31
0.0
  0
POLYLINE
  5
56E
  8
0
 66
     1
 10
0.0
 20
0.0
 30
0.0
  0
VERTEX
  5
76F
  8
0
 10
297.17231105738352
 20
211.65691864144779
 30
0.0
 42
-0.4142135623730973
  0
VERTEX
  5
770
  8
0
 10
345.97231105738371
 20
162.85691864144781
 30
0.0
 42
-0.4142135623730898
  0
VERTEX
  5
771
  8
0
 10
297.17231105738352
 20
114.0569186414486
 30
0.0
 42
-0.4142135623730898
  0
SEQEND
  5
772
  8
0
  0
POLYLINE
  5
56F
  8
0
 66
     1
 10
0.0
 20
0.0
 30
0.0
  0
VERTEX
  5
773
  8
0
 10
297.17231105738352
 20
212.35691864144519
 30
0.0
 42
-0.4142135623730793
  0
VERTEX
  5
774
  8
0
 10
346.67231105738352
 20
162.85691864144781
 30
0.0
 42
-0.4142135623730799
  0
VERTEX
  5
775
  8
0
 10
297.17231105738352
 20
113.35691864145041
 30
0.0
 42
-0.4142135623730799
  0
SEQEND
  5
776
  8
0
  0
LINE
  5
570
  8
0
 10
343.67231105738358
 20
161.35691864144951
 30
0.0
 11
343.17231105738369
 21
161.3569186414496
 31
0.0
  0
LINE
  5
571
  8
0
 10
343.67231105738358
 20
164.3569186414496
 30
0.0
 11
343.17231105738369
 21
164.3569186414496
 31
0.0
  0
LINE
  5
580
  8
0
 10
343.67231105738358
 20
164.35691864144781
 30
0.0
 11
343.67231105738358
 21
161.35691864144951
 31
0.0
  0
ENDSEC
  0
EOF
