  0
SECTION
  2
HEADER
  9
$ACADVER
  1
AC1009
  9
$INSBASE
 10
0.0
 20
0.0
 30
0.0
  9
$EXTMIN
 10
21.30773206644438
 20
32.54082110729604
 30
-0.0015258207003583
  9
$EXTMAX
 10
349.29116870902612
 20
206.3931389450828
 30
0.0000000349246037
  9
$LIMMIN
 10
0.0
 20
0.0
  9
$LIMMAX
 10
12.0
 20
9.0
  9
$ORTHOMODE
 70
     1
  9
$REGENMODE
 70
     1
  9
$FILLMODE
 70
     1
  9
$QTEXTMODE
 70
     0
  9
$MIRRTEXT
 70
     0
  9
$DRAGMODE
 70
     2
  9
$LTSCALE
 40
1.0
  9
$OSMODE
 70
   951
  9
$ATTMODE
 70
     1
  9
$TEXTSIZE
 40
0.2
  9
$TRACEWID
 40
0.05
  9
$TEXTSTYLE
  7
STANDARD
  9
$CLAYER
  8
0
  9
$CELTYPE
  6
BYLAYER
  9
$CECOLOR
 62
   256
  9
$DIMSCALE
 40
1.0
  9
$DIMASZ
 40
3.5
  9
$DIMEXO
 40
0.0
  9
$DIMDLI
 40
7.0
  9
$DIMRND
 40
0.0
  9
$DIMDLE
 40
0.0
  9
$DIMEXE
 40
1.25
  9
$DIMTP
 40
0.0
  9
$DIMTM
 40
0.000000001
  9
$DIMTXT
 40
3.5
  9
$DIMCEN
 40
3.0
  9
$DIMTSZ
 40
0.0
  9
$DIMTOL
 70
     0
  9
$DIMLIM
 70
     0
  9
$DIMTIH
 70
     0
  9
$DIMTOH
 70
     1
  9
$DIMSE1
 70
     0
  9
$DIMSE2
 70
     0
  9
$DIMTAD
 70
     1
  9
$DIMZIN
 70
     8
  9
$DIMBLK
  1

  9
$DIMASO
 70
     1
  9
$DIMSHO
 70
     1
  9
$DIMPOST
  1

  9
$DIMAPOST
  1

  9
$DIMALT
 70
     0
  9
$DIMALTD
 70
     3
  9
$DIMALTF
 40
0.03937007874016
  9
$DIMLFAC
 40
1.0
  9
$DIMTOFL
 70
     1
  9
$DIMTVP
 40
0.0
  9
$DIMTIX
 70
     0
  9
$DIMSOXD
 70
     0
  9
$DIMSAH
 70
     0
  9
$DIMBLK1
  1

  9
$DIMBLK2
  1

  9
$DIMSTYLE
  2
COPY_OF_ISO-25
  9
$DIMCLRD
 70
   256
  9
$DIMCLRE
 70
   256
  9
$DIMCLRT
 70
   256
  9
$DIMTFAC
 40
1.0
  9
$DIMGAP
 40
1.0
  9
$LUNITS
 70
     2
  9
$LUPREC
 70
     4
  9
$SKETCHINC
 40
0.1
  9
$FILLETRAD
 40
0.0
  9
$AUNITS
 70
     0
  9
$AUPREC
 70
     0
  9
$MENU
  1
.
  9
$ELEVATION
 40
0.0
  9
$PELEVATION
 40
0.0
  9
$THICKNESS
 40
0.0
  9
$LIMCHECK
 70
     0
  9
$BLIPMODE
 70
     0
  9
$CHAMFERA
 40
0.0
  9
$CHAMFERB
 40
0.0
  9
$SKPOLY
 70
     0
  9
$TDCREATE
 40
2455699.4905464821
  9
$TDUPDATE
 40
2455699.6059503588
  9
$TDINDWG
 40
0.009923831
  9
$TDUSRTIMER
 40
0.009923287
  9
$USRTIMER
 70
     1
  9
$ANGBASE
 50
0.0
  9
$ANGDIR
 70
     0
  9
$PDMODE
 70
     0
  9
$PDSIZE
 40
0.0
  9
$PLINEWID
 40
0.0
  9
$COORDS
 70
     1
  9
$SPLFRAME
 70
     0
  9
$SPLINETYPE
 70
     6
  9
$SPLINESEGS
 70
     8
  9
$ATTDIA
 70
     0
  9
$ATTREQ
 70
     1
  9
$HANDLING
 70
     1
  9
$HANDSEED
  5
7AE
  9
$SURFTAB1
 70
     6
  9
$SURFTAB2
 70
     6
  9
$SURFTYPE
 70
     6
  9
$SURFU
 70
     6
  9
$SURFV
 70
     6
  9
$UCSNAME
  2

  9
$UCSORG
 10
0.0
 20
0.0
 30
0.0
  9
$UCSXDIR
 10
1.0
 20
0.0
 30
0.0
  9
$UCSYDIR
 10
0.0
 20
1.0
 30
0.0
  9
$PUCSNAME
  2

  9
$PUCSORG
 10
0.0
 20
0.0
 30
0.0
  9
$PUCSXDIR
 10
1.0
 20
0.0
 30
0.0
  9
$PUCSYDIR
 10
0.0
 20
1.0
 30
0.0
  9
$USERI1
 70
     0
  9
$USERI2
 70
     0
  9
$USERI3
 70
     0
  9
$USERI4
 70
     0
  9
$USERI5
 70
     0
  9
$USERR1
 40
0.0
  9
$USERR2
 40
0.0
  9
$USERR3
 40
0.0
  9
$USERR4
 40
0.0
  9
$USERR5
 40
0.0
  9
$WORLDVIEW
 70
     1
  9
$SHADEDGE
 70
     3
  9
$SHADEDIF
 70
    70
  9
$TILEMODE
 70
     1
  9
$MAXACTVP
 70
    64
  9
$PLIMCHECK
 70
     0
  9
$PEXTMIN
 10
0.0
 20
0.0
 30
0.0
  9
$PEXTMAX
 10
0.0
 20
0.0
 30
0.0
  9
$PLIMMIN
 10
0.0
 20
0.0
  9
$PLIMMAX
 10
12.0
 20
9.0
  9
$UNITMODE
 70
     0
  9
$VISRETAIN
 70
     1
  9
$PLINEGEN
 70
     0
  9
$PSLTSCALE
 70
     1
  0
ENDSEC
  0
SECTION
  2
TABLES
  0
TABLE
  2
VPORT
 70
     2
  0
VPORT
  2
*ACTIVE
 70
     0
 10
0.0
 20
0.0
 11
1.0
 21
1.0
 12
185.29945038773519
 22
119.4669800261894
 13
0.0
 23
0.0
 14
0.5
 24
0.5
 15
0.5
 25
0.5
 16
0.0
 26
0.0
 36
1.0
 17
0.0
 27
0.0
 37
0.0
 40
175.43279345449389
 41
2.0698027314112291
 42
50.0
 43
0.0
 44
0.0
 50
0.0
 51
0.0
 71
     0
 72
  1000
 73
     1
 74
     3
 75
     0
 76
     0
 77
     0
 78
     0
  0
ENDTAB
  0
TABLE
  2
LTYPE
 70
     2
  0
LTYPE
  2
CONTINUOUS
 70
     0
  3
Solid line
 72
    65
 73
     0
 40
0.0
  0
LTYPE
  2
CENTER2
 70
     0
  3
Center (.5x) ___ _ ___ _ ___ _ ___ _ ___ _ ___
 72
    65
 73
     4
 40
28.574999999999999
 49
19.050000000000001
 49
-3.174999999999998
 49
3.174999999999998
 49
-3.174999999999998
  0
ENDTAB
  0
TABLE
  2
LAYER
 70
     3
  0
LAYER
  2
0
 70
     0
 62
     7
  6
CONTINUOUS
  0
LAYER
  2
DEFPOINTS
 70
     0
 62
   142
  6
CONTINUOUS
  0
LAYER
  2
PAGR
 70
     0
 62
     7
  6
CONTINUOUS
  0
ENDTAB
  0
TABLE
  2
STYLE
 70
     4
  0
STYLE
  2
STANDARD
 70
     0
 40
0.0
 41
1.0
 50
0.0
 71
     0
 42
0.2
  3
txt
  4

  0
STYLE
  2
LIETUV2
 70
     0
 40
2.5
 41
1.0
 50
0.0
 71
     0
 42
2.5
  3
txt
  4

  0
STYLE
  2
ISO_PROPORTIONAL
 70
     0
 40
0.0
 41
1.0
 50
0.0
 71
     0
 42
40.0
  3
romanc.shx
  4

  0
STYLE
  2
GOST
 70
     0
 40
0.0
 41
0.8
 50
0.0
 71
     0
 42
3.5
  3
litc.shx
  4

  0
ENDTAB
  0
TABLE
  2
VIEW
 70
     0
  0
ENDTAB
  0
TABLE
  2
UCS
 70
     0
  0
ENDTAB
  0
TABLE
  2
APPID
 70
     1
  0
APPID
  2
ACAD
 70
     0
  0
ENDTAB
  0
TABLE
  2
DIMSTYLE
 70
     6
  0
DIMSTYLE
  2
STANDARD
 70
     0
  3

  4

  5

  6

  7

 40
1.0
 41
0.18
 42
0.0625
 43
0.38
 44
0.18
 45
0.0
 46
0.0
 47
0.0
 48
0.0
140
0.18
141
0.09
142
0.0
143
25.399999999999999
144
1.0
145
0.0
146
1.0
147
0.09
 71
     0
 72
     0
 73
     1
 74
     1
 75
     0
 76
     0
 77
     0
 78
     0
170
     0
171
     2
172
     0
173
     0
174
     0
175
     0
176
     0
177
     0
178
     0
  0
DIMSTYLE
  2
ISO-25
 70
     0
  3

  4

  5

  6

  7

 40
1.0
 41
5.0
 42
0.625
 43
3.75
 44
1.25
 45
0.0
 46
0.0
 47
0.0
 48
0.0
140
2.5
141
1.5
142
0.0
143
0.03937007874016
144
1.0
145
0.0
146
1.0
147
0.625
 71
     0
 72
     0
 73
     0
 74
     1
 75
     0
 76
     0
 77
     1
 78
     8
170
     0
171
     3
172
     1
173
     0
174
     0
175
     0
176
     0
177
     0
178
     0
  0
DIMSTYLE
  2
COPY_OF_STANDARD
 70
     0
  3

  4

  5

  6

  7

 40
1.0
 41
3.7299999999999991
 42
0.0
 43
0.0
 44
1.0
 45
0.1
 46
0.0
 47
0.0
 48
0.000000001
140
3.5
141
0.09
142
0.0
143
25.399999999999999
144
1.0
145
0.0
146
1.0
147
1.0
 71
     0
 72
     0
 73
     0
 74
     1
 75
     0
 76
     0
 77
     1
 78
     8
170
     0
171
     2
172
     0
173
     0
174
     0
175
     1
176
     0
177
     0
178
     0
  0
DIMSTYLE
  2
COPY_OF_ISO-25
 70
     0
  3

  4

  5

  6

  7

 40
1.0
 41
3.5
 42
0.0
 43
7.0
 44
1.25
 45
0.0
 46
0.0
 47
0.0
 48
0.000000001
140
3.5
141
3.0
142
0.0
143
0.03937007874016
144
1.0
145
0.0
146
1.0
147
1.0
 71
     0
 72
     0
 73
     0
 74
     1
 75
     0
 76
     0
 77
     1
 78
     8
170
     0
171
     3
172
     1
173
     0
174
     0
175
     0
176
   256
177
   256
178
   256
  0
DIMSTYLE
  2
GOST
 70
     0
  3

  4

  5

  6

  7

 40
0.0
 41
3.0
 42
0.0
 43
8.0
 44
1.25
 45
0.0
 46
0.0
 47
0.0
 48
0.0
140
3.0
141
5.0
142
0.0
143
25.399999999999999
144
1.0
145
0.0
146
1.0
147
0.625
 71
     0
 72
     0
 73
     0
 74
     1
 75
     0
 76
     0
 77
     1
 78
     8
170
     0
171
     2
172
     1
173
     0
174
     0
175
     0
176
     0
177
     0
178
     0
  0
DIMSTYLE
  2
ISO-25M
 70
     0
  3

  4

  5

  6

  7

 40
2.0
 41
2.5
 42
0.0
 43
3.75
 44
1.25
 45
0.0
 46
0.0
 47
0.0
 48
0.000000001
140
2.5
141
2.5
142
0.0
143
0.03937007874016
144
1.0
145
0.0
146
1.0
147
0.625
 71
     0
 72
     0
 73
     0
 74
     0
 75
     0
 76
     0
 77
     1
 78
     8
170
     0
171
     3
172
     1
173
     0
174
     0
175
     0
176
     0
177
     0
178
     0
  0
ENDTAB
  0
ENDSEC
  0
SECTION
  2
BLOCKS
  0
BLOCK
  8
0
  2
$MODEL_SPACE
 70
     0
 10
0.0
 20
0.0
 30
0.0
  3
$MODEL_SPACE
  1

  0
ENDBLK
  5
6CA
  8
0
  0
BLOCK
 67
     1
  8
0
  2
$PAPER_SPACE
 70
     0
 10
0.0
 20
0.0
 30
0.0
  3
$PAPER_SPACE
  1

  0
ENDBLK
  5
6C6
 67
     1
  8
0
  0
BLOCK
  8
0
  2
*D2
 70
     1
 10
0.0
 20
0.0
 30
0.0
  3
*D2
  1

  0
LINE
  5
59F
  8
0
 10
36.07966167161895
 20
41.750196414706707
 30
0.0
 11
36.07966167161895
 21
20.336185514125141
 31
0.0
  0
LINE
  5
5A0
  8
0
 10
128.07966167161891
 20
41.750196414706707
 30
0.0
 11
128.07966167161891
 21
20.336185514125141
 31
0.0
  0
LINE
  5
5A1
  8
0
 10
39.57966167161895
 20
21.586185514125141
 30
0.0
 11
124.57966167161889
 21
21.586185514125141
 31
0.0
  0
SOLID
  5
5A2
  8
0
 10
39.57966167161895
 20
22.16951884745847
 30
0.0
 11
39.57966167161895
 21
21.002852180791798
 31
0.0
 12
36.07966167161895
 22
21.586185514125141
 32
0.0
 13
36.07966167161895
 23
21.586185514125141
 33
0.0
  0
SOLID
  5
5A3
  8
0
 10
124.57966167161889
 20
22.16951884745847
 30
0.0
 11
124.57966167161889
 21
21.002852180791798
 31
0.0
 12
128.07966167161891
 22
21.586185514125141
 32
0.0
 13
128.07966167161891
 23
21.586185514125141
 33
0.0
  0
INSERT
  5
5A4
  8
0
  2
*U3
 10
0.0
 20
0.0
 30
0.0
  0
POINT
  5
5A5
  8
DEFPOINTS
 62
     0
 10
36.07966167161895
 20
41.750196414706707
 30
0.0
  0
POINT
  5
5A6
  8
DEFPOINTS
 62
     0
 10
128.07966167161891
 20
41.750196414706707
 30
0.0
  0
POINT
  5
5A7
  8
DEFPOINTS
 62
     0
 10
128.07966167161891
 20
21.586185514125141
 30
0.0
  0
ENDBLK
  5
59E
  8
0
  0
BLOCK
  8
0
  2
*U3
 70
     1
 10
0.0
 20
0.0
 30
0.0
  3
*U3
  1

  0
TEXT
  5
697
  8
0
 10
80.254002424102097
 20
22.586185514125141
 30
0.0
 40
3.5
  1
92
  7
ISO_PROPORTIONAL
  0
ENDBLK
  5
699
  8
0
  0
BLOCK
  8
0
  2
*D4
 70
     1
 10
0.0
 20
0.0
 30
0.0
  3
*D4
  1

  0
LINE
  5
5AA
  8
0
 10
36.07966167161895
 20
190.75019641470669
 30
0.0
 11
27.61489318301054
 21
190.75019641470669
 31
0.0
  0
LINE
  5
5AB
  8
0
 10
36.079661671618901
 20
41.750196414706707
 30
0.0
 11
27.614893183010501
 21
41.750196414706707
 31
0.0
  0
LINE
  5
5AC
  8
0
 10
28.86489318301054
 20
187.25019641470669
 30
0.0
 11
28.864893183010501
 21
45.250196414706728
 31
0.0
  0
SOLID
  5
5AD
  8
0
 10
28.281559849677201
 20
187.25019641470669
 30
0.0
 11
29.448226516343869
 21
187.25019641470669
 31
0.0
 12
28.86489318301054
 22
190.75019641470669
 32
0.0
 13
28.86489318301054
 23
190.75019641470669
 33
0.0
  0
SOLID
  5
5AE
  8
0
 10
28.281559849677169
 20
45.250196414706728
 30
0.0
 11
29.448226516343841
 21
45.250196414706728
 31
0.0
 12
28.864893183010501
 22
41.750196414706707
 32
0.0
 13
28.864893183010501
 23
41.750196414706707
 33
0.0
  0
INSERT
  5
5AF
  8
0
  2
*U5
 10
0.0
 20
0.0
 30
0.0
  0
POINT
  5
5B0
  8
DEFPOINTS
 62
     0
 10
36.07966167161895
 20
190.75019641470669
 30
0.0
  0
POINT
  5
5B1
  8
DEFPOINTS
 62
     0
 10
36.079661671618901
 20
41.750196414706707
 30
0.0
  0
POINT
  5
5B2
  8
DEFPOINTS
 62
     0
 10
28.864893183010501
 20
41.750196414706707
 30
0.0
  0
ENDBLK
  5
5B4
  8
0
  0
BLOCK
  8
0
  2
*U5
 70
     1
 10
0.0
 20
0.0
 30
0.0
  3
*U5
  1

  0
TEXT
  5
69B
  8
0
 10
27.864893183010501
 20
111.50019641470671
 30
0.0
 40
3.5
  1
149
 50
90.0
  7
ISO_PROPORTIONAL
  0
ENDBLK
  5
69D
  8
0
  0
BLOCK
  8
0
  2
*D6
 70
     1
 10
0.0
 20
0.0
 30
0.0
  3
*D6
  1

  0
LINE
  5
5C1
  8
0
 10
345.33663344711999
 20
169.2652985417532
 30
0.0
 11
332.50330011378679
 21
169.2652985417532
 31
0.0
  0
LINE
  5
5C2
  8
0
 10
332.50330011378679
 20
169.2652985417532
 30
0.0
 11
328.76511759452018
 21
166.22313165877401
 31
0.0
  0
LINE
  5
5C3
  8
0
 10
205.4420405143785
 20
65.861691556085887
 30
0.0
 11
202.72738158494161
 21
63.652477465775128
 31
0.0
  0
INSERT
  5
5C4
  8
0
  2
*U7
 10
0.0
 20
0.0
 30
0.0
  0
LINE
  5
5C5
  8
0
 10
208.15669944381571
 20
68.070905646396639
 30
0.0
 11
326.05045866508311
 21
164.01391756846331
 31
0.0
  0
SOLID
  5
5C6
  8
0
 10
205.07383816599349
 20
66.314134710992064
 30
0.0
 11
205.81024286276369
 21
65.40924840117971
 31
0.0
 12
208.15669944381571
 22
68.070905646396639
 32
0.0
 13
208.15669944381571
 23
68.070905646396639
 33
0.0
  0
SOLID
  5
5C7
  8
0
 10
328.39691524613522
 20
166.67557481368021
 30
0.0
 11
329.1333199429053
 21
165.7706885038678
 31
0.0
 12
326.05045866508311
 22
164.01391756846331
 32
0.0
 13
326.05045866508311
 23
164.01391756846331
 33
0.0
  0
POINT
  5
5C8
  8
DEFPOINTS
 62
     0
 10
326.05045866508311
 20
164.01391756846331
 30
0.0
  0
POINT
  5
5C9
  8
DEFPOINTS
 62
     0
 10
208.15669944381571
 20
68.070905646396639
 30
0.0
  0
ENDBLK
  5
5CB
  8
0
  0
BLOCK
  8
0
  2
*U7
 70
     1
 10
0.0
 20
0.0
 30
0.0
  3
*U7
  1

  0
TEXT
  5
6A3
  8
0
 10
333.16996678045348
 20
170.26529854175311
 30
0.0
 40
3.5
  1
\U+2205152
  7
ISO_PROPORTIONAL
  0
ENDBLK
  5
6A5
  8
0
  0
ENDSEC
  0
SECTION
  2
ENTITIES
  0
POLYLINE
  5
301
  8
0
 66
     1
 10
0.0
 20
0.0
 30
0.0
  0
VERTEX
  5
6F0
  8
0
 10
343.0887749810243
 20
117.5424116074299
 30
0.0
 42
0.9804541409880535
  0
VERTEX
  5
6F1
  8
0
 10
191.1183831278743
 20
117.5424116074299
 30
0.0
 42
0.9804541409880535
  0
SEQEND
  5
6F2
  8
0
  0
LINE
  5
302
  8
0
 10
338.10357905444943
 20
118.0424116074299
 30
0.0
 11
328.10357905444943
 21
118.0424116074299
 31
0.0
  0
LINE
  5
303
  8
0
 10
328.10357905444943
 20
114.0424116074263
 30
0.0
 11
338.10357905444943
 21
114.0424116074263
 31
0.0
  0
LINE
  5
304
  8
0
  6
CONTINUOUS
 62
     7
 10
329.50291674010538
 20
118.0424116074299
 30
0.0
 11
337.4684237248631
 21
118.0424116074299
 31
0.0
  0
LINE
  5
305
  8
0
 10
338.06948636211479
 20
113.84241160742739
 30
0.0
 11
327.60357905444943
 21
113.8424116074256
 31
0.0
  0
LINE
  5
306
  8
0
 10
284.10361674010448
 20
118.0424116074263
 30
0.0
 11
274.10361674010448
 21
118.0424116074263
 31
0.0
  0
LINE
  5
307
  8
0
 10
307.98108761114338
 20
113.8424116074256
 30
0.0
 11
303.10357905444943
 21
113.8424116074256
 31
0.0
  0
LINE
  5
308
  8
0
 10
312.73527723001752
 20
118.242411607427
 30
0.0
 11
284.10361674010448
 21
118.242411607427
 31
0.0
  0
LINE
  5
309
  8
0
 10
269.76477960069781
 20
118.2424116074306
 30
0.0
 11
274.10361674010448
 21
118.2424116074306
 31
0.0
  0
LINE
  5
30A
  8
0
 10
308.2785885653621
 20
117.5424116074317
 30
0.0
 11
303.10357905444943
 21
117.5424116074317
 31
0.0
  0
LINE
  5
30B
  8
0
 10
308.03737157545493
 20
114.5424116074299
 30
0.0
 11
303.10357905444943
 21
114.5424116074317
 31
0.0
  0
LINE
  5
30C
  8
0
 10
313.62792283763082
 20
124.5424116074263
 30
0.0
 11
312.82269337711398
 21
114.245058859571
 31
0.0
  0
LINE
  5
30D
  8
0
 10
313.22792283762931
 20
124.5424116074263
 30
0.0
 11
312.42269337711252
 21
114.245058859571
 31
0.0
  0
ARC
  5
30E
  8
0
 10
312.62269337711319
 20
114.245058859571
 30
0.0
 40
0.2
 50
180.00000000020839
 51
359.9999999997915
  0
POINT
  5
30F
  8
0
  6
CONTINUOUS
 62
     7
 10
312.47407668377957
 20
116.0424116074263
 30
0.0
  0
POINT
  5
310
  8
0
  6
CONTINUOUS
 62
     7
 10
312.47407668377957
 20
116.0424116074299
 30
0.0
  0
ARC
  5
311
  8
0
 10
312.2226933771118
 20
114.2450588595747
 30
0.0
 40
0.2
 50
180.00000000020839
 51
359.9999999997915
  0
ARC
  5
312
  8
0
 10
311.82269337711023
 20
114.2450588595747
 30
0.0
 40
0.2
 50
180.00000000020839
 51
359.9999999997915
  0
LINE
  5
313
  8
0
 10
312.30389006847082
 20
117.8410295293487
 30
0.0
 11
312.02269337711112
 21
114.2450588595747
 31
0.0
  0
LINE
  5
314
  8
0
 10
311.9038900684692
 20
117.8410295293487
 30
0.0
 11
311.62269337710973
 21
114.2450588595747
 31
0.0
  0
ARC
  5
315
  8
0
 10
311.42269337710889
 20
114.2450588595747
 30
0.0
 40
0.2
 50
180.00000000020839
 51
359.9999999997915
  0
ARC
  5
316
  8
0
 10
311.02269337710737
 20
114.2450588595747
 30
0.0
 40
0.2
 50
180.00000000020839
 51
359.9999999997915
  0
LINE
  5
317
  8
0
 10
311.50389006846768
 20
117.8410295293487
 30
0.0
 11
311.2226933771081
 21
114.2450588595747
 31
0.0
  0
LINE
  5
318
  8
0
 10
311.10389006846628
 20
117.8410295293487
 30
0.0
 11
310.8226933771067
 21
114.2450588595747
 31
0.0
  0
ARC
  5
319
  8
0
 10
310.62269337710597
 20
114.2450588595747
 30
0.0
 40
0.2
 50
180.00000000020839
 51
359.9999999997915
  0
ARC
  5
31A
  8
0
 10
312.50389006847138
 20
117.8410295293487
 30
0.0
 40
0.2
 50
0.0000000002084408
 51
179.9999999997915
  0
ARC
  5
31B
  8
0
 10
312.10389006846992
 20
117.8410295293487
 30
0.0
 40
0.2
 50
0.0000000002084408
 51
179.9999999997915
  0
ARC
  5
31C
  8
0
 10
311.70389006846852
 20
117.8410295293487
 30
0.0
 40
0.2
 50
0.0000000002084408
 51
179.9999999997915
  0
ARC
  5
31D
  8
0
 10
311.30389006846701
 20
117.8410295293487
 30
0.0
 40
0.2
 50
0.0000000002084408
 51
179.9999999997915
  0
ARC
  5
31E
  8
0
 10
310.90389006846561
 20
117.8410295293487
 30
0.0
 40
0.2
 50
0.0000000002084408
 51
179.9999999997915
  0
ARC
  5
31F
  8
0
 10
310.22269337710452
 20
114.2450588595747
 30
0.0
 40
0.2
 50
180.00000000020839
 51
359.9999999997915
  0
LINE
  5
320
  8
0
 10
310.70389006846477
 20
117.8410295293487
 30
0.0
 11
310.4226933771053
 21
114.2450588595747
 31
0.0
  0
ARC
  5
321
  8
0
 10
309.82269337710312
 20
114.2450588595747
 30
0.0
 40
0.2
 50
180.00000000020839
 51
359.9999999997915
  0
LINE
  5
322
  8
0
 10
310.30389006846337
 20
117.8410295293487
 30
0.0
 11
310.02269337710379
 21
114.2450588595747
 31
0.0
  0
LINE
  5
323
  8
0
 10
309.90389006846198
 20
117.8410295293487
 30
0.0
 11
309.62269337710222
 21
114.2450588595747
 31
0.0
  0
ARC
  5
324
  8
0
 10
309.42269337710161
 20
114.2450588595747
 30
0.0
 40
0.2
 50
180.00000000020839
 51
359.9999999997915
  0
ARC
  5
325
  8
0
 10
309.02269337710021
 20
114.2450588595747
 30
0.0
 40
0.2
 50
180.00000000020839
 51
359.9999999997915
  0
LINE
  5
326
  8
0
 10
309.50389006846052
 20
117.8410295293487
 30
0.0
 11
309.22269337710088
 21
114.2450588595747
 31
0.0
  0
LINE
  5
327
  8
0
 10
309.10389006845901
 20
117.8410295293487
 30
0.0
 11
308.82269337709943
 21
114.2450588595747
 31
0.0
  0
LINE
  5
328
  8
0
 10
308.7038900684575
 20
117.8410295293487
 30
0.0
 11
307.87556483513538
 21
107.5392025273339
 31
0.0
  0
ARC
  5
329
  8
0
 10
308.6226933770987
 20
114.2450588595747
 30
0.0
 40
0.2
 50
180.00000000020839
 51
359.9999999997915
  0
ARC
  5
32A
  8
0
 10
310.5038900684641
 20
117.8410295293487
 30
0.0
 40
0.2
 50
0.0000000002084408
 51
179.9999999997915
  0
ARC
  5
32B
  8
0
 10
310.10389006846259
 20
117.8410295293487
 30
0.0
 40
0.2
 50
0.0000000002084408
 51
179.9999999997915
  0
ARC
  5
32C
  8
0
 10
309.70389006846119
 20
117.8410295293487
 30
0.0
 40
0.2
 50
0.0000000002084408
 51
179.9999999997915
  0
ARC
  5
32D
  8
0
 10
309.30389006845968
 20
117.8410295293487
 30
0.0
 40
0.2
 50
0.0000000002084408
 51
179.9999999997915
  0
ARC
  5
32E
  8
0
 10
308.90389006845822
 20
117.8410295293487
 30
0.0
 40
0.2
 50
0.0000000002084408
 51
179.9999999997915
  0
ARC
  5
32F
  8
0
 10
308.50389006845847
 20
117.8410295293487
 30
0.0
 40
0.2
 50
0.0000000002084408
 51
179.9999999997915
  0
POINT
  5
330
  8
0
  6
CONTINUOUS
 62
     7
 10
310.4740766837723
 20
116.0424116074299
 30
0.0
  0
POINT
  5
331
  8
0
  6
CONTINUOUS
 62
     7
 10
310.4740766837723
 20
116.0424116074263
 30
0.0
  0
LINE
  5
332
  8
0
 10
308.30517684661118
 20
117.8730883304178
 30
0.0
 11
307.47685161329088
 21
107.5712613284048
 31
0.0
  0
LINE
  5
333
  8
0
 10
307.87556483513538
 20
107.5392025273358
 30
0.0
 11
307.47685161329088
 21
107.5712613284048
 31
0.0
  0
ARC
  5
334
  8
0
 10
308.21346273052689
 20
114.2450588595747
 30
0.0
 40
0.2
 50
180.00000000020839
 51
359.9999999997915
  0
ARC
  5
335
  8
0
 10
312.90389006847289
 20
117.8410295293487
 30
0.0
 40
0.2
 50
0.0000000002084408
 51
179.9999999997915
  0
LINE
  5
336
  8
0
 10
313.62792283763082
 20
124.5424116074263
 30
0.0
 11
313.22792283762931
 21
124.5424116074263
 31
0.0
  0
LINE
  5
337
  8
0
 10
269.7100411998519
 20
117.54241160742809
 30
0.0
 11
274.10361674010448
 21
117.54241160742809
 31
0.0
  0
LINE
  5
338
  8
0
 10
269.4754480533694
 20
114.54241160742809
 30
0.0
 11
274.10361674010448
 21
114.54241160742809
 31
0.0
  0
LINE
  5
339
  8
0
 10
270.25742520830778
 20
124.5424116074263
 30
0.0
 11
269.85742520830638
 21
124.5424116074263
 31
0.0
  0
ARC
  5
33A
  8
0
 10
269.53339243914991
 20
117.8410295293487
 30
0.0
 40
0.2
 50
0.0000000002084408
 51
179.9999999997915
  0
POINT
  5
33B
  8
0
  6
CONTINUOUS
 62
     7
 10
267.10357905444943
 20
116.0424116074263
 30
0.0
  0
POINT
  5
33C
  8
0
  6
CONTINUOUS
 62
     7
 10
267.10357905444943
 20
116.0424116074299
 30
0.0
  0
ARC
  5
33D
  8
0
 10
266.33339243913832
 20
117.8410295293487
 30
0.0
 40
0.2
 50
0.0000000002084408
 51
179.9999999997915
  0
ARC
  5
33E
  8
0
 10
266.73339243913961
 20
117.8410295293487
 30
0.0
 40
0.2
 50
0.0000000002084408
 51
179.9999999997915
  0
ARC
  5
33F
  8
0
 10
267.13339243914118
 20
117.8410295293487
 30
0.0
 40
0.2
 50
0.0000000002084408
 51
179.9999999997915
  0
LINE
  5
340
  8
0
 10
266.53339243913899
 20
117.8410295293487
 30
0.0
 11
266.25219574777941
 21
114.2450588595747
 31
0.0
  0
LINE
  5
341
  8
0
 10
266.9333924391405
 20
117.8410295293487
 30
0.0
 11
266.65219574778081
 21
114.2450588595747
 31
0.0
  0
ARC
  5
342
  8
0
 10
266.45219574778019
 20
114.2450588595747
 30
0.0
 40
0.2
 50
180.00000000020839
 51
359.9999999997915
  0
LINE
  5
343
  8
0
 10
267.3333924391419
 20
117.8410295293487
 30
0.0
 11
267.05219574778232
 21
114.2450588595747
 31
0.0
  0
ARC
  5
344
  8
0
 10
266.85219574778159
 20
114.2450588595747
 30
0.0
 40
0.2
 50
180.00000000020839
 51
359.9999999997915
  0
ARC
  5
345
  8
0
 10
267.53339243914257
 20
117.8410295293487
 30
0.0
 40
0.2
 50
0.0000000002084408
 51
179.9999999997915
  0
ARC
  5
346
  8
0
 10
267.93339243914409
 20
117.8410295293487
 30
0.0
 40
0.2
 50
0.0000000002084408
 51
179.9999999997915
  0
ARC
  5
347
  8
0
 10
268.3333924391456
 20
117.8410295293487
 30
0.0
 40
0.2
 50
0.0000000002084408
 51
179.9999999997915
  0
ARC
  5
348
  8
0
 10
268.733392439147
 20
117.8410295293487
 30
0.0
 40
0.2
 50
0.0000000002084408
 51
179.9999999997915
  0
ARC
  5
349
  8
0
 10
269.13339243914839
 20
117.8410295293487
 30
0.0
 40
0.2
 50
0.0000000002084408
 51
179.9999999997915
  0
ARC
  5
34A
  8
0
 10
267.25219574778299
 20
114.2450588595747
 30
0.0
 40
0.2
 50
180.00000000020839
 51
359.9999999997915
  0
LINE
  5
34B
  8
0
 10
267.73339243914347
 20
117.8410295293487
 30
0.0
 11
267.45219574778372
 21
114.2450588595747
 31
0.0
  0
LINE
  5
34C
  8
0
 10
268.13339243914481
 20
117.8410295293487
 30
0.0
 11
267.85219574778517
 21
114.2450588595747
 31
0.0
  0
ARC
  5
34D
  8
0
 10
267.6521957477845
 20
114.2450588595747
 30
0.0
 40
0.2
 50
180.00000000020839
 51
359.9999999997915
  0
ARC
  5
34E
  8
0
 10
268.05219574778602
 20
114.2450588595747
 30
0.0
 40
0.2
 50
180.00000000020839
 51
359.9999999997915
  0
LINE
  5
34F
  8
0
 10
268.53339243914638
 20
117.8410295293487
 30
0.0
 11
268.25219574778669
 21
114.2450588595747
 31
0.0
  0
LINE
  5
350
  8
0
 10
268.93339243914772
 20
117.8410295293487
 30
0.0
 11
268.65219574778808
 21
114.2450588595747
 31
0.0
  0
ARC
  5
351
  8
0
 10
268.45219574778741
 20
114.2450588595747
 30
0.0
 40
0.2
 50
180.00000000020839
 51
359.9999999997915
  0
ARC
  5
352
  8
0
 10
268.85219574778893
 20
114.2450588595747
 30
0.0
 40
0.2
 50
180.00000000020839
 51
359.9999999997915
  0
POINT
  5
353
  8
0
  6
CONTINUOUS
 62
     7
 10
269.10357905445647
 20
116.0424116074299
 30
0.0
  0
POINT
  5
354
  8
0
  6
CONTINUOUS
 62
     7
 10
269.10357905445647
 20
116.0424116074263
 30
0.0
  0
ARC
  5
355
  8
0
 10
269.25219574779032
 20
114.245058859571
 30
0.0
 40
0.2
 50
180.00000000020839
 51
359.9999999997915
  0
LINE
  5
356
  8
0
 10
269.85742520830638
 20
124.5424116074263
 30
0.0
 11
269.0521957477896
 21
114.245058859571
 31
0.0
  0
LINE
  5
357
  8
0
 10
270.25742520830778
 20
124.5424116074263
 30
0.0
 11
269.45219574779122
 21
114.245058859571
 31
0.0
  0
LINE
  5
358
  8
0
 10
284.10361674010448
 20
114.5424116074299
 30
0.0
 11
293.10357905444943
 21
114.5424116074299
 31
0.0
  0
LINE
  5
359
  8
0
 10
284.10361674010448
 20
117.5424116074299
 30
0.0
 11
293.10357905444943
 21
117.5424116074263
 31
0.0
  0
LINE
  5
35A
  8
0
 10
293.10357905444943
 20
113.8424116074347
 30
0.0
 11
293.10357905444943
 21
118.04241160743361
 31
0.0
  0
LINE
  5
35B
  8
0
 10
303.10357905444943
 20
113.84241160743279
 30
0.0
 11
303.10357905444943
 21
118.0424116074318
 31
0.0
  0
LINE
  5
35C
  8
0
 10
317.60357905444943
 20
113.8424116074292
 30
0.0
 11
317.60357905444943
 21
118.04241160742809
 31
0.0
  0
LINE
  5
35D
  8
0
 10
327.60357905444943
 20
113.8424116074256
 30
0.0
 11
327.60357905444943
 21
118.0424116074263
 31
0.0
  0
LINE
  5
35E
  8
0
 10
328.10357905444943
 20
114.0424116074263
 30
0.0
 11
328.10357905444943
 21
118.2424116074325
 31
0.0
  0
LINE
  5
35F
  8
0
 10
328.10357905444943
 20
118.242411607427
 30
0.0
 11
313.13527723001891
 21
118.242411607427
 31
0.0
  0
LINE
  5
360
  8
0
 10
317.60357905444943
 20
113.8424116074256
 30
0.0
 11
308.38237854215288
 21
113.8424116074256
 31
0.0
  0
LINE
  5
361
  8
0
 10
328.10357905444943
 20
114.5424116074299
 30
0.0
 11
327.60357905444943
 21
114.5424116074299
 31
0.0
  0
LINE
  5
362
  8
0
 10
328.10357905444943
 20
117.5424116074299
 30
0.0
 11
327.60357905444943
 21
117.5424116074299
 31
0.0
  0
LINE
  5
363
  8
0
 10
327.60357905444943
 20
118.0424116074263
 30
0.0
 11
317.60357905444943
 21
118.0424116074263
 31
0.0
  0
LINE
  5
364
  8
0
 10
327.60357905444943
 20
114.0424116074263
 30
0.0
 11
317.60357905444943
 21
114.0424116074263
 31
0.0
  0
LINE
  5
365
  8
0
  6
CONTINUOUS
 62
     7
 10
329.00291674010538
 20
114.0424116074263
 30
0.0
 11
328.10357905444943
 21
114.0424116074263
 31
0.0
  0
LINE
  5
366
  8
0
 10
293.10357905444943
 20
118.0424116074299
 30
0.0
 11
303.10357905444943
 21
118.0424116074299
 31
0.0
  0
LINE
  5
367
  8
0
 10
303.10357905444943
 20
114.0424116074299
 30
0.0
 11
293.10357905444943
 21
114.0424116074318
 31
0.0
  0
LINE
  5
368
  8
0
 10
317.60357905444943
 20
117.5424116074299
 30
0.0
 11
313.08053882917483
 21
117.5424116074299
 31
0.0
  0
LINE
  5
369
  8
0
 10
317.60357905444943
 20
114.5424116074299
 30
0.0
 11
312.84594568269227
 21
114.5424116074299
 31
0.0
  0
LINE
  5
36A
  8
0
 10
274.10361674010448
 20
114.0424116074299
 30
0.0
 11
274.10361674010448
 21
118.2424116074306
 31
0.0
  0
LINE
  5
36B
  8
0
 10
274.10361674010448
 20
114.0424116074299
 30
0.0
 11
284.10361674010448
 21
114.0424116074299
 31
0.0
  0
LINE
  5
36C
  8
0
 10
284.10361674010448
 20
114.0424116074299
 30
0.0
 11
284.10361674010448
 21
118.2424116074306
 31
0.0
  0
POLYLINE
  5
370
  8
0
 66
     1
 10
0.0
 20
0.0
 30
0.0
  0
VERTEX
  5
6F3
  8
0
 10
340.61397528805281
 20
107.546476867601
 30
0.0
 42
0.0047936724984082
  0
VERTEX
  5
6F4
  8
0
 10
340.76243294869812
 20
109.05395006896821
 30
0.0
  0
SEQEND
  5
6F5
  8
0
  0
LINE
  5
380
  8
0
 10
338.0721450770335
 20
116.0424116074299
 30
0.0
 11
338.0721450770335
 21
114.0424116074263
 31
0.0
  0
LINE
  5
381
  8
0
 10
338.0721450770335
 20
116.0424116074299
 30
0.0
 11
338.0721450770335
 21
118.0424116074299
 31
0.0
  0
LINE
  5
382
  8
0
 10
346.2058600468655
 20
117.5424116074299
 30
0.0
 11
341.58847685259371
 21
117.5424116074299
 31
0.0
  0
LINE
  5
383
  8
0
 10
346.2058600468655
 20
114.5424116074299
 30
0.0
 11
341.58847685259371
 21
114.5424116074299
 31
0.0
  0
LINE
  5
384
  8
0
 10
346.2058600468655
 20
117.5424116074299
 30
0.0
 11
346.2058600468655
 21
114.5424116074299
 31
0.0
  0
LINE
  5
391
  8
0
 10
339.5721450770335
 20
121.94241160742961
 30
0.0
 11
339.76635335538708
 21
121.94241160742961
 31
0.0
  0
POLYLINE
  5
392
  8
0
 66
     1
 10
0.0
 20
0.0
 30
0.0
  0
VERTEX
  5
6F6
  8
0
 10
340.76243294869812
 20
123.0308731458916
 30
0.0
 42
0.0049125415105756
  0
VERTEX
  5
6F7
  8
0
 10
340.6099268920272
 20
124.5756892649641
 30
0.0
 42
0.0049125415105756
  0
SEQEND
  5
6F8
  8
0
  0
ARC
  5
393
  8
0
 10
339.76635335538708
 20
109.1424116074303
 30
0.0
 40
1.0
 50
354.92489330114091
 51
90.0
  0
LINE
  5
395
  8
0
 10
339.5721450770335
 20
110.1424116074303
 30
0.0
 11
339.76635335538708
 21
110.1424116074303
 31
0.0
  0
ARC
  5
398
  8
0
 10
339.5721450770335
 20
111.1424116074303
 30
0.0
 40
1.0
 50
180.0
 51
270.0
  0
LINE
  5
399
  8
0
 10
338.5721450770335
 20
116.0424116074299
 30
0.0
 11
338.5721450770335
 21
111.1424116074303
 31
0.0
  0
LINE
  5
39B
  8
0
 10
338.5721450770335
 20
116.0424116074299
 30
0.0
 11
338.5721450770335
 21
120.94241160742961
 31
0.0
  0
ARC
  5
39E
  8
0
 10
339.5721450770335
 20
120.94241160742961
 30
0.0
 40
1.0
 50
90.0
 51
180.0
  0
ARC
  5
39F
  8
0
 10
339.76635335538708
 20
122.94241160742961
 30
0.0
 40
1.0
 50
270.0
 51
5.0751066988590701
  0
LINE
  5
3A3
  8
0
 10
264.61058998182051
 20
113.8424116074256
 30
0.0
 11
260.1035413687942
 21
113.8424116074256
 31
0.0
  0
LINE
  5
3A4
  8
0
 10
221.7221825070566
 20
113.8424116074256
 30
0.0
 11
250.1035413687942
 21
113.8424116074256
 31
0.0
  0
LINE
  5
3A5
  8
0
 10
226.47508119492261
 20
118.2424116074306
 30
0.0
 11
231.1035413687942
 21
118.2424116074306
 31
0.0
  0
LINE
  5
3A6
  8
0
 10
226.42034279407849
 20
117.5424116074299
 30
0.0
 11
231.1035413687942
 21
117.5424116074317
 31
0.0
  0
LINE
  5
3A7
  8
0
 10
226.185749647596
 20
114.5424116074299
 30
0.0
 11
231.1035413687942
 21
114.5424116074317
 31
0.0
  0
LINE
  5
3A8
  8
0
 10
226.96772680253449
 20
124.5424116074263
 30
0.0
 11
226.1624973420177
 21
114.245058859571
 31
0.0
  0
LINE
  5
3A9
  8
0
 10
226.567726802533
 20
124.5424116074263
 30
0.0
 11
225.7624973420161
 21
114.245058859571
 31
0.0
  0
ARC
  5
3AA
  8
0
 10
225.9624973420168
 20
114.245058859571
 30
0.0
 40
0.2
 50
180.00000000020839
 51
359.9999999997915
  0
POINT
  5
3AB
  8
0
  6
CONTINUOUS
 62
     7
 10
225.81388064868329
 20
116.0424116074263
 30
0.0
  0
POINT
  5
3AC
  8
0
  6
CONTINUOUS
 62
     7
 10
225.81388064868329
 20
116.0424116074299
 30
0.0
  0
ARC
  5
3AD
  8
0
 10
225.56249734201549
 20
114.2450588595747
 30
0.0
 40
0.2
 50
180.00000000020839
 51
359.9999999997915
  0
ARC
  5
3AE
  8
0
 10
225.16249734201409
 20
114.2450588595747
 30
0.0
 40
0.2
 50
180.00000000020839
 51
359.9999999997915
  0
LINE
  5
3AF
  8
0
 10
225.6436940333744
 20
117.8410295293487
 30
0.0
 11
225.36249734201479
 21
114.2450588595747
 31
0.0
  0
LINE
  5
3B0
  8
0
 10
225.24369403337289
 20
117.8410295293487
 30
0.0
 11
224.96249734201331
 21
114.2450588595747
 31
0.0
  0
ARC
  5
3B1
  8
0
 10
224.76249734201261
 20
114.2450588595747
 30
0.0
 40
0.2
 50
180.00000000020839
 51
359.9999999997915
  0
ARC
  5
3B2
  8
0
 10
224.3624973420111
 20
114.2450588595747
 30
0.0
 40
0.2
 50
180.00000000020839
 51
359.9999999997915
  0
LINE
  5
3B3
  8
0
 10
224.84369403337141
 20
117.8410295293487
 30
0.0
 11
224.56249734201191
 21
114.2450588595747
 31
0.0
  0
LINE
  5
3B4
  8
0
 10
224.44369403337001
 20
117.8410295293487
 30
0.0
 11
224.1624973420104
 21
114.2450588595747
 31
0.0
  0
ARC
  5
3B5
  8
0
 10
223.9624973420097
 20
114.2450588595747
 30
0.0
 40
0.2
 50
180.00000000020839
 51
359.9999999997915
  0
ARC
  5
3B6
  8
0
 10
225.8436940333751
 20
117.8410295293487
 30
0.0
 40
0.2
 50
0.0000000002084408
 51
179.9999999997915
  0
ARC
  5
3B7
  8
0
 10
225.44369403337359
 20
117.8410295293487
 30
0.0
 40
0.2
 50
0.0000000002084408
 51
179.9999999997915
  0
ARC
  5
3B8
  8
0
 10
225.04369403337219
 20
117.8410295293487
 30
0.0
 40
0.2
 50
0.0000000002084408
 51
179.9999999997915
  0
ARC
  5
3B9
  8
0
 10
224.64369403337071
 20
117.8410295293487
 30
0.0
 40
0.2
 50
0.0000000002084408
 51
179.9999999997915
  0
ARC
  5
3BA
  8
0
 10
224.24369403336931
 20
117.8410295293487
 30
0.0
 40
0.2
 50
0.0000000002084408
 51
179.9999999997915
  0
ARC
  5
3BB
  8
0
 10
223.5624973420081
 20
114.2450588595747
 30
0.0
 40
0.2
 50
180.00000000020839
 51
359.9999999997915
  0
LINE
  5
3BC
  8
0
 10
224.0436940333685
 20
117.8410295293487
 30
0.0
 11
223.76249734200891
 21
114.2450588595747
 31
0.0
  0
ARC
  5
3BD
  8
0
 10
223.16249734200679
 20
114.2450588595747
 30
0.0
 40
0.2
 50
180.00000000020839
 51
359.9999999997915
  0
LINE
  5
3BE
  8
0
 10
223.6436940333671
 20
117.8410295293487
 30
0.0
 11
223.36249734200749
 21
114.2450588595747
 31
0.0
  0
LINE
  5
3BF
  8
0
 10
223.24369403336561
 20
117.8410295293487
 30
0.0
 11
222.962497342006
 21
114.2450588595747
 31
0.0
  0
ARC
  5
3C0
  8
0
 10
222.7624973420053
 20
114.2450588595747
 30
0.0
 40
0.2
 50
180.00000000020839
 51
359.9999999997915
  0
ARC
  5
3C1
  8
0
 10
222.36249734200371
 20
114.2450588595747
 30
0.0
 40
0.2
 50
180.00000000020839
 51
359.9999999997915
  0
LINE
  5
3C2
  8
0
 10
222.8436940333641
 20
117.8410295293487
 30
0.0
 11
222.5624973420046
 21
114.2450588595747
 31
0.0
  0
LINE
  5
3C3
  8
0
 10
222.4436940333627
 20
117.8410295293487
 30
0.0
 11
222.16249734200309
 21
114.2450588595747
 31
0.0
  0
LINE
  5
3C4
  8
0
 10
222.04369403336131
 20
117.8410295293487
 30
0.0
 11
221.2153688000391
 21
107.5392025273339
 31
0.0
  0
ARC
  5
3C5
  8
0
 10
221.96249734200239
 20
114.2450588595747
 30
0.0
 40
0.2
 50
180.00000000020839
 51
359.9999999997915
  0
ARC
  5
3C6
  8
0
 10
223.8436940333678
 20
117.8410295293487
 30
0.0
 40
0.2
 50
0.0000000002084408
 51
179.9999999997915
  0
ARC
  5
3C7
  8
0
 10
223.44369403336631
 20
117.8410295293487
 30
0.0
 40
0.2
 50
0.0000000002084408
 51
179.9999999997915
  0
ARC
  5
3C8
  8
0
 10
223.04369403336489
 20
117.8410295293487
 30
0.0
 40
0.2
 50
0.0000000002084408
 51
179.9999999997915
  0
ARC
  5
3C9
  8
0
 10
222.6436940333634
 20
117.8410295293487
 30
0.0
 40
0.2
 50
0.0000000002084408
 51
179.9999999997915
  0
ARC
  5
3CA
  8
0
 10
222.243694033362
 20
117.8410295293487
 30
0.0
 40
0.2
 50
0.0000000002084408
 51
179.9999999997915
  0
ARC
  5
3CB
  8
0
 10
221.84369403336231
 20
117.8410295293487
 30
0.0
 40
0.2
 50
0.0000000002084408
 51
179.9999999997915
  0
POINT
  5
3CC
  8
0
  6
CONTINUOUS
 62
     7
 10
223.81388064867599
 20
116.0424116074299
 30
0.0
  0
POINT
  5
3CD
  8
0
  6
CONTINUOUS
 62
     7
 10
223.81388064867599
 20
116.0424116074263
 30
0.0
  0
LINE
  5
3CE
  8
0
 10
221.64498081151501
 20
117.8730883304178
 30
0.0
 11
220.8166555781946
 21
107.5712613284048
 31
0.0
  0
LINE
  5
3CF
  8
0
 10
221.2153688000391
 20
107.5392025273358
 30
0.0
 11
220.8166555781946
 21
107.5712613284048
 31
0.0
  0
ARC
  5
3D0
  8
0
 10
221.55326669543061
 20
114.2450588595747
 30
0.0
 40
0.2
 50
180.00000000020839
 51
359.9999999997915
  0
ARC
  5
3D1
  8
0
 10
226.2436940333765
 20
117.8410295293487
 30
0.0
 40
0.2
 50
0.0000000002084408
 51
179.9999999997915
  0
LINE
  5
3D2
  8
0
 10
226.96772680253449
 20
124.5424116074263
 30
0.0
 11
226.567726802533
 21
124.5424116074263
 31
0.0
  0
ARC
  5
3D3
  8
0
 10
264.8429651012039
 20
114.2450588595747
 30
0.0
 40
0.2
 50
180.00000000020839
 51
359.9999999997915
  0
LINE
  5
3D4
  8
0
 10
264.50506720581251
 20
107.5392025273358
 30
0.0
 11
264.10635398396801
 21
107.5712613284048
 31
0.0
  0
LINE
  5
3D5
  8
0
 10
264.93467921728842
 20
117.8730883304178
 30
0.0
 11
264.10635398396801
 21
107.5712613284048
 31
0.0
  0
ARC
  5
3D6
  8
0
 10
265.13339243913572
 20
117.8410295293487
 30
0.0
 40
0.2
 50
0.0000000002084408
 51
179.9999999997915
  0
ARC
  5
3D7
  8
0
 10
265.5333924391353
 20
117.8410295293487
 30
0.0
 40
0.2
 50
0.0000000002084408
 51
179.9999999997915
  0
ARC
  5
3D8
  8
0
 10
265.25219574777577
 20
114.2450588595747
 30
0.0
 40
0.2
 50
180.00000000020839
 51
359.9999999997915
  0
LINE
  5
3D9
  8
0
 10
265.33339243913463
 20
117.8410295293487
 30
0.0
 11
264.50506720581251
 21
107.5392025273339
 31
0.0
  0
LINE
  5
3DA
  8
0
 10
265.73339243913608
 20
117.8410295293487
 30
0.0
 11
265.4521957477765
 21
114.2450588595747
 31
0.0
  0
ARC
  5
3DB
  8
0
 10
265.65219574777723
 20
114.2450588595747
 30
0.0
 40
0.2
 50
180.00000000020839
 51
359.9999999997915
  0
LINE
  5
3DC
  8
0
 10
260.1035413687942
 20
114.5424116074299
 30
0.0
 11
264.66687394613211
 21
114.5424116074299
 31
0.0
  0
LINE
  5
3DD
  8
0
 10
260.1035413687942
 20
117.5424116074299
 30
0.0
 11
264.90809093603917
 21
117.5424116074299
 31
0.0
  0
LINE
  5
3DE
  8
0
 10
241.10354136879431
 20
114.5424116074299
 30
0.0
 11
250.1035413687942
 21
114.5424116074299
 31
0.0
  0
LINE
  5
3DF
  8
0
 10
241.10354136879431
 20
117.5424116074299
 30
0.0
 11
250.1035413687942
 21
117.5424116074299
 31
0.0
  0
LINE
  5
3E0
  8
0
 10
216.6035413687942
 20
118.2424116074306
 30
0.0
 11
226.07508119492121
 21
118.2424116074306
 31
0.0
  0
LINE
  5
3E1
  8
0
 10
194.6035790544494
 20
110.1424116074303
 30
0.0
 11
194.4093707760959
 21
110.1424116074303
 31
0.0
  0
ARC
  5
3E2
  8
0
 10
194.6035790544494
 20
111.1424116074303
 30
0.0
 40
1.0
 50
270.0
 51
0.0
  0
ARC
  5
3E3
  8
0
 10
194.4093707760959
 20
109.1424116074303
 30
0.0
 40
1.0
 50
90.0
 51
185.07510669885909
  0
ARC
  5
3E4
  8
0
 10
194.6035790544494
 20
120.94241160742961
 30
0.0
 40
1.0
 50
0.0
 51
90.0
  0
ARC
  5
3E5
  8
0
 10
194.4093707760959
 20
122.94241160742961
 30
0.0
 40
1.0
 50
174.92489330114091
 51
270.0
  0
LINE
  5
3E6
  8
0
 10
194.6035790544494
 20
121.94241160742961
 30
0.0
 11
194.4093707760959
 21
121.94241160742961
 31
0.0
  0
LINE
  5
3E7
  8
0
 10
260.1035413687942
 20
118.0424116074299
 30
0.0
 11
250.1035413687942
 21
118.0424116074299
 31
0.0
  0
LINE
  5
3E8
  8
0
 10
260.1035413687942
 20
114.0424116074299
 30
0.0
 11
250.1035413687942
 21
114.0424116074299
 31
0.0
  0
LINE
  5
3E9
  8
0
 10
260.1035413687942
 20
113.8424116074256
 30
0.0
 11
260.1035413687942
 21
118.04241160743361
 31
0.0
  0
LINE
  5
3EA
  8
0
 10
250.1035413687942
 20
113.8424116074256
 30
0.0
 11
250.1035413687942
 21
118.04241160743361
 31
0.0
  0
LINE
  5
3EB
  8
0
 10
241.10354136879431
 20
118.0424116074299
 30
0.0
 11
231.1035413687942
 21
118.0424116074299
 31
0.0
  0
LINE
  5
3EC
  8
0
  6
CONTINUOUS
 62
     7
 10
204.60354136879411
 20
118.0424116074299
 30
0.0
 11
196.6380343840365
 21
118.0424116074299
 31
0.0
  0
LINE
  5
3ED
  8
0
  6
CONTINUOUS
 62
     7
 10
205.2042413687933
 20
114.0424116074263
 30
0.0
 11
206.1035413687942
 21
114.0424116074263
 31
0.0
  0
LINE
  5
3EE
  8
0
 10
195.6035790544494
 20
116.0424116074299
 30
0.0
 11
195.6035790544494
 21
120.94241160742961
 31
0.0
  0
LINE
  5
3EF
  8
0
 10
195.6035790544494
 20
116.0424116074299
 30
0.0
 11
195.6035790544494
 21
111.1424116074303
 31
0.0
  0
LINE
  5
3F0
  8
0
 10
195.6035790544494
 20
114.6424116074303
 30
0.0
 11
196.10354136879411
 21
114.6424116074303
 31
0.0
  0
LINE
  5
3F1
  8
0
 10
196.10354136879411
 20
114.0424116074263
 30
0.0
 11
196.10354136879411
 21
118.0424116074299
 31
0.0
  0
LINE
  5
3F2
  8
0
 10
195.6035790544494
 20
117.44241160742961
 30
0.0
 11
196.10354136879411
 21
117.44241160742961
 31
0.0
  0
LINE
  5
3F3
  8
0
 10
206.1035413687942
 20
114.0424116074263
 30
0.0
 11
196.10354136879411
 21
114.0424116074263
 31
0.0
  0
LINE
  5
3F4
  8
0
 10
196.10354136879411
 20
118.0424116074299
 30
0.0
 11
197.13833450411869
 21
118.0424116074299
 31
0.0
  0
LINE
  5
3F5
  8
0
 10
197.13833450411869
 20
118.0424116074299
 30
0.0
 11
206.1035413687942
 21
118.0424116074299
 31
0.0
  0
LINE
  5
3F6
  8
0
 10
206.1035413687942
 20
113.8424116074256
 30
0.0
 11
206.1035413687942
 21
118.0424116074299
 31
0.0
  0
LINE
  5
3F7
  8
0
 10
188.1035790544492
 20
114.5424116074299
 30
0.0
 11
192.6240078641504
 21
114.5424116074299
 31
0.0
  0
LINE
  5
3F8
  8
0
 10
188.1035790544492
 20
117.5424116074299
 30
0.0
 11
188.1035790544492
 21
114.5424116074299
 31
0.0
  0
LINE
  5
3F9
  8
0
 10
188.1035790544492
 20
117.5424116074299
 30
0.0
 11
192.6240078641504
 21
117.5424116074299
 31
0.0
  0
LINE
  5
3FA
  8
0
 10
196.13767174678389
 20
118.24241160742881
 30
0.0
 11
206.60354136879411
 21
118.2424116074306
 31
0.0
  0
LINE
  5
3FB
  8
0
 10
206.60354136879411
 20
114.0424116074263
 30
0.0
 11
206.60354136879411
 21
118.2424116074306
 31
0.0
  0
LINE
  5
3FC
  8
0
 10
206.1035413687942
 20
113.8424116074256
 30
0.0
 11
221.3208915760471
 21
113.8424116074256
 31
0.0
  0
LINE
  5
3FD
  8
0
  6
CONTINUOUS
 62
     7
 10
206.60354136879411
 20
114.0424116074263
 30
0.0
 11
216.6035413687942
 21
114.0424116074263
 31
0.0
  0
LINE
  5
3FE
  8
0
 10
216.6035413687942
 20
114.0424116074263
 30
0.0
 11
216.6035413687942
 21
118.2424116074306
 31
0.0
  0
LINE
  5
3FF
  8
0
 10
231.1035413687942
 20
114.0424116074299
 30
0.0
 11
231.1035413687942
 21
118.2424116074306
 31
0.0
  0
LINE
  5
400
  8
0
 10
241.10354136879431
 20
114.0424116074318
 30
0.0
 11
241.10354136879431
 21
118.2424116074306
 31
0.0
  0
LINE
  5
401
  8
0
 10
231.1035413687942
 20
114.0424116074299
 30
0.0
 11
241.10354136879431
 21
114.0424116074318
 31
0.0
  0
LINE
  5
402
  8
0
 10
206.60354136879411
 20
118.0424116074263
 30
0.0
 11
216.6035413687942
 21
118.0424116074263
 31
0.0
  0
LINE
  5
403
  8
0
 10
206.1035413687942
 20
117.5424116074299
 30
0.0
 11
206.60354136879411
 21
117.5424116074299
 31
0.0
  0
LINE
  5
404
  8
0
 10
206.1035413687942
 20
114.5424116074299
 30
0.0
 11
206.60354136879411
 21
114.5424116074299
 31
0.0
  0
LINE
  5
405
  8
0
 10
216.6035413687942
 20
117.5424116074299
 30
0.0
 11
221.61839253026579
 21
117.5424116074299
 31
0.0
  0
LINE
  5
406
  8
0
 10
216.6035413687942
 20
114.5424116074299
 30
0.0
 11
221.37717554035879
 21
114.5424116074299
 31
0.0
  0
LINE
  5
407
  8
0
  6
CENTER2
 62
     1
 10
180.955113660085
 20
116.0424116074299
 30
0.0
 11
349.28050870057012
 21
116.0424116074299
 31
0.0
  0
LINE
  5
408
  8
0
  6
CENTER2
 62
     1
 10
183.69151710283319
 20
116.0424116074299
 30
0.0
 11
292.92206623995583
 21
116.0424116074299
 31
0.0
  0
ARC
  5
409
  8
0
 10
265.93339243913681
 20
117.8410295293487
 30
0.0
 40
0.2
 50
0.0000000002084408
 51
179.9999999997915
  0
LINE
  5
40A
  8
0
 10
266.13339243913748
 20
117.8410295293487
 30
0.0
 11
265.85219574777801
 21
114.2450588595747
 31
0.0
  0
ARC
  5
40B
  8
0
 10
266.05219574777868
 20
114.2450588595747
 30
0.0
 40
0.2
 50
180.00000000020839
 51
359.9999999997915
  0
LINE
  5
40C
  8
0
 10
241.10354136879431
 20
118.2424116074306
 30
0.0
 11
269.36477960069459
 21
118.2424116074306
 31
0.0
  0
LINE
  5
40D
  8
0
 10
293.10357905444943
 20
113.8424116074256
 30
0.0
 11
265.01188091282989
 21
113.8424116074256
 31
0.0
  0
POLYLINE
  5
40E
  8
0
 66
     1
 10
0.0
 20
0.0
 30
0.0
  0
VERTEX
  5
6F9
  8
0
 10
340.60992689203078
 20
124.5756892649605
 30
0.0
 42
0.9438216872486727
  0
VERTEX
  5
6FA
  8
0
 10
193.10357905444931
 20
116.0424116074299
 30
0.0
  0
SEQEND
  5
6FB
  8
0
  0
POLYLINE
  5
40F
  8
0
 66
     1
 10
0.0
 20
0.0
 30
0.0
  0
VERTEX
  5
6FC
  8
0
 10
338.07540445016571
 20
118.0424116074299
 30
0.0
 42
0.9708472610276588
  0
VERTEX
  5
6FD
  8
0
 10
196.13767174678389
 20
118.24241160742881
 30
0.0
  0
SEQEND
  5
6FE
  8
0
  0
POLYLINE
  5
411
  8
0
 66
     1
 10
0.0
 20
0.0
 30
0.0
 70
     1
  0
VERTEX
  5
6FF
  8
0
 10
192.6035790544494
 20
116.0424116074299
 30
0.0
 42
1.0
  0
VERTEX
  5
700
  8
0
 10
341.60357905444943
 20
116.0424116074299
 30
0.0
 42
1.0
  0
SEQEND
  5
701
  8
0
  0
POLYLINE
  5
412
  8
0
 66
     1
 10
0.0
 20
0.0
 30
0.0
  0
VERTEX
  5
702
  8
0
 10
196.13175365873309
 20
114.0424116074263
 30
0.0
 42
0.9708472610276588
  0
VERTEX
  5
703
  8
0
 10
338.06948636211479
 20
113.84241160742739
 30
0.0
 42
0.9708472610276588
  0
SEQEND
  5
704
  8
0
  0
POLYLINE
  5
413
  8
0
 66
     1
 10
0.0
 20
0.0
 30
0.0
  0
VERTEX
  5
705
  8
0
 10
340.60992689203078
 20
124.5756892649605
 30
0.0
 42
0.9438216872486727
  0
VERTEX
  5
706
  8
0
 10
193.10357905444931
 20
116.0424116074299
 30
0.0
 42
0.9440636851380126
  0
VERTEX
  5
707
  8
0
 10
340.61428533094409
 20
107.54676197182189
 30
0.0
 42
0.9440636851380126
  0
SEQEND
  5
708
  8
0
  0
LINE
  5
416
  8
0
 10
122.07966167161879
 20
116.2501964147049
 30
0.0
 11
122.07966167161879
 21
188.75019641471209
 31
0.0
  0
LINE
  5
417
  8
0
 10
114.0796616716153
 20
116.2501964147049
 30
0.0
 11
114.07966167161889
 21
188.7501964147103
 31
0.0
  0
POLYLINE
  5
419
  8
0
 66
     1
 10
0.0
 20
0.0
 30
0.0
  0
VERTEX
  5
709
  8
0
 10
128.07966167161891
 20
190.75019641470669
 30
0.0
  0
VERTEX
  5
70A
  8
0
 10
128.07966167161891
 20
116.25019641470671
 30
0.0
  0
SEQEND
  5
70B
  8
0
  0
LINE
  5
41A
  8
0
 10
90.178584646085355
 20
189.82142793242741
 30
0.0
 11
90.178584646085355
 21
116.25019641470671
 31
0.0
  0
LINE
  5
41B
  8
0
  6
CENTER2
 62
     1
 10
82.579661671618936
 20
116.25019641470671
 30
0.0
 11
82.579661671618936
 21
194.90481350272771
 31
0.0
  0
LINE
  5
41C
  8
0
  6
CENTER2
 62
     1
 10
267.10357905444943
 20
206.38684003802871
 30
0.0
 11
267.10357905444943
 21
32.546423274348783
 31
0.0
  0
POLYLINE
  5
41D
  8
0
 66
     1
 10
0.0
 20
0.0
 30
0.0
  0
VERTEX
  5
70C
  8
0
 10
88.07966167161895
 20
186.55019641470599
 30
0.0
  0
VERTEX
  5
70D
  8
0
 10
88.07966167161895
 20
45.950196414707442
 30
0.0
  0
SEQEND
  5
70E
  8
0
  0
POLYLINE
  5
41E
  8
0
 66
     1
 10
0.0
 20
0.0
 30
0.0
  0
VERTEX
  5
70F
  8
0
 10
77.07966167161895
 20
186.5501964147023
 30
0.0
  0
VERTEX
  5
710
  8
0
 10
77.079661671618624
 20
40.250196414703822
 30
0.0
  0
SEQEND
  5
711
  8
0
  0
POLYLINE
  5
420
  8
0
 66
     1
 10
0.0
 20
0.0
 30
0.0
  0
VERTEX
  5
712
  8
0
 10
116.1962402819582
 20
42.95994250409413
 30
0.0
 42
-0.313394503136401
  0
VERTEX
  5
713
  8
0
 10
119.9630830612796
 20
42.95994250409413
 30
0.0
 42
-0.313394503136401
  0
SEQEND
  5
714
  8
0
  0
LINE
  5
423
  8
0
 10
114.0796616716153
 20
116.2501964147085
 30
0.0
 11
114.07966167161889
 21
43.750196414703069
 31
0.0
  0
POLYLINE
  5
424
  8
0
 66
     1
 10
0.0
 20
0.0
 30
0.0
  0
VERTEX
  5
715
  8
0
 10
114.07966167161889
 20
41.75019641470309
 30
0.0
 42
0.1530277928365761
  0
VERTEX
  5
716
  8
0
 10
114.7645421769494
 20
41.964834200380132
 30
0.0
 42
0.1530277928365761
  0
SEQEND
  5
717
  8
0
  0
LINE
  5
425
  8
0
 10
114.7645421769494
 20
41.964834200380132
 30
0.0
 11
116.1962402819582
 21
42.95994250409413
 31
0.0
  0
POLYLINE
  5
429
  8
0
 66
     1
 10
0.0
 20
0.0
 30
0.0
  0
VERTEX
  5
718
  8
0
 10
74.57966167161895
 20
41.75019641470309
 30
0.0
 42
-0.2819402118154727
  0
VERTEX
  5
719
  8
0
 10
75.470518504703335
 20
41.204480580119622
 30
0.0
 42
-0.2819402118154727
  0
SEQEND
  5
71A
  8
0
  0
POLYLINE
  5
42A
  8
0
 66
     1
 10
0.0
 20
0.0
 30
0.0
  0
VERTEX
  5
71B
  8
0
 10
77.07966167161895
 20
39.25019641470309
 30
0.0
 42
-0.2819402118154727
  0
VERTEX
  5
71C
  8
0
 10
76.188804838534551
 20
39.795912249286538
 30
0.0
 42
-0.2819402118154727
  0
SEQEND
  5
71D
  8
0
  0
POLYLINE
  5
42D
  8
0
 66
     1
 10
0.0
 20
0.0
 30
0.0
  0
VERTEX
  5
71E
  8
0
 10
88.07966167161895
 20
39.250196414706728
 30
0.0
 42
0.2819402118154727
  0
VERTEX
  5
71F
  8
0
 10
88.97051850470335
 20
39.79591224929019
 30
0.0
 42
0.2819402118154727
  0
SEQEND
  5
720
  8
0
  0
POLYLINE
  5
430
  8
0
 66
     1
 10
0.0
 20
0.0
 30
0.0
  0
VERTEX
  5
721
  8
0
 10
90.57966167161895
 20
41.750196414706707
 30
0.0
 42
0.2819402118154727
  0
VERTEX
  5
722
  8
0
 10
89.688804838534551
 20
41.204480580123267
 30
0.0
 42
0.2819402118154727
  0
SEQEND
  5
723
  8
0
  0
POLYLINE
  5
431
  8
0
 66
     1
 10
0.0
 20
0.0
 30
0.0
  0
VERTEX
  5
724
  8
0
 10
89.688804838534551
 20
41.204480580125093
 30
0.0
  0
VERTEX
  5
725
  8
0
 10
88.97051850470335
 20
39.795912249288371
 30
0.0
  0
SEQEND
  5
726
  8
0
  0
POLYLINE
  5
432
  8
0
 66
     1
 10
0.0
 20
0.0
 30
0.0
  0
VERTEX
  5
727
  8
0
 10
77.07966167161895
 20
39.25019641470309
 30
0.0
  0
VERTEX
  5
728
  8
0
 10
88.07966167161895
 20
39.250196414706728
 30
0.0
  0
SEQEND
  5
729
  8
0
  0
POLYLINE
  5
436
  8
0
 66
     1
 10
0.0
 20
0.0
 30
0.0
  0
VERTEX
  5
72A
  8
0
 10
75.470518504703335
 20
41.204480580121427
 30
0.0
  0
VERTEX
  5
72B
  8
0
 10
76.188804838534551
 20
39.795912249284733
 30
0.0
  0
SEQEND
  5
72C
  8
0
  0
POLYLINE
  5
438
  8
0
 66
     1
 10
0.0
 20
0.0
 30
0.0
  0
VERTEX
  5
72D
  8
0
 10
88.07966167161895
 20
39.950196414707449
 30
0.0
  0
VERTEX
  5
72E
  8
0
 10
88.07966167161895
 20
45.950196414707442
 30
0.0
  0
SEQEND
  5
72F
  8
0
  0
POLYLINE
  5
439
  8
0
 66
     1
 10
0.0
 20
0.0
 30
0.0
  0
VERTEX
  5
730
  8
0
 10
91.178584646085355
 20
41.750196414706707
 30
0.0
  0
VERTEX
  5
731
  8
0
 10
114.0796616716171
 20
41.750196414706707
 30
0.0
  0
SEQEND
  5
732
  8
0
  0
POLYLINE
  5
43A
  8
0
 66
     1
 10
0.0
 20
0.0
 30
0.0
  0
VERTEX
  5
733
  8
0
 10
90.57966167161895
 20
41.750196414706707
 30
0.0
  0
VERTEX
  5
734
  8
0
 10
107.6647848658295
 20
41.750196414706707
 30
0.0
  0
SEQEND
  5
735
  8
0
  0
LINE
  5
43C
  8
0
 10
74.980738697152546
 20
42.678964896982421
 30
0.0
 11
74.980738697152546
 21
189.45765788347799
 31
0.0
  0
LINE
  5
43D
  8
0
 10
90.178584646085355
 20
42.678964896986052
 30
0.0
 11
90.178584646085355
 21
116.25019641470671
 31
0.0
  0
LINE
  5
43E
  8
0
  6
CENTER2
 62
     1
 10
82.579661671618936
 20
116.25019641470671
 30
0.0
 11
82.579661671618936
 21
33.855324003276031
 31
0.0
  0
POLYLINE
  5
440
  8
0
 66
     1
 10
0.0
 20
0.0
 30
0.0
  0
VERTEX
  5
736
  8
0
 10
122.0796616716207
 20
41.750196414706707
 30
0.0
  0
VERTEX
  5
737
  8
0
 10
128.07966167161891
 20
41.750196414706707
 30
0.0
  0
SEQEND
  5
738
  8
0
  0
LINE
  5
441
  8
0
 10
122.07966167161879
 20
116.2501964147085
 30
0.0
 11
122.07966167161879
 21
43.750196414701271
 31
0.0
  0
POLYLINE
  5
442
  8
0
 66
     1
 10
0.0
 20
0.0
 30
0.0
  0
VERTEX
  5
739
  8
0
 10
122.07966167161879
 20
41.75019641470309
 30
0.0
 42
-0.1530277928365761
  0
VERTEX
  5
73A
  8
0
 10
121.3947811662884
 20
41.964834200380132
 30
0.0
 42
-0.1530277928365761
  0
SEQEND
  5
73B
  8
0
  0
LINE
  5
443
  8
0
 10
121.3947811662884
 20
41.964834200380132
 30
0.0
 11
119.9630830612796
 21
42.95994250409413
 31
0.0
  0
LINE
  5
44D
  8
0
 10
128.07245167222311
 20
41.750196414706707
 30
0.0
 11
128.07966167161891
 21
41.757406414102569
 31
0.0
  0
LINE
  5
44E
  8
0
 10
128.07966167161891
 20
41.750196414706707
 30
0.0
 11
128.07966167161891
 21
42.450196414707449
 31
0.0
  0
LINE
  5
44F
  8
0
 10
128.07966167161891
 20
41.750196414706707
 30
0.0
 11
128.07966167161891
 21
42.450196414707449
 31
0.0
  0
POLYLINE
  5
450
  8
0
 66
     1
 10
0.0
 20
0.0
 30
0.0
  0
VERTEX
  5
73C
  8
0
 10
128.07966167161891
 20
41.757406414102569
 30
0.0
  0
VERTEX
  5
73D
  8
0
 10
128.07966167161891
 20
116.25019641470671
 30
0.0
  0
SEQEND
  5
73E
  8
0
  0
POLYLINE
  5
452
  8
0
 66
     1
 10
0.0
 20
0.0
 30
0.0
  0
VERTEX
  5
73F
  8
0
 10
116.1962402819582
 20
189.54045032531931
 30
0.0
 42
0.313394503136401
  0
VERTEX
  5
740
  8
0
 10
119.9630830612796
 20
189.54045032531931
 30
0.0
 42
0.313394503136401
  0
SEQEND
  5
741
  8
0
  0
LINE
  5
455
  8
0
 10
114.7645421769494
 20
190.53555862903329
 30
0.0
 11
116.1962402819582
 21
189.54045032531931
 31
0.0
  0
POLYLINE
  5
456
  8
0
 66
     1
 10
0.0
 20
0.0
 30
0.0
  0
VERTEX
  5
742
  8
0
 10
114.07966167161889
 20
190.7501964147103
 30
0.0
 42
-0.1530277928365761
  0
VERTEX
  5
743
  8
0
 10
114.7645421769494
 20
190.53555862903329
 30
0.0
 42
-0.1530277928365761
  0
SEQEND
  5
744
  8
0
  0
POLYLINE
  5
457
  8
0
 66
     1
 10
0.0
 20
0.0
 30
0.0
  0
VERTEX
  5
745
  8
0
 10
77.07966167161895
 20
193.25019641470311
 30
0.0
 42
0.2819402118154727
  0
VERTEX
  5
746
  8
0
 10
76.188804838534551
 20
192.70448058011959
 30
0.0
 42
0.2819402118154727
  0
SEQEND
  5
747
  8
0
  0
POLYLINE
  5
458
  8
0
 66
     1
 10
0.0
 20
0.0
 30
0.0
  0
VERTEX
  5
748
  8
0
 10
74.57966167161895
 20
190.750196414703
 30
0.0
 42
0.2819402118154727
  0
VERTEX
  5
749
  8
0
 10
75.470518504703335
 20
191.2959122492864
 30
0.0
 42
0.2819402118154727
  0
SEQEND
  5
74A
  8
0
  0
POLYLINE
  5
45B
  8
0
 66
     1
 10
0.0
 20
0.0
 30
0.0
  0
VERTEX
  5
74B
  8
0
 10
88.07966167161895
 20
193.25019641470669
 30
0.0
 42
-0.2819402118154727
  0
VERTEX
  5
74C
  8
0
 10
88.97051850470335
 20
192.7044805801232
 30
0.0
 42
-0.2819402118154727
  0
SEQEND
  5
74D
  8
0
  0
POLYLINE
  5
45E
  8
0
 66
     1
 10
0.0
 20
0.0
 30
0.0
  0
VERTEX
  5
74E
  8
0
 10
90.57966167161895
 20
190.75019641470669
 30
0.0
 42
-0.2819402118154727
  0
VERTEX
  5
74F
  8
0
 10
89.688804838534551
 20
191.29591224929021
 30
0.0
 42
-0.2819402118154727
  0
SEQEND
  5
750
  8
0
  0
POLYLINE
  5
45F
  8
0
 66
     1
 10
0.0
 20
0.0
 30
0.0
  0
VERTEX
  5
751
  8
0
 10
77.07966167161895
 20
192.55019641470599
 30
0.0
  0
VERTEX
  5
752
  8
0
 10
77.07966167161895
 20
186.5501964147023
 30
0.0
  0
SEQEND
  5
753
  8
0
  0
LINE
  5
460
  8
0
 10
88.07966167161895
 20
192.55019641470599
 30
0.0
 11
88.07966167161895
 21
186.55019641470599
 31
0.0
  0
POLYLINE
  5
463
  8
0
 66
     1
 10
0.0
 20
0.0
 30
0.0
  0
VERTEX
  5
754
  8
0
 10
77.07966167161895
 20
193.25019641470311
 30
0.0
  0
VERTEX
  5
755
  8
0
 10
88.07966167161895
 20
193.25019641470669
 30
0.0
  0
SEQEND
  5
756
  8
0
  0
POLYLINE
  5
465
  8
0
 66
     1
 10
0.0
 20
0.0
 30
0.0
  0
VERTEX
  5
757
  8
0
 10
89.688804838534551
 20
191.29591224928831
 30
0.0
  0
VERTEX
  5
758
  8
0
 10
88.97051850470335
 20
192.70448058012511
 30
0.0
  0
SEQEND
  5
759
  8
0
  0
POLYLINE
  5
466
  8
0
 66
     1
 10
0.0
 20
0.0
 30
0.0
  0
VERTEX
  5
75A
  8
0
 10
75.470518504703335
 20
191.2959122492847
 30
0.0
  0
VERTEX
  5
75B
  8
0
 10
76.188804838534551
 20
192.70448058012141
 30
0.0
  0
SEQEND
  5
75C
  8
0
  0
POLYLINE
  5
46B
  8
0
 66
     1
 10
0.0
 20
0.0
 30
0.0
  0
VERTEX
  5
75D
  8
0
 10
90.57966167161895
 20
190.75019641470669
 30
0.0
  0
VERTEX
  5
75E
  8
0
 10
114.0796616716171
 20
190.75019641470669
 30
0.0
  0
SEQEND
  5
75F
  8
0
  0
POLYLINE
  5
470
  8
0
 66
     1
 10
0.0
 20
0.0
 30
0.0
  0
VERTEX
  5
760
  8
0
 10
122.0796616716207
 20
190.75019641470669
 30
0.0
  0
VERTEX
  5
761
  8
0
 10
128.07966167161891
 20
190.75019641470669
 30
0.0
  0
SEQEND
  5
762
  8
0
  0
LINE
  5
473
  8
0
 10
121.3947811662884
 20
190.53555862903329
 30
0.0
 11
119.9630830612796
 21
189.54045032531931
 31
0.0
  0
POLYLINE
  5
474
  8
0
 66
     1
 10
0.0
 20
0.0
 30
0.0
  0
VERTEX
  5
763
  8
0
 10
122.07966167161879
 20
190.7501964147103
 30
0.0
 42
0.1530277928365761
  0
VERTEX
  5
764
  8
0
 10
121.3947811662884
 20
190.53555862903329
 30
0.0
 42
0.1530277928365761
  0
SEQEND
  5
765
  8
0
  0
LINE
  5
476
  8
0
 10
128.07966167161891
 20
190.75019641470669
 30
0.0
 11
128.07966167161891
 21
190.05019641470599
 31
0.0
  0
LINE
  5
47A
  8
0
 10
77.07966167161895
 20
114.9862739487361
 30
0.0
 11
77.07966167161895
 21
105.35026211157481
 31
0.0
  0
LINE
  5
47B
  8
0
 10
77.07966167161895
 20
182.4490336138422
 30
0.0
 11
77.07966167161895
 21
117.51411888068461
 31
0.0
  0
LINE
  5
486
  8
0
 10
50.079661671622581
 20
116.2501964147049
 30
0.0
 11
50.079661671618958
 21
188.7501964147103
 31
0.0
  0
LINE
  5
487
  8
0
 10
42.079661671618943
 20
116.2501964147049
 30
0.0
 11
42.079661671618943
 21
188.75019641471209
 31
0.0
  0
POLYLINE
  5
488
  8
0
 66
     1
 10
0.0
 20
0.0
 30
0.0
  0
VERTEX
  5
766
  8
0
 10
36.07966167161895
 20
116.25019641470671
 30
0.0
  0
VERTEX
  5
767
  8
0
 10
36.07966167161895
 20
190.05019641470599
 30
0.0
  0
SEQEND
  5
768
  8
0
  0
POLYLINE
  5
48A
  8
0
 66
     1
 10
0.0
 20
0.0
 30
0.0
  0
VERTEX
  5
769
  8
0
 10
42.079661671617131
 20
41.750196414706707
 30
0.0
  0
VERTEX
  5
76A
  8
0
 10
36.07966167161895
 20
41.750196414706707
 30
0.0
  0
SEQEND
  5
76B
  8
0
  0
LINE
  5
48B
  8
0
 10
50.079661671620769
 20
41.750196414706707
 30
0.0
 11
71.07966167161895
 21
41.750196414706707
 31
0.0
  0
POLYLINE
  5
491
  8
0
 66
     1
 10
0.0
 20
0.0
 30
0.0
  0
VERTEX
  5
76C
  8
0
 10
47.963083061279683
 20
42.95994250409413
 30
0.0
 42
0.313394503136401
  0
VERTEX
  5
76D
  8
0
 10
44.196240281958218
 20
42.95994250409413
 30
0.0
 42
0.313394503136401
  0
SEQEND
  5
76E
  8
0
  0
LINE
  5
492
  8
0
 10
49.394781166288432
 20
41.964834200380132
 30
0.0
 11
47.963083061279683
 21
42.95994250409413
 31
0.0
  0
LINE
  5
493
  8
0
 10
42.764542176949448
 20
41.964834200380132
 30
0.0
 11
44.196240281958218
 21
42.95994250409413
 31
0.0
  0
POLYLINE
  5
494
  8
0
 66
     1
 10
0.0
 20
0.0
 30
0.0
  0
VERTEX
  5
76F
  8
0
 10
42.079661671618943
 20
41.75019641470309
 30
0.0
 42
0.1530277928365761
  0
VERTEX
  5
770
  8
0
 10
42.764542176949448
 20
41.964834200380132
 30
0.0
 42
0.1530277928365761
  0
SEQEND
  5
771
  8
0
  0
POLYLINE
  5
495
  8
0
 66
     1
 10
0.0
 20
0.0
 30
0.0
  0
VERTEX
  5
772
  8
0
 10
50.079661671618958
 20
41.75019641470309
 30
0.0
 42
-0.1530277928365761
  0
VERTEX
  5
773
  8
0
 10
49.394781166288432
 20
41.964834200380132
 30
0.0
 42
-0.1530277928365761
  0
SEQEND
  5
774
  8
0
  0
LINE
  5
496
  8
0
 10
42.079661671618943
 20
116.2501964147085
 30
0.0
 11
42.079661671618943
 21
43.750196414701271
 31
0.0
  0
LINE
  5
497
  8
0
 10
50.079661671622581
 20
116.2501964147085
 30
0.0
 11
50.079661671618958
 21
43.750196414703069
 31
0.0
  0
LINE
  5
498
  8
0
  6
CENTER2
 62
     1
 10
71.82966167161895
 20
113.25019641470671
 30
0.0
 11
71.82966167161895
 21
119.25019641470671
 31
0.0
  0
LINE
  5
499
  8
0
 10
36.07966167161895
 20
42.450196414707449
 30
0.0
 11
36.07966167161895
 21
41.750196414706707
 31
0.0
  0
LINE
  5
49A
  8
0
 10
36.07966167161895
 20
42.450196414707449
 30
0.0
 11
36.07966167161895
 21
41.750196414706707
 31
0.0
  0
LINE
  5
49B
  8
0
 10
36.07966167161895
 20
41.750196414706707
 30
0.0
 11
42.079661671617131
 21
41.750196414706707
 31
0.0
  0
POLYLINE
  5
49D
  8
0
 66
     1
 10
0.0
 20
0.0
 30
0.0
  0
VERTEX
  5
775
  8
0
 10
36.07966167161895
 20
116.25019641470671
 30
0.0
  0
VERTEX
  5
776
  8
0
 10
36.07966167161895
 20
41.750196414706707
 30
0.0
  0
SEQEND
  5
777
  8
0
  0
POLYLINE
  5
49E
  8
0
 66
     1
 10
0.0
 20
0.0
 30
0.0
  0
VERTEX
  5
778
  8
0
 10
50.079661671618958
 20
190.7501964147103
 30
0.0
 42
0.1530277928365761
  0
VERTEX
  5
779
  8
0
 10
49.394781166288432
 20
190.53555862903329
 30
0.0
 42
0.1530277928365761
  0
SEQEND
  5
77A
  8
0
  0
POLYLINE
  5
49F
  8
0
 66
     1
 10
0.0
 20
0.0
 30
0.0
  0
VERTEX
  5
77B
  8
0
 10
42.079661671618943
 20
190.7501964147103
 30
0.0
 42
-0.1530277928365761
  0
VERTEX
  5
77C
  8
0
 10
42.764542176949448
 20
190.53555862903329
 30
0.0
 42
-0.1530277928365761
  0
SEQEND
  5
77D
  8
0
  0
LINE
  5
4A0
  8
0
 10
42.764542176949448
 20
190.53555862903329
 30
0.0
 11
44.196240281958218
 21
189.54045032531931
 31
0.0
  0
LINE
  5
4A1
  8
0
 10
49.394781166288432
 20
190.53555862903329
 30
0.0
 11
47.963083061279683
 21
189.54045032531931
 31
0.0
  0
POLYLINE
  5
4A2
  8
0
 66
     1
 10
0.0
 20
0.0
 30
0.0
  0
VERTEX
  5
77E
  8
0
 10
47.963083061279683
 20
189.54045032531931
 30
0.0
 42
-0.313394503136401
  0
VERTEX
  5
77F
  8
0
 10
44.196240281958218
 20
189.54045032531931
 30
0.0
 42
-0.313394503136401
  0
SEQEND
  5
780
  8
0
  0
LINE
  5
4A8
  8
0
 10
36.07966167161895
 20
190.05019641470599
 30
0.0
 11
36.07966167161895
 21
190.75019641470669
 31
0.0
  0
POLYLINE
  5
4A9
  8
0
 66
     1
 10
0.0
 20
0.0
 30
0.0
  0
VERTEX
  5
781
  8
0
 10
36.07966167161895
 20
190.75019641470669
 30
0.0
  0
VERTEX
  5
782
  8
0
 10
42.079661671617131
 20
190.75019641470669
 30
0.0
  0
SEQEND
  5
783
  8
0
  0
LINE
  5
4AB
  8
0
  6
CENTER2
 62
     1
 10
71.82966167161895
 20
113.2501964147085
 30
0.0
 11
71.82966167161895
 21
119.2501964147085
 31
0.0
  0
POLYLINE
  5
4AC
  8
0
 66
     1
 10
0.0
 20
0.0
 30
0.0
 70
     1
  0
VERTEX
  5
784
  8
0
 10
70.32966167161895
 20
116.2501964147085
 30
0.0
 42
1.0
  0
VERTEX
  5
785
  8
0
 10
73.32966167161895
 20
116.2501964147085
 30
0.0
 42
1.0
  0
SEQEND
  5
786
  8
0
  0
POLYLINE
  5
4AE
  8
0
  6
CENTER2
 62
     7
 66
     1
 10
0.0
 20
0.0
 30
0.0
  0
VERTEX
  5
787
  8
0
  6
CENTER2
 62
     7
 10
71.82966167161895
 20
118.07932668578169
 30
0.0
  0
VERTEX
  5
788
  8
0
  6
CENTER2
 62
     7
 10
71.82966167161895
 20
113.9922736488387
 30
0.0
  0
SEQEND
  5
789
  8
0
  6
CENTER2
 62
     7
  0
POLYLINE
  5
4AF
  8
0
  6
CENTER2
 62
     7
 66
     1
 10
0.0
 20
0.0
 30
0.0
  0
VERTEX
  5
78A
  8
0
  6
CENTER2
 62
     7
 10
71.82966167161895
 20
114.421066143639
 30
0.0
  0
VERTEX
  5
78B
  8
0
  6
CENTER2
 62
     7
 10
71.82966167161895
 20
118.508119180582
 30
0.0
  0
SEQEND
  5
78C
  8
0
  6
CENTER2
 62
     7
  0
POLYLINE
  5
4B0
  8
0
  6
CENTER2
 62
     7
 66
     1
 10
0.0
 20
0.0
 30
0.0
  0
VERTEX
  5
78D
  8
0
  6
CENTER2
 62
     7
 10
69.0408643124766
 20
116.2501964147103
 30
0.0
  0
VERTEX
  5
78E
  8
0
  6
CENTER2
 62
     7
 10
73.710169234219464
 20
116.2501964147103
 30
0.0
  0
SEQEND
  5
78F
  8
0
  6
CENTER2
 62
     7
  0
POLYLINE
  5
4B4
  8
0
  6
CENTER2
 62
     7
 66
     1
 10
0.0
 20
0.0
 30
0.0
  0
VERTEX
  5
790
  8
0
  6
CENTER2
 62
     7
 10
69.0408643124766
 20
116.2501964147103
 30
0.0
  0
VERTEX
  5
791
  8
0
  6
CENTER2
 62
     7
 10
73.710169234219464
 20
116.2501964147103
 30
0.0
  0
SEQEND
  5
792
  8
0
  6
CENTER2
 62
     7
  0
POLYLINE
  5
4B5
  8
0
  6
CENTER2
 62
     7
 66
     1
 10
0.0
 20
0.0
 30
0.0
  0
VERTEX
  5
793
  8
0
  6
CENTER2
 62
     7
 10
71.82966167161895
 20
118.07932668578169
 30
0.0
  0
VERTEX
  5
794
  8
0
  6
CENTER2
 62
     7
 10
71.82966167161895
 20
113.9922736488387
 30
0.0
  0
SEQEND
  5
795
  8
0
  6
CENTER2
 62
     7
  0
POLYLINE
  5
4B6
  8
0
  6
CENTER2
 62
     7
 66
     1
 10
0.0
 20
0.0
 30
0.0
  0
VERTEX
  5
796
  8
0
  6
CENTER2
 62
     7
 10
71.82966167161895
 20
114.421066143639
 30
0.0
  0
VERTEX
  5
797
  8
0
  6
CENTER2
 62
     7
 10
71.82966167161895
 20
118.508119180582
 30
0.0
  0
SEQEND
  5
798
  8
0
  6
CENTER2
 62
     7
  0
LINE
  5
4BD
  8
0
  6
CENTER2
 62
     1
 10
71.82966167161895
 20
113.2501964147085
 30
0.0
 11
71.82966167161895
 21
119.2501964147085
 31
0.0
  0
LINE
  5
4BE
  8
0
  6
CENTER2
 62
     1
 10
21.327940932592458
 20
116.25019641470671
 30
0.0
 11
135.96293857096049
 21
116.25019641470671
 31
0.0
  0
LINE
  5
4C3
  8
0
 10
59.428061806499592
 20
41.750196414706707
 30
0.0
 11
74.57966167161895
 21
41.75019641470309
 31
0.0
  0
POLYLINE
  5
4C4
  8
0
 66
     1
 10
0.0
 20
0.0
 30
0.0
  0
VERTEX
  5
799
  8
0
 10
74.57966167161895
 20
41.75019641470309
 30
0.0
  0
VERTEX
  5
79A
  8
0
 10
50.079661671620769
 20
41.750196414706707
 30
0.0
  0
SEQEND
  5
79B
  8
0
  0
POLYLINE
  5
4C6
  8
0
 66
     1
 10
0.0
 20
0.0
 30
0.0
  0
VERTEX
  5
79C
  8
0
 10
50.079661671620769
 20
190.75019641470669
 30
0.0
  0
VERTEX
  5
79D
  8
0
 10
74.57966167161895
 20
190.750196414703
 30
0.0
  0
SEQEND
  5
79E
  8
0
  0
LINE
  5
4C8
  8
0
  6
CENTER2
 62
     1
 10
69.07966167161895
 20
116.2501964147085
 30
0.0
 11
75.07966167161895
 21
116.2501964147085
 31
0.0
  0
LINE
  5
5BC
  8
0
 10
338.5721450770335
 20
114.5424116074299
 30
0.0
 11
338.10357905444943
 21
114.5424116074299
 31
0.0
  0
LINE
  5
5BD
  8
0
 10
338.5721450770335
 20
117.5424116074299
 30
0.0
 11
338.10357905444943
 21
117.5424116074299
 31
0.0
  0
POLYLINE
  5
5BE
  8
0
 66
     1
 10
0.0
 20
0.0
 30
0.0
  0
VERTEX
  5
79F
  8
0
 10
193.5972312168679
 20
124.5756892649605
 30
0.0
 42
-0.9438216872486727
  0
VERTEX
  5
7A0
  8
0
 10
341.10357905444943
 20
116.0424116074299
 30
0.0
 42
-0.9440636851380126
  0
VERTEX
  5
7A1
  8
0
 10
193.5928727779548
 20
107.54676197182189
 30
0.0
 42
-0.9440636851380126
  0
SEQEND
  5
7A2
  8
0
  0
POLYLINE
  5
5D3
  8
0
 66
     1
 10
0.0
 20
0.0
 30
0.0
  0
VERTEX
  5
7A3
  8
0
 10
191.1183831278743
 20
114.54241160743
 30
0.0
 42
0.9804541409880535
  0
VERTEX
  5
7A4
  8
0
 10
343.0887749810243
 20
114.5424116074299
 30
0.0
  0
SEQEND
  5
7A5
  8
0
  0
ENDSEC
  0
EOF
