  0
SECTION
  2
HEADER
  9
$ACADVER
  1
AC1009
  9
$INSBASE
 10
0.0
 20
0.0
 30
0.0
  9
$EXTMIN
 10
78.732436426469008
 20
76.054919611013915
 30
-0.0015258207003583
  9
$EXTMAX
 10
422.15220159612431
 20
268.37276079894087
 30
0.0000000349246037
  9
$LIMMIN
 10
0.0
 20
0.0
  9
$LIMMAX
 10
12.0
 20
9.0
  9
$ORTHOMODE
 70
     1
  9
$REGENMODE
 70
     1
  9
$FILLMODE
 70
     1
  9
$QTEXTMODE
 70
     0
  9
$MIRRTEXT
 70
     0
  9
$DRAGMODE
 70
     2
  9
$LTSCALE
 40
1.0
  9
$OSMODE
 70
   951
  9
$ATTMODE
 70
     1
  9
$TEXTSIZE
 40
0.2
  9
$TRACEWID
 40
0.05
  9
$TEXTSTYLE
  7
STANDARD
  9
$CLAYER
  8
0
  9
$CELTYPE
  6
BYLAYER
  9
$CECOLOR
 62
   256
  9
$DIMSCALE
 40
1.0
  9
$DIMASZ
 40
3.5
  9
$DIMEXO
 40
0.0
  9
$DIMDLI
 40
7.0
  9
$DIMRND
 40
0.0
  9
$DIMDLE
 40
0.0
  9
$DIMEXE
 40
1.25
  9
$DIMTP
 40
0.0
  9
$DIMTM
 40
0.000000001
  9
$DIMTXT
 40
3.5
  9
$DIMCEN
 40
3.0
  9
$DIMTSZ
 40
0.0
  9
$DIMTOL
 70
     0
  9
$DIMLIM
 70
     0
  9
$DIMTIH
 70
     0
  9
$DIMTOH
 70
     1
  9
$DIMSE1
 70
     0
  9
$DIMSE2
 70
     0
  9
$DIMTAD
 70
     1
  9
$DIMZIN
 70
     8
  9
$DIMBLK
  1

  9
$DIMASO
 70
     1
  9
$DIMSHO
 70
     1
  9
$DIMPOST
  1

  9
$DIMAPOST
  1

  9
$DIMALT
 70
     0
  9
$DIMALTD
 70
     3
  9
$DIMALTF
 40
0.03937007874016
  9
$DIMLFAC
 40
1.0
  9
$DIMTOFL
 70
     1
  9
$DIMTVP
 40
0.0
  9
$DIMTIX
 70
     0
  9
$DIMSOXD
 70
     0
  9
$DIMSAH
 70
     0
  9
$DIMBLK1
  1

  9
$DIMBLK2
  1

  9
$DIMSTYLE
  2
COPY_OF_ISO-25
  9
$DIMCLRD
 70
   256
  9
$DIMCLRE
 70
   256
  9
$DIMCLRT
 70
   256
  9
$DIMTFAC
 40
1.0
  9
$DIMGAP
 40
1.0
  9
$LUNITS
 70
     2
  9
$LUPREC
 70
     4
  9
$SKETCHINC
 40
0.1
  9
$FILLETRAD
 40
0.0
  9
$AUNITS
 70
     0
  9
$AUPREC
 70
     0
  9
$MENU
  1
.
  9
$ELEVATION
 40
0.0
  9
$PELEVATION
 40
0.0
  9
$THICKNESS
 40
0.0
  9
$LIMCHECK
 70
     0
  9
$BLIPMODE
 70
     0
  9
$CHAMFERA
 40
0.0
  9
$CHAMFERB
 40
0.0
  9
$SKPOLY
 70
     0
  9
$TDCREATE
 40
2455699.5720055788
  9
$TDUPDATE
 40
2455699.6078957058
  9
$TDINDWG
 40
0.0088708102
  9
$TDUSRTIMER
 40
0.0088706366
  9
$USRTIMER
 70
     1
  9
$ANGBASE
 50
0.0
  9
$ANGDIR
 70
     0
  9
$PDMODE
 70
     0
  9
$PDSIZE
 40
0.0
  9
$PLINEWID
 40
0.0
  9
$COORDS
 70
     1
  9
$SPLFRAME
 70
     0
  9
$SPLINETYPE
 70
     6
  9
$SPLINESEGS
 70
     8
  9
$ATTDIA
 70
     0
  9
$ATTREQ
 70
     1
  9
$HANDLING
 70
     1
  9
$HANDSEED
  5
843
  9
$SURFTAB1
 70
     6
  9
$SURFTAB2
 70
     6
  9
$SURFTYPE
 70
     6
  9
$SURFU
 70
     6
  9
$SURFV
 70
     6
  9
$UCSNAME
  2

  9
$UCSORG
 10
0.0
 20
0.0
 30
0.0
  9
$UCSXDIR
 10
1.0
 20
0.0
 30
0.0
  9
$UCSYDIR
 10
0.0
 20
1.0
 30
0.0
  9
$PUCSNAME
  2

  9
$PUCSORG
 10
0.0
 20
0.0
 30
0.0
  9
$PUCSXDIR
 10
1.0
 20
0.0
 30
0.0
  9
$PUCSYDIR
 10
0.0
 20
1.0
 30
0.0
  9
$USERI1
 70
     0
  9
$USERI2
 70
     0
  9
$USERI3
 70
     0
  9
$USERI4
 70
     0
  9
$USERI5
 70
     0
  9
$USERR1
 40
0.0
  9
$USERR2
 40
0.0
  9
$USERR3
 40
0.0
  9
$USERR4
 40
0.0
  9
$USERR5
 40
0.0
  9
$WORLDVIEW
 70
     1
  9
$SHADEDGE
 70
     3
  9
$SHADEDIF
 70
    70
  9
$TILEMODE
 70
     1
  9
$MAXACTVP
 70
    64
  9
$PLIMCHECK
 70
     0
  9
$PEXTMIN
 10
0.0
 20
0.0
 30
0.0
  9
$PEXTMAX
 10
0.0
 20
0.0
 30
0.0
  9
$PLIMMIN
 10
0.0
 20
0.0
  9
$PLIMMAX
 10
12.0
 20
9.0
  9
$UNITMODE
 70
     0
  9
$VISRETAIN
 70
     1
  9
$PLINEGEN
 70
     0
  9
$PSLTSCALE
 70
     1
  0
ENDSEC
  0
SECTION
  2
TABLES
  0
TABLE
  2
VPORT
 70
     2
  0
VPORT
  2
*ACTIVE
 70
     0
 10
0.0
 20
0.0
 11
1.0
 21
1.0
 12
250.44231901129669
 22
172.2138402049774
 13
0.0
 23
0.0
 14
0.5
 24
0.5
 15
0.5
 25
0.5
 16
0.0
 26
0.0
 36
1.0
 17
0.0
 27
0.0
 37
0.0
 40
194.06618519872629
 41
2.0698027314112291
 42
50.0
 43
0.0
 44
0.0
 50
0.0
 51
0.0
 71
     0
 72
  1000
 73
     1
 74
     3
 75
     0
 76
     0
 77
     0
 78
     0
  0
ENDTAB
  0
TABLE
  2
LTYPE
 70
     2
  0
LTYPE
  2
CONTINUOUS
 70
     0
  3
Solid line
 72
    65
 73
     0
 40
0.0
  0
LTYPE
  2
CENTER2
 70
     0
  3
Center (.5x) ___ _ ___ _ ___ _ ___ _ ___ _ ___
 72
    65
 73
     4
 40
28.574999999999999
 49
19.050000000000001
 49
-3.174999999999998
 49
3.174999999999998
 49
-3.174999999999998
  0
ENDTAB
  0
TABLE
  2
LAYER
 70
     3
  0
LAYER
  2
0
 70
     0
 62
     7
  6
CONTINUOUS
  0
LAYER
  2
DEFPOINTS
 70
     0
 62
   142
  6
CONTINUOUS
  0
LAYER
  2
PAGR
 70
     0
 62
     7
  6
CONTINUOUS
  0
ENDTAB
  0
TABLE
  2
STYLE
 70
     4
  0
STYLE
  2
STANDARD
 70
     0
 40
0.0
 41
1.0
 50
0.0
 71
     0
 42
0.2
  3
txt
  4

  0
STYLE
  2
LIETUV2
 70
     0
 40
2.5
 41
1.0
 50
0.0
 71
     0
 42
2.5
  3
txt
  4

  0
STYLE
  2
ISO_PROPORTIONAL
 70
     0
 40
0.0
 41
1.0
 50
0.0
 71
     0
 42
40.0
  3
romanc.shx
  4

  0
STYLE
  2
GOST
 70
     0
 40
0.0
 41
0.8
 50
0.0
 71
     0
 42
3.5
  3
litc.shx
  4

  0
ENDTAB
  0
TABLE
  2
VIEW
 70
     0
  0
ENDTAB
  0
TABLE
  2
UCS
 70
     0
  0
ENDTAB
  0
TABLE
  2
APPID
 70
     1
  0
APPID
  2
ACAD
 70
     0
  0
ENDTAB
  0
TABLE
  2
DIMSTYLE
 70
     6
  0
DIMSTYLE
  2
STANDARD
 70
     0
  3

  4

  5

  6

  7

 40
1.0
 41
0.18
 42
0.0625
 43
0.38
 44
0.18
 45
0.0
 46
0.0
 47
0.0
 48
0.0
140
0.18
141
0.09
142
0.0
143
25.399999999999999
144
1.0
145
0.0
146
1.0
147
0.09
 71
     0
 72
     0
 73
     1
 74
     1
 75
     0
 76
     0
 77
     0
 78
     0
170
     0
171
     2
172
     0
173
     0
174
     0
175
     0
176
     0
177
     0
178
     0
  0
DIMSTYLE
  2
ISO-25
 70
     0
  3

  4

  5

  6

  7

 40
1.0
 41
5.0
 42
0.625
 43
3.75
 44
1.25
 45
0.0
 46
0.0
 47
0.0
 48
0.0
140
2.5
141
1.5
142
0.0
143
0.03937007874016
144
1.0
145
0.0
146
1.0
147
0.625
 71
     0
 72
     0
 73
     0
 74
     1
 75
     0
 76
     0
 77
     1
 78
     8
170
     0
171
     3
172
     1
173
     0
174
     0
175
     0
176
     0
177
     0
178
     0
  0
DIMSTYLE
  2
COPY_OF_STANDARD
 70
     0
  3

  4

  5

  6

  7

 40
1.0
 41
3.7299999999999991
 42
0.0
 43
0.0
 44
1.0
 45
0.1
 46
0.0
 47
0.0
 48
0.000000001
140
3.5
141
0.09
142
0.0
143
25.399999999999999
144
1.0
145
0.0
146
1.0
147
1.0
 71
     0
 72
     0
 73
     0
 74
     1
 75
     0
 76
     0
 77
     1
 78
     8
170
     0
171
     2
172
     0
173
     0
174
     0
175
     1
176
     0
177
     0
178
     0
  0
DIMSTYLE
  2
COPY_OF_ISO-25
 70
     0
  3

  4

  5

  6

  7

 40
1.0
 41
3.5
 42
0.0
 43
7.0
 44
1.25
 45
0.0
 46
0.0
 47
0.0
 48
0.000000001
140
3.5
141
3.0
142
0.0
143
0.03937007874016
144
1.0
145
0.0
146
1.0
147
1.0
 71
     0
 72
     0
 73
     0
 74
     1
 75
     0
 76
     0
 77
     1
 78
     8
170
     0
171
     3
172
     1
173
     0
174
     0
175
     0
176
   256
177
   256
178
   256
  0
DIMSTYLE
  2
GOST
 70
     0
  3

  4

  5

  6

  7

 40
0.0
 41
3.0
 42
0.0
 43
8.0
 44
1.25
 45
0.0
 46
0.0
 47
0.0
 48
0.0
140
3.0
141
5.0
142
0.0
143
25.399999999999999
144
1.0
145
0.0
146
1.0
147
0.625
 71
     0
 72
     0
 73
     0
 74
     1
 75
     0
 76
     0
 77
     1
 78
     8
170
     0
171
     2
172
     1
173
     0
174
     0
175
     0
176
     0
177
     0
178
     0
  0
DIMSTYLE
  2
ISO-25M
 70
     0
  3

  4

  5

  6

  7

 40
2.0
 41
2.5
 42
0.0
 43
3.75
 44
1.25
 45
0.0
 46
0.0
 47
0.0
 48
0.000000001
140
2.5
141
2.5
142
0.0
143
0.03937007874016
144
1.0
145
0.0
146
1.0
147
0.625
 71
     0
 72
     0
 73
     0
 74
     0
 75
     0
 76
     0
 77
     1
 78
     8
170
     0
171
     3
172
     1
173
     0
174
     0
175
     0
176
     0
177
     0
178
     0
  0
ENDTAB
  0
ENDSEC
  0
SECTION
  2
BLOCKS
  0
BLOCK
  8
0
  2
$MODEL_SPACE
 70
     0
 10
0.0
 20
0.0
 30
0.0
  3
$MODEL_SPACE
  1

  0
ENDBLK
  5
732
  8
0
  0
BLOCK
 67
     1
  8
0
  2
$PAPER_SPACE
 70
     0
 10
0.0
 20
0.0
 30
0.0
  3
$PAPER_SPACE
  1

  0
ENDBLK
  5
72E
 67
     1
  8
0
  0
BLOCK
  8
0
  2
*D2
 70
     1
 10
0.0
 20
0.0
 30
0.0
  3
*D2
  1

  0
LINE
  5
589
  8
0
 10
240.5142955696208
 20
172.0369000650544
 30
0.0
 11
240.5142955696208
 21
77.854643265764935
 31
0.0
  0
LINE
  5
58A
  8
0
 10
408.51429556962091
 20
172.0369000650544
 30
0.0
 11
408.51429556962091
 21
77.854643265764935
 31
0.0
  0
LINE
  5
58B
  8
0
 10
244.01429556962091
 20
79.104643265764935
 30
0.0
 11
405.01429556962091
 21
79.104643265764935
 31
0.0
  0
SOLID
  5
58C
  8
0
 10
244.01429556962091
 20
79.687976599098306
 30
0.0
 11
244.01429556962091
 21
78.52130993243162
 31
0.0
 12
240.5142955696208
 22
79.104643265764935
 32
0.0
 13
240.5142955696208
 23
79.104643265764935
 33
0.0
  0
SOLID
  5
58D
  8
0
 10
405.01429556962091
 20
79.687976599098306
 30
0.0
 11
405.01429556962091
 21
78.52130993243162
 31
0.0
 12
408.51429556962091
 22
79.104643265764935
 32
0.0
 13
408.51429556962091
 23
79.104643265764935
 33
0.0
  0
INSERT
  5
58E
  8
0
  2
*U3
 10
0.0
 20
0.0
 30
0.0
  0
POINT
  5
58F
  8
DEFPOINTS
 62
     0
 10
240.5142955696208
 20
172.0369000650544
 30
0.0
  0
POINT
  5
590
  8
DEFPOINTS
 62
     0
 10
408.51429556962091
 20
172.0369000650544
 30
0.0
  0
POINT
  5
591
  8
DEFPOINTS
 62
     0
 10
408.51429556962091
 20
79.104643265764935
 30
0.0
  0
ENDBLK
  5
557
  8
0
  0
BLOCK
  8
0
  2
*U3
 70
     1
 10
0.0
 20
0.0
 30
0.0
  3
*U3
  1

  0
TEXT
  5
6F4
  8
0
 10
318.6809622362876
 20
80.104643265764935
 30
0.0
 40
5.0
  1
168
  0
ENDBLK
  5
6F6
  8
0
  0
BLOCK
  8
0
  2
*D4
 70
     1
 10
0.0
 20
0.0
 30
0.0
  3
*D4
  1

  0
LINE
  5
5A2
  8
0
 10
386.9986308891896
 20
260.10949104351181
 30
0.0
 11
373.9986308891896
 21
260.10949104351192
 31
0.0
  0
LINE
  5
5A3
  8
0
 10
373.9986308891896
 20
260.10949104351192
 30
0.0
 11
366.39530324943632
 21
246.57703150926039
 31
0.0
  0
LINE
  5
5A4
  8
0
 10
282.63328788980562
 20
97.496768620796274
 30
0.0
 11
280.91886067484239
 21
94.445418210798493
 31
0.0
  0
INSERT
  5
5A5
  8
0
  2
*U5
 10
0.0
 20
0.0
 30
0.0
  0
LINE
  5
5A6
  8
0
 10
284.34771510476889
 20
100.5481190307941
 30
0.0
 11
364.68087603447321
 21
243.5256810992627
 31
0.0
  0
SOLID
  5
5A7
  8
0
 10
282.12472948813928
 20
97.782506489956802
 30
0.0
 11
283.14184629147201
 21
97.211030751635761
 31
0.0
 12
284.34771510476889
 22
100.5481190307941
 32
0.0
 13
284.34771510476889
 23
100.5481190307941
 33
0.0
  0
SOLID
  5
5A8
  8
0
 10
365.8867448477701
 20
246.86276937842101
 30
0.0
 11
366.9038616511026
 21
246.29129364009989
 31
0.0
 12
364.68087603447321
 22
243.5256810992627
 32
0.0
 13
364.68087603447321
 23
243.5256810992627
 33
0.0
  0
POINT
  5
5A9
  8
DEFPOINTS
 62
     0
 10
364.68087603447321
 20
243.5256810992627
 30
0.0
  0
POINT
  5
5AA
  8
DEFPOINTS
 62
     0
 10
284.34771510476889
 20
100.5481190307941
 30
0.0
  0
ENDBLK
  5
5A0
  8
0
  0
BLOCK
  8
0
  2
*U5
 70
     1
 10
0.0
 20
0.0
 30
0.0
  3
*U5
  1

  0
TEXT
  5
6F8
  8
0
 10
374.66529755585623
 20
261.1094910435117
 30
0.0
 40
3.5
  1
\U+2205164
  7
ISO_PROPORTIONAL
  0
ENDBLK
  5
6FA
  8
0
  0
BLOCK
  8
0
  2
*D6
 70
     1
 10
0.0
 20
0.0
 30
0.0
  3
*D6
  1

  0
LINE
  5
5BA
  8
0
 10
144.4784995150103
 20
254.03690006505411
 30
0.0
 11
202.4112376693397
 21
254.03690006505411
 31
0.0
  0
LINE
  5
5BB
  8
0
 10
144.4784995150645
 20
90.036900065054056
 30
0.0
 11
202.4112376693397
 21
90.036900065054056
 31
0.0
  0
LINE
  5
5BC
  8
0
 10
201.1612376693397
 20
250.536900065054
 30
0.0
 11
201.1612376693397
 21
93.536900065054084
 31
0.0
  0
SOLID
  5
5BD
  8
0
 10
200.57790433600641
 20
250.536900065054
 30
0.0
 11
201.7445710026731
 21
250.536900065054
 31
0.0
 12
201.1612376693397
 22
254.03690006505411
 32
0.0
 13
201.1612376693397
 23
254.03690006505411
 33
0.0
  0
SOLID
  5
5BE
  8
0
 10
200.5779043360063
 20
93.536900065054084
 30
0.0
 11
201.74457100267301
 21
93.536900065054084
 31
0.0
 12
201.1612376693397
 22
90.036900065054056
 32
0.0
 13
201.1612376693397
 23
90.036900065054056
 33
0.0
  0
INSERT
  5
5BF
  8
0
  2
*U7
 10
0.0
 20
0.0
 30
0.0
  0
POINT
  5
5C0
  8
DEFPOINTS
 62
     0
 10
144.4784995150103
 20
254.03690006505411
 30
0.0
  0
POINT
  5
5C1
  8
DEFPOINTS
 62
     0
 10
144.4784995150645
 20
90.036900065054056
 30
0.0
  0
POINT
  5
5C2
  8
DEFPOINTS
 62
     0
 10
201.1612376693397
 20
90.036900065054056
 30
0.0
  0
ENDBLK
  5
5B8
  8
0
  0
BLOCK
  8
0
  2
*U7
 70
     1
 10
0.0
 20
0.0
 30
0.0
  3
*U7
  1

  0
TEXT
  5
6FC
  8
0
 10
200.1612376693397
 20
167.20356673172071
 30
0.0
 40
3.5
  1
164
 50
90.0
  7
ISO_PROPORTIONAL
  0
ENDBLK
  5
6FE
  8
0
  0
BLOCK
  8
0
  2
*D8
 70
     1
 10
0.0
 20
0.0
 30
0.0
  3
*D8
  1

  0
LINE
  5
5C6
  8
0
 10
93.490378186790494
 20
251.5369000650544
 30
0.0
 11
85.466924823698506
 21
251.5369000650544
 31
0.0
  0
LINE
  5
5C7
  8
0
 10
93.490378186790494
 20
92.536900065054425
 30
0.0
 11
85.466924823698449
 21
92.536900065054425
 31
0.0
  0
LINE
  5
5C8
  8
0
 10
86.71692482369852
 20
248.0369000650544
 30
0.0
 11
86.716924823698506
 21
96.036900065054411
 31
0.0
  0
SOLID
  5
5C9
  8
0
 10
86.133591490365177
 20
248.0369000650544
 30
0.0
 11
87.300258157031806
 21
248.0369000650544
 31
0.0
 12
86.71692482369852
 22
251.5369000650544
 32
0.0
 13
86.71692482369852
 23
251.5369000650544
 33
0.0
  0
SOLID
  5
5CA
  8
0
 10
86.133591490365177
 20
96.036900065054411
 30
0.0
 11
87.300258157031806
 21
96.036900065054411
 31
0.0
 12
86.716924823698449
 22
92.536900065054425
 32
0.0
 13
86.716924823698449
 23
92.536900065054425
 33
0.0
  0
INSERT
  5
5CB
  8
0
  2
*U9
 10
0.0
 20
0.0
 30
0.0
  0
POINT
  5
5CC
  8
DEFPOINTS
 62
     0
 10
93.490378186790494
 20
251.5369000650544
 30
0.0
  0
POINT
  5
5CD
  8
DEFPOINTS
 62
     0
 10
93.490378186790494
 20
92.536900065054425
 30
0.0
  0
POINT
  5
5CE
  8
DEFPOINTS
 62
     0
 10
86.716924823698449
 20
92.536900065054425
 30
0.0
  0
ENDBLK
  5
5D0
  8
0
  0
BLOCK
  8
0
  2
*U9
 70
     1
 10
0.0
 20
0.0
 30
0.0
  3
*U9
  1

  0
TEXT
  5
700
  8
0
 10
85.716924823698449
 20
167.2869000650544
 30
0.0
 40
3.5
  1
159
 50
90.0
  7
ISO_PROPORTIONAL
  0
ENDBLK
  5
702
  8
0
  0
BLOCK
  8
0
  2
*D10
 70
     1
 10
0.0
 20
0.0
 30
0.0
  3
*D10
  1

  0
LINE
  5
5DF
  8
0
 10
93.490378186790494
 20
92.536900065054425
 30
0.0
 11
93.490378186790494
 21
73.899598864693402
 31
0.0
  0
LINE
  5
5E0
  8
0
 10
185.49037818679051
 20
92.536900065054425
 30
0.0
 11
185.49037818679051
 21
73.899598864693402
 31
0.0
  0
LINE
  5
5E1
  8
0
 10
96.99037818679048
 20
75.149598864693402
 30
0.0
 11
181.99037818679051
 21
75.149598864693402
 31
0.0
  0
SOLID
  5
5E2
  8
0
 10
96.99037818679048
 20
75.732932198026731
 30
0.0
 11
96.99037818679048
 21
74.56626553136006
 31
0.0
 12
93.490378186790494
 22
75.149598864693402
 32
0.0
 13
93.490378186790494
 23
75.149598864693402
 33
0.0
  0
SOLID
  5
5E3
  8
0
 10
181.99037818679051
 20
75.732932198026731
 30
0.0
 11
181.99037818679051
 21
74.56626553136006
 31
0.0
 12
185.49037818679051
 22
75.149598864693402
 32
0.0
 13
185.49037818679051
 23
75.149598864693402
 33
0.0
  0
INSERT
  5
5E4
  8
0
  2
*U11
 10
0.0
 20
0.0
 30
0.0
  0
POINT
  5
5E5
  8
DEFPOINTS
 62
     0
 10
93.490378186790494
 20
92.536900065054425
 30
0.0
  0
POINT
  5
5E6
  8
DEFPOINTS
 62
     0
 10
185.49037818679051
 20
92.536900065054425
 30
0.0
  0
POINT
  5
5E7
  8
DEFPOINTS
 62
     0
 10
185.49037818679051
 20
75.149598864693402
 30
0.0
  0
ENDBLK
  5
5DD
  8
0
  0
BLOCK
  8
0
  2
*U11
 70
     1
 10
0.0
 20
0.0
 30
0.0
  3
*U11
  1

  0
TEXT
  5
704
  8
0
 10
136.15704485345711
 20
76.149598864693402
 30
0.0
 40
3.5
  1
92
  7
ISO_PROPORTIONAL
  0
ENDBLK
  5
706
  8
0
  0
BLOCK
  8
0
  2
*U12
 70
     1
 10
0.0
 20
0.0
 30
0.0
  3
*U12
  1

  0
TEXT
  5
605
  8
0
 10
-6722.311515589573
 20
14563.439193534919
 30
0.0
 40
5.0
  1
\U+2205
  0
TEXT
  5
606
  8
0
 10
-6717.3115155895712
 20
14563.439193534919
 30
0.0
 40
5.0
  1
162
  0
TEXT
  5
607
  8
0
 10
-6703.9781822562391
 20
14563.439193534919
 30
0.0
 40
3.333499999999999
  1
-1.0
  0
ENDBLK
  5
609
  8
0
  0
BLOCK
  8
0
  2
*U13
 70
     1
 10
0.0
 20
0.0
 30
0.0
  3
*U13
  1

  0
TEXT
  5
60B
  8
0
 10
-6659.4419348640258
 20
14379.908687581121
 30
0.0
 40
5.0
  1
168
  0
ENDBLK
  5
60D
  8
0
  0
BLOCK
  8
0
  2
*U14
 70
     1
 10
0.0
 20
0.0
 30
0.0
  3
*U14
  1

  0
TEXT
  5
60F
  8
0
 10
-6906.8977840805674
 20
14453.864753904219
 30
0.0
 40
5.0
  1
\U+2205
 50
90.0
  7
ISO_PROPORTIONAL
  0
TEXT
  5
610
  8
0
 10
-6906.8977840805674
 20
14458.62665866613
 30
0.0
 40
5.0
  1
159±0.3
 50
90.0
  7
ISO_PROPORTIONAL
  0
ENDBLK
  5
612
  8
0
  0
BLOCK
  8
0
  2
*U15
 70
     1
 10
0.0
 20
0.0
 30
0.0
  3
*U15
  1

  0
TEXT
  5
614
  8
0
 10
-6848.0968939135246
 20
14361.149651768839
 30
0.0
 40
5.0
  1
92
  0
TEXT
  5
615
  8
0
 10
-6838.0968939135237
 20
14361.149651768839
 30
0.0
 40
3.571499999999999
  1
-1.0
  0
ENDBLK
  5
617
  8
0
  0
BLOCK
  8
0
  2
*U16
 70
     1
 10
0.0
 20
0.0
 30
0.0
  3
*U16
  1

  0
TEXT
  5
619
  8
0
 10
-6855.2426131486964
 20
14561.14094438041
 30
0.0
 40
5.0
  1
6
  0
ENDBLK
  5
61B
  8
0
  0
BLOCK
  8
0
  2
*U17
 70
     1
 10
0.0
 20
0.0
 30
0.0
  3
*U17
  1

  0
TEXT
  5
61D
  8
0
 10
-6829.382518913525
 20
14523.42343466302
 30
0.0
 40
5.0
  1
10.5
  0
ENDBLK
  5
61F
  8
0
  0
BLOCK
  8
0
  2
*U18
 70
     1
 10
0.0
 20
0.0
 30
0.0
  3
*U18
  1

  0
TEXT
  5
6DC
  8
0
 10
122.8802839516167
 20
261.33690006505373
 30
0.0
 40
5.0
  1
6
  0
ENDBLK
  5
6DE
  8
0
  0
BLOCK
  8
0
  2
*U19
 70
     1
 10
0.0
 20
0.0
 30
0.0
  3
*U19
  1

  0
TEXT
  5
6E0
  8
0
 10
149.99037818679051
 20
223.619390347657
 30
0.0
 40
5.0
  1
10.5
  0
ENDBLK
  5
6E2
  8
0
  0
BLOCK
  8
0
  2
*U20
 70
     1
 10
0.0
 20
0.0
 30
0.0
  3
*U20
  1

  0
TEXT
  5
6E4
  8
0
 10
130.02600318679049
 20
61.345607453481563
 30
0.0
 40
5.0
  1
92
  0
TEXT
  5
6E5
  8
0
 10
140.02600318679049
 20
61.345607453481563
 30
0.0
 40
3.571499999999999
  1
-1.0
  0
ENDBLK
  5
6E7
  8
0
  0
BLOCK
  8
0
  2
*U21
 70
     1
 10
0.0
 20
0.0
 30
0.0
  3
*U21
  1

  0
TEXT
  5
6E9
  8
0
 10
255.81138151074279
 20
263.63514921956357
 30
0.0
 40
5.0
  1
\U+2205
  0
TEXT
  5
6EA
  8
0
 10
260.81138151074282
 20
263.63514921956357
 30
0.0
 40
5.0
  1
162
  0
TEXT
  5
6EB
  8
0
 10
274.14471484407608
 20
263.63514921956357
 30
0.0
 40
3.333499999999999
  1
-1.0
  0
ENDBLK
  5
6ED
  8
0
  0
BLOCK
  8
0
  2
*U22
 70
     1
 10
0.0
 20
0.0
 30
0.0
  3
*U22
  1

  0
TEXT
  5
6EF
  8
0
 10
71.225113019750864
 20
154.0607095888638
 30
0.0
 40
5.0
  1
\U+2205
 50
90.0
  7
ISO_PROPORTIONAL
  0
TEXT
  5
6F0
  8
0
 10
71.225113019750864
 20
158.8226143507687
 30
0.0
 40
5.0
  1
159±0.3
 50
90.0
  7
ISO_PROPORTIONAL
  0
ENDBLK
  5
6F2
  8
0
  0
ENDSEC
  0
SECTION
  2
ENTITIES
  0
POLYLINE
  5
2FA
  8
0
 66
     1
 10
0.0
 20
0.0
 30
0.0
  0
VERTEX
  5
776
  8
0
 10
399.96147908232422
 20
162.886900065053
 30
0.0
  0
VERTEX
  5
777
  8
0
 10
249.067112056914
 20
162.886900065053
 30
0.0
  0
SEQEND
  5
778
  8
0
  0
POLYLINE
  5
2FB
  8
0
 66
     1
 10
0.0
 20
0.0
 30
0.0
  0
VERTEX
  5
779
  8
0
 10
399.96147908232803
 20
181.18690006505591
 30
0.0
  0
VERTEX
  5
77A
  8
0
 10
249.067112056913
 20
181.18690006505221
 30
0.0
  0
SEQEND
  5
77B
  8
0
  0
LINE
  5
304
  8
0
 10
132.39145521232581
 20
172.03690006505221
 30
0.0
 11
132.39145521232399
 21
250.1006998384081
 31
0.0
  0
LINE
  5
307
  8
0
  6
CENTER2
 62
     1
 10
129.24037818679051
 20
169.03690006505619
 30
0.0
 11
129.24037818679051
 21
175.03690006505619
 31
0.0
  0
LINE
  5
308
  8
0
 10
134.4903781867896
 20
243.23573726418999
 30
0.0
 11
134.4903781867896
 21
173.30082253103231
 31
0.0
  0
LINE
  5
309
  8
0
 10
134.4903781867896
 20
170.77297759908379
 30
0.0
 11
134.4903781867896
 21
161.13696576192251
 31
0.0
  0
POLYLINE
  5
31A
  8
0
  6
CENTER2
 62
     7
 66
     1
 10
0.0
 20
0.0
 30
0.0
  0
VERTEX
  5
77C
  8
0
  6
CENTER2
 62
     7
 10
126.451580827649
 20
172.03690006505801
 30
0.0
  0
VERTEX
  5
77D
  8
0
  6
CENTER2
 62
     7
 10
132.5396952603686
 20
172.03690006505801
 30
0.0
  0
SEQEND
  5
77E
  8
0
  6
CENTER2
 62
     7
  0
POLYLINE
  5
31B
  8
0
  6
CENTER2
 62
     7
 66
     1
 10
0.0
 20
0.0
 30
0.0
  0
VERTEX
  5
77F
  8
0
  6
CENTER2
 62
     7
 10
129.2403781867896
 20
170.2077697939867
 30
0.0
  0
VERTEX
  5
780
  8
0
  6
CENTER2
 62
     7
 10
129.2403781867896
 20
174.29482283092969
 30
0.0
  0
SEQEND
  5
781
  8
0
  6
CENTER2
 62
     7
  0
POLYLINE
  5
31C
  8
0
  6
CENTER2
 62
     7
 66
     1
 10
0.0
 20
0.0
 30
0.0
  0
VERTEX
  5
782
  8
0
  6
CENTER2
 62
     7
 10
129.2403781867896
 20
173.8660303361294
 30
0.0
  0
VERTEX
  5
783
  8
0
  6
CENTER2
 62
     7
 10
129.2403781867896
 20
169.77897729918641
 30
0.0
  0
SEQEND
  5
784
  8
0
  6
CENTER2
 62
     7
  0
POLYLINE
  5
31D
  8
0
  6
CENTER2
 62
     7
 66
     1
 10
0.0
 20
0.0
 30
0.0
  0
VERTEX
  5
785
  8
0
  6
CENTER2
 62
     7
 10
126.451580827649
 20
172.03690006505801
 30
0.0
  0
VERTEX
  5
786
  8
0
  6
CENTER2
 62
     7
 10
131.12088574939011
 20
172.03690006505801
 30
0.0
  0
SEQEND
  5
787
  8
0
  6
CENTER2
 62
     7
  0
POLYLINE
  5
321
  8
0
  6
CENTER2
 62
     7
 66
     1
 10
0.0
 20
0.0
 30
0.0
  0
VERTEX
  5
788
  8
0
  6
CENTER2
 62
     7
 10
126.451580827649
 20
172.03690006505801
 30
0.0
  0
VERTEX
  5
789
  8
0
  6
CENTER2
 62
     7
 10
131.12088574939011
 20
172.03690006505801
 30
0.0
  0
SEQEND
  5
78A
  8
0
  6
CENTER2
 62
     7
  0
POLYLINE
  5
322
  8
0
  6
CENTER2
 62
     7
 66
     1
 10
0.0
 20
0.0
 30
0.0
  0
VERTEX
  5
78B
  8
0
  6
CENTER2
 62
     7
 10
129.2403781867896
 20
170.2077697939867
 30
0.0
  0
VERTEX
  5
78C
  8
0
  6
CENTER2
 62
     7
 10
129.2403781867896
 20
174.29482283092969
 30
0.0
  0
SEQEND
  5
78D
  8
0
  6
CENTER2
 62
     7
  0
POLYLINE
  5
323
  8
0
  6
CENTER2
 62
     7
 66
     1
 10
0.0
 20
0.0
 30
0.0
  0
VERTEX
  5
78E
  8
0
  6
CENTER2
 62
     7
 10
129.2403781867896
 20
173.8660303361294
 30
0.0
  0
VERTEX
  5
78F
  8
0
  6
CENTER2
 62
     7
 10
129.2403781867896
 20
169.77897729918641
 30
0.0
  0
SEQEND
  5
790
  8
0
  6
CENTER2
 62
     7
  0
POLYLINE
  5
324
  8
0
  6
CENTER2
 62
     7
 66
     1
 10
0.0
 20
0.0
 30
0.0
  0
VERTEX
  5
791
  8
0
  6
CENTER2
 62
     7
 10
126.451580827649
 20
172.03690006505801
 30
0.0
  0
VERTEX
  5
792
  8
0
  6
CENTER2
 62
     7
 10
132.5396952603686
 20
172.03690006505801
 30
0.0
  0
SEQEND
  5
793
  8
0
  6
CENTER2
 62
     7
  0
LINE
  5
326
  8
0
 10
126.4903781867896
 20
172.03690006505619
 30
0.0
 11
132.4903781867896
 21
172.03690006505619
 31
0.0
  0
POLYLINE
  5
327
  8
0
 66
     1
 10
0.0
 20
0.0
 30
0.0
 70
     1
  0
VERTEX
  5
794
  8
0
 10
127.7403781867896
 20
172.03690006505619
 30
0.0
 42
1.0
  0
VERTEX
  5
795
  8
0
 10
130.7403781867896
 20
172.03690006505619
 30
0.0
 42
1.0
  0
SEQEND
  5
796
  8
0
  0
LINE
  5
328
  8
0
  6
CENTER2
 62
     1
 10
129.2403781867896
 20
169.03690006505619
 30
0.0
 11
129.2403781867896
 21
175.03690006505619
 31
0.0
  0
LINE
  5
329
  8
0
  6
CENTER2
 62
     1
 10
126.4903781867896
 20
172.03690006505619
 30
0.0
 11
132.4903781867896
 21
172.03690006505619
 31
0.0
  0
LINE
  5
337
  8
0
 10
408.51429556962091
 20
173.5369000650544
 30
0.0
 11
408.51429556962091
 21
170.5369000650544
 31
0.0
  0
LINE
  5
33B
  8
0
 10
400.48244679103732
 20
169.83690006505
 30
0.0
 11
390.01429556962012
 21
169.83690006505
 31
0.0
  0
LINE
  5
33C
  8
0
 10
380.01429556962091
 20
170.5369000650544
 30
0.0
 11
375.25666219786388
 21
170.5369000650544
 31
0.0
  0
LINE
  5
33D
  8
0
 10
380.01429556962091
 20
173.5369000650544
 30
0.0
 11
375.4912553443454
 21
173.5369000650544
 31
0.0
  0
LINE
  5
33E
  8
0
  6
CONTINUOUS
 62
     7
 10
391.91363325527692
 20
174.0369000650544
 30
0.0
 11
399.87914024003459
 21
174.0369000650544
 31
0.0
  0
LINE
  5
33F
  8
0
  6
CONTINUOUS
 62
     7
 10
391.41363325527692
 20
170.03690006505079
 30
0.0
 11
390.51429556962091
 21
170.03690006505079
 31
0.0
  0
LINE
  5
340
  8
0
 10
390.51429556962091
 20
170.03690006505079
 30
0.0
 11
400.51429556962091
 21
170.03690006505079
 31
0.0
  0
LINE
  5
341
  8
0
 10
400.51429556962091
 20
174.0369000650544
 30
0.0
 11
390.51429556962171
 21
174.0369000650544
 31
0.0
  0
LINE
  5
342
  8
0
 10
390.01429556962091
 20
170.03690006505079
 30
0.0
 11
380.01429556962091
 21
170.03690006505079
 31
0.0
  0
LINE
  5
343
  8
0
 10
390.01429556962171
 20
174.03690006505079
 30
0.0
 11
380.01429556962171
 21
174.03690006505079
 31
0.0
  0
LINE
  5
344
  8
0
 10
390.51429556962091
 20
173.5369000650544
 30
0.0
 11
390.01429556962091
 21
173.5369000650544
 31
0.0
  0
LINE
  5
345
  8
0
 10
390.51429556962091
 20
170.5369000650544
 30
0.0
 11
390.01429556962091
 21
170.5369000650544
 31
0.0
  0
ARC
  5
346
  8
0
 10
402.20850384797433
 20
178.936900065054
 30
0.0
 40
1.0
 50
270.0
 51
5.075106698863677
  0
ARC
  5
347
  8
0
 10
402.01429556962091
 20
176.936900065054
 30
0.0
 40
1.0
 50
90.0
 51
180.0
  0
LINE
  5
34A
  8
0
 10
401.01429556962091
 20
172.0369000650544
 30
0.0
 11
401.01429556962091
 21
176.936900065054
 31
0.0
  0
LINE
  5
34C
  8
0
 10
401.01429556962091
 20
172.0369000650544
 30
0.0
 11
401.01429556962091
 21
167.13690006505479
 31
0.0
  0
ARC
  5
34D
  8
0
 10
402.01429556962091
 20
167.13690006505479
 30
0.0
 40
1.0
 50
180.0
 51
270.0
  0
LINE
  5
350
  8
0
 10
402.01429556962091
 20
166.13690006505479
 30
0.0
 11
402.20850384797433
 21
166.13690006505479
 31
0.0
  0
ARC
  5
352
  8
0
 10
402.20850384797433
 20
165.13690006505479
 30
0.0
 40
1.0
 50
354.92489330113631
 51
90.0
  0
LINE
  5
354
  8
0
 10
402.01429556962091
 20
177.936900065054
 30
0.0
 11
402.20850384797433
 21
177.936900065054
 31
0.0
  0
LINE
  5
361
  8
0
 10
408.51429556962091
 20
170.5369000650544
 30
0.0
 11
404.00014336657159
 21
170.5369000650544
 31
0.0
  0
LINE
  5
362
  8
0
 10
408.51429556962091
 20
173.5369000650544
 30
0.0
 11
404.00014336657051
 21
173.5369000650544
 31
0.0
  0
LINE
  5
363
  8
0
 10
400.51429556962091
 20
172.0369000650544
 30
0.0
 11
400.51429556962091
 21
174.0369000650544
 31
0.0
  0
LINE
  5
364
  8
0
 10
400.51429556962091
 20
172.0369000650544
 30
0.0
 11
400.51429556962091
 21
170.03690006505079
 31
0.0
  0
LINE
  5
371
  8
0
 10
390.51429556962091
 20
174.2369000650514
 30
0.0
 11
375.54599374519051
 21
174.2369000650514
 31
0.0
  0
LINE
  5
372
  8
0
 10
390.51429556962091
 20
170.03690006505079
 30
0.0
 11
390.51429556962171
 21
174.23690006505689
 31
0.0
  0
LINE
  5
373
  8
0
 10
390.01429556962091
 20
169.83690006505
 30
0.0
 11
390.01429556962091
 21
174.03690006505079
 31
0.0
  0
LINE
  5
374
  8
0
 10
380.01429556962091
 20
169.8369000650537
 30
0.0
 11
380.01429556962091
 21
174.03690006505261
 31
0.0
  0
LINE
  5
375
  8
0
 10
376.03863935280231
 20
180.53690006505079
 30
0.0
 11
375.63863935279988
 21
180.53690006505079
 31
0.0
  0
ARC
  5
376
  8
0
 10
375.31460658364438
 20
173.8355179869732
 30
0.0
 40
0.2
 50
0.0000000002084408
 51
179.9999999997915
  0
LINE
  5
377
  8
0
 10
376.03863935280231
 20
180.53690006505079
 30
0.0
 11
375.23340989228552
 21
170.2395473171955
 31
0.0
  0
LINE
  5
381
  8
0
 10
185.49037818679051
 20
251.5369000650544
 30
0.0
 11
185.49037818679051
 21
250.8369000650537
 31
0.0
  0
POLYLINE
  5
383
  8
0
 66
     1
 10
0.0
 20
0.0
 30
0.0
  0
VERTEX
  5
797
  8
0
 10
179.49037818679051
 20
251.53690006505809
 30
0.0
 42
0.1530277928365761
  0
VERTEX
  5
798
  8
0
 10
178.805497681459
 20
251.32226227938099
 30
0.0
 42
0.1530277928365761
  0
SEQEND
  5
799
  8
0
  0
LINE
  5
384
  8
0
 10
178.805497681459
 20
251.32226227938099
 30
0.0
 11
177.3737995764512
 21
250.32715397566699
 31
0.0
  0
POLYLINE
  5
387
  8
0
 66
     1
 10
0.0
 20
0.0
 30
0.0
  0
VERTEX
  5
79A
  8
0
 10
179.4903781867923
 20
251.5369000650544
 30
0.0
  0
VERTEX
  5
79B
  8
0
 10
185.4903781867896
 20
251.5369000650544
 30
0.0
  0
SEQEND
  5
79C
  8
0
  0
POLYLINE
  5
38C
  8
0
 66
     1
 10
0.0
 20
0.0
 30
0.0
  0
VERTEX
  5
79D
  8
0
 10
147.99037818679051
 20
251.5369000650544
 30
0.0
  0
VERTEX
  5
79E
  8
0
 10
171.49037818678869
 20
251.5369000650544
 30
0.0
  0
SEQEND
  5
79F
  8
0
  0
POLYLINE
  5
392
  8
0
 66
     1
 10
0.0
 20
0.0
 30
0.0
  0
VERTEX
  5
7A0
  8
0
 10
93.490378186790494
 20
251.5369000650544
 30
0.0
  0
VERTEX
  5
7A1
  8
0
 10
99.490378186788689
 20
251.5369000650544
 30
0.0
  0
SEQEND
  5
7A2
  8
0
  0
POLYLINE
  5
394
  8
0
 66
     1
 10
0.0
 20
0.0
 30
0.0
  0
VERTEX
  5
7A3
  8
0
 10
132.881235019874
 20
252.08261589963249
 30
0.0
  0
VERTEX
  5
7A4
  8
0
 10
133.59952135370699
 20
253.49118423046909
 30
0.0
  0
SEQEND
  5
7A5
  8
0
  0
POLYLINE
  5
395
  8
0
 66
     1
 10
0.0
 20
0.0
 30
0.0
  0
VERTEX
  5
7A6
  8
0
 10
147.09952135370699
 20
252.08261589963601
 30
0.0
  0
VERTEX
  5
7A7
  8
0
 10
146.381235019874
 20
253.49118423047281
 30
0.0
  0
SEQEND
  5
7A8
  8
0
  0
POLYLINE
  5
397
  8
0
 66
     1
 10
0.0
 20
0.0
 30
0.0
  0
VERTEX
  5
7A9
  8
0
 10
134.49037818679051
 20
254.03690006505079
 30
0.0
  0
VERTEX
  5
7AA
  8
0
 10
145.49037818679051
 20
254.0369000650544
 30
0.0
  0
SEQEND
  5
7AB
  8
0
  0
LINE
  5
39A
  8
0
 10
145.49037818679051
 20
253.3369000650537
 30
0.0
 11
145.49037818679051
 21
247.3369000650537
 31
0.0
  0
POLYLINE
  5
39B
  8
0
 66
     1
 10
0.0
 20
0.0
 30
0.0
  0
VERTEX
  5
7AC
  8
0
 10
134.49037818679051
 20
253.3369000650537
 30
0.0
  0
VERTEX
  5
7AD
  8
0
 10
134.49037818679139
 20
247.33690006505
 30
0.0
  0
SEQEND
  5
7AE
  8
0
  0
POLYLINE
  5
39C
  8
0
 66
     1
 10
0.0
 20
0.0
 30
0.0
  0
VERTEX
  5
7AF
  8
0
 10
147.99037818679051
 20
251.5369000650544
 30
0.0
 42
-0.2819402118154727
  0
VERTEX
  5
7B0
  8
0
 10
147.09952135370699
 20
252.08261589963789
 30
0.0
 42
-0.2819402118154727
  0
SEQEND
  5
7B1
  8
0
  0
POLYLINE
  5
39F
  8
0
 66
     1
 10
0.0
 20
0.0
 30
0.0
  0
VERTEX
  5
7B2
  8
0
 10
145.49037818679051
 20
254.0369000650544
 30
0.0
 42
-0.2819402118154727
  0
VERTEX
  5
7B3
  8
0
 10
146.381235019874
 20
253.49118423047099
 30
0.0
 42
-0.2819402118154727
  0
SEQEND
  5
7B4
  8
0
  0
POLYLINE
  5
3A2
  8
0
 66
     1
 10
0.0
 20
0.0
 30
0.0
  0
VERTEX
  5
7B5
  8
0
 10
131.99037818679051
 20
251.53690006505079
 30
0.0
 42
0.2819402118154727
  0
VERTEX
  5
7B6
  8
0
 10
132.881235019874
 20
252.08261589963419
 30
0.0
 42
0.2819402118154727
  0
SEQEND
  5
7B7
  8
0
  0
POLYLINE
  5
3A3
  8
0
 66
     1
 10
0.0
 20
0.0
 30
0.0
  0
VERTEX
  5
7B8
  8
0
 10
134.49037818679051
 20
254.03690006505079
 30
0.0
 42
0.2819402118154727
  0
VERTEX
  5
7B9
  8
0
 10
133.59952135370699
 20
253.4911842304673
 30
0.0
 42
0.2819402118154727
  0
SEQEND
  5
7BA
  8
0
  0
LINE
  5
3A4
  8
0
 10
93.490378186790494
 20
250.8369000650537
 30
0.0
 11
93.490378186790494
 21
251.5369000650544
 31
0.0
  0
POLYLINE
  5
3AB
  8
0
 66
     1
 10
0.0
 20
0.0
 30
0.0
  0
VERTEX
  5
7BB
  8
0
 10
105.3737995764512
 20
250.32715397566699
 30
0.0
 42
-0.313394503136401
  0
VERTEX
  5
7BC
  8
0
 10
101.6069567971297
 20
250.32715397566699
 30
0.0
 42
-0.313394503136401
  0
SEQEND
  5
7BD
  8
0
  0
LINE
  5
3AC
  8
0
 10
106.8054976814591
 20
251.32226227938099
 30
0.0
 11
105.3737995764512
 21
250.32715397566699
 31
0.0
  0
LINE
  5
3AD
  8
0
 10
100.1752586921219
 20
251.32226227938099
 30
0.0
 11
101.6069567971297
 21
250.32715397566699
 31
0.0
  0
POLYLINE
  5
3AE
  8
0
 66
     1
 10
0.0
 20
0.0
 30
0.0
  0
VERTEX
  5
7BE
  8
0
 10
99.49037818679048
 20
251.53690006505809
 30
0.0
 42
-0.1530277928365761
  0
VERTEX
  5
7BF
  8
0
 10
100.1752586921219
 20
251.32226227938099
 30
0.0
 42
-0.1530277928365761
  0
SEQEND
  5
7C0
  8
0
  0
POLYLINE
  5
3AF
  8
0
 66
     1
 10
0.0
 20
0.0
 30
0.0
  0
VERTEX
  5
7C1
  8
0
 10
107.49037818679049
 20
251.53690006505809
 30
0.0
 42
0.1530277928365761
  0
VERTEX
  5
7C2
  8
0
 10
106.8054976814591
 20
251.32226227938099
 30
0.0
 42
0.1530277928365761
  0
SEQEND
  5
7C3
  8
0
  0
POLYLINE
  5
3B0
  8
0
 66
     1
 10
0.0
 20
0.0
 30
0.0
  0
VERTEX
  5
7C4
  8
0
 10
171.49037818679051
 20
251.53690006505809
 30
0.0
 42
-0.1530277928365761
  0
VERTEX
  5
7C5
  8
0
 10
172.1752586921219
 20
251.32226227938099
 30
0.0
 42
-0.1530277928365761
  0
SEQEND
  5
7C6
  8
0
  0
LINE
  5
3B1
  8
0
 10
172.1752586921219
 20
251.32226227938099
 30
0.0
 11
173.60695679712981
 21
250.32715397566699
 31
0.0
  0
POLYLINE
  5
3B4
  8
0
 66
     1
 10
0.0
 20
0.0
 30
0.0
  0
VERTEX
  5
7C7
  8
0
 10
107.4903781867923
 20
251.5369000650544
 30
0.0
  0
VERTEX
  5
7C8
  8
0
 10
131.99037818679051
 20
251.53690006505079
 30
0.0
  0
SEQEND
  5
7C9
  8
0
  0
POLYLINE
  5
3B6
  8
0
 66
     1
 10
0.0
 20
0.0
 30
0.0
  0
VERTEX
  5
7CA
  8
0
 10
173.60695679712981
 20
250.32715397566699
 30
0.0
 42
0.313394503136401
  0
VERTEX
  5
7CB
  8
0
 10
177.3737995764512
 20
250.32715397566699
 30
0.0
 42
0.313394503136401
  0
SEQEND
  5
7CC
  8
0
  0
LINE
  5
3B8
  8
0
 10
365.51429556962091
 20
170.0369000650544
 30
0.0
 11
355.51429556962012
 21
170.03690006505619
 31
0.0
  0
LINE
  5
3B9
  8
0
 10
355.51429556962091
 20
174.0369000650544
 30
0.0
 11
365.51429556962091
 21
174.0369000650544
 31
0.0
  0
POLYLINE
  5
3BB
  8
0
 66
     1
 10
0.0
 20
0.0
 30
0.0
  0
VERTEX
  5
7CD
  8
0
 10
185.49037818679051
 20
92.54411006445028
 30
0.0
  0
VERTEX
  5
7CE
  8
0
 10
185.49037818679051
 20
172.0369000650544
 30
0.0
  0
SEQEND
  5
7CF
  8
0
  0
LINE
  5
3BC
  8
0
 10
185.49037818679051
 20
92.536900065054425
 30
0.0
 11
185.49037818679051
 21
93.236900065055167
 31
0.0
  0
LINE
  5
3BE
  8
0
 10
185.49037818679051
 20
92.536900065054425
 30
0.0
 11
185.49037818679051
 21
93.236900065055167
 31
0.0
  0
LINE
  5
3BF
  8
0
 10
185.4831681873946
 20
92.536900065054425
 30
0.0
 11
185.49037818679051
 21
92.54411006445028
 31
0.0
  0
LINE
  5
3D8
  8
0
 10
240.5142955696208
 20
173.5369000650544
 30
0.0
 11
240.5142955696208
 21
170.5369000650544
 31
0.0
  0
LINE
  5
3D9
  8
0
 10
341.51433325527597
 20
170.0369000650544
 30
0.0
 11
341.51433325527597
 21
174.2369000650551
 31
0.0
  0
LINE
  5
3DA
  8
0
 10
331.51433325527597
 20
170.0369000650544
 30
0.0
 11
341.51433325527597
 21
170.0369000650544
 31
0.0
  0
LINE
  5
3DB
  8
0
 10
331.51433325527597
 20
170.0369000650544
 30
0.0
 11
331.51433325527597
 21
174.2369000650551
 31
0.0
  0
LINE
  5
3DC
  8
0
 10
355.51429556962091
 20
169.8369000650591
 30
0.0
 11
355.51429556962091
 21
174.03690006505809
 31
0.0
  0
LINE
  5
3DD
  8
0
 10
355.51429556962012
 20
169.83690006505
 30
0.0
 11
322.4225974280015
 21
169.83690006505
 31
0.0
  0
LINE
  5
3DE
  8
0
 10
341.51433325527597
 20
173.5369000650544
 30
0.0
 11
355.51429556962091
 21
173.53690006505079
 31
0.0
  0
LINE
  5
3DF
  8
0
 10
341.51433325527597
 20
170.5369000650544
 30
0.0
 11
355.51429556962091
 21
170.5369000650544
 31
0.0
  0
LINE
  5
3E0
  8
0
 10
327.66814172347938
 20
180.53690006505079
 30
0.0
 11
326.8629122629626
 21
170.2395473171955
 31
0.0
  0
LINE
  5
3E1
  8
0
 10
327.26814172347707
 20
180.53690006505079
 30
0.0
 11
326.4629122629612
 21
170.2395473171955
 31
0.0
  0
ARC
  5
3E2
  8
0
 10
326.66291226296192
 20
170.2395473171955
 30
0.0
 40
0.2
 50
180.00000000020839
 51
359.9999999997915
  0
POINT
  5
3E3
  8
0
  6
CONTINUOUS
 62
     7
 10
326.51429556962819
 20
172.03690006505079
 30
0.0
  0
POINT
  5
3E4
  8
0
  6
CONTINUOUS
 62
     7
 10
326.51429556962819
 20
172.0369000650544
 30
0.0
  0
ARC
  5
3E5
  8
0
 10
326.26291226296041
 20
170.23954731719911
 30
0.0
 40
0.2
 50
180.00000000020839
 51
359.9999999997915
  0
ARC
  5
3E6
  8
0
 10
325.86291226295901
 20
170.23954731719911
 30
0.0
 40
0.2
 50
180.00000000020839
 51
359.9999999997915
  0
LINE
  5
3E7
  8
0
 10
326.34410895431932
 20
173.8355179869732
 30
0.0
 11
326.06291226295968
 21
170.23954731719911
 31
0.0
  0
LINE
  5
3E8
  8
0
 10
325.94410895431781
 20
173.8355179869732
 30
0.0
 11
325.66291226295817
 21
170.23954731719911
 31
0.0
  0
ARC
  5
3E9
  8
0
 10
325.4629122629575
 20
170.23954731719911
 30
0.0
 40
0.2
 50
180.00000000020839
 51
359.9999999997915
  0
ARC
  5
3EA
  8
0
 10
325.0629122629561
 20
170.23954731719911
 30
0.0
 40
0.2
 50
180.00000000020839
 51
359.9999999997915
  0
LINE
  5
3EB
  8
0
 10
325.54410895431641
 20
173.8355179869732
 30
0.0
 11
325.26291226295677
 21
170.23954731719911
 31
0.0
  0
LINE
  5
3EC
  8
0
 10
325.1441089543149
 20
173.8355179869732
 30
0.0
 11
324.86291226295521
 21
170.23954731719911
 31
0.0
  0
ARC
  5
3ED
  8
0
 10
324.66291226295459
 20
170.23954731719911
 30
0.0
 40
0.2
 50
180.00000000020839
 51
359.9999999997915
  0
ARC
  5
3EE
  8
0
 10
326.54410895432
 20
173.8355179869732
 30
0.0
 40
0.2
 50
0.0000000002084408
 51
179.9999999997915
  0
ARC
  5
3EF
  8
0
 10
326.14410895431848
 20
173.8355179869732
 30
0.0
 40
0.2
 50
0.0000000002084408
 51
179.9999999997915
  0
ARC
  5
3F0
  8
0
 10
325.74410895431703
 20
173.8355179869732
 30
0.0
 40
0.2
 50
0.0000000002084408
 51
179.9999999997915
  0
ARC
  5
3F1
  8
0
 10
325.34410895431557
 20
173.8355179869732
 30
0.0
 40
0.2
 50
0.0000000002084408
 51
179.9999999997915
  0
ARC
  5
3F2
  8
0
 10
324.94410895431417
 20
173.8355179869732
 30
0.0
 40
0.2
 50
0.0000000002084408
 51
179.9999999997915
  0
ARC
  5
3F3
  8
0
 10
324.26291226295308
 20
170.23954731719911
 30
0.0
 40
0.2
 50
180.00000000020839
 51
359.9999999997915
  0
LINE
  5
3F4
  8
0
 10
324.74410895431339
 20
173.8355179869732
 30
0.0
 11
324.46291226295392
 21
170.23954731719911
 31
0.0
  0
ARC
  5
3F5
  8
0
 10
323.86291226295168
 20
170.23954731719911
 30
0.0
 40
0.2
 50
180.00000000020839
 51
359.9999999997915
  0
LINE
  5
3F6
  8
0
 10
324.34410895431199
 20
173.8355179869732
 30
0.0
 11
324.06291226295241
 21
170.23954731719911
 31
0.0
  0
LINE
  5
3F7
  8
0
 10
323.94410895431059
 20
173.8355179869732
 30
0.0
 11
323.66291226295078
 21
170.23954731719911
 31
0.0
  0
ARC
  5
3F8
  8
0
 10
323.46291226295023
 20
170.23954731719911
 30
0.0
 40
0.2
 50
180.00000000020839
 51
359.9999999997915
  0
ARC
  5
3F9
  8
0
 10
323.06291226294883
 20
170.23954731719911
 30
0.0
 40
0.2
 50
180.00000000020839
 51
359.9999999997915
  0
LINE
  5
3FA
  8
0
 10
323.54410895430902
 20
173.8355179869732
 30
0.0
 11
323.2629122629495
 21
170.23954731719911
 31
0.0
  0
LINE
  5
3FB
  8
0
 10
323.14410895430763
 20
173.8355179869732
 30
0.0
 11
322.86291226294799
 21
170.23954731719911
 31
0.0
  0
LINE
  5
3FC
  8
0
 10
322.74410895430628
 20
173.8355179869732
 30
0.0
 11
321.915783720984
 21
163.53369098495841
 31
0.0
  0
ARC
  5
3FD
  8
0
 10
322.66291226294732
 20
170.23954731719911
 30
0.0
 40
0.2
 50
180.00000000020839
 51
359.9999999997915
  0
ARC
  5
3FE
  8
0
 10
324.54410895431272
 20
173.8355179869732
 30
0.0
 40
0.2
 50
0.0000000002084408
 51
179.9999999997915
  0
ARC
  5
3FF
  8
0
 10
324.14410895431121
 20
173.8355179869732
 30
0.0
 40
0.2
 50
0.0000000002084408
 51
179.9999999997915
  0
ARC
  5
400
  8
0
 10
323.74410895430981
 20
173.8355179869732
 30
0.0
 40
0.2
 50
0.0000000002084408
 51
179.9999999997915
  0
ARC
  5
401
  8
0
 10
323.34410895430841
 20
173.8355179869732
 30
0.0
 40
0.2
 50
0.0000000002084408
 51
179.9999999997915
  0
ARC
  5
402
  8
0
 10
322.94410895430678
 20
173.8355179869732
 30
0.0
 40
0.2
 50
0.0000000002084408
 51
179.9999999997915
  0
ARC
  5
403
  8
0
 10
322.54410895430721
 20
173.8355179869732
 30
0.0
 40
0.2
 50
0.0000000002084408
 51
179.9999999997915
  0
POINT
  5
404
  8
0
  6
CONTINUOUS
 62
     7
 10
324.51429556962091
 20
172.0369000650544
 30
0.0
  0
POINT
  5
405
  8
0
  6
CONTINUOUS
 62
     7
 10
324.51429556962091
 20
172.03690006505079
 30
0.0
  0
LINE
  5
406
  8
0
 10
322.34539573246082
 20
173.86757678804219
 30
0.0
 11
321.5170704991387
 21
163.5657497860293
 31
0.0
  0
LINE
  5
407
  8
0
 10
321.915783720984
 20
163.5336909849602
 30
0.0
 11
321.51707049913961
 21
163.5657497860293
 31
0.0
  0
ARC
  5
408
  8
0
 10
322.2536816163755
 20
170.23954731719911
 30
0.0
 40
0.2
 50
180.00000000020839
 51
359.9999999997915
  0
ARC
  5
409
  8
0
 10
326.94410895432151
 20
173.8355179869732
 30
0.0
 40
0.2
 50
0.0000000002084408
 51
179.9999999997915
  0
LINE
  5
40A
  8
0
 10
327.66814172347938
 20
180.53690006505079
 30
0.0
 11
327.26814172347707
 21
180.53690006505079
 31
0.0
  0
LINE
  5
40B
  8
0
 10
326.88616456854089
 20
170.53690006505249
 30
0.0
 11
331.51433325527597
 21
170.53690006505249
 31
0.0
  0
LINE
  5
40C
  8
0
 10
327.12075771502248
 20
173.53690006505261
 30
0.0
 11
331.51433325527597
 21
173.53690006505261
 31
0.0
  0
LINE
  5
40D
  8
0
 10
327.17549611586941
 20
174.2369000650551
 30
0.0
 11
331.51433325527597
 21
174.2369000650551
 31
0.0
  0
LINE
  5
40E
  8
0
 10
341.51433325527688
 20
174.03690006505079
 30
0.0
 11
331.51433325527688
 21
174.03690006505079
 31
0.0
  0
LINE
  5
40F
  8
0
 10
269.0142578839658
 20
170.5369000650544
 30
0.0
 11
273.78789205553028
 21
170.5369000650544
 31
0.0
  0
LINE
  5
410
  8
0
 10
269.0142578839658
 20
173.5369000650544
 30
0.0
 11
274.02910904543739
 21
173.5369000650544
 31
0.0
  0
LINE
  5
411
  8
0
 10
258.5142578839658
 20
170.5369000650544
 30
0.0
 11
259.0142578839658
 21
170.5369000650544
 31
0.0
  0
LINE
  5
412
  8
0
 10
258.5142578839658
 20
173.5369000650544
 30
0.0
 11
259.0142578839658
 21
173.5369000650544
 31
0.0
  0
LINE
  5
413
  8
0
 10
259.01425788396671
 20
174.03690006505079
 30
0.0
 11
269.01425788396671
 21
174.03690006505079
 31
0.0
  0
LINE
  5
414
  8
0
 10
283.5142578839658
 20
170.0369000650544
 30
0.0
 11
293.5142578839658
 21
170.03690006505619
 31
0.0
  0
LINE
  5
415
  8
0
 10
293.5142578839658
 20
170.03690006505619
 30
0.0
 11
293.5142578839658
 21
174.2369000650551
 31
0.0
  0
LINE
  5
416
  8
0
 10
283.51425788396682
 20
170.0369000650544
 30
0.0
 11
283.5142578839658
 21
174.2369000650551
 31
0.0
  0
LINE
  5
417
  8
0
 10
269.0142578839658
 20
170.03690006505079
 30
0.0
 11
269.0142578839658
 21
174.2369000650551
 31
0.0
  0
LINE
  5
418
  8
0
  6
CONTINUOUS
 62
     7
 10
259.01425788396671
 20
170.03690006505079
 30
0.0
 11
269.01425788396671
 21
170.03690006505079
 31
0.0
  0
LINE
  5
419
  8
0
 10
258.5142578839658
 20
169.83690006505
 30
0.0
 11
273.73160809121862
 21
169.83690006505
 31
0.0
  0
LINE
  5
41A
  8
0
 10
259.0142578839658
 20
170.03690006505079
 30
0.0
 11
259.0142578839658
 21
174.2369000650551
 31
0.0
  0
LINE
  5
41B
  8
0
 10
248.54614434820439
 20
174.2369000650551
 30
0.0
 11
259.01425788396489
 21
174.2369000650551
 31
0.0
  0
LINE
  5
41C
  8
0
 10
240.5142955696208
 20
173.5369000650544
 30
0.0
 11
245.034724379322
 21
173.5369000650544
 31
0.0
  0
LINE
  5
41D
  8
0
 10
240.5142955696208
 20
170.5369000650544
 30
0.0
 11
245.034724379322
 21
170.5369000650544
 31
0.0
  0
LINE
  5
41E
  8
0
 10
258.5142578839658
 20
169.83690006505
 30
0.0
 11
258.5142578839658
 21
174.0369000650544
 31
0.0
  0
LINE
  5
41F
  8
0
 10
249.5490510192902
 20
174.0369000650544
 30
0.0
 11
258.5142578839658
 21
174.0369000650544
 31
0.0
  0
LINE
  5
420
  8
0
 10
248.5142578839658
 20
174.0369000650544
 30
0.0
 11
249.5490510192902
 21
174.0369000650544
 31
0.0
  0
LINE
  5
421
  8
0
 10
258.5142578839658
 20
170.03690006505079
 30
0.0
 11
248.51425788396489
 21
170.03690006505079
 31
0.0
  0
LINE
  5
422
  8
0
 10
248.01429556962091
 20
173.436900065054
 30
0.0
 11
248.5142578839658
 21
173.436900065054
 31
0.0
  0
LINE
  5
423
  8
0
 10
248.51425788396671
 20
170.03690006505079
 30
0.0
 11
248.5142578839658
 21
174.0369000650544
 31
0.0
  0
LINE
  5
424
  8
0
 10
248.01429556962091
 20
170.63690006505479
 30
0.0
 11
248.5142578839658
 21
170.63690006505479
 31
0.0
  0
LINE
  5
425
  8
0
 10
248.01429556962091
 20
172.0369000650544
 30
0.0
 11
248.01429556962091
 21
167.13690006505479
 31
0.0
  0
LINE
  5
426
  8
0
 10
248.01429556962091
 20
172.0369000650544
 30
0.0
 11
248.01429556962091
 21
176.936900065054
 31
0.0
  0
LINE
  5
427
  8
0
  6
CONTINUOUS
 62
     7
 10
257.61495788396491
 20
170.03690006505079
 30
0.0
 11
258.5142578839658
 21
170.03690006505079
 31
0.0
  0
LINE
  5
428
  8
0
  6
CONTINUOUS
 62
     7
 10
257.0142578839658
 20
174.0369000650544
 30
0.0
 11
249.0487508992081
 21
174.0369000650544
 31
0.0
  0
LINE
  5
429
  8
0
 10
293.5142578839658
 20
174.0369000650544
 30
0.0
 11
283.5142578839658
 21
174.0369000650544
 31
0.0
  0
LINE
  5
42A
  8
0
 10
307.5142578839658
 20
169.83690006505
 30
0.0
 11
307.5142578839658
 21
174.03690006505809
 31
0.0
  0
LINE
  5
42B
  8
0
 10
317.5142578839658
 20
169.83690006505
 30
0.0
 11
317.5142578839658
 21
174.03690006505809
 31
0.0
  0
LINE
  5
42C
  8
0
 10
317.5142578839658
 20
170.0369000650544
 30
0.0
 11
307.5142578839658
 21
170.0369000650544
 31
0.0
  0
LINE
  5
42D
  8
0
 10
317.5142578839658
 20
174.0369000650544
 30
0.0
 11
307.5142578839658
 21
174.0369000650544
 31
0.0
  0
LINE
  5
42E
  8
0
 10
247.0142955696208
 20
177.936900065054
 30
0.0
 11
246.82008729126821
 21
177.936900065054
 31
0.0
  0
ARC
  5
42F
  8
0
 10
246.82008729126821
 20
178.936900065054
 30
0.0
 40
1.0
 50
174.92489330113631
 51
270.0
  0
ARC
  5
430
  8
0
 10
247.0142955696208
 20
176.936900065054
 30
0.0
 40
1.0
 50
0.0
 51
90.0
  0
ARC
  5
431
  8
0
 10
246.82008729126821
 20
165.13690006505479
 30
0.0
 40
1.0
 50
90.0
 51
185.07510669886369
  0
ARC
  5
432
  8
0
 10
247.0142955696208
 20
167.13690006505479
 30
0.0
 40
1.0
 50
270.0
 51
0.0
  0
LINE
  5
433
  8
0
 10
247.0142955696208
 20
166.13690006505479
 30
0.0
 11
246.82008729126821
 21
166.13690006505479
 31
0.0
  0
LINE
  5
434
  8
0
 10
269.0142578839658
 20
174.2369000650551
 30
0.0
 11
278.4857977100927
 21
174.2369000650551
 31
0.0
  0
LINE
  5
435
  8
0
 10
293.5142578839658
 20
173.5369000650544
 30
0.0
 11
307.5142578839658
 21
173.5369000650544
 31
0.0
  0
LINE
  5
436
  8
0
 10
293.5142578839658
 20
170.5369000650544
 30
0.0
 11
307.5142578839658
 21
170.5369000650544
 31
0.0
  0
LINE
  5
437
  8
0
 10
279.378443317706
 20
180.53690006505079
 30
0.0
 11
278.97844331770358
 21
180.53690006505079
 31
0.0
  0
ARC
  5
438
  8
0
 10
278.65441054854813
 20
173.8355179869732
 30
0.0
 40
0.2
 50
0.0000000002084408
 51
179.9999999997915
  0
ARC
  5
439
  8
0
 10
273.96398321060212
 20
170.23954731719911
 30
0.0
 40
0.2
 50
180.00000000020839
 51
359.9999999997915
  0
LINE
  5
43A
  8
0
 10
273.62608531521062
 20
163.5336909849602
 30
0.0
 11
273.22737209336623
 21
163.5657497860293
 31
0.0
  0
LINE
  5
43B
  8
0
 10
274.05569732668738
 20
173.86757678804219
 30
0.0
 11
273.2273720933652
 21
163.5657497860293
 31
0.0
  0
POINT
  5
43C
  8
0
  6
CONTINUOUS
 62
     7
 10
276.22459716384748
 20
172.03690006505079
 30
0.0
  0
POINT
  5
43D
  8
0
  6
CONTINUOUS
 62
     7
 10
276.22459716384748
 20
172.0369000650544
 30
0.0
  0
ARC
  5
43E
  8
0
 10
274.25441054853388
 20
173.8355179869732
 30
0.0
 40
0.2
 50
0.0000000002084408
 51
179.9999999997915
  0
ARC
  5
43F
  8
0
 10
274.65441054853352
 20
173.8355179869732
 30
0.0
 40
0.2
 50
0.0000000002084408
 51
179.9999999997915
  0
ARC
  5
440
  8
0
 10
275.05441054853497
 20
173.8355179869732
 30
0.0
 40
0.2
 50
0.0000000002084408
 51
179.9999999997915
  0
ARC
  5
441
  8
0
 10
275.45441054853637
 20
173.8355179869732
 30
0.0
 40
0.2
 50
0.0000000002084408
 51
179.9999999997915
  0
ARC
  5
442
  8
0
 10
275.85441054853789
 20
173.8355179869732
 30
0.0
 40
0.2
 50
0.0000000002084408
 51
179.9999999997915
  0
ARC
  5
443
  8
0
 10
276.25441054853928
 20
173.8355179869732
 30
0.0
 40
0.2
 50
0.0000000002084408
 51
179.9999999997915
  0
ARC
  5
444
  8
0
 10
274.37321385717388
 20
170.23954731719911
 30
0.0
 40
0.2
 50
180.00000000020839
 51
359.9999999997915
  0
LINE
  5
445
  8
0
 10
274.45441054853279
 20
173.8355179869732
 30
0.0
 11
273.62608531521062
 21
163.53369098495841
 31
0.0
  0
LINE
  5
446
  8
0
 10
274.8544105485343
 20
173.8355179869732
 30
0.0
 11
274.57321385717472
 21
170.23954731719911
 31
0.0
  0
LINE
  5
447
  8
0
 10
275.2544105485357
 20
173.8355179869732
 30
0.0
 11
274.97321385717612
 21
170.23954731719911
 31
0.0
  0
ARC
  5
448
  8
0
 10
274.77321385717539
 20
170.23954731719911
 30
0.0
 40
0.2
 50
180.00000000020839
 51
359.9999999997915
  0
ARC
  5
449
  8
0
 10
275.17321385717679
 20
170.23954731719911
 30
0.0
 40
0.2
 50
180.00000000020839
 51
359.9999999997915
  0
LINE
  5
44A
  8
0
 10
275.6544105485371
 20
173.8355179869732
 30
0.0
 11
275.37321385717757
 21
170.23954731719911
 31
0.0
  0
LINE
  5
44B
  8
0
 10
276.05441054853861
 20
173.8355179869732
 30
0.0
 11
275.77321385717897
 21
170.23954731719911
 31
0.0
  0
ARC
  5
44C
  8
0
 10
275.5732138571783
 20
170.23954731719911
 30
0.0
 40
0.2
 50
180.00000000020839
 51
359.9999999997915
  0
LINE
  5
44D
  8
0
 10
276.45441054854012
 20
173.8355179869732
 30
0.0
 11
276.17321385718049
 21
170.23954731719911
 31
0.0
  0
ARC
  5
44E
  8
0
 10
275.97321385717981
 20
170.23954731719911
 30
0.0
 40
0.2
 50
180.00000000020839
 51
359.9999999997915
  0
ARC
  5
44F
  8
0
 10
276.6544105485408
 20
173.8355179869732
 30
0.0
 40
0.2
 50
0.0000000002084408
 51
179.9999999997915
  0
ARC
  5
450
  8
0
 10
277.05441054854231
 20
173.8355179869732
 30
0.0
 40
0.2
 50
0.0000000002084408
 51
179.9999999997915
  0
ARC
  5
451
  8
0
 10
277.45441054854371
 20
173.8355179869732
 30
0.0
 40
0.2
 50
0.0000000002084408
 51
179.9999999997915
  0
ARC
  5
452
  8
0
 10
277.85441054854522
 20
173.8355179869732
 30
0.0
 40
0.2
 50
0.0000000002084408
 51
179.9999999997915
  0
ARC
  5
453
  8
0
 10
278.25441054854662
 20
173.8355179869732
 30
0.0
 40
0.2
 50
0.0000000002084408
 51
179.9999999997915
  0
ARC
  5
454
  8
0
 10
276.37321385718121
 20
170.23954731719911
 30
0.0
 40
0.2
 50
180.00000000020839
 51
359.9999999997915
  0
LINE
  5
455
  8
0
 10
276.85441054854152
 20
173.8355179869732
 30
0.0
 11
276.573213857182
 21
170.23954731719911
 31
0.0
  0
LINE
  5
456
  8
0
 10
277.25441054854298
 20
173.8355179869732
 30
0.0
 11
276.9732138571834
 21
170.23954731719911
 31
0.0
  0
ARC
  5
457
  8
0
 10
276.77321385718261
 20
170.23954731719911
 30
0.0
 40
0.2
 50
180.00000000020839
 51
359.9999999997915
  0
ARC
  5
458
  8
0
 10
277.17321385718412
 20
170.23954731719911
 30
0.0
 40
0.2
 50
180.00000000020839
 51
359.9999999997915
  0
LINE
  5
459
  8
0
 10
277.65441054854438
 20
173.8355179869732
 30
0.0
 11
277.37321385718479
 21
170.23954731719911
 31
0.0
  0
LINE
  5
45A
  8
0
 10
278.05441054854589
 20
173.8355179869732
 30
0.0
 11
277.77321385718631
 21
170.23954731719911
 31
0.0
  0
ARC
  5
45B
  8
0
 10
277.57321385718558
 20
170.23954731719911
 30
0.0
 40
0.2
 50
180.00000000020839
 51
359.9999999997915
  0
ARC
  5
45C
  8
0
 10
277.97321385718698
 20
170.23954731719911
 30
0.0
 40
0.2
 50
180.00000000020839
 51
359.9999999997915
  0
POINT
  5
45D
  8
0
  6
CONTINUOUS
 62
     7
 10
278.22459716385481
 20
172.0369000650544
 30
0.0
  0
POINT
  5
45E
  8
0
  6
CONTINUOUS
 62
     7
 10
278.22459716385481
 20
172.03690006505079
 30
0.0
  0
ARC
  5
45F
  8
0
 10
278.37321385718838
 20
170.2395473171955
 30
0.0
 40
0.2
 50
180.00000000020839
 51
359.9999999997915
  0
LINE
  5
460
  8
0
 10
278.97844331770358
 20
180.53690006505079
 30
0.0
 11
278.17321385718782
 21
170.2395473171955
 31
0.0
  0
LINE
  5
461
  8
0
 10
279.378443317706
 20
180.53690006505079
 30
0.0
 11
278.57321385718922
 21
170.2395473171955
 31
0.0
  0
LINE
  5
462
  8
0
 10
278.59646616276763
 20
170.5369000650544
 30
0.0
 11
283.5142578839658
 21
170.53690006505619
 31
0.0
  0
LINE
  5
463
  8
0
 10
278.83105930925001
 20
173.5369000650544
 30
0.0
 11
283.5142578839658
 21
173.53690006505619
 31
0.0
  0
LINE
  5
464
  8
0
 10
278.88579771009421
 20
174.2369000650551
 30
0.0
 11
283.5142578839658
 21
174.2369000650551
 31
0.0
  0
LINE
  5
465
  8
0
 10
274.13289902222812
 20
169.83690006505
 30
0.0
 11
307.5142578839658
 21
169.83690006505
 31
0.0
  0
LINE
  5
46C
  8
0
 10
293.5142578839658
 20
174.2369000650551
 30
0.0
 11
326.77549611586608
 21
174.2369000650551
 31
0.0
  0
LINE
  5
46D
  8
0
 10
317.5142578839658
 20
173.5369000650544
 30
0.0
 11
322.31880745120992
 21
173.5369000650544
 31
0.0
  0
LINE
  5
46E
  8
0
 10
317.5142578839658
 20
170.5369000650544
 30
0.0
 11
322.07759046130371
 21
170.5369000650544
 31
0.0
  0
LINE
  5
46F
  8
0
 10
322.021306496992
 20
169.83690006505
 30
0.0
 11
317.51425788396682
 21
169.83690006505
 31
0.0
  0
LINE
  5
470
  8
0
  6
CENTER2
 62
     1
 10
236.10223361800479
 20
172.0369000650544
 30
0.0
 11
350.33278275512743
 21
172.0369000650544
 31
0.0
  0
LINE
  5
471
  8
0
 10
365.51429556962091
 20
169.83690006505731
 30
0.0
 11
365.51429556962091
 21
174.03690006505619
 31
0.0
  0
ARC
  5
472
  8
0
 10
370.62417924569837
 20
170.23954731719911
 30
0.0
 40
0.2
 50
180.00000000020839
 51
359.9999999997915
  0
LINE
  5
473
  8
0
 10
370.28628135030692
 20
163.5336909849602
 30
0.0
 11
369.88756812846248
 21
163.5657497860293
 31
0.0
  0
LINE
  5
474
  8
0
 10
370.71589336178369
 20
173.86757678804219
 30
0.0
 11
369.88756812846151
 21
163.5657497860293
 31
0.0
  0
POINT
  5
475
  8
0
  6
CONTINUOUS
 62
     7
 10
372.88479319894378
 20
172.03690006505079
 30
0.0
  0
POINT
  5
476
  8
0
  6
CONTINUOUS
 62
     7
 10
372.88479319894378
 20
172.0369000650544
 30
0.0
  0
ARC
  5
477
  8
0
 10
370.9146065836303
 20
173.8355179869732
 30
0.0
 40
0.2
 50
0.0000000002084408
 51
179.9999999997915
  0
ARC
  5
478
  8
0
 10
371.31460658362982
 20
173.8355179869732
 30
0.0
 40
0.2
 50
0.0000000002084408
 51
179.9999999997915
  0
ARC
  5
479
  8
0
 10
371.71460658363128
 20
173.8355179869732
 30
0.0
 40
0.2
 50
0.0000000002084408
 51
179.9999999997915
  0
ARC
  5
47A
  8
0
 10
372.11460658363279
 20
173.8355179869732
 30
0.0
 40
0.2
 50
0.0000000002084408
 51
179.9999999997915
  0
ARC
  5
47B
  8
0
 10
372.51460658363419
 20
173.8355179869732
 30
0.0
 40
0.2
 50
0.0000000002084408
 51
179.9999999997915
  0
ARC
  5
47C
  8
0
 10
372.91460658363559
 20
173.8355179869732
 30
0.0
 40
0.2
 50
0.0000000002084408
 51
179.9999999997915
  0
ARC
  5
47D
  8
0
 10
371.03340989227019
 20
170.23954731719911
 30
0.0
 40
0.2
 50
180.00000000020839
 51
359.9999999997915
  0
LINE
  5
47E
  8
0
 10
371.11460658362921
 20
173.8355179869732
 30
0.0
 11
370.28628135030692
 21
163.53369098495841
 31
0.0
  0
LINE
  5
47F
  8
0
 10
371.51460658363061
 20
173.8355179869732
 30
0.0
 11
371.23340989227103
 21
170.23954731719911
 31
0.0
  0
LINE
  5
480
  8
0
 10
371.91460658363201
 20
173.8355179869732
 30
0.0
 11
371.63340989227231
 21
170.23954731719911
 31
0.0
  0
ARC
  5
481
  8
0
 10
371.43340989227158
 20
170.23954731719911
 30
0.0
 40
0.2
 50
180.00000000020839
 51
359.9999999997915
  0
ARC
  5
482
  8
0
 10
371.83340989227321
 20
170.23954731719911
 30
0.0
 40
0.2
 50
180.00000000020839
 51
359.9999999997915
  0
LINE
  5
483
  8
0
 10
372.31460658363352
 20
173.8355179869732
 30
0.0
 11
372.03340989227382
 21
170.23954731719911
 31
0.0
  0
LINE
  5
484
  8
0
 10
372.71460658363492
 20
173.8355179869732
 30
0.0
 11
372.43340989227522
 21
170.23954731719911
 31
0.0
  0
ARC
  5
485
  8
0
 10
372.23340989227461
 20
170.23954731719911
 30
0.0
 40
0.2
 50
180.00000000020839
 51
359.9999999997915
  0
LINE
  5
486
  8
0
 10
373.11460658363637
 20
173.8355179869732
 30
0.0
 11
372.83340989227679
 21
170.23954731719911
 31
0.0
  0
ARC
  5
487
  8
0
 10
372.63340989227612
 20
170.23954731719911
 30
0.0
 40
0.2
 50
180.00000000020839
 51
359.9999999997915
  0
ARC
  5
488
  8
0
 10
373.3146065836371
 20
173.8355179869732
 30
0.0
 40
0.2
 50
0.0000000002084408
 51
179.9999999997915
  0
ARC
  5
489
  8
0
 10
373.71460658363861
 20
173.8355179869732
 30
0.0
 40
0.2
 50
0.0000000002084408
 51
179.9999999997915
  0
ARC
  5
48A
  8
0
 10
374.11460658364001
 20
173.8355179869732
 30
0.0
 40
0.2
 50
0.0000000002084408
 51
179.9999999997915
  0
ARC
  5
48B
  8
0
 10
374.51460658364152
 20
173.8355179869732
 30
0.0
 40
0.2
 50
0.0000000002084408
 51
179.9999999997915
  0
ARC
  5
48C
  8
0
 10
373.03340989227752
 20
170.23954731719911
 30
0.0
 40
0.2
 50
180.00000000020839
 51
359.9999999997915
  0
LINE
  5
48D
  8
0
 10
373.51460658363783
 20
173.8355179869732
 30
0.0
 11
373.2334098922783
 21
170.23954731719911
 31
0.0
  0
LINE
  5
48E
  8
0
 10
373.91460658363923
 20
173.8355179869732
 30
0.0
 11
373.63340989227959
 21
170.23954731719911
 31
0.0
  0
ARC
  5
48F
  8
0
 10
373.43340989227892
 20
170.23954731719911
 30
0.0
 40
0.2
 50
180.00000000020839
 51
359.9999999997915
  0
ARC
  5
490
  8
0
 10
373.83340989228037
 20
170.23954731719911
 30
0.0
 40
0.2
 50
180.00000000020839
 51
359.9999999997915
  0
LINE
  5
491
  8
0
 10
374.31460658364068
 20
173.8355179869732
 30
0.0
 11
374.0334098922811
 21
170.23954731719911
 31
0.0
  0
LINE
  5
492
  8
0
 10
374.71460658364219
 20
173.8355179869732
 30
0.0
 11
374.43340989228261
 21
170.23954731719911
 31
0.0
  0
ARC
  5
493
  8
0
 10
374.23340989228183
 20
170.23954731719911
 30
0.0
 40
0.2
 50
180.00000000020839
 51
359.9999999997915
  0
ARC
  5
494
  8
0
 10
374.63340989228323
 20
170.23954731719911
 30
0.0
 40
0.2
 50
180.00000000020839
 51
359.9999999997915
  0
POINT
  5
495
  8
0
  6
CONTINUOUS
 62
     7
 10
374.88479319895112
 20
172.0369000650544
 30
0.0
  0
POINT
  5
496
  8
0
  6
CONTINUOUS
 62
     7
 10
374.88479319895112
 20
172.03690006505079
 30
0.0
  0
LINE
  5
497
  8
0
 10
370.44808809062653
 20
170.5369000650544
 30
0.0
 11
365.51429556962091
 21
170.53690006505619
 31
0.0
  0
LINE
  5
498
  8
0
 10
370.6893050805337
 20
173.53690006505619
 30
0.0
 11
365.51429556962091
 21
173.53690006505619
 31
0.0
  0
LINE
  5
499
  8
0
 10
370.39180412631492
 20
169.83690006505
 30
0.0
 11
365.51429556962091
 21
169.83690006505
 31
0.0
  0
LINE
  5
49C
  8
0
 10
178.805497681459
 20
92.751537850727843
 30
0.0
 11
177.3737995764512
 21
93.746646154441848
 31
0.0
  0
POLYLINE
  5
49D
  8
0
 66
     1
 10
0.0
 20
0.0
 30
0.0
  0
VERTEX
  5
7D0
  8
0
 10
179.49037818679051
 20
92.536900065050773
 30
0.0
 42
-0.1530277928365761
  0
VERTEX
  5
7D1
  8
0
 10
178.805497681459
 20
92.751537850727843
 30
0.0
 42
-0.1530277928365761
  0
SEQEND
  5
7D2
  8
0
  0
LINE
  5
49E
  8
0
 10
179.49037818679051
 20
172.03690006505619
 30
0.0
 11
179.49037818679051
 21
94.536900065048968
 31
0.0
  0
POLYLINE
  5
49F
  8
0
 66
     1
 10
0.0
 20
0.0
 30
0.0
  0
VERTEX
  5
7D3
  8
0
 10
179.4903781867923
 20
92.536900065054425
 30
0.0
  0
VERTEX
  5
7D4
  8
0
 10
185.49037818679051
 20
92.536900065054425
 30
0.0
  0
SEQEND
  5
7D5
  8
0
  0
POLYLINE
  5
4A1
  8
0
 66
     1
 10
0.0
 20
0.0
 30
0.0
  0
VERTEX
  5
7D6
  8
0
 10
93.490378186790494
 20
172.0369000650544
 30
0.0
  0
VERTEX
  5
7D7
  8
0
 10
93.490378186790494
 20
92.536900065054425
 30
0.0
  0
SEQEND
  5
7D8
  8
0
  0
LINE
  5
4A2
  8
0
  6
CENTER2
 62
     1
 10
139.99037818679051
 20
172.0369000650544
 30
0.0
 11
139.99037818679051
 21
84.642027653623714
 31
0.0
  0
LINE
  5
4A3
  8
0
 10
147.58930116125779
 20
93.465668547333777
 30
0.0
 11
147.58930116125779
 21
172.0369000650544
 31
0.0
  0
LINE
  5
4A4
  8
0
 10
132.39145521232399
 20
93.465668547330125
 30
0.0
 11
132.39145521232581
 21
172.03690006505221
 31
0.0
  0
POLYLINE
  5
4A9
  8
0
 66
     1
 10
0.0
 20
0.0
 30
0.0
  0
VERTEX
  5
7D9
  8
0
 10
147.99037818679051
 20
92.536900065054425
 30
0.0
  0
VERTEX
  5
7DA
  8
0
 10
165.07550138100109
 20
92.536900065054425
 30
0.0
  0
SEQEND
  5
7DB
  8
0
  0
POLYLINE
  5
4AA
  8
0
 66
     1
 10
0.0
 20
0.0
 30
0.0
  0
VERTEX
  5
7DC
  8
0
 10
148.58930116125691
 20
92.536900065054425
 30
0.0
  0
VERTEX
  5
7DD
  8
0
 10
171.49037818678869
 20
92.536900065054425
 30
0.0
  0
SEQEND
  5
7DE
  8
0
  0
POLYLINE
  5
4AB
  8
0
 66
     1
 10
0.0
 20
0.0
 30
0.0
  0
VERTEX
  5
7DF
  8
0
 10
145.49037818679051
 20
90.736900065055167
 30
0.0
  0
VERTEX
  5
7E0
  8
0
 10
145.49037818679051
 20
96.736900065055167
 30
0.0
  0
SEQEND
  5
7E1
  8
0
  0
POLYLINE
  5
4AE
  8
0
 66
     1
 10
0.0
 20
0.0
 30
0.0
  0
VERTEX
  5
7E2
  8
0
 10
131.99037818679051
 20
92.536900065050773
 30
0.0
  0
VERTEX
  5
7E3
  8
0
 10
107.4903781867923
 20
92.536900065054425
 30
0.0
  0
SEQEND
  5
7E4
  8
0
  0
POLYLINE
  5
4AF
  8
0
 66
     1
 10
0.0
 20
0.0
 30
0.0
  0
VERTEX
  5
7E5
  8
0
 10
132.881235019874
 20
91.991184230469131
 30
0.0
  0
VERTEX
  5
7E6
  8
0
 10
133.59952135370699
 20
90.582615899632415
 30
0.0
  0
SEQEND
  5
7E7
  8
0
  0
POLYLINE
  5
4B3
  8
0
 66
     1
 10
0.0
 20
0.0
 30
0.0
  0
VERTEX
  5
7E8
  8
0
 10
134.49037818679051
 20
90.036900065050773
 30
0.0
  0
VERTEX
  5
7E9
  8
0
 10
145.49037818679051
 20
90.036900065054425
 30
0.0
  0
SEQEND
  5
7EA
  8
0
  0
POLYLINE
  5
4B4
  8
0
 66
     1
 10
0.0
 20
0.0
 30
0.0
  0
VERTEX
  5
7EB
  8
0
 10
147.09952135370699
 20
91.991184230472797
 30
0.0
  0
VERTEX
  5
7EC
  8
0
 10
146.381235019874
 20
90.582615899636039
 30
0.0
  0
SEQEND
  5
7ED
  8
0
  0
LINE
  5
4B5
  8
0
 10
93.490378186790494
 20
92.536900065054425
 30
0.0
 11
99.490378186788689
 21
92.536900065054425
 31
0.0
  0
LINE
  5
4B6
  8
0
 10
93.490378186790494
 20
93.236900065055167
 30
0.0
 11
93.490378186790494
 21
92.536900065054425
 31
0.0
  0
POLYLINE
  5
4B7
  8
0
 66
     1
 10
0.0
 20
0.0
 30
0.0
  0
VERTEX
  5
7EE
  8
0
 10
147.99037818679051
 20
92.536900065054425
 30
0.0
 42
0.2819402118154727
  0
VERTEX
  5
7EF
  8
0
 10
147.09952135370699
 20
91.991184230470964
 30
0.0
 42
0.2819402118154727
  0
SEQEND
  5
7F0
  8
0
  0
POLYLINE
  5
4BA
  8
0
 66
     1
 10
0.0
 20
0.0
 30
0.0
  0
VERTEX
  5
7F1
  8
0
 10
145.49037818679051
 20
90.036900065054425
 30
0.0
 42
0.2819402118154727
  0
VERTEX
  5
7F2
  8
0
 10
146.381235019874
 20
90.582615899637872
 30
0.0
 42
0.2819402118154727
  0
SEQEND
  5
7F3
  8
0
  0
LINE
  5
4BB
  8
0
 10
116.8387783216711
 20
92.536900065054425
 30
0.0
 11
131.99037818679051
 21
92.536900065050773
 31
0.0
  0
POLYLINE
  5
4BE
  8
0
 66
     1
 10
0.0
 20
0.0
 30
0.0
  0
VERTEX
  5
7F4
  8
0
 10
134.49037818679051
 20
90.036900065050773
 30
0.0
 42
-0.2819402118154727
  0
VERTEX
  5
7F5
  8
0
 10
133.59952135370699
 20
90.582615899634277
 30
0.0
 42
-0.2819402118154727
  0
SEQEND
  5
7F6
  8
0
  0
POLYLINE
  5
4BF
  8
0
 66
     1
 10
0.0
 20
0.0
 30
0.0
  0
VERTEX
  5
7F7
  8
0
 10
131.99037818679051
 20
92.536900065050773
 30
0.0
 42
-0.2819402118154727
  0
VERTEX
  5
7F8
  8
0
 10
132.881235019874
 20
91.991184230467326
 30
0.0
 42
-0.2819402118154727
  0
SEQEND
  5
7F9
  8
0
  0
POLYLINE
  5
4C0
  8
0
 66
     1
 10
0.0
 20
0.0
 30
0.0
  0
VERTEX
  5
7FA
  8
0
 10
134.49037818679051
 20
90.736900065047877
 30
0.0
  0
VERTEX
  5
7FB
  8
0
 10
134.49037818679139
 20
96.736900065051515
 30
0.0
  0
SEQEND
  5
7FC
  8
0
  0
LINE
  5
4C1
  8
0
 10
93.490378186790494
 20
93.236900065055167
 30
0.0
 11
93.490378186790494
 21
92.536900065054425
 31
0.0
  0
LINE
  5
4C8
  8
0
  6
CENTER2
 62
     1
 10
129.24037818679051
 20
169.0369000650544
 30
0.0
 11
129.24037818679051
 21
175.0369000650544
 31
0.0
  0
LINE
  5
4CB
  8
0
 10
127.49037818679039
 20
172.0369000650544
 30
0.0
 11
135.49037818679051
 21
172.03690006505079
 31
0.0
  0
LINE
  5
4CC
  8
0
 10
127.49037818679039
 20
172.0369000650544
 30
0.0
 11
135.49037818679051
 21
172.03690006505079
 31
0.0
  0
LINE
  5
4CD
  8
0
 10
107.4903781867941
 20
172.03690006505619
 30
0.0
 11
107.4903781867896
 21
94.536900065050773
 31
0.0
  0
LINE
  5
4CE
  8
0
 10
99.49037818679048
 20
172.03690006505619
 30
0.0
 11
99.49037818679048
 21
94.536900065048968
 31
0.0
  0
POLYLINE
  5
4CF
  8
0
 66
     1
 10
0.0
 20
0.0
 30
0.0
  0
VERTEX
  5
7FD
  8
0
 10
107.49037818679049
 20
92.536900065050773
 30
0.0
 42
-0.1530277928365761
  0
VERTEX
  5
7FE
  8
0
 10
106.8054976814591
 20
92.751537850727843
 30
0.0
 42
-0.1530277928365761
  0
SEQEND
  5
7FF
  8
0
  0
POLYLINE
  5
4D0
  8
0
 66
     1
 10
0.0
 20
0.0
 30
0.0
  0
VERTEX
  5
800
  8
0
 10
99.49037818679048
 20
92.536900065050773
 30
0.0
 42
0.1530277928365761
  0
VERTEX
  5
801
  8
0
 10
100.1752586921219
 20
92.751537850727843
 30
0.0
 42
0.1530277928365761
  0
SEQEND
  5
802
  8
0
  0
LINE
  5
4D1
  8
0
 10
100.1752586921219
 20
92.751537850727843
 30
0.0
 11
101.6069567971297
 21
93.746646154441848
 31
0.0
  0
LINE
  5
4D2
  8
0
 10
106.8054976814591
 20
92.751537850727843
 30
0.0
 11
105.3737995764512
 21
93.746646154441848
 31
0.0
  0
POLYLINE
  5
4D3
  8
0
 66
     1
 10
0.0
 20
0.0
 30
0.0
  0
VERTEX
  5
803
  8
0
 10
105.3737995764512
 20
93.746646154441848
 30
0.0
 42
0.313394503136401
  0
VERTEX
  5
804
  8
0
 10
101.6069567971297
 20
93.746646154441848
 30
0.0
 42
0.313394503136401
  0
SEQEND
  5
805
  8
0
  0
LINE
  5
4DB
  8
0
 10
172.1752586921219
 20
92.751537850727843
 30
0.0
 11
173.60695679712981
 21
93.746646154441848
 31
0.0
  0
POLYLINE
  5
4DC
  8
0
 66
     1
 10
0.0
 20
0.0
 30
0.0
  0
VERTEX
  5
806
  8
0
 10
171.49037818679051
 20
92.536900065050773
 30
0.0
 42
0.1530277928365761
  0
VERTEX
  5
807
  8
0
 10
172.1752586921219
 20
92.751537850727843
 30
0.0
 42
0.1530277928365761
  0
SEQEND
  5
808
  8
0
  0
LINE
  5
4DD
  8
0
 10
171.49037818678681
 20
172.03690006505619
 30
0.0
 11
171.49037818679139
 21
94.536900065050773
 31
0.0
  0
LINE
  5
4DF
  8
0
 10
107.4903781867923
 20
92.536900065054425
 30
0.0
 11
128.4903781867896
 21
92.536900065054425
 31
0.0
  0
POLYLINE
  5
4E0
  8
0
 66
     1
 10
0.0
 20
0.0
 30
0.0
  0
VERTEX
  5
809
  8
0
 10
99.490378186788689
 20
92.536900065054425
 30
0.0
  0
VERTEX
  5
80A
  8
0
 10
93.490378186790494
 20
92.536900065054425
 30
0.0
  0
SEQEND
  5
80B
  8
0
  0
LINE
  5
4E4
  8
0
  6
CENTER2
 62
     1
 10
78.738657447763984
 20
172.0369000650544
 30
0.0
 11
193.37365508613209
 21
172.0369000650544
 31
0.0
  0
POLYLINE
  5
4E6
  8
0
 66
     1
 10
0.0
 20
0.0
 30
0.0
  0
VERTEX
  5
80C
  8
0
 10
173.60695679712981
 20
93.746646154441848
 30
0.0
 42
-0.313394503136401
  0
VERTEX
  5
80D
  8
0
 10
177.3737995764512
 20
93.746646154441848
 30
0.0
 42
-0.313394503136401
  0
SEQEND
  5
80E
  8
0
  0
POLYLINE
  5
4E9
  8
0
 66
     1
 10
0.0
 20
0.0
 30
0.0
  0
VERTEX
  5
80F
  8
0
 10
134.49037818679139
 20
247.33690006505
 30
0.0
  0
VERTEX
  5
810
  8
0
 10
134.49037818679139
 20
96.736900065051515
 30
0.0
  0
SEQEND
  5
811
  8
0
  0
POLYLINE
  5
4EA
  8
0
 66
     1
 10
0.0
 20
0.0
 30
0.0
  0
VERTEX
  5
812
  8
0
 10
145.49037818679051
 20
247.3369000650537
 30
0.0
  0
VERTEX
  5
813
  8
0
 10
145.49037818679051
 20
96.736900065055167
 30
0.0
  0
SEQEND
  5
814
  8
0
  0
LINE
  5
4EC
  8
0
  6
CENTER2
 62
     1
 10
324.51429556962091
 20
262.17354368837641
 30
0.0
 11
324.51429556962091
 21
88.333126924696444
 31
0.0
  0
POLYLINE
  5
4ED
  8
0
 66
     1
 10
0.0
 20
0.0
 30
0.0
  0
VERTEX
  5
815
  8
0
 10
93.490378186790494
 20
172.0369000650544
 30
0.0
  0
VERTEX
  5
816
  8
0
 10
93.490378186790494
 20
250.8369000650537
 30
0.0
  0
SEQEND
  5
817
  8
0
  0
LINE
  5
4EE
  8
0
  6
CENTER2
 62
     1
 10
139.99037818679051
 20
172.0369000650544
 30
0.0
 11
139.99037818679139
 21
255.69151715307541
 31
0.0
  0
LINE
  5
4EF
  8
0
 10
147.58930116125779
 20
250.60813158277509
 30
0.0
 11
147.58930116125779
 21
172.0369000650544
 31
0.0
  0
POLYLINE
  5
4F0
  8
0
 66
     1
 10
0.0
 20
0.0
 30
0.0
  0
VERTEX
  5
818
  8
0
 10
185.49037818679051
 20
251.5369000650544
 30
0.0
  0
VERTEX
  5
819
  8
0
 10
185.49037818679051
 20
172.0369000650544
 30
0.0
  0
SEQEND
  5
81A
  8
0
  0
LINE
  5
4F2
  8
0
 10
99.49037818679048
 20
172.03690006505261
 30
0.0
 11
99.49037818679048
 21
249.53690006505991
 31
0.0
  0
LINE
  5
4F3
  8
0
 10
107.4903781867941
 20
172.03690006505261
 30
0.0
 11
107.4903781867896
 21
249.53690006505809
 31
0.0
  0
LINE
  5
4F4
  8
0
 10
171.49037818678681
 20
172.03690006505261
 30
0.0
 11
171.49037818679139
 21
249.53690006505809
 31
0.0
  0
LINE
  5
4F5
  8
0
 10
179.49037818679051
 20
172.03690006505261
 30
0.0
 11
179.49037818679051
 21
249.53690006505991
 31
0.0
  0
POLYLINE
  5
4F7
  8
0
 66
     1
 10
0.0
 20
0.0
 30
0.0
  0
VERTEX
  5
81B
  8
0
 10
248.54061591673039
 20
170.03690006505079
 30
0.0
 42
0.97273981411171
  0
VERTEX
  5
81C
  8
0
 10
400.48244679103732
 20
169.83690006505
 30
0.0
  0
SEQEND
  5
81D
  8
0
  0
POLYLINE
  5
4F8
  8
0
 66
     1
 10
0.0
 20
0.0
 30
0.0
  0
VERTEX
  5
81E
  8
0
 10
400.4879752225113
 20
174.0369000650544
 30
0.0
 42
0.9727398141117154
  0
VERTEX
  5
81F
  8
0
 10
248.54614434820439
 20
174.2369000650551
 30
0.0
 42
0.9727398141117154
  0
SEQEND
  5
820
  8
0
  0
POLYLINE
  5
4F9
  8
0
 66
     1
 10
0.0
 20
0.0
 30
0.0
  0
VERTEX
  5
821
  8
0
 10
242.5280162297212
 20
170.5369000650544
 30
0.0
 42
0.9818716088613523
  0
VERTEX
  5
822
  8
0
 10
406.50057490951878
 20
170.5369000650544
 30
0.0
 42
0.9818716088613523
  0
SEQEND
  5
823
  8
0
  0
LINE
  5
4FA
  8
0
 10
375.145993745189
 20
174.2369000650514
 30
0.0
 11
341.51433325527597
 21
174.2369000650514
 31
0.0
  0
LINE
  5
4FB
  8
0
  6
CENTER2
 62
     1
 10
233.36583017525641
 20
172.0369000650544
 30
0.0
 11
411.6912252157415
 21
172.0369000650544
 31
0.0
  0
POLYLINE
  5
4FC
  8
0
 66
     1
 10
0.0
 20
0.0
 30
0.0
  0
VERTEX
  5
824
  8
0
 10
324.51429556962091
 20
251.03690006502919
 30
0.0
 42
0.4404017507366478
  0
VERTEX
  5
825
  8
0
 10
245.82400769795629
 20
165.04843852659269
 30
0.0
  0
SEQEND
  5
826
  8
0
  0
POLYLINE
  5
502
  8
0
 66
     1
 10
0.0
 20
0.0
 30
0.0
  0
VERTEX
  5
827
  8
0
 10
245.82400769795629
 20
165.04843852659269
 30
0.0
 42
0.3885015059007155
  0
VERTEX
  5
828
  8
0
 10
324.51429556962091
 20
93.036900065051
 30
0.0
 42
0.3885015059007155
  0
SEQEND
  5
829
  8
0
  0
POLYLINE
  5
503
  8
0
 66
     1
 10
0.0
 20
0.0
 30
0.0
  0
VERTEX
  5
82A
  8
0
 10
324.51429556962091
 20
92.536900065042914
 30
0.0
 42
-0.4142135623731443
  0
VERTEX
  5
82B
  8
0
 10
245.0142955696208
 20
172.0369000650544
 30
0.0
 42
-0.4142135623728914
  0
VERTEX
  5
82C
  8
0
 10
324.51429556962091
 20
251.53690006500179
 30
0.0
 42
-0.4142135623728914
  0
SEQEND
  5
82D
  8
0
  0
LINE
  5
505
  8
0
 10
380.01429556962091
 20
169.83690006505
 30
0.0
 11
370.79309505732442
 21
169.83690006505
 31
0.0
  0
ARC
  5
506
  8
0
 10
374.91460658364292
 20
173.8355179869732
 30
0.0
 40
0.2
 50
0.0000000002084408
 51
179.9999999997915
  0
ARC
  5
507
  8
0
 10
375.03340989228479
 20
170.2395473171955
 30
0.0
 40
0.2
 50
180.00000000020839
 51
359.9999999997915
  0
LINE
  5
508
  8
0
 10
375.63863935279988
 20
180.53690006505079
 30
0.0
 11
374.83340989228412
 21
170.2395473171955
 31
0.0
  0
POLYLINE
  5
509
  8
0
 66
     1
 10
0.0
 20
0.0
 30
0.0
  0
VERTEX
  5
82E
  8
0
 10
406.50057490952048
 20
173.5369000650544
 30
0.0
 42
0.9818716088607574
  0
VERTEX
  5
82F
  8
0
 10
242.5280162297212
 20
173.5369000650544
 30
0.0
  0
SEQEND
  5
830
  8
0
  0
POLYLINE
  5
5EA
  8
0
 66
     1
 10
0.0
 20
0.0
 30
0.0
  0
VERTEX
  5
831
  8
0
 10
324.51429556962103
 20
92.536900065042914
 30
0.0
 42
0.4142135623731443
  0
VERTEX
  5
832
  8
0
 10
404.01429556962091
 20
172.0369000650544
 30
0.0
 42
0.4142135623728914
  0
VERTEX
  5
833
  8
0
 10
324.51429556962091
 20
251.53690006500179
 30
0.0
 42
0.4142135623728914
  0
SEQEND
  5
834
  8
0
  0
POLYLINE
  5
5EB
  8
0
 66
     1
 10
0.0
 20
0.0
 30
0.0
  0
VERTEX
  5
835
  8
0
 10
403.20458344128542
 20
165.04843852659269
 30
0.0
 42
-0.3885015059007155
  0
VERTEX
  5
836
  8
0
 10
324.51429556962103
 20
93.036900065051
 30
0.0
 42
-0.3885015059007155
  0
SEQEND
  5
837
  8
0
  0
POLYLINE
  5
5EC
  8
0
 66
     1
 10
0.0
 20
0.0
 30
0.0
  0
VERTEX
  5
838
  8
0
 10
324.51429556962091
 20
251.03690006502919
 30
0.0
 42
-0.4404017507366478
  0
VERTEX
  5
839
  8
0
 10
403.20458344128542
 20
165.04843852659269
 30
0.0
  0
SEQEND
  5
83A
  8
0
  0
LINE
  5
5ED
  8
0
 10
401.01429556962091
 20
173.5369000650544
 30
0.0
 11
400.51429556962091
 21
173.5369000650544
 31
0.0
  0
LINE
  5
5EE
  8
0
 10
401.01429556962091
 20
170.5369000650544
 30
0.0
 11
400.51429556962091
 21
170.5369000650544
 31
0.0
  0
ENDSEC
  0
EOF
