  0
SECTION
  2
HEADER
  9
$ACADVER
  1
AC1009
  9
$INSBASE
 10
0.0
 20
0.0
 30
0.0
  9
$EXTMIN
 10
65.235465671853149
 20
72.528782287085505
 30
-0.0015258207003583
  9
$EXTMAX
 10
451.80195342274902
 20
312.76426446509271
 30
0.0000000349246037
  9
$LIMMIN
 10
0.0
 20
0.0
  9
$LIMMAX
 10
12.0
 20
9.0
  9
$ORTHOMODE
 70
     1
  9
$REGENMODE
 70
     1
  9
$FILLMODE
 70
     1
  9
$QTEXTMODE
 70
     0
  9
$MIRRTEXT
 70
     0
  9
$DRAGMODE
 70
     2
  9
$LTSCALE
 40
1.0
  9
$OSMODE
 70
   951
  9
$ATTMODE
 70
     1
  9
$TEXTSIZE
 40
0.2
  9
$TRACEWID
 40
0.05
  9
$TEXTSTYLE
  7
STANDARD
  9
$CLAYER
  8
0
  9
$CELTYPE
  6
BYLAYER
  9
$CECOLOR
 62
   256
  9
$DIMSCALE
 40
1.0
  9
$DIMASZ
 40
3.5
  9
$DIMEXO
 40
0.0
  9
$DIMDLI
 40
7.0
  9
$DIMRND
 40
0.0
  9
$DIMDLE
 40
0.0
  9
$DIMEXE
 40
1.25
  9
$DIMTP
 40
0.0
  9
$DIMTM
 40
0.000000001
  9
$DIMTXT
 40
3.5
  9
$DIMCEN
 40
3.0
  9
$DIMTSZ
 40
0.0
  9
$DIMTOL
 70
     0
  9
$DIMLIM
 70
     0
  9
$DIMTIH
 70
     0
  9
$DIMTOH
 70
     1
  9
$DIMSE1
 70
     0
  9
$DIMSE2
 70
     0
  9
$DIMTAD
 70
     1
  9
$DIMZIN
 70
     8
  9
$DIMBLK
  1

  9
$DIMASO
 70
     1
  9
$DIMSHO
 70
     1
  9
$DIMPOST
  1

  9
$DIMAPOST
  1

  9
$DIMALT
 70
     0
  9
$DIMALTD
 70
     3
  9
$DIMALTF
 40
0.03937007874016
  9
$DIMLFAC
 40
1.0
  9
$DIMTOFL
 70
     1
  9
$DIMTVP
 40
0.0
  9
$DIMTIX
 70
     0
  9
$DIMSOXD
 70
     0
  9
$DIMSAH
 70
     0
  9
$DIMBLK1
  1

  9
$DIMBLK2
  1

  9
$DIMSTYLE
  2
COPY_OF_ISO-25
  9
$DIMCLRD
 70
   256
  9
$DIMCLRE
 70
   256
  9
$DIMCLRT
 70
   256
  9
$DIMTFAC
 40
1.0
  9
$DIMGAP
 40
1.0
  9
$LUNITS
 70
     2
  9
$LUPREC
 70
     4
  9
$SKETCHINC
 40
0.1
  9
$FILLETRAD
 40
0.0
  9
$AUNITS
 70
     0
  9
$AUPREC
 70
     0
  9
$MENU
  1
.
  9
$ELEVATION
 40
0.0
  9
$PELEVATION
 40
0.0
  9
$THICKNESS
 40
0.0
  9
$LIMCHECK
 70
     0
  9
$BLIPMODE
 70
     0
  9
$CHAMFERA
 40
0.0
  9
$CHAMFERB
 40
0.0
  9
$SKPOLY
 70
     0
  9
$TDCREATE
 40
2455699.5800063428
  9
$TDUPDATE
 40
2455699.6086339122
  9
$TDINDWG
 40
0.0058192361
  9
$TDUSRTIMER
 40
0.0058190509
  9
$USRTIMER
 70
     1
  9
$ANGBASE
 50
0.0
  9
$ANGDIR
 70
     0
  9
$PDMODE
 70
     0
  9
$PDSIZE
 40
0.0
  9
$PLINEWID
 40
0.0
  9
$COORDS
 70
     1
  9
$SPLFRAME
 70
     0
  9
$SPLINETYPE
 70
     6
  9
$SPLINESEGS
 70
     8
  9
$ATTDIA
 70
     0
  9
$ATTREQ
 70
     1
  9
$HANDLING
 70
     1
  9
$HANDSEED
  5
7FF
  9
$SURFTAB1
 70
     6
  9
$SURFTAB2
 70
     6
  9
$SURFTYPE
 70
     6
  9
$SURFU
 70
     6
  9
$SURFV
 70
     6
  9
$UCSNAME
  2

  9
$UCSORG
 10
0.0
 20
0.0
 30
0.0
  9
$UCSXDIR
 10
1.0
 20
0.0
 30
0.0
  9
$UCSYDIR
 10
0.0
 20
1.0
 30
0.0
  9
$PUCSNAME
  2

  9
$PUCSORG
 10
0.0
 20
0.0
 30
0.0
  9
$PUCSXDIR
 10
1.0
 20
0.0
 30
0.0
  9
$PUCSYDIR
 10
0.0
 20
1.0
 30
0.0
  9
$USERI1
 70
     0
  9
$USERI2
 70
     0
  9
$USERI3
 70
     0
  9
$USERI4
 70
     0
  9
$USERI5
 70
     0
  9
$USERR1
 40
0.0
  9
$USERR2
 40
0.0
  9
$USERR3
 40
0.0
  9
$USERR4
 40
0.0
  9
$USERR5
 40
0.0
  9
$WORLDVIEW
 70
     1
  9
$SHADEDGE
 70
     3
  9
$SHADEDIF
 70
    70
  9
$TILEMODE
 70
     1
  9
$MAXACTVP
 70
    64
  9
$PLIMCHECK
 70
     0
  9
$PEXTMIN
 10
0.0
 20
0.0
 30
0.0
  9
$PEXTMAX
 10
0.0
 20
0.0
 30
0.0
  9
$PLIMMIN
 10
0.0
 20
0.0
  9
$PLIMMAX
 10
12.0
 20
9.0
  9
$UNITMODE
 70
     0
  9
$VISRETAIN
 70
     1
  9
$PLINEGEN
 70
     0
  9
$PSLTSCALE
 70
     1
  0
ENDSEC
  0
SECTION
  2
TABLES
  0
TABLE
  2
VPORT
 70
     2
  0
VPORT
  2
*ACTIVE
 70
     0
 10
0.0
 20
0.0
 11
1.0
 21
1.0
 12
258.51870954730111
 22
192.64652337608899
 13
0.0
 23
0.0
 14
0.5
 24
0.5
 15
0.5
 25
0.5
 16
0.0
 26
0.0
 36
1.0
 17
0.0
 27
0.0
 37
0.0
 40
242.41944110689809
 41
2.0698027314112291
 42
50.0
 43
0.0
 44
0.0
 50
0.0
 51
0.0
 71
     0
 72
  1000
 73
     1
 74
     3
 75
     0
 76
     0
 77
     0
 78
     0
  0
ENDTAB
  0
TABLE
  2
LTYPE
 70
     2
  0
LTYPE
  2
CONTINUOUS
 70
     0
  3
Solid line
 72
    65
 73
     0
 40
0.0
  0
LTYPE
  2
CENTER2
 70
     0
  3
Center (.5x) ___ _ ___ _ ___ _ ___ _ ___ _ ___
 72
    65
 73
     4
 40
28.574999999999999
 49
19.050000000000001
 49
-3.174999999999998
 49
3.174999999999998
 49
-3.174999999999998
  0
ENDTAB
  0
TABLE
  2
LAYER
 70
     3
  0
LAYER
  2
0
 70
     0
 62
     7
  6
CONTINUOUS
  0
LAYER
  2
DEFPOINTS
 70
     0
 62
   142
  6
CONTINUOUS
  0
LAYER
  2
PAGR
 70
     0
 62
     7
  6
CONTINUOUS
  0
ENDTAB
  0
TABLE
  2
STYLE
 70
     4
  0
STYLE
  2
STANDARD
 70
     0
 40
0.0
 41
1.0
 50
0.0
 71
     0
 42
0.2
  3
txt
  4

  0
STYLE
  2
LIETUV2
 70
     0
 40
2.5
 41
1.0
 50
0.0
 71
     0
 42
2.5
  3
txt
  4

  0
STYLE
  2
ISO_PROPORTIONAL
 70
     0
 40
0.0
 41
1.0
 50
0.0
 71
     0
 42
40.0
  3
romanc.shx
  4

  0
STYLE
  2
GOST
 70
     0
 40
0.0
 41
0.8
 50
0.0
 71
     0
 42
3.5
  3
litc.shx
  4

  0
ENDTAB
  0
TABLE
  2
VIEW
 70
     0
  0
ENDTAB
  0
TABLE
  2
UCS
 70
     0
  0
ENDTAB
  0
TABLE
  2
APPID
 70
     1
  0
APPID
  2
ACAD
 70
     0
  0
ENDTAB
  0
TABLE
  2
DIMSTYLE
 70
     6
  0
DIMSTYLE
  2
STANDARD
 70
     0
  3

  4

  5

  6

  7

 40
1.0
 41
0.18
 42
0.0625
 43
0.38
 44
0.18
 45
0.0
 46
0.0
 47
0.0
 48
0.0
140
0.18
141
0.09
142
0.0
143
25.399999999999999
144
1.0
145
0.0
146
1.0
147
0.09
 71
     0
 72
     0
 73
     1
 74
     1
 75
     0
 76
     0
 77
     0
 78
     0
170
     0
171
     2
172
     0
173
     0
174
     0
175
     0
176
     0
177
     0
178
     0
  0
DIMSTYLE
  2
ISO-25
 70
     0
  3

  4

  5

  6

  7

 40
1.0
 41
5.0
 42
0.625
 43
3.75
 44
1.25
 45
0.0
 46
0.0
 47
0.0
 48
0.0
140
2.5
141
1.5
142
0.0
143
0.03937007874016
144
1.0
145
0.0
146
1.0
147
0.625
 71
     0
 72
     0
 73
     0
 74
     1
 75
     0
 76
     0
 77
     1
 78
     8
170
     0
171
     3
172
     1
173
     0
174
     0
175
     0
176
     0
177
     0
178
     0
  0
DIMSTYLE
  2
COPY_OF_STANDARD
 70
     0
  3

  4

  5

  6

  7

 40
1.0
 41
3.7299999999999991
 42
0.0
 43
0.0
 44
1.0
 45
0.1
 46
0.0
 47
0.0
 48
0.000000001
140
3.5
141
0.09
142
0.0
143
25.399999999999999
144
1.0
145
0.0
146
1.0
147
1.0
 71
     0
 72
     0
 73
     0
 74
     1
 75
     0
 76
     0
 77
     1
 78
     8
170
     0
171
     2
172
     0
173
     0
174
     0
175
     1
176
     0
177
     0
178
     0
  0
DIMSTYLE
  2
COPY_OF_ISO-25
 70
     0
  3

  4

  5

  6

  7

 40
1.0
 41
3.5
 42
0.0
 43
7.0
 44
1.25
 45
0.0
 46
0.0
 47
0.0
 48
0.000000001
140
3.5
141
3.0
142
0.0
143
0.03937007874016
144
1.0
145
0.0
146
1.0
147
1.0
 71
     0
 72
     0
 73
     0
 74
     1
 75
     0
 76
     0
 77
     1
 78
     8
170
     0
171
     3
172
     1
173
     0
174
     0
175
     0
176
   256
177
   256
178
   256
  0
DIMSTYLE
  2
GOST
 70
     0
  3

  4

  5

  6

  7

 40
0.0
 41
3.0
 42
0.0
 43
8.0
 44
1.25
 45
0.0
 46
0.0
 47
0.0
 48
0.0
140
3.0
141
5.0
142
0.0
143
25.399999999999999
144
1.0
145
0.0
146
1.0
147
0.625
 71
     0
 72
     0
 73
     0
 74
     1
 75
     0
 76
     0
 77
     1
 78
     8
170
     0
171
     2
172
     1
173
     0
174
     0
175
     0
176
     0
177
     0
178
     0
  0
DIMSTYLE
  2
ISO-25M
 70
     0
  3

  4

  5

  6

  7

 40
2.0
 41
2.5
 42
0.0
 43
3.75
 44
1.25
 45
0.0
 46
0.0
 47
0.0
 48
0.000000001
140
2.5
141
2.5
142
0.0
143
0.03937007874016
144
1.0
145
0.0
146
1.0
147
0.625
 71
     0
 72
     0
 73
     0
 74
     0
 75
     0
 76
     0
 77
     1
 78
     8
170
     0
171
     3
172
     1
173
     0
174
     0
175
     0
176
     0
177
     0
178
     0
  0
ENDTAB
  0
ENDSEC
  0
SECTION
  2
BLOCKS
  0
BLOCK
  8
0
  2
$MODEL_SPACE
 70
     0
 10
0.0
 20
0.0
 30
0.0
  3
$MODEL_SPACE
  1

  0
ENDBLK
  5
72F
  8
0
  0
BLOCK
 67
     1
  8
0
  2
$PAPER_SPACE
 70
     0
 10
0.0
 20
0.0
 30
0.0
  3
$PAPER_SPACE
  1

  0
ENDBLK
  5
72B
 67
     1
  8
0
  0
BLOCK
  8
0
  2
*D2
 70
     1
 10
0.0
 20
0.0
 30
0.0
  3
*D2
  1

  0
LINE
  5
5C2
  8
0
 10
227.6810401621517
 20
192.64759449226551
 30
0.0
 11
227.6810401621517
 21
77.586075888555257
 31
0.0
  0
LINE
  5
5C3
  8
0
 10
435.68104016215523
 20
192.64759449226551
 30
0.0
 11
435.68104016215523
 21
77.586075888555257
 31
0.0
  0
LINE
  5
5C4
  8
0
 10
231.1810401621517
 20
78.836075888555257
 30
0.0
 11
432.18104016215523
 21
78.836075888555257
 31
0.0
  0
SOLID
  5
5C5
  8
0
 10
231.1810401621517
 20
79.419409221888586
 30
0.0
 11
231.1810401621517
 21
78.252742555221914
 31
0.0
 12
227.6810401621517
 22
78.836075888555257
 32
0.0
 13
227.6810401621517
 23
78.836075888555257
 33
0.0
  0
SOLID
  5
5C6
  8
0
 10
432.18104016215523
 20
79.419409221888586
 30
0.0
 11
432.18104016215523
 21
78.252742555221914
 31
0.0
 12
435.68104016215523
 22
78.836075888555257
 32
0.0
 13
435.68104016215523
 23
78.836075888555257
 33
0.0
  0
INSERT
  5
5C7
  8
0
  2
*U3
 10
0.0
 20
0.0
 30
0.0
  0
POINT
  5
5C8
  8
DEFPOINTS
 62
     0
 10
227.6810401621517
 20
192.64759449226551
 30
0.0
  0
POINT
  5
5C9
  8
DEFPOINTS
 62
     0
 10
435.68104016215523
 20
192.64759449226551
 30
0.0
  0
POINT
  5
5CA
  8
DEFPOINTS
 62
     0
 10
435.68104016215523
 20
78.836075888555257
 30
0.0
  0
ENDBLK
  5
58D
  8
0
  0
BLOCK
  8
0
  2
*U3
 70
     1
 10
0.0
 20
0.0
 30
0.0
  3
*U3
  1

  0
TEXT
  5
6F1
  8
0
 10
324.53818301929641
 20
79.836075888555257
 30
0.0
 40
5.0
  1
208
  7
ISO_PROPORTIONAL
  0
ENDBLK
  5
6F3
  8
0
  0
BLOCK
  8
0
  2
*D4
 70
     1
 10
0.0
 20
0.0
 30
0.0
  3
*D4
  1

  0
LINE
  5
5E2
  8
0
 10
80.995142178054422
 20
99.295748944563698
 30
0.0
 11
80.995142178054422
 21
71.704757739158808
 31
0.0
  0
LINE
  5
5E3
  8
0
 10
172.99514217805441
 20
99.295748944564494
 30
0.0
 11
172.99514217805441
 21
71.704757739158808
 31
0.0
  0
LINE
  5
5E4
  8
0
 10
84.495142178054408
 20
72.954757739158808
 30
0.0
 11
169.49514217805441
 21
72.954757739158808
 31
0.0
  0
SOLID
  5
5E5
  8
0
 10
84.495142178054408
 20
73.538091072492136
 30
0.0
 11
84.495142178054408
 21
72.371424405825479
 31
0.0
 12
80.995142178054422
 22
72.954757739158808
 32
0.0
 13
80.995142178054422
 23
72.954757739158808
 33
0.0
  0
SOLID
  5
5E6
  8
0
 10
169.49514217805441
 20
73.538091072492136
 30
0.0
 11
169.49514217805441
 21
72.371424405825479
 31
0.0
 12
172.99514217805441
 22
72.954757739158808
 32
0.0
 13
172.99514217805441
 23
72.954757739158808
 33
0.0
  0
INSERT
  5
5E7
  8
0
  2
*U5
 10
0.0
 20
0.0
 30
0.0
  0
POINT
  5
5E8
  8
DEFPOINTS
 62
     0
 10
80.995142178054422
 20
99.295748944563698
 30
0.0
  0
POINT
  5
5E9
  8
DEFPOINTS
 62
     0
 10
172.99514217805441
 20
99.295748944564494
 30
0.0
  0
POINT
  5
5EA
  8
DEFPOINTS
 62
     0
 10
172.99514217805441
 20
72.954757739158808
 30
0.0
  0
ENDBLK
  5
5E0
  8
0
  0
BLOCK
  8
0
  2
*U5
 70
     1
 10
0.0
 20
0.0
 30
0.0
  3
*U5
  1

  0
TEXT
  5
6FB
  8
0
 10
123.66180884472099
 20
73.954757739158794
 30
0.0
 40
3.5
  1
92
  7
ISO_PROPORTIONAL
  0
ENDBLK
  5
6FD
  8
0
  0
BLOCK
  8
0
  2
*D6
 70
     1
 10
0.0
 20
0.0
 30
0.0
  3
*D6
  1

  0
LINE
  5
604
  8
0
 10
80.995142178053555
 20
93.147594492261902
 30
0.0
 11
55.906904728796462
 21
93.147594492261902
 31
0.0
  0
LINE
  5
605
  8
0
 10
80.995142178053555
 20
292.14759449226739
 30
0.0
 11
55.906904728796512
 21
292.14759449226739
 31
0.0
  0
LINE
  5
606
  8
0
 10
57.156904728796462
 20
96.647594492261902
 30
0.0
 11
57.156904728796512
 21
288.64759449226727
 31
0.0
  0
SOLID
  5
607
  8
0
 10
56.573571395463127
 20
96.647594492261902
 30
0.0
 11
57.740238062129791
 21
96.647594492261902
 31
0.0
 12
57.156904728796462
 22
93.147594492261902
 32
0.0
 13
57.156904728796462
 23
93.147594492261902
 33
0.0
  0
SOLID
  5
608
  8
0
 10
56.573571395463162
 20
288.64759449226727
 30
0.0
 11
57.740238062129841
 21
288.64759449226727
 31
0.0
 12
57.156904728796512
 22
292.14759449226739
 32
0.0
 13
57.156904728796512
 23
292.14759449226739
 33
0.0
  0
INSERT
  5
609
  8
0
  2
*U7
 10
0.0
 20
0.0
 30
0.0
  0
POINT
  5
60A
  8
DEFPOINTS
 62
     0
 10
80.995142178053555
 20
93.147594492261902
 30
0.0
  0
POINT
  5
60B
  8
DEFPOINTS
 62
     0
 10
80.995142178053555
 20
292.14759449226739
 30
0.0
  0
POINT
  5
60C
  8
DEFPOINTS
 62
     0
 10
57.156904728796512
 20
292.14759449226739
 30
0.0
  0
ENDBLK
  5
5F8
  8
0
  0
BLOCK
  8
0
  2
*U7
 70
     1
 10
0.0
 20
0.0
 30
0.0
  3
*U7
  1

  0
TEXT
  5
6FF
  8
0
 10
56.156904728796462
 20
187.96336927691169
 30
0.0
 40
3.5
  1
199
 50
90.0
  7
ISO_PROPORTIONAL
  0
ENDBLK
  5
701
  8
0
  0
BLOCK
  8
0
  2
*D8
 70
     1
 10
0.0
 20
0.0
 30
0.0
  3
*D8
  1

  0
LINE
  5
620
  8
0
 10
420.68209307693292
 20
284.71758147617282
 30
0.0
 11
407.1820930769328
 21
284.71758147617282
 31
0.0
  0
LINE
  5
621
  8
0
 10
407.1820930769328
 20
284.71758147617282
 30
0.0
 11
398.5783776845683
 21
274.22575475844047
 31
0.0
  0
LINE
  5
622
  8
0
 10
264.7837026397425
 20
111.06943422610711
 30
0.0
 11
262.56435968876201
 21
108.3630497623007
 31
0.0
  0
INSERT
  5
623
  8
0
  2
*U9
 10
0.0
 20
0.0
 30
0.0
  0
LINE
  5
624
  8
0
 10
267.00304559072288
 20
113.77581868991361
 30
0.0
 11
396.35903473358781
 21
271.51937029463397
 31
0.0
  0
SOLID
  5
625
  8
0
 10
264.33263856244139
 20
111.4393247179372
 30
0.0
 11
265.23476671704361
 21
110.699543734277
 31
0.0
 12
267.00304559072288
 22
113.77581868991361
 32
0.0
 13
267.00304559072288
 23
113.77581868991361
 33
0.0
  0
SOLID
  5
626
  8
0
 10
398.12731360726713
 20
274.59564525027059
 30
0.0
 11
399.02944176186929
 21
273.85586426661041
 31
0.0
 12
396.35903473358781
 22
271.51937029463397
 32
0.0
 13
396.35903473358781
 23
271.51937029463397
 33
0.0
  0
POINT
  5
627
  8
DEFPOINTS
 62
     0
 10
396.35903473358781
 20
271.51937029463397
 30
0.0
  0
POINT
  5
628
  8
DEFPOINTS
 62
     0
 10
267.00304559072288
 20
113.77581868991361
 30
0.0
  0
ENDBLK
  5
61E
  8
0
  0
BLOCK
  8
0
  2
*U9
 70
     1
 10
0.0
 20
0.0
 30
0.0
  3
*U9
  1

  0
TEXT
  5
70B
  8
0
 10
407.84875974359937
 20
285.71758147617288
 30
0.0
 40
3.5
  1
\U+2205204
  7
ISO_PROPORTIONAL
  0
ENDBLK
  5
70D
  8
0
  0
BLOCK
  8
0
  2
*U10
 70
     1
 10
0.0
 20
0.0
 30
0.0
  3
*U10
  1

  0
TEXT
  5
641
  8
0
 10
-6505.6338280494392
 20
15444.653609950699
 30
0.0
 40
5.0
  1
208
  7
ISO_PROPORTIONAL
  0
ENDBLK
  5
643
  8
0
  0
BLOCK
  8
0
  2
*U11
 70
     1
 10
0.0
 20
0.0
 30
0.0
  3
*U11
  1

  0
TEXT
  5
645
  8
0
 10
-6712.6412438906809
 20
15426.773835942829
 30
0.0
 40
5.0
  1
92
  0
TEXT
  5
646
  8
0
 10
-6702.6412438906809
 20
15426.773835942829
 30
0.0
 40
3.571499999999999
  1
-1.0
  0
ENDBLK
  5
648
  8
0
  0
BLOCK
  8
0
  2
*U12
 70
     1
 10
0.0
 20
0.0
 30
0.0
  3
*U12
  1

  0
TEXT
  5
64A
  8
0
 10
-6414.9835401239034
 20
15639.129299182319
 30
0.0
 40
5.0
  1
\U+2205
  0
TEXT
  5
64B
  8
0
 10
-6409.9835401239015
 20
15639.129299182319
 30
0.0
 40
5.0
  1
202
  0
TEXT
  5
64C
  8
0
 10
-6395.8168734572337
 20
15639.129299182319
 30
0.0
 40
3.75
  1
-1.0
  0
ENDBLK
  5
64E
  8
0
  0
BLOCK
  8
0
  2
*U13
 70
     1
 10
0.0
 20
0.0
 30
0.0
  3
*U13
  1

  0
TEXT
  5
650
  8
0
 10
-6724.0116238501241
 20
15645.631981787979
 30
0.0
 40
5.0
  1
6
  0
ENDBLK
  5
652
  8
0
  0
BLOCK
  8
0
  2
*U14
 70
     1
 10
0.0
 20
0.0
 30
0.0
  3
*U14
  1

  0
TEXT
  5
654
  8
0
 10
-6691.4268688906832
 20
15624.73693162472
 30
0.0
 40
5.0
  1
10.5
  0
ENDBLK
  5
656
  8
0
  0
BLOCK
  8
0
  2
*U15
 70
     1
 10
0.0
 20
0.0
 30
0.0
  3
*U15
  1

  0
TEXT
  5
658
  8
0
 10
-6764.9462417538398
 20
15546.54846188774
 30
0.0
 40
5.0
  1
199
 50
90.0
  0
TEXT
  5
659
  8
0
 10
-6768.9462417538416
 20
15559.88179522107
 30
0.0
 40
3.0
  1
+0.3
 50
90.0
  0
TEXT
  5
65A
  8
0
 10
-6764.9462417538398
 20
15559.88179522107
 30
0.0
 40
3.0
  1
-0.4
 50
90.0
  0
ENDBLK
  5
65C
  8
0
  0
BLOCK
  8
0
  2
*U16
 70
     1
 10
0.0
 20
0.0
 30
0.0
  3
*U16
  1

  0
TEXT
  5
6DE
  8
0
 10
117.53076717805349
 20
61.956301880690859
 30
0.0
 40
5.0
  1
92
  0
TEXT
  5
6DF
  8
0
 10
127.53076717805359
 20
61.956301880690859
 30
0.0
 40
3.571499999999999
  1
-1.0
  0
ENDBLK
  5
6E1
  8
0
  0
BLOCK
  8
0
  2
*U17
 70
     1
 10
0.0
 20
0.0
 30
0.0
  3
*U17
  1

  0
TEXT
  5
6E3
  8
0
 10
106.16038721861111
 20
280.81444772583711
 30
0.0
 40
5.0
  1
6
  0
ENDBLK
  5
6E5
  8
0
  0
BLOCK
  8
0
  2
*U18
 70
     1
 10
0.0
 20
0.0
 30
0.0
  3
*U18
  1

  0
TEXT
  5
6E7
  8
0
 10
139.9951421780535
 20
259.91939756257642
 30
0.0
 40
5.0
  1
10.5
  0
ENDBLK
  5
6E9
  8
0
  0
BLOCK
  8
0
  2
*U19
 70
     1
 10
0.0
 20
0.0
 30
0.0
  3
*U19
  1

  0
TEXT
  5
6EB
  8
0
 10
65.225769314896894
 20
181.7309278255951
 30
0.0
 40
5.0
  1
199
 50
90.0
  0
TEXT
  5
6EC
  8
0
 10
61.225769314896901
 20
195.0642611589285
 30
0.0
 40
3.0
  1
+0.3
 50
90.0
  0
TEXT
  5
6ED
  8
0
 10
65.225769314896894
 20
195.0642611589285
 30
0.0
 40
3.0
  1
-0.4
 50
90.0
  0
ENDBLK
  5
6EF
  8
0
  0
BLOCK
  8
0
  2
*U20
 70
     1
 10
0.0
 20
0.0
 30
0.0
  3
*U20
  1

  0
TEXT
  5
6F5
  8
0
 10
415.18847094483209
 20
274.31176512017697
 30
0.0
 40
5.0
  1
\U+2205
  0
TEXT
  5
6F6
  8
0
 10
420.18847094483209
 20
274.31176512017697
 30
0.0
 40
5.0
  1
202
  0
TEXT
  5
6F7
  8
0
 10
434.35513761149872
 20
274.31176512017697
 30
0.0
 40
3.75
  1
-1.0
  0
ENDBLK
  5
6F9
  8
0
  0
ENDSEC
  0
SECTION
  2
ENTITIES
  0
POLYLINE
  5
31B
  8
0
 66
     1
 10
0.0
 20
0.0
 30
0.0
  0
VERTEX
  5
76F
  8
0
 10
236.30938768869899
 20
181.68183394033039
 30
0.0
  0
VERTEX
  5
770
  8
0
 10
427.05269263560962
 20
181.68183394033039
 30
0.0
  0
SEQEND
  5
771
  8
0
  0
POLYLINE
  5
31C
  8
0
 66
     1
 10
0.0
 20
0.0
 30
0.0
  0
VERTEX
  5
772
  8
0
 10
236.30938768869899
 20
203.61335504419341
 30
0.0
  0
VERTEX
  5
773
  8
0
 10
427.05269263560962
 20
203.61335504419341
 30
0.0
  0
SEQEND
  5
774
  8
0
  0
LINE
  5
323
  8
0
  6
CENTER2
 62
     1
 10
117.2451421780535
 20
189.64759449225829
 30
0.0
 11
117.2451421780535
 21
195.64759449225821
 31
0.0
  0
LINE
  5
324
  8
0
 10
115.4951421780535
 20
192.64759449225821
 30
0.0
 11
123.4951421780535
 21
192.6475944922546
 31
0.0
  0
LINE
  5
325
  8
0
 10
115.4951421780535
 20
192.64759449225821
 30
0.0
 11
123.4951421780535
 21
192.6475944922546
 31
0.0
  0
LINE
  5
326
  8
0
  6
CENTER2
 62
     1
 10
114.4951421780526
 20
192.64759449226
 30
0.0
 11
120.4951421780526
 21
192.64759449226
 31
0.0
  0
LINE
  5
327
  8
0
  6
CENTER2
 62
     1
 10
117.2451421780526
 20
189.64759449226011
 30
0.0
 11
117.2451421780526
 21
195.64759449226
 31
0.0
  0
POLYLINE
  5
328
  8
0
 66
     1
 10
0.0
 20
0.0
 30
0.0
 70
     1
  0
VERTEX
  5
775
  8
0
 10
115.7451421780526
 20
192.64759449226
 30
0.0
 42
1.0
  0
VERTEX
  5
776
  8
0
 10
118.7451421780526
 20
192.64759449226
 30
0.0
 42
1.0
  0
SEQEND
  5
777
  8
0
  0
LINE
  5
329
  8
0
 10
114.4951421780526
 20
192.64759449226
 30
0.0
 11
120.4951421780526
 21
192.64759449226
 31
0.0
  0
POLYLINE
  5
32B
  8
0
  6
CENTER2
 62
     7
 66
     1
 10
0.0
 20
0.0
 30
0.0
  0
VERTEX
  5
778
  8
0
  6
CENTER2
 62
     7
 10
114.4563448189121
 20
192.6475944922619
 30
0.0
  0
VERTEX
  5
779
  8
0
  6
CENTER2
 62
     7
 10
120.54445925163159
 20
192.6475944922619
 30
0.0
  0
SEQEND
  5
77A
  8
0
  6
CENTER2
 62
     7
  0
POLYLINE
  5
32C
  8
0
  6
CENTER2
 62
     7
 66
     1
 10
0.0
 20
0.0
 30
0.0
  0
VERTEX
  5
77B
  8
0
  6
CENTER2
 62
     7
 10
117.2451421780526
 20
194.47672476333321
 30
0.0
  0
VERTEX
  5
77C
  8
0
  6
CENTER2
 62
     7
 10
117.2451421780526
 20
190.38967172639011
 30
0.0
  0
SEQEND
  5
77D
  8
0
  6
CENTER2
 62
     7
  0
POLYLINE
  5
32D
  8
0
  6
CENTER2
 62
     7
 66
     1
 10
0.0
 20
0.0
 30
0.0
  0
VERTEX
  5
77E
  8
0
  6
CENTER2
 62
     7
 10
117.2451421780526
 20
190.8184642211906
 30
0.0
  0
VERTEX
  5
77F
  8
0
  6
CENTER2
 62
     7
 10
117.2451421780526
 20
194.9055172581335
 30
0.0
  0
SEQEND
  5
780
  8
0
  6
CENTER2
 62
     7
  0
POLYLINE
  5
32E
  8
0
  6
CENTER2
 62
     7
 66
     1
 10
0.0
 20
0.0
 30
0.0
  0
VERTEX
  5
781
  8
0
  6
CENTER2
 62
     7
 10
114.4563448189121
 20
192.6475944922619
 30
0.0
  0
VERTEX
  5
782
  8
0
  6
CENTER2
 62
     7
 10
119.1256497406532
 20
192.6475944922619
 30
0.0
  0
SEQEND
  5
783
  8
0
  6
CENTER2
 62
     7
  0
POLYLINE
  5
332
  8
0
  6
CENTER2
 62
     7
 66
     1
 10
0.0
 20
0.0
 30
0.0
  0
VERTEX
  5
784
  8
0
  6
CENTER2
 62
     7
 10
114.4563448189121
 20
192.6475944922619
 30
0.0
  0
VERTEX
  5
785
  8
0
  6
CENTER2
 62
     7
 10
119.1256497406532
 20
192.6475944922619
 30
0.0
  0
SEQEND
  5
786
  8
0
  6
CENTER2
 62
     7
  0
POLYLINE
  5
333
  8
0
  6
CENTER2
 62
     7
 66
     1
 10
0.0
 20
0.0
 30
0.0
  0
VERTEX
  5
787
  8
0
  6
CENTER2
 62
     7
 10
117.2451421780526
 20
194.47672476333321
 30
0.0
  0
VERTEX
  5
788
  8
0
  6
CENTER2
 62
     7
 10
117.2451421780526
 20
190.38967172639011
 30
0.0
  0
SEQEND
  5
789
  8
0
  6
CENTER2
 62
     7
  0
POLYLINE
  5
334
  8
0
  6
CENTER2
 62
     7
 66
     1
 10
0.0
 20
0.0
 30
0.0
  0
VERTEX
  5
78A
  8
0
  6
CENTER2
 62
     7
 10
117.2451421780526
 20
190.8184642211906
 30
0.0
  0
VERTEX
  5
78B
  8
0
  6
CENTER2
 62
     7
 10
117.2451421780526
 20
194.9055172581335
 30
0.0
  0
SEQEND
  5
78C
  8
0
  6
CENTER2
 62
     7
  0
POLYLINE
  5
335
  8
0
  6
CENTER2
 62
     7
 66
     1
 10
0.0
 20
0.0
 30
0.0
  0
VERTEX
  5
78D
  8
0
  6
CENTER2
 62
     7
 10
114.4563448189121
 20
192.6475944922619
 30
0.0
  0
VERTEX
  5
78E
  8
0
  6
CENTER2
 62
     7
 10
120.54445925163159
 20
192.6475944922619
 30
0.0
  0
SEQEND
  5
78F
  8
0
  6
CENTER2
 62
     7
  0
LINE
  5
346
  8
0
 10
122.4951421780526
 20
191.38367202628751
 30
0.0
 11
122.4951421780526
 21
181.74766018912641
 31
0.0
  0
LINE
  5
347
  8
0
  6
CENTER2
 62
     1
 10
117.2451421780535
 20
189.64759449226011
 30
0.0
 11
117.2451421780535
 21
195.64759449226
 31
0.0
  0
LINE
  5
34A
  8
0
 10
435.68104016215523
 20
194.14759449226551
 30
0.0
 11
435.68104016215523
 21
191.14759449226551
 31
0.0
  0
LINE
  5
34C
  8
0
 10
172.99514217805361
 20
292.14759449226369
 30
0.0
 11
172.99514217805361
 21
291.44759449226308
 31
0.0
  0
LINE
  5
34D
  8
0
 10
138.59406515251999
 20
292.14759449226369
 30
0.0
 11
158.9940651525196
 21
292.14759449226369
 31
0.0
  0
LINE
  5
34E
  8
0
 10
137.9951421780535
 20
292.14759449226551
 30
0.0
 11
158.9940651525196
 21
292.14759449226551
 31
0.0
  0
LINE
  5
351
  8
0
 10
135.49514217805361
 20
293.94759449226478
 30
0.0
 11
135.49514217805361
 21
287.94759449226478
 31
0.0
  0
POLYLINE
  5
352
  8
0
 66
     1
 10
0.0
 20
0.0
 30
0.0
  0
VERTEX
  5
790
  8
0
 10
137.9951421780535
 20
292.14759449226551
 30
0.0
 42
-0.2819402118154727
  0
VERTEX
  5
791
  8
0
 10
137.10428534497009
 20
292.69331032684897
 30
0.0
 42
-0.2819402118154727
  0
SEQEND
  5
792
  8
0
  0
LINE
  5
354
  8
0
 10
137.10428534497009
 20
292.69331032684721
 30
0.0
 11
136.3859990111371
 21
294.10187865768393
 31
0.0
  0
POLYLINE
  5
355
  8
0
 66
     1
 10
0.0
 20
0.0
 30
0.0
  0
VERTEX
  5
793
  8
0
 10
135.49514217805361
 20
294.64759449226551
 30
0.0
 42
-0.2819402118154727
  0
VERTEX
  5
794
  8
0
 10
136.3859990111371
 20
294.10187865768211
 30
0.0
 42
-0.2819402118154727
  0
SEQEND
  5
795
  8
0
  0
LINE
  5
358
  8
0
 10
172.99514217805361
 20
292.14759449226739
 30
0.0
 11
172.99514217805361
 21
291.4475944922666
 31
0.0
  0
LINE
  5
359
  8
0
 10
80.995142178053555
 20
291.44759449226308
 30
0.0
 11
80.995142178053555
 21
292.14759449226369
 31
0.0
  0
LINE
  5
35A
  8
0
 10
119.39621920358699
 20
292.14759449226369
 30
0.0
 11
94.996219203587543
 21
292.14759449226369
 31
0.0
  0
LINE
  5
35B
  8
0
 10
80.995142178053555
 20
292.14759449226369
 30
0.0
 11
86.996219203583891
 21
292.14759449226369
 31
0.0
  0
POLYLINE
  5
35C
  8
0
 66
     1
 10
0.0
 20
0.0
 30
0.0
  0
VERTEX
  5
796
  8
0
 10
122.4951421780535
 20
293.94759449226831
 30
0.0
  0
VERTEX
  5
797
  8
0
 10
122.49514217805449
 20
287.94759449226478
 30
0.0
  0
SEQEND
  5
798
  8
0
  0
LINE
  5
35D
  8
0
 10
80.995142178053555
 20
291.4475944922666
 30
0.0
 11
80.995142178053555
 21
292.14759449226739
 31
0.0
  0
LINE
  5
35F
  8
0
 10
80.995142178053555
 20
292.14759449226551
 30
0.0
 11
86.996219203583891
 21
292.14759449226551
 31
0.0
  0
POLYLINE
  5
361
  8
0
 66
     1
 10
0.0
 20
0.0
 30
0.0
  0
VERTEX
  5
799
  8
0
 10
122.4951421780535
 20
294.64759449226551
 30
0.0
 42
0.2819402118154727
  0
VERTEX
  5
79A
  8
0
 10
121.60428534496999
 20
294.10187865768211
 30
0.0
 42
0.2819402118154727
  0
SEQEND
  5
79B
  8
0
  0
POLYLINE
  5
362
  8
0
 66
     1
 10
0.0
 20
0.0
 30
0.0
  0
VERTEX
  5
79C
  8
0
 10
119.9951421780536
 20
292.14759449226551
 30
0.0
 42
0.2819402118154727
  0
VERTEX
  5
79D
  8
0
 10
120.885999011137
 20
292.69331032684897
 30
0.0
 42
0.2819402118154727
  0
SEQEND
  5
79E
  8
0
  0
LINE
  5
363
  8
0
 10
120.885999011137
 20
292.69331032684721
 30
0.0
 11
121.60428534496999
 21
294.10187865768393
 31
0.0
  0
LINE
  5
36A
  8
0
 10
122.4951421780535
 20
294.64759449226551
 30
0.0
 11
135.49514217805361
 21
294.64759449226551
 31
0.0
  0
LINE
  5
36B
  8
0
 10
172.99514217805361
 20
292.14759449226369
 30
0.0
 11
172.99514217805361
 21
291.44759449226308
 31
0.0
  0
LINE
  5
36C
  8
0
 10
138.59406515251999
 20
292.14759449226369
 30
0.0
 11
158.9940651525196
 21
292.14759449226369
 31
0.0
  0
LINE
  5
36D
  8
0
 10
80.995142178053555
 20
291.44759449226308
 30
0.0
 11
80.995142178053555
 21
292.14759449226369
 31
0.0
  0
LINE
  5
36E
  8
0
 10
119.39621920358699
 20
292.14759449226369
 30
0.0
 11
94.996219203587543
 21
292.14759449226369
 31
0.0
  0
LINE
  5
36F
  8
0
 10
80.995142178053555
 20
292.14759449226369
 30
0.0
 11
86.996219203583891
 21
292.14759449226369
 31
0.0
  0
POLYLINE
  5
376
  8
0
 66
     1
 10
0.0
 20
0.0
 30
0.0
  0
VERTEX
  5
79F
  8
0
 10
92.879640593246435
 20
290.93784840287083
 30
0.0
 42
-0.313394503136401
  0
VERTEX
  5
7A0
  8
0
 10
89.112797813924985
 20
290.93784840287083
 30
0.0
 42
-0.313394503136401
  0
SEQEND
  5
7A1
  8
0
  0
LINE
  5
377
  8
0
 10
94.311338698254275
 20
291.93295670658478
 30
0.0
 11
92.879640593246435
 21
290.93784840287083
 31
0.0
  0
LINE
  5
378
  8
0
 10
87.681099708917102
 20
291.93295670658478
 30
0.0
 11
89.112797813924985
 21
290.93784840287083
 31
0.0
  0
POLYLINE
  5
379
  8
0
 66
     1
 10
0.0
 20
0.0
 30
0.0
  0
VERTEX
  5
7A2
  8
0
 10
86.996219203585724
 20
292.14759449226187
 30
0.0
 42
-0.1530277928365761
  0
VERTEX
  5
7A3
  8
0
 10
87.681099708917102
 20
291.93295670658478
 30
0.0
 42
-0.1530277928365761
  0
SEQEND
  5
7A4
  8
0
  0
POLYLINE
  5
37A
  8
0
 66
     1
 10
0.0
 20
0.0
 30
0.0
  0
VERTEX
  5
7A5
  8
0
 10
94.996219203585724
 20
292.14759449226187
 30
0.0
 42
0.1530277928365761
  0
VERTEX
  5
7A6
  8
0
 10
94.311338698254275
 20
291.93295670658478
 30
0.0
 42
0.1530277928365761
  0
SEQEND
  5
7A7
  8
0
  0
POLYLINE
  5
37B
  8
0
 66
     1
 10
0.0
 20
0.0
 30
0.0
  0
VERTEX
  5
7A8
  8
0
 10
158.99406515252139
 20
292.14759449226187
 30
0.0
 42
-0.1530277928365761
  0
VERTEX
  5
7A9
  8
0
 10
159.67894565785281
 20
291.93295670658478
 30
0.0
 42
-0.1530277928365761
  0
SEQEND
  5
7AA
  8
0
  0
POLYLINE
  5
37C
  8
0
 66
     1
 10
0.0
 20
0.0
 30
0.0
  0
VERTEX
  5
7AB
  8
0
 10
166.99406515252139
 20
292.14759449226187
 30
0.0
 42
0.1530277928365761
  0
VERTEX
  5
7AC
  8
0
 10
166.30918464718999
 20
291.93295670658478
 30
0.0
 42
0.1530277928365761
  0
SEQEND
  5
7AD
  8
0
  0
LINE
  5
37D
  8
0
 10
166.30918464718999
 20
291.93295670658478
 30
0.0
 11
164.87748654218211
 21
290.93784840287083
 31
0.0
  0
LINE
  5
37E
  8
0
 10
159.67894565785281
 20
291.93295670658478
 30
0.0
 11
161.11064376286069
 21
290.93784840287083
 31
0.0
  0
POLYLINE
  5
37F
  8
0
 66
     1
 10
0.0
 20
0.0
 30
0.0
  0
VERTEX
  5
7AE
  8
0
 10
161.11064376286069
 20
290.93784840287083
 30
0.0
 42
0.313394503136401
  0
VERTEX
  5
7AF
  8
0
 10
164.87748654218211
 20
290.93784840287083
 30
0.0
 42
0.313394503136401
  0
SEQEND
  5
7B0
  8
0
  0
LINE
  5
385
  8
0
 10
94.996219203587543
 20
292.14759449226369
 30
0.0
 11
116.9951421780526
 21
292.14759449226369
 31
0.0
  0
LINE
  5
386
  8
0
 10
86.996219203583891
 20
292.14759449226369
 30
0.0
 11
82.995142178053584
 21
292.14759449226369
 31
0.0
  0
LINE
  5
387
  8
0
 10
94.996219203587543
 20
292.14759449226551
 30
0.0
 11
119.9951421780536
 21
292.14759449226551
 31
0.0
  0
LINE
  5
388
  8
0
 10
94.996219203587543
 20
292.14759449226369
 30
0.0
 11
116.9951421780526
 21
292.14759449226369
 31
0.0
  0
LINE
  5
38A
  8
0
 10
86.996219203583891
 20
292.14759449226369
 30
0.0
 11
82.995142178053584
 21
292.14759449226369
 31
0.0
  0
LINE
  5
38B
  8
0
 10
166.99406515252321
 20
292.14759449226369
 30
0.0
 11
172.99514217805361
 21
292.14759449226369
 31
0.0
  0
LINE
  5
38C
  8
0
 10
166.99406515252321
 20
292.14759449226551
 30
0.0
 11
172.99514217805361
 21
292.14759449226551
 31
0.0
  0
LINE
  5
38D
  8
0
 10
166.99406515252321
 20
292.14759449226369
 30
0.0
 11
172.99514217805361
 21
292.14759449226369
 31
0.0
  0
POLYLINE
  5
390
  8
0
 66
     1
 10
0.0
 20
0.0
 30
0.0
  0
VERTEX
  5
7B1
  8
0
 10
235.70625180604591
 20
190.4475944922612
 30
0.0
 42
0.9783590964473587
  0
VERTEX
  5
7B2
  8
0
 10
427.66020456777022
 20
190.64759449226011
 30
0.0
 42
0.9783590964473587
  0
SEQEND
  5
7B3
  8
0
  0
LINE
  5
3B4
  8
0
 10
427.65582851826468
 20
194.8475944922626
 30
0.0
 11
417.18104016215608
 21
194.8475944922626
 31
0.0
  0
LINE
  5
3B5
  8
0
 10
426.64624702683091
 20
194.64759449226369
 30
0.0
 11
417.68104016215523
 21
194.64759449226369
 31
0.0
  0
LINE
  5
3B6
  8
0
 10
417.68104016215523
 20
190.64759449226011
 30
0.0
 11
427.68104016215619
 21
190.64759449226011
 31
0.0
  0
LINE
  5
3B7
  8
0
  6
CONTINUOUS
 62
     7
 10
418.58034016215618
 20
190.64759449226011
 30
0.0
 11
417.68104016215523
 21
190.64759449226011
 31
0.0
  0
LINE
  5
3B8
  8
0
 10
417.18104016215432
 20
194.64759449226011
 30
0.0
 11
407.18104016215437
 21
194.64759449226011
 31
0.0
  0
LINE
  5
3B9
  8
0
 10
417.18104016215432
 20
190.64759449226011
 30
0.0
 11
407.18104016215437
 21
190.64759449226011
 31
0.0
  0
LINE
  5
3BA
  8
0
 10
417.68104016215523
 20
190.4475944922612
 30
0.0
 11
394.32408624048202
 21
190.4475944922593
 31
0.0
  0
LINE
  5
3BB
  8
0
 10
417.68104016215523
 20
191.14759449226369
 30
0.0
 11
417.18104016215523
 21
191.14759449226369
 31
0.0
  0
LINE
  5
3BC
  8
0
 10
417.68104016215523
 20
194.14759449226361
 30
0.0
 11
417.18104016215523
 21
194.14759449226361
 31
0.0
  0
LINE
  5
3BD
  8
0
 10
417.18104016215523
 20
190.64759449226011
 30
0.0
 11
417.18104016215523
 21
194.8475944922626
 31
0.0
  0
LINE
  5
3BE
  8
0
 10
417.68104016215523
 20
190.4475944922612
 30
0.0
 11
417.68104016215523
 21
194.64759449226369
 31
0.0
  0
LINE
  5
3BF
  8
0
 10
407.18104016215523
 20
190.64759449226011
 30
0.0
 11
407.18104016215523
 21
194.8475944922626
 31
0.0
  0
LINE
  5
3C0
  8
0
 10
407.18104016215523
 20
194.84759449226439
 30
0.0
 11
399.07698353162891
 21
194.84759449226439
 31
0.0
  0
LINE
  5
3C1
  8
0
 10
407.18104016215523
 20
194.14759449226361
 30
0.0
 11
399.02224513078392
 21
194.14759449226551
 31
0.0
  0
LINE
  5
3C2
  8
0
 10
407.18104016215523
 20
191.14759449226369
 30
0.0
 11
398.78765198430227
 21
191.14759449226551
 31
0.0
  0
LINE
  5
3C3
  8
0
 10
310.18100247650102
 20
190.64759449226369
 30
0.0
 11
310.18100247650023
 21
194.84759449225899
 31
0.0
  0
LINE
  5
3C4
  8
0
 10
320.18100247650023
 20
190.64759449226551
 30
0.0
 11
320.18100247650023
 21
194.84759449225899
 31
0.0
  0
LINE
  5
3C5
  8
0
 10
310.18100247650023
 20
190.64759449226369
 30
0.0
 11
320.18100247650023
 21
190.64759449226551
 31
0.0
  0
LINE
  5
3C6
  8
0
 10
320.18100247650023
 20
194.84759449225899
 30
0.0
 11
375.1810401621554
 21
194.84759449225899
 31
0.0
  0
LINE
  5
3C7
  8
0
 10
320.18100247650023
 20
194.1475944922764
 30
0.0
 11
329.27278319541631
 21
194.1475944922764
 31
0.0
  0
LINE
  5
3C8
  8
0
 10
320.18100247650023
 20
191.14759449228191
 30
0.0
 11
329.03156620551027
 21
191.14759449228359
 31
0.0
  0
LINE
  5
3C9
  8
0
 10
385.18104016215523
 20
190.64759449226011
 30
0.0
 11
385.18104016215523
 21
194.84759449226439
 31
0.0
  0
LINE
  5
3CA
  8
0
 10
375.1810401621554
 20
190.64759449226011
 30
0.0
 11
375.1810401621554
 21
194.84759449225899
 31
0.0
  0
LINE
  5
3CB
  8
0
 10
353.18104016215523
 20
190.44759449225751
 30
0.0
 11
353.18104016215523
 21
194.64759449226369
 31
0.0
  0
LINE
  5
3CC
  8
0
 10
343.18104016215528
 20
190.4475944922612
 30
0.0
 11
343.18104016215528
 21
194.64759449226369
 31
0.0
  0
LINE
  5
3CD
  8
0
 10
375.1810401621554
 20
190.64759449226011
 30
0.0
 11
385.18104016215523
 21
190.64759449226369
 31
0.0
  0
LINE
  5
3CE
  8
0
 10
343.18104016215528
 20
194.64759449226369
 30
0.0
 11
353.18104016215523
 21
194.64759449226369
 31
0.0
  0
LINE
  5
3CF
  8
0
 10
353.18104016215523
 20
191.14759449229101
 30
0.0
 11
375.1810401621554
 21
191.14759449229459
 31
0.0
  0
LINE
  5
3D0
  8
0
 10
353.18104016215523
 20
194.14759449228191
 30
0.0
 11
375.1810401621554
 21
194.14759449228541
 31
0.0
  0
LINE
  5
3D1
  8
0
 10
375.18104016215352
 20
194.64759449226011
 30
0.0
 11
385.18104016215352
 21
194.64759449226369
 31
0.0
  0
LINE
  5
3D2
  8
0
 10
343.18104016215528
 20
190.64759449226369
 30
0.0
 11
353.18104016215523
 21
190.64759449226369
 31
0.0
  0
LINE
  5
3D3
  8
0
 10
310.18100247649932
 20
194.64759449226369
 30
0.0
 11
320.18100247649932
 21
194.64759449226551
 31
0.0
  0
ARC
  5
3D4
  8
0
 10
331.49803383493798
 20
194.4455798271498
 30
0.0
 40
0.2
 50
0.0000000002084408
 51
179.9999999997915
  0
ARC
  5
3D5
  8
0
 10
331.21683714357852
 20
190.8496091573758
 30
0.0
 40
0.2
 50
180.00000000020839
 51
359.9999999997915
  0
ARC
  5
3D6
  8
0
 10
333.89803383494677
 20
194.4455798271498
 30
0.0
 40
0.2
 50
0.0000000002084408
 51
179.9999999997915
  0
POINT
  5
3D7
  8
0
  6
CONTINUOUS
 62
     7
 10
331.46822045024618
 20
192.64696190522741
 30
0.0
  0
POINT
  5
3D8
  8
0
  6
CONTINUOUS
 62
     7
 10
331.46822045024618
 20
192.646961905231
 30
0.0
  0
LINE
  5
3D9
  8
0
 10
331.69803383493883
 20
194.4455798271498
 30
0.0
 11
331.41683714357919
 21
190.8496091573758
 31
0.0
  0
ARC
  5
3DA
  8
0
 10
331.8980338349395
 20
194.4455798271498
 30
0.0
 40
0.2
 50
0.0000000002084408
 51
179.9999999997915
  0
ARC
  5
3DB
  8
0
 10
332.29803383494101
 20
194.4455798271498
 30
0.0
 40
0.2
 50
0.0000000002084408
 51
179.9999999997915
  0
ARC
  5
3DC
  8
0
 10
332.69803383494229
 20
194.4455798271498
 30
0.0
 40
0.2
 50
0.0000000002084408
 51
179.9999999997915
  0
ARC
  5
3DD
  8
0
 10
333.09803383494381
 20
194.4455798271498
 30
0.0
 40
0.2
 50
0.0000000002084408
 51
179.9999999997915
  0
ARC
  5
3DE
  8
0
 10
333.49803383494532
 20
194.4455798271498
 30
0.0
 40
0.2
 50
0.0000000002084408
 51
179.9999999997915
  0
ARC
  5
3DF
  8
0
 10
331.61683714357991
 20
190.8496091573758
 30
0.0
 40
0.2
 50
180.00000000020839
 51
359.9999999997915
  0
LINE
  5
3E0
  8
0
 10
332.09803383494028
 20
194.4455798271498
 30
0.0
 11
331.8168371435807
 21
190.8496091573758
 31
0.0
  0
LINE
  5
3E1
  8
0
 10
332.49803383494168
 20
194.4455798271498
 30
0.0
 11
332.2168371435821
 21
190.8496091573758
 31
0.0
  0
ARC
  5
3E2
  8
0
 10
332.01683714358143
 20
190.8496091573758
 30
0.0
 40
0.2
 50
180.00000000020839
 51
359.9999999997915
  0
ARC
  5
3E3
  8
0
 10
332.41683714358282
 20
190.8496091573758
 30
0.0
 40
0.2
 50
180.00000000020839
 51
359.9999999997915
  0
LINE
  5
3E4
  8
0
 10
332.89803383494319
 20
194.4455798271498
 30
0.0
 11
332.6168371435835
 21
190.8496091573758
 31
0.0
  0
LINE
  5
3E5
  8
0
 10
333.29803383494459
 20
194.4455798271498
 30
0.0
 11
333.01683714358501
 21
190.8496091573758
 31
0.0
  0
ARC
  5
3E6
  8
0
 10
332.81683714358422
 20
190.8496091573758
 30
0.0
 40
0.2
 50
180.00000000020839
 51
359.9999999997915
  0
ARC
  5
3E7
  8
0
 10
333.21683714358568
 20
190.8496091573758
 30
0.0
 40
0.2
 50
180.00000000020839
 51
359.9999999997915
  0
POINT
  5
3E8
  8
0
  6
CONTINUOUS
 62
     7
 10
333.46822045025351
 20
192.646961905231
 30
0.0
  0
POINT
  5
3E9
  8
0
  6
CONTINUOUS
 62
     7
 10
333.46822045025351
 20
192.64696190522741
 30
0.0
  0
ARC
  5
3EA
  8
0
 10
333.61683714358719
 20
190.8496091573721
 30
0.0
 40
0.2
 50
180.00000000020839
 51
359.9999999997915
  0
ARC
  5
3EB
  8
0
 10
329.20760649700082
 20
190.8496091573758
 30
0.0
 40
0.2
 50
180.00000000020839
 51
359.9999999997915
  0
ARC
  5
3EC
  8
0
 10
329.49803383493253
 20
194.4455798271498
 30
0.0
 40
0.2
 50
0.0000000002084408
 51
179.9999999997915
  0
ARC
  5
3ED
  8
0
 10
329.89803383493228
 20
194.4455798271498
 30
0.0
 40
0.2
 50
0.0000000002084408
 51
179.9999999997915
  0
ARC
  5
3EE
  8
0
 10
330.29803383493368
 20
194.4455798271498
 30
0.0
 40
0.2
 50
0.0000000002084408
 51
179.9999999997915
  0
ARC
  5
3EF
  8
0
 10
330.69803383493507
 20
194.4455798271498
 30
0.0
 40
0.2
 50
0.0000000002084408
 51
179.9999999997915
  0
ARC
  5
3F0
  8
0
 10
331.09803383493659
 20
194.4455798271498
 30
0.0
 40
0.2
 50
0.0000000002084408
 51
179.9999999997915
  0
ARC
  5
3F1
  8
0
 10
329.61683714357258
 20
190.8496091573758
 30
0.0
 40
0.2
 50
180.00000000020839
 51
359.9999999997915
  0
LINE
  5
3F2
  8
0
 10
330.09803383493289
 20
194.4455798271498
 30
0.0
 11
329.81683714357348
 21
190.8496091573758
 31
0.0
  0
LINE
  5
3F3
  8
0
 10
330.4980338349344
 20
194.4455798271498
 30
0.0
 11
330.21683714357482
 21
190.8496091573758
 31
0.0
  0
ARC
  5
3F4
  8
0
 10
330.01683714357409
 20
190.8496091573758
 30
0.0
 40
0.2
 50
180.00000000020839
 51
359.9999999997915
  0
ARC
  5
3F5
  8
0
 10
330.41683714357561
 20
190.8496091573758
 30
0.0
 40
0.2
 50
180.00000000020839
 51
359.9999999997915
  0
LINE
  5
3F6
  8
0
 10
330.89803383493597
 20
194.4455798271498
 30
0.0
 11
330.61683714357622
 21
190.8496091573758
 31
0.0
  0
LINE
  5
3F7
  8
0
 10
331.2980338349372
 20
194.4455798271498
 30
0.0
 11
331.01683714357767
 21
190.8496091573758
 31
0.0
  0
ARC
  5
3F8
  8
0
 10
330.816837143577
 20
190.8496091573758
 30
0.0
 40
0.2
 50
180.00000000020839
 51
359.9999999997915
  0
LINE
  5
3F9
  8
0
 10
329.69803383493149
 20
194.4455798271498
 30
0.0
 11
328.86970860160932
 21
184.14375282513501
 31
0.0
  0
LINE
  5
3FA
  8
0
 10
329.29932061308602
 20
194.4776386282189
 30
0.0
 11
328.47099537976402
 21
184.1758116262059
 31
0.0
  0
LINE
  5
3FB
  8
0
 10
334.22206660410222
 20
201.14696190522741
 30
0.0
 11
333.41683714358652
 21
190.8496091573721
 31
0.0
  0
LINE
  5
3FC
  8
0
 10
334.6220666041047
 20
201.14696190522741
 30
0.0
 11
333.81683714358797
 21
190.8496091573721
 31
0.0
  0
LINE
  5
3FD
  8
0
 10
334.6220666041047
 20
201.14696190522741
 30
0.0
 11
334.22206660410222
 21
201.14696190522741
 31
0.0
  0
LINE
  5
3FE
  8
0
 10
328.86970860160932
 20
184.1437528251368
 30
0.0
 11
328.47099537976487
 21
184.1758116262059
 31
0.0
  0
LINE
  5
3FF
  8
0
 10
333.84013891602831
 20
191.14759449228541
 30
0.0
 11
343.18104016215528
 21
191.14759449228731
 31
0.0
  0
LINE
  5
400
  8
0
 10
334.07473206250978
 20
194.1475944922783
 30
0.0
 11
343.18104016215528
 21
194.14759449228009
 31
0.0
  0
LINE
  5
401
  8
0
 10
393.8172216698843
 20
184.1437528251368
 30
0.0
 11
393.4185084480398
 21
184.1758116262059
 31
0.0
  0
LINE
  5
402
  8
0
 10
399.56957967237958
 20
201.14696190522741
 30
0.0
 11
399.16957967237732
 21
201.14696190522741
 31
0.0
  0
LINE
  5
403
  8
0
 10
399.56957967237958
 20
201.14696190522741
 30
0.0
 11
398.7643502118629
 21
190.8496091573721
 31
0.0
  0
LINE
  5
404
  8
0
 10
399.16957967237732
 20
201.14696190522741
 30
0.0
 11
398.36435021186139
 21
190.8496091573721
 31
0.0
  0
LINE
  5
405
  8
0
 10
394.24683368136118
 20
194.4776386282189
 30
0.0
 11
393.41850844803889
 21
184.1758116262059
 31
0.0
  0
LINE
  5
406
  8
0
 10
394.64554690320642
 20
194.4455798271498
 30
0.0
 11
393.8172216698843
 21
184.14375282513501
 31
0.0
  0
ARC
  5
407
  8
0
 10
395.76435021185188
 20
190.8496091573758
 30
0.0
 40
0.2
 50
180.00000000020839
 51
359.9999999997915
  0
LINE
  5
408
  8
0
 10
396.24554690321219
 20
194.4455798271498
 30
0.0
 11
395.96435021185272
 21
190.8496091573758
 31
0.0
  0
LINE
  5
409
  8
0
 10
395.84554690321079
 20
194.4455798271498
 30
0.0
 11
395.56435021185121
 21
190.8496091573758
 31
0.0
  0
ARC
  5
40A
  8
0
 10
395.36435021185048
 20
190.8496091573758
 30
0.0
 40
0.2
 50
180.00000000020839
 51
359.9999999997915
  0
ARC
  5
40B
  8
0
 10
394.96435021184891
 20
190.8496091573758
 30
0.0
 40
0.2
 50
180.00000000020839
 51
359.9999999997915
  0
LINE
  5
40C
  8
0
 10
395.44554690320922
 20
194.4455798271498
 30
0.0
 11
395.16435021184981
 21
190.8496091573758
 31
0.0
  0
LINE
  5
40D
  8
0
 10
395.04554690320788
 20
194.4455798271498
 30
0.0
 11
394.7643502118483
 21
190.8496091573758
 31
0.0
  0
ARC
  5
40E
  8
0
 10
394.56435021184762
 20
190.8496091573758
 30
0.0
 40
0.2
 50
180.00000000020839
 51
359.9999999997915
  0
ARC
  5
40F
  8
0
 10
396.04554690321152
 20
194.4455798271498
 30
0.0
 40
0.2
 50
0.0000000002084408
 51
179.9999999997915
  0
ARC
  5
410
  8
0
 10
395.64554690321012
 20
194.4455798271498
 30
0.0
 40
0.2
 50
0.0000000002084408
 51
179.9999999997915
  0
ARC
  5
411
  8
0
 10
395.24554690320861
 20
194.4455798271498
 30
0.0
 40
0.2
 50
0.0000000002084408
 51
179.9999999997915
  0
ARC
  5
412
  8
0
 10
394.84554690320709
 20
194.4455798271498
 30
0.0
 40
0.2
 50
0.0000000002084408
 51
179.9999999997915
  0
ARC
  5
413
  8
0
 10
394.44554690320751
 20
194.4455798271498
 30
0.0
 40
0.2
 50
0.0000000002084408
 51
179.9999999997915
  0
ARC
  5
414
  8
0
 10
394.15511956527581
 20
190.8496091573758
 30
0.0
 40
0.2
 50
180.00000000020839
 51
359.9999999997915
  0
ARC
  5
415
  8
0
 10
398.56435021186201
 20
190.8496091573721
 30
0.0
 40
0.2
 50
180.00000000020839
 51
359.9999999997915
  0
POINT
  5
416
  8
0
  6
CONTINUOUS
 62
     7
 10
398.4157335185285
 20
192.64696190522741
 30
0.0
  0
POINT
  5
417
  8
0
  6
CONTINUOUS
 62
     7
 10
398.4157335185285
 20
192.646961905231
 30
0.0
  0
ARC
  5
418
  8
0
 10
398.16435021186072
 20
190.8496091573758
 30
0.0
 40
0.2
 50
180.00000000020839
 51
359.9999999997915
  0
ARC
  5
419
  8
0
 10
397.76435021185921
 20
190.8496091573758
 30
0.0
 40
0.2
 50
180.00000000020839
 51
359.9999999997915
  0
LINE
  5
41A
  8
0
 10
398.24554690321952
 20
194.4455798271498
 30
0.0
 11
397.96435021185999
 21
190.8496091573758
 31
0.0
  0
LINE
  5
41B
  8
0
 10
397.84554690321812
 20
194.4455798271498
 30
0.0
 11
397.5643502118586
 21
190.8496091573758
 31
0.0
  0
ARC
  5
41C
  8
0
 10
397.3643502118577
 20
190.8496091573758
 30
0.0
 40
0.2
 50
180.00000000020839
 51
359.9999999997915
  0
ARC
  5
41D
  8
0
 10
396.9643502118563
 20
190.8496091573758
 30
0.0
 40
0.2
 50
180.00000000020839
 51
359.9999999997915
  0
LINE
  5
41E
  8
0
 10
397.44554690321661
 20
194.4455798271498
 30
0.0
 11
397.16435021185691
 21
190.8496091573758
 31
0.0
  0
LINE
  5
41F
  8
0
 10
397.04554690321521
 20
194.4455798271498
 30
0.0
 11
396.76435021185557
 21
190.8496091573758
 31
0.0
  0
ARC
  5
420
  8
0
 10
396.5643502118549
 20
190.8496091573758
 30
0.0
 40
0.2
 50
180.00000000020839
 51
359.9999999997915
  0
ARC
  5
421
  8
0
 10
398.44554690322019
 20
194.4455798271498
 30
0.0
 40
0.2
 50
0.0000000002084408
 51
179.9999999997915
  0
ARC
  5
422
  8
0
 10
398.04554690321891
 20
194.4455798271498
 30
0.0
 40
0.2
 50
0.0000000002084408
 51
179.9999999997915
  0
ARC
  5
423
  8
0
 10
397.64554690321739
 20
194.4455798271498
 30
0.0
 40
0.2
 50
0.0000000002084408
 51
179.9999999997915
  0
ARC
  5
424
  8
0
 10
397.24554690321588
 20
194.4455798271498
 30
0.0
 40
0.2
 50
0.0000000002084408
 51
179.9999999997915
  0
ARC
  5
425
  8
0
 10
396.84554690321431
 20
194.4455798271498
 30
0.0
 40
0.2
 50
0.0000000002084408
 51
179.9999999997915
  0
LINE
  5
426
  8
0
 10
396.6455469032137
 20
194.4455798271498
 30
0.0
 11
396.36435021185412
 21
190.8496091573758
 31
0.0
  0
POINT
  5
427
  8
0
  6
CONTINUOUS
 62
     7
 10
396.41573351852122
 20
192.646961905231
 30
0.0
  0
POINT
  5
428
  8
0
  6
CONTINUOUS
 62
     7
 10
396.41573351852122
 20
192.64696190522741
 30
0.0
  0
ARC
  5
429
  8
0
 10
398.8455469032217
 20
194.4455798271498
 30
0.0
 40
0.2
 50
0.0000000002084408
 51
179.9999999997915
  0
ARC
  5
42A
  8
0
 10
396.16435021185339
 20
190.8496091573758
 30
0.0
 40
0.2
 50
180.00000000020839
 51
359.9999999997915
  0
ARC
  5
42B
  8
0
 10
396.44554690321291
 20
194.4455798271498
 30
0.0
 40
0.2
 50
0.0000000002084408
 51
179.9999999997915
  0
LINE
  5
42C
  8
0
 10
394.22029626369027
 20
194.14759449226551
 30
0.0
 11
385.18104016215631
 21
194.14759449226921
 31
0.0
  0
LINE
  5
42D
  8
0
 10
398.67698353162842
 20
194.84759449226439
 30
0.0
 11
385.18104016215523
 21
194.84759449226439
 31
0.0
  0
LINE
  5
42E
  8
0
 10
393.97907927378418
 20
191.14759449226551
 30
0.0
 11
385.18104016215523
 21
191.1475944922673
 31
0.0
  0
LINE
  5
42F
  8
0
 10
393.92279530947172
 20
190.4475944922593
 30
0.0
 11
353.18104016215523
 21
190.44759449225751
 31
0.0
  0
LINE
  5
430
  8
0
 10
234.18104016215531
 20
186.74759449226411
 30
0.0
 11
233.92425011665571
 21
186.74759449226411
 31
0.0
  0
ARC
  5
431
  8
0
 10
234.18104016215531
 20
187.74759449226411
 30
0.0
 40
1.0
 50
270.0
 51
0.0
  0
ARC
  5
432
  8
0
 10
234.18104016215531
 20
197.5475944922633
 30
0.0
 40
1.0
 50
0.0
 51
90.0
  0
LINE
  5
433
  8
0
 10
234.18104016215531
 20
198.5475944922633
 30
0.0
 11
233.92425011665571
 21
198.5475944922633
 31
0.0
  0
LINE
  5
434
  8
0
 10
235.1810401621552
 20
192.64759449226369
 30
0.0
 11
235.1810401621552
 21
197.5475944922633
 31
0.0
  0
LINE
  5
435
  8
0
 10
235.1810401621552
 20
192.64759449226369
 30
0.0
 11
235.1810401621552
 21
187.74759449226411
 31
0.0
  0
LINE
  5
436
  8
0
  6
CONTINUOUS
 62
     7
 10
235.1810401621552
 20
191.24759449226411
 30
0.0
 11
235.6810024765002
 21
191.24759449226411
 31
0.0
  0
LINE
  5
437
  8
0
  6
CONTINUOUS
 62
     7
 10
235.1810401621552
 20
194.0475944922633
 30
0.0
 11
235.6810024765002
 21
194.0475944922633
 31
0.0
  0
LINE
  5
438
  8
0
  6
CONTINUOUS
 62
     7
 10
244.78166479084419
 20
190.64759449226011
 30
0.0
 11
245.6810024765002
 21
190.64759449226011
 31
0.0
  0
LINE
  5
439
  8
0
 10
246.1810024765002
 20
190.64759449226011
 30
0.0
 11
256.18100247650023
 21
190.64759449226011
 31
0.0
  0
LINE
  5
43A
  8
0
 10
246.18100247649929
 20
194.64759449226011
 30
0.0
 11
256.18100247649932
 21
194.64759449226011
 31
0.0
  0
LINE
  5
43B
  8
0
 10
245.6810024765002
 20
194.14759449226361
 30
0.0
 11
246.1810024765002
 21
194.14759449226361
 31
0.0
  0
LINE
  5
43C
  8
0
 10
245.6810024765002
 20
191.14759449226369
 30
0.0
 11
246.1810024765002
 21
191.14759449226369
 31
0.0
  0
LINE
  5
43D
  8
0
 10
245.6810024765002
 20
190.64759449226011
 30
0.0
 11
245.68100247649929
 21
194.84759449226621
 31
0.0
  0
LINE
  5
43E
  8
0
 10
246.1810024765002
 20
190.4475944922612
 30
0.0
 11
246.1810024765002
 21
194.64759449226011
 31
0.0
  0
LINE
  5
43F
  8
0
 10
256.18100247650023
 20
190.44759449226291
 30
0.0
 11
256.18100247650023
 21
194.6475944922619
 31
0.0
  0
LINE
  5
440
  8
0
 10
235.70625180604591
 20
190.4475944922612
 30
0.0
 11
246.18100247650111
 21
190.4475944922612
 31
0.0
  0
LINE
  5
441
  8
0
  6
CONTINUOUS
 62
     7
 10
244.28166479084419
 20
194.64759449226369
 30
0.0
 11
236.31615780608649
 21
194.64759449226369
 31
0.0
  0
LINE
  5
442
  8
0
 10
245.6810024765002
 20
190.64759449226011
 30
0.0
 11
235.6810024765002
 21
190.64759449226011
 31
0.0
  0
LINE
  5
443
  8
0
 10
235.6810024765002
 20
194.64759449226369
 30
0.0
 11
245.68100247649929
 21
194.64759449226369
 31
0.0
  0
LINE
  5
444
  8
0
 10
256.18100247650023
 20
190.4475944922612
 30
0.0
 11
264.70878945471048
 21
190.4475944922612
 31
0.0
  0
LINE
  5
445
  8
0
 10
256.18100247650023
 20
191.14759449226369
 30
0.0
 11
264.76507341902311
 21
191.14759449226551
 31
0.0
  0
LINE
  5
446
  8
0
 10
256.18100247650023
 20
194.14759449226361
 30
0.0
 11
265.00653219408042
 21
194.14759449226551
 31
0.0
  0
LINE
  5
447
  8
0
 10
245.6810024765002
 20
194.84759449225899
 30
0.0
 11
269.46297767686627
 21
194.84759449225899
 31
0.0
  0
LINE
  5
448
  8
0
 10
235.6810024765002
 20
192.64759449226369
 30
0.0
 11
235.68100247649929
 21
194.64759449226369
 31
0.0
  0
LINE
  5
449
  8
0
 10
235.6810024765002
 20
192.64759449226369
 30
0.0
 11
235.6810024765002
 21
190.64759449226011
 31
0.0
  0
LINE
  5
44A
  8
0
 10
235.6810024765002
 20
192.64759449226369
 30
0.0
 11
245.68100247649929
 21
192.64759449226369
 31
0.0
  0
LINE
  5
44B
  8
0
 10
278.18100247650023
 20
190.4475944922612
 30
0.0
 11
278.18100247650023
 21
194.64759449226551
 31
0.0
  0
LINE
  5
44C
  8
0
 10
288.18100247650119
 20
190.4475944922612
 30
0.0
 11
288.18100247650023
 21
194.64759449226921
 31
0.0
  0
LINE
  5
44D
  8
0
 10
288.18100247650023
 20
194.64759449226369
 30
0.0
 11
278.18100247650023
 21
194.6475944922619
 31
0.0
  0
LINE
  5
44E
  8
0
 10
288.18100247650119
 20
190.64759449226369
 30
0.0
 11
278.18100247650108
 21
190.6475944922619
 31
0.0
  0
LINE
  5
44F
  8
0
 10
269.80848245789298
 20
194.14759449226551
 30
0.0
 11
278.18100247650023
 21
194.1475944922673
 31
0.0
  0
LINE
  5
450
  8
0
 10
269.5736461295412
 20
191.14759449226551
 30
0.0
 11
278.18100247650023
 21
191.14759449226921
 31
0.0
  0
LINE
  5
451
  8
0
 10
267.29094270277187
 20
192.64759449226369
 30
0.0
 11
264.06153928590197
 21
192.64759449226369
 31
0.0
  0
ARC
  5
452
  8
0
 10
266.55034435709081
 20
190.8496091573758
 30
0.0
 40
0.2
 50
180.00000000020839
 51
359.9999999997915
  0
LINE
  5
453
  8
0
 10
267.03154104845112
 20
194.4455798271498
 30
0.0
 11
266.75034435709148
 21
190.8496091573758
 31
0.0
  0
LINE
  5
454
  8
0
 10
266.63154104844972
 20
194.4455798271498
 30
0.0
 11
266.35034435709008
 21
190.8496091573758
 31
0.0
  0
ARC
  5
455
  8
0
 10
266.1503443570893
 20
190.8496091573758
 30
0.0
 40
0.2
 50
180.00000000020839
 51
359.9999999997915
  0
ARC
  5
456
  8
0
 10
265.7503443570879
 20
190.8496091573758
 30
0.0
 40
0.2
 50
180.00000000020839
 51
359.9999999997915
  0
LINE
  5
457
  8
0
 10
266.23154104844821
 20
194.4455798271498
 30
0.0
 11
265.95034435708862
 21
190.8496091573758
 31
0.0
  0
LINE
  5
458
  8
0
 10
265.83154104844681
 20
194.4455798271498
 30
0.0
 11
265.55034435708711
 21
190.8496091573758
 31
0.0
  0
LINE
  5
459
  8
0
 10
265.4315410484453
 20
194.4455798271498
 30
0.0
 11
264.60321581512312
 21
184.14375282513501
 31
0.0
  0
ARC
  5
45A
  8
0
 10
265.3503443570865
 20
190.8496091573758
 30
0.0
 40
0.2
 50
180.00000000020839
 51
359.9999999997915
  0
ARC
  5
45B
  8
0
 10
266.83154104845039
 20
194.4455798271498
 30
0.0
 40
0.2
 50
0.0000000002084408
 51
179.9999999997915
  0
ARC
  5
45C
  8
0
 10
266.43154104844888
 20
194.4455798271498
 30
0.0
 40
0.2
 50
0.0000000002084408
 51
179.9999999997915
  0
ARC
  5
45D
  8
0
 10
266.03154104844748
 20
194.4455798271498
 30
0.0
 40
0.2
 50
0.0000000002084408
 51
179.9999999997915
  0
ARC
  5
45E
  8
0
 10
265.63154104844602
 20
194.4455798271498
 30
0.0
 40
0.2
 50
0.0000000002084408
 51
179.9999999997915
  0
ARC
  5
45F
  8
0
 10
265.23154104844639
 20
194.4455798271498
 30
0.0
 40
0.2
 50
0.0000000002084408
 51
179.9999999997915
  0
LINE
  5
460
  8
0
 10
265.0328278266
 20
194.4776386282189
 30
0.0
 11
264.20450259327788
 21
184.1758116262059
 31
0.0
  0
LINE
  5
461
  8
0
 10
264.60321581512312
 20
184.1437528251368
 30
0.0
 11
264.20450259327868
 21
184.1758116262059
 31
0.0
  0
ARC
  5
462
  8
0
 10
264.94111371051463
 20
190.8496091573758
 30
0.0
 40
0.2
 50
180.00000000020839
 51
359.9999999997915
  0
LINE
  5
463
  8
0
 10
270.35557381761851
 20
201.14696190522741
 30
0.0
 11
269.9555738176162
 21
201.14696190522741
 31
0.0
  0
ARC
  5
464
  8
0
 10
269.35034435710099
 20
190.8496091573721
 30
0.0
 40
0.2
 50
180.00000000020839
 51
359.9999999997915
  0
POINT
  5
465
  8
0
  6
CONTINUOUS
 62
     7
 10
269.20172766376731
 20
192.64696190522741
 30
0.0
  0
POINT
  5
466
  8
0
  6
CONTINUOUS
 62
     7
 10
269.20172766376731
 20
192.646961905231
 30
0.0
  0
ARC
  5
467
  8
0
 10
268.95034435709948
 20
190.8496091573758
 30
0.0
 40
0.2
 50
180.00000000020839
 51
359.9999999997915
  0
ARC
  5
468
  8
0
 10
268.55034435709808
 20
190.8496091573758
 30
0.0
 40
0.2
 50
180.00000000020839
 51
359.9999999997915
  0
LINE
  5
469
  8
0
 10
269.03154104845839
 20
194.4455798271498
 30
0.0
 11
268.75034435709881
 21
190.8496091573758
 31
0.0
  0
LINE
  5
46A
  8
0
 10
268.63154104845688
 20
194.4455798271498
 30
0.0
 11
268.35034435709741
 21
190.8496091573758
 31
0.0
  0
ARC
  5
46B
  8
0
 10
268.15034435709663
 20
190.8496091573758
 30
0.0
 40
0.2
 50
180.00000000020839
 51
359.9999999997915
  0
ARC
  5
46C
  8
0
 10
267.75034435709517
 20
190.8496091573758
 30
0.0
 40
0.2
 50
180.00000000020839
 51
359.9999999997915
  0
LINE
  5
46D
  8
0
 10
268.23154104845548
 20
194.4455798271498
 30
0.0
 11
267.9503443570959
 21
190.8496091573758
 31
0.0
  0
LINE
  5
46E
  8
0
 10
267.83154104845403
 20
194.4455798271498
 30
0.0
 11
267.55034435709439
 21
190.8496091573758
 31
0.0
  0
ARC
  5
46F
  8
0
 10
267.35034435709372
 20
190.8496091573758
 30
0.0
 40
0.2
 50
180.00000000020839
 51
359.9999999997915
  0
ARC
  5
470
  8
0
 10
269.23154104845912
 20
194.4455798271498
 30
0.0
 40
0.2
 50
0.0000000002084408
 51
179.9999999997915
  0
ARC
  5
471
  8
0
 10
268.83154104845772
 20
194.4455798271498
 30
0.0
 40
0.2
 50
0.0000000002084408
 51
179.9999999997915
  0
ARC
  5
472
  8
0
 10
268.43154104845621
 20
194.4455798271498
 30
0.0
 40
0.2
 50
0.0000000002084408
 51
179.9999999997915
  0
ARC
  5
473
  8
0
 10
268.0315410484547
 20
194.4455798271498
 30
0.0
 40
0.2
 50
0.0000000002084408
 51
179.9999999997915
  0
ARC
  5
474
  8
0
 10
267.63154104845341
 20
194.4455798271498
 30
0.0
 40
0.2
 50
0.0000000002084408
 51
179.9999999997915
  0
LINE
  5
475
  8
0
 10
267.43154104845257
 20
194.4455798271498
 30
0.0
 11
267.15034435709299
 21
190.8496091573758
 31
0.0
  0
POINT
  5
476
  8
0
  6
CONTINUOUS
 62
     7
 10
267.20172766375998
 20
192.646961905231
 30
0.0
  0
POINT
  5
477
  8
0
  6
CONTINUOUS
 62
     7
 10
267.20172766375998
 20
192.64696190522741
 30
0.0
  0
ARC
  5
478
  8
0
 10
269.63154104846058
 20
194.4455798271498
 30
0.0
 40
0.2
 50
0.0000000002084408
 51
179.9999999997915
  0
LINE
  5
479
  8
0
 10
270.35557381761851
 20
201.14696190522741
 30
0.0
 11
269.55034435710172
 21
190.8496091573721
 31
0.0
  0
LINE
  5
47A
  8
0
 10
269.9555738176162
 20
201.14696190522741
 30
0.0
 11
269.15034435710032
 21
190.8496091573721
 31
0.0
  0
ARC
  5
47B
  8
0
 10
266.95034435709232
 20
190.8496091573758
 30
0.0
 40
0.2
 50
180.00000000020839
 51
359.9999999997915
  0
ARC
  5
47C
  8
0
 10
267.2315410484519
 20
194.4455798271498
 30
0.0
 40
0.2
 50
0.0000000002084408
 51
179.9999999997915
  0
LINE
  5
47D
  8
0
 10
265.11008038572101
 20
190.4475944922612
 30
0.0
 11
278.18100247650023
 21
190.4475944922612
 31
0.0
  0
LINE
  5
47E
  8
0
 10
288.18100247650119
 20
190.4475944922612
 30
0.0
 11
343.18104016215528
 21
190.4475944922612
 31
0.0
  0
LINE
  5
47F
  8
0
 10
288.18100247650023
 20
194.14759449226921
 30
0.0
 11
310.18100247650023
 21
194.14759449227279
 31
0.0
  0
LINE
  5
480
  8
0
 10
288.18100247650119
 20
191.14759449227279
 30
0.0
 11
310.18100247650102
 21
191.14759449228009
 31
0.0
  0
LINE
  5
481
  8
0
 10
269.8629776768687
 20
194.84759449225899
 30
0.0
 11
310.18100247650023
 21
194.84759449225899
 31
0.0
  0
LINE
  5
48F
  8
0
 10
427.68104016215523
 20
192.64759449226369
 30
0.0
 11
427.68104016215523
 21
190.64759449226011
 31
0.0
  0
LINE
  5
49C
  8
0
 10
429.18104016215523
 20
198.5475944922633
 30
0.0
 11
429.437830207655
 21
198.5475944922633
 31
0.0
  0
LINE
  5
49E
  8
0
 10
429.18104016215523
 20
186.74759449226411
 30
0.0
 11
429.437830207655
 21
186.74759449226411
 31
0.0
  0
ARC
  5
4A0
  8
0
 10
429.18104016215523
 20
187.74759449226411
 30
0.0
 40
1.0
 50
180.0
 51
270.0
  0
LINE
  5
4A1
  8
0
 10
428.18104016215523
 20
191.14759449226369
 30
0.0
 11
428.18104016215523
 21
187.74759449226411
 31
0.0
  0
LINE
  5
4A3
  8
0
 10
428.18104016215523
 20
194.14759449226361
 30
0.0
 11
428.18104016215523
 21
197.5475944922633
 31
0.0
  0
ARC
  5
4A5
  8
0
 10
429.18104016215523
 20
197.5475944922633
 30
0.0
 40
1.0
 50
90.0
 51
180.0
  0
POLYLINE
  5
4A8
  8
0
 66
     1
 10
0.0
 20
0.0
 30
0.0
  0
VERTEX
  5
7B4
  8
0
 10
430.43534847342568
 20
199.6180026555281
 30
0.0
 42
0.0023895566212364
  0
VERTEX
  5
7B5
  8
0
 10
430.36421384462051
 20
200.56158412811749
 30
0.0
 42
0.0023895566212364
  0
SEQEND
  5
7B6
  8
0
  0
ARC
  5
4A9
  8
0
 10
429.437830207655
 20
199.5475944922633
 30
0.0
 40
1.0
 50
270.0
 51
4.0374310949056831
  0
ARC
  5
4AB
  8
0
 10
429.437830207655
 20
185.74759449226389
 30
0.0
 40
1.0
 50
355.96256890509432
 51
90.0
  0
LINE
  5
4AD
  8
0
 10
427.68104016215523
 20
194.64759449226369
 30
0.0
 11
426.64624702683091
 21
194.64759449226369
 31
0.0
  0
LINE
  5
4AE
  8
0
 10
427.68104016215523
 20
190.64759449225829
 30
0.0
 11
427.68104016215523
 21
194.64759449226369
 31
0.0
  0
LINE
  5
4AF
  8
0
  6
CONTINUOUS
 62
     7
 10
419.18104016215523
 20
194.64759449226369
 30
0.0
 11
427.14654714691278
 21
194.64759449226369
 31
0.0
  0
POLYLINE
  5
4B4
  8
0
 66
     1
 10
0.0
 20
0.0
 30
0.0
  0
VERTEX
  5
7B7
  8
0
 10
430.87139446622422
 20
184.80389555405381
 30
0.0
 42
0.0021116420712618
  0
VERTEX
  5
7B8
  8
0
 10
430.93410760631127
 20
185.6419822473668
 30
0.0
  0
SEQEND
  5
7B9
  8
0
  0
POLYLINE
  5
4B5
  8
0
 66
     1
 10
0.0
 20
0.0
 30
0.0
  0
VERTEX
  5
7BA
  8
0
 10
430.37685303659799
 20
184.8928204109084
 30
0.0
 42
0.0019862302919079
  0
VERTEX
  5
7BB
  8
0
 10
430.43534847342568
 20
185.67718632899911
 30
0.0
  0
SEQEND
  5
7BC
  8
0
  0
LINE
  5
4B8
  8
0
 10
428.18104016215523
 20
194.14759449226361
 30
0.0
 11
428.18104016215523
 21
191.14759449226369
 31
0.0
  0
LINE
  5
4BA
  8
0
 10
172.99514217805441
 20
93.847594492264463
 30
0.0
 11
172.99514217805361
 21
192.64759449226369
 31
0.0
  0
LINE
  5
4BB
  8
0
 10
120.39621920358699
 20
94.076362974543059
 30
0.0
 11
120.39621920358969
 21
192.64759449225599
 31
0.0
  0
LINE
  5
4BC
  8
0
 10
137.5940651525209
 20
94.076362974543059
 30
0.0
 11
137.5940651525209
 21
192.6475944922619
 31
0.0
  0
LINE
  5
4BD
  8
0
  6
CENTER2
 62
     1
 10
128.99514217805361
 20
192.6475944922619
 30
0.0
 11
128.99514217805361
 21
85.252722080831205
 31
0.0
  0
LINE
  5
4BE
  8
0
 10
80.995142178053555
 20
192.64759449226369
 30
0.0
 11
80.995142178054451
 21
93.847594492264463
 31
0.0
  0
LINE
  5
4C0
  8
0
 10
172.99514217805361
 20
93.147594492267373
 30
0.0
 11
172.99514217805361
 21
93.847594492268087
 31
0.0
  0
LINE
  5
4C1
  8
0
 10
138.59406515251999
 20
93.147594492267373
 30
0.0
 11
158.9940651525196
 21
93.147594492267373
 31
0.0
  0
LINE
  5
4C2
  8
0
 10
122.4951421780535
 20
90.647594492265554
 30
0.0
 11
135.49514217805361
 21
90.647594492265554
 31
0.0
  0
LINE
  5
4C9
  8
0
 10
120.885999011137
 20
92.601878657683855
 30
0.0
 11
121.60428534496999
 21
91.193310326847154
 31
0.0
  0
POLYLINE
  5
4CA
  8
0
 66
     1
 10
0.0
 20
0.0
 30
0.0
  0
VERTEX
  5
7BD
  8
0
 10
119.9951421780536
 20
93.147594492265554
 30
0.0
 42
-0.2819402118154727
  0
VERTEX
  5
7BE
  8
0
 10
120.885999011137
 20
92.60187865768205
 30
0.0
 42
-0.2819402118154727
  0
SEQEND
  5
7BF
  8
0
  0
POLYLINE
  5
4CB
  8
0
 66
     1
 10
0.0
 20
0.0
 30
0.0
  0
VERTEX
  5
7C0
  8
0
 10
122.4951421780535
 20
90.647594492265554
 30
0.0
 42
-0.2819402118154727
  0
VERTEX
  5
7C1
  8
0
 10
121.60428534496999
 20
91.193310326849002
 30
0.0
 42
-0.2819402118154727
  0
SEQEND
  5
7C2
  8
0
  0
POLYLINE
  5
4CD
  8
0
 66
     1
 10
0.0
 20
0.0
 30
0.0
  0
VERTEX
  5
7C3
  8
0
 10
122.4951421780535
 20
91.347594492262644
 30
0.0
  0
VERTEX
  5
7C4
  8
0
 10
122.49514217805449
 20
97.347594492266268
 30
0.0
  0
SEQEND
  5
7C5
  8
0
  0
LINE
  5
4CE
  8
0
 10
172.99514217805361
 20
93.147594492263721
 30
0.0
 11
172.99514217805361
 21
93.847594492264463
 31
0.0
  0
POLYLINE
  5
4D1
  8
0
 66
     1
 10
0.0
 20
0.0
 30
0.0
  0
VERTEX
  5
7C6
  8
0
 10
135.49514217805361
 20
90.647594492265554
 30
0.0
 42
0.2819402118154727
  0
VERTEX
  5
7C7
  8
0
 10
136.3859990111371
 20
91.193310326849002
 30
0.0
 42
0.2819402118154727
  0
SEQEND
  5
7C8
  8
0
  0
LINE
  5
4D2
  8
0
 10
137.10428534497009
 20
92.601878657683855
 30
0.0
 11
136.3859990111371
 21
91.193310326847154
 31
0.0
  0
POLYLINE
  5
4D4
  8
0
 66
     1
 10
0.0
 20
0.0
 30
0.0
  0
VERTEX
  5
7C9
  8
0
 10
137.9951421780535
 20
93.147594492265554
 30
0.0
 42
0.2819402118154727
  0
VERTEX
  5
7CA
  8
0
 10
137.10428534497009
 20
92.60187865768205
 30
0.0
 42
0.2819402118154727
  0
SEQEND
  5
7CB
  8
0
  0
LINE
  5
4D5
  8
0
 10
135.49514217805361
 20
91.347594492266239
 30
0.0
 11
135.49514217805361
 21
97.347594492266268
 31
0.0
  0
LINE
  5
4D7
  8
0
 10
137.9951421780535
 20
93.147594492265554
 30
0.0
 11
158.9940651525196
 21
93.147594492265554
 31
0.0
  0
LINE
  5
4D8
  8
0
 10
138.59406515251999
 20
93.147594492267373
 30
0.0
 11
158.9940651525196
 21
93.147594492267373
 31
0.0
  0
LINE
  5
4D9
  8
0
 10
172.99514217805361
 20
93.147594492267373
 30
0.0
 11
172.99514217805361
 21
93.847594492268087
 31
0.0
  0
LINE
  5
4DA
  8
0
 10
80.995142178053555
 20
93.847594492268087
 30
0.0
 11
80.995142178053555
 21
93.147594492267373
 31
0.0
  0
LINE
  5
4DB
  8
0
 10
80.995142178053555
 20
93.847594492264463
 30
0.0
 11
80.995142178053555
 21
93.147594492263721
 31
0.0
  0
LINE
  5
4DC
  8
0
 10
80.995142178053555
 20
93.847594492268087
 30
0.0
 11
80.995142178053555
 21
93.147594492267373
 31
0.0
  0
LINE
  5
4DD
  8
0
 10
119.39621920358699
 20
93.147594492267373
 30
0.0
 11
94.996219203587543
 21
93.147594492267373
 31
0.0
  0
LINE
  5
4DE
  8
0
 10
80.995142178053555
 20
93.147594492267373
 30
0.0
 11
86.996219203583891
 21
93.147594492267373
 31
0.0
  0
LINE
  5
4DF
  8
0
 10
80.995142178053555
 20
93.147594492265554
 30
0.0
 11
86.996219203583891
 21
93.147594492265554
 31
0.0
  0
LINE
  5
4E1
  8
0
 10
80.995142178053555
 20
93.147594492267373
 30
0.0
 11
86.996219203583891
 21
93.147594492267373
 31
0.0
  0
LINE
  5
4E2
  8
0
 10
119.39621920358699
 20
93.147594492267373
 30
0.0
 11
94.996219203587543
 21
93.147594492267373
 31
0.0
  0
LINE
  5
4E3
  8
0
 10
172.98793217865759
 20
93.147594492263721
 30
0.0
 11
172.99514217805361
 21
93.154804491659561
 31
0.0
  0
LINE
  5
4E4
  8
0
 10
172.99514217805361
 20
93.147594492263721
 30
0.0
 11
172.99514217805361
 21
93.847594492264463
 31
0.0
  0
LINE
  5
4E5
  8
0
 10
138.59406515251999
 20
93.147594492263721
 30
0.0
 11
158.9940651525196
 21
93.147594492263721
 31
0.0
  0
LINE
  5
4E6
  8
0
 10
80.995142178053555
 20
93.847594492264463
 30
0.0
 11
80.995142178053555
 21
93.147594492263721
 31
0.0
  0
LINE
  5
4E8
  8
0
 10
80.995142178053555
 20
93.147594492263721
 30
0.0
 11
86.996219203583891
 21
93.147594492263721
 31
0.0
  0
LINE
  5
4E9
  8
0
 10
119.39621920358699
 20
93.147594492263721
 30
0.0
 11
94.996219203587543
 21
93.147594492263721
 31
0.0
  0
LINE
  5
4F0
  8
0
  6
CENTER2
 62
     1
 10
65.243421439027074
 20
192.64759449226369
 30
0.0
 11
180.87841907739519
 21
192.64759449226369
 31
0.0
  0
LINE
  5
4F2
  8
0
 10
227.6810401621554
 20
194.14759449226551
 30
0.0
 11
227.6810401621554
 21
191.14759449226551
 31
0.0
  0
LINE
  5
4F3
  8
0
 10
227.6810401621554
 20
191.14759449226369
 30
0.0
 11
232.20146897185651
 21
191.14759449226369
 31
0.0
  0
LINE
  5
4F4
  8
0
 10
227.6810401621554
 20
194.14759449226361
 30
0.0
 11
232.20146897185651
 21
194.14759449226361
 31
0.0
  0
LINE
  5
4F5
  8
0
 10
94.996219203590229
 20
192.6475944922619
 30
0.0
 11
94.996219203584801
 21
95.147594492261902
 31
0.0
  0
LINE
  5
4F6
  8
0
 10
86.996219203585724
 20
192.6475944922619
 30
0.0
 11
86.996219203585724
 21
95.147594492260069
 31
0.0
  0
POLYLINE
  5
4F7
  8
0
 66
     1
 10
0.0
 20
0.0
 30
0.0
  0
VERTEX
  5
7CC
  8
0
 10
94.996219203585724
 20
93.147594492261902
 30
0.0
 42
-0.1530277928365761
  0
VERTEX
  5
7CD
  8
0
 10
94.311338698254275
 20
93.362232277938944
 30
0.0
 42
-0.1530277928365761
  0
SEQEND
  5
7CE
  8
0
  0
POLYLINE
  5
4F8
  8
0
 66
     1
 10
0.0
 20
0.0
 30
0.0
  0
VERTEX
  5
7CF
  8
0
 10
86.996219203585724
 20
93.147594492261902
 30
0.0
 42
0.1530277928365761
  0
VERTEX
  5
7D0
  8
0
 10
87.681099708917102
 20
93.362232277938944
 30
0.0
 42
0.1530277928365761
  0
SEQEND
  5
7D1
  8
0
  0
LINE
  5
4F9
  8
0
 10
87.681099708917102
 20
93.362232277938944
 30
0.0
 11
89.112797813924985
 21
94.357340581652934
 31
0.0
  0
LINE
  5
4FA
  8
0
 10
94.311338698254275
 20
93.362232277938944
 30
0.0
 11
92.879640593246435
 21
94.357340581652934
 31
0.0
  0
POLYLINE
  5
4FB
  8
0
 66
     1
 10
0.0
 20
0.0
 30
0.0
  0
VERTEX
  5
7D2
  8
0
 10
92.879640593246435
 20
94.357340581652934
 30
0.0
 42
0.313394503136401
  0
VERTEX
  5
7D3
  8
0
 10
89.112797813924985
 20
94.357340581652934
 30
0.0
 42
0.313394503136401
  0
SEQEND
  5
7D4
  8
0
  0
POLYLINE
  5
506
  8
0
 66
     1
 10
0.0
 20
0.0
 30
0.0
  0
VERTEX
  5
7D5
  8
0
 10
161.11064376286069
 20
94.357340581652934
 30
0.0
 42
-0.313394503136401
  0
VERTEX
  5
7D6
  8
0
 10
164.87748654218211
 20
94.357340581652934
 30
0.0
 42
-0.313394503136401
  0
SEQEND
  5
7D7
  8
0
  0
LINE
  5
507
  8
0
 10
159.67894565785281
 20
93.362232277938944
 30
0.0
 11
161.11064376286069
 21
94.357340581652934
 31
0.0
  0
LINE
  5
508
  8
0
 10
166.30918464718999
 20
93.362232277938944
 30
0.0
 11
164.87748654218211
 21
94.357340581652934
 31
0.0
  0
POLYLINE
  5
509
  8
0
 66
     1
 10
0.0
 20
0.0
 30
0.0
  0
VERTEX
  5
7D8
  8
0
 10
166.99406515252139
 20
93.147594492261902
 30
0.0
 42
-0.1530277928365761
  0
VERTEX
  5
7D9
  8
0
 10
166.30918464718999
 20
93.362232277938944
 30
0.0
 42
-0.1530277928365761
  0
SEQEND
  5
7DA
  8
0
  0
POLYLINE
  5
50A
  8
0
 66
     1
 10
0.0
 20
0.0
 30
0.0
  0
VERTEX
  5
7DB
  8
0
 10
158.99406515252139
 20
93.147594492261902
 30
0.0
 42
0.1530277928365761
  0
VERTEX
  5
7DC
  8
0
 10
159.67894565785281
 20
93.362232277938944
 30
0.0
 42
0.1530277928365761
  0
SEQEND
  5
7DD
  8
0
  0
LINE
  5
50B
  8
0
 10
166.99406515252139
 20
192.6475944922619
 30
0.0
 11
166.99406515252139
 21
95.147594492260069
 31
0.0
  0
LINE
  5
50C
  8
0
 10
158.9940651525169
 20
192.6475944922619
 30
0.0
 11
158.9940651525223
 21
95.147594492261902
 31
0.0
  0
LINE
  5
50E
  8
0
 10
166.99406515252321
 20
93.147594492263721
 30
0.0
 11
172.99514217805361
 21
93.147594492263721
 31
0.0
  0
LINE
  5
50F
  8
0
 10
166.99406515252321
 20
93.147594492267373
 30
0.0
 11
172.99514217805361
 21
93.147594492267373
 31
0.0
  0
LINE
  5
510
  8
0
 10
166.99406515252321
 20
93.147594492265554
 30
0.0
 11
172.99514217805361
 21
93.147594492265554
 31
0.0
  0
LINE
  5
511
  8
0
 10
166.99406515252321
 20
93.147594492267373
 30
0.0
 11
172.99514217805361
 21
93.147594492267373
 31
0.0
  0
LINE
  5
513
  8
0
 10
94.996219203587543
 20
93.147594492263721
 30
0.0
 11
116.9951421780526
 21
93.147594492263721
 31
0.0
  0
LINE
  5
514
  8
0
 10
86.996219203583891
 20
93.147594492267373
 30
0.0
 11
82.995142178053584
 21
93.147594492267373
 31
0.0
  0
LINE
  5
515
  8
0
 10
94.996219203587543
 20
93.147594492267373
 30
0.0
 11
116.9951421780526
 21
93.147594492267373
 31
0.0
  0
LINE
  5
516
  8
0
 10
94.996219203587543
 20
93.147594492265554
 30
0.0
 11
119.9951421780536
 21
93.147594492265554
 31
0.0
  0
LINE
  5
517
  8
0
 10
94.996219203587543
 20
93.147594492267373
 30
0.0
 11
116.9951421780526
 21
93.147594492267373
 31
0.0
  0
LINE
  5
518
  8
0
 10
86.996219203583891
 20
93.147594492267373
 30
0.0
 11
82.995142178053584
 21
93.147594492267373
 31
0.0
  0
ARC
  5
51C
  8
0
 10
233.92425011665571
 20
199.5475944922633
 30
0.0
 40
1.0
 50
175.96256890509429
 51
270.0
  0
ARC
  5
51D
  8
0
 10
233.92425011665571
 20
185.74759449226389
 30
0.0
 40
1.0
 50
90.0
 51
184.03743109490571
  0
POLYLINE
  5
51E
  8
0
 66
     1
 10
0.0
 20
0.0
 30
0.0
  0
VERTEX
  5
7DE
  8
0
 10
229.69207017029771
 20
191.14759449226369
 30
0.0
 42
0.9854006762499477
  0
VERTEX
  5
7DF
  8
0
 10
433.67001015401291
 20
191.14759449226369
 30
0.0
  0
SEQEND
  5
7E0
  8
0
  0
LINE
  5
529
  8
0
 10
135.49514217805361
 20
287.94759449226478
 30
0.0
 11
135.49514217805361
 21
97.347594492266268
 31
0.0
  0
LINE
  5
52A
  8
0
 10
122.49514217805449
 20
287.94759449226478
 30
0.0
 11
122.49514217805449
 21
97.347594492266268
 31
0.0
  0
POLYLINE
  5
52B
  8
0
 66
     1
 10
0.0
 20
0.0
 30
0.0
  0
VERTEX
  5
7E1
  8
0
 10
433.67001015401291
 20
194.1475944922619
 30
0.0
 42
0.9854006762499359
  0
VERTEX
  5
7E2
  8
0
 10
229.69207017029771
 20
194.14759449226361
 30
0.0
 42
0.9854006762499359
  0
SEQEND
  5
7E3
  8
0
  0
LINE
  5
52C
  8
0
  6
CENTER2
 62
     1
 10
331.6810401621554
 20
299.12830238130448
 30
0.0
 11
331.6810401621554
 21
88.817507385985337
 31
0.0
  0
POLYLINE
  5
52D
  8
0
 66
     1
 10
0.0
 20
0.0
 30
0.0
  0
VERTEX
  5
7E4
  8
0
 10
331.6810401621554
 20
292.14759449225483
 30
0.0
 42
0.414213562373069
  0
VERTEX
  5
7E5
  8
0
 10
232.18104016215531
 20
192.64759449226369
 30
0.0
 42
0.4142135623730265
  0
VERTEX
  5
7E6
  8
0
 10
331.6810401621554
 20
93.147594492286146
 30
0.0
  0
SEQEND
  5
7E7
  8
0
  0
POLYLINE
  5
52E
  8
0
 66
     1
 10
0.0
 20
0.0
 30
0.0
  0
VERTEX
  5
7E8
  8
0
 10
331.6810401621554
 20
291.64759449226563
 30
0.0
 42
0.4142135623731013
  0
VERTEX
  5
7E9
  8
0
 10
232.6810401621552
 20
192.64759449226369
 30
0.0
 42
0.4142135623730884
  0
VERTEX
  5
7EA
  8
0
 10
331.68104016215528
 20
93.647594492266421
 30
0.0
  0
SEQEND
  5
7EB
  8
0
  0
POLYLINE
  5
52F
  8
0
 66
     1
 10
0.0
 20
0.0
 30
0.0
  0
VERTEX
  5
7EC
  8
0
 10
427.65582851826468
 20
194.8475944922626
 30
0.0
 42
0.9783590964469969
  0
VERTEX
  5
7ED
  8
0
 10
235.7018757565404
 20
194.64759449226369
 30
0.0
  0
SEQEND
  5
7EE
  8
0
  0
LINE
  5
535
  8
0
 10
80.995142178053555
 20
192.64759449226369
 30
0.0
 11
80.995142178053555
 21
291.44759449226478
 31
0.0
  0
LINE
  5
536
  8
0
 10
172.99514217805361
 20
291.44759449226478
 30
0.0
 11
172.99514217805361
 21
192.64759449226369
 31
0.0
  0
LINE
  5
537
  8
0
 10
120.39621920358699
 20
291.2188260099843
 30
0.0
 11
120.39621920358969
 21
192.64759449225599
 31
0.0
  0
LINE
  5
538
  8
0
 10
137.5940651525209
 20
291.2188260099843
 30
0.0
 11
137.5940651525209
 21
192.6475944922619
 31
0.0
  0
LINE
  5
539
  8
0
  6
CENTER2
 62
     1
 10
128.99514217805361
 20
192.6475944922619
 30
0.0
 11
128.99514217805361
 21
300.04246690369621
 31
0.0
  0
LINE
  5
53A
  8
0
 10
86.996219203585724
 20
192.6475944922619
 30
0.0
 11
86.996219203585724
 21
290.14759449226369
 31
0.0
  0
LINE
  5
53B
  8
0
 10
94.996219203590229
 20
192.6475944922619
 30
0.0
 11
94.996219203584801
 21
290.14759449226187
 31
0.0
  0
LINE
  5
53C
  8
0
 10
158.9940651525169
 20
192.6475944922619
 30
0.0
 11
158.9940651525223
 21
290.14759449226187
 31
0.0
  0
LINE
  5
53D
  8
0
 10
166.99406515252139
 20
192.6475944922619
 30
0.0
 11
166.99406515252139
 21
290.14759449226369
 31
0.0
  0
LINE
  5
548
  8
0
  6
CENTER2
 62
     1
 10
224.7815327458886
 20
192.64759449226369
 30
0.0
 11
440.75025915690651
 21
192.64759449226369
 31
0.0
  0
LINE
  5
549
  8
0
 10
435.68104016215523
 20
194.1475944922619
 30
0.0
 11
431.16973298701851
 21
194.1475944922629
 31
0.0
  0
LINE
  5
54A
  8
0
 10
435.68104016215523
 20
191.14759449226369
 30
0.0
 11
431.16973298701828
 21
191.14759449226369
 31
0.0
  0
POLYLINE
  5
60E
  8
0
 66
     1
 10
0.0
 20
0.0
 30
0.0
  0
VERTEX
  5
7EF
  8
0
 10
331.6810401621554
 20
291.64759449226563
 30
0.0
 42
-0.4142135623731013
  0
VERTEX
  5
7F0
  8
0
 10
430.6810401621554
 20
192.64759449226369
 30
0.0
 42
-0.4142135623730884
  0
VERTEX
  5
7F1
  8
0
 10
331.6810401621554
 20
93.647594492266421
 30
0.0
  0
SEQEND
  5
7F2
  8
0
  0
POLYLINE
  5
60F
  8
0
 66
     1
 10
0.0
 20
0.0
 30
0.0
  0
VERTEX
  5
7F3
  8
0
 10
331.68104016215528
 20
292.14759449225483
 30
0.0
 42
-0.414213562373069
  0
VERTEX
  5
7F4
  8
0
 10
431.1810401621554
 20
192.64759449226381
 30
0.0
 42
-0.4142135623730265
  0
VERTEX
  5
7F5
  8
0
 10
331.68104016215551
 20
93.147594492286146
 30
0.0
  0
SEQEND
  5
7F6
  8
0
  0
LINE
  5
610
  8
0
 10
428.18104016215523
 20
194.14759449226361
 30
0.0
 11
427.68104016215523
 21
194.14759449226361
 31
0.0
  0
LINE
  5
611
  8
0
 10
428.18104016215523
 20
191.14759449226369
 30
0.0
 11
427.68104016215523
 21
191.14759449226369
 31
0.0
  0
ENDSEC
  0
EOF
