  0
SECTION
  2
HEADER
  9
$ACADVER
  1
AC1009
  9
$INSBASE
 10
0.0
 20
0.0
 30
0.0
  9
$EXTMIN
 10
78.387364654717203
 20
95.481338106053045
 30
-0.0015258207003583
  9
$EXTMAX
 10
557.01518223219909
 20
396.22971465961461
 30
0.0000000349246037
  9
$LIMMIN
 10
0.0
 20
0.0
  9
$LIMMAX
 10
12.0
 20
9.0
  9
$ORTHOMODE
 70
     1
  9
$REGENMODE
 70
     1
  9
$FILLMODE
 70
     1
  9
$QTEXTMODE
 70
     0
  9
$MIRRTEXT
 70
     0
  9
$DRAGMODE
 70
     2
  9
$LTSCALE
 40
1.0
  9
$OSMODE
 70
   951
  9
$ATTMODE
 70
     1
  9
$TEXTSIZE
 40
0.2
  9
$TRACEWID
 40
0.05
  9
$TEXTSTYLE
  7
STANDARD
  9
$CLAYER
  8
0
  9
$CELTYPE
  6
BYLAYER
  9
$CECOLOR
 62
   256
  9
$DIMSCALE
 40
1.0
  9
$DIMASZ
 40
3.5
  9
$DIMEXO
 40
0.0
  9
$DIMDLI
 40
7.0
  9
$DIMRND
 40
0.0
  9
$DIMDLE
 40
0.0
  9
$DIMEXE
 40
1.25
  9
$DIMTP
 40
0.0
  9
$DIMTM
 40
0.000000001
  9
$DIMTXT
 40
3.5
  9
$DIMCEN
 40
3.0
  9
$DIMTSZ
 40
0.0
  9
$DIMTOL
 70
     0
  9
$DIMLIM
 70
     0
  9
$DIMTIH
 70
     0
  9
$DIMTOH
 70
     1
  9
$DIMSE1
 70
     0
  9
$DIMSE2
 70
     0
  9
$DIMTAD
 70
     1
  9
$DIMZIN
 70
     8
  9
$DIMBLK
  1

  9
$DIMASO
 70
     1
  9
$DIMSHO
 70
     1
  9
$DIMPOST
  1

  9
$DIMAPOST
  1

  9
$DIMALT
 70
     0
  9
$DIMALTD
 70
     3
  9
$DIMALTF
 40
0.03937007874016
  9
$DIMLFAC
 40
1.0
  9
$DIMTOFL
 70
     1
  9
$DIMTVP
 40
0.0
  9
$DIMTIX
 70
     0
  9
$DIMSOXD
 70
     0
  9
$DIMSAH
 70
     0
  9
$DIMBLK1
  1

  9
$DIMBLK2
  1

  9
$DIMSTYLE
  2
COPY_OF_ISO-25
  9
$DIMCLRD
 70
   256
  9
$DIMCLRE
 70
   256
  9
$DIMCLRT
 70
   256
  9
$DIMTFAC
 40
1.0
  9
$DIMGAP
 40
1.0
  9
$LUNITS
 70
     2
  9
$LUPREC
 70
     4
  9
$SKETCHINC
 40
0.1
  9
$FILLETRAD
 40
0.0
  9
$AUNITS
 70
     0
  9
$AUPREC
 70
     0
  9
$MENU
  1
.
  9
$ELEVATION
 40
0.0
  9
$PELEVATION
 40
0.0
  9
$THICKNESS
 40
0.0
  9
$LIMCHECK
 70
     0
  9
$BLIPMODE
 70
     0
  9
$CHAMFERA
 40
0.0
  9
$CHAMFERB
 40
0.0
  9
$SKPOLY
 70
     0
  9
$TDCREATE
 40
2455699.5861950349
  9
$TDUPDATE
 40
2455699.6095090169
  9
$TDINDWG
 40
0.0065330093
  9
$TDUSRTIMER
 40
0.0065328356
  9
$USRTIMER
 70
     1
  9
$ANGBASE
 50
0.0
  9
$ANGDIR
 70
     0
  9
$PDMODE
 70
     0
  9
$PDSIZE
 40
0.0
  9
$PLINEWID
 40
0.0
  9
$COORDS
 70
     1
  9
$SPLFRAME
 70
     0
  9
$SPLINETYPE
 70
     6
  9
$SPLINESEGS
 70
     8
  9
$ATTDIA
 70
     0
  9
$ATTREQ
 70
     1
  9
$HANDLING
 70
     1
  9
$HANDSEED
  5
7D6
  9
$SURFTAB1
 70
     6
  9
$SURFTAB2
 70
     6
  9
$SURFTYPE
 70
     6
  9
$SURFU
 70
     6
  9
$SURFV
 70
     6
  9
$UCSNAME
  2

  9
$UCSORG
 10
0.0
 20
0.0
 30
0.0
  9
$UCSXDIR
 10
1.0
 20
0.0
 30
0.0
  9
$UCSYDIR
 10
0.0
 20
1.0
 30
0.0
  9
$PUCSNAME
  2

  9
$PUCSORG
 10
0.0
 20
0.0
 30
0.0
  9
$PUCSXDIR
 10
1.0
 20
0.0
 30
0.0
  9
$PUCSYDIR
 10
0.0
 20
1.0
 30
0.0
  9
$USERI1
 70
     0
  9
$USERI2
 70
     0
  9
$USERI3
 70
     0
  9
$USERI4
 70
     0
  9
$USERI5
 70
     0
  9
$USERR1
 40
0.0
  9
$USERR2
 40
0.0
  9
$USERR3
 40
0.0
  9
$USERR4
 40
0.0
  9
$USERR5
 40
0.0
  9
$WORLDVIEW
 70
     1
  9
$SHADEDGE
 70
     3
  9
$SHADEDIF
 70
    70
  9
$TILEMODE
 70
     1
  9
$MAXACTVP
 70
    64
  9
$PLIMCHECK
 70
     0
  9
$PEXTMIN
 10
0.0
 20
0.0
 30
0.0
  9
$PEXTMAX
 10
0.0
 20
0.0
 30
0.0
  9
$PLIMMIN
 10
0.0
 20
0.0
  9
$PLIMMAX
 10
12.0
 20
9.0
  9
$UNITMODE
 70
     0
  9
$VISRETAIN
 70
     1
  9
$PLINEGEN
 70
     0
  9
$PSLTSCALE
 70
     1
  0
ENDSEC
  0
SECTION
  2
TABLES
  0
TABLE
  2
VPORT
 70
     2
  0
VPORT
  2
*ACTIVE
 70
     0
 10
0.0
 20
0.0
 11
1.0
 21
1.0
 12
317.70127344345809
 22
245.8555263828338
 13
0.0
 23
0.0
 14
0.5
 24
0.5
 15
0.5
 25
0.5
 16
0.0
 26
0.0
 36
1.0
 17
0.0
 27
0.0
 37
0.0
 40
303.4824527040484
 41
2.0698027314112291
 42
50.0
 43
0.0
 44
0.0
 50
0.0
 51
0.0
 71
     0
 72
  1000
 73
     1
 74
     3
 75
     0
 76
     0
 77
     0
 78
     0
  0
ENDTAB
  0
TABLE
  2
LTYPE
 70
     2
  0
LTYPE
  2
CONTINUOUS
 70
     0
  3
Solid line
 72
    65
 73
     0
 40
0.0
  0
LTYPE
  2
CENTER2
 70
     0
  3
Center (.5x) ___ _ ___ _ ___ _ ___ _ ___ _ ___
 72
    65
 73
     4
 40
28.574999999999999
 49
19.050000000000001
 49
-3.174999999999998
 49
3.174999999999998
 49
-3.174999999999998
  0
ENDTAB
  0
TABLE
  2
LAYER
 70
     3
  0
LAYER
  2
0
 70
     0
 62
     7
  6
CONTINUOUS
  0
LAYER
  2
DEFPOINTS
 70
     0
 62
   142
  6
CONTINUOUS
  0
LAYER
  2
PAGR
 70
     0
 62
     7
  6
CONTINUOUS
  0
ENDTAB
  0
TABLE
  2
STYLE
 70
     4
  0
STYLE
  2
STANDARD
 70
     0
 40
0.0
 41
1.0
 50
0.0
 71
     0
 42
0.2
  3
txt
  4

  0
STYLE
  2
LIETUV2
 70
     0
 40
2.5
 41
1.0
 50
0.0
 71
     0
 42
2.5
  3
txt
  4

  0
STYLE
  2
ISO_PROPORTIONAL
 70
     0
 40
0.0
 41
1.0
 50
0.0
 71
     0
 42
40.0
  3
romanc.shx
  4

  0
STYLE
  2
GOST
 70
     0
 40
0.0
 41
0.8
 50
0.0
 71
     0
 42
3.5
  3
litc.shx
  4

  0
ENDTAB
  0
TABLE
  2
VIEW
 70
     0
  0
ENDTAB
  0
TABLE
  2
UCS
 70
     0
  0
ENDTAB
  0
TABLE
  2
APPID
 70
     1
  0
APPID
  2
ACAD
 70
     0
  0
ENDTAB
  0
TABLE
  2
DIMSTYLE
 70
     6
  0
DIMSTYLE
  2
STANDARD
 70
     0
  3

  4

  5

  6

  7

 40
1.0
 41
0.18
 42
0.0625
 43
0.38
 44
0.18
 45
0.0
 46
0.0
 47
0.0
 48
0.0
140
0.18
141
0.09
142
0.0
143
25.399999999999999
144
1.0
145
0.0
146
1.0
147
0.09
 71
     0
 72
     0
 73
     1
 74
     1
 75
     0
 76
     0
 77
     0
 78
     0
170
     0
171
     2
172
     0
173
     0
174
     0
175
     0
176
     0
177
     0
178
     0
  0
DIMSTYLE
  2
ISO-25
 70
     0
  3

  4

  5

  6

  7

 40
1.0
 41
5.0
 42
0.625
 43
3.75
 44
1.25
 45
0.0
 46
0.0
 47
0.0
 48
0.0
140
2.5
141
1.5
142
0.0
143
0.03937007874016
144
1.0
145
0.0
146
1.0
147
0.625
 71
     0
 72
     0
 73
     0
 74
     1
 75
     0
 76
     0
 77
     1
 78
     8
170
     0
171
     3
172
     1
173
     0
174
     0
175
     0
176
     0
177
     0
178
     0
  0
DIMSTYLE
  2
COPY_OF_STANDARD
 70
     0
  3

  4

  5

  6

  7

 40
1.0
 41
3.7299999999999991
 42
0.0
 43
0.0
 44
1.0
 45
0.1
 46
0.0
 47
0.0
 48
0.000000001
140
3.5
141
0.09
142
0.0
143
25.399999999999999
144
1.0
145
0.0
146
1.0
147
1.0
 71
     0
 72
     0
 73
     0
 74
     1
 75
     0
 76
     0
 77
     1
 78
     8
170
     0
171
     2
172
     0
173
     0
174
     0
175
     1
176
     0
177
     0
178
     0
  0
DIMSTYLE
  2
COPY_OF_ISO-25
 70
     0
  3

  4

  5

  6

  7

 40
1.0
 41
3.5
 42
0.0
 43
7.0
 44
1.25
 45
0.0
 46
0.0
 47
0.0
 48
0.000000001
140
3.5
141
3.0
142
0.0
143
0.03937007874016
144
1.0
145
0.0
146
1.0
147
1.0
 71
     0
 72
     0
 73
     0
 74
     1
 75
     0
 76
     0
 77
     1
 78
     8
170
     0
171
     3
172
     1
173
     0
174
     0
175
     0
176
   256
177
   256
178
   256
  0
DIMSTYLE
  2
GOST
 70
     0
  3

  4

  5

  6

  7

 40
0.0
 41
3.0
 42
0.0
 43
8.0
 44
1.25
 45
0.0
 46
0.0
 47
0.0
 48
0.0
140
3.0
141
5.0
142
0.0
143
25.399999999999999
144
1.0
145
0.0
146
1.0
147
0.625
 71
     0
 72
     0
 73
     0
 74
     1
 75
     0
 76
     0
 77
     1
 78
     8
170
     0
171
     2
172
     1
173
     0
174
     0
175
     0
176
     0
177
     0
178
     0
  0
DIMSTYLE
  2
ISO-25M
 70
     0
  3

  4

  5

  6

  7

 40
2.0
 41
2.5
 42
0.0
 43
3.75
 44
1.25
 45
0.0
 46
0.0
 47
0.0
 48
0.000000001
140
2.5
141
2.5
142
0.0
143
0.03937007874016
144
1.0
145
0.0
146
1.0
147
0.625
 71
     0
 72
     0
 73
     0
 74
     0
 75
     0
 76
     0
 77
     1
 78
     8
170
     0
171
     3
172
     1
173
     0
174
     0
175
     0
176
     0
177
     0
178
     0
  0
ENDTAB
  0
ENDSEC
  0
SECTION
  2
BLOCKS
  0
BLOCK
  8
0
  2
$MODEL_SPACE
 70
     0
 10
0.0
 20
0.0
 30
0.0
  3
$MODEL_SPACE
  1

  0
ENDBLK
  5
71D
  8
0
  0
BLOCK
 67
     1
  8
0
  2
$PAPER_SPACE
 70
     0
 10
0.0
 20
0.0
 30
0.0
  3
$PAPER_SPACE
  1

  0
ENDBLK
  5
719
 67
     1
  8
0
  0
BLOCK
  8
0
  2
*D2
 70
     1
 10
0.0
 20
0.0
 30
0.0
  3
*D2
  1

  0
LINE
  5
5C0
  8
0
 10
93.148770002256043
 20
137.65771643472991
 30
0.0
 11
93.148770002256043
 21
70.052467550574193
 31
0.0
  0
LINE
  5
5C1
  8
0
 10
220.1487700022561
 20
137.6577164347309
 30
0.0
 11
220.1487700022561
 21
70.052467550574193
 31
0.0
  0
LINE
  5
5C2
  8
0
 10
96.648770002256043
 20
71.302467550574193
 30
0.0
 11
216.6487700022561
 21
71.302467550574193
 31
0.0
  0
SOLID
  5
5C3
  8
0
 10
96.648770002256043
 20
71.885800883907521
 30
0.0
 11
96.648770002256043
 21
70.719134217240864
 31
0.0
 12
93.148770002256043
 22
71.302467550574193
 32
0.0
 13
93.148770002256043
 23
71.302467550574193
 33
0.0
  0
SOLID
  5
5C4
  8
0
 10
216.6487700022561
 20
71.885800883907521
 30
0.0
 11
216.6487700022561
 21
70.719134217240864
 31
0.0
 12
220.1487700022561
 22
71.302467550574193
 32
0.0
 13
220.1487700022561
 23
71.302467550574193
 33
0.0
  0
INSERT
  5
5C5
  8
0
  2
*U3
 10
0.0
 20
0.0
 30
0.0
  0
POINT
  5
5C6
  8
DEFPOINTS
 62
     0
 10
93.148770002256043
 20
137.65771643472991
 30
0.0
  0
POINT
  5
5C7
  8
DEFPOINTS
 62
     0
 10
220.1487700022561
 20
137.6577164347309
 30
0.0
  0
POINT
  5
5C8
  8
DEFPOINTS
 62
     0
 10
220.1487700022561
 20
71.302467550574193
 30
0.0
  0
ENDBLK
  5
5BE
  8
0
  0
BLOCK
  8
0
  2
*U3
 70
     1
 10
0.0
 20
0.0
 30
0.0
  3
*U3
  1

  0
TEXT
  5
6DF
  8
0
 10
151.89877000225599
 20
72.302467550574193
 30
0.0
 40
3.5
  1
127
  7
ISO_PROPORTIONAL
  0
ENDBLK
  5
6E1
  8
0
  0
BLOCK
  8
0
  2
*D4
 70
     1
 10
0.0
 20
0.0
 30
0.0
  3
*D4
  1

  0
LINE
  5
5E2
  8
0
 10
93.14877000225529
 20
370.43282787712059
 30
0.0
 11
59.496697344272278
 21
370.43282787712059
 31
0.0
  0
LINE
  5
5E3
  8
0
 10
93.14877000225529
 20
121.4328278771206
 30
0.0
 11
59.496697344272221
 21
121.4328278771206
 31
0.0
  0
LINE
  5
5E4
  8
0
 10
60.74669734427227
 20
366.9328278771207
 30
0.0
 11
60.746697344272221
 21
124.9328278771206
 31
0.0
  0
SOLID
  5
5E5
  8
0
 10
60.163364010938942
 20
366.9328278771207
 30
0.0
 11
61.33003067760562
 21
366.9328278771207
 31
0.0
 12
60.746697344272278
 22
370.43282787712059
 32
0.0
 13
60.746697344272278
 23
370.43282787712059
 33
0.0
  0
SOLID
  5
5E6
  8
0
 10
60.163364010938878
 20
124.9328278771206
 30
0.0
 11
61.330030677605542
 21
124.9328278771206
 31
0.0
 12
60.746697344272221
 22
121.4328278771206
 32
0.0
 13
60.746697344272221
 23
121.4328278771206
 33
0.0
  0
INSERT
  5
5E7
  8
0
  2
*U5
 10
0.0
 20
0.0
 30
0.0
  0
POINT
  5
5E8
  8
DEFPOINTS
 62
     0
 10
93.14877000225529
 20
370.43282787712059
 30
0.0
  0
POINT
  5
5E9
  8
DEFPOINTS
 62
     0
 10
93.14877000225529
 20
121.4328278771206
 30
0.0
  0
POINT
  5
5EA
  8
DEFPOINTS
 62
     0
 10
60.746697344272221
 20
121.4328278771206
 30
0.0
  0
ENDBLK
  5
5D6
  8
0
  0
BLOCK
  8
0
  2
*U5
 70
     1
 10
0.0
 20
0.0
 30
0.0
  3
*U5
  1

  0
TEXT
  5
6E3
  8
0
 10
59.746697344272199
 20
244.08774333154901
 30
0.0
 40
3.5
  1
249
 50
90.0
  7
ISO_PROPORTIONAL
  0
ENDBLK
  5
6E5
  8
0
  0
BLOCK
  8
0
  2
*D6
 70
     1
 10
0.0
 20
0.0
 30
0.0
  3
*D6
  1

  0
LINE
  5
5F9
  8
0
 10
275.39812416877243
 20
247.4328278771205
 30
0.0
 11
275.39812416877243
 21
283.38454986578569
 31
0.0
  0
LINE
  5
5FA
  8
0
 10
533.39812416877226
 20
247.4328278771205
 30
0.0
 11
533.39812416877226
 21
283.38454986578569
 31
0.0
  0
LINE
  5
5FB
  8
0
 10
278.89812416877243
 20
282.13454986578569
 30
0.0
 11
529.89812416877226
 21
282.13454986578569
 31
0.0
  0
SOLID
  5
5FC
  8
0
 10
278.89812416877243
 20
282.717883199119
 30
0.0
 11
278.89812416877243
 21
281.55121653245237
 31
0.0
 12
275.39812416877243
 22
282.13454986578569
 32
0.0
 13
275.39812416877243
 23
282.13454986578569
 33
0.0
  0
SOLID
  5
5FD
  8
0
 10
529.89812416877226
 20
282.717883199119
 30
0.0
 11
529.89812416877226
 21
281.55121653245237
 31
0.0
 12
533.39812416877226
 22
282.13454986578569
 32
0.0
 13
533.39812416877226
 23
282.13454986578569
 33
0.0
  0
INSERT
  5
5FE
  8
0
  2
*U7
 10
0.0
 20
0.0
 30
0.0
  0
POINT
  5
5FF
  8
DEFPOINTS
 62
     0
 10
275.39812416877243
 20
247.4328278771205
 30
0.0
  0
POINT
  5
600
  8
DEFPOINTS
 62
     0
 10
533.39812416877226
 20
247.4328278771205
 30
0.0
  0
POINT
  5
601
  8
DEFPOINTS
 62
     0
 10
533.39812416877226
 20
282.13454986578569
 30
0.0
  0
ENDBLK
  5
5F7
  8
0
  0
BLOCK
  8
0
  2
*U7
 70
     1
 10
0.0
 20
0.0
 30
0.0
  3
*U7
  1

  0
TEXT
  5
6E7
  8
0
 10
399.39812416877243
 20
283.13454986578569
 30
0.0
 40
3.5
  1
258
  7
ISO_PROPORTIONAL
  0
ENDBLK
  5
6E9
  8
0
  0
BLOCK
  8
0
  2
*D8
 70
     1
 10
0.0
 20
0.0
 30
0.0
  3
*D8
  1

  0
LINE
  5
611
  8
0
 10
475.86344667385362
 20
369.62203533515333
 30
0.0
 11
462.3634466738535
 21
369.62203533515333
 31
0.0
  0
LINE
  5
612
  8
0
 10
462.3634466738535
 20
369.62203533515333
 30
0.0
 11
459.77578428956241
 21
364.1003562406591
 31
0.0
  0
LINE
  5
613
  8
0
 10
349.0204640479821
 20
127.7652995135943
 30
0.0
 11
347.53523944704148
 21
124.59605545786739
 31
0.0
  0
INSERT
  5
614
  8
0
  2
*U9
 10
0.0
 20
0.0
 30
0.0
  0
LINE
  5
615
  8
0
 10
350.50568864892278
 20
130.93454356932119
 30
0.0
 11
458.29055968862173
 21
360.9311121849322
 31
0.0
  0
SOLID
  5
616
  8
0
 10
348.49225670536089
 20
128.01283694708439
 30
0.0
 11
349.5486713906032
 21
127.51776208010421
 31
0.0
 12
350.50568864892278
 22
130.93454356932119
 32
0.0
 13
350.50568864892278
 23
130.93454356932119
 33
0.0
  0
SOLID
  5
617
  8
0
 10
459.24757694694119
 20
364.34789367414919
 30
0.0
 11
460.30399163218362
 21
363.85281880716911
 31
0.0
 12
458.29055968862173
 22
360.9311121849322
 32
0.0
 13
458.29055968862173
 23
360.9311121849322
 33
0.0
  0
POINT
  5
618
  8
DEFPOINTS
 62
     0
 10
458.29055968862173
 20
360.9311121849322
 30
0.0
  0
POINT
  5
619
  8
DEFPOINTS
 62
     0
 10
350.50568864892278
 20
130.93454356932119
 30
0.0
  0
ENDBLK
  5
60F
  8
0
  0
BLOCK
  8
0
  2
*U9
 70
     1
 10
0.0
 20
0.0
 30
0.0
  3
*U9
  1

  0
TEXT
  5
6EB
  8
0
 10
463.03011334052042
 20
370.62203533515333
 30
0.0
 40
3.5
  1
\U+2205254
  7
ISO_PROPORTIONAL
  0
ENDBLK
  5
6ED
  8
0
  0
BLOCK
  8
0
  2
*D10
 70
     1
 10
0.0
 20
0.0
 30
0.0
  3
*D10
  1

  0
LINE
  5
61D
  8
0
 10
166.19252091215441
 20
372.93187034763469
 30
0.0
 11
239.26079948612761
 21
372.93187034763469
 31
0.0
  0
LINE
  5
61E
  8
0
 10
165.8857138618439
 20
118.9328278771206
 30
0.0
 11
239.2607994861275
 21
118.9328278771206
 31
0.0
  0
LINE
  5
61F
  8
0
 10
238.01079948612761
 20
369.43187034763469
 30
0.0
 11
238.01079948612761
 21
122.4328278771206
 31
0.0
  0
SOLID
  5
620
  8
0
 10
237.4274661527943
 20
369.43187034763469
 30
0.0
 11
238.59413281946101
 21
369.43187034763469
 31
0.0
 12
238.01079948612761
 22
372.93187034763469
 32
0.0
 13
238.01079948612761
 23
372.93187034763469
 33
0.0
  0
SOLID
  5
621
  8
0
 10
237.42746615279421
 20
122.4328278771206
 30
0.0
 11
238.5941328194609
 21
122.4328278771206
 31
0.0
 12
238.01079948612761
 22
118.9328278771206
 32
0.0
 13
238.01079948612761
 23
118.9328278771206
 33
0.0
  0
INSERT
  5
622
  8
0
  2
*U11
 10
0.0
 20
0.0
 30
0.0
  0
POINT
  5
623
  8
DEFPOINTS
 62
     0
 10
166.19252091215441
 20
372.93187034763469
 30
0.0
  0
POINT
  5
624
  8
DEFPOINTS
 62
     0
 10
165.8857138618439
 20
118.9328278771206
 30
0.0
  0
POINT
  5
625
  8
DEFPOINTS
 62
     0
 10
238.01079948612761
 20
118.9328278771206
 30
0.0
  0
ENDBLK
  5
627
  8
0
  0
BLOCK
  8
0
  2
*U11
 70
     1
 10
0.0
 20
0.0
 30
0.0
  3
*U11
  1

  0
TEXT
  5
6EF
  8
0
 10
237.0107994861275
 20
240.84901577904421
 30
0.0
 40
3.5
  1
254
 50
90.0
  7
ISO_PROPORTIONAL
  0
ENDBLK
  5
6F1
  8
0
  0
BLOCK
  8
0
  2
*U12
 70
     1
 10
0.0
 20
0.0
 30
0.0
  3
*U12
  1

  0
TEXT
  5
642
  8
0
 10
-2301.2403005745318
 20
12849.212480972041
 30
0.0
 40
5.0
  1
\U+2205
 50
90.0
  0
TEXT
  5
643
  8
0
 10
-2301.2403005745318
 20
12854.21248097205
 30
0.0
 40
5.0
  1
249
 50
90.0
  0
TEXT
  5
644
  8
0
 10
-2305.2403005745318
 20
12869.212480972041
 30
0.0
 40
3.0
  1
+0.3
 50
90.0
  0
TEXT
  5
645
  8
0
 10
-2301.2403005745318
 20
12869.212480972041
 30
0.0
 40
3.0
  1
-0.5
 50
90.0
  0
ENDBLK
  5
647
  8
0
  0
BLOCK
  8
0
  2
*U13
 70
     1
 10
0.0
 20
0.0
 30
0.0
  3
*U13
  1

  0
TEXT
  5
649
  8
0
 10
-1877.493590820671
 20
12980.084240144441
 30
0.0
 40
5.0
  1
\U+2205
  0
TEXT
  5
64A
  8
0
 10
-1872.4935908206719
 20
12980.084240144441
 30
0.0
 40
5.0
  1
252
  0
TEXT
  5
64B
  8
0
 10
-1857.4935908206719
 20
12980.084240144441
 30
0.0
 40
3.75
  1
-1.0
  0
ENDBLK
  5
64D
  8
0
  0
BLOCK
  8
0
  2
*U14
 70
     1
 10
0.0
 20
0.0
 30
0.0
  3
*U14
  1

  0
TEXT
  5
64F
  8
0
 10
-2228.6508043142981
 20
12707.77118836047
 30
0.0
 40
5.0
  1
127
  0
TEXT
  5
650
  8
0
 10
-2215.3174709809641
 20
12707.77118836047
 30
0.0
 40
3.571499999999999
  1
-1.2
  0
ENDBLK
  5
652
  8
0
  0
BLOCK
  8
0
  2
*U15
 70
     1
 10
0.0
 20
0.0
 30
0.0
  3
*U15
  1

  0
TEXT
  5
654
  8
0
 10
-1976.6156406239711
 20
12723.366116065041
 30
0.0
 40
5.0
  1
258
  7
ISO_PROPORTIONAL
  0
ENDBLK
  5
656
  8
0
  0
BLOCK
  8
0
  2
*U16
 70
     1
 10
0.0
 20
0.0
 30
0.0
  3
*U16
  1

  0
TEXT
  5
658
  8
0
 10
-2202.2102328857268
 20
12955.07510147032
 30
0.0
 40
5.0
  1
10.5
  0
ENDBLK
  5
65A
  8
0
  0
BLOCK
  8
0
  2
*U17
 70
     1
 10
0.0
 20
0.0
 30
0.0
  3
*U17
  1

  0
TEXT
  5
65C
  8
0
 10
-2229.9838174610591
 20
12997.762480972049
 30
0.0
 40
5.0
  1
6
  0
ENDBLK
  5
65E
  8
0
  0
BLOCK
  8
0
  2
*U18
 70
     1
 10
0.0
 20
0.0
 30
0.0
  3
*U18
  1

  0
TEXT
  5
6C1
  8
0
 10
496.37731682921361
 20
362.55458704951133
 30
0.0
 40
5.0
  1
\U+2205
  0
TEXT
  5
6C2
  8
0
 10
501.37731682921373
 20
362.55458704951133
 30
0.0
 40
5.0
  1
252
  0
TEXT
  5
6C3
  8
0
 10
516.37731682921356
 20
362.55458704951133
 30
0.0
 40
3.75
  1
-1.0
  0
ENDBLK
  5
6C5
  8
0
  0
BLOCK
  8
0
  2
*U19
 70
     1
 10
0.0
 20
0.0
 30
0.0
  3
*U19
  1

  0
TEXT
  5
6C7
  8
0
 10
397.2552670259152
 20
105.83646297010981
 30
0.0
 40
5.0
  1
258
  7
ISO_PROPORTIONAL
  0
ENDBLK
  5
6C9
  8
0
  0
BLOCK
  8
0
  2
*U20
 70
     1
 10
0.0
 20
0.0
 30
0.0
  3
*U20
  1

  0
TEXT
  5
6CB
  8
0
 10
72.630607075356139
 20
231.6828278771207
 30
0.0
 40
5.0
  1
\U+2205
 50
90.0
  0
TEXT
  5
6CC
  8
0
 10
72.630607075356139
 20
236.68282787712059
 30
0.0
 40
5.0
  1
249
 50
90.0
  0
TEXT
  5
6CD
  8
0
 10
68.630607075356153
 20
251.6828278771205
 30
0.0
 40
3.0
  1
+0.3
 50
90.0
  0
TEXT
  5
6CE
  8
0
 10
72.630607075356139
 20
251.6828278771205
 30
0.0
 40
3.0
  1
-0.5
 50
90.0
  0
ENDBLK
  5
6D0
  8
0
  0
BLOCK
  8
0
  2
*U21
 70
     1
 10
0.0
 20
0.0
 30
0.0
  3
*U21
  1

  0
TEXT
  5
6D2
  8
0
 10
171.66067476415941
 20
337.54544837539271
 30
0.0
 40
5.0
  1
10.5
  0
ENDBLK
  5
6D4
  8
0
  0
BLOCK
  8
0
  2
*U22
 70
     1
 10
0.0
 20
0.0
 30
0.0
  3
*U22
  1

  0
TEXT
  5
6D6
  8
0
 10
143.88709018882699
 20
380.23282787711997
 30
0.0
 40
5.0
  1
6
  0
ENDBLK
  5
6D8
  8
0
  0
BLOCK
  8
0
  2
*U23
 70
     1
 10
0.0
 20
0.0
 30
0.0
  3
*U23
  1

  0
TEXT
  5
6DA
  8
0
 10
145.22010333558859
 20
90.241535265547796
 30
0.0
 40
5.0
  1
127
  0
TEXT
  5
6DB
  8
0
 10
158.5534366689219
 20
90.241535265547796
 30
0.0
 40
3.571499999999999
  1
-1.2
  0
ENDBLK
  5
6DD
  8
0
  0
ENDSEC
  0
SECTION
  2
ENTITIES
  0
POLYLINE
  5
309
  8
0
 66
     1
 10
0.0
 20
0.0
 30
0.0
  0
VERTEX
  5
763
  8
0
 10
283.89603994315428
 20
234.9670767727892
 30
0.0
  0
VERTEX
  5
764
  8
0
 10
524.90020839439046
 20
234.9670767727892
 30
0.0
  0
SEQEND
  5
765
  8
0
  0
POLYLINE
  5
30A
  8
0
 66
     1
 10
0.0
 20
0.0
 30
0.0
  0
VERTEX
  5
766
  8
0
 10
283.89603994315428
 20
256.89857898145038
 30
0.0
  0
VERTEX
  5
767
  8
0
 10
524.90020839439046
 20
256.89857898145038
 30
0.0
  0
SEQEND
  5
768
  8
0
  0
LINE
  5
30F
  8
0
 10
144.8987977738679
 20
245.9328278771188
 30
0.0
 11
150.8987977738679
 21
245.9328278771188
 31
0.0
  0
LINE
  5
310
  8
0
 10
144.8987977738679
 20
245.9328278771188
 30
0.0
 11
150.8987977738679
 21
245.9328278771188
 31
0.0
  0
LINE
  5
311
  8
0
  6
CENTER2
 62
     1
 10
145.1487977738679
 20
245.9328278771188
 30
0.0
 11
151.1487977738679
 21
245.9328278771188
 31
0.0
  0
LINE
  5
312
  8
0
  6
CENTER2
 62
     1
 10
147.8987977738679
 20
242.9328278771188
 30
0.0
 11
147.8987977738679
 21
248.9328278771188
 31
0.0
  0
POLYLINE
  5
313
  8
0
 66
     1
 10
0.0
 20
0.0
 30
0.0
 70
     1
  0
VERTEX
  5
769
  8
0
 10
146.3987977738679
 20
245.9328278771188
 30
0.0
 42
1.0
  0
VERTEX
  5
76A
  8
0
 10
149.3987977738679
 20
245.9328278771188
 30
0.0
 42
1.0
  0
SEQEND
  5
76B
  8
0
  0
LINE
  5
32A
  8
0
 10
153.1487977738679
 20
256.83276218025981
 30
0.0
 11
153.1487977738679
 21
247.19675034309489
 31
0.0
  0
LINE
  5
331
  8
0
 10
153.1487977738679
 20
244.6689054111464
 30
0.0
 11
153.1487977738679
 21
235.03289357398509
 31
0.0
  0
LINE
  5
334
  8
0
 10
492.20899174468627
 20
254.43219529008439
 30
0.0
 11
491.40376228416949
 21
244.13484254222911
 31
0.0
  0
LINE
  5
335
  8
0
 10
491.80899174468408
 20
254.43219529008439
 30
0.0
 11
491.00376228416809
 21
244.13484254222911
 31
0.0
  0
LINE
  5
337
  8
0
 10
406.86521028084718
 20
254.43219529008439
 30
0.0
 11
406.0599808203313
 21
244.13484254222911
 31
0.0
  0
LINE
  5
338
  8
0
 10
407.26521028084949
 20
254.43219529008439
 30
0.0
 11
406.45998082033282
 21
244.13484254222911
 31
0.0
  0
LINE
  5
339
  8
0
  6
CENTER2
 62
     1
 10
404.39812416877231
 20
376.34415025163599
 30
0.0
 11
404.39812416877231
 21
116.0128445877269
 31
0.0
  0
LINE
  5
33A
  8
0
 10
533.39812416877226
 20
247.4328278771205
 30
0.0
 11
533.39812416877226
 21
244.4328278771207
 31
0.0
  0
LINE
  5
33B
  8
0
 10
504.89812416877231
 20
243.93282787711701
 30
0.0
 11
504.89812416877231
 21
248.1328278771214
 31
0.0
  0
LINE
  5
33C
  8
0
  6
CONTINUOUS
 62
     7
 10
516.89812416877226
 20
247.9328278771205
 30
0.0
 11
524.86363115353004
 21
247.9328278771205
 31
0.0
  0
LINE
  5
33D
  8
0
  6
CONTINUOUS
 62
     7
 10
516.29742416877332
 20
243.93282787711701
 30
0.0
 11
515.39812416877226
 21
243.93282787711701
 31
0.0
  0
LINE
  5
33E
  8
0
 10
525.39812416877282
 20
243.93282787711701
 30
0.0
 11
525.39812416877226
 21
247.9328278771205
 31
0.0
  0
LINE
  5
33F
  8
0
 10
515.39812416877226
 20
243.93282787711701
 30
0.0
 11
525.39812416877305
 21
243.93282787711701
 31
0.0
  0
LINE
  5
340
  8
0
 10
525.39812416877226
 20
247.9328278771205
 30
0.0
 11
524.36333103344793
 21
247.9328278771205
 31
0.0
  0
LINE
  5
341
  8
0
 10
524.36333103344793
 20
247.9328278771205
 30
0.0
 11
515.39812416877226
 21
247.9328278771205
 31
0.0
  0
LINE
  5
342
  8
0
 10
515.39812416877226
 20
243.73282787711631
 30
0.0
 11
515.39812416877226
 21
247.9328278771205
 31
0.0
  0
LINE
  5
343
  8
0
 10
525.37812251560649
 20
248.1328278771214
 30
0.0
 11
514.89812416877317
 21
248.1328278771214
 31
0.0
  0
LINE
  5
344
  8
0
 10
514.89812416877237
 20
243.93282787711701
 30
0.0
 11
514.89812416877237
 21
248.1328278771214
 31
0.0
  0
LINE
  5
345
  8
0
 10
515.39812416877226
 20
247.4328278771205
 30
0.0
 11
514.89812416877237
 21
247.4328278771205
 31
0.0
  0
LINE
  5
346
  8
0
 10
515.39812416877226
 20
244.4328278771207
 30
0.0
 11
514.89812416877237
 21
244.4328278771207
 31
0.0
  0
LINE
  5
347
  8
0
 10
514.89812416877135
 20
243.93282787711701
 30
0.0
 11
504.89812416877152
 21
243.93282787711701
 31
0.0
  0
LINE
  5
348
  8
0
  6
CONTINUOUS
 62
     7
 10
514.89812416877135
 20
247.93282787711701
 30
0.0
 11
504.89812416877152
 21
247.93282787711701
 31
0.0
  0
LINE
  5
358
  8
0
 10
533.39812416877282
 20
244.4328278771207
 30
0.0
 11
528.88908769625084
 21
244.4328278771207
 31
0.0
  0
LINE
  5
359
  8
0
 10
533.39812416877226
 20
247.4328278771205
 30
0.0
 11
528.88908769625095
 21
247.4328278771205
 31
0.0
  0
LINE
  5
35A
  8
0
 10
525.39812416877282
 20
245.93282787712059
 30
0.0
 11
525.39812416877282
 21
243.93282787711701
 31
0.0
  0
LINE
  5
367
  8
0
 10
525.69812416877255
 20
247.4328278771205
 30
0.0
 11
525.69812416877255
 21
250.83282787712039
 31
0.0
  0
ARC
  5
368
  8
0
 10
526.89812416877237
 20
250.83282787712039
 30
0.0
 40
1.1999999999999991
 50
90.0
 51
180.0
  0
LINE
  5
369
  8
0
 10
526.89812416877237
 20
252.03282787711919
 30
0.0
 11
526.99269990522157
 21
252.03282787711919
 31
0.0
  0
ARC
  5
36A
  8
0
 10
526.99269990522157
 20
253.03282787711919
 30
0.0
 40
1.0
 50
270.0
 51
3.314552304753402
  0
ARC
  5
36D
  8
0
 10
526.99269990522157
 20
238.8328278771221
 30
0.0
 40
1.0
 50
356.68544769524658
 51
90.0
  0
ARC
  5
36F
  8
0
 10
526.89812416877237
 20
241.03282787712101
 30
0.0
 40
1.1999999999999991
 50
180.0
 51
270.0
  0
LINE
  5
372
  8
0
 10
526.89812416877237
 20
239.8328278771221
 30
0.0
 11
526.99269990522157
 21
239.8328278771221
 31
0.0
  0
LINE
  5
373
  8
0
 10
525.69812416877255
 20
244.4328278771207
 30
0.0
 11
525.69812416877255
 21
241.03282787712101
 31
0.0
  0
LINE
  5
378
  8
0
 10
525.69812416877255
 20
244.4328278771207
 30
0.0
 11
525.39812416877226
 21
244.4328278771207
 31
0.0
  0
LINE
  5
37C
  8
0
 10
514.89812416877237
 20
248.1328278771214
 30
0.0
 11
524.37795580726095
 21
248.1328278771214
 31
0.0
  0
LINE
  5
37D
  8
0
 10
515.39812416877226
 20
247.9328278771205
 30
0.0
 11
524.37795580726095
 21
247.9328278771205
 31
0.0
  0
LINE
  5
37E
  8
0
 10
504.89812416877231
 20
247.9328278771205
 30
0.0
 11
514.89812416877237
 21
247.9328278771205
 31
0.0
  0
LINE
  5
37F
  8
0
 10
486.45663374219089
 20
237.42898620999381
 30
0.0
 11
486.0579205203465
 21
237.46104501106291
 31
0.0
  0
LINE
  5
380
  8
0
 10
486.88624575366771
 20
247.76287201307761
 30
0.0
 11
486.0579205203457
 21
237.46104501106291
 31
0.0
  0
LINE
  5
381
  8
0
 10
487.28495897551318
 20
247.73081321200681
 30
0.0
 11
486.45663374219089
 21
237.42898620999381
 31
0.0
  0
ARC
  5
382
  8
0
 10
488.40376228415857
 20
244.13484254223269
 30
0.0
 40
0.2
 50
180.00000000020839
 51
359.9999999997915
  0
LINE
  5
383
  8
0
 10
488.884958975519
 20
247.73081321200681
 30
0.0
 11
488.60376228415947
 21
244.13484254223269
 31
0.0
  0
LINE
  5
384
  8
0
 10
488.4849589755176
 20
247.73081321200681
 30
0.0
 11
488.20376228415802
 21
244.13484254223269
 31
0.0
  0
ARC
  5
385
  8
0
 10
488.00376228415712
 20
244.13484254223269
 30
0.0
 40
0.2
 50
180.00000000020839
 51
359.9999999997915
  0
ARC
  5
386
  8
0
 10
487.60376228415572
 20
244.13484254223269
 30
0.0
 40
0.2
 50
180.00000000020839
 51
359.9999999997915
  0
LINE
  5
387
  8
0
 10
488.08495897551597
 20
247.73081321200681
 30
0.0
 11
487.80376228415639
 21
244.13484254223269
 31
0.0
  0
LINE
  5
388
  8
0
 10
487.68495897551452
 20
247.73081321200681
 30
0.0
 11
487.40376228415511
 21
244.13484254223269
 31
0.0
  0
ARC
  5
389
  8
0
 10
487.20376228415438
 20
244.13484254223269
 30
0.0
 40
0.2
 50
180.00000000020839
 51
359.9999999997915
  0
ARC
  5
38A
  8
0
 10
488.68495897551833
 20
247.73081321200681
 30
0.0
 40
0.2
 50
0.0000000002084408
 51
179.9999999997915
  0
ARC
  5
38B
  8
0
 10
488.28495897551682
 20
247.73081321200681
 30
0.0
 40
0.2
 50
0.0000000002084408
 51
179.9999999997915
  0
ARC
  5
38C
  8
0
 10
487.8849589755153
 20
247.73081321200681
 30
0.0
 40
0.2
 50
0.0000000002084408
 51
179.9999999997915
  0
ARC
  5
38D
  8
0
 10
487.48495897551402
 20
247.73081321200681
 30
0.0
 40
0.2
 50
0.0000000002084408
 51
179.9999999997915
  0
ARC
  5
38E
  8
0
 10
487.08495897551433
 20
247.73081321200681
 30
0.0
 40
0.2
 50
0.0000000002084408
 51
179.9999999997915
  0
ARC
  5
38F
  8
0
 10
486.79453163758239
 20
244.13484254223269
 30
0.0
 40
0.2
 50
180.00000000020839
 51
359.9999999997915
  0
ARC
  5
390
  8
0
 10
491.20376228416887
 20
244.13484254222911
 30
0.0
 40
0.2
 50
180.00000000020839
 51
359.9999999997915
  0
POINT
  5
391
  8
0
  6
CONTINUOUS
 62
     7
 10
491.05514559083508
 20
245.93219529008431
 30
0.0
  0
POINT
  5
392
  8
0
  6
CONTINUOUS
 62
     7
 10
491.05514559083508
 20
245.932195290088
 30
0.0
  0
ARC
  5
393
  8
0
 10
490.80376228416742
 20
244.13484254223269
 30
0.0
 40
0.2
 50
180.00000000020839
 51
359.9999999997915
  0
ARC
  5
394
  8
0
 10
490.40376228416602
 20
244.13484254223269
 30
0.0
 40
0.2
 50
180.00000000020839
 51
359.9999999997915
  0
LINE
  5
395
  8
0
 10
490.88495897552622
 20
247.73081321200681
 30
0.0
 11
490.60376228416658
 21
244.13484254223269
 31
0.0
  0
LINE
  5
396
  8
0
 10
490.48495897552482
 20
247.73081321200681
 30
0.0
 11
490.20376228416518
 21
244.13484254223269
 31
0.0
  0
ARC
  5
397
  8
0
 10
490.00376228416462
 20
244.13484254223269
 30
0.0
 40
0.2
 50
180.00000000020839
 51
359.9999999997915
  0
ARC
  5
398
  8
0
 10
489.60376228416311
 20
244.13484254223269
 30
0.0
 40
0.2
 50
180.00000000020839
 51
359.9999999997915
  0
LINE
  5
399
  8
0
 10
490.08495897552319
 20
247.73081321200681
 30
0.0
 11
489.80376228416372
 21
244.13484254223269
 31
0.0
  0
LINE
  5
39A
  8
0
 10
489.68495897552191
 20
247.73081321200681
 30
0.0
 11
489.40376228416221
 21
244.13484254223269
 31
0.0
  0
ARC
  5
39B
  8
0
 10
489.20376228416148
 20
244.13484254223269
 30
0.0
 40
0.2
 50
180.00000000020839
 51
359.9999999997915
  0
ARC
  5
39C
  8
0
 10
491.08495897552712
 20
247.73081321200681
 30
0.0
 40
0.2
 50
0.0000000002084408
 51
179.9999999997915
  0
ARC
  5
39D
  8
0
 10
490.6849589755256
 20
247.73081321200681
 30
0.0
 40
0.2
 50
0.0000000002084408
 51
179.9999999997915
  0
ARC
  5
39E
  8
0
 10
490.28495897552398
 20
247.73081321200681
 30
0.0
 40
0.2
 50
0.0000000002084408
 51
179.9999999997915
  0
ARC
  5
39F
  8
0
 10
489.88495897552258
 20
247.73081321200681
 30
0.0
 40
0.2
 50
0.0000000002084408
 51
179.9999999997915
  0
ARC
  5
3A0
  8
0
 10
489.48495897552112
 20
247.73081321200681
 30
0.0
 40
0.2
 50
0.0000000002084408
 51
179.9999999997915
  0
LINE
  5
3A1
  8
0
 10
489.2849589755204
 20
247.73081321200681
 30
0.0
 11
489.00376228416081
 21
244.13484254223269
 31
0.0
  0
POINT
  5
3A2
  8
0
  6
CONTINUOUS
 62
     7
 10
489.05514559082792
 20
245.932195290088
 30
0.0
  0
POINT
  5
3A3
  8
0
  6
CONTINUOUS
 62
     7
 10
489.05514559082792
 20
245.93219529008431
 30
0.0
  0
ARC
  5
3A4
  8
0
 10
491.48495897552829
 20
247.73081321200681
 30
0.0
 40
0.2
 50
0.0000000002084408
 51
179.9999999997915
  0
ARC
  5
3A5
  8
0
 10
488.80376228416009
 20
244.13484254223269
 30
0.0
 40
0.2
 50
180.00000000020839
 51
359.9999999997915
  0
ARC
  5
3A6
  8
0
 10
489.08495897551973
 20
247.73081321200681
 30
0.0
 40
0.2
 50
0.0000000002084408
 51
179.9999999997915
  0
LINE
  5
3A7
  8
0
 10
486.96349831278798
 20
243.73282787710721
 30
0.0
 11
515.39812416877226
 21
243.73282787710539
 31
0.0
  0
LINE
  5
3A8
  8
0
 10
491.71639560393652
 20
248.1328278771214
 30
0.0
 11
504.89812416877231
 21
248.1328278771214
 31
0.0
  0
LINE
  5
3A9
  8
0
 10
514.89812416877237
 20
247.4328278771205
 30
0.0
 11
515.39812416877226
 21
247.4328278771205
 31
0.0
  0
LINE
  5
3AA
  8
0
 10
514.89812416877237
 20
244.4328278771207
 30
0.0
 11
515.39812416877226
 21
244.4328278771207
 31
0.0
  0
LINE
  5
3AB
  8
0
 10
491.66165720309021
 20
247.4328278771205
 30
0.0
 11
504.89812416877231
 21
247.4328278771205
 31
0.0
  0
LINE
  5
3AC
  8
0
 10
491.42706405660851
 20
244.4328278771207
 30
0.0
 11
504.89812416877231
 21
244.4328278771207
 31
0.0
  0
LINE
  5
3AD
  8
0
 10
525.69812416877335
 20
247.4328278771205
 30
0.0
 11
525.69812416877335
 21
244.4328278771207
 31
0.0
  0
LINE
  5
3AE
  8
0
 10
472.89812416877243
 20
243.93282787711701
 30
0.0
 11
472.89812416877243
 21
248.1328278771214
 31
0.0
  0
LINE
  5
3AF
  8
0
 10
462.89812416877231
 20
243.93282787711701
 30
0.0
 11
462.89812416877231
 21
248.1328278771214
 31
0.0
  0
LINE
  5
3B0
  8
0
 10
387.8980864831172
 20
243.93282787712059
 30
0.0
 11
387.8980864831164
 21
248.1328278771214
 31
0.0
  0
LINE
  5
3B1
  8
0
 10
387.89808648311691
 20
248.1328278771214
 30
0.0
 11
406.37261414009748
 21
248.1328278771214
 31
0.0
  0
LINE
  5
3B2
  8
0
 10
430.89812416877243
 20
243.73282787711079
 30
0.0
 11
430.89812416877243
 21
247.9328278771205
 31
0.0
  0
LINE
  5
3B3
  8
0
 10
420.89812416877231
 20
243.73282787711079
 30
0.0
 11
420.89812416877231
 21
247.9328278771205
 31
0.0
  0
LINE
  5
3B4
  8
0
 10
420.89812416877231
 20
247.9328278771205
 30
0.0
 11
430.89812416877243
 21
247.9328278771205
 31
0.0
  0
LINE
  5
3B5
  8
0
 10
462.89812416877231
 20
247.9328278771205
 30
0.0
 11
472.89812416877243
 21
247.9328278771205
 31
0.0
  0
LINE
  5
3B6
  8
0
 10
420.89812416877231
 20
243.93282787712059
 30
0.0
 11
430.89812416877243
 21
243.93282787712059
 31
0.0
  0
LINE
  5
3B7
  8
0
 10
462.89812416877231
 20
243.93282787712059
 30
0.0
 11
472.89812416877243
 21
243.93282787712059
 31
0.0
  0
ARC
  5
3B8
  8
0
 10
404.14117751168288
 20
247.73081321200681
 30
0.0
 40
0.2
 50
0.0000000002084408
 51
179.9999999997915
  0
ARC
  5
3B9
  8
0
 10
403.85998082032341
 20
244.13484254223269
 30
0.0
 40
0.2
 50
180.00000000020839
 51
359.9999999997915
  0
ARC
  5
3BA
  8
0
 10
406.54117751169161
 20
247.73081321200681
 30
0.0
 40
0.2
 50
0.0000000002084408
 51
179.9999999997915
  0
POINT
  5
3BB
  8
0
  6
CONTINUOUS
 62
     7
 10
404.11136412699119
 20
245.93219529008431
 30
0.0
  0
POINT
  5
3BC
  8
0
  6
CONTINUOUS
 62
     7
 10
404.11136412699119
 20
245.932195290088
 30
0.0
  0
LINE
  5
3BD
  8
0
 10
404.34117751168361
 20
247.73081321200681
 30
0.0
 11
404.05998082032397
 21
244.13484254223269
 31
0.0
  0
ARC
  5
3BE
  8
0
 10
404.54117751168451
 20
247.73081321200681
 30
0.0
 40
0.2
 50
0.0000000002084408
 51
179.9999999997915
  0
ARC
  5
3BF
  8
0
 10
404.94117751168568
 20
247.73081321200681
 30
0.0
 40
0.2
 50
0.0000000002084408
 51
179.9999999997915
  0
ARC
  5
3C0
  8
0
 10
405.34117751168719
 20
247.73081321200681
 30
0.0
 40
0.2
 50
0.0000000002084408
 51
179.9999999997915
  0
ARC
  5
3C1
  8
0
 10
405.74117751168882
 20
247.73081321200681
 30
0.0
 40
0.2
 50
0.0000000002084408
 51
179.9999999997915
  0
ARC
  5
3C2
  8
0
 10
406.1411775116901
 20
247.73081321200681
 30
0.0
 40
0.2
 50
0.0000000002084408
 51
179.9999999997915
  0
ARC
  5
3C3
  8
0
 10
404.2599808203247
 20
244.13484254223269
 30
0.0
 40
0.2
 50
180.00000000020839
 51
359.9999999997915
  0
LINE
  5
3C4
  8
0
 10
404.74117751168512
 20
247.73081321200681
 30
0.0
 11
404.4599808203256
 21
244.13484254223269
 31
0.0
  0
LINE
  5
3C5
  8
0
 10
405.14117751168652
 20
247.73081321200681
 30
0.0
 11
404.85998082032688
 21
244.13484254223269
 31
0.0
  0
ARC
  5
3C6
  8
0
 10
404.65998082032633
 20
244.13484254223269
 30
0.0
 40
0.2
 50
180.00000000020839
 51
359.9999999997915
  0
ARC
  5
3C7
  8
0
 10
405.05998082032761
 20
244.13484254223269
 30
0.0
 40
0.2
 50
180.00000000020839
 51
359.9999999997915
  0
LINE
  5
3C8
  8
0
 10
405.54117751168809
 20
247.73081321200681
 30
0.0
 11
405.25998082032851
 21
244.13484254223269
 31
0.0
  0
LINE
  5
3C9
  8
0
 10
405.94117751168949
 20
247.73081321200681
 30
0.0
 11
405.65998082033002
 21
244.13484254223269
 31
0.0
  0
ARC
  5
3CA
  8
0
 10
405.45998082032918
 20
244.13484254223269
 30
0.0
 40
0.2
 50
180.00000000020839
 51
359.9999999997915
  0
ARC
  5
3CB
  8
0
 10
405.85998082033058
 20
244.13484254223269
 30
0.0
 40
0.2
 50
180.00000000020839
 51
359.9999999997915
  0
POINT
  5
3CC
  8
0
  6
CONTINUOUS
 62
     7
 10
406.1113641269983
 20
245.932195290088
 30
0.0
  0
POINT
  5
3CD
  8
0
  6
CONTINUOUS
 62
     7
 10
406.1113641269983
 20
245.93219529008431
 30
0.0
  0
ARC
  5
3CE
  8
0
 10
406.25998082033198
 20
244.13484254222911
 30
0.0
 40
0.2
 50
180.00000000020839
 51
359.9999999997915
  0
ARC
  5
3CF
  8
0
 10
401.85075017374572
 20
244.13484254223269
 30
0.0
 40
0.2
 50
180.00000000020839
 51
359.9999999997915
  0
ARC
  5
3D0
  8
0
 10
402.14117751167743
 20
247.73081321200681
 30
0.0
 40
0.2
 50
0.0000000002084408
 51
179.9999999997915
  0
ARC
  5
3D1
  8
0
 10
402.54117751167701
 20
247.73081321200681
 30
0.0
 40
0.2
 50
0.0000000002084408
 51
179.9999999997915
  0
ARC
  5
3D2
  8
0
 10
402.94117751167852
 20
247.73081321200681
 30
0.0
 40
0.2
 50
0.0000000002084408
 51
179.9999999997915
  0
ARC
  5
3D3
  8
0
 10
403.34117751168009
 20
247.73081321200681
 30
0.0
 40
0.2
 50
0.0000000002084408
 51
179.9999999997915
  0
ARC
  5
3D4
  8
0
 10
403.74117751168149
 20
247.73081321200681
 30
0.0
 40
0.2
 50
0.0000000002084408
 51
179.9999999997915
  0
ARC
  5
3D5
  8
0
 10
402.25998082031748
 20
244.13484254223269
 30
0.0
 40
0.2
 50
180.00000000020839
 51
359.9999999997915
  0
LINE
  5
3D6
  8
0
 10
402.74117751167779
 20
247.73081321200681
 30
0.0
 11
402.45998082031809
 21
244.13484254223269
 31
0.0
  0
LINE
  5
3D7
  8
0
 10
403.1411775116793
 20
247.73081321200681
 30
0.0
 11
402.85998082031961
 21
244.13484254223269
 31
0.0
  0
ARC
  5
3D8
  8
0
 10
402.65998082031888
 20
244.13484254223269
 30
0.0
 40
0.2
 50
180.00000000020839
 51
359.9999999997915
  0
ARC
  5
3D9
  8
0
 10
403.0599808203205
 20
244.13484254223269
 30
0.0
 40
0.2
 50
180.00000000020839
 51
359.9999999997915
  0
LINE
  5
3DA
  8
0
 10
403.5411775116807
 20
247.73081321200681
 30
0.0
 11
403.25998082032118
 21
244.13484254223269
 31
0.0
  0
LINE
  5
3DB
  8
0
 10
403.94117751168221
 20
247.73081321200681
 30
0.0
 11
403.65998082032252
 21
244.13484254223269
 31
0.0
  0
ARC
  5
3DC
  8
0
 10
403.4599808203219
 20
244.13484254223269
 30
0.0
 40
0.2
 50
180.00000000020839
 51
359.9999999997915
  0
LINE
  5
3DD
  8
0
 10
402.34117751167628
 20
247.73081321200681
 30
0.0
 11
401.51285227835422
 21
237.42898620999381
 31
0.0
  0
LINE
  5
3DE
  8
0
 10
401.94246428983109
 20
247.76287201307761
 30
0.0
 11
401.11413905650892
 21
237.46104501106291
 31
0.0
  0
LINE
  5
3DF
  8
0
 10
401.51285227835422
 20
237.42898620999381
 30
0.0
 11
401.11413905650971
 21
237.46104501106291
 31
0.0
  0
LINE
  5
3E0
  8
0
 10
402.01971684895159
 20
243.7328278771127
 30
0.0
 11
420.89812416877231
 21
243.73282787711079
 31
0.0
  0
LINE
  5
3E1
  8
0
 10
406.77261414009939
 20
248.1328278771214
 30
0.0
 11
462.89812416877231
 21
248.1328278771214
 31
0.0
  0
LINE
  5
3E2
  8
0
 10
387.8980864831172
 20
247.4328278771205
 30
0.0
 11
401.91592687216053
 21
247.4328278771205
 31
0.0
  0
LINE
  5
3E3
  8
0
 10
387.8980864831172
 20
244.4328278771207
 30
0.0
 11
401.6747098822533
 21
244.4328278771207
 31
0.0
  0
LINE
  5
3E4
  8
0
 10
430.89812416877243
 20
247.4328278771205
 30
0.0
 11
462.89812416877231
 21
247.4328278771205
 31
0.0
  0
LINE
  5
3E5
  8
0
 10
430.89812416877243
 20
244.4328278771207
 30
0.0
 11
462.89812416877231
 21
244.4328278771207
 31
0.0
  0
LINE
  5
3E6
  8
0
 10
406.71787573925383
 20
247.4328278771205
 30
0.0
 11
420.89812416877231
 21
247.4328278771205
 31
0.0
  0
LINE
  5
3E7
  8
0
 10
406.4832825927719
 20
244.4328278771207
 30
0.0
 11
420.89812416877231
 21
244.4328278771207
 31
0.0
  0
LINE
  5
3E8
  8
0
 10
472.89812416877243
 20
248.1328278771214
 30
0.0
 11
491.31639560393421
 21
248.1328278771214
 31
0.0
  0
LINE
  5
3E9
  8
0
 10
430.89812416877243
 20
243.73282787711079
 30
0.0
 11
486.56220738177763
 21
243.73282787710721
 31
0.0
  0
LINE
  5
3EA
  8
0
 10
472.89812416877243
 20
247.4328278771205
 30
0.0
 11
486.85970833599708
 21
247.4328278771205
 31
0.0
  0
LINE
  5
3EB
  8
0
 10
472.89812416877243
 20
244.4328278771207
 30
0.0
 11
486.61849134609008
 21
244.4328278771207
 31
0.0
  0
LINE
  5
3ED
  8
0
 10
492.20899174468627
 20
254.43219529008439
 30
0.0
 11
491.80899174468408
 21
254.43219529008439
 31
0.0
  0
LINE
  5
3EF
  8
0
 10
407.26521028084949
 20
254.43219529008439
 30
0.0
 11
406.86521028084718
 21
254.43219529008439
 31
0.0
  0
LINE
  5
3F0
  8
0
 10
322.2091326830668
 20
254.43219529008439
 30
0.0
 11
321.40390322255001
 21
244.13484254222911
 31
0.0
  0
LINE
  5
3F1
  8
0
 10
321.80913268306449
 20
254.43219529008439
 30
0.0
 11
321.0039032225485
 21
244.13484254222911
 31
0.0
  0
LINE
  5
3F2
  8
0
 10
220.1487700022553
 20
369.73282787711992
 30
0.0
 11
220.1487700022553
 21
245.93282787712059
 31
0.0
  0
LINE
  5
3F4
  8
0
 10
321.71653654231608
 20
248.1328278771195
 30
0.0
 11
377.8980864831164
 21
248.1328278771214
 31
0.0
  0
LINE
  5
3F5
  8
0
 10
345.8980864831172
 20
247.4328278771205
 30
0.0
 11
377.8980864831172
 21
247.43282787713159
 31
0.0
  0
LINE
  5
3F6
  8
0
 10
345.8980864831172
 20
244.4328278771207
 30
0.0
 11
377.8980864831172
 21
244.4328278771207
 31
0.0
  0
LINE
  5
3F8
  8
0
 10
220.1487700022553
 20
121.4328278771206
 30
0.0
 11
220.1487700022553
 21
122.1328278771213
 31
0.0
  0
LINE
  5
3F9
  8
0
 10
275.39812416877243
 20
247.4328278771205
 30
0.0
 11
275.39812416877243
 21
244.4328278771207
 31
0.0
  0
LINE
  5
3FA
  8
0
 10
293.89808648311822
 20
243.73282787711631
 30
0.0
 11
293.8980864831164
 21
247.9328278771205
 31
0.0
  0
LINE
  5
3FB
  8
0
 10
293.39808648311782
 20
243.93282787711701
 30
0.0
 11
293.3980864831164
 21
248.1328278771195
 31
0.0
  0
LINE
  5
3FC
  8
0
 10
293.39808648311782
 20
244.4328278771207
 30
0.0
 11
293.8980864831172
 21
244.4328278771207
 31
0.0
  0
LINE
  5
3FD
  8
0
 10
293.3980864831168
 20
247.4328278771205
 30
0.0
 11
293.89808648311691
 21
247.4328278771205
 31
0.0
  0
LINE
  5
3FE
  8
0
 10
293.3980864831164
 20
248.1328278771195
 30
0.0
 11
321.31653654231428
 21
248.1328278771195
 31
0.0
  0
LINE
  5
3FF
  8
0
 10
303.89808648311782
 20
243.7328278771198
 30
0.0
 11
303.8980864831164
 21
247.9328278771205
 31
0.0
  0
LINE
  5
400
  8
0
 10
293.8980864831164
 20
247.9328278771205
 30
0.0
 11
303.8980864831164
 21
247.9328278771205
 31
0.0
  0
LINE
  5
401
  8
0
 10
335.89808648311782
 20
243.73282787712719
 30
0.0
 11
335.8980864831164
 21
247.93282787712971
 31
0.0
  0
LINE
  5
402
  8
0
 10
335.8980864831164
 20
247.9328278771205
 30
0.0
 11
345.8980864831164
 21
247.9328278771205
 31
0.0
  0
LINE
  5
403
  8
0
 10
303.89808648311782
 20
243.73282787711631
 30
0.0
 11
316.56234832015889
 21
243.73282787711631
 31
0.0
  0
LINE
  5
404
  8
0
 10
345.89808648311782
 20
243.7328278771308
 30
0.0
 11
345.8980864831164
 21
247.93282787713159
 31
0.0
  0
LINE
  5
405
  8
0
 10
316.45677468057141
 20
237.42898620999381
 30
0.0
 11
316.05806145872708
 21
237.46104501106291
 31
0.0
  0
LINE
  5
406
  8
0
 10
316.88638669204818
 20
247.76287201307761
 30
0.0
 11
316.05806145872612
 21
237.46104501106291
 31
0.0
  0
LINE
  5
407
  8
0
 10
317.28509991389359
 20
247.73081321200681
 30
0.0
 11
316.45677468057141
 21
237.42898620999381
 31
0.0
  0
ARC
  5
408
  8
0
 10
318.4039032225391
 20
244.13484254223269
 30
0.0
 40
0.2
 50
180.00000000020839
 51
359.9999999997915
  0
LINE
  5
409
  8
0
 10
318.88509991389941
 20
247.73081321200681
 30
0.0
 11
318.60390322253983
 21
244.13484254223269
 31
0.0
  0
LINE
  5
40A
  8
0
 10
318.4850999138979
 20
247.73081321200681
 30
0.0
 11
318.20390322253837
 21
244.13484254223269
 31
0.0
  0
ARC
  5
40B
  8
0
 10
318.00390322253759
 20
244.13484254223269
 30
0.0
 40
0.2
 50
180.00000000020839
 51
359.9999999997915
  0
ARC
  5
40C
  8
0
 10
317.60390322253619
 20
244.13484254223269
 30
0.0
 40
0.2
 50
180.00000000020839
 51
359.9999999997915
  0
LINE
  5
40D
  8
0
 10
318.0850999138965
 20
247.73081321200681
 30
0.0
 11
317.80390322253692
 21
244.13484254223269
 31
0.0
  0
LINE
  5
40E
  8
0
 10
317.6850999138951
 20
247.73081321200681
 30
0.0
 11
317.40390322253552
 21
244.13484254223269
 31
0.0
  0
ARC
  5
40F
  8
0
 10
317.20390322253468
 20
244.13484254223269
 30
0.0
 40
0.2
 50
180.00000000020839
 51
359.9999999997915
  0
ARC
  5
410
  8
0
 10
318.68509991389868
 20
247.73081321200681
 30
0.0
 40
0.2
 50
0.0000000002084408
 51
179.9999999997915
  0
ARC
  5
411
  8
0
 10
318.28509991389723
 20
247.73081321200681
 30
0.0
 40
0.2
 50
0.0000000002084408
 51
179.9999999997915
  0
ARC
  5
412
  8
0
 10
317.88509991389577
 20
247.73081321200681
 30
0.0
 40
0.2
 50
0.0000000002084408
 51
179.9999999997915
  0
ARC
  5
413
  8
0
 10
317.48509991389432
 20
247.73081321200681
 30
0.0
 40
0.2
 50
0.0000000002084408
 51
179.9999999997915
  0
ARC
  5
414
  8
0
 10
317.08509991389468
 20
247.73081321200681
 30
0.0
 40
0.2
 50
0.0000000002084408
 51
179.9999999997915
  0
ARC
  5
415
  8
0
 10
316.79467257596281
 20
244.13484254223269
 30
0.0
 40
0.2
 50
180.00000000020839
 51
359.9999999997915
  0
ARC
  5
416
  8
0
 10
321.20390322254917
 20
244.13484254222911
 30
0.0
 40
0.2
 50
180.00000000020839
 51
359.9999999997915
  0
POINT
  5
417
  8
0
  6
CONTINUOUS
 62
     7
 10
321.05528652921561
 20
245.93219529008431
 30
0.0
  0
POINT
  5
418
  8
0
  6
CONTINUOUS
 62
     7
 10
321.05528652921561
 20
245.932195290088
 30
0.0
  0
ARC
  5
419
  8
0
 10
320.80390322254789
 20
244.13484254223269
 30
0.0
 40
0.2
 50
180.00000000020839
 51
359.9999999997915
  0
ARC
  5
41A
  8
0
 10
320.40390322254638
 20
244.13484254223269
 30
0.0
 40
0.2
 50
180.00000000020839
 51
359.9999999997915
  0
LINE
  5
41B
  8
0
 10
320.88509991390669
 20
247.73081321200681
 30
0.0
 11
320.6039032225471
 21
244.13484254223269
 31
0.0
  0
LINE
  5
41C
  8
0
 10
320.48509991390517
 20
247.73081321200681
 30
0.0
 11
320.2039032225457
 21
244.13484254223269
 31
0.0
  0
ARC
  5
41D
  8
0
 10
320.00390322254492
 20
244.13484254223269
 30
0.0
 40
0.2
 50
180.00000000020839
 51
359.9999999997915
  0
ARC
  5
41E
  8
0
 10
319.60390322254352
 20
244.13484254223269
 30
0.0
 40
0.2
 50
180.00000000020839
 51
359.9999999997915
  0
LINE
  5
41F
  8
0
 10
320.08509991390372
 20
247.73081321200681
 30
0.0
 11
319.80390322254419
 21
244.13484254223269
 31
0.0
  0
LINE
  5
420
  8
0
 10
319.68509991390232
 20
247.73081321200681
 30
0.0
 11
319.40390322254268
 21
244.13484254223269
 31
0.0
  0
ARC
  5
421
  8
0
 10
319.20390322254201
 20
244.13484254223269
 30
0.0
 40
0.2
 50
180.00000000020839
 51
359.9999999997915
  0
ARC
  5
422
  8
0
 10
321.0850999139073
 20
247.73081321200681
 30
0.0
 40
0.2
 50
0.0000000002084408
 51
179.9999999997915
  0
ARC
  5
423
  8
0
 10
320.68509991390601
 20
247.73081321200681
 30
0.0
 40
0.2
 50
0.0000000002084408
 51
179.9999999997915
  0
ARC
  5
424
  8
0
 10
320.2850999139045
 20
247.73081321200681
 30
0.0
 40
0.2
 50
0.0000000002084408
 51
179.9999999997915
  0
ARC
  5
425
  8
0
 10
319.88509991390288
 20
247.73081321200681
 30
0.0
 40
0.2
 50
0.0000000002084408
 51
179.9999999997915
  0
ARC
  5
426
  8
0
 10
319.48509991390171
 20
247.73081321200681
 30
0.0
 40
0.2
 50
0.0000000002084408
 51
179.9999999997915
  0
LINE
  5
427
  8
0
 10
319.28509991390092
 20
247.73081321200681
 30
0.0
 11
319.00390322254123
 21
244.13484254223269
 31
0.0
  0
POINT
  5
428
  8
0
  6
CONTINUOUS
 62
     7
 10
319.05528652920839
 20
245.932195290088
 30
0.0
  0
POINT
  5
429
  8
0
  6
CONTINUOUS
 62
     7
 10
319.05528652920839
 20
245.93219529008431
 30
0.0
  0
ARC
  5
42A
  8
0
 10
321.48509991390893
 20
247.73081321200681
 30
0.0
 40
0.2
 50
0.0000000002084408
 51
179.9999999997915
  0
ARC
  5
42B
  8
0
 10
318.80390322254061
 20
244.13484254223269
 30
0.0
 40
0.2
 50
180.00000000020839
 51
359.9999999997915
  0
ARC
  5
42C
  8
0
 10
319.08509991390008
 20
247.73081321200681
 30
0.0
 40
0.2
 50
0.0000000002084408
 51
179.9999999997915
  0
LINE
  5
42D
  8
0
 10
316.9636392511693
 20
243.73282787711631
 30
0.0
 11
335.89808648311782
 21
243.73282787711449
 31
0.0
  0
LINE
  5
42E
  8
0
 10
335.89808648311731
 20
247.4328278771205
 30
0.0
 11
321.66179814147108
 21
247.43282787711701
 31
0.0
  0
LINE
  5
42F
  8
0
 10
335.89808648311731
 20
244.4328278771207
 30
0.0
 11
321.42720499498921
 21
244.43282787711701
 31
0.0
  0
LINE
  5
430
  8
0
 10
316.85984927437761
 20
247.43282787711519
 30
0.0
 11
303.8980864831172
 21
247.43282787711141
 31
0.0
  0
LINE
  5
431
  8
0
 10
316.61863228447049
 20
244.43282787711519
 30
0.0
 11
303.8980864831172
 21
244.43282787711161
 31
0.0
  0
LINE
  5
432
  8
0
 10
335.89808648311731
 20
243.93282787712059
 30
0.0
 11
345.8980864831172
 21
243.93282787712059
 31
0.0
  0
LINE
  5
433
  8
0
 10
293.8980864831172
 20
243.93282787712059
 30
0.0
 11
303.8980864831172
 21
243.93282787712059
 31
0.0
  0
LINE
  5
434
  8
0
 10
283.3980864831168
 20
245.93282787712059
 30
0.0
 11
283.3980864831168
 21
243.93282787711701
 31
0.0
  0
LINE
  5
435
  8
0
 10
283.3980864831168
 20
245.93282787712059
 30
0.0
 11
283.39808648311589
 21
247.9328278771205
 31
0.0
  0
LINE
  5
436
  8
0
 10
275.39812416877243
 20
247.4328278771205
 30
0.0
 11
279.9185529784736
 21
247.4328278771205
 31
0.0
  0
LINE
  5
437
  8
0
 10
275.39812416877243
 20
244.4328278771207
 30
0.0
 11
279.9185529784736
 21
244.4328278771207
 31
0.0
  0
LINE
  5
438
  8
0
 10
283.09812416877321
 20
247.33282787712031
 30
0.0
 11
283.3980864831172
 21
247.33282787712031
 31
0.0
  0
LINE
  5
439
  8
0
 10
283.09812416877321
 20
244.53282787712101
 30
0.0
 11
283.3980864831172
 21
244.53282787712101
 31
0.0
  0
LINE
  5
43A
  8
0
 10
283.09812416877321
 20
245.93282787712059
 30
0.0
 11
283.09812416877321
 21
240.8328278771221
 31
0.0
  0
LINE
  5
43B
  8
0
 10
283.09812416877321
 20
245.93282787712059
 30
0.0
 11
283.09812416877321
 21
251.03282787711919
 31
0.0
  0
ARC
  5
43C
  8
0
 10
282.09812416877361
 20
251.03282787711919
 30
0.0
 40
1.0
 50
0.0
 51
90.0
  0
ARC
  5
43D
  8
0
 10
282.09812416877361
 20
240.8328278771221
 30
0.0
 40
1.0
 50
270.0
 51
0.0
  0
LINE
  5
43E
  8
0
 10
282.09812416877321
 20
252.03282787711919
 30
0.0
 11
281.8035484323226
 21
252.03282787711919
 31
0.0
  0
LINE
  5
43F
  8
0
 10
282.09812416877321
 20
239.8328278771221
 30
0.0
 11
281.80354843232362
 21
239.8328278771221
 31
0.0
  0
ARC
  5
440
  8
0
 10
281.8035484323226
 20
253.03282787711919
 30
0.0
 40
1.0
 50
176.68544769524661
 51
270.0
  0
ARC
  5
441
  8
0
 10
281.80354843232362
 20
238.8328278771221
 30
0.0
 40
1.0
 50
90.0
 51
183.31455230475339
  0
LINE
  5
443
  8
0
 10
283.3980864831172
 20
245.93282787712059
 30
0.0
 11
293.3980864831164
 21
245.93282787712059
 31
0.0
  0
LINE
  5
444
  8
0
 10
283.41812582193819
 20
243.73282787711631
 30
0.0
 11
293.89808648311782
 21
243.73282787711631
 31
0.0
  0
LINE
  5
445
  8
0
  6
CONTINUOUS
 62
     7
 10
284.41829253028368
 20
243.93282787711701
 30
0.0
 11
293.3980864831172
 21
243.93282787711701
 31
0.0
  0
LINE
  5
446
  8
0
 10
283.3980864831164
 20
247.9328278771205
 30
0.0
 11
293.3980864831164
 21
247.9328278771205
 31
0.0
  0
LINE
  5
447
  8
0
 10
293.39808648311782
 20
243.93282787711701
 30
0.0
 11
283.3980864831168
 21
243.93282787711701
 31
0.0
  0
LINE
  5
449
  8
0
 10
220.1487700022553
 20
121.4328278771206
 30
0.0
 11
220.1487700022553
 21
122.1328278771213
 31
0.0
  0
LINE
  5
44A
  8
0
 10
220.14156000285939
 20
121.4328278771206
 30
0.0
 11
220.1487700022553
 21
121.4400378765165
 31
0.0
  0
LINE
  5
44B
  8
0
 10
220.14877000225621
 20
122.1328278771213
 30
0.0
 11
220.1487700022553
 21
245.93282787712059
 31
0.0
  0
LINE
  5
44C
  8
0
 10
377.89808648311828
 20
243.93282787712059
 30
0.0
 11
377.8980864831164
 21
248.1328278771214
 31
0.0
  0
LINE
  5
44D
  8
0
 10
322.2091326830668
 20
254.43219529008439
 30
0.0
 11
321.80913268306449
 21
254.43219529008439
 31
0.0
  0
LINE
  5
44E
  8
0
 10
220.1487700022553
 20
370.43282787712059
 30
0.0
 11
220.1487700022553
 21
369.73282787711992
 31
0.0
  0
LINE
  5
454
  8
0
 10
206.1487700022503
 20
245.9328278771188
 30
0.0
 11
206.14877000225621
 21
368.43282787712059
 31
0.0
  0
LINE
  5
455
  8
0
 10
214.1487700022553
 20
245.93282787712059
 30
0.0
 11
214.1487700022553
 21
368.43282787712252
 31
0.0
  0
POLYLINE
  5
45B
  8
0
 66
     1
 10
0.0
 20
0.0
 30
0.0
  0
VERTEX
  5
76C
  8
0
 10
208.26534861259441
 20
122.6425739665117
 30
0.0
 42
-0.313394503136401
  0
VERTEX
  5
76D
  8
0
 10
212.032191391916
 20
122.6425739665117
 30
0.0
 42
-0.313394503136401
  0
SEQEND
  5
76E
  8
0
  0
LINE
  5
45C
  8
0
 10
206.8336505075867
 20
121.6474656627977
 30
0.0
 11
208.26534861259441
 21
122.6425739665117
 31
0.0
  0
LINE
  5
45D
  8
0
 10
213.4638894969238
 20
121.6474656627977
 30
0.0
 11
212.032191391916
 21
122.6425739665117
 31
0.0
  0
POLYLINE
  5
45E
  8
0
 66
     1
 10
0.0
 20
0.0
 30
0.0
  0
VERTEX
  5
76F
  8
0
 10
214.1487700022553
 20
121.4328278771206
 30
0.0
 42
-0.1530277928365761
  0
VERTEX
  5
770
  8
0
 10
213.4638894969238
 20
121.6474656627977
 30
0.0
 42
-0.1530277928365761
  0
SEQEND
  5
771
  8
0
  0
POLYLINE
  5
45F
  8
0
 66
     1
 10
0.0
 20
0.0
 30
0.0
  0
VERTEX
  5
772
  8
0
 10
206.1487700022553
 20
121.4328278771206
 30
0.0
 42
0.1530277928365761
  0
VERTEX
  5
773
  8
0
 10
206.8336505075867
 20
121.6474656627977
 30
0.0
 42
0.1530277928365761
  0
SEQEND
  5
774
  8
0
  0
LINE
  5
460
  8
0
 10
214.1487700022553
 20
245.93282787712059
 30
0.0
 11
214.1487700022553
 21
123.4328278771188
 31
0.0
  0
LINE
  5
461
  8
0
 10
206.1487700022503
 20
245.93282787712241
 30
0.0
 11
206.14877000225621
 21
123.4328278771206
 31
0.0
  0
POLYLINE
  5
462
  8
0
 66
     1
 10
0.0
 20
0.0
 30
0.0
  0
VERTEX
  5
775
  8
0
 10
206.1487700022553
 20
370.43282787712059
 30
0.0
 42
-0.1530277928365761
  0
VERTEX
  5
776
  8
0
 10
206.8336505075867
 20
370.21819009144372
 30
0.0
 42
-0.1530277928365761
  0
SEQEND
  5
777
  8
0
  0
POLYLINE
  5
463
  8
0
 66
     1
 10
0.0
 20
0.0
 30
0.0
  0
VERTEX
  5
778
  8
0
 10
214.1487700022553
 20
370.43282787712059
 30
0.0
 42
0.1530277928365761
  0
VERTEX
  5
779
  8
0
 10
213.4638894969238
 20
370.21819009144372
 30
0.0
 42
0.1530277928365761
  0
SEQEND
  5
77A
  8
0
  0
LINE
  5
464
  8
0
 10
213.4638894969238
 20
370.21819009144372
 30
0.0
 11
212.032191391916
 21
369.2230817877296
 31
0.0
  0
LINE
  5
465
  8
0
 10
206.8336505075867
 20
370.21819009144372
 30
0.0
 11
208.26534861259441
 21
369.2230817877296
 31
0.0
  0
POLYLINE
  5
466
  8
0
 66
     1
 10
0.0
 20
0.0
 30
0.0
  0
VERTEX
  5
77B
  8
0
 10
208.26534861259441
 20
369.2230817877296
 30
0.0
 42
0.313394503136401
  0
VERTEX
  5
77C
  8
0
 10
212.032191391916
 20
369.2230817877296
 30
0.0
 42
0.313394503136401
  0
SEQEND
  5
77D
  8
0
  0
LINE
  5
46D
  8
0
 10
214.14877000225661
 20
121.4328278771206
 30
0.0
 11
220.1487700022553
 21
121.4328278771206
 31
0.0
  0
LINE
  5
46E
  8
0
 10
214.14877000225661
 20
121.4328278771206
 30
0.0
 11
220.1487700022553
 21
121.4328278771206
 31
0.0
  0
LINE
  5
46F
  8
0
 10
214.14877000225661
 20
370.43282787712059
 30
0.0
 11
220.1487700022553
 21
370.43282787712059
 31
0.0
  0
POLYLINE
  5
472
  8
0
 66
     1
 10
0.0
 20
0.0
 30
0.0
  0
VERTEX
  5
77E
  8
0
 10
277.40698274544309
 20
244.4328278771207
 30
0.0
 42
0.9882579099092144
  0
VERTEX
  5
77F
  8
0
 10
531.38926559210165
 20
244.4328278771207
 30
0.0
 42
0.9882579099092144
  0
SEQEND
  5
780
  8
0
  0
POLYLINE
  5
473
  8
0
 66
     1
 10
0.0
 20
0.0
 30
0.0
  0
VERTEX
  5
781
  8
0
 10
525.37812251560649
 20
248.1328278771214
 30
0.0
 42
0.9827926463815478
  0
VERTEX
  5
782
  8
0
 10
283.41465422349432
 20
247.9328278771205
 30
0.0
  0
SEQEND
  5
783
  8
0
  0
POLYLINE
  5
474
  8
0
 66
     1
 10
0.0
 20
0.0
 30
0.0
  0
VERTEX
  5
784
  8
0
 10
404.39812416877231
 20
370.43282787712121
 30
0.0
 42
0.4142135623730968
  0
VERTEX
  5
785
  8
0
 10
279.89812416877243
 20
245.93282787712059
 30
0.0
 42
0.4142135623730536
  0
VERTEX
  5
786
  8
0
 10
404.3981241687722
 20
121.4328278771379
 30
0.0
 42
0.4142135623730536
  0
SEQEND
  5
787
  8
0
  0
POLYLINE
  5
475
  8
0
 66
     1
 10
0.0
 20
0.0
 30
0.0
  0
VERTEX
  5
788
  8
0
 10
404.39812416877231
 20
369.73282787713509
 30
0.0
 42
0.3973694643001984
  0
VERTEX
  5
789
  8
0
 10
280.80522126834512
 20
253.09064546669629
 30
0.0
  0
SEQEND
  5
78A
  8
0
  0
POLYLINE
  5
477
  8
0
 66
     1
 10
0.0
 20
0.0
 30
0.0
  0
VERTEX
  5
78B
  8
0
 10
283.41812582193819
 20
243.73282787711631
 30
0.0
 42
0.9827926463817728
  0
VERTEX
  5
78C
  8
0
 10
525.38159411405024
 20
243.93282787711701
 30
0.0
 42
0.9827926463817728
  0
SEQEND
  5
78D
  8
0
  0
LINE
  5
478
  8
0
 10
345.89808648311782
 20
243.73282787711449
 30
0.0
 11
401.61842591794118
 21
243.7328278771127
 31
0.0
  0
LINE
  5
47A
  8
0
  6
CENTER2
 62
     1
 10
259.77631542460591
 20
245.93282787712059
 30
0.0
 11
556.99818269976083
 21
245.93282787712059
 31
0.0
  0
POLYLINE
  5
47B
  8
0
 66
     1
 10
0.0
 20
0.0
 30
0.0
  0
VERTEX
  5
78E
  8
0
 10
280.80522126834597
 20
253.09064546669629
 30
0.0
 42
0.4312607016939783
  0
VERTEX
  5
78F
  8
0
 10
404.39812416877231
 20
122.1328278771236
 30
0.0
 42
0.4312607016939783
  0
SEQEND
  5
790
  8
0
  0
LINE
  5
47C
  8
0
 10
377.89808648311691
 20
247.9328278771205
 30
0.0
 11
387.89808648311691
 21
247.9328278771205
 31
0.0
  0
LINE
  5
47D
  8
0
 10
377.89808648311691
 20
243.93282787712059
 30
0.0
 11
387.8980864831172
 21
243.93282787712059
 31
0.0
  0
POLYLINE
  5
47E
  8
0
 66
     1
 10
0.0
 20
0.0
 30
0.0
  0
VERTEX
  5
791
  8
0
 10
531.38926559210165
 20
247.4328278771205
 30
0.0
 42
0.9882579099092239
  0
VERTEX
  5
792
  8
0
 10
277.40698274544309
 20
247.4328278771205
 30
0.0
  0
SEQEND
  5
793
  8
0
  0
LINE
  5
480
  8
0
 10
166.14877000225519
 20
366.23282787711992
 30
0.0
 11
166.14877000225519
 21
125.6328278771214
 31
0.0
  0
LINE
  5
481
  8
0
 10
153.14877000225621
 20
366.23282787711992
 30
0.0
 11
153.14882554719941
 21
125.6253752360678
 31
0.0
  0
LINE
  5
482
  8
0
  6
CENTER2
 62
     1
 10
159.6487700022553
 20
245.93282787712059
 30
0.0
 11
159.6487700022553
 21
378.32770028855492
 31
0.0
  0
LINE
  5
483
  8
0
 10
168.24769297672259
 20
369.50405939484131
 30
0.0
 11
168.24769297672259
 21
245.93282787712059
 31
0.0
  0
LINE
  5
484
  8
0
 10
151.04984702778879
 20
369.50405939484131
 30
0.0
 11
151.04984702778791
 21
245.9328278771188
 31
0.0
  0
LINE
  5
485
  8
0
 10
93.14877000225529
 20
245.93282787712059
 30
0.0
 11
93.14877000225529
 21
369.73282787711992
 31
0.0
  0
LINE
  5
489
  8
0
 10
153.1487700022553
 20
118.9328278771206
 30
0.0
 11
166.14877000225519
 21
118.9328278771206
 31
0.0
  0
LINE
  5
48B
  8
0
 10
151.53962683533871
 20
120.887112042539
 30
0.0
 11
152.25791316917179
 21
119.4785437117023
 31
0.0
  0
POLYLINE
  5
48C
  8
0
 66
     1
 10
0.0
 20
0.0
 30
0.0
  0
VERTEX
  5
794
  8
0
 10
150.64877000225519
 20
121.4328278771206
 30
0.0
 42
-0.2819402118154727
  0
VERTEX
  5
795
  8
0
 10
151.53962683533871
 20
120.8871120425372
 30
0.0
 42
-0.2819402118154727
  0
SEQEND
  5
796
  8
0
  0
POLYLINE
  5
48D
  8
0
 66
     1
 10
0.0
 20
0.0
 30
0.0
  0
VERTEX
  5
797
  8
0
 10
153.1487700022553
 20
118.9328278771206
 30
0.0
 42
-0.2819402118154727
  0
VERTEX
  5
798
  8
0
 10
152.25791316917179
 20
119.47854371170411
 30
0.0
 42
-0.2819402118154727
  0
SEQEND
  5
799
  8
0
  0
POLYLINE
  5
491
  8
0
 66
     1
 10
0.0
 20
0.0
 30
0.0
  0
VERTEX
  5
79A
  8
0
 10
153.1487700022553
 20
119.6328278771213
 30
0.0
  0
VERTEX
  5
79B
  8
0
 10
153.14882554719941
 20
125.6253752360678
 30
0.0
  0
SEQEND
  5
79C
  8
0
  0
LINE
  5
492
  8
0
 10
93.14877000225529
 20
122.1328278771213
 30
0.0
 11
93.14877000225529
 21
121.4328278771206
 31
0.0
  0
LINE
  5
493
  8
0
 10
150.04984702778879
 20
121.4328278771206
 30
0.0
 11
107.1487700022566
 21
121.4328278771206
 31
0.0
  0
LINE
  5
494
  8
0
 10
93.14877000225529
 20
121.4328278771206
 30
0.0
 11
99.148770002253883
 21
121.4328278771206
 31
0.0
  0
LINE
  5
495
  8
0
 10
133.9971701371359
 20
121.4328278771206
 30
0.0
 11
150.64877000225519
 21
121.4328278771206
 31
0.0
  0
LINE
  5
497
  8
0
  6
CENTER2
 62
     1
 10
159.64877000225621
 20
135.3527567010421
 30
0.0
 11
159.6487700022553
 21
115.844418434757
 31
0.0
  0
LINE
  5
498
  8
0
 10
150.04984702778879
 20
121.4328278771206
 30
0.0
 11
107.1487700022566
 21
121.4328278771206
 31
0.0
  0
LINE
  5
499
  8
0
  6
CENTER2
 62
     1
 10
159.6487700022553
 20
245.93282787712059
 30
0.0
 11
159.6487700022553
 21
113.5379554656881
 31
0.0
  0
LINE
  5
49A
  8
0
 10
151.04984702778879
 20
122.3615963594
 30
0.0
 11
151.04984702778879
 21
245.9328278771188
 31
0.0
  0
LINE
  5
49D
  8
0
 10
93.14877000225529
 20
122.1328278771213
 30
0.0
 11
93.14877000225529
 21
121.4328278771206
 31
0.0
  0
LINE
  5
4A1
  8
0
 10
93.14877000225529
 20
245.93282787712059
 30
0.0
 11
93.148770002256171
 21
122.1328278771213
 31
0.0
  0
LINE
  5
4A3
  8
0
 10
93.14877000225529
 20
121.4328278771206
 30
0.0
 11
99.148770002253883
 21
121.4328278771206
 31
0.0
  0
POLYLINE
  5
4A4
  8
0
 66
     1
 10
0.0
 20
0.0
 30
0.0
  0
VERTEX
  5
79D
  8
0
 10
166.14877000225519
 20
118.9328278771206
 30
0.0
 42
0.2819402118154727
  0
VERTEX
  5
79E
  8
0
 10
167.03962683533871
 20
119.47854371170411
 30
0.0
 42
0.2819402118154727
  0
SEQEND
  5
79F
  8
0
  0
LINE
  5
4A5
  8
0
 10
167.75791316917179
 20
120.887112042539
 30
0.0
 11
167.03962683533871
 21
119.4785437117023
 31
0.0
  0
POLYLINE
  5
4A9
  8
0
 66
     1
 10
0.0
 20
0.0
 30
0.0
  0
VERTEX
  5
7A0
  8
0
 10
168.6487700022553
 20
121.4328278771206
 30
0.0
 42
0.2819402118154727
  0
VERTEX
  5
7A1
  8
0
 10
167.75791316917179
 20
120.8871120425372
 30
0.0
 42
0.2819402118154727
  0
SEQEND
  5
7A2
  8
0
  0
LINE
  5
4AA
  8
0
 10
166.14877000225519
 20
119.6328278771213
 30
0.0
 11
166.14877000225519
 21
125.6328278771214
 31
0.0
  0
LINE
  5
4AB
  8
0
 10
168.24769297672259
 20
122.3615963594
 30
0.0
 11
168.24769297672259
 21
245.93282787712059
 31
0.0
  0
LINE
  5
4B2
  8
0
 10
153.1487700022553
 20
372.93282787712059
 30
0.0
 11
166.14877000225519
 21
372.93282787712059
 31
0.0
  0
POLYLINE
  5
4B4
  8
0
 66
     1
 10
0.0
 20
0.0
 30
0.0
  0
VERTEX
  5
7A3
  8
0
 10
153.1487700022553
 20
372.23282787711992
 30
0.0
  0
VERTEX
  5
7A4
  8
0
 10
153.14877000225621
 20
366.23282787711992
 30
0.0
  0
SEQEND
  5
7A5
  8
0
  0
LINE
  5
4B6
  8
0
 10
133.9971701371359
 20
370.43282787712059
 30
0.0
 11
150.64877000225519
 21
370.43282787712059
 31
0.0
  0
POLYLINE
  5
4BA
  8
0
 66
     1
 10
0.0
 20
0.0
 30
0.0
  0
VERTEX
  5
7A6
  8
0
 10
153.1487700022553
 20
372.93282787712059
 30
0.0
 42
0.2819402118154727
  0
VERTEX
  5
7A7
  8
0
 10
152.25791316917179
 20
372.38711204253718
 30
0.0
 42
0.2819402118154727
  0
SEQEND
  5
7A8
  8
0
  0
POLYLINE
  5
4BB
  8
0
 66
     1
 10
0.0
 20
0.0
 30
0.0
  0
VERTEX
  5
7A9
  8
0
 10
150.64877000225519
 20
370.43282787712059
 30
0.0
 42
0.2819402118154727
  0
VERTEX
  5
7AA
  8
0
 10
151.53962683533871
 20
370.97854371170399
 30
0.0
 42
0.2819402118154727
  0
SEQEND
  5
7AB
  8
0
  0
LINE
  5
4BC
  8
0
 10
151.53962683533871
 20
370.9785437117024
 30
0.0
 11
152.25791316917179
 21
372.387112042539
 31
0.0
  0
LINE
  5
4BD
  8
0
 10
93.14877000225529
 20
369.73282787711992
 30
0.0
 11
93.14877000225529
 21
370.43282787712059
 31
0.0
  0
LINE
  5
4BE
  8
0
 10
93.14877000225529
 20
370.43282787712059
 30
0.0
 11
99.148770002253883
 21
370.43282787712059
 31
0.0
  0
LINE
  5
4BF
  8
0
 10
150.04984702778879
 20
370.43282787712059
 30
0.0
 11
107.1487700022566
 21
370.43282787712059
 31
0.0
  0
LINE
  5
4C3
  8
0
 10
166.14877000225519
 20
372.23282787711992
 30
0.0
 11
166.14877000225519
 21
366.23282787711992
 31
0.0
  0
POLYLINE
  5
4C4
  8
0
 66
     1
 10
0.0
 20
0.0
 30
0.0
  0
VERTEX
  5
7AC
  8
0
 10
168.6487700022553
 20
370.43282787712059
 30
0.0
 42
-0.2819402118154727
  0
VERTEX
  5
7AD
  8
0
 10
167.75791316917179
 20
370.97854371170399
 30
0.0
 42
-0.2819402118154727
  0
SEQEND
  5
7AE
  8
0
  0
LINE
  5
4C8
  8
0
 10
167.75791316917179
 20
370.9785437117024
 30
0.0
 11
167.03962683533871
 21
372.387112042539
 31
0.0
  0
POLYLINE
  5
4C9
  8
0
 66
     1
 10
0.0
 20
0.0
 30
0.0
  0
VERTEX
  5
7AF
  8
0
 10
166.14877000225519
 20
372.93282787712059
 30
0.0
 42
-0.2819402118154727
  0
VERTEX
  5
7B0
  8
0
 10
167.03962683533871
 20
372.38711204253718
 30
0.0
 42
-0.2819402118154727
  0
SEQEND
  5
7B1
  8
0
  0
LINE
  5
4CA
  8
0
 10
99.148770002255262
 20
245.93282787712059
 30
0.0
 11
99.148770002255262
 21
368.43282787712252
 31
0.0
  0
LINE
  5
4CB
  8
0
 10
107.14877000226021
 20
245.9328278771188
 30
0.0
 11
107.1487700022543
 21
368.43282787712059
 31
0.0
  0
LINE
  5
4CC
  8
0
 10
107.14877000226021
 20
245.93282787712241
 30
0.0
 11
107.1487700022543
 21
123.4328278771206
 31
0.0
  0
LINE
  5
4CD
  8
0
 10
99.148770002255262
 20
245.93282787712059
 30
0.0
 11
99.148770002255262
 21
123.4328278771188
 31
0.0
  0
POLYLINE
  5
4CE
  8
0
 66
     1
 10
0.0
 20
0.0
 30
0.0
  0
VERTEX
  5
7B2
  8
0
 10
107.1487700022552
 20
121.4328278771206
 30
0.0
 42
-0.1530277928365761
  0
VERTEX
  5
7B3
  8
0
 10
106.4638894969238
 20
121.6474656627977
 30
0.0
 42
-0.1530277928365761
  0
SEQEND
  5
7B4
  8
0
  0
POLYLINE
  5
4CF
  8
0
 66
     1
 10
0.0
 20
0.0
 30
0.0
  0
VERTEX
  5
7B5
  8
0
 10
99.148770002255262
 20
121.4328278771206
 30
0.0
 42
0.1530277928365761
  0
VERTEX
  5
7B6
  8
0
 10
99.833650507586697
 20
121.6474656627977
 30
0.0
 42
0.1530277928365761
  0
SEQEND
  5
7B7
  8
0
  0
LINE
  5
4D0
  8
0
 10
99.833650507586697
 20
121.6474656627977
 30
0.0
 11
101.26534861259449
 21
122.6425739665117
 31
0.0
  0
LINE
  5
4D1
  8
0
 10
106.4638894969238
 20
121.6474656627977
 30
0.0
 11
105.032191391916
 21
122.6425739665117
 31
0.0
  0
POLYLINE
  5
4D2
  8
0
 66
     1
 10
0.0
 20
0.0
 30
0.0
  0
VERTEX
  5
7B8
  8
0
 10
105.032191391916
 20
122.6425739665117
 30
0.0
 42
0.313394503136401
  0
VERTEX
  5
7B9
  8
0
 10
101.26534861259449
 20
122.6425739665117
 30
0.0
 42
0.313394503136401
  0
SEQEND
  5
7BA
  8
0
  0
POLYLINE
  5
4DD
  8
0
 66
     1
 10
0.0
 20
0.0
 30
0.0
  0
VERTEX
  5
7BB
  8
0
 10
105.032191391916
 20
369.2230817877296
 30
0.0
 42
-0.313394503136401
  0
VERTEX
  5
7BC
  8
0
 10
101.26534861259449
 20
369.2230817877296
 30
0.0
 42
-0.313394503136401
  0
SEQEND
  5
7BD
  8
0
  0
LINE
  5
4DE
  8
0
 10
106.4638894969238
 20
370.21819009144372
 30
0.0
 11
105.032191391916
 21
369.2230817877296
 31
0.0
  0
LINE
  5
4DF
  8
0
 10
99.833650507586697
 20
370.21819009144372
 30
0.0
 11
101.26534861259449
 21
369.2230817877296
 31
0.0
  0
POLYLINE
  5
4E0
  8
0
 66
     1
 10
0.0
 20
0.0
 30
0.0
  0
VERTEX
  5
7BE
  8
0
 10
99.148770002255262
 20
370.43282787712059
 30
0.0
 42
-0.1530277928365761
  0
VERTEX
  5
7BF
  8
0
 10
99.833650507586697
 20
370.21819009144372
 30
0.0
 42
-0.1530277928365761
  0
SEQEND
  5
7C0
  8
0
  0
POLYLINE
  5
4E1
  8
0
 66
     1
 10
0.0
 20
0.0
 30
0.0
  0
VERTEX
  5
7C1
  8
0
 10
107.1487700022552
 20
370.43282787712059
 30
0.0
 42
0.1530277928365761
  0
VERTEX
  5
7C2
  8
0
 10
106.4638894969238
 20
370.21819009144372
 30
0.0
 42
0.1530277928365761
  0
SEQEND
  5
7C3
  8
0
  0
LINE
  5
4E3
  8
0
 10
107.1487700022566
 20
121.4328278771206
 30
0.0
 11
147.64877000225431
 21
121.4328278771206
 31
0.0
  0
LINE
  5
4E4
  8
0
 10
107.1487700022566
 20
121.4328278771206
 30
0.0
 11
147.64877000225431
 21
121.4328278771206
 31
0.0
  0
LINE
  5
4E5
  8
0
 10
99.148770002253883
 20
121.4328278771206
 30
0.0
 11
95.148770002255262
 21
121.4328278771206
 31
0.0
  0
LINE
  5
4E6
  8
0
 10
99.148770002253883
 20
370.43282787712059
 30
0.0
 11
95.148770002255262
 21
370.43282787712059
 31
0.0
  0
LINE
  5
4E7
  8
0
 10
107.1487700022566
 20
370.43282787712059
 30
0.0
 11
147.64877000225431
 21
370.43282787712059
 31
0.0
  0
LINE
  5
4EB
  8
0
  6
CENTER2
 62
     1
 10
78.397049263228766
 20
245.93282787712059
 30
0.0
 11
228.0320469015968
 21
245.93282787712059
 31
0.0
  0
LINE
  5
4EC
  8
0
  6
CENTER2
 62
     1
 10
78.397049263228766
 20
245.93282787712059
 30
0.0
 11
228.0320469015968
 21
245.93282787712059
 31
0.0
  0
LINE
  5
4EF
  8
0
 10
169.24769297672171
 20
121.4328278771206
 30
0.0
 11
206.14877000225391
 21
121.4328278771206
 31
0.0
  0
LINE
  5
4F0
  8
0
 10
168.6487700022553
 20
121.4328278771206
 30
0.0
 11
182.2338931964658
 21
121.4328278771206
 31
0.0
  0
LINE
  5
4F2
  8
0
 10
169.24769297672171
 20
121.4328278771206
 30
0.0
 11
206.14877000225391
 21
121.4328278771206
 31
0.0
  0
LINE
  5
4F4
  8
0
 10
168.6487700022553
 20
370.43282787712059
 30
0.0
 11
182.2338931964658
 21
370.43282787712059
 31
0.0
  0
LINE
  5
4F5
  8
0
 10
169.24769297672171
 20
370.43282787712059
 30
0.0
 11
206.14877000225391
 21
370.43282787712059
 31
0.0
  0
POLYLINE
  5
628
  8
0
 66
     1
 10
0.0
 20
0.0
 30
0.0
  0
VERTEX
  5
7C4
  8
0
 10
404.3981241687726
 20
369.73282787713509
 30
0.0
 42
-0.3973694643001984
  0
VERTEX
  5
7C5
  8
0
 10
527.99102706919984
 20
253.0906454666962
 30
0.0
  0
SEQEND
  5
7C6
  8
0
  0
POLYLINE
  5
629
  8
0
 66
     1
 10
0.0
 20
0.0
 30
0.0
  0
VERTEX
  5
7C7
  8
0
 10
527.99102706919882
 20
253.0906454666962
 30
0.0
 42
-0.4312607016939783
  0
VERTEX
  5
7C8
  8
0
 10
404.39812416877231
 20
122.1328278771236
 30
0.0
 42
-0.4312607016939783
  0
SEQEND
  5
7C9
  8
0
  0
POLYLINE
  5
62A
  8
0
 66
     1
 10
0.0
 20
0.0
 30
0.0
  0
VERTEX
  5
7CA
  8
0
 10
404.39812416877243
 20
370.43282787712121
 30
0.0
 42
-0.4142135623730968
  0
VERTEX
  5
7CB
  8
0
 10
528.89812416877226
 20
245.93282787712059
 30
0.0
 42
-0.4142135623730536
  0
VERTEX
  5
7CC
  8
0
 10
404.3981241687726
 20
121.4328278771379
 30
0.0
 42
-0.4142135623730536
  0
SEQEND
  5
7CD
  8
0
  0
LINE
  5
62B
  8
0
 10
525.69812416877335
 20
247.4328278771205
 30
0.0
 11
525.39812416877226
 21
247.4328278771205
 31
0.0
  0
ENDSEC
  0
EOF
