  0
SECTION
  2
HEADER
  9
$ACADVER
  1
AC1009
  9
$INSBASE
 10
0.0
 20
0.0
 30
0.0
  9
$EXTMIN
 10
111.2030867439737
 20
107.05814606848109
 30
-0.0000000011717292
  9
$EXTMAX
 10
659.37101301896666
 20
486.13432488227022
 30
0.0000000009207234
  9
$LIMMIN
 10
0.0
 20
0.0
  9
$LIMMAX
 10
12.0
 20
9.0
  9
$ORTHOMODE
 70
     1
  9
$REGENMODE
 70
     1
  9
$FILLMODE
 70
     1
  9
$QTEXTMODE
 70
     0
  9
$MIRRTEXT
 70
     0
  9
$DRAGMODE
 70
     2
  9
$LTSCALE
 40
1.0
  9
$OSMODE
 70
   951
  9
$ATTMODE
 70
     1
  9
$TEXTSIZE
 40
0.2
  9
$TRACEWID
 40
0.05
  9
$TEXTSTYLE
  7
STANDARD
  9
$CLAYER
  8
0
  9
$CELTYPE
  6
BYLAYER
  9
$CECOLOR
 62
   256
  9
$DIMSCALE
 40
1.0
  9
$DIMASZ
 40
3.5
  9
$DIMEXO
 40
0.0
  9
$DIMDLI
 40
7.0
  9
$DIMRND
 40
0.0
  9
$DIMDLE
 40
0.0
  9
$DIMEXE
 40
1.25
  9
$DIMTP
 40
0.0
  9
$DIMTM
 40
0.000000001
  9
$DIMTXT
 40
3.5
  9
$DIMCEN
 40
3.0
  9
$DIMTSZ
 40
0.0
  9
$DIMTOL
 70
     0
  9
$DIMLIM
 70
     0
  9
$DIMTIH
 70
     0
  9
$DIMTOH
 70
     1
  9
$DIMSE1
 70
     0
  9
$DIMSE2
 70
     0
  9
$DIMTAD
 70
     1
  9
$DIMZIN
 70
     8
  9
$DIMBLK
  1

  9
$DIMASO
 70
     1
  9
$DIMSHO
 70
     1
  9
$DIMPOST
  1

  9
$DIMAPOST
  1

  9
$DIMALT
 70
     0
  9
$DIMALTD
 70
     3
  9
$DIMALTF
 40
0.03937007874016
  9
$DIMLFAC
 40
1.0
  9
$DIMTOFL
 70
     1
  9
$DIMTVP
 40
0.0
  9
$DIMTIX
 70
     0
  9
$DIMSOXD
 70
     0
  9
$DIMSAH
 70
     0
  9
$DIMBLK1
  1

  9
$DIMBLK2
  1

  9
$DIMSTYLE
  2
COPY_OF_ISO-25
  9
$DIMCLRD
 70
   256
  9
$DIMCLRE
 70
   256
  9
$DIMCLRT
 70
   256
  9
$DIMTFAC
 40
1.0
  9
$DIMGAP
 40
1.0
  9
$LUNITS
 70
     2
  9
$LUPREC
 70
     4
  9
$SKETCHINC
 40
0.1
  9
$FILLETRAD
 40
0.0
  9
$AUNITS
 70
     0
  9
$AUPREC
 70
     0
  9
$MENU
  1
.
  9
$ELEVATION
 40
0.0
  9
$PELEVATION
 40
0.0
  9
$THICKNESS
 40
0.0
  9
$LIMCHECK
 70
     0
  9
$BLIPMODE
 70
     0
  9
$CHAMFERA
 40
0.0
  9
$CHAMFERB
 40
0.0
  9
$SKPOLY
 70
     0
  9
$TDCREATE
 40
2455699.592673264
  9
$TDUPDATE
 40
2455699.610705486
  9
$TDINDWG
 40
0.0070312616
  9
$TDUSRTIMER
 40
0.0070312616
  9
$USRTIMER
 70
     1
  9
$ANGBASE
 50
0.0
  9
$ANGDIR
 70
     0
  9
$PDMODE
 70
     0
  9
$PDSIZE
 40
0.0
  9
$PLINEWID
 40
0.0
  9
$COORDS
 70
     1
  9
$SPLFRAME
 70
     0
  9
$SPLINETYPE
 70
     6
  9
$SPLINESEGS
 70
     8
  9
$ATTDIA
 70
     0
  9
$ATTREQ
 70
     1
  9
$HANDLING
 70
     1
  9
$HANDSEED
  5
8AC
  9
$SURFTAB1
 70
     6
  9
$SURFTAB2
 70
     6
  9
$SURFTYPE
 70
     6
  9
$SURFU
 70
     6
  9
$SURFV
 70
     6
  9
$UCSNAME
  2

  9
$UCSORG
 10
0.0
 20
0.0
 30
0.0
  9
$UCSXDIR
 10
1.0
 20
0.0
 30
0.0
  9
$UCSYDIR
 10
0.0
 20
1.0
 30
0.0
  9
$PUCSNAME
  2

  9
$PUCSORG
 10
0.0
 20
0.0
 30
0.0
  9
$PUCSXDIR
 10
1.0
 20
0.0
 30
0.0
  9
$PUCSYDIR
 10
0.0
 20
1.0
 30
0.0
  9
$USERI1
 70
     0
  9
$USERI2
 70
     0
  9
$USERI3
 70
     0
  9
$USERI4
 70
     0
  9
$USERI5
 70
     0
  9
$USERR1
 40
0.0
  9
$USERR2
 40
0.0
  9
$USERR3
 40
0.0
  9
$USERR4
 40
0.0
  9
$USERR5
 40
0.0
  9
$WORLDVIEW
 70
     1
  9
$SHADEDGE
 70
     3
  9
$SHADEDIF
 70
    70
  9
$TILEMODE
 70
     1
  9
$MAXACTVP
 70
    64
  9
$PLIMCHECK
 70
     0
  9
$PEXTMIN
 10
0.0
 20
0.0
 30
0.0
  9
$PEXTMAX
 10
0.0
 20
0.0
 30
0.0
  9
$PLIMMIN
 10
0.0
 20
0.0
  9
$PLIMMAX
 10
12.0
 20
9.0
  9
$UNITMODE
 70
     0
  9
$VISRETAIN
 70
     1
  9
$PLINEGEN
 70
     0
  9
$PSLTSCALE
 70
     1
  0
ENDSEC
  0
SECTION
  2
TABLES
  0
TABLE
  2
VPORT
 70
     2
  0
VPORT
  2
*ACTIVE
 70
     0
 10
0.0
 20
0.0
 11
1.0
 21
1.0
 12
385.2870498814703
 22
296.59623547537569
 13
0.0
 23
0.0
 14
0.5
 24
0.5
 15
0.5
 25
0.5
 16
0.0
 26
0.0
 36
1.0
 17
0.0
 27
0.0
 37
0.0
 40
382.5223258939144
 41
2.0698027314112291
 42
50.0
 43
0.0
 44
0.0
 50
0.0
 51
0.0
 71
     0
 72
  1000
 73
     1
 74
     3
 75
     0
 76
     0
 77
     0
 78
     0
  0
ENDTAB
  0
TABLE
  2
LTYPE
 70
     2
  0
LTYPE
  2
CONTINUOUS
 70
     0
  3
Solid line
 72
    65
 73
     0
 40
0.0
  0
LTYPE
  2
CENTER2
 70
     0
  3
Center (.5x) ___ _ ___ _ ___ _ ___ _ ___ _ ___
 72
    65
 73
     4
 40
28.574999999999999
 49
19.050000000000001
 49
-3.174999999999998
 49
3.174999999999998
 49
-3.174999999999998
  0
ENDTAB
  0
TABLE
  2
LAYER
 70
     3
  0
LAYER
  2
0
 70
     0
 62
     7
  6
CONTINUOUS
  0
LAYER
  2
DEFPOINTS
 70
     0
 62
   142
  6
CONTINUOUS
  0
LAYER
  2
PAGR
 70
     0
 62
     7
  6
CONTINUOUS
  0
ENDTAB
  0
TABLE
  2
STYLE
 70
     4
  0
STYLE
  2
STANDARD
 70
     0
 40
0.0
 41
1.0
 50
0.0
 71
     0
 42
0.2
  3
txt
  4

  0
STYLE
  2
LIETUV2
 70
     0
 40
2.5
 41
1.0
 50
0.0
 71
     0
 42
2.5
  3
txt
  4

  0
STYLE
  2
ISO_PROPORTIONAL
 70
     0
 40
0.0
 41
1.0
 50
0.0
 71
     0
 42
40.0
  3
romanc.shx
  4

  0
STYLE
  2
GOST
 70
     0
 40
0.0
 41
0.8
 50
0.0
 71
     0
 42
3.5
  3
litc.shx
  4

  0
ENDTAB
  0
TABLE
  2
VIEW
 70
     0
  0
ENDTAB
  0
TABLE
  2
UCS
 70
     0
  0
ENDTAB
  0
TABLE
  2
APPID
 70
     1
  0
APPID
  2
ACAD
 70
     0
  0
ENDTAB
  0
TABLE
  2
DIMSTYLE
 70
     6
  0
DIMSTYLE
  2
STANDARD
 70
     0
  3

  4

  5

  6

  7

 40
1.0
 41
0.18
 42
0.0625
 43
0.38
 44
0.18
 45
0.0
 46
0.0
 47
0.0
 48
0.0
140
0.18
141
0.09
142
0.0
143
25.399999999999999
144
1.0
145
0.0
146
1.0
147
0.09
 71
     0
 72
     0
 73
     1
 74
     1
 75
     0
 76
     0
 77
     0
 78
     0
170
     0
171
     2
172
     0
173
     0
174
     0
175
     0
176
     0
177
     0
178
     0
  0
DIMSTYLE
  2
ISO-25
 70
     0
  3

  4

  5

  6

  7

 40
1.0
 41
5.0
 42
0.625
 43
3.75
 44
1.25
 45
0.0
 46
0.0
 47
0.0
 48
0.0
140
2.5
141
1.5
142
0.0
143
0.03937007874016
144
1.0
145
0.0
146
1.0
147
0.625
 71
     0
 72
     0
 73
     0
 74
     1
 75
     0
 76
     0
 77
     1
 78
     8
170
     0
171
     3
172
     1
173
     0
174
     0
175
     0
176
     0
177
     0
178
     0
  0
DIMSTYLE
  2
COPY_OF_STANDARD
 70
     0
  3

  4

  5

  6

  7

 40
1.0
 41
3.7299999999999991
 42
0.0
 43
0.0
 44
1.0
 45
0.1
 46
0.0
 47
0.0
 48
0.000000001
140
3.5
141
0.09
142
0.0
143
25.399999999999999
144
1.0
145
0.0
146
1.0
147
1.0
 71
     0
 72
     0
 73
     0
 74
     1
 75
     0
 76
     0
 77
     1
 78
     8
170
     0
171
     2
172
     0
173
     0
174
     0
175
     1
176
     0
177
     0
178
     0
  0
DIMSTYLE
  2
COPY_OF_ISO-25
 70
     0
  3

  4

  5

  6

  7

 40
1.0
 41
3.5
 42
0.0
 43
7.0
 44
1.25
 45
0.0
 46
0.0
 47
0.0
 48
0.000000001
140
3.5
141
3.0
142
0.0
143
0.03937007874016
144
1.0
145
0.0
146
1.0
147
1.0
 71
     0
 72
     0
 73
     0
 74
     1
 75
     0
 76
     0
 77
     1
 78
     8
170
     0
171
     3
172
     1
173
     0
174
     0
175
     0
176
   256
177
   256
178
   256
  0
DIMSTYLE
  2
GOST
 70
     0
  3

  4

  5

  6

  7

 40
0.0
 41
3.0
 42
0.0
 43
8.0
 44
1.25
 45
0.0
 46
0.0
 47
0.0
 48
0.0
140
3.0
141
5.0
142
0.0
143
25.399999999999999
144
1.0
145
0.0
146
1.0
147
0.625
 71
     0
 72
     0
 73
     0
 74
     1
 75
     0
 76
     0
 77
     1
 78
     8
170
     0
171
     2
172
     1
173
     0
174
     0
175
     0
176
     0
177
     0
178
     0
  0
DIMSTYLE
  2
ISO-25M
 70
     0
  3

  4

  5

  6

  7

 40
2.0
 41
2.5
 42
0.0
 43
3.75
 44
1.25
 45
0.0
 46
0.0
 47
0.0
 48
0.000000001
140
2.5
141
2.5
142
0.0
143
0.03937007874016
144
1.0
145
0.0
146
1.0
147
0.625
 71
     0
 72
     0
 73
     0
 74
     0
 75
     0
 76
     0
 77
     1
 78
     8
170
     0
171
     3
172
     1
173
     0
174
     0
175
     0
176
     0
177
     0
178
     0
  0
ENDTAB
  0
ENDSEC
  0
SECTION
  2
BLOCKS
  0
BLOCK
  8
0
  2
$MODEL_SPACE
 70
     0
 10
0.0
 20
0.0
 30
0.0
  3
$MODEL_SPACE
  1

  0
ENDBLK
  5
7F5
  8
0
  0
BLOCK
 67
     1
  8
0
  2
$PAPER_SPACE
 70
     0
 10
0.0
 20
0.0
 30
0.0
  3
$PAPER_SPACE
  1

  0
ENDBLK
  5
7F1
 67
     1
  8
0
  0
BLOCK
  8
0
  2
*D2
 70
     1
 10
0.0
 20
0.0
 30
0.0
  3
*D2
  1

  0
LINE
  5
6B1
  8
0
 10
126.9958518814292
 20
139.74414492005781
 30
0.0
 11
113.8478147817854
 21
139.74414492005781
 31
0.0
  0
LINE
  5
6B2
  8
0
 10
126.9958518814307
 20
453.6015627424681
 30
0.0
 11
113.8478147817854
 21
453.6015627424681
 31
0.0
  0
LINE
  5
6B3
  8
0
 10
115.0978147817854
 20
143.24414492005781
 30
0.0
 11
115.0978147817854
 21
450.1015627424681
 31
0.0
  0
SOLID
  5
6B4
  8
0
 10
114.514481448452
 20
143.24414492005781
 30
0.0
 11
115.6811481151187
 21
143.24414492005781
 31
0.0
 12
115.0978147817854
 22
139.74414492005781
 32
0.0
 13
115.0978147817854
 23
139.74414492005781
 33
0.0
  0
SOLID
  5
6B5
  8
0
 10
114.5144814484521
 20
450.1015627424681
 30
0.0
 11
115.6811481151188
 21
450.1015627424681
 31
0.0
 12
115.0978147817854
 22
453.6015627424681
 32
0.0
 13
115.0978147817854
 23
453.6015627424681
 33
0.0
  0
INSERT
  5
6B6
  8
0
  2
*U3
 10
0.0
 20
0.0
 30
0.0
  0
POINT
  5
6B7
  8
DEFPOINTS
 62
     0
 10
126.9958518814292
 20
139.74414492005781
 30
0.0
  0
POINT
  5
6B8
  8
DEFPOINTS
 62
     0
 10
126.9958518814307
 20
453.6015627424681
 30
0.0
  0
POINT
  5
6B9
  8
DEFPOINTS
 62
     0
 10
115.0978147817854
 20
453.6015627424681
 30
0.0
  0
ENDBLK
  5
6A7
  8
0
  0
BLOCK
  8
0
  2
*U3
 70
     1
 10
0.0
 20
0.0
 30
0.0
  3
*U3
  1

  0
TEXT
  5
7BD
  8
0
 10
114.0978147817854
 20
287.75618716459638
 30
0.0
 40
3.5
  1
313.86
 50
90.0
  7
ISO_PROPORTIONAL
  0
ENDBLK
  5
7BF
  8
0
  0
BLOCK
  8
0
  2
*D4
 70
     1
 10
0.0
 20
0.0
 30
0.0
  3
*D4
  1

  0
LINE
  5
6C8
  8
0
 10
126.99585188143161
 20
142.9985542569693
 30
0.0
 11
126.99585188143161
 21
122.8968000266031
 31
0.0
  0
LINE
  5
6C9
  8
0
 10
253.99585188143161
 20
149.64339445915741
 30
0.0
 11
253.99585188143161
 21
122.8968000266031
 31
0.0
  0
LINE
  5
6CA
  8
0
 10
130.49585188143161
 20
124.1468000266031
 30
0.0
 11
250.49585188143161
 21
124.1468000266031
 31
0.0
  0
SOLID
  5
6CB
  8
0
 10
130.49585188143161
 20
124.7301333599365
 30
0.0
 11
130.49585188143161
 21
123.5634666932698
 31
0.0
 12
126.99585188143161
 22
124.1468000266031
 32
0.0
 13
126.99585188143161
 23
124.1468000266031
 33
0.0
  0
SOLID
  5
6CC
  8
0
 10
250.49585188143161
 20
124.7301333599365
 30
0.0
 11
250.49585188143161
 21
123.5634666932698
 31
0.0
 12
253.99585188143161
 22
124.1468000266031
 32
0.0
 13
253.99585188143161
 23
124.1468000266031
 33
0.0
  0
INSERT
  5
6CD
  8
0
  2
*U5
 10
0.0
 20
0.0
 30
0.0
  0
POINT
  5
6CE
  8
DEFPOINTS
 62
     0
 10
126.99585188143161
 20
142.9985542569693
 30
0.0
  0
POINT
  5
6CF
  8
DEFPOINTS
 62
     0
 10
253.99585188143161
 20
149.64339445915741
 30
0.0
  0
POINT
  5
6D0
  8
DEFPOINTS
 62
     0
 10
253.99585188143161
 20
124.1468000266031
 30
0.0
  0
ENDBLK
  5
6C6
  8
0
  0
BLOCK
  8
0
  2
*U5
 70
     1
 10
0.0
 20
0.0
 30
0.0
  3
*U5
  1

  0
TEXT
  5
7C1
  8
0
 10
185.74585188143161
 20
125.1468000266031
 30
0.0
 40
3.5
  1
127
  7
ISO_PROPORTIONAL
  0
ENDBLK
  5
7C3
  8
0
  0
BLOCK
  8
0
  2
*D6
 70
     1
 10
0.0
 20
0.0
 30
0.0
  3
*D6
  1

  0
LINE
  5
6E0
  8
0
 10
601.17595153578031
 20
426.05050963782372
 30
0.0
 11
588.34261820244672
 21
426.05050963782389
 31
0.0
  0
LINE
  5
6E1
  8
0
 10
588.34261820244672
 20
426.05050963782389
 30
0.0
 11
579.89337640263216
 21
416.82215822868369
 31
0.0
  0
LINE
  5
6E2
  8
0
 10
359.74990451264301
 20
176.37912592327109
 30
0.0
 11
357.38640098008182
 21
173.79768232490011
 31
0.0
  0
INSERT
  5
6E3
  8
0
  2
*U7
 10
0.0
 20
0.0
 30
0.0
  0
LINE
  5
6E4
  8
0
 10
362.1134080452041
 20
178.9605695216421
 30
0.0
 11
577.52987287007113
 21
414.24071463031271
 31
0.0
  0
SOLID
  5
6E5
  8
0
 10
359.31966391291451
 20
176.77304317869789
 30
0.0
 11
360.18014511237152
 21
175.9852086678442
 31
0.0
 12
362.1134080452041
 22
178.9605695216421
 32
0.0
 13
362.1134080452041
 23
178.9605695216421
 33
0.0
  0
SOLID
  5
6E6
  8
0
 10
579.46313580290393
 20
417.21607548411049
 30
0.0
 11
580.32361700236095
 21
416.42824097325678
 31
0.0
 12
577.52987287007113
 22
414.24071463031271
 32
0.0
 13
577.52987287007113
 23
414.24071463031271
 33
0.0
  0
POINT
  5
6E7
  8
DEFPOINTS
 62
     0
 10
577.52987287007113
 20
414.24071463031271
 30
0.0
  0
POINT
  5
6E8
  8
DEFPOINTS
 62
     0
 10
362.1134080452041
 20
178.9605695216421
 30
0.0
  0
ENDBLK
  5
6DE
  8
0
  0
BLOCK
  8
0
  2
*U7
 70
     1
 10
0.0
 20
0.0
 30
0.0
  3
*U7
  1

  0
TEXT
  5
7C5
  8
0
 10
589.00928486911323
 20
427.05050963782401
 30
0.0
 40
3.5
  1
\U+2205319
  7
ISO_PROPORTIONAL
  0
ENDBLK
  5
7C7
  8
0
  0
BLOCK
  8
0
  2
*D8
 70
     1
 10
0.0
 20
0.0
 30
0.0
  3
*D8
  1

  0
LINE
  5
6F8
  8
0
 10
308.32164045763761
 20
298.10156274246827
 30
0.0
 11
308.32164045763761
 21
325.03563497780829
 31
0.0
  0
LINE
  5
6F9
  8
0
 10
631.32164045763727
 20
298.10156274246827
 30
0.0
 11
631.32164045763727
 21
325.03563497780829
 31
0.0
  0
LINE
  5
6FA
  8
0
 10
311.82164045763761
 20
323.78563497780829
 30
0.0
 11
627.8216404576375
 21
323.78563497780829
 31
0.0
  0
SOLID
  5
6FB
  8
0
 10
311.82164045763761
 20
324.3689683111416
 30
0.0
 11
311.82164045763761
 21
323.20230164447509
 31
0.0
 12
308.32164045763761
 22
323.78563497780829
 32
0.0
 13
308.32164045763761
 23
323.78563497780829
 33
0.0
  0
SOLID
  5
6FC
  8
0
 10
627.8216404576375
 20
324.3689683111416
 30
0.0
 11
627.8216404576375
 21
323.20230164447509
 31
0.0
 12
631.32164045763727
 22
323.78563497780829
 32
0.0
 13
631.32164045763727
 23
323.78563497780829
 33
0.0
  0
INSERT
  5
6FD
  8
0
  2
*U9
 10
0.0
 20
0.0
 30
0.0
  0
POINT
  5
6FE
  8
DEFPOINTS
 62
     0
 10
308.32164045763761
 20
298.10156274246827
 30
0.0
  0
POINT
  5
6FF
  8
DEFPOINTS
 62
     0
 10
631.32164045763727
 20
298.10156274246827
 30
0.0
  0
POINT
  5
700
  8
DEFPOINTS
 62
     0
 10
631.32164045763727
 20
323.78563497780829
 30
0.0
  0
ENDBLK
  5
6F6
  8
0
  0
BLOCK
  8
0
  2
*U9
 70
     1
 10
0.0
 20
0.0
 30
0.0
  3
*U9
  1

  0
TEXT
  5
7C9
  8
0
 10
464.82164045763727
 20
324.78563497780829
 30
0.0
 40
3.5
  1
323
  7
ISO_PROPORTIONAL
  0
ENDBLK
  5
7CB
  8
0
  0
BLOCK
  8
0
  2
*U10
 70
     1
 10
0.0
 20
0.0
 30
0.0
  3
*U10
  1

  0
TEXT
  5
71C
  8
0
 10
-2359.4544765657879
 20
14488.74443262348
 30
0.0
 40
7.0
  1
10.5
  0
ENDBLK
  5
71E
  8
0
  0
BLOCK
  8
0
  2
*U11
 70
     1
 10
0.0
 20
0.0
 30
0.0
  3
*U11
  1

  0
TEXT
  5
720
  8
0
 10
-2386.70460989912
 20
14178.20219659551
 30
0.0
 40
7.0
  1
127
  0
TEXT
  5
721
  8
0
 10
-2368.0379432324539
 20
14178.20219659551
 30
0.0
 40
5.0000999999999989
  1
-1.2
  0
ENDBLK
  5
723
  8
0
  0
BLOCK
  8
0
  2
*U12
 70
     1
 10
0.0
 20
0.0
 30
0.0
  3
*U12
  1

  0
TEXT
  5
725
  8
0
 10
-2463.4808003929952
 20
14347.61015587375
 30
0.0
 40
7.0
  1
\U+2205
 50
90.0
  0
TEXT
  5
726
  8
0
 10
-2463.4808003929952
 20
14354.61015587375
 30
0.0
 40
7.0
  1
314
 50
90.0
  0
TEXT
  5
727
  8
0
 10
-2469.0808003929942
 20
14373.27682254042
 30
0.0
 40
4.2000000000000002
  1
+0.3
 50
90.0
  0
TEXT
  5
728
  8
0
 10
-2463.4808003929952
 20
14373.27682254042
 30
0.0
 40
4.2000000000000002
  1
-0.6
 50
90.0
  0
ENDBLK
  5
72A
  8
0
  0
BLOCK
  8
0
  2
*U13
 70
     1
 10
0.0
 20
0.0
 30
0.0
  3
*U13
  1

  0
TEXT
  5
72C
  8
0
 10
-2387.5740805882269
 20
14533.19348920708
 30
0.0
 40
7.0
  1
6
  0
ENDBLK
  5
72E
  8
0
  0
BLOCK
  8
0
  2
*U14
 70
     1
 10
0.0
 20
0.0
 30
0.0
  3
*U14
  1

  0
TEXT
  5
730
  8
0
 10
-1989.5450823918191
 20
14513.54487930886
 30
0.0
 40
7.0
  1
\U+2205
  0
TEXT
  5
731
  8
0
 10
-1982.5450823918191
 20
14513.54487930886
 30
0.0
 40
7.0
  1
317
  0
TEXT
  5
732
  8
0
 10
-1963.8784157251521
 20
14513.54487930886
 30
0.0
 40
5.25
  1
-1.0
  0
ENDBLK
  5
734
  8
0
  0
BLOCK
  8
0
  2
*U15
 70
     1
 10
0.0
 20
0.0
 30
0.0
  3
*U15
  1

  0
TEXT
  5
736
  8
0
 10
-2100.7120213229132
 20
14186.221671320989
 30
0.0
 40
7.0
  1
323
  0
ENDBLK
  5
738
  8
0
  0
BLOCK
  8
0
  2
*U16
 70
     1
 10
0.0
 20
0.0
 30
0.0
  3
*U16
  1

  0
TEXT
  5
79F
  8
0
 10
575.99155557920585
 20
443.75295284424362
 30
0.0
 40
7.0
  1
\U+2205
  0
TEXT
  5
7A0
  8
0
 10
582.99155557920596
 20
443.75295284424362
 30
0.0
 40
7.0
  1
317
  0
TEXT
  5
7A1
  8
0
 10
601.65822224587271
 20
443.75295284424362
 30
0.0
 40
5.25
  1
-1.0
  0
ENDBLK
  5
7A3
  8
0
  0
BLOCK
  8
0
  2
*U17
 70
     1
 10
0.0
 20
0.0
 30
0.0
  3
*U17
  1

  0
TEXT
  5
7A5
  8
0
 10
460.48830712430401
 20
116.4297448563708
 30
0.0
 40
7.0
  1
323
  0
ENDBLK
  5
7A7
  8
0
  0
BLOCK
  8
0
  2
*U18
 70
     1
 10
0.0
 20
0.0
 30
0.0
  3
*U18
  1

  0
TEXT
  5
7A9
  8
0
 10
203.49585188142979
 20
418.95250615886528
 30
0.0
 40
7.0
  1
10.5
  0
ENDBLK
  5
7AB
  8
0
  0
BLOCK
  8
0
  2
*U19
 70
     1
 10
0.0
 20
0.0
 30
0.0
  3
*U19
  1

  0
TEXT
  5
7AD
  8
0
 10
97.719528054225194
 20
277.81822940913491
 30
0.0
 40
7.0
  1
\U+2205
 50
90.0
  0
TEXT
  5
7AE
  8
0
 10
97.719528054225194
 20
284.81822940913491
 30
0.0
 40
7.0
  1
314
 50
90.0
  0
TEXT
  5
7AF
  8
0
 10
92.119528054225185
 20
303.4848960758016
 30
0.0
 40
4.2000000000000002
  1
+0.3
 50
90.0
  0
TEXT
  5
7B0
  8
0
 10
97.719528054225194
 20
303.4848960758016
 30
0.0
 40
4.2000000000000002
  1
-0.6
 50
90.0
  0
ENDBLK
  5
7B2
  8
0
  0
BLOCK
  8
0
  2
*U20
 70
     1
 10
0.0
 20
0.0
 30
0.0
  3
*U20
  1

  0
TEXT
  5
7B4
  8
0
 10
173.62624785899089
 20
463.40156274247488
 30
0.0
 40
7.0
  1
6
  0
ENDBLK
  5
7B6
  8
0
  0
BLOCK
  8
0
  2
*U21
 70
     1
 10
0.0
 20
0.0
 30
0.0
  3
*U21
  1

  0
TEXT
  5
7B8
  8
0
 10
174.49571854809739
 20
108.4102701308954
 30
0.0
 40
7.0
  1
127
  0
TEXT
  5
7B9
  8
0
 10
193.16238521476399
 20
108.4102701308954
 30
0.0
 40
5.0000999999999989
  1
-1.2
  0
ENDBLK
  5
7BB
  8
0
  0
ENDSEC
  0
SECTION
  2
ENTITIES
  0
LINE
  5
37D
  8
0
 10
185.99585188143149
 20
296.60156274246827
 30
0.0
 11
185.99585188143149
 21
143.80156274247619
 31
0.0
  0
LINE
  5
383
  8
0
  6
CENTER2
 62
     1
 10
180.74585188143161
 20
293.60156274246827
 30
0.0
 11
180.74585188143161
 21
299.60156274246827
 31
0.0
  0
LINE
  5
384
  8
0
  6
CENTER2
 62
     1
 10
177.9958518814307
 20
296.60156274246998
 30
0.0
 11
183.9958518814307
 21
296.60156274246998
 31
0.0
  0
LINE
  5
385
  8
0
  6
CENTER2
 62
     1
 10
180.7458518814307
 20
293.60156274246998
 30
0.0
 11
180.7458518814307
 21
299.60156274246998
 31
0.0
  0
POLYLINE
  5
386
  8
0
 66
     1
 10
0.0
 20
0.0
 30
0.0
 70
     1
  0
VERTEX
  5
837
  8
0
 10
179.2458518814307
 20
296.60156274246998
 30
0.0
 42
1.0
  0
VERTEX
  5
838
  8
0
 10
182.2458518814307
 20
296.60156274246998
 30
0.0
 42
1.0
  0
SEQEND
  5
839
  8
0
  0
POLYLINE
  5
38A
  8
0
  6
CENTER2
 62
     7
 66
     1
 10
0.0
 20
0.0
 30
0.0
  0
VERTEX
  5
83A
  8
0
  6
CENTER2
 62
     7
 10
180.7458518814307
 20
298.43069301354319
 30
0.0
  0
VERTEX
  5
83B
  8
0
  6
CENTER2
 62
     7
 10
180.7458518814307
 20
294.34363997660029
 30
0.0
  0
SEQEND
  5
83C
  8
0
  6
CENTER2
 62
     7
  0
POLYLINE
  5
38B
  8
0
  6
CENTER2
 62
     7
 66
     1
 10
0.0
 20
0.0
 30
0.0
  0
VERTEX
  5
83D
  8
0
  6
CENTER2
 62
     7
 10
180.7458518814307
 20
294.77243247140058
 30
0.0
  0
VERTEX
  5
83E
  8
0
  6
CENTER2
 62
     7
 10
180.7458518814307
 20
298.8594855083436
 30
0.0
  0
SEQEND
  5
83F
  8
0
  6
CENTER2
 62
     7
  0
POLYLINE
  5
391
  8
0
  6
CENTER2
 62
     7
 66
     1
 10
0.0
 20
0.0
 30
0.0
  0
VERTEX
  5
840
  8
0
  6
CENTER2
 62
     7
 10
180.7458518814307
 20
298.43069301354319
 30
0.0
  0
VERTEX
  5
841
  8
0
  6
CENTER2
 62
     7
 10
180.7458518814307
 20
294.34363997660029
 30
0.0
  0
SEQEND
  5
842
  8
0
  6
CENTER2
 62
     7
  0
POLYLINE
  5
392
  8
0
  6
CENTER2
 62
     7
 66
     1
 10
0.0
 20
0.0
 30
0.0
  0
VERTEX
  5
843
  8
0
  6
CENTER2
 62
     7
 10
180.7458518814307
 20
294.77243247140058
 30
0.0
  0
VERTEX
  5
844
  8
0
  6
CENTER2
 62
     7
 10
180.7458518814307
 20
298.8594855083436
 30
0.0
  0
SEQEND
  5
845
  8
0
  6
CENTER2
 62
     7
  0
LINE
  5
3A5
  8
0
  6
CENTER2
 62
     1
 10
180.74585188143161
 20
293.60156274246998
 30
0.0
 11
180.74585188143161
 21
299.60156274246998
 31
0.0
  0
LINE
  5
3A6
  8
0
 10
631.32164045763727
 20
295.10156274246827
 30
0.0
 11
631.32164045763727
 21
298.10156274246827
 31
0.0
  0
LINE
  5
3A9
  8
0
 10
624.82163808787266
 20
290.40156274246942
 30
0.0
 11
624.85454019185499
 21
290.40156274246942
 31
0.0
  0
ARC
  5
3AA
  8
0
 10
624.85454019185499
 20
289.40156274246931
 30
0.0
 40
1.0
 50
357.34099400773368
 51
90.0
  0
LINE
  5
3AB
  8
0
 10
623.82163808787311
 20
296.60156274246827
 30
0.0
 11
623.82163808787277
 21
291.40156274246942
 31
0.0
  0
ARC
  5
3AC
  8
0
 10
624.8216380878722
 20
291.40156274246942
 30
0.0
 40
1.0
 50
180.0
 51
270.0
  0
LINE
  5
3AD
  8
0
 10
623.82163808787311
 20
296.60156274246827
 30
0.0
 11
623.82163808787277
 21
301.80156274246718
 31
0.0
  0
ARC
  5
3AE
  8
0
 10
624.8216380878722
 20
301.80156274246718
 30
0.0
 40
1.0
 50
90.0
 51
180.0
  0
ARC
  5
3AF
  8
0
 10
624.85454019186011
 20
303.801562742469
 30
0.0
 40
1.0
 50
269.99999999994787
 51
2.659005992162303
  0
LINE
  5
3C2
  8
0
 10
631.32164045763727
 20
298.10156274246827
 30
0.0
 11
626.81447468901149
 21
298.10156274246827
 31
0.0
  0
LINE
  5
3C3
  8
0
 10
631.32164045763727
 20
295.10156274246827
 30
0.0
 11
626.8144746890116
 21
295.10156274246827
 31
0.0
  0
LINE
  5
3C4
  8
0
 10
623.32163808787288
 20
296.60156274246827
 30
0.0
 11
623.32163808787288
 21
294.60156274246458
 31
0.0
  0
LINE
  5
3C5
  8
0
 10
623.32163808787277
 20
294.60156274246458
 30
0.0
 11
623.32163808787277
 21
298.60156274246827
 31
0.0
  0
LINE
  5
3C6
  8
0
 10
623.82163808787277
 20
295.10156274246827
 30
0.0
 11
623.32163808787277
 21
295.10156274246827
 31
0.0
  0
LINE
  5
3D3
  8
0
 10
623.32163808787277
 20
294.60156274246458
 30
0.0
 11
623.32163808787277
 21
298.60156274246827
 31
0.0
  0
LINE
  5
3D4
  8
0
 10
623.32163808787277
 20
298.60156274246827
 30
0.0
 11
622.28684495254799
 21
298.60156274246827
 31
0.0
  0
LINE
  5
3D5
  8
0
 10
613.32163808787266
 20
294.60156274246458
 30
0.0
 11
623.32163808787357
 21
294.60156274246458
 31
0.0
  0
LINE
  5
3D6
  8
0
 10
613.32163808787266
 20
298.60156274246827
 30
0.0
 11
622.30146972636123
 21
298.60156274246827
 31
0.0
  0
LINE
  5
3D7
  8
0
 10
612.82163808787266
 20
298.801562742469
 30
0.0
 11
623.30580919050601
 21
298.801562742469
 31
0.0
  0
LINE
  5
3D8
  8
0
 10
613.32163808787266
 20
294.40156274246402
 30
0.0
 11
613.32163808787266
 21
298.60156274246827
 31
0.0
  0
LINE
  5
3D9
  8
0
 10
612.82163808787266
 20
294.60156274246458
 30
0.0
 11
612.82163808787266
 21
298.801562742469
 31
0.0
  0
LINE
  5
3DA
  8
0
 10
613.32163808787266
 20
298.10156274246827
 30
0.0
 11
612.82163808787266
 21
298.10156274246827
 31
0.0
  0
LINE
  5
3DB
  8
0
 10
602.82163808787277
 20
298.60156274246827
 30
0.0
 11
612.82163808787266
 21
298.60156274246827
 31
0.0
  0
LINE
  5
3DC
  8
0
 10
613.32163808787266
 20
295.10156274246827
 30
0.0
 11
612.82163808787266
 21
295.10156274246827
 31
0.0
  0
LINE
  5
3DD
  8
0
 10
612.82163808787175
 20
294.60156274246458
 30
0.0
 11
602.82163808787175
 21
294.60156274246458
 31
0.0
  0
LINE
  5
3DE
  8
0
 10
602.82163808787277
 20
294.60156274246458
 30
0.0
 11
602.82163808787277
 21
298.801562742469
 31
0.0
  0
LINE
  5
3EA
  8
0
 10
253.9958518814307
 20
453.6015627424681
 30
0.0
 11
253.9958518814307
 21
452.9015627424676
 31
0.0
  0
LINE
  5
3EB
  8
0
 10
202.0947748558971
 20
453.60156274247538
 30
0.0
 11
239.99585188142891
 21
453.6015627424681
 31
0.0
  0
LINE
  5
3EC
  8
0
 10
202.0947748558971
 20
453.60156274247538
 30
0.0
 11
239.99585188142891
 21
453.6015627424681
 31
0.0
  0
LINE
  5
3ED
  8
0
 10
253.9958518814307
 20
453.6015627424681
 30
0.0
 11
253.9958518814307
 21
452.9015627424676
 31
0.0
  0
POLYLINE
  5
3EE
  8
0
 66
     1
 10
0.0
 20
0.0
 30
0.0
  0
VERTEX
  5
846
  8
0
 10
239.9958518814307
 20
453.6015627424681
 30
0.0
 42
-0.1530277928365761
  0
VERTEX
  5
847
  8
0
 10
240.68073238676209
 20
453.38692495679118
 30
0.0
 42
-0.1530277928365761
  0
SEQEND
  5
848
  8
0
  0
POLYLINE
  5
3EF
  8
0
 66
     1
 10
0.0
 20
0.0
 30
0.0
  0
VERTEX
  5
849
  8
0
 10
247.9958518814307
 20
453.6015627424681
 30
0.0
 42
0.1530277928365761
  0
VERTEX
  5
84A
  8
0
 10
247.3109713760993
 20
453.38692495679118
 30
0.0
 42
0.1530277928365761
  0
SEQEND
  5
84B
  8
0
  0
LINE
  5
3F0
  8
0
 10
247.3109713760993
 20
453.38692495679118
 30
0.0
 11
245.87927327109139
 21
452.39181665307711
 31
0.0
  0
LINE
  5
3F1
  8
0
 10
240.68073238676209
 20
453.38692495679118
 30
0.0
 11
242.11243049177
 21
452.39181665307711
 31
0.0
  0
POLYLINE
  5
3F2
  8
0
 66
     1
 10
0.0
 20
0.0
 30
0.0
  0
VERTEX
  5
84C
  8
0
 10
242.11243049177
 20
452.39181665307711
 30
0.0
 42
0.313394503136401
  0
VERTEX
  5
84D
  8
0
 10
245.87927327109139
 20
452.39181665307711
 30
0.0
 42
0.313394503136401
  0
SEQEND
  5
84E
  8
0
  0
LINE
  5
3F9
  8
0
 10
247.9958518814326
 20
453.6015627424681
 30
0.0
 11
253.9958518814307
 21
453.6015627424681
 31
0.0
  0
LINE
  5
3FA
  8
0
 10
247.9958518814326
 20
453.6015627424681
 30
0.0
 11
253.9958518814307
 21
453.6015627424681
 31
0.0
  0
LINE
  5
3FB
  8
0
 10
573.82163808787277
 20
298.80156274247082
 30
0.0
 11
589.8029750089762
 21
298.801562742469
 31
0.0
  0
ARC
  5
3FC
  8
0
 10
587.57153838056149
 20
298.39954807735438
 30
0.0
 40
0.2
 50
0.0000000002084408
 51
179.9999999997915
  0
LINE
  5
3FD
  8
0
 10
587.77153838056233
 20
298.39954807735438
 30
0.0
 11
587.49034168920252
 21
294.80357740758029
 31
0.0
  0
ARC
  5
3FE
  8
0
 10
587.69034168920325
 20
294.80357740758029
 30
0.0
 40
0.2
 50
180.00000000020839
 51
359.9999999997915
  0
LINE
  5
3FF
  8
0
 10
534.82163808787311
 20
294.40156274245851
 30
0.0
 11
546.91047471337026
 21
294.40156274245658
 31
0.0
  0
LINE
  5
400
  8
0
 10
472.38730466420247
 20
295.10156274246827
 30
0.0
 11
485.82163808787311
 21
295.10156274246998
 31
0.0
  0
LINE
  5
401
  8
0
 10
573.82163808787277
 20
294.60156274246458
 30
0.0
 11
573.82163808787277
 21
298.801562742469
 31
0.0
  0
LINE
  5
402
  8
0
 10
563.82163808787266
 20
294.60156274246458
 30
0.0
 11
563.82163808787266
 21
298.801562742469
 31
0.0
  0
LINE
  5
403
  8
0
 10
534.82163808787266
 20
294.40156274245658
 30
0.0
 11
534.82163808787266
 21
298.60156274246827
 31
0.0
  0
LINE
  5
404
  8
0
 10
524.82163808787266
 20
294.4015627424676
 30
0.0
 11
524.82163808787311
 21
298.60156274246827
 31
0.0
  0
LINE
  5
405
  8
0
 10
495.8216380878726
 20
294.60156274246458
 30
0.0
 11
495.8216380878726
 21
298.801562742469
 31
0.0
  0
LINE
  5
406
  8
0
 10
485.82163808787283
 20
294.60156274246458
 30
0.0
 11
485.82163808787283
 21
298.801562742469
 31
0.0
  0
LINE
  5
407
  8
0
 10
573.82163808787277
 20
294.60156274246827
 30
0.0
 11
563.82163808787266
 21
294.60156274246827
 31
0.0
  0
LINE
  5
408
  8
0
 10
573.82163808787277
 20
298.60156274246827
 30
0.0
 11
563.82163808787266
 21
298.60156274246827
 31
0.0
  0
LINE
  5
409
  8
0
 10
524.82163808787266
 20
298.60156274246827
 30
0.0
 11
534.82163808787266
 21
298.60156274246827
 31
0.0
  0
LINE
  5
40A
  8
0
 10
524.82163808787266
 20
294.60156274246827
 30
0.0
 11
534.82163808787266
 21
294.60156274246827
 31
0.0
  0
LINE
  5
40B
  8
0
 10
563.82163808787266
 20
298.801562742469
 30
0.0
 11
552.06466293552751
 21
298.801562742469
 31
0.0
  0
LINE
  5
40C
  8
0
 10
485.82163808787283
 20
294.60156274246827
 30
0.0
 11
495.8216380878726
 21
294.60156274246827
 31
0.0
  0
LINE
  5
40D
  8
0
 10
485.82163808787283
 20
298.60156274246827
 30
0.0
 11
495.8216380878726
 21
298.60156274246827
 31
0.0
  0
LINE
  5
40E
  8
0
 10
485.82163808787283
 20
298.801562742469
 30
0.0
 11
472.67663621152911
 21
298.80156274246718
 31
0.0
  0
LINE
  5
40F
  8
0
 10
573.82163808787277
 20
298.10156274246998
 30
0.0
 11
585.34628774103851
 21
298.10156274246827
 31
0.0
  0
LINE
  5
410
  8
0
 10
573.82163808787277
 20
295.10156274246827
 30
0.0
 11
585.10507075113185
 21
295.10156274246827
 31
0.0
  0
LINE
  5
411
  8
0
 10
534.82163808787266
 20
298.10156274247191
 30
0.0
 11
547.20797566758881
 21
298.10156274246998
 31
0.0
  0
LINE
  5
412
  8
0
 10
534.82163808787266
 20
295.10156274246827
 30
0.0
 11
546.96675867768192
 21
295.10156274246827
 31
0.0
  0
LINE
  5
413
  8
0
 10
495.82163808787311
 20
298.10156274247367
 30
0.0
 11
524.82163808787266
 21
298.10156274247191
 31
0.0
  0
LINE
  5
414
  8
0
 10
495.82163808787311
 20
295.10156274246998
 30
0.0
 11
524.82163808787266
 21
295.10156274246827
 31
0.0
  0
LINE
  5
415
  8
0
 10
551.09262796143923
 20
296.60156274246827
 30
0.0
 11
552.37431754442844
 21
296.60156274246827
 31
0.0
  0
LINE
  5
416
  8
0
 10
546.80490107378284
 20
288.09772107534138
 30
0.0
 11
546.4061878519384
 21
288.12977987641051
 31
0.0
  0
LINE
  5
417
  8
0
 10
552.55725907627823
 20
305.10093015543202
 30
0.0
 11
552.15725907627575
 21
305.10093015543202
 31
0.0
  0
LINE
  5
418
  8
0
 10
552.55725907627823
 20
305.10093015543202
 30
0.0
 11
551.75202961576144
 21
294.80357740757682
 31
0.0
  0
LINE
  5
419
  8
0
 10
552.15725907627575
 20
305.10093015543202
 30
0.0
 11
551.35202961575999
 21
294.80357740757682
 31
0.0
  0
LINE
  5
41A
  8
0
 10
547.23451308525955
 20
298.43160687842533
 30
0.0
 11
546.40618785193726
 21
288.12977987641051
 31
0.0
  0
LINE
  5
41B
  8
0
 10
547.63322630710491
 20
298.39954807735438
 30
0.0
 11
546.80490107378284
 21
288.09772107534138
 31
0.0
  0
ARC
  5
41C
  8
0
 10
548.75202961575053
 20
294.80357740758029
 30
0.0
 40
0.2
 50
180.00000000020839
 51
359.9999999997915
  0
LINE
  5
41D
  8
0
 10
549.23322630711095
 20
298.39954807735438
 30
0.0
 11
548.95202961575114
 21
294.80357740758029
 31
0.0
  0
LINE
  5
41E
  8
0
 10
548.83322630710916
 20
298.39954807735438
 30
0.0
 11
548.55202961574957
 21
294.80357740758029
 31
0.0
  0
ARC
  5
41F
  8
0
 10
548.35202961574885
 20
294.80357740758029
 30
0.0
 40
0.2
 50
180.00000000020839
 51
359.9999999997915
  0
ARC
  5
420
  8
0
 10
547.95202961574762
 20
294.80357740758029
 30
0.0
 40
0.2
 50
180.00000000020839
 51
359.9999999997915
  0
LINE
  5
421
  8
0
 10
548.43322630710793
 20
298.39954807735438
 30
0.0
 11
548.15202961574835
 21
294.80357740758029
 31
0.0
  0
LINE
  5
422
  8
0
 10
548.03322630710647
 20
298.39954807735438
 30
0.0
 11
547.75202961574689
 21
294.80357740758029
 31
0.0
  0
ARC
  5
423
  8
0
 10
547.55202961574605
 20
294.80357740758029
 30
0.0
 40
0.2
 50
180.00000000020839
 51
359.9999999997915
  0
ARC
  5
424
  8
0
 10
549.03322630711011
 20
298.39954807735438
 30
0.0
 40
0.2
 50
0.0000000002084408
 51
179.9999999997915
  0
ARC
  5
425
  8
0
 10
548.63322630710854
 20
298.39954807735438
 30
0.0
 40
0.2
 50
0.0000000002084408
 51
179.9999999997915
  0
ARC
  5
426
  8
0
 10
548.2332263071072
 20
298.39954807735438
 30
0.0
 40
0.2
 50
0.0000000002084408
 51
179.9999999997915
  0
ARC
  5
427
  8
0
 10
547.83322630710575
 20
298.39954807735438
 30
0.0
 40
0.2
 50
0.0000000002084408
 51
179.9999999997915
  0
ARC
  5
428
  8
0
 10
547.43322630710611
 20
298.39954807735438
 30
0.0
 40
0.2
 50
0.0000000002084408
 51
179.9999999997915
  0
ARC
  5
429
  8
0
 10
547.14279896917435
 20
294.80357740758029
 30
0.0
 40
0.2
 50
180.00000000020839
 51
359.9999999997915
  0
ARC
  5
42A
  8
0
 10
551.55202961576072
 20
294.80357740757682
 30
0.0
 40
0.2
 50
180.00000000020839
 51
359.9999999997915
  0
POINT
  5
42B
  8
0
  6
CONTINUOUS
 62
     7
 10
551.40341292242704
 20
296.60093015543202
 30
0.0
  0
POINT
  5
42C
  8
0
  6
CONTINUOUS
 62
     7
 10
551.40341292242704
 20
296.60093015543572
 30
0.0
  0
ARC
  5
42D
  8
0
 10
551.15202961575915
 20
294.80357740758029
 30
0.0
 40
0.2
 50
180.00000000020839
 51
359.9999999997915
  0
ARC
  5
42E
  8
0
 10
550.75202961575769
 20
294.80357740758029
 30
0.0
 40
0.2
 50
180.00000000020839
 51
359.9999999997915
  0
LINE
  5
42F
  8
0
 10
551.23322630711812
 20
298.39954807735438
 30
0.0
 11
550.95202961575853
 21
294.80357740758029
 31
0.0
  0
LINE
  5
430
  8
0
 10
550.83322630711655
 20
298.39954807735438
 30
0.0
 11
550.55202961575708
 21
294.80357740758029
 31
0.0
  0
ARC
  5
431
  8
0
 10
550.35202961575635
 20
294.80357740758029
 30
0.0
 40
0.2
 50
180.00000000020839
 51
359.9999999997915
  0
ARC
  5
432
  8
0
 10
549.95202961575467
 20
294.80357740758029
 30
0.0
 40
0.2
 50
180.00000000020839
 51
359.9999999997915
  0
LINE
  5
433
  8
0
 10
550.43322630711521
 20
298.39954807735438
 30
0.0
 11
550.15202961575562
 21
294.80357740758029
 31
0.0
  0
LINE
  5
434
  8
0
 10
550.03322630711375
 20
298.39954807735438
 30
0.0
 11
549.75202961575405
 21
294.80357740758029
 31
0.0
  0
ARC
  5
435
  8
0
 10
549.55202961575344
 20
294.80357740758029
 30
0.0
 40
0.2
 50
180.00000000020839
 51
359.9999999997915
  0
ARC
  5
436
  8
0
 10
551.43322630711884
 20
298.39954807735438
 30
0.0
 40
0.2
 50
0.0000000002084408
 51
179.9999999997915
  0
ARC
  5
437
  8
0
 10
551.03322630711716
 20
298.39954807735438
 30
0.0
 40
0.2
 50
0.0000000002084408
 51
179.9999999997915
  0
ARC
  5
438
  8
0
 10
550.63322630711593
 20
298.39954807735438
 30
0.0
 40
0.2
 50
0.0000000002084408
 51
179.9999999997915
  0
ARC
  5
439
  8
0
 10
550.23322630711448
 20
298.39954807735438
 30
0.0
 40
0.2
 50
0.0000000002084408
 51
179.9999999997915
  0
ARC
  5
43A
  8
0
 10
549.8332263071128
 20
298.39954807735438
 30
0.0
 40
0.2
 50
0.0000000002084408
 51
179.9999999997915
  0
LINE
  5
43B
  8
0
 10
549.63322630711207
 20
298.39954807735438
 30
0.0
 11
549.35202961575271
 21
294.80357740758029
 31
0.0
  0
POINT
  5
43C
  8
0
  6
CONTINUOUS
 62
     7
 10
549.40341292241965
 20
296.60093015543572
 30
0.0
  0
POINT
  5
43D
  8
0
  6
CONTINUOUS
 62
     7
 10
549.40341292241965
 20
296.60093015543202
 30
0.0
  0
ARC
  5
43E
  8
0
 10
551.8332263071203
 20
298.39954807735438
 30
0.0
 40
0.2
 50
0.0000000002084408
 51
179.9999999997915
  0
ARC
  5
43F
  8
0
 10
549.15202961575199
 20
294.80357740758029
 30
0.0
 40
0.2
 50
180.00000000020839
 51
359.9999999997915
  0
ARC
  5
440
  8
0
 10
549.43322630711145
 20
298.39954807735438
 30
0.0
 40
0.2
 50
0.0000000002084408
 51
179.9999999997915
  0
LINE
  5
441
  8
0
 10
473.16923235227989
 20
305.10093015543202
 30
0.0
 11
472.76923235227753
 21
305.10093015543202
 31
0.0
  0
LINE
  5
442
  8
0
 10
473.16923235227989
 20
305.10093015543202
 30
0.0
 11
472.36400289176311
 21
294.80357740757682
 31
0.0
  0
LINE
  5
443
  8
0
 10
472.76923235227753
 20
305.10093015543202
 30
0.0
 11
471.9640028917616
 21
294.80357740757682
 31
0.0
  0
LINE
  5
444
  8
0
 10
469.8451995831125
 20
298.39954807735438
 30
0.0
 11
469.56400289175281
 21
294.80357740758029
 31
0.0
  0
ARC
  5
445
  8
0
 10
472.16400289176232
 20
294.80357740757682
 30
0.0
 40
0.2
 50
180.00000000020839
 51
359.9999999997915
  0
POINT
  5
446
  8
0
  6
CONTINUOUS
 62
     7
 10
472.01538619842859
 20
296.60093015543202
 30
0.0
  0
POINT
  5
447
  8
0
  6
CONTINUOUS
 62
     7
 10
472.01538619842859
 20
296.60093015543572
 30
0.0
  0
ARC
  5
448
  8
0
 10
471.76400289176092
 20
294.80357740758029
 30
0.0
 40
0.2
 50
180.00000000020839
 51
359.9999999997915
  0
ARC
  5
449
  8
0
 10
471.36400289175941
 20
294.80357740758029
 30
0.0
 40
0.2
 50
180.00000000020839
 51
359.9999999997915
  0
LINE
  5
44A
  8
0
 10
471.84519958311972
 20
298.39954807735438
 30
0.0
 11
471.56400289176031
 21
294.80357740758029
 31
0.0
  0
LINE
  5
44B
  8
0
 10
471.44519958311838
 20
298.39954807735438
 30
0.0
 11
471.1640028917588
 21
294.80357740758029
 31
0.0
  0
ARC
  5
44C
  8
0
 10
470.9640028917579
 20
294.80357740758029
 30
0.0
 40
0.2
 50
180.00000000020839
 51
359.9999999997915
  0
ARC
  5
44D
  8
0
 10
470.5640028917565
 20
294.80357740758029
 30
0.0
 40
0.2
 50
180.00000000020839
 51
359.9999999997915
  0
LINE
  5
44E
  8
0
 10
471.04519958311693
 20
298.39954807735438
 30
0.0
 11
470.76400289175717
 21
294.80357740758029
 31
0.0
  0
LINE
  5
44F
  8
0
 10
470.6451995831153
 20
298.39954807735438
 30
0.0
 11
470.36400289175589
 21
294.80357740758029
 31
0.0
  0
ARC
  5
450
  8
0
 10
470.1640028917551
 20
294.80357740758029
 30
0.0
 40
0.2
 50
180.00000000020839
 51
359.9999999997915
  0
ARC
  5
451
  8
0
 10
472.04519958312039
 20
298.39954807735438
 30
0.0
 40
0.2
 50
0.0000000002084408
 51
179.9999999997915
  0
ARC
  5
452
  8
0
 10
471.64519958311911
 20
298.39954807735438
 30
0.0
 40
0.2
 50
0.0000000002084408
 51
179.9999999997915
  0
ARC
  5
453
  8
0
 10
471.2451995831176
 20
298.39954807735438
 30
0.0
 40
0.2
 50
0.0000000002084408
 51
179.9999999997915
  0
ARC
  5
454
  8
0
 10
470.84519958311603
 20
298.39954807735438
 30
0.0
 40
0.2
 50
0.0000000002084408
 51
179.9999999997915
  0
ARC
  5
455
  8
0
 10
470.44519958311457
 20
298.39954807735438
 30
0.0
 40
0.2
 50
0.0000000002084408
 51
179.9999999997915
  0
LINE
  5
456
  8
0
 10
470.24519958311402
 20
298.39954807735438
 30
0.0
 11
469.96400289175432
 21
294.80357740758029
 31
0.0
  0
POINT
  5
457
  8
0
  6
CONTINUOUS
 62
     7
 10
470.01538619842142
 20
296.60093015543572
 30
0.0
  0
POINT
  5
458
  8
0
  6
CONTINUOUS
 62
     7
 10
470.01538619842142
 20
296.60093015543202
 30
0.0
  0
ARC
  5
459
  8
0
 10
472.44519958312202
 20
298.39954807735438
 30
0.0
 40
0.2
 50
0.0000000002084408
 51
179.9999999997915
  0
ARC
  5
45A
  8
0
 10
469.76400289175371
 20
294.80357740758029
 30
0.0
 40
0.2
 50
180.00000000020839
 51
359.9999999997915
  0
ARC
  5
45B
  8
0
 10
470.04519958311317
 20
298.39954807735438
 30
0.0
 40
0.2
 50
0.0000000002084408
 51
179.9999999997915
  0
LINE
  5
45C
  8
0
 10
472.62189781068361
 20
298.10156274247367
 30
0.0
 11
485.82163808787311
 21
298.10156274247367
 31
0.0
  0
LINE
  5
45D
  8
0
 10
547.31176564438022
 20
294.40156274245658
 30
0.0
 11
585.04878678681882
 21
294.40156274245481
 31
0.0
  0
LINE
  5
45E
  8
0
 10
551.66466293552605
 20
298.801562742469
 30
0.0
 11
495.8216380878726
 21
298.801562742469
 31
0.0
  0
LINE
  5
45F
  8
0
 10
551.77533138820115
 20
295.10156274246827
 30
0.0
 11
563.82163808787266
 21
295.10156274246827
 31
0.0
  0
LINE
  5
460
  8
0
 10
552.0099245346828
 20
298.10156274246998
 30
0.0
 11
563.82163808787266
 21
298.10156274246998
 31
0.0
  0
ARC
  5
461
  8
0
 10
587.29034168920191
 20
294.80357740758029
 30
0.0
 40
0.2
 50
180.00000000020839
 51
359.9999999997915
  0
POINT
  5
462
  8
0
  6
CONTINUOUS
 62
     7
 10
587.54172499586957
 20
296.60093015543202
 30
0.0
  0
POINT
  5
463
  8
0
  6
CONTINUOUS
 62
     7
 10
587.54172499586957
 20
296.60093015543572
 30
0.0
  0
ARC
  5
464
  8
0
 10
585.28111104262427
 20
294.80357740758029
 30
0.0
 40
0.2
 50
180.00000000020839
 51
359.9999999997915
  0
ARC
  5
465
  8
0
 10
585.57153838055604
 20
298.39954807735438
 30
0.0
 40
0.2
 50
0.0000000002084408
 51
179.9999999997915
  0
ARC
  5
466
  8
0
 10
585.97153838055556
 20
298.39954807735438
 30
0.0
 40
0.2
 50
0.0000000002084408
 51
179.9999999997915
  0
ARC
  5
467
  8
0
 10
586.37153838055713
 20
298.39954807735438
 30
0.0
 40
0.2
 50
0.0000000002084408
 51
179.9999999997915
  0
ARC
  5
468
  8
0
 10
586.77153838055847
 20
298.39954807735438
 30
0.0
 40
0.2
 50
0.0000000002084408
 51
179.9999999997915
  0
ARC
  5
469
  8
0
 10
587.17153838056004
 20
298.39954807735438
 30
0.0
 40
0.2
 50
0.0000000002084408
 51
179.9999999997915
  0
ARC
  5
46A
  8
0
 10
585.69034168919598
 20
294.80357740758029
 30
0.0
 40
0.2
 50
180.00000000020839
 51
359.9999999997915
  0
LINE
  5
46B
  8
0
 10
586.1715383805564
 20
298.39954807735438
 30
0.0
 11
585.89034168919682
 21
294.80357740758029
 31
0.0
  0
LINE
  5
46C
  8
0
 10
586.57153838055785
 20
298.39954807735438
 30
0.0
 11
586.29034168919804
 21
294.80357740758029
 31
0.0
  0
ARC
  5
46D
  8
0
 10
586.09034168919754
 20
294.80357740758029
 30
0.0
 40
0.2
 50
180.00000000020839
 51
359.9999999997915
  0
ARC
  5
46E
  8
0
 10
586.490341689199
 20
294.80357740758029
 30
0.0
 40
0.2
 50
180.00000000020839
 51
359.9999999997915
  0
LINE
  5
46F
  8
0
 10
586.97153838055908
 20
298.39954807735438
 30
0.0
 11
586.69034168919961
 21
294.80357740758029
 31
0.0
  0
LINE
  5
470
  8
0
 10
587.37153838056065
 20
298.39954807735438
 30
0.0
 11
587.09034168920095
 21
294.80357740758029
 31
0.0
  0
ARC
  5
471
  8
0
 10
586.89034168920045
 20
294.80357740758029
 30
0.0
 40
0.2
 50
180.00000000020839
 51
359.9999999997915
  0
LINE
  5
472
  8
0
 10
585.77153838055483
 20
298.39954807735438
 30
0.0
 11
584.94321314723265
 21
288.09772107534138
 31
0.0
  0
LINE
  5
473
  8
0
 10
585.37282515870959
 20
298.43160687842533
 30
0.0
 11
584.5444999253873
 21
288.12977987641051
 31
0.0
  0
LINE
  5
474
  8
0
 10
584.94321314723265
 20
288.09772107534138
 30
0.0
 11
584.54449992538844
 21
288.12977987641051
 31
0.0
  0
LINE
  5
475
  8
0
 10
467.57873195368541
 20
295.10156274249198
 30
0.0
 11
453.82160514174763
 21
295.1015627424901
 31
0.0
  0
LINE
  5
476
  8
0
 10
467.81994894359292
 20
298.10156274250107
 30
0.0
 11
453.82160514174677
 21
298.10156274249738
 31
0.0
  0
LINE
  5
477
  8
0
 10
404.82160514174763
 20
294.60156274246827
 30
0.0
 11
404.82160514174677
 21
298.80156274246718
 31
0.0
  0
LINE
  5
478
  8
0
 10
414.82160514174723
 20
294.60156274246827
 30
0.0
 11
414.82160514174677
 21
298.80156274245809
 31
0.0
  0
LINE
  5
479
  8
0
 10
443.82160514174768
 20
294.40156274250211
 30
0.0
 11
443.8216051417462
 21
298.60156274250278
 31
0.0
  0
LINE
  5
47A
  8
0
 10
453.82160514174763
 20
294.40156274250569
 30
0.0
 11
453.82160514174632
 21
298.60156274250647
 31
0.0
  0
LINE
  5
47B
  8
0
 10
404.82160514174723
 20
294.60156274246827
 30
0.0
 11
414.82160514174723
 21
294.60156274246827
 31
0.0
  0
LINE
  5
47C
  8
0
 10
453.82160514174728
 20
298.60156274250647
 30
0.0
 11
443.82160514174723
 21
298.60156274250278
 31
0.0
  0
LINE
  5
47D
  8
0
 10
453.82160514174728
 20
294.60156274246827
 30
0.0
 11
443.82160514174723
 21
294.60156274246458
 31
0.0
  0
LINE
  5
47E
  8
0
 10
453.82160514174763
 20
294.4015627424676
 30
0.0
 11
467.52244798937232
 21
294.4015627424676
 31
0.0
  0
LINE
  5
47F
  8
0
 10
443.82160514174677
 20
298.10156274249368
 30
0.0
 11
414.8216051417462
 21
298.1015627424847
 31
0.0
  0
LINE
  5
480
  8
0
 10
443.82160514174723
 20
295.10156274248652
 30
0.0
 11
414.82160514174723
 21
295.10156274247919
 31
0.0
  0
LINE
  5
481
  8
0
 10
404.82160514174723
 20
298.60156274246827
 30
0.0
 11
414.82160514174723
 21
298.60156274246827
 31
0.0
  0
LINE
  5
482
  8
0
 10
467.6993404486376
 20
296.60156274246827
 30
0.0
 11
468.10063137964801
 21
296.60156274246827
 31
0.0
  0
LINE
  5
483
  8
0
 10
467.41687434978439
 20
288.09772107534138
 30
0.0
 11
467.01816112794
 21
288.12977987641051
 31
0.0
  0
LINE
  5
484
  8
0
 10
467.84648636126138
 20
298.43160687842533
 30
0.0
 11
467.01816112793909
 21
288.12977987641051
 31
0.0
  0
LINE
  5
485
  8
0
 10
468.24519958310651
 20
298.39954807735438
 30
0.0
 11
467.41687434978439
 21
288.09772107534138
 31
0.0
  0
LINE
  5
486
  8
0
 10
469.44519958311088
 20
298.39954807735438
 30
0.0
 11
469.16400289175152
 21
294.80357740758029
 31
0.0
  0
ARC
  5
487
  8
0
 10
468.96400289175079
 20
294.80357740758029
 30
0.0
 40
0.2
 50
180.00000000020839
 51
359.9999999997915
  0
ARC
  5
488
  8
0
 10
468.56400289174923
 20
294.80357740758029
 30
0.0
 40
0.2
 50
180.00000000020839
 51
359.9999999997915
  0
LINE
  5
489
  8
0
 10
469.04519958310959
 20
298.39954807735438
 30
0.0
 11
468.76400289175001
 21
294.80357740758029
 31
0.0
  0
LINE
  5
48A
  8
0
 10
468.64519958310819
 20
298.39954807735438
 30
0.0
 11
468.36400289174861
 21
294.80357740758029
 31
0.0
  0
ARC
  5
48B
  8
0
 10
468.16400289174771
 20
294.80357740758029
 30
0.0
 40
0.2
 50
180.00000000020839
 51
359.9999999997915
  0
ARC
  5
48C
  8
0
 10
469.24519958311032
 20
298.39954807735438
 30
0.0
 40
0.2
 50
0.0000000002084408
 51
179.9999999997915
  0
ARC
  5
48D
  8
0
 10
468.84519958310892
 20
298.39954807735438
 30
0.0
 40
0.2
 50
0.0000000002084408
 51
179.9999999997915
  0
ARC
  5
48E
  8
0
 10
468.4451995831073
 20
298.39954807735438
 30
0.0
 40
0.2
 50
0.0000000002084408
 51
179.9999999997915
  0
ARC
  5
48F
  8
0
 10
468.04519958310772
 20
298.39954807735438
 30
0.0
 40
0.2
 50
0.0000000002084408
 51
179.9999999997915
  0
ARC
  5
490
  8
0
 10
467.75477224517613
 20
294.80357740758029
 30
0.0
 40
0.2
 50
180.00000000020839
 51
359.9999999997915
  0
ARC
  5
491
  8
0
 10
469.36400289175208
 20
294.80357740758029
 30
0.0
 40
0.2
 50
180.00000000020839
 51
359.9999999997915
  0
ARC
  5
492
  8
0
 10
469.64519958311172
 20
298.39954807735438
 30
0.0
 40
0.2
 50
0.0000000002084408
 51
179.9999999997915
  0
LINE
  5
493
  8
0
 10
467.92373892038279
 20
294.4015627424676
 30
0.0
 11
524.82163808787266
 21
294.4015627424676
 31
0.0
  0
LINE
  5
494
  8
0
 10
472.27663621152811
 20
298.80156274246718
 30
0.0
 11
414.82160514174723
 21
298.80156274245809
 31
0.0
  0
ARC
  5
495
  8
0
 10
589.97153838057022
 20
298.39954807735438
 30
0.0
 40
0.2
 50
0.0000000002084408
 51
179.9999999997915
  0
ARC
  5
496
  8
0
 10
587.97153838056295
 20
298.39954807735438
 30
0.0
 40
0.2
 50
0.0000000002084408
 51
179.9999999997915
  0
ARC
  5
497
  8
0
 10
588.37153838056417
 20
298.39954807735438
 30
0.0
 40
0.2
 50
0.0000000002084408
 51
179.9999999997915
  0
ARC
  5
498
  8
0
 10
588.77153838056574
 20
298.39954807735438
 30
0.0
 40
0.2
 50
0.0000000002084408
 51
179.9999999997915
  0
ARC
  5
499
  8
0
 10
589.1715383805672
 20
298.39954807735438
 30
0.0
 40
0.2
 50
0.0000000002084408
 51
179.9999999997915
  0
ARC
  5
49A
  8
0
 10
589.57153838056865
 20
298.39954807735438
 30
0.0
 40
0.2
 50
0.0000000002084408
 51
179.9999999997915
  0
LINE
  5
49B
  8
0
 10
588.17153838056356
 20
298.39954807735438
 30
0.0
 11
587.89034168920409
 21
294.80357740758029
 31
0.0
  0
LINE
  5
49C
  8
0
 10
588.57153838056513
 20
298.39954807735438
 30
0.0
 11
588.29034168920555
 21
294.80357740758029
 31
0.0
  0
ARC
  5
49D
  8
0
 10
588.09034168920471
 20
294.80357740758029
 30
0.0
 40
0.2
 50
180.00000000020839
 51
359.9999999997915
  0
ARC
  5
49E
  8
0
 10
588.49034168920605
 20
294.80357740758029
 30
0.0
 40
0.2
 50
180.00000000020839
 51
359.9999999997915
  0
LINE
  5
49F
  8
0
 10
588.97153838056636
 20
298.39954807735438
 30
0.0
 11
588.690341689207
 21
294.80357740758029
 31
0.0
  0
LINE
  5
4A0
  8
0
 10
589.37153838056804
 20
298.39954807735438
 30
0.0
 11
589.09034168920846
 21
294.80357740758029
 31
0.0
  0
ARC
  5
4A1
  8
0
 10
588.89034168920762
 20
294.80357740758029
 30
0.0
 40
0.2
 50
180.00000000020839
 51
359.9999999997915
  0
ARC
  5
4A2
  8
0
 10
589.29034168920884
 20
294.80357740758029
 30
0.0
 40
0.2
 50
180.00000000020839
 51
359.9999999997915
  0
POINT
  5
4A3
  8
0
  6
CONTINUOUS
 62
     7
 10
589.54172499587685
 20
296.60093015543572
 30
0.0
  0
POINT
  5
4A4
  8
0
  6
CONTINUOUS
 62
     7
 10
589.54172499587685
 20
296.60093015543202
 30
0.0
  0
ARC
  5
4A5
  8
0
 10
589.69034168921053
 20
294.80357740757682
 30
0.0
 40
0.2
 50
180.00000000020839
 51
359.9999999997915
  0
LINE
  5
4A6
  8
0
 10
590.29557114972567
 20
305.10093015543202
 30
0.0
 11
589.49034168920969
 21
294.80357740757682
 31
0.0
  0
LINE
  5
4A7
  8
0
 10
590.69557114972804
 20
305.10093015543202
 30
0.0
 11
589.89034168921125
 21
294.80357740757682
 31
0.0
  0
LINE
  5
4A8
  8
0
 10
590.69557114972804
 20
305.10093015543202
 30
0.0
 11
590.29557114972567
 21
305.10093015543202
 31
0.0
  0
LINE
  5
4A9
  8
0
 10
589.23094003488904
 20
296.60156274246827
 30
0.0
 11
590.51262961787825
 21
296.60156274246827
 31
0.0
  0
LINE
  5
4AC
  8
0
  6
CENTER2
 62
     1
 10
306.6177656791221
 20
296.60156274246827
 30
0.0
 11
387.83859189295538
 21
296.60156274246827
 31
0.0
  0
LINE
  5
4AD
  8
0
 10
375.82160514174728
 20
294.40156274248022
 30
0.0
 11
387.66169943369198
 21
294.40156274248392
 31
0.0
  0
LINE
  5
4AE
  8
0
 10
387.95920038790899
 20
298.10156274247549
 30
0.0
 11
375.82160514174728
 21
298.10156274247191
 31
0.0
  0
LINE
  5
4AF
  8
0
 10
387.71798339800227
 20
295.10156274247191
 30
0.0
 11
375.82160514174728
 21
295.10156274246827
 31
0.0
  0
LINE
  5
4B0
  8
0
 10
354.15592519131468
 20
298.80156274246718
 30
0.0
 11
392.4158876558451
 21
298.80156274246718
 31
0.0
  0
LINE
  5
4B2
  8
0
 10
253.9958518814307
 20
139.60156274246819
 30
0.0
 11
253.9958518814307
 21
140.3015627424688
 31
0.0
  0
LINE
  5
4B3
  8
0
 10
202.0947748558971
 20
139.60156274247549
 30
0.0
 11
239.99585188141069
 21
139.60156274246819
 31
0.0
  0
LINE
  5
4B4
  8
0
 10
202.0947748558971
 20
139.60156274247549
 30
0.0
 11
239.99585188141069
 21
139.60156274246819
 31
0.0
  0
LINE
  5
4B5
  8
0
 10
253.9958518814307
 20
139.60156274246819
 30
0.0
 11
253.9958518814307
 21
140.3015627424688
 31
0.0
  0
LINE
  5
4B6
  8
0
 10
308.32164045763761
 20
295.10156274246827
 30
0.0
 11
308.32164045763761
 21
298.10156274246827
 31
0.0
  0
LINE
  5
4B7
  8
0
 10
316.33734188818892
 20
294.40156274246402
 30
0.0
 11
326.82160514174723
 21
294.40156274246402
 31
0.0
  0
LINE
  5
4B8
  8
0
  6
CONTINUOUS
 62
     7
 10
326.32160514174723
 20
294.60156274246458
 30
0.0
 11
316.32160514174723
 21
294.60156274246458
 31
0.0
  0
LINE
  5
4B9
  8
0
 10
316.32160514174637
 20
298.60156274246827
 30
0.0
 11
326.32160514174637
 21
298.60156274246827
 31
0.0
  0
LINE
  5
4BA
  8
0
 10
317.1418111889131
 20
294.60156274246458
 30
0.0
 11
326.1216051417465
 21
294.60156274246458
 31
0.0
  0
LINE
  5
4BB
  8
0
 10
316.1216051417465
 20
296.60156274246827
 30
0.0
 11
326.1216051417457
 21
296.60156274246827
 31
0.0
  0
LINE
  5
4BC
  8
0
 10
316.32160514174723
 20
296.60156274246827
 30
0.0
 11
316.32160514174637
 21
298.60156274246827
 31
0.0
  0
LINE
  5
4BD
  8
0
 10
316.32160514174723
 20
296.60156274246827
 30
0.0
 11
316.32160514174723
 21
294.60156274246458
 31
0.0
  0
LINE
  5
4BE
  8
0
 10
314.8216428274024
 20
290.40156274246942
 30
0.0
 11
314.78874072342001
 21
290.40156274246942
 31
0.0
  0
LINE
  5
4BF
  8
0
 10
314.8216428274024
 20
302.80156274246718
 30
0.0
 11
314.7887407234154
 21
302.80156274246718
 31
0.0
  0
ARC
  5
4C0
  8
0
 10
314.8216428274024
 20
291.40156274246942
 30
0.0
 40
1.0
 50
270.0
 51
0.0
  0
LINE
  5
4C1
  8
0
 10
315.8216428274024
 20
296.60156274246827
 30
0.0
 11
315.8216428274024
 21
291.40156274246942
 31
0.0
  0
ARC
  5
4C2
  8
0
 10
314.8216428274024
 20
301.80156274246718
 30
0.0
 40
1.0
 50
0.0
 51
90.0
  0
LINE
  5
4C3
  8
0
 10
315.8216428274024
 20
296.60156274246827
 30
0.0
 11
315.8216428274024
 21
301.80156274246718
 31
0.0
  0
LINE
  5
4C4
  8
0
 10
315.8216428274024
 20
298.00156274246802
 30
0.0
 11
316.32160514174723
 21
298.00156274246802
 31
0.0
  0
LINE
  5
4C5
  8
0
 10
315.8216428274024
 20
295.20156274246858
 30
0.0
 11
316.32160514174723
 21
295.20156274246858
 31
0.0
  0
LINE
  5
4C6
  8
0
 10
308.32164045763761
 20
295.10156274246827
 30
0.0
 11
312.84207163710352
 21
295.10156274246827
 31
0.0
  0
LINE
  5
4C7
  8
0
 10
308.32164045763761
 20
298.10156274246827
 30
0.0
 11
312.84207163710352
 21
298.10156274246827
 31
0.0
  0
LINE
  5
4C8
  8
0
 10
326.82160514174637
 20
298.60156274246827
 30
0.0
 11
336.82160514174637
 21
298.60156274246827
 31
0.0
  0
LINE
  5
4C9
  8
0
 10
336.82160514174723
 20
294.4015627424676
 30
0.0
 11
336.82160514174637
 21
298.60156274246827
 31
0.0
  0
LINE
  5
4CA
  8
0
 10
326.32160514174723
 20
294.60156274246458
 30
0.0
 11
326.32160514174637
 21
298.80156274246718
 31
0.0
  0
LINE
  5
4CB
  8
0
 10
326.82160514174819
 20
294.40156274246402
 30
0.0
 11
326.82160514174637
 21
298.60156274246827
 31
0.0
  0
LINE
  5
4CC
  8
0
 10
326.32160514174723
 20
298.10156274246827
 30
0.0
 11
326.82160514174723
 21
298.10156274246827
 31
0.0
  0
LINE
  5
4CD
  8
0
 10
326.32160514174723
 20
295.10156274246827
 30
0.0
 11
326.82160514174723
 21
295.10156274246827
 31
0.0
  0
LINE
  5
4CE
  8
0
 10
326.32160514174637
 20
298.80156274246718
 30
0.0
 11
353.75592519131408
 21
298.80156274246718
 31
0.0
  0
LINE
  5
4CF
  8
0
 10
336.82160514174723
 20
294.40156274246402
 30
0.0
 11
349.00173696915931
 21
294.40156274246402
 31
0.0
  0
ARC
  5
4D0
  8
0
 10
314.78874072342001
 20
289.40156274246931
 30
0.0
 40
1.0
 50
90.0
 51
182.6590059922664
  0
ARC
  5
4D1
  8
0
 10
314.7887407234154
 20
303.801562742469
 30
0.0
 40
1.0
 50
177.34099400783759
 51
270.00000000005213
  0
LINE
  5
4D2
  8
0
 10
365.82160514174728
 20
294.40156274247659
 30
0.0
 11
365.82160514174637
 21
298.60156274247731
 31
0.0
  0
LINE
  5
4D3
  8
0
 10
375.82160514174728
 20
294.40156274248022
 30
0.0
 11
375.82160514174637
 21
298.60156274248101
 31
0.0
  0
LINE
  5
4D4
  8
0
 10
365.82160514174728
 20
298.60156274247731
 30
0.0
 11
375.82160514174728
 21
298.60156274246827
 31
0.0
  0
LINE
  5
4D5
  8
0
 10
365.82160514174728
 20
294.60156274246827
 30
0.0
 11
375.82160514174728
 21
294.60156274247191
 31
0.0
  0
LINE
  5
4D6
  8
0
 10
365.82160514174728
 20
298.10156274246827
 30
0.0
 11
354.10118679047059
 21
298.10156274246458
 31
0.0
  0
LINE
  5
4D7
  8
0
 10
365.82160514174728
 20
295.10156274246651
 30
0.0
 11
353.8665936439881
 21
295.10156274246282
 31
0.0
  0
LINE
  5
4D8
  8
0
 10
326.82160514174637
 20
294.60156274246827
 30
0.0
 11
336.82160514174637
 21
294.60156274246827
 31
0.0
  0
ARC
  5
4D9
  8
0
 10
351.52448856289959
 20
298.39954807735438
 30
0.0
 40
0.2
 50
0.0000000002084408
 51
179.9999999997915
  0
ARC
  5
4DA
  8
0
 10
351.24329187154012
 20
294.80357740758029
 30
0.0
 40
0.2
 50
180.00000000020839
 51
359.9999999997915
  0
ARC
  5
4DB
  8
0
 10
353.92448856290838
 20
298.39954807735438
 30
0.0
 40
0.2
 50
0.0000000002084408
 51
179.9999999997915
  0
POINT
  5
4DC
  8
0
  6
CONTINUOUS
 62
     7
 10
351.49467517820779
 20
296.60093015543202
 30
0.0
  0
POINT
  5
4DD
  8
0
  6
CONTINUOUS
 62
     7
 10
351.49467517820779
 20
296.60093015543572
 30
0.0
  0
LINE
  5
4DE
  8
0
 10
351.72448856290038
 20
298.39954807735438
 30
0.0
 11
351.44329187154079
 21
294.80357740758029
 31
0.0
  0
ARC
  5
4DF
  8
0
 10
351.9244885629011
 20
298.39954807735438
 30
0.0
 40
0.2
 50
0.0000000002084408
 51
179.9999999997915
  0
ARC
  5
4E0
  8
0
 10
352.32448856290262
 20
298.39954807735438
 30
0.0
 40
0.2
 50
0.0000000002084408
 51
179.9999999997915
  0
ARC
  5
4E1
  8
0
 10
352.7244885629039
 20
298.39954807735438
 30
0.0
 40
0.2
 50
0.0000000002084408
 51
179.9999999997915
  0
ARC
  5
4E2
  8
0
 10
353.12448856290558
 20
298.39954807735438
 30
0.0
 40
0.2
 50
0.0000000002084408
 51
179.9999999997915
  0
ARC
  5
4E3
  8
0
 10
353.52448856290692
 20
298.39954807735438
 30
0.0
 40
0.2
 50
0.0000000002084408
 51
179.9999999997915
  0
ARC
  5
4E4
  8
0
 10
351.64329187154152
 20
294.80357740758029
 30
0.0
 40
0.2
 50
180.00000000020839
 51
359.9999999997915
  0
LINE
  5
4E5
  8
0
 10
352.12448856290177
 20
298.39954807735438
 30
0.0
 11
351.84329187154231
 21
294.80357740758029
 31
0.0
  0
LINE
  5
4E6
  8
0
 10
352.52448856290317
 20
298.39954807735438
 30
0.0
 11
352.24329187154359
 21
294.80357740758029
 31
0.0
  0
ARC
  5
4E7
  8
0
 10
352.04329187154298
 20
294.80357740758029
 30
0.0
 40
0.2
 50
180.00000000020839
 51
359.9999999997915
  0
ARC
  5
4E8
  8
0
 10
352.44329187154432
 20
294.80357740758029
 30
0.0
 40
0.2
 50
180.00000000020839
 51
359.9999999997915
  0
LINE
  5
4E9
  8
0
 10
352.9244885629048
 20
298.39954807735438
 30
0.0
 11
352.6432918715451
 21
294.80357740758029
 31
0.0
  0
LINE
  5
4EA
  8
0
 10
353.3244885629062
 20
298.39954807735438
 30
0.0
 11
353.04329187154661
 21
294.80357740758029
 31
0.0
  0
ARC
  5
4EB
  8
0
 10
352.84329187154589
 20
294.80357740758029
 30
0.0
 40
0.2
 50
180.00000000020839
 51
359.9999999997915
  0
ARC
  5
4EC
  8
0
 10
353.24329187154723
 20
294.80357740758029
 30
0.0
 40
0.2
 50
180.00000000020839
 51
359.9999999997915
  0
POINT
  5
4ED
  8
0
  6
CONTINUOUS
 62
     7
 10
353.49467517821512
 20
296.60093015543572
 30
0.0
  0
POINT
  5
4EE
  8
0
  6
CONTINUOUS
 62
     7
 10
353.49467517821512
 20
296.60093015543202
 30
0.0
  0
ARC
  5
4EF
  8
0
 10
353.64329187154891
 20
294.80357740757682
 30
0.0
 40
0.2
 50
180.00000000020839
 51
359.9999999997915
  0
ARC
  5
4F0
  8
0
 10
349.23406122496237
 20
294.80357740758029
 30
0.0
 40
0.2
 50
180.00000000020839
 51
359.9999999997915
  0
ARC
  5
4F1
  8
0
 10
349.52448856289419
 20
298.39954807735438
 30
0.0
 40
0.2
 50
0.0000000002084408
 51
179.9999999997915
  0
ARC
  5
4F2
  8
0
 10
349.92448856289383
 20
298.39954807735438
 30
0.0
 40
0.2
 50
0.0000000002084408
 51
179.9999999997915
  0
ARC
  5
4F3
  8
0
 10
350.32448856289528
 20
298.39954807735438
 30
0.0
 40
0.2
 50
0.0000000002084408
 51
179.9999999997915
  0
ARC
  5
4F4
  8
0
 10
350.72448856289662
 20
298.39954807735438
 30
0.0
 40
0.2
 50
0.0000000002084408
 51
179.9999999997915
  0
ARC
  5
4F5
  8
0
 10
351.12448856289819
 20
298.39954807735438
 30
0.0
 40
0.2
 50
0.0000000002084408
 51
179.9999999997915
  0
ARC
  5
4F6
  8
0
 10
349.64329187153419
 20
294.80357740758029
 30
0.0
 40
0.2
 50
180.00000000020839
 51
359.9999999997915
  0
LINE
  5
4F7
  8
0
 10
350.1244885628945
 20
298.39954807735438
 30
0.0
 11
349.84329187153497
 21
294.80357740758029
 31
0.0
  0
LINE
  5
4F8
  8
0
 10
350.52448856289601
 20
298.39954807735438
 30
0.0
 11
350.24329187153643
 21
294.80357740758029
 31
0.0
  0
ARC
  5
4F9
  8
0
 10
350.0432918715357
 20
294.80357740758029
 30
0.0
 40
0.2
 50
180.00000000020839
 51
359.9999999997915
  0
ARC
  5
4FA
  8
0
 10
350.44329187153721
 20
294.80357740758029
 30
0.0
 40
0.2
 50
180.00000000020839
 51
359.9999999997915
  0
LINE
  5
4FB
  8
0
 10
350.92448856289752
 20
298.39954807735438
 30
0.0
 11
350.64329187153788
 21
294.80357740758029
 31
0.0
  0
LINE
  5
4FC
  8
0
 10
351.32448856289892
 20
298.39954807735438
 30
0.0
 11
351.04329187153922
 21
294.80357740758029
 31
0.0
  0
ARC
  5
4FD
  8
0
 10
350.84329187153861
 20
294.80357740758029
 30
0.0
 40
0.2
 50
180.00000000020839
 51
359.9999999997915
  0
LINE
  5
4FE
  8
0
 10
349.72448856289321
 20
298.39954807735438
 30
0.0
 11
348.89616332957092
 21
288.09772107534138
 31
0.0
  0
LINE
  5
4FF
  8
0
 10
349.32577534104769
 20
298.43160687842533
 30
0.0
 11
348.49745010772563
 21
288.12977987641051
 31
0.0
  0
LINE
  5
500
  8
0
 10
354.24852133206389
 20
305.10093015543202
 30
0.0
 11
353.44329187154818
 21
294.80357740757682
 31
0.0
  0
LINE
  5
501
  8
0
 10
354.64852133206642
 20
305.10093015543202
 30
0.0
 11
353.84329187154952
 21
294.80357740757682
 31
0.0
  0
LINE
  5
502
  8
0
 10
354.64852133206642
 20
305.10093015543202
 30
0.0
 11
354.24852133206389
 21
305.10093015543202
 31
0.0
  0
LINE
  5
503
  8
0
 10
348.89616332957092
 20
288.09772107534138
 30
0.0
 11
348.49745010772648
 21
288.12977987641051
 31
0.0
  0
LINE
  5
504
  8
0
 10
349.17862942842447
 20
296.60156274246827
 30
0.0
 11
349.57992035943403
 21
296.60156274246827
 31
0.0
  0
LINE
  5
505
  8
0
 10
349.29923792337718
 20
298.10156274246282
 30
0.0
 11
336.82160514174637
 21
298.10156274245918
 31
0.0
  0
LINE
  5
506
  8
0
 10
349.05802093347
 20
295.101562742461
 30
0.0
 11
336.82160514174723
 21
295.10156274245918
 31
0.0
  0
LINE
  5
507
  8
0
 10
349.40302790016869
 20
294.40156274246402
 30
0.0
 11
365.82160514174819
 21
294.40156274246402
 31
0.0
  0
LINE
  5
508
  8
0
 10
253.99585188143161
 20
140.3015627424688
 30
0.0
 11
253.9958518814307
 21
296.60156274246827
 31
0.0
  0
LINE
  5
509
  8
0
 10
202.0947748558971
 20
139.60156274247549
 30
0.0
 11
239.99585188141069
 21
139.60156274246819
 31
0.0
  0
LINE
  5
50A
  8
0
 10
253.9958518814307
 20
139.60156274246819
 30
0.0
 11
253.9958518814307
 21
140.3015627424688
 31
0.0
  0
LINE
  5
50B
  8
0
 10
253.9886418820349
 20
139.60156274246819
 30
0.0
 11
253.9958518814307
 21
139.6087727418641
 31
0.0
  0
LINE
  5
511
  8
0
 10
387.83859189295538
 20
296.60156274246827
 30
0.0
 11
388.23988282396579
 21
296.60156274246827
 31
0.0
  0
LINE
  5
512
  8
0
 10
387.55612579410229
 20
288.09772107534138
 30
0.0
 11
387.15741257225778
 21
288.12977987641051
 31
0.0
  0
LINE
  5
513
  8
0
 10
393.30848379659778
 20
305.10093015543202
 30
0.0
 11
392.90848379659531
 21
305.10093015543202
 31
0.0
  0
LINE
  5
514
  8
0
 10
393.30848379659778
 20
305.10093015543202
 30
0.0
 11
392.503254336081
 21
294.80357740757682
 31
0.0
  0
LINE
  5
515
  8
0
 10
392.90848379659531
 20
305.10093015543202
 30
0.0
 11
392.10325433607937
 21
294.80357740757682
 31
0.0
  0
LINE
  5
516
  8
0
 10
387.98573780557922
 20
298.43160687842533
 30
0.0
 11
387.15741257225687
 21
288.12977987641051
 31
0.0
  0
LINE
  5
517
  8
0
 10
388.3844510274244
 20
298.39954807735438
 30
0.0
 11
387.55612579410229
 21
288.09772107534138
 31
0.0
  0
ARC
  5
518
  8
0
 10
389.50325433606997
 20
294.80357740758029
 30
0.0
 40
0.2
 50
180.00000000020839
 51
359.9999999997915
  0
LINE
  5
519
  8
0
 10
389.9844510274304
 20
298.39954807735438
 30
0.0
 11
389.70325433607081
 21
294.80357740758029
 31
0.0
  0
LINE
  5
51A
  8
0
 10
389.58445102742888
 20
298.39954807735438
 30
0.0
 11
389.30325433606941
 21
294.80357740758029
 31
0.0
  0
ARC
  5
51B
  8
0
 10
389.10325433606857
 20
294.80357740758029
 30
0.0
 40
0.2
 50
180.00000000020839
 51
359.9999999997915
  0
ARC
  5
51C
  8
0
 10
388.70325433606712
 20
294.80357740758029
 30
0.0
 40
0.2
 50
180.00000000020839
 51
359.9999999997915
  0
LINE
  5
51D
  8
0
 10
389.18445102742737
 20
298.39954807735438
 30
0.0
 11
388.9032543360679
 21
294.80357740758029
 31
0.0
  0
LINE
  5
51E
  8
0
 10
388.78445102742597
 20
298.39954807735438
 30
0.0
 11
388.50325433606628
 21
294.80357740758029
 31
0.0
  0
ARC
  5
51F
  8
0
 10
388.30325433606561
 20
294.80357740758029
 30
0.0
 40
0.2
 50
180.00000000020839
 51
359.9999999997915
  0
ARC
  5
520
  8
0
 10
389.78445102742972
 20
298.39954807735438
 30
0.0
 40
0.2
 50
0.0000000002084408
 51
179.9999999997915
  0
ARC
  5
521
  8
0
 10
389.38445102742821
 20
298.39954807735438
 30
0.0
 40
0.2
 50
0.0000000002084408
 51
179.9999999997915
  0
ARC
  5
522
  8
0
 10
388.9844510274267
 20
298.39954807735438
 30
0.0
 40
0.2
 50
0.0000000002084408
 51
179.9999999997915
  0
ARC
  5
523
  8
0
 10
388.5844510274253
 20
298.39954807735438
 30
0.0
 40
0.2
 50
0.0000000002084408
 51
179.9999999997915
  0
ARC
  5
524
  8
0
 10
388.18445102742561
 20
298.39954807735438
 30
0.0
 40
0.2
 50
0.0000000002084408
 51
179.9999999997915
  0
ARC
  5
525
  8
0
 10
387.89402368949368
 20
294.80357740758029
 30
0.0
 40
0.2
 50
180.00000000020839
 51
359.9999999997915
  0
ARC
  5
526
  8
0
 10
392.30325433608022
 20
294.80357740757682
 30
0.0
 40
0.2
 50
180.00000000020839
 51
359.9999999997915
  0
POINT
  5
527
  8
0
  6
CONTINUOUS
 62
     7
 10
392.15463764274648
 20
296.60093015543202
 30
0.0
  0
POINT
  5
528
  8
0
  6
CONTINUOUS
 62
     7
 10
392.15463764274648
 20
296.60093015543572
 30
0.0
  0
ARC
  5
529
  8
0
 10
391.9032543360787
 20
294.80357740758029
 30
0.0
 40
0.2
 50
180.00000000020839
 51
359.9999999997915
  0
ARC
  5
52A
  8
0
 10
391.50325433607742
 20
294.80357740758029
 30
0.0
 40
0.2
 50
180.00000000020839
 51
359.9999999997915
  0
LINE
  5
52B
  8
0
 10
391.98445102743761
 20
298.39954807735438
 30
0.0
 11
391.70325433607798
 21
294.80357740758029
 31
0.0
  0
LINE
  5
52C
  8
0
 10
391.58445102743622
 20
298.39954807735438
 30
0.0
 11
391.30325433607658
 21
294.80357740758029
 31
0.0
  0
ARC
  5
52D
  8
0
 10
391.10325433607591
 20
294.80357740758029
 30
0.0
 40
0.2
 50
180.00000000020839
 51
359.9999999997915
  0
ARC
  5
52E
  8
0
 10
390.70325433607439
 20
294.80357740758029
 30
0.0
 40
0.2
 50
180.00000000020839
 51
359.9999999997915
  0
LINE
  5
52F
  8
0
 10
391.1844510274347
 20
298.39954807735438
 30
0.0
 11
390.90325433607512
 21
294.80357740758029
 31
0.0
  0
LINE
  5
530
  8
0
 10
390.78445102743319
 20
298.39954807735438
 30
0.0
 11
390.50325433607372
 21
294.80357740758029
 31
0.0
  0
ARC
  5
531
  8
0
 10
390.30325433607283
 20
294.80357740758029
 30
0.0
 40
0.2
 50
180.00000000020839
 51
359.9999999997915
  0
ARC
  5
532
  8
0
 10
392.18445102743829
 20
298.39954807735438
 30
0.0
 40
0.2
 50
0.0000000002084408
 51
179.9999999997915
  0
ARC
  5
533
  8
0
 10
391.78445102743689
 20
298.39954807735438
 30
0.0
 40
0.2
 50
0.0000000002084408
 51
179.9999999997915
  0
ARC
  5
534
  8
0
 10
391.38445102743538
 20
298.39954807735438
 30
0.0
 40
0.2
 50
0.0000000002084408
 51
179.9999999997915
  0
ARC
  5
535
  8
0
 10
390.98445102743398
 20
298.39954807735438
 30
0.0
 40
0.2
 50
0.0000000002084408
 51
179.9999999997915
  0
ARC
  5
536
  8
0
 10
390.58445102743252
 20
298.39954807735438
 30
0.0
 40
0.2
 50
0.0000000002084408
 51
179.9999999997915
  0
LINE
  5
537
  8
0
 10
390.38445102743168
 20
298.39954807735438
 30
0.0
 11
390.10325433607221
 21
294.80357740758029
 31
0.0
  0
POINT
  5
538
  8
0
  6
CONTINUOUS
 62
     7
 10
390.1546376427392
 20
296.60093015543572
 30
0.0
  0
POINT
  5
539
  8
0
  6
CONTINUOUS
 62
     7
 10
390.1546376427392
 20
296.60093015543202
 30
0.0
  0
ARC
  5
53A
  8
0
 10
392.5844510274398
 20
298.39954807735438
 30
0.0
 40
0.2
 50
0.0000000002084408
 51
179.9999999997915
  0
ARC
  5
53B
  8
0
 10
389.90325433607148
 20
294.80357740758029
 30
0.0
 40
0.2
 50
180.00000000020839
 51
359.9999999997915
  0
ARC
  5
53C
  8
0
 10
390.18445102743112
 20
298.39954807735438
 30
0.0
 40
0.2
 50
0.0000000002084408
 51
179.9999999997915
  0
POLYLINE
  5
545
  8
0
 66
     1
 10
0.0
 20
0.0
 30
0.0
  0
VERTEX
  5
84F
  8
0
 10
242.11243049175189
 20
140.8113088318629
 30
0.0
 42
-0.313394503136401
  0
VERTEX
  5
850
  8
0
 10
245.87927327107329
 20
140.8113088318629
 30
0.0
 42
-0.313394503136401
  0
SEQEND
  5
851
  8
0
  0
LINE
  5
546
  8
0
 10
240.68073238674401
 20
139.8162005281489
 30
0.0
 11
242.11243049175189
 21
140.8113088318629
 31
0.0
  0
LINE
  5
547
  8
0
 10
247.31097137608111
 20
139.81620052814711
 30
0.0
 11
245.87927327107329
 21
140.8113088318629
 31
0.0
  0
POLYLINE
  5
548
  8
0
 66
     1
 10
0.0
 20
0.0
 30
0.0
  0
VERTEX
  5
852
  8
0
 10
247.99585188141251
 20
139.60156274247001
 30
0.0
 42
-0.1530277928365761
  0
VERTEX
  5
853
  8
0
 10
247.31097137608111
 20
139.81620052814711
 30
0.0
 42
-0.1530277928365761
  0
SEQEND
  5
854
  8
0
  0
POLYLINE
  5
549
  8
0
 66
     1
 10
0.0
 20
0.0
 30
0.0
  0
VERTEX
  5
855
  8
0
 10
239.99585188141251
 20
139.60156274247191
 30
0.0
 42
0.1530277928365761
  0
VERTEX
  5
856
  8
0
 10
240.68073238674401
 20
139.8162005281489
 30
0.0
 42
0.1530277928365761
  0
SEQEND
  5
857
  8
0
  0
LINE
  5
54A
  8
0
 10
247.9958518814307
 20
296.60156274246998
 30
0.0
 11
247.99585188141251
 21
141.60156274246819
 31
0.0
  0
LINE
  5
54B
  8
0
 10
239.99585188142339
 20
296.60156274247191
 30
0.0
 11
239.9958518814135
 21
141.60156274247191
 31
0.0
  0
LINE
  5
54D
  8
0
 10
247.9958518814143
 20
139.60156274246819
 30
0.0
 11
253.9958518814307
 21
139.60156274246819
 31
0.0
  0
LINE
  5
54E
  8
0
 10
247.9958518814143
 20
139.60156274246819
 30
0.0
 11
253.9958518814307
 21
139.60156274246819
 31
0.0
  0
LINE
  5
54F
  8
0
 10
247.9958518814143
 20
139.60156274246819
 30
0.0
 11
253.9958518814307
 21
139.60156274246819
 31
0.0
  0
LINE
  5
554
  8
0
 10
404.82160514174723
 20
298.10156274248101
 30
0.0
 11
392.76114925500201
 21
298.10156274247748
 31
0.0
  0
LINE
  5
555
  8
0
 10
404.82160514174763
 20
295.10156274247748
 30
0.0
 11
392.52655610851951
 21
295.10156274247191
 31
0.0
  0
LINE
  5
556
  8
0
 10
392.81588765584701
 20
298.80156274246718
 30
0.0
 11
404.82160514174637
 21
298.80156274246718
 31
0.0
  0
LINE
  5
557
  8
0
 10
388.06299036470261
 20
294.40156274248392
 30
0.0
 11
443.82160514174723
 21
294.40156274250211
 31
0.0
  0
LINE
  5
558
  8
0
  6
CENTER2
 62
     1
 10
469.8216404576371
 20
129.1231846953857
 30
0.0
 11
469.8216404576371
 21
463.3054462385013
 31
0.0
  0
LINE
  5
559
  8
0
 10
253.9958518814307
 20
452.9015627424676
 30
0.0
 11
253.9958518814307
 21
296.60156274246827
 31
0.0
  0
LINE
  5
55B
  8
0
 10
239.99585188142339
 20
296.60156274246827
 30
0.0
 11
239.99585188143161
 21
451.60156274246827
 31
0.0
  0
LINE
  5
55C
  8
0
 10
247.9958518814307
 20
296.60156274246827
 30
0.0
 11
247.9958518814307
 21
451.60156274246998
 31
0.0
  0
POLYLINE
  5
55E
  8
0
 66
     1
 10
0.0
 20
0.0
 30
0.0
  0
VERTEX
  5
858
  8
0
 10
310.32868524910162
 20
295.10156274246827
 30
0.0
 42
0.9906451382756907
  0
VERTEX
  5
859
  8
0
 10
629.31459566617343
 20
295.10156274246827
 30
0.0
 42
0.9906451382756907
  0
SEQEND
  5
85A
  8
0
  0
POLYLINE
  5
55F
  8
0
 66
     1
 10
0.0
 20
0.0
 30
0.0
  0
VERTEX
  5
85B
  8
0
 10
623.30580919052738
 20
298.801562742469
 30
0.0
 42
0.9863824205784414
  0
VERTEX
  5
85C
  8
0
 10
316.334729409006
 20
298.60156274246827
 30
0.0
  0
SEQEND
  5
85D
  8
0
  0
POLYLINE
  5
560
  8
0
 66
     1
 10
0.0
 20
0.0
 30
0.0
  0
VERTEX
  5
85E
  8
0
 10
469.8216404576371
 20
452.80156274251237
 30
0.0
 42
0.4142135623731804
  0
VERTEX
  5
85F
  8
0
 10
313.62164045763768
 20
296.60156274246827
 30
0.0
 42
0.4142135623730877
  0
VERTEX
  5
860
  8
0
 10
469.82164045763687
 20
140.40156274247201
 30
0.0
  0
SEQEND
  5
861
  8
0
  0
POLYLINE
  5
561
  8
0
 66
     1
 10
0.0
 20
0.0
 30
0.0
  0
VERTEX
  5
862
  8
0
 10
469.8216404576371
 20
453.6015627424506
 30
0.0
 42
0.414213562373061
  0
VERTEX
  5
863
  8
0
 10
312.82164045763761
 20
296.60156274246827
 30
0.0
 42
0.4142135623730971
  0
VERTEX
  5
864
  8
0
 10
469.8216404576371
 20
139.60156274246691
 30
0.0
  0
SEQEND
  5
865
  8
0
  0
POLYLINE
  5
563
  8
0
 66
     1
 10
0.0
 20
0.0
 30
0.0
  0
VERTEX
  5
866
  8
0
 10
316.33734188818892
 20
294.40156274246402
 30
0.0
 42
0.9864406401793257
  0
VERTEX
  5
867
  8
0
 10
623.30866953739644
 20
294.60156274246458
 30
0.0
 42
0.9864406401793257
  0
SEQEND
  5
868
  8
0
  0
LINE
  5
564
  8
0
 10
585.45007771783014
 20
294.40156274245481
 30
0.0
 11
613.32163808787266
 21
294.401562742453
 31
0.0
  0
LINE
  5
566
  8
0
  6
CENTER2
 62
     1
 10
388.23988282396579
 20
296.60156274246827
 30
0.0
 11
642.63670508206633
 21
296.60156274246827
 31
0.0
  0
LINE
  5
568
  8
0
 10
590.20297500897789
 20
298.801562742469
 30
0.0
 11
602.82163808787277
 21
298.801562742469
 31
0.0
  0
LINE
  5
569
  8
0
 10
590.14823660813238
 20
298.10156274246827
 30
0.0
 11
602.82163808787277
 21
298.10156274246827
 31
0.0
  0
LINE
  5
56A
  8
0
 10
589.91364346164983
 20
295.10156274246827
 30
0.0
 11
602.82163808787277
 21
295.10156274246827
 31
0.0
  0
POLYLINE
  5
56C
  8
0
 66
     1
 10
0.0
 20
0.0
 30
0.0
  0
VERTEX
  5
869
  8
0
 10
629.31457834879575
 20
298.10156274246827
 30
0.0
 42
0.990633700918665
  0
VERTEX
  5
86A
  8
0
 10
310.32870256647919
 20
298.10156274246827
 30
0.0
  0
SEQEND
  5
86B
  8
0
  0
LINE
  5
58F
  8
0
 10
185.9958518814307
 20
456.10156274247538
 30
0.0
 11
198.9958518814307
 21
456.10156274247538
 31
0.0
  0
LINE
  5
594
  8
0
 10
184.38670871451421
 20
454.14727857705702
 30
0.0
 11
185.10499504834721
 21
455.55584690789368
 31
0.0
  0
POLYLINE
  5
595
  8
0
 66
     1
 10
0.0
 20
0.0
 30
0.0
  0
VERTEX
  5
86C
  8
0
 10
183.4958518814307
 20
453.60156274247538
 30
0.0
 42
0.2819402118154727
  0
VERTEX
  5
86D
  8
0
 10
184.38670871451421
 20
454.14727857705901
 30
0.0
 42
0.2819402118154727
  0
SEQEND
  5
86E
  8
0
  0
POLYLINE
  5
596
  8
0
 66
     1
 10
0.0
 20
0.0
 30
0.0
  0
VERTEX
  5
86F
  8
0
 10
185.9958518814307
 20
456.10156274247538
 30
0.0
 42
0.2819402118154727
  0
VERTEX
  5
870
  8
0
 10
185.10499504834721
 20
455.55584690789209
 30
0.0
 42
0.2819402118154727
  0
SEQEND
  5
871
  8
0
  0
POLYLINE
  5
59A
  8
0
 66
     1
 10
0.0
 20
0.0
 30
0.0
  0
VERTEX
  5
872
  8
0
 10
185.9958518814307
 20
455.40156274247482
 30
0.0
  0
VERTEX
  5
873
  8
0
 10
185.99585188143149
 20
449.40156274247482
 30
0.0
  0
SEQEND
  5
874
  8
0
  0
LINE
  5
59B
  8
0
 10
126.9958518814307
 20
452.9015627424676
 30
0.0
 11
126.9958518814307
 21
453.6015627424681
 31
0.0
  0
LINE
  5
59C
  8
0
 10
182.89692890696421
 20
453.60156274247538
 30
0.0
 11
140.9958518814307
 21
453.6015627424681
 31
0.0
  0
LINE
  5
59D
  8
0
 10
126.9958518814307
 20
453.6015627424681
 30
0.0
 11
132.99585188142891
 21
453.6015627424681
 31
0.0
  0
LINE
  5
59E
  8
0
 10
168.8442520163112
 20
453.60156274247538
 30
0.0
 11
183.4958518814307
 21
453.60156274247538
 31
0.0
  0
LINE
  5
5A0
  8
0
 10
126.9958518814307
 20
452.9015627424676
 30
0.0
 11
126.9958518814307
 21
453.6015627424681
 31
0.0
  0
LINE
  5
5A1
  8
0
 10
126.9958518814307
 20
453.6015627424681
 30
0.0
 11
132.99585188142891
 21
453.6015627424681
 31
0.0
  0
LINE
  5
5A2
  8
0
 10
182.89692890696421
 20
453.60156274247538
 30
0.0
 11
140.9958518814307
 21
453.6015627424681
 31
0.0
  0
POLYLINE
  5
5A3
  8
0
 66
     1
 10
0.0
 20
0.0
 30
0.0
  0
VERTEX
  5
875
  8
0
 10
198.9958518814307
 20
456.10156274247538
 30
0.0
 42
-0.2819402118154727
  0
VERTEX
  5
876
  8
0
 10
199.88670871451421
 20
455.55584690789209
 30
0.0
 42
-0.2819402118154727
  0
SEQEND
  5
877
  8
0
  0
LINE
  5
5A4
  8
0
 10
200.60499504834721
 20
454.14727857705702
 30
0.0
 11
199.88670871451421
 21
455.55584690789368
 31
0.0
  0
POLYLINE
  5
5A8
  8
0
 66
     1
 10
0.0
 20
0.0
 30
0.0
  0
VERTEX
  5
878
  8
0
 10
201.4958518814307
 20
453.60156274247538
 30
0.0
 42
-0.2819402118154727
  0
VERTEX
  5
879
  8
0
 10
200.60499504834721
 20
454.14727857705901
 30
0.0
 42
-0.2819402118154727
  0
SEQEND
  5
87A
  8
0
  0
LINE
  5
5A9
  8
0
 10
198.9958518814307
 20
455.40156274247482
 30
0.0
 11
198.9958518814307
 21
449.40156274247482
 31
0.0
  0
POLYLINE
  5
5AF
  8
0
 66
     1
 10
0.0
 20
0.0
 30
0.0
  0
VERTEX
  5
87B
  8
0
 10
138.87927327109051
 20
452.39181665307711
 30
0.0
 42
-0.313394503136401
  0
VERTEX
  5
87C
  8
0
 10
135.11243049176909
 20
452.39181665307711
 30
0.0
 42
-0.313394503136401
  0
SEQEND
  5
87D
  8
0
  0
LINE
  5
5B0
  8
0
 10
140.31097137609839
 20
453.38692495679118
 30
0.0
 11
138.87927327109051
 21
452.39181665307711
 31
0.0
  0
LINE
  5
5B1
  8
0
 10
133.68073238676121
 20
453.38692495679118
 30
0.0
 11
135.11243049176909
 21
452.39181665307711
 31
0.0
  0
POLYLINE
  5
5B2
  8
0
 66
     1
 10
0.0
 20
0.0
 30
0.0
  0
VERTEX
  5
87E
  8
0
 10
132.99585188142979
 20
453.6015627424681
 30
0.0
 42
-0.1530277928365761
  0
VERTEX
  5
87F
  8
0
 10
133.68073238676121
 20
453.38692495679118
 30
0.0
 42
-0.1530277928365761
  0
SEQEND
  5
880
  8
0
  0
POLYLINE
  5
5B3
  8
0
 66
     1
 10
0.0
 20
0.0
 30
0.0
  0
VERTEX
  5
881
  8
0
 10
140.99585188142979
 20
453.6015627424681
 30
0.0
 42
0.1530277928365761
  0
VERTEX
  5
882
  8
0
 10
140.31097137609839
 20
453.38692495679118
 30
0.0
 42
0.1530277928365761
  0
SEQEND
  5
883
  8
0
  0
LINE
  5
5B4
  8
0
 10
132.99585188142891
 20
453.6015627424681
 30
0.0
 11
128.9958518814307
 21
453.6015627424681
 31
0.0
  0
LINE
  5
5B5
  8
0
 10
140.9958518814307
 20
453.6015627424681
 30
0.0
 11
180.4958518814297
 21
453.60156274247538
 31
0.0
  0
LINE
  5
5B6
  8
0
 10
140.9958518814307
 20
453.6015627424681
 30
0.0
 11
180.4958518814297
 21
453.60156274247538
 31
0.0
  0
LINE
  5
5B7
  8
0
 10
132.99585188142891
 20
453.6015627424681
 30
0.0
 11
128.9958518814307
 21
453.6015627424681
 31
0.0
  0
LINE
  5
5BE
  8
0
 10
185.9958518814307
 20
137.10156274247549
 30
0.0
 11
198.9958518814307
 21
137.10156274247549
 31
0.0
  0
LINE
  5
5BF
  8
0
 10
168.8442520163112
 20
139.60156274247549
 30
0.0
 11
183.4958518814307
 21
139.60156274247549
 31
0.0
  0
POLYLINE
  5
5C0
  8
0
 66
     1
 10
0.0
 20
0.0
 30
0.0
  0
VERTEX
  5
884
  8
0
 10
185.9958518814307
 20
137.80156274247619
 30
0.0
  0
VERTEX
  5
885
  8
0
 10
185.99585188143149
 20
143.80156274247619
 30
0.0
  0
SEQEND
  5
886
  8
0
  0
POLYLINE
  5
5C4
  8
0
 66
     1
 10
0.0
 20
0.0
 30
0.0
  0
VERTEX
  5
887
  8
0
 10
185.9958518814307
 20
137.10156274247549
 30
0.0
 42
-0.2819402118154727
  0
VERTEX
  5
888
  8
0
 10
185.10499504834721
 20
137.64727857705901
 30
0.0
 42
-0.2819402118154727
  0
SEQEND
  5
889
  8
0
  0
POLYLINE
  5
5C5
  8
0
 66
     1
 10
0.0
 20
0.0
 30
0.0
  0
VERTEX
  5
88A
  8
0
 10
183.4958518814307
 20
139.60156274247549
 30
0.0
 42
-0.2819402118154727
  0
VERTEX
  5
88B
  8
0
 10
184.38670871451421
 20
139.055846907892
 30
0.0
 42
-0.2819402118154727
  0
SEQEND
  5
88C
  8
0
  0
LINE
  5
5C6
  8
0
 10
184.38670871451421
 20
139.05584690789379
 30
0.0
 11
185.10499504834721
 21
137.64727857705711
 31
0.0
  0
LINE
  5
5C7
  8
0
 10
126.9958518814307
 20
140.3015627424688
 30
0.0
 11
126.9958518814307
 21
139.60156274246819
 31
0.0
  0
LINE
  5
5C8
  8
0
 10
126.9958518814307
 20
140.3015627424688
 30
0.0
 11
126.9958518814307
 21
139.60156274246819
 31
0.0
  0
LINE
  5
5C9
  8
0
 10
182.89692890696421
 20
139.60156274247549
 30
0.0
 11
140.99585188144891
 21
139.60156274246819
 31
0.0
  0
LINE
  5
5CA
  8
0
 10
126.9958518814307
 20
139.60156274246819
 30
0.0
 11
132.99585188144709
 21
139.60156274246819
 31
0.0
  0
LINE
  5
5CC
  8
0
 10
126.9958518814307
 20
139.60156274246819
 30
0.0
 11
132.99585188144709
 21
139.60156274246819
 31
0.0
  0
LINE
  5
5CD
  8
0
 10
182.89692890696421
 20
139.60156274247549
 30
0.0
 11
140.99585188144891
 21
139.60156274246819
 31
0.0
  0
LINE
  5
5CE
  8
0
 10
183.89692890696429
 20
140.5303312247548
 30
0.0
 11
183.89692890696429
 21
296.60156274246998
 31
0.0
  0
LINE
  5
5CF
  8
0
 10
126.9958518814307
 20
296.60156274246827
 30
0.0
 11
126.99585188143161
 21
140.3015627424688
 31
0.0
  0
LINE
  5
5D0
  8
0
 10
126.9958518814307
 20
140.3015627424688
 30
0.0
 11
126.9958518814307
 21
139.60156274246819
 31
0.0
  0
LINE
  5
5D1
  8
0
 10
182.89692890696421
 20
139.60156274247549
 30
0.0
 11
140.99585188144891
 21
139.60156274246819
 31
0.0
  0
LINE
  5
5D2
  8
0
 10
126.9958518814307
 20
139.60156274246819
 30
0.0
 11
132.99585188144709
 21
139.60156274246819
 31
0.0
  0
LINE
  5
5D9
  8
0
 10
198.9958518814307
 20
137.80156274247619
 30
0.0
 11
198.9958518814307
 21
143.80156274247619
 31
0.0
  0
POLYLINE
  5
5DA
  8
0
 66
     1
 10
0.0
 20
0.0
 30
0.0
  0
VERTEX
  5
88D
  8
0
 10
201.4958518814307
 20
139.60156274247549
 30
0.0
 42
0.2819402118154727
  0
VERTEX
  5
88E
  8
0
 10
200.60499504834721
 20
139.055846907892
 30
0.0
 42
0.2819402118154727
  0
SEQEND
  5
88F
  8
0
  0
LINE
  5
5DE
  8
0
 10
200.60499504834721
 20
139.05584690789379
 30
0.0
 11
199.88670871451421
 21
137.64727857705711
 31
0.0
  0
POLYLINE
  5
5DF
  8
0
 66
     1
 10
0.0
 20
0.0
 30
0.0
  0
VERTEX
  5
890
  8
0
 10
198.9958518814307
 20
137.10156274247549
 30
0.0
 42
0.2819402118154727
  0
VERTEX
  5
891
  8
0
 10
199.88670871451421
 20
137.64727857705901
 30
0.0
 42
0.2819402118154727
  0
SEQEND
  5
892
  8
0
  0
LINE
  5
5E0
  8
0
 10
201.09477485589801
 20
140.5303312247548
 30
0.0
 11
201.09477485589801
 21
296.60156274247561
 31
0.0
  0
LINE
  5
5E1
  8
0
  6
CENTER2
 62
     1
 10
192.4958518814307
 20
296.60156274247561
 30
0.0
 11
192.4958518814307
 21
131.70669033104301
 31
0.0
  0
LINE
  5
5E2
  8
0
 10
140.99585188143709
 20
296.60156274247191
 30
0.0
 11
140.99585188144709
 21
141.60156274247191
 31
0.0
  0
LINE
  5
5E3
  8
0
 10
132.99585188142979
 20
296.60156274246998
 30
0.0
 11
132.995851881448
 21
141.60156274246819
 31
0.0
  0
POLYLINE
  5
5E4
  8
0
 66
     1
 10
0.0
 20
0.0
 30
0.0
  0
VERTEX
  5
893
  8
0
 10
140.995851881448
 20
139.60156274247191
 30
0.0
 42
-0.1530277928365761
  0
VERTEX
  5
894
  8
0
 10
140.31097137611661
 20
139.8162005281489
 30
0.0
 42
-0.1530277928365761
  0
SEQEND
  5
895
  8
0
  0
POLYLINE
  5
5E5
  8
0
 66
     1
 10
0.0
 20
0.0
 30
0.0
  0
VERTEX
  5
896
  8
0
 10
132.995851881448
 20
139.60156274247001
 30
0.0
 42
0.1530277928365761
  0
VERTEX
  5
897
  8
0
 10
133.6807323867794
 20
139.81620052814711
 30
0.0
 42
0.1530277928365761
  0
SEQEND
  5
898
  8
0
  0
LINE
  5
5E6
  8
0
 10
133.6807323867794
 20
139.81620052814711
 30
0.0
 11
135.11243049178719
 21
140.8113088318629
 31
0.0
  0
LINE
  5
5E7
  8
0
 10
140.31097137611661
 20
139.8162005281489
 30
0.0
 11
138.8792732711087
 21
140.8113088318629
 31
0.0
  0
POLYLINE
  5
5E8
  8
0
 66
     1
 10
0.0
 20
0.0
 30
0.0
  0
VERTEX
  5
899
  8
0
 10
138.8792732711087
 20
140.8113088318629
 30
0.0
 42
0.313394503136401
  0
VERTEX
  5
89A
  8
0
 10
135.11243049178719
 20
140.8113088318629
 30
0.0
 42
0.313394503136401
  0
SEQEND
  5
89B
  8
0
  0
LINE
  5
5EE
  8
0
 10
140.99585188144891
 20
139.60156274246819
 30
0.0
 11
180.4958518814297
 21
139.60156274247549
 31
0.0
  0
LINE
  5
5F0
  8
0
 10
132.99585188144709
 20
139.60156274246819
 30
0.0
 11
128.9958518814307
 21
139.60156274246819
 31
0.0
  0
LINE
  5
5F1
  8
0
 10
140.99585188144891
 20
139.60156274246819
 30
0.0
 11
180.4958518814297
 21
139.60156274247549
 31
0.0
  0
LINE
  5
5F2
  8
0
 10
140.99585188144891
 20
139.60156274246819
 30
0.0
 11
180.4958518814297
 21
139.60156274247549
 31
0.0
  0
LINE
  5
5F3
  8
0
 10
132.99585188144709
 20
139.60156274246819
 30
0.0
 11
128.9958518814307
 21
139.60156274246819
 31
0.0
  0
LINE
  5
5F7
  8
0
 10
185.99585188143149
 20
449.40156274247482
 30
0.0
 11
185.99585188143149
 21
296.60156274246827
 31
0.0
  0
LINE
  5
5F8
  8
0
 10
183.89692890696429
 20
452.6727942601961
 30
0.0
 11
183.89692890696341
 21
296.60156274246998
 31
0.0
  0
LINE
  5
5F9
  8
0
 10
126.9958518814307
 20
296.60156274246827
 30
0.0
 11
126.9958518814307
 21
452.9015627424676
 31
0.0
  0
LINE
  5
5FB
  8
0
 10
198.9958518814297
 20
449.40156274247482
 30
0.0
 11
198.9958518814297
 21
143.80156274247619
 31
0.0
  0
LINE
  5
5FC
  8
0
 10
201.09477485589801
 20
452.6727942601961
 30
0.0
 11
201.09477485589801
 21
296.60156274247561
 31
0.0
  0
LINE
  5
5FD
  8
0
  6
CENTER2
 62
     1
 10
192.4958518814307
 20
296.60156274247561
 30
0.0
 11
192.4958518814307
 21
461.49643515390812
 31
0.0
  0
LINE
  5
5FE
  8
0
 10
132.99585188142979
 20
296.60156274246827
 30
0.0
 11
132.99585188142979
 21
451.60156274246998
 31
0.0
  0
LINE
  5
5FF
  8
0
 10
140.99585188143709
 20
296.60156274246827
 30
0.0
 11
140.99585188142891
 21
451.60156274246827
 31
0.0
  0
LINE
  5
606
  8
0
  6
CENTER2
 62
     1
 10
111.2441311424042
 20
296.60156274246827
 30
0.0
 11
260.87912878077231
 21
296.60156274246827
 31
0.0
  0
LINE
  5
60A
  8
0
 10
201.4958518814307
 20
139.60156274247549
 30
0.0
 11
217.08097507564131
 21
139.60156274247549
 31
0.0
  0
LINE
  5
60B
  8
0
 10
201.4958518814307
 20
453.60156274247538
 30
0.0
 11
217.08097507564131
 21
453.60156274247538
 31
0.0
  0
POLYLINE
  5
702
  8
0
 66
     1
 10
0.0
 20
0.0
 30
0.0
  0
VERTEX
  5
89C
  8
0
 10
469.8216404576371
 20
453.6015627424506
 30
0.0
 42
-0.414213562373061
  0
VERTEX
  5
89D
  8
0
 10
626.82164045763648
 20
296.60156274246827
 30
0.0
 42
-0.4142135623730971
  0
VERTEX
  5
89E
  8
0
 10
469.8216404576371
 20
139.60156274246691
 30
0.0
  0
SEQEND
  5
89F
  8
0
  0
POLYLINE
  5
703
  8
0
 66
     1
 10
0.0
 20
0.0
 30
0.0
  0
VERTEX
  5
8A0
  8
0
 10
469.82164045763687
 20
452.80156274251237
 30
0.0
 42
-0.4142135623731804
  0
VERTEX
  5
8A1
  8
0
 10
626.02164045763652
 20
296.60156274246839
 30
0.0
 42
-0.4142135623730877
  0
VERTEX
  5
8A2
  8
0
 10
469.8216404576371
 20
140.40156274247201
 30
0.0
  0
SEQEND
  5
8A3
  8
0
  0
LINE
  5
704
  8
0
 10
623.82163808787277
 20
298.10156274246827
 30
0.0
 11
623.32163808787277
 21
298.10156274246827
 31
0.0
  0
ENDSEC
  0
EOF
