  0
SECTION
  2
HEADER
  9
$ACADVER
  1
AC1015
  9
$ACADMAINTVER
 70
     6
  9
$DWGCODEPAGE
  3
ANSI_1257
  9
$INSBASE
 10
0.0
 20
0.0
 30
0.0
  9
$EXTMIN
 10
96.7872647187
 20
113.544370901
 30
0.0
  9
$EXTMAX
 10
1951.687698225
 20
1093.872519834671
 30
0.0
  9
$LIMMIN
 10
0.0
 20
0.0
  9
$LIMMAX
 10
420.0
 20
297.0
  9
$ORTHOMODE
 70
     0
  9
$REGENMODE
 70
     1
  9
$FILLMODE
 70
     1
  9
$QTEXTMODE
 70
     0
  9
$MIRRTEXT
 70
     1
  9
$LTSCALE
 40
1.0
  9
$ATTMODE
 70
     1
  9
$TEXTSIZE
 40
5.6444444444
  9
$TRACEWID
 40
1.0
  9
$TEXTSTYLE
  7
Standard
  9
$CLAYER
  8
0
  9
$CELTYPE
  6
ByLayer
  9
$CECOLOR
 62
   256
  9
$CELTSCALE
 40
1.0
  9
$DISPSILH
 70
     0
  9
$DIMSCALE
 40
1.0
  9
$DIMASZ
 40
3.175
  9
$DIMEXO
 40
1.0
  9
$DIMDLI
 40
3.75
  9
$DIMRND
 40
0.0
  9
$DIMDLE
 40
0.0
  9
$DIMEXE
 40
1.0
  9
$DIMTP
 40
0.0
  9
$DIMTM
 40
0.0
  9
$DIMTXT
 40
4.9388888889
  9
$DIMCEN
 40
2.5
  9
$DIMTSZ
 40
0.0
  9
$DIMTOL
 70
     0
  9
$DIMLIM
 70
     0
  9
$DIMTIH
 70
     1
  9
$DIMTOH
 70
     1
  9
$DIMSE1
 70
     0
  9
$DIMSE2
 70
     0
  9
$DIMTAD
 70
     1
  9
$DIMZIN
 70
     0
  9
$DIMBLK
  1

  9
$DIMASO
 70
     1
  9
$DIMSHO
 70
     1
  9
$DIMPOST
  1

  9
$DIMAPOST
  1

  9
$DIMALT
 70
     0
  9
$DIMALTD
 70
     3
  9
$DIMALTF
 40
0.0393700787
  9
$DIMLFAC
 40
1.0
  9
$DIMTOFL
 70
     1
  9
$DIMTVP
 40
0.0
  9
$DIMTIX
 70
     0
  9
$DIMSOXD
 70
     0
  9
$DIMSAH
 70
     0
  9
$DIMBLK1
  1

  9
$DIMBLK2
  1

  9
$DIMSTYLE
  2
ISO-25
  9
$DIMCLRD
 70
     0
  9
$DIMCLRE
 70
     0
  9
$DIMCLRT
 70
     0
  9
$DIMTFAC
 40
1.0
  9
$DIMGAP
 40
1.524
  9
$DIMJUST
 70
     0
  9
$DIMSD1
 70
     0
  9
$DIMSD2
 70
     0
  9
$DIMTOLJ
 70
     0
  9
$DIMTZIN
 70
     0
  9
$DIMALTZ
 70
     0
  9
$DIMALTTZ
 70
     0
  9
$DIMUPT
 70
     0
  9
$DIMDEC
 70
     1
  9
$DIMTDEC
 70
     1
  9
$DIMALTU
 70
     2
  9
$DIMALTTD
 70
     3
  9
$DIMTXSTY
  7
Standard
  9
$DIMAUNIT
 70
     0
  9
$DIMADEC
 70
     1
  9
$DIMALTRND
 40
0.0
  9
$DIMAZIN
 70
     0
  9
$DIMDSEP
 70
    44
  9
$DIMATFIT
 70
     3
  9
$DIMFRAC
 70
     0
  9
$DIMLDRBLK
  1

  9
$DIMLUNIT
 70
     2
  9
$DIMLWD
 70
    -2
  9
$DIMLWE
 70
    -2
  9
$DIMTMOVE
 70
     0
  9
$LUNITS
 70
     2
  9
$LUPREC
 70
     1
  9
$SKETCHINC
 40
1.0
  9
$FILLETRAD
 40
10.0
  9
$AUNITS
 70
     0
  9
$AUPREC
 70
     1
  9
$MENU
  1
.
  9
$ELEVATION
 40
0.0
  9
$PELEVATION
 40
0.0
  9
$THICKNESS
 40
0.0
  9
$LIMCHECK
 70
     0
  9
$CHAMFERA
 40
0.0
  9
$CHAMFERB
 40
0.0
  9
$CHAMFERC
 40
0.0
  9
$CHAMFERD
 40
0.0
  9
$SKPOLY
 70
     0
  9
$TDCREATE
 40
2457898.387734595
  9
$TDUCREATE
 40
2457898.262734595
  9
$TDUPDATE
 40
2457898.390241516
  9
$TDUUPDATE
 40
2457898.265241516
  9
$TDINDWG
 40
0.0000986921
  9
$TDUSRTIMER
 40
2457898.265142859
  9
$USRTIMER
 70
     1
  9
$ANGBASE
 50
0.0
  9
$ANGDIR
 70
     0
  9
$PDMODE
 70
     0
  9
$PDSIZE
 40
-1.0
  9
$PLINEWID
 40
0.0
  9
$SPLFRAME
 70
     0
  9
$SPLINETYPE
 70
     6
  9
$SPLINESEGS
 70
     8
  9
$HANDSEED
  5
470
  9
$SURFTAB1
 70
     6
  9
$SURFTAB2
 70
     6
  9
$SURFTYPE
 70
     6
  9
$SURFU
 70
     6
  9
$SURFV
 70
     6
  9
$UCSBASE
  2

  9
$UCSNAME
  2

  9
$UCSORG
 10
0.0
 20
0.0
 30
0.0
  9
$UCSXDIR
 10
1.0
 20
0.0
 30
0.0
  9
$UCSYDIR
 10
0.0
 20
1.0
 30
0.0
  9
$UCSORTHOREF
  2

  9
$UCSORTHOVIEW
 70
     0
  9
$UCSORGTOP
 10
0.0
 20
0.0
 30
0.0
  9
$UCSORGBOTTOM
 10
0.0
 20
0.0
 30
0.0
  9
$UCSORGLEFT
 10
0.0
 20
0.0
 30
0.0
  9
$UCSORGRIGHT
 10
0.0
 20
0.0
 30
0.0
  9
$UCSORGFRONT
 10
0.0
 20
0.0
 30
0.0
  9
$UCSORGBACK
 10
0.0
 20
0.0
 30
0.0
  9
$PUCSBASE
  2

  9
$PUCSNAME
  2

  9
$PUCSORG
 10
0.0
 20
0.0
 30
0.0
  9
$PUCSXDIR
 10
1.0
 20
0.0
 30
0.0
  9
$PUCSYDIR
 10
0.0
 20
1.0
 30
0.0
  9
$PUCSORTHOREF
  2

  9
$PUCSORTHOVIEW
 70
     0
  9
$PUCSORGTOP
 10
0.0
 20
0.0
 30
0.0
  9
$PUCSORGBOTTOM
 10
0.0
 20
0.0
 30
0.0
  9
$PUCSORGLEFT
 10
0.0
 20
0.0
 30
0.0
  9
$PUCSORGRIGHT
 10
0.0
 20
0.0
 30
0.0
  9
$PUCSORGFRONT
 10
0.0
 20
0.0
 30
0.0
  9
$PUCSORGBACK
 10
0.0
 20
0.0
 30
0.0
  9
$USERI1
 70
     0
  9
$USERI2
 70
     0
  9
$USERI3
 70
     0
  9
$USERI4
 70
     0
  9
$USERI5
 70
     0
  9
$USERR1
 40
0.0
  9
$USERR2
 40
0.0
  9
$USERR3
 40
0.0
  9
$USERR4
 40
0.0
  9
$USERR5
 40
0.0
  9
$WORLDVIEW
 70
     1
  9
$SHADEDGE
 70
     3
  9
$SHADEDIF
 70
    70
  9
$TILEMODE
 70
     1
  9
$MAXACTVP
 70
    64
  9
$PINSBASE
 10
0.0
 20
0.0
 30
0.0
  9
$PLIMCHECK
 70
     0
  9
$PEXTMIN
 10
1.000000000000000E+20
 20
1.000000000000000E+20
 30
1.000000000000000E+20
  9
$PEXTMAX
 10
-1.000000000000000E+20
 20
-1.000000000000000E+20
 30
-1.000000000000000E+20
  9
$PLIMMIN
 10
0.0
 20
0.0
  9
$PLIMMAX
 10
0.0
 20
0.0
  9
$UNITMODE
 70
     0
  9
$VISRETAIN
 70
     1
  9
$PLINEGEN
 70
     0
  9
$PSLTSCALE
 70
     1
  9
$TREEDEPTH
 70
  3020
  9
$CMLSTYLE
  2
Standard
  9
$CMLJUST
 70
     0
  9
$CMLSCALE
 40
20.0
  9
$PROXYGRAPHICS
 70
     1
  9
$MEASUREMENT
 70
     1
  9
$CELWEIGHT
370
    -1
  9
$ENDCAPS
280
     0
  9
$JOINSTYLE
280
     0
  9
$LWDISPLAY
290
     1
  9
$INSUNITS
 70
     4
  9
$HYPERLINKBASE
  1

  9
$STYLESHEET
  1

  9
$XEDIT
290
     1
  9
$CEPSNTYPE
380
     0
  9
$PSTYLEMODE
290
     1
  9
$FINGERPRINTGUID
  2
{868B13EE-3A30-4E0C-9A55-C151763D2DE2}
  9
$VERSIONGUID
  2
{FAEB1C32-E019-11D5-929B-00C0DF256EC4}
  9
$EXTNAMES
290
     1
  9
$PSVPSCALE
 40
0.0
  9
$OLESTARTUP
290
     0
  0
ENDSEC
  0
SECTION
  2
CLASSES
  0
CLASS
  1
ACDBDICTIONARYWDFLT
  2
AcDbDictionaryWithDefault
  3
ObjectDBX Classes
 90
        0
280
     0
281
     0
  0
CLASS
  1
VISUALSTYLE
  2
AcDbVisualStyle
  3
ObjectDBX Classes
 90
     4095
280
     0
281
     0
  0
CLASS
  1
MATERIAL
  2
AcDbMaterial
  3
ObjectDBX Classes
 90
     1153
280
     0
281
     0
  0
CLASS
  1
SCALE
  2
AcDbScale
  3
ObjectDBX Classes
 90
     1153
280
     0
281
     0
  0
CLASS
  1
TABLESTYLE
  2
AcDbTableStyle
  3
ObjectDBX Classes
 90
     4095
280
     0
281
     0
  0
CLASS
  1
MLEADERSTYLE
  2
AcDbMLeaderStyle
  3
ACDB_MLEADERSTYLE_CLASS
 90
     4095
280
     0
281
     0
  0
CLASS
  1
SUN
  2
AcDbSun
  3
SCENEOE
 90
     1153
280
     0
281
     0
  0
CLASS
  1
ACDBPLACEHOLDER
  2
AcDbPlaceHolder
  3
ObjectDBX Classes
 90
        0
280
     0
281
     0
  0
CLASS
  1
LAYOUT
  2
AcDbLayout
  3
ObjectDBX Classes
 90
        0
280
     0
281
     0
  0
CLASS
  1
RASTERVARIABLES
  2
AcDbRasterVariables
  3
ISM
 90
        0
280
     0
281
     0
  0
ENDSEC
  0
SECTION
  2
TABLES
  0
TABLE
  2
VPORT
  5
8
330
0
100
AcDbSymbolTable
 70
     1
  0
VPORT
  5
29
330
8
100
AcDbSymbolTableRecord
100
AcDbViewportTableRecord
  2
*Active
 70
     0
 10
0.0
 20
0.0
 11
1.0
 21
1.0
 12
1020.211781626162
 22
565.8456205285113
 13
0.0
 23
0.0
 14
10.0
 24
10.0
 15
10.0
 25
10.0
 16
0.0
 26
0.0
 36
1.0
 17
0.0
 27
0.0
 37
0.0
 40
1416.206359863281
 41
2.608695652173913
 42
50.0
 43
0.0
 44
0.0
 50
0.0
 51
0.0
 71
    16
 72
  2000
 73
     1
 74
     3
 75
     0
 76
     0
 77
     0
 78
     0
281
     0
 65
     1
110
0.0
120
0.0
130
0.0
111
1.0
121
0.0
131
0.0
112
0.0
122
1.0
132
0.0
 79
     0
146
0.0
  0
ENDTAB
  0
TABLE
  2
LTYPE
  5
5
330
0
100
AcDbSymbolTable
 70
     6
  0
LTYPE
  5
14
330
5
100
AcDbSymbolTableRecord
100
AcDbLinetypeTableRecord
  2
ByBlock
 70
     0
  3

 72
    65
 73
     0
 40
0.0
  0
LTYPE
  5
15
330
5
100
AcDbSymbolTableRecord
100
AcDbLinetypeTableRecord
  2
ByLayer
 70
     0
  3

 72
    65
 73
     0
 40
0.0
  0
LTYPE
  5
16
330
5
100
AcDbSymbolTableRecord
100
AcDbLinetypeTableRecord
  2
Continuous
 70
     0
  3
Solid line
 72
    65
 73
     0
 40
0.0
  0
LTYPE
  5
6E
330
5
100
AcDbSymbolTableRecord
100
AcDbLinetypeTableRecord
  2
HIDDEN
 70
     0
  3
Hidden __ __ __ __ __ __ __ __ __ __ __ __ __ __
 72
    65
 73
     2
 40
1.905
 49
1.27
 74
     0
 49
-0.635
 74
     0
  0
LTYPE
  5
6F
330
5
100
AcDbSymbolTableRecord
100
AcDbLinetypeTableRecord
  2
PHANTOM
 70
     0
  3
Phantom ______  __  __  ______  __  __  ______
 72
    65
 73
     6
 40
12.7
 49
6.35
 74
     0
 49
-1.27
 74
     0
 49
1.27
 74
     0
 49
-1.27
 74
     0
 49
1.27
 74
     0
 49
-1.27
 74
     0
  0
LTYPE
  5
70
330
5
100
AcDbSymbolTableRecord
100
AcDbLinetypeTableRecord
  2
CENTER
 70
     0
  3
Center ____ _ ____ _ ____ _ ____ _ ____ _ ____
 72
    65
 73
     4
 40
10.16
 49
6.35
 74
     0
 49
-1.27
 74
     0
 49
1.27
 74
     0
 49
-1.27
 74
     0
  0
LTYPE
  5
71
330
5
100
AcDbSymbolTableRecord
100
AcDbLinetypeTableRecord
  2
CENTERX2
 70
     0
  3
Center (2x) ________  __  ________  __  _____
 72
    65
 73
     4
 40
20.32
 49
12.7
 74
     0
 49
-2.54
 74
     0
 49
2.54
 74
     0
 49
-2.54
 74
     0
  0
LTYPE
  5
72
330
5
100
AcDbSymbolTableRecord
100
AcDbLinetypeTableRecord
  2
DOT2
 70
     0
  3
Dot (.5x) ........................................
 72
    65
 73
     2
 40
0.635
 49
0.0
 74
     0
 49
-0.635
 74
     0
  0
ENDTAB
  0
TABLE
  2
LAYER
  5
2
330
0
100
AcDbSymbolTable
 70
     2
  0
LAYER
  5
10
330
2
100
AcDbSymbolTableRecord
100
AcDbLayerTableRecord
  2
0
 70
     0
 62
     7
  6
Continuous
370
    -3
390
F
  0
LAYER
  5
73
330
2
100
AcDbSymbolTableRecord
100
AcDbLayerTableRecord
  2
LENKIMO
 70
     0
 62
     1
  6
CENTERX2
370
    -3
390
F
  0
ENDTAB
  0
TABLE
  2
STYLE
  5
3
330
0
100
AcDbSymbolTable
 70
     1
  0
STYLE
  5
11
330
3
100
AcDbSymbolTableRecord
100
AcDbTextStyleTableRecord
  2
Standard
 70
     0
 40
0.0
 41
1.0
 50
0.0
 71
     0
 42
5.6444444444
  3
txt
  4

  0
ENDTAB
  0
TABLE
  2
VIEW
  5
6
330
0
100
AcDbSymbolTable
 70
     0
  0
ENDTAB
  0
TABLE
  2
UCS
  5
7
330
0
100
AcDbSymbolTable
 70
     0
  0
ENDTAB
  0
TABLE
  2
APPID
  5
9
330
0
100
AcDbSymbolTable
 70
     1
  0
APPID
  5
12
330
9
100
AcDbSymbolTableRecord
100
AcDbRegAppTableRecord
  2
ACAD
 70
     0
  0
ENDTAB
  0
TABLE
  2
DIMSTYLE
  5
A
330
0
100
AcDbSymbolTable
 70
     1
100
AcDbDimStyleTable
  0
DIMSTYLE
105
27
330
A
100
AcDbSymbolTableRecord
100
AcDbDimStyleTableRecord
  2
ISO-25
 70
     0
 41
2.5
 42
0.625
 43
3.75
 44
1.25
 73
     0
 74
     0
 77
     1
 78
     8
140
2.5
141
2.5
143
0.0393700787
147
0.625
171
     3
172
     1
178
     0
271
     2
272
     2
274
     3
278
    44
283
     0
284
     8
340
11
  0
ENDTAB
  0
TABLE
  2
BLOCK_RECORD
  5
1
330
0
100
AcDbSymbolTable
 70
     5
  0
BLOCK_RECORD
  5
1F
330
1
100
AcDbSymbolTableRecord
100
AcDbBlockTableRecord
  2
*Model_Space
340
22
  0
BLOCK_RECORD
  5
1B
330
1
100
AcDbSymbolTableRecord
100
AcDbBlockTableRecord
  2
*Paper_Space
340
1E
  0
BLOCK_RECORD
  5
23
330
1
100
AcDbSymbolTableRecord
100
AcDbBlockTableRecord
  2
*Paper_Space0
340
26
  0
BLOCK_RECORD
  5
74
330
1
100
AcDbSymbolTableRecord
100
AcDbBlockTableRecord
  2
Block1
340
0
  0
BLOCK_RECORD
  5
12B
330
1
100
AcDbSymbolTableRecord
100
AcDbBlockTableRecord
  2
Projekciju vaizdavimas
340
0
  0
BLOCK_RECORD
  5
136
330
1
100
AcDbSymbolTableRecord
100
AcDbBlockTableRecord
  2
Block1_1
340
0
  0
BLOCK_RECORD
  5
1ED
330
1
100
AcDbSymbolTableRecord
100
AcDbBlockTableRecord
  2
Projekciju vaizdavimas_1
340
0
  0
ENDTAB
  0
ENDSEC
  0
SECTION
  2
BLOCKS
  0
BLOCK
  5
20
330
1F
100
AcDbEntity
  8
0
100
AcDbBlockBegin
  2
*Model_Space
 70
     0
 10
0.0
 20
0.0
 30
0.0
  3
*Model_Space
  1

  0
ENDBLK
  5
21
330
1F
100
AcDbEntity
  8
0
100
AcDbBlockEnd
  0
BLOCK
  5
1C
330
1B
100
AcDbEntity
 67
     1
  8
0
100
AcDbBlockBegin
  2
*Paper_Space
 70
     0
 10
0.0
 20
0.0
 30
0.0
  3
*Paper_Space
  1

  0
ENDBLK
  5
1D
330
1B
100
AcDbEntity
 67
     1
  8
0
100
AcDbBlockEnd
  0
BLOCK
  5
24
330
23
100
AcDbEntity
  8
0
100
AcDbBlockBegin
  2
*Paper_Space0
 70
     0
 10
0.0
 20
0.0
 30
0.0
  3
*Paper_Space0
  1

  0
ENDBLK
  5
25
330
23
100
AcDbEntity
  8
0
100
AcDbBlockEnd
  0
BLOCK
  5
75
330
74
100
AcDbEntity
  8
0
100
AcDbBlockBegin
  2
Block1
 70
     0
 10
0.0
 20
0.0
 30
0.0
  3
Block1
  1

  0
ARC
  5
77
330
74
100
AcDbEntity
  8
0
  6
Continuous
 62
   179
100
AcDbCircle
 10
7867.6649029635
 20
2430.1355419087
 30
0.0
 40
931.6078627493895
100
AcDbArc
 50
232.1189098069
 51
101.3462704492
  0
ARC
  5
78
330
74
100
AcDbEntity
  8
0
  6
Continuous
 62
   179
100
AcDbCircle
 10
7943.5514462269
 20
2435.9613946537
 30
0.0
 40
1140.079096555486
100
AcDbArc
 50
297.434182935
 51
62.17203318890002
  0
ARC
  5
79
330
74
100
AcDbEntity
  8
0
  6
Continuous
 62
   179
100
AcDbCircle
 10
20001.4103066854
 20
6936.2583481763
 30
0.0
 40
1270.831290716854
100
AcDbArc
 50
3.4391112699
 51
76.4197578922
  0
ARC
  5
7A
330
74
100
AcDbEntity
  8
0
  6
Continuous
 62
   179
100
AcDbCircle
 10
19239.4822949422
 20
3782.0667000728
 30
0.0
 40
4515.74411667143
100
AcDbArc
 50
76.4197578923
 51
91.6754644339
  0
ARC
  5
7B
330
74
100
AcDbEntity
  8
0
  6
Continuous
 62
   179
100
AcDbCircle
 10
18683.9539720184
 20
2160.1911622497
 30
0.0
 40
2139.476369555804
100
AcDbArc
 50
270.3210228954001
 51
307.7127911617
  0
ARC
  5
7C
330
74
100
AcDbEntity
  8
0
  6
Continuous
 62
   179
100
AcDbCircle
 10
18746.0422061702
 20
1962.8216117468
 30
0.0
 40
1946.678009873842
100
AcDbArc
 50
309.8210667380999
 51
331.7017265911999
  0
ARC
  5
7D
330
74
100
AcDbEntity
  8
0
  6
Continuous
 62
   179
100
AcDbCircle
 10
17863.1917469523
 20
2438.1532894658
 30
0.0
 40
2949.35698999881
100
AcDbArc
 50
331.7017265911999
 51
356.0927915539
  0
ARC
  5
7E
330
74
100
AcDbEntity
  8
0
  6
Continuous
 62
   179
100
AcDbCircle
 10
16755.7856245826
 20
6709.226497343
 30
0.0
 40
4524.342739831098
100
AcDbArc
 50
353.5830630921
 51
3.8434115591
  0
ARC
  5
7F
330
74
100
AcDbEntity
  8
0
  6
Continuous
 62
   179
100
AcDbCircle
 10
19039.3213693035
 20
6348.9928357667
 30
0.0
 40
506.1072723730909
100
AcDbArc
 50
52.45518083769999
 51
82.2716960779
  0
ARC
  5
80
330
74
100
AcDbEntity
  8
0
  6
Continuous
 62
   179
100
AcDbCircle
 10
19108.0528552878
 20
6495.6270812425
 30
0.0
 40
349.7025539282703
100
AcDbArc
 50
10.4012874263
 51
46.7340603611
  0
ARC
  5
81
330
74
100
AcDbEntity
  8
0
  6
Continuous
 62
   179
100
AcDbCircle
 10
17417.0070420698
 20
6262.2496105517
 30
0.0
 40
2056.490362340239
100
AcDbArc
 50
355.475249592
 51
8.290034904
  0
ARC
  5
82
330
74
100
AcDbEntity
  8
0
  6
Continuous
 62
   179
100
AcDbCircle
 10
16921.0810184775
 20
2478.8840573259
 30
0.0
 40
2122.330793892779
100
AcDbArc
 50
339.2065439429
 51
352.3366543813
  0
ARC
  5
83
330
74
100
AcDbEntity
  8
0
  6
Continuous
 62
   179
100
AcDbCircle
 10
18500.143747488
 20
1898.8589115903
 30
0.0
 40
440.5904503964751
100
AcDbArc
 50
293.838270217
 51
336.8232513296001
  0
ARC
  5
84
330
74
100
AcDbEntity
  8
0
  6
Continuous
 62
   179
100
AcDbCircle
 10
18201.1477532386
 20
2813.3138324813
 30
0.0
 40
1401.173285533761
100
AcDbArc
 50
267.1686990927
 51
289.9057704419
  0
ARC
  5
85
330
74
100
AcDbEntity
  8
0
  6
Continuous
 62
   179
100
AcDbCircle
 10
18751.2701169541
 20
4514.9970927066
 30
0.0
 40
2362.499275286643
100
AcDbArc
 50
81.3304997955
 51
90.0
  0
ARC
  5
86
330
74
100
AcDbEntity
  8
0
  6
Continuous
 62
   179
100
AcDbCircle
 10
6720.6044375296
 20
9296.0579653158
 30
0.0
 40
7520.148763137153
100
AcDbArc
 50
220.017667739
 51
227.0143029097
  0
ARC
  5
87
330
74
100
AcDbEntity
  8
0
  6
Continuous
 62
   179
100
AcDbCircle
 10
2021.3892535935
 20
2163.6755564521
 30
0.0
 40
795.0570373035339
100
AcDbArc
 50
316.8708555891
 51
354.9781479006
  0
ARC
  5
88
330
74
100
AcDbEntity
  8
0
  6
Continuous
 62
   179
100
AcDbCircle
 10
2182.9124170468
 20
2011.9889486322
 30
0.0
 40
573.4753329004777
100
AcDbArc
 50
268.8486412909
 51
316.8986890901
  0
ARC
  5
89
330
74
100
AcDbEntity
  8
0
  6
Continuous
 62
   179
100
AcDbCircle
 10
10525.696072633
 20
12531.6259047731
 30
0.0
 40
10618.65239809051
100
AcDbArc
 50
220.6325257886
 51
226.7030345034
  0
ARC
  5
8A
330
74
100
AcDbEntity
  8
0
  6
Continuous
 62
   179
100
AcDbCircle
 10
2962.700769446
 20
6223.5867799529
 30
0.0
 40
723.1072200381735
100
AcDbArc
 50
137.8203941731
 51
175.3475443105
  0
ARC
  5
8B
330
74
100
AcDbEntity
  8
0
  6
Continuous
 62
   179
100
AcDbCircle
 10
2808.3239355685
 20
6360.2864243508
 30
0.0
 40
516.9247077280753
100
AcDbArc
 50
89.4379852016
 51
137.5591461504
  0
ARC
  5
8C
330
74
100
AcDbEntity
  8
0
  6
Continuous
 62
   179
100
AcDbCircle
 10
24439.2811878643
 20
2435.9613946539
 30
0.0
 40
1140.079096554877
100
AcDbArc
 50
297.4341829348999
 51
62.17203318890002
  0
ARC
  5
8D
330
74
100
AcDbEntity
  8
0
  6
Continuous
 62
   179
100
AcDbCircle
 10
24363.3946446009
 20
2430.1355419089
 30
0.0
 40
931.6078627500976
100
AcDbArc
 50
232.118909807
 51
101.3462704493
  0
LINE
  5
8E
330
74
100
AcDbEntity
  8
0
  6
Continuous
 62
   179
100
AcDbLine
 10
10088.0321784074
 20
0.0000125144
 30
0.0
 11
9858.2217949557
 21
8289.6552921115
 31
0.0
  0
LINE
  5
8F
330
74
100
AcDbEntity
  8
0
  6
Continuous
 62
   179
100
AcDbLine
 10
9858.2217949557
 20
8289.6552921115
 30
0.0
 11
7491.0265293557
 21
8289.6552921115
 31
0.0
  0
LINE
  5
90
330
74
100
AcDbEntity
  8
0
  6
Continuous
 62
   179
100
AcDbLine
 10
7491.0265293557
 20
8289.6552921115
 30
0.0
 11
5122.8131677553
 21
0.0000125144
 31
0.0
  0
LINE
  5
91
330
74
100
AcDbEntity
  8
0
  6
Continuous
 62
   179
100
AcDbLine
 10
5122.8131677553
 20
0.0000125144
 30
0.0
 11
6903.4160581553
 21
0.0000125144
 31
0.0
  0
LINE
  5
92
330
74
100
AcDbEntity
  8
0
  6
Continuous
 62
   179
100
AcDbLine
 10
6903.4160581553
 20
0.0000125144
 30
0.0
 11
7295.6346285553
 21
1694.8297721115
 31
0.0
  0
LINE
  5
93
330
74
100
AcDbEntity
  8
0
  6
Continuous
 62
   179
100
AcDbLine
 10
7684.3822381561
 20
3343.5361521108
 30
0.0
 11
8520.8837909553
 21
7008.8707569115
 31
0.0
  0
LINE
  5
94
330
74
100
AcDbEntity
  8
0
  6
Continuous
 62
   179
100
AcDbLine
 10
8520.8837909553
 20
7008.8707569115
 30
0.0
 11
8475.7613005553
 21
3444.1940153115
 31
0.0
  0
LINE
  5
95
330
74
100
AcDbEntity
  8
0
  6
Continuous
 62
   179
100
AcDbLine
 10
8468.8193789565
 20
1424.0948297112
 30
0.0
 11
8468.8193789565
 21
0.0000125144
 31
0.0
  0
LINE
  5
96
330
74
100
AcDbEntity
  8
0
  6
Continuous
 62
   179
100
AcDbLine
 10
8468.8193789565
 20
0.0000125144
 30
0.0
 11
10088.0321784074
 21
0.0000125144
 31
0.0
  0
LINE
  5
97
330
74
100
AcDbEntity
  8
0
  6
Continuous
 62
   179
100
AcDbLine
 10
19107.4500497519
 20
8295.8802112275
 30
0.0
 11
16935.7898769541
 21
8295.8802112275
 31
0.0
  0
LINE
  5
98
330
74
100
AcDbEntity
  8
0
  6
Continuous
 62
   179
100
AcDbLine
 10
16935.7898769541
 20
8295.8802112275
 30
0.0
 11
15991.7401521541
 21
0.0000288275
 31
0.0
  0
LINE
  5
99
330
74
100
AcDbEntity
  8
0
  6
Continuous
 62
   179
100
AcDbLine
 10
15991.7401521541
 20
0.0000288275
 30
0.0
 11
17855.6331985541
 21
0.0000288275
 31
0.0
  0
LINE
  5
9A
330
74
100
AcDbEntity
  8
0
  6
Continuous
 62
   179
100
AcDbLine
 10
17855.6331985541
 20
0.0000288275
 30
0.0
 11
18695.9411953541
 21
20.7483744275
 31
0.0
  0
LINE
  5
9B
330
74
100
AcDbEntity
  8
0
  6
Continuous
 62
   179
100
AcDbLine
 10
20805.6935873772
 20
2237.1817154785
 30
0.0
 11
21251.7830177772
 21
6203.5737826763
 31
0.0
  0
LINE
  5
9C
330
74
100
AcDbEntity
  8
0
  6
Continuous
 62
   179
100
AcDbLine
 10
19024.4566673541
 20
2195.8666048275
 30
0.0
 11
19467.0880401544
 21
6100.0136352237
 31
0.0
  0
LINE
  5
9D
330
74
100
AcDbEntity
  8
0
  6
Continuous
 62
   179
100
AcDbLine
 10
17907.5040625541
 20
1417.8036448275
 30
0.0
 11
18131.936218492
 21
1413.8509571068
 31
0.0
  0
LINE
  5
9E
330
74
100
AcDbEntity
  8
0
  6
Continuous
 62
   179
100
AcDbLine
 10
18529.9544305541
 20
6877.4963679933
 30
0.0
 11
17907.5040625541
 21
1417.8036448275
 31
0.0
  0
LINE
  5
9F
330
74
100
AcDbEntity
  8
0
  6
Continuous
 62
   179
100
AcDbLine
 10
18751.2701169541
 20
6877.4963679933
 30
0.0
 11
18529.9544305541
 21
6877.4963679933
 31
0.0
  0
LINE
  5
A0
330
74
100
AcDbEntity
  8
0
  6
Continuous
 62
   179
100
AcDbLine
 10
11134.6446741053
 20
0.0
 30
0.0
 11
14807.1018453053
 21
0.0
 31
0.0
  0
LINE
  5
A1
330
74
100
AcDbEntity
  8
0
  6
Continuous
 62
   179
100
AcDbLine
 10
14807.1018453053
 20
0.0
 30
0.0
 11
14990.3788981053
 21
1625.287072
 31
0.0
  0
LINE
  5
A2
330
74
100
AcDbEntity
  8
0
  6
Continuous
 62
   179
100
AcDbLine
 10
14990.3788981053
 20
1625.287072
 30
0.0
 11
13071.1569301053
 21
1625.287072
 31
0.0
  0
LINE
  5
A3
330
74
100
AcDbEntity
  8
0
  6
Continuous
 62
   179
100
AcDbLine
 10
13071.1569301053
 20
1625.287072
 30
0.0
 11
13828.4715445053
 21
8295.8801824
 31
0.0
  0
LINE
  5
A4
330
74
100
AcDbEntity
  8
0
  6
Continuous
 62
   179
100
AcDbLine
 10
13828.4715445053
 20
8295.8801824
 30
0.0
 11
12075.2363413053
 21
8295.8801824
 31
0.0
  0
LINE
  5
A5
330
74
100
AcDbEntity
  8
0
  6
Continuous
 62
   179
100
AcDbLine
 10
12075.2363413053
 20
8295.8801824
 30
0.0
 11
11134.6446741053
 21
0.0
 31
0.0
  0
LINE
  5
A6
330
74
100
AcDbEntity
  8
0
  6
Continuous
 62
   179
100
AcDbLine
 10
4907.4740560005
 20
6857.0185622947
 30
0.0
 11
4882.7391856278
 21
7041.1497513646
 31
0.0
  0
LINE
  5
A7
330
74
100
AcDbEntity
  8
0
  6
Continuous
 62
   179
100
AcDbLine
 10
4882.7391856278
 20
7041.1497513646
 30
0.0
 11
4840.84097804
 21
7222.1279289072
 31
0.0
  0
LINE
  5
A8
330
74
100
AcDbEntity
  8
0
  6
Continuous
 62
   179
100
AcDbLine
 10
4840.84097804
 20
7222.1279289072
 30
0.0
 11
4779.230404759
 21
7397.3516386623
 31
0.0
  0
LINE
  5
A9
330
74
100
AcDbEntity
  8
0
  6
Continuous
 62
   179
100
AcDbLine
 10
4779.230404759
 20
7397.3516386623
 30
0.0
 11
4695.8753846469
 21
7563.306056288
 31
0.0
  0
LINE
  5
AA
330
74
100
AcDbEntity
  8
0
  6
Continuous
 62
   179
100
AcDbLine
 10
4695.8753846469
 20
7563.306056288
 30
0.0
 11
4590.0094760133
 21
7715.8622667097
 31
0.0
  0
LINE
  5
AB
330
74
100
AcDbEntity
  8
0
  6
Continuous
 62
   179
100
AcDbLine
 10
4590.0094760133
 20
7715.8622667097
 30
0.0
 11
4462.7758841487
 21
7851.1049960358
 31
0.0
  0
LINE
  5
AC
330
74
100
AcDbEntity
  8
0
  6
Continuous
 62
   179
100
AcDbLine
 10
4462.7758841487
 20
7851.1049960358
 30
0.0
 11
4317.19779369
 21
7966.3918164371
 31
0.0
  0
LINE
  5
AD
330
74
100
AcDbEntity
  8
0
  6
Continuous
 62
   179
100
AcDbLine
 10
4317.19779369
 20
7966.3918164371
 30
0.0
 11
4157.3549470669
 21
8060.9636993174
 31
0.0
  0
LINE
  5
AE
330
74
100
AcDbEntity
  8
0
  6
Continuous
 62
   179
100
AcDbLine
 10
4157.3549470669
 20
8060.9636993174
 30
0.0
 11
3942.3832434805
 21
8152.0001345594
 31
0.0
  0
LINE
  5
AF
330
74
100
AcDbEntity
  8
0
  6
Continuous
 62
   179
100
AcDbLine
 10
3942.3832434805
 20
8152.0001345594
 30
0.0
 11
3717.7379879586
 21
8215.7306159908
 31
0.0
  0
LINE
  5
B0
330
74
100
AcDbEntity
  8
0
  6
Continuous
 62
   179
100
AcDbLine
 10
3717.7379879586
 20
8215.7306159908
 30
0.0
 11
3487.8010416052
 21
8256.6415379559
 31
0.0
  0
LINE
  5
B1
330
74
100
AcDbEntity
  8
0
  6
Continuous
 62
   179
100
AcDbLine
 10
3487.8010416052
 20
8256.6415379559
 30
0.0
 11
3255.2826646592
 21
8278.7971759128
 31
0.0
  0
LINE
  5
B2
330
74
100
AcDbEntity
  8
0
  6
Continuous
 62
   179
100
AcDbLine
 10
3255.2826646592
 20
8278.7971759128
 30
0.0
 11
3021.7939564
 21
8285.5640922951
 31
0.0
  0
LINE
  5
B3
330
74
100
AcDbEntity
  8
0
  6
Continuous
 62
   179
100
AcDbLine
 10
3021.7939564
 20
8285.5640922951
 30
0.0
 11
2764.7286656624
 21
8276.8167344558
 31
0.0
  0
LINE
  5
B4
330
74
100
AcDbEntity
  8
0
  6
Continuous
 62
   179
100
AcDbLine
 10
2764.7286656624
 20
8276.8167344558
 30
0.0
 11
2509.0566231212
 21
8248.8448730413
 31
0.0
  0
LINE
  5
B5
330
74
100
AcDbEntity
  8
0
  6
Continuous
 62
   179
100
AcDbLine
 10
2509.0566231212
 20
8248.8448730413
 30
0.0
 11
2256.7624741697
 21
8198.9693632548
 31
0.0
  0
LINE
  5
B6
330
74
100
AcDbEntity
  8
0
  6
Continuous
 62
   179
100
AcDbLine
 10
2256.7624741697
 20
8198.9693632548
 30
0.0
 11
2010.5862549102
 21
8124.6401609584
 31
0.0
  0
LINE
  5
B7
330
74
100
AcDbEntity
  8
0
  6
Continuous
 62
   179
100
AcDbLine
 10
2010.5862549102
 20
8124.6401609584
 30
0.0
 11
1823.7042907144
 21
8047.7718170144
 31
0.0
  0
LINE
  5
B8
330
74
100
AcDbEntity
  8
0
  6
Continuous
 62
   179
100
AcDbLine
 10
1823.7042907144
 20
8047.7718170144
 30
0.0
 11
1644.6605427625
 21
7954.1022052786
 31
0.0
  0
LINE
  5
B9
330
74
100
AcDbEntity
  8
0
  6
Continuous
 62
   179
100
AcDbLine
 10
1644.6605427625
 20
7954.1022052786
 30
0.0
 11
1475.390327491
 21
7843.7545704421
 31
0.0
  0
LINE
  5
BA
330
74
100
AcDbEntity
  8
0
  6
Continuous
 62
   179
100
AcDbLine
 10
1475.390327491
 20
7843.7545704421
 30
0.0
 11
1317.6231711996
 21
7717.507163895
 31
0.0
  0
LINE
  5
BB
330
74
100
AcDbEntity
  8
0
  6
Continuous
 62
   179
100
AcDbLine
 10
1317.6231711996
 20
7717.507163895
 30
0.0
 11
1139.538084005
 21
7540.9583629978
 31
0.0
  0
LINE
  5
BC
330
74
100
AcDbEntity
  8
0
  6
Continuous
 62
   179
100
AcDbLine
 10
1139.538084005
 20
7540.9583629978
 30
0.0
 11
983.4661868123
 21
7344.6865403276
 31
0.0
  0
LINE
  5
BD
330
74
100
AcDbEntity
  8
0
  6
Continuous
 62
   179
100
AcDbLine
 10
983.4661868123
 20
7344.6865403276
 30
0.0
 11
851.5325681984
 21
7131.4315088069
 31
0.0
  0
LINE
  5
BE
330
74
100
AcDbEntity
  8
0
  6
Continuous
 62
   179
100
AcDbLine
 10
851.5325681984
 20
7131.4315088069
 30
0.0
 11
744.4774564036
 21
6904.647070365
 31
0.0
  0
LINE
  5
BF
330
74
100
AcDbEntity
  8
0
  6
Continuous
 62
   179
100
AcDbLine
 10
744.4774564036
 20
6904.647070365
 30
0.0
 11
658.3392621499
 21
6656.4327422403
 31
0.0
  0
LINE
  5
C0
330
74
100
AcDbEntity
  8
0
  6
Continuous
 62
   179
100
AcDbLine
 10
658.3392621499
 20
6656.4327422403
 30
0.0
 11
596.9943576213
 21
6400.9335325463
 31
0.0
  0
LINE
  5
C1
330
74
100
AcDbEntity
  8
0
  6
Continuous
 62
   179
100
AcDbLine
 10
596.9943576213
 20
6400.9335325463
 30
0.0
 11
557.9730775995
 21
6141.0651554946
 31
0.0
  0
LINE
  5
C2
330
74
100
AcDbEntity
  8
0
  6
Continuous
 62
   179
100
AcDbLine
 10
557.9730775995
 20
6141.0651554946
 30
0.0
 11
538.0293793386
 21
5893.0807139359
 31
0.0
  0
LINE
  5
C3
330
74
100
AcDbEntity
  8
0
  6
Continuous
 62
   179
100
AcDbLine
 10
538.0293793386
 20
5893.0807139359
 30
0.0
 11
537.9155556826
 21
5644.3161034396
 31
0.0
  0
LINE
  5
C4
330
74
100
AcDbEntity
  8
0
  6
Continuous
 62
   179
100
AcDbLine
 10
537.9155556826
 20
5644.3161034396
 30
0.0
 11
561.0465619986
 21
5396.6565041751
 31
0.0
  0
LINE
  5
C5
330
74
100
AcDbEntity
  8
0
  6
Continuous
 62
   179
100
AcDbLine
 10
561.0465619986
 20
5396.6565041751
 30
0.0
 11
610.8365836731
 21
5152.9862283491
 31
0.0
  0
LINE
  5
C6
330
74
100
AcDbEntity
  8
0
  6
Continuous
 62
   179
100
AcDbLine
 10
610.8365836731
 20
5152.9862283491
 30
0.0
 11
670.4957765389
 21
4966.8752015955
 31
0.0
  0
LINE
  5
C7
330
74
100
AcDbEntity
  8
0
  6
Continuous
 62
   179
100
AcDbLine
 10
670.4957765389
 20
4966.8752015955
 30
0.0
 11
749.0385092576
 21
4787.922755338
 31
0.0
  0
LINE
  5
C8
330
74
100
AcDbEntity
  8
0
  6
Continuous
 62
   179
100
AcDbLine
 10
749.0385092576
 20
4787.922755338
 30
0.0
 11
846.3298658912
 21
4618.4358151253
 31
0.0
  0
LINE
  5
C9
330
74
100
AcDbEntity
  8
0
  6
Continuous
 62
   179
100
AcDbLine
 10
846.3298658912
 20
4618.4358151253
 30
0.0
 11
961.3271095996
 21
4460.4233554942
 31
0.0
  0
LINE
  5
CA
330
74
100
AcDbEntity
  8
0
  6
Continuous
 62
   179
100
AcDbLine
 10
1593.2484263997
 20
3794.8892026942
 30
0.0
 11
2342.8146692
 21
3099.1034974946
 31
0.0
  0
LINE
  5
CB
330
74
100
AcDbEntity
  8
0
  6
Continuous
 62
   179
100
AcDbLine
 10
2342.8146692
 20
3099.1034974946
 30
0.0
 11
2457.4150864402
 21
2985.4804965343
 31
0.0
  0
LINE
  5
CC
330
74
100
AcDbEntity
  8
0
  6
Continuous
 62
   179
100
AcDbLine
 10
2457.4150864402
 20
2985.4804965343
 30
0.0
 11
2562.4777930784
 21
2863.0062246075
 31
0.0
  0
LINE
  5
CD
330
74
100
AcDbEntity
  8
0
  6
Continuous
 62
   179
100
AcDbLine
 10
2562.4777930784
 20
2863.0062246075
 30
0.0
 11
2654.9628244148
 21
2730.8077708033
 31
0.0
  0
LINE
  5
CE
330
74
100
AcDbEntity
  8
0
  6
Continuous
 62
   179
100
AcDbLine
 10
2654.9628244148
 20
2730.8077708033
 30
0.0
 11
2730.9070108725
 21
2588.5028322591
 31
0.0
  0
LINE
  5
CF
330
74
100
AcDbEntity
  8
0
  6
Continuous
 62
   179
100
AcDbLine
 10
2730.9070108725
 20
2588.5028322591
 30
0.0
 11
2787.6392767372
 21
2429.3959416825
 31
0.0
  0
LINE
  5
D0
330
74
100
AcDbEntity
  8
0
  6
Continuous
 62
   179
100
AcDbLine
 10
2787.6392767372
 20
2429.3959416825
 30
0.0
 11
2816.0412804487
 21
2262.9265767885
 31
0.0
  0
LINE
  5
D1
330
74
100
AcDbEntity
  8
0
  6
Continuous
 62
   179
100
AcDbLine
 10
2816.0412804487
 20
2262.9265767885
 30
0.0
 11
2813.3943732
 21
2094.0797010946
 31
0.0
  0
LINE
  5
D2
330
74
100
AcDbEntity
  8
0
  6
Continuous
 62
   179
100
AcDbLine
 10
2171.3892056002
 20
1438.629399097
 30
0.0
 11
2081.3271648151
 21
1444.5220285234
 31
0.0
  0
LINE
  5
D3
330
74
100
AcDbEntity
  8
0
  6
Continuous
 62
   179
100
AcDbLine
 10
2081.3271648151
 20
1444.5220285234
 30
0.0
 11
1993.3677378413
 21
1464.5260106363
 31
0.0
  0
LINE
  5
D4
330
74
100
AcDbEntity
  8
0
  6
Continuous
 62
   179
100
AcDbLine
 10
1993.3677378413
 20
1464.5260106363
 30
0.0
 11
1911.3435803354
 21
1501.9115152047
 31
0.0
  0
LINE
  5
D5
330
74
100
AcDbEntity
  8
0
  6
Continuous
 62
   179
100
AcDbLine
 10
1911.3435803354
 20
1501.9115152047
 30
0.0
 11
1840.5450992733
 21
1557.6494251181
 31
0.0
  0
LINE
  5
D6
330
74
100
AcDbEntity
  8
0
  6
Continuous
 62
   179
100
AcDbLine
 10
1840.5450992733
 20
1557.6494251181
 30
0.0
 11
1785.0445168711
 21
1628.6751044787
 31
0.0
  0
LINE
  5
D7
330
74
100
AcDbEntity
  8
0
  6
Continuous
 62
   179
100
AcDbLine
 10
1785.0445168711
 20
1628.6751044787
 30
0.0
 11
1745.2817682865
 21
1709.6405469696
 31
0.0
  0
LINE
  5
D8
330
74
100
AcDbEntity
  8
0
  6
Continuous
 62
   179
100
AcDbLine
 10
1745.2817682865
 20
1709.6405469696
 30
0.0
 11
1710.0353127013
 21
1840.2386565146
 31
0.0
  0
LINE
  5
D9
330
74
100
AcDbEntity
  8
0
  6
Continuous
 62
   179
100
AcDbLine
 10
1710.0353127013
 20
1840.2386565146
 30
0.0
 11
1696.0216688059
 21
1974.8977537186
 31
0.0
  0
LINE
  5
DA
330
74
100
AcDbEntity
  8
0
  6
Continuous
 62
   179
100
AcDbLine
 10
1696.0216688059
 20
1974.8977537186
 30
0.0
 11
1696.5924840549
 21
2110.3283975811
 31
0.0
  0
LINE
  5
DB
330
74
100
AcDbEntity
  8
0
  6
Continuous
 62
   179
100
AcDbLine
 10
1696.5924840549
 20
2110.3283975811
 30
0.0
 11
1707.5320688
 21
2245.3374630946
 31
0.0
  0
LINE
  5
DC
330
74
100
AcDbEntity
  8
0
  6
Continuous
 62
   179
100
AcDbLine
 10
1707.5320688
 20
2245.3374630946
 30
0.0
 11
1781.480308
 21
2897.4264814946
 31
0.0
  0
LINE
  5
DD
330
74
100
AcDbEntity
  8
0
  6
Continuous
 62
   179
100
AcDbLine
 10
1781.480308
 20
2897.4264814946
 30
0.0
 11
94.1159408
 21
2897.4264814946
 31
0.0
  0
LINE
  5
DE
330
74
100
AcDbEntity
  8
0
  6
Continuous
 62
   179
100
AcDbLine
 10
94.1159408
 20
2897.4264814946
 30
0.0
 11
26.8902688
 21
2295.7567170946
 31
0.0
  0
LINE
  5
DF
330
74
100
AcDbEntity
  8
0
  6
Continuous
 62
   179
100
AcDbLine
 10
26.8902688
 20
2295.7567170946
 30
0.0
 11
5.8201226117
 21
2068.3689705604
 31
0.0
  0
LINE
  5
E0
330
74
100
AcDbEntity
  8
0
  6
Continuous
 62
   179
100
AcDbLine
 10
5.8201226117
 20
2068.3689705604
 30
0.0
 11
0.0
 21
1889.0414014946
 31
0.0
  0
LINE
  5
E1
330
74
100
AcDbEntity
  8
0
  6
Continuous
 62
   179
100
AcDbLine
 10
0.0
 20
1889.0414014946
 30
0.0
 11
0.0
 21
1788.2028934946
 31
0.0
  0
LINE
  5
E2
330
74
100
AcDbEntity
  8
0
  6
Continuous
 62
   179
100
AcDbLine
 10
0.0
 20
1788.2028934946
 30
0.0
 11
8.4741181851
 21
1597.5992610857
 31
0.0
  0
LINE
  5
E3
330
74
100
AcDbEntity
  8
0
  6
Continuous
 62
   179
100
AcDbLine
 10
8.4741181851
 20
1597.5992610857
 30
0.0
 11
29.9475321698
 21
1408.0255515191
 31
0.0
  0
LINE
  5
E4
330
74
100
AcDbEntity
  8
0
  6
Continuous
 62
   179
100
AcDbLine
 10
29.9475321698
 20
1408.0255515191
 30
0.0
 11
66.5196177454
 21
1220.7936775914
 31
0.0
  0
LINE
  5
E5
330
74
100
AcDbEntity
  8
0
  6
Continuous
 62
   179
100
AcDbLine
 10
66.5196177454
 20
1220.7936775914
 30
0.0
 11
120.5660601196
 21
1037.8592313249
 31
0.0
  0
LINE
  5
E6
330
74
100
AcDbEntity
  8
0
  6
Continuous
 62
   179
100
AcDbLine
 10
120.5660601196
 20
1037.8592313249
 30
0.0
 11
194.3311383855
 21
861.9730900702
 31
0.0
  0
LINE
  5
E7
330
74
100
AcDbEntity
  8
0
  6
Continuous
 62
   179
100
AcDbLine
 10
194.3311383855
 20
861.9730900702
 30
0.0
 11
287.5295606573
 21
699.5021482411
 31
0.0
  0
LINE
  5
E8
330
74
100
AcDbEntity
  8
0
  6
Continuous
 62
   179
100
AcDbLine
 10
287.5295606573
 20
699.5021482411
 30
0.0
 11
401.5974373649
 21
550.9580491856
 31
0.0
  0
LINE
  5
E9
330
74
100
AcDbEntity
  8
0
  6
Continuous
 62
   179
100
AcDbLine
 10
401.5974373649
 20
550.9580491856
 30
0.0
 11
535.1901037299
 21
419.6995230367
 31
0.0
  0
LINE
  5
EA
330
74
100
AcDbEntity
  8
0
  6
Continuous
 62
   179
100
AcDbLine
 10
535.1901037299
 20
419.6995230367
 30
0.0
 11
685.4525519751
 21
307.8901613371
 31
0.0
  0
LINE
  5
EB
330
74
100
AcDbEntity
  8
0
  6
Continuous
 62
   179
100
AcDbLine
 10
685.4525519751
 20
307.8901613371
 30
0.0
 11
880.9909831936
 21
200.7980430706
 31
0.0
  0
LINE
  5
EC
330
74
100
AcDbEntity
  8
0
  6
Continuous
 62
   179
100
AcDbLine
 10
880.9909831936
 20
200.7980430706
 30
0.0
 11
1088.9648544967
 21
120.3523112471
 31
0.0
  0
LINE
  5
ED
330
74
100
AcDbEntity
  8
0
  6
Continuous
 62
   179
100
AcDbLine
 10
1088.9648544967
 20
120.3523112471
 30
0.0
 11
1304.5983771836
 21
63.4027511638
 31
0.0
  0
LINE
  5
EE
330
74
100
AcDbEntity
  8
0
  6
Continuous
 62
   179
100
AcDbLine
 10
1304.5983771836
 20
63.4027511638
 30
0.0
 11
1524.5667113278
 21
26.4353113751
 31
0.0
  0
LINE
  5
EF
330
74
100
AcDbEntity
  8
0
  6
Continuous
 62
   179
100
AcDbLine
 10
1524.5667113278
 20
26.4353113751
 30
0.0
 11
1746.7181907984
 21
6.2021311101
 31
0.0
  0
LINE
  5
F0
330
74
100
AcDbEntity
  8
0
  6
Continuous
 62
   179
100
AcDbLine
 10
1746.7181907984
 20
6.2021311101
 30
0.0
 11
1969.7121896
 21
0.0000182946
 31
0.0
  0
LINE
  5
F1
330
74
100
AcDbEntity
  8
0
  6
Continuous
 62
   179
100
AcDbLine
 10
1969.7121896
 20
0.0000182946
 30
0.0
 11
2235.4163107967
 21
9.0474941519
 31
0.0
  0
LINE
  5
F2
330
74
100
AcDbEntity
  8
0
  6
Continuous
 62
   179
100
AcDbLine
 10
2235.4163107967
 20
9.0474941519
 30
0.0
 11
2499.6874650753
 21
37.9033605802
 31
0.0
  0
LINE
  5
F3
330
74
100
AcDbEntity
  8
0
  6
Continuous
 62
   179
100
AcDbLine
 10
2499.6874650753
 20
37.9033605802
 30
0.0
 11
2760.5117042792
 21
89.204615755
 31
0.0
  0
LINE
  5
F4
330
74
100
AcDbEntity
  8
0
  6
Continuous
 62
   179
100
AcDbLine
 10
2760.5117042792
 20
89.204615755
 30
0.0
 11
3015.1415277313
 21
165.4438899665
 31
0.0
  0
LINE
  5
F5
330
74
100
AcDbEntity
  8
0
  6
Continuous
 62
   179
100
AcDbLine
 10
3015.1415277313
 20
165.4438899665
 30
0.0
 11
3208.6236023082
 21
244.1201341123
 31
0.0
  0
LINE
  5
F6
330
74
100
AcDbEntity
  8
0
  6
Continuous
 62
   179
100
AcDbLine
 10
3208.6236023082
 20
244.1201341123
 30
0.0
 11
3394.246790929
 21
339.8610540042
 31
0.0
  0
LINE
  5
F7
330
74
100
AcDbEntity
  8
0
  6
Continuous
 62
   179
100
AcDbLine
 10
3394.246790929
 20
339.8610540042
 30
0.0
 11
3570.08287903
 21
452.5651803685
 31
0.0
  0
LINE
  5
F8
330
74
100
AcDbEntity
  8
0
  6
Continuous
 62
   179
100
AcDbLine
 10
3570.08287903
 20
452.5651803685
 30
0.0
 11
3734.3860796
 21
581.5020810946
 31
0.0
  0
LINE
  5
F9
330
74
100
AcDbEntity
  8
0
  6
Continuous
 62
   179
100
AcDbLine
 10
3734.3860796
 20
581.5020810946
 30
0.0
 11
3918.9619613187
 21
762.6068684982
 31
0.0
  0
LINE
  5
FA
330
74
100
AcDbEntity
  8
0
  6
Continuous
 62
   179
100
AcDbLine
 10
3918.9619613187
 20
762.6068684982
 30
0.0
 11
4080.6115034165
 21
964.4332031658
 31
0.0
  0
LINE
  5
FB
330
74
100
AcDbEntity
  8
0
  6
Continuous
 62
   179
100
AcDbLine
 10
4080.6115034165
 20
964.4332031658
 30
0.0
 11
4217.129324297
 21
1184.0491590435
 31
0.0
  0
LINE
  5
FC
330
74
100
AcDbEntity
  8
0
  6
Continuous
 62
   179
100
AcDbLine
 10
4217.129324297
 20
1184.0491590435
 30
0.0
 11
4327.807798901
 21
1417.7744861233
 31
0.0
  0
LINE
  5
FD
330
74
100
AcDbEntity
  8
0
  6
Continuous
 62
   179
100
AcDbLine
 10
4327.807798901
 20
1417.7744861233
 30
0.0
 11
4416.8403522579
 21
1673.6616360853
 31
0.0
  0
LINE
  5
FE
330
74
100
AcDbEntity
  8
0
  6
Continuous
 62
   179
100
AcDbLine
 10
4416.8403522579
 20
1673.6616360853
 30
0.0
 11
4480.332478423
 21
1937.0776350384
 31
0.0
  0
LINE
  5
FF
330
74
100
AcDbEntity
  8
0
  6
Continuous
 62
   179
100
AcDbLine
 10
4480.332478423
 20
1937.0776350384
 30
0.0
 11
4520.926442
 21
2205.0020598946
 31
0.0
  0
LINE
  5
100
330
74
100
AcDbEntity
  8
0
  6
Continuous
 62
   179
100
AcDbLine
 10
4520.926442
 20
2205.0020598946
 30
0.0
 11
4539.8604791128
 21
2434.751251137
 31
0.0
  0
LINE
  5
101
330
74
100
AcDbEntity
  8
0
  6
Continuous
 62
   179
100
AcDbLine
 10
4539.8604791128
 20
2434.751251137
 30
0.0
 11
4542.0136171636
 21
2665.2555763504
 31
0.0
  0
LINE
  5
102
330
74
100
AcDbEntity
  8
0
  6
Continuous
 62
   179
100
AcDbLine
 10
4542.0136171636
 20
2665.2555763504
 30
0.0
 11
4524.9874932226
 21
2895.1234497405
 31
0.0
  0
LINE
  5
103
330
74
100
AcDbEntity
  8
0
  6
Continuous
 62
   179
100
AcDbLine
 10
4524.9874932226
 20
2895.1234497405
 30
0.0
 11
4496.6310776622
 21
3074.0098021703
 31
0.0
  0
LINE
  5
104
330
74
100
AcDbEntity
  8
0
  6
Continuous
 62
   179
100
AcDbLine
 10
4496.6310776622
 20
3074.0098021703
 30
0.0
 11
4454.0379981851
 21
3250.0430485054
 31
0.0
  0
LINE
  5
105
330
74
100
AcDbEntity
  8
0
  6
Continuous
 62
   179
100
AcDbLine
 10
4454.0379981851
 20
3250.0430485054
 30
0.0
 11
4396.5589488
 21
3421.7867230946
 31
0.0
  0
LINE
  5
106
330
74
100
AcDbEntity
  8
0
  6
Continuous
 62
   179
100
AcDbLine
 10
4396.5589488
 20
3421.7867230946
 30
0.0
 11
4335.0775798529
 21
3551.3591107413
 31
0.0
  0
LINE
  5
107
330
74
100
AcDbEntity
  8
0
  6
Continuous
 62
   179
100
AcDbLine
 10
4335.0775798529
 20
3551.3591107413
 30
0.0
 11
4262.2002057756
 21
3674.9188547719
 31
0.0
  0
LINE
  5
108
330
74
100
AcDbEntity
  8
0
  6
Continuous
 62
   179
100
AcDbLine
 10
4262.2002057756
 20
3674.9188547719
 30
0.0
 11
4181.3183894369
 21
3793.4113089372
 31
0.0
  0
LINE
  5
109
330
74
100
AcDbEntity
  8
0
  6
Continuous
 62
   179
100
AcDbLine
 10
4181.3183894369
 20
3793.4113089372
 30
0.0
 11
4078.5227471571
 21
3927.6643628842
 31
0.0
  0
LINE
  5
10A
330
74
100
AcDbEntity
  8
0
  6
Continuous
 62
   179
100
AcDbLine
 10
4078.5227471571
 20
3927.6643628842
 30
0.0
 11
3969.6759316
 21
4057.0693234946
 31
0.0
  0
LINE
  5
10B
330
74
100
AcDbEntity
  8
0
  6
Continuous
 62
   179
100
AcDbLine
 10
3969.6759316
 20
4057.0693234946
 30
0.0
 11
3243.638674
 21
4803.2742826946
 31
0.0
  0
LINE
  5
10C
330
74
100
AcDbEntity
  8
0
  6
Continuous
 62
   179
100
AcDbLine
 10
2467.1821623981
 20
5616.7049138995
 30
0.0
 11
2391.5759134121
 21
5727.7039441288
 31
0.0
  0
LINE
  5
10D
330
74
100
AcDbEntity
  8
0
  6
Continuous
 62
   179
100
AcDbLine
 10
2391.5759134121
 20
5727.7039441288
 30
0.0
 11
2326.9023872324
 21
5845.3828817498
 31
0.0
  0
LINE
  5
10E
330
74
100
AcDbEntity
  8
0
  6
Continuous
 62
   179
100
AcDbLine
 10
2326.9023872324
 20
5845.3828817498
 30
0.0
 11
2276.7855321171
 21
5969.9206549293
 31
0.0
  0
LINE
  5
10F
330
74
100
AcDbEntity
  8
0
  6
Continuous
 62
   179
100
AcDbLine
 10
2276.7855321171
 20
5969.9206549293
 30
0.0
 11
2250.5432565423
 21
6072.0904771882
 31
0.0
  0
LINE
  5
110
330
74
100
AcDbEntity
  8
0
  6
Continuous
 62
   179
100
AcDbLine
 10
2250.5432565423
 20
6072.0904771882
 30
0.0
 11
2238.3532498759
 21
6176.8496579539
 31
0.0
  0
LINE
  5
111
330
74
100
AcDbEntity
  8
0
  6
Continuous
 62
   179
100
AcDbLine
 10
2238.3532498759
 20
6176.8496579539
 30
0.0
 11
2241.9761612
 21
6282.2390666946
 31
0.0
  0
LINE
  5
112
330
74
100
AcDbEntity
  8
0
  6
Continuous
 62
   179
100
AcDbLine
 10
2813.394373201
 20
6877.1862638961
 30
0.0
 11
2899.1450330725
 21
6871.9159884789
 31
0.0
  0
LINE
  5
113
330
74
100
AcDbEntity
  8
0
  6
Continuous
 62
   179
100
AcDbLine
 10
2899.1450330725
 20
6871.9159884789
 30
0.0
 11
2983.1458702521
 21
6854.0846279821
 31
0.0
  0
LINE
  5
114
330
74
100
AcDbEntity
  8
0
  6
Continuous
 62
   179
100
AcDbLine
 10
2983.1458702521
 20
6854.0846279821
 30
0.0
 11
3062.202014936
 21
6820.6931120196
 31
0.0
  0
LINE
  5
115
330
74
100
AcDbEntity
  8
0
  6
Continuous
 62
   179
100
AcDbLine
 10
3062.202014936
 20
6820.6931120196
 30
0.0
 11
3131.6623634801
 21
6770.3629356214
 31
0.0
  0
LINE
  5
116
330
74
100
AcDbEntity
  8
0
  6
Continuous
 62
   179
100
AcDbLine
 10
3131.6623634801
 20
6770.3629356214
 30
0.0
 11
3187.37124796
 21
6705.1184696235
 31
0.0
  0
LINE
  5
117
330
74
100
AcDbEntity
  8
0
  6
Continuous
 62
   179
100
AcDbLine
 10
3187.37124796
 20
6705.1184696235
 30
0.0
 11
3228.1274776793
 21
6629.5646068072
 31
0.0
  0
LINE
  5
118
330
74
100
AcDbEntity
  8
0
  6
Continuous
 62
   179
100
AcDbLine
 10
3228.1274776793
 20
6629.5646068072
 30
0.0
 11
3265.0334180049
 21
6506.2441361359
 31
0.0
  0
LINE
  5
119
330
74
100
AcDbEntity
  8
0
  6
Continuous
 62
   179
100
AcDbLine
 10
3265.0334180049
 20
6506.2441361359
 30
0.0
 11
3280.3602104272
 21
6378.3104742822
 31
0.0
  0
LINE
  5
11A
330
74
100
AcDbEntity
  8
0
  6
Continuous
 62
   179
100
AcDbLine
 10
3280.3602104272
 20
6378.3104742822
 30
0.0
 11
3280.7520241623
 21
6249.4122034737
 31
0.0
  0
LINE
  5
11B
330
74
100
AcDbEntity
  8
0
  6
Continuous
 62
   179
100
AcDbLine
 10
3280.7520241623
 20
6249.4122034737
 30
0.0
 11
3270.5289428
 21
6120.8974538946
 31
0.0
  0
LINE
  5
11C
330
74
100
AcDbEntity
  8
0
  6
Continuous
 62
   179
100
AcDbLine
 10
3270.5289428
 20
6120.8974538946
 30
0.0
 11
3206.6645544
 21
5566.2856598946
 31
0.0
  0
LINE
  5
11D
330
74
100
AcDbEntity
  8
0
  6
Continuous
 62
   179
100
AcDbLine
 10
3206.6645544
 20
5566.2856598946
 30
0.0
 11
4820.0806824005
 21
5566.2856598945
 31
0.0
  0
LINE
  5
11E
330
74
100
AcDbEntity
  8
0
  6
Continuous
 62
   179
100
AcDbLine
 10
4820.0806824005
 20
5566.2856598945
 30
0.0
 11
4894.0289216005
 21
6231.8198126945
 31
0.0
  0
LINE
  5
11F
330
74
100
AcDbEntity
  8
0
  6
Continuous
 62
   179
100
AcDbLine
 10
4894.0289216005
 20
6231.8198126945
 30
0.0
 11
4907.4740560005
 21
6366.2711566946
 31
0.0
  0
LINE
  5
120
330
74
100
AcDbEntity
  8
0
  6
Continuous
 62
   179
100
AcDbLine
 10
4907.4740560005
 20
6366.2711566946
 30
0.0
 11
4917.4861623745
 21
6641.1377165616
 31
0.0
  0
LINE
  5
121
330
74
100
AcDbEntity
  8
0
  6
Continuous
 62
   179
100
AcDbLine
 10
4917.4861623745
 20
6641.1377165616
 30
0.0
 11
4907.4740560005
 21
6857.0185622947
 31
0.0
  0
LINE
  5
122
330
74
100
AcDbEntity
  8
0
  6
Continuous
 62
   179
100
AcDbLine
 10
24964.5491205926
 20
0.0000125144
 30
0.0
 11
26583.7619200447
 21
0.0000125144
 31
0.0
  0
LINE
  5
123
330
74
100
AcDbEntity
  8
0
  6
Continuous
 62
   179
100
AcDbLine
 10
24964.5491205926
 20
1424.0948297115
 30
0.0
 11
24964.5491205926
 21
0.0000125144
 31
0.0
  0
LINE
  5
124
330
74
100
AcDbEntity
  8
0
  6
Continuous
 62
   179
100
AcDbLine
 10
25016.6135325926
 20
7008.8707569115
 30
0.0
 11
24971.491042193
 21
3444.1940153109
 31
0.0
  0
LINE
  5
125
330
74
100
AcDbEntity
  8
0
  6
Continuous
 62
   179
100
AcDbLine
 10
24180.1119797926
 20
3343.5361521115
 30
0.0
 11
25016.6135325926
 21
7008.8707569115
 31
0.0
  0
LINE
  5
126
330
74
100
AcDbEntity
  8
0
  6
Continuous
 62
   179
100
AcDbLine
 10
23399.1457997926
 20
0.0000125144
 30
0.0
 11
23791.3643701938
 21
1694.8297721102
 31
0.0
  0
LINE
  5
127
330
74
100
AcDbEntity
  8
0
  6
Continuous
 62
   179
100
AcDbLine
 10
21618.5429093926
 20
0.0000125144
 30
0.0
 11
23399.1457997926
 21
0.0000125144
 31
0.0
  0
LINE
  5
128
330
74
100
AcDbEntity
  8
0
  6
Continuous
 62
   179
100
AcDbLine
 10
23986.756270993
 20
8289.6552921115
 30
0.0
 11
21618.5429093926
 21
0.0000125144
 31
0.0
  0
LINE
  5
129
330
74
100
AcDbEntity
  8
0
  6
Continuous
 62
   179
100
AcDbLine
 10
26353.951536593
 20
8289.6552921115
 30
0.0
 11
23986.756270993
 21
8289.6552921115
 31
0.0
  0
LINE
  5
12A
330
74
100
AcDbEntity
  8
0
  6
Continuous
 62
   179
100
AcDbLine
 10
26583.7619200447
 20
0.0000125144
 30
0.0
 11
26353.951536593
 21
8289.6552921115
 31
0.0
  0
ENDBLK
  5
76
330
74
100
AcDbEntity
  8
0
100
AcDbBlockEnd
  0
BLOCK
  5
12C
330
12B
100
AcDbEntity
  8
0
100
AcDbBlockBegin
  2
Projekciju vaizdavimas
 70
     0
 10
0.0
 20
0.0
 30
0.0
  3
Projekciju vaizdavimas
  1

  0
CIRCLE
  5
12E
330
12B
100
AcDbEntity
  8
0
  6
Continuous
 62
     7
370
    35
100
AcDbCircle
 10
0.0
 20
0.0
 30
0.0
 40
3.5
  0
CIRCLE
  5
12F
330
12B
100
AcDbEntity
  8
0
  6
Continuous
 62
     7
370
    35
100
AcDbCircle
 10
0.0
 20
0.0
 30
0.0
 40
1.5
  0
LINE
  5
130
330
12B
100
AcDbEntity
  8
0
  6
CENTERX2
 62
     7
370
    18
100
AcDbLine
 10
4.5
 20
0.0
 30
0.0
 11
-14.5
 21
0.0
 31
0.0
  0
LINE
  5
131
330
12B
100
AcDbEntity
  8
0
  6
Continuous
 62
     7
370
    35
100
AcDbLine
 10
-13.5
 20
1.5
 30
0.0
 11
-13.5
 21
-1.5
 31
0.0
  0
LINE
  5
132
330
12B
100
AcDbEntity
  8
0
  6
Continuous
 62
     7
370
    35
100
AcDbLine
 10
-13.5
 20
-1.5
 30
0.0
 11
-6.5
 21
-3.5
 31
0.0
  0
LINE
  5
133
330
12B
100
AcDbEntity
  8
0
  6
Continuous
 62
     7
370
    35
100
AcDbLine
 10
-6.5
 20
-3.5
 30
0.0
 11
-6.5
 21
3.5
 31
0.0
  0
LINE
  5
134
330
12B
100
AcDbEntity
  8
0
  6
Continuous
 62
     7
370
    35
100
AcDbLine
 10
-6.5
 20
3.5
 30
0.0
 11
-13.5
 21
1.5
 31
0.0
  0
LINE
  5
135
330
12B
100
AcDbEntity
  8
0
  6
CENTERX2
 62
     7
370
    18
100
AcDbLine
 10
0.0
 20
4.5
 30
0.0
 11
0.0
 21
-4.5
 31
0.0
  0
ENDBLK
  5
12D
330
12B
100
AcDbEntity
  8
0
100
AcDbBlockEnd
  0
BLOCK
  5
137
330
136
100
AcDbEntity
  8
0
100
AcDbBlockBegin
  2
Block1_1
 70
     0
 10
0.0
 20
0.0
 30
0.0
  3
Block1_1
  1

  0
ARC
  5
139
330
136
100
AcDbEntity
  8
0
  6
Continuous
 62
   179
100
AcDbCircle
 10
7867.6649029635
 20
2430.1355419087
 30
0.0
 40
931.6078627493895
100
AcDbArc
 50
232.1189098069
 51
101.3462704492
  0
ARC
  5
13A
330
136
100
AcDbEntity
  8
0
  6
Continuous
 62
   179
100
AcDbCircle
 10
7943.5514462269
 20
2435.9613946537
 30
0.0
 40
1140.079096555486
100
AcDbArc
 50
297.434182935
 51
62.17203318890002
  0
ARC
  5
13B
330
136
100
AcDbEntity
  8
0
  6
Continuous
 62
   179
100
AcDbCircle
 10
20001.4103066854
 20
6936.2583481763
 30
0.0
 40
1270.831290716854
100
AcDbArc
 50
3.4391112699
 51
76.4197578922
  0
ARC
  5
13C
330
136
100
AcDbEntity
  8
0
  6
Continuous
 62
   179
100
AcDbCircle
 10
19239.4822949422
 20
3782.0667000728
 30
0.0
 40
4515.74411667143
100
AcDbArc
 50
76.4197578923
 51
91.6754644339
  0
ARC
  5
13D
330
136
100
AcDbEntity
  8
0
  6
Continuous
 62
   179
100
AcDbCircle
 10
18683.9539720184
 20
2160.1911622497
 30
0.0
 40
2139.476369555804
100
AcDbArc
 50
270.3210228954001
 51
307.7127911617
  0
ARC
  5
13E
330
136
100
AcDbEntity
  8
0
  6
Continuous
 62
   179
100
AcDbCircle
 10
18746.0422061702
 20
1962.8216117468
 30
0.0
 40
1946.678009873842
100
AcDbArc
 50
309.8210667380999
 51
331.7017265911999
  0
ARC
  5
13F
330
136
100
AcDbEntity
  8
0
  6
Continuous
 62
   179
100
AcDbCircle
 10
17863.1917469523
 20
2438.1532894658
 30
0.0
 40
2949.35698999881
100
AcDbArc
 50
331.7017265911999
 51
356.0927915539
  0
ARC
  5
140
330
136
100
AcDbEntity
  8
0
  6
Continuous
 62
   179
100
AcDbCircle
 10
16755.7856245826
 20
6709.226497343
 30
0.0
 40
4524.342739831098
100
AcDbArc
 50
353.5830630921
 51
3.8434115591
  0
ARC
  5
141
330
136
100
AcDbEntity
  8
0
  6
Continuous
 62
   179
100
AcDbCircle
 10
19039.3213693035
 20
6348.9928357667
 30
0.0
 40
506.1072723730909
100
AcDbArc
 50
52.45518083769999
 51
82.2716960779
  0
ARC
  5
142
330
136
100
AcDbEntity
  8
0
  6
Continuous
 62
   179
100
AcDbCircle
 10
19108.0528552878
 20
6495.6270812425
 30
0.0
 40
349.7025539282703
100
AcDbArc
 50
10.4012874263
 51
46.7340603611
  0
ARC
  5
143
330
136
100
AcDbEntity
  8
0
  6
Continuous
 62
   179
100
AcDbCircle
 10
17417.0070420698
 20
6262.2496105517
 30
0.0
 40
2056.490362340239
100
AcDbArc
 50
355.475249592
 51
8.290034904
  0
ARC
  5
144
330
136
100
AcDbEntity
  8
0
  6
Continuous
 62
   179
100
AcDbCircle
 10
16921.0810184775
 20
2478.8840573259
 30
0.0
 40
2122.330793892779
100
AcDbArc
 50
339.2065439429
 51
352.3366543813
  0
ARC
  5
145
330
136
100
AcDbEntity
  8
0
  6
Continuous
 62
   179
100
AcDbCircle
 10
18500.143747488
 20
1898.8589115903
 30
0.0
 40
440.5904503964751
100
AcDbArc
 50
293.838270217
 51
336.8232513296001
  0
ARC
  5
146
330
136
100
AcDbEntity
  8
0
  6
Continuous
 62
   179
100
AcDbCircle
 10
18201.1477532386
 20
2813.3138324813
 30
0.0
 40
1401.173285533761
100
AcDbArc
 50
267.1686990927
 51
289.9057704419
  0
ARC
  5
147
330
136
100
AcDbEntity
  8
0
  6
Continuous
 62
   179
100
AcDbCircle
 10
18751.2701169541
 20
4514.9970927066
 30
0.0
 40
2362.499275286643
100
AcDbArc
 50
81.3304997955
 51
90.0
  0
ARC
  5
148
330
136
100
AcDbEntity
  8
0
  6
Continuous
 62
   179
100
AcDbCircle
 10
6720.6044375296
 20
9296.0579653158
 30
0.0
 40
7520.148763137153
100
AcDbArc
 50
220.017667739
 51
227.0143029097
  0
ARC
  5
149
330
136
100
AcDbEntity
  8
0
  6
Continuous
 62
   179
100
AcDbCircle
 10
2021.3892535935
 20
2163.6755564521
 30
0.0
 40
795.0570373035339
100
AcDbArc
 50
316.8708555891
 51
354.9781479006
  0
ARC
  5
14A
330
136
100
AcDbEntity
  8
0
  6
Continuous
 62
   179
100
AcDbCircle
 10
2182.9124170468
 20
2011.9889486322
 30
0.0
 40
573.4753329004777
100
AcDbArc
 50
268.8486412909
 51
316.8986890901
  0
ARC
  5
14B
330
136
100
AcDbEntity
  8
0
  6
Continuous
 62
   179
100
AcDbCircle
 10
10525.696072633
 20
12531.6259047731
 30
0.0
 40
10618.65239809051
100
AcDbArc
 50
220.6325257886
 51
226.7030345034
  0
ARC
  5
14C
330
136
100
AcDbEntity
  8
0
  6
Continuous
 62
   179
100
AcDbCircle
 10
2962.700769446
 20
6223.5867799529
 30
0.0
 40
723.1072200381735
100
AcDbArc
 50
137.8203941731
 51
175.3475443105
  0
ARC
  5
14D
330
136
100
AcDbEntity
  8
0
  6
Continuous
 62
   179
100
AcDbCircle
 10
2808.3239355685
 20
6360.2864243508
 30
0.0
 40
516.9247077280753
100
AcDbArc
 50
89.4379852016
 51
137.5591461504
  0
ARC
  5
14E
330
136
100
AcDbEntity
  8
0
  6
Continuous
 62
   179
100
AcDbCircle
 10
24439.2811878643
 20
2435.9613946539
 30
0.0
 40
1140.079096554877
100
AcDbArc
 50
297.4341829348999
 51
62.17203318890002
  0
ARC
  5
14F
330
136
100
AcDbEntity
  8
0
  6
Continuous
 62
   179
100
AcDbCircle
 10
24363.3946446009
 20
2430.1355419089
 30
0.0
 40
931.6078627500976
100
AcDbArc
 50
232.118909807
 51
101.3462704493
  0
LINE
  5
150
330
136
100
AcDbEntity
  8
0
  6
Continuous
 62
   179
100
AcDbLine
 10
10088.0321784074
 20
0.0000125144
 30
0.0
 11
9858.2217949557
 21
8289.6552921115
 31
0.0
  0
LINE
  5
151
330
136
100
AcDbEntity
  8
0
  6
Continuous
 62
   179
100
AcDbLine
 10
9858.2217949557
 20
8289.6552921115
 30
0.0
 11
7491.0265293557
 21
8289.6552921115
 31
0.0
  0
LINE
  5
152
330
136
100
AcDbEntity
  8
0
  6
Continuous
 62
   179
100
AcDbLine
 10
7491.0265293557
 20
8289.6552921115
 30
0.0
 11
5122.8131677553
 21
0.0000125144
 31
0.0
  0
LINE
  5
153
330
136
100
AcDbEntity
  8
0
  6
Continuous
 62
   179
100
AcDbLine
 10
5122.8131677553
 20
0.0000125144
 30
0.0
 11
6903.4160581553
 21
0.0000125144
 31
0.0
  0
LINE
  5
154
330
136
100
AcDbEntity
  8
0
  6
Continuous
 62
   179
100
AcDbLine
 10
6903.4160581553
 20
0.0000125144
 30
0.0
 11
7295.6346285553
 21
1694.8297721115
 31
0.0
  0
LINE
  5
155
330
136
100
AcDbEntity
  8
0
  6
Continuous
 62
   179
100
AcDbLine
 10
7684.3822381561
 20
3343.5361521108
 30
0.0
 11
8520.8837909553
 21
7008.8707569115
 31
0.0
  0
LINE
  5
156
330
136
100
AcDbEntity
  8
0
  6
Continuous
 62
   179
100
AcDbLine
 10
8520.8837909553
 20
7008.8707569115
 30
0.0
 11
8475.7613005553
 21
3444.1940153115
 31
0.0
  0
LINE
  5
157
330
136
100
AcDbEntity
  8
0
  6
Continuous
 62
   179
100
AcDbLine
 10
8468.8193789565
 20
1424.0948297112
 30
0.0
 11
8468.8193789565
 21
0.0000125144
 31
0.0
  0
LINE
  5
158
330
136
100
AcDbEntity
  8
0
  6
Continuous
 62
   179
100
AcDbLine
 10
8468.8193789565
 20
0.0000125144
 30
0.0
 11
10088.0321784074
 21
0.0000125144
 31
0.0
  0
LINE
  5
159
330
136
100
AcDbEntity
  8
0
  6
Continuous
 62
   179
100
AcDbLine
 10
19107.4500497519
 20
8295.8802112275
 30
0.0
 11
16935.7898769541
 21
8295.8802112275
 31
0.0
  0
LINE
  5
15A
330
136
100
AcDbEntity
  8
0
  6
Continuous
 62
   179
100
AcDbLine
 10
16935.7898769541
 20
8295.8802112275
 30
0.0
 11
15991.7401521541
 21
0.0000288275
 31
0.0
  0
LINE
  5
15B
330
136
100
AcDbEntity
  8
0
  6
Continuous
 62
   179
100
AcDbLine
 10
15991.7401521541
 20
0.0000288275
 30
0.0
 11
17855.6331985541
 21
0.0000288275
 31
0.0
  0
LINE
  5
15C
330
136
100
AcDbEntity
  8
0
  6
Continuous
 62
   179
100
AcDbLine
 10
17855.6331985541
 20
0.0000288275
 30
0.0
 11
18695.9411953541
 21
20.7483744275
 31
0.0
  0
LINE
  5
15D
330
136
100
AcDbEntity
  8
0
  6
Continuous
 62
   179
100
AcDbLine
 10
20805.6935873772
 20
2237.1817154785
 30
0.0
 11
21251.7830177772
 21
6203.5737826763
 31
0.0
  0
LINE
  5
15E
330
136
100
AcDbEntity
  8
0
  6
Continuous
 62
   179
100
AcDbLine
 10
19024.4566673541
 20
2195.8666048275
 30
0.0
 11
19467.0880401544
 21
6100.0136352237
 31
0.0
  0
LINE
  5
15F
330
136
100
AcDbEntity
  8
0
  6
Continuous
 62
   179
100
AcDbLine
 10
17907.5040625541
 20
1417.8036448275
 30
0.0
 11
18131.936218492
 21
1413.8509571068
 31
0.0
  0
LINE
  5
160
330
136
100
AcDbEntity
  8
0
  6
Continuous
 62
   179
100
AcDbLine
 10
18529.9544305541
 20
6877.4963679933
 30
0.0
 11
17907.5040625541
 21
1417.8036448275
 31
0.0
  0
LINE
  5
161
330
136
100
AcDbEntity
  8
0
  6
Continuous
 62
   179
100
AcDbLine
 10
18751.2701169541
 20
6877.4963679933
 30
0.0
 11
18529.9544305541
 21
6877.4963679933
 31
0.0
  0
LINE
  5
162
330
136
100
AcDbEntity
  8
0
  6
Continuous
 62
   179
100
AcDbLine
 10
11134.6446741053
 20
0.0
 30
0.0
 11
14807.1018453053
 21
0.0
 31
0.0
  0
LINE
  5
163
330
136
100
AcDbEntity
  8
0
  6
Continuous
 62
   179
100
AcDbLine
 10
14807.1018453053
 20
0.0
 30
0.0
 11
14990.3788981053
 21
1625.287072
 31
0.0
  0
LINE
  5
164
330
136
100
AcDbEntity
  8
0
  6
Continuous
 62
   179
100
AcDbLine
 10
14990.3788981053
 20
1625.287072
 30
0.0
 11
13071.1569301053
 21
1625.287072
 31
0.0
  0
LINE
  5
165
330
136
100
AcDbEntity
  8
0
  6
Continuous
 62
   179
100
AcDbLine
 10
13071.1569301053
 20
1625.287072
 30
0.0
 11
13828.4715445053
 21
8295.8801824
 31
0.0
  0
LINE
  5
166
330
136
100
AcDbEntity
  8
0
  6
Continuous
 62
   179
100
AcDbLine
 10
13828.4715445053
 20
8295.8801824
 30
0.0
 11
12075.2363413053
 21
8295.8801824
 31
0.0
  0
LINE
  5
167
330
136
100
AcDbEntity
  8
0
  6
Continuous
 62
   179
100
AcDbLine
 10
12075.2363413053
 20
8295.8801824
 30
0.0
 11
11134.6446741053
 21
0.0
 31
0.0
  0
LINE
  5
168
330
136
100
AcDbEntity
  8
0
  6
Continuous
 62
   179
100
AcDbLine
 10
4907.4740560005
 20
6857.0185622947
 30
0.0
 11
4882.7391856278
 21
7041.1497513646
 31
0.0
  0
LINE
  5
169
330
136
100
AcDbEntity
  8
0
  6
Continuous
 62
   179
100
AcDbLine
 10
4882.7391856278
 20
7041.1497513646
 30
0.0
 11
4840.84097804
 21
7222.1279289072
 31
0.0
  0
LINE
  5
16A
330
136
100
AcDbEntity
  8
0
  6
Continuous
 62
   179
100
AcDbLine
 10
4840.84097804
 20
7222.1279289072
 30
0.0
 11
4779.230404759
 21
7397.3516386623
 31
0.0
  0
LINE
  5
16B
330
136
100
AcDbEntity
  8
0
  6
Continuous
 62
   179
100
AcDbLine
 10
4779.230404759
 20
7397.3516386623
 30
0.0
 11
4695.8753846469
 21
7563.306056288
 31
0.0
  0
LINE
  5
16C
330
136
100
AcDbEntity
  8
0
  6
Continuous
 62
   179
100
AcDbLine
 10
4695.8753846469
 20
7563.306056288
 30
0.0
 11
4590.0094760133
 21
7715.8622667097
 31
0.0
  0
LINE
  5
16D
330
136
100
AcDbEntity
  8
0
  6
Continuous
 62
   179
100
AcDbLine
 10
4590.0094760133
 20
7715.8622667097
 30
0.0
 11
4462.7758841487
 21
7851.1049960358
 31
0.0
  0
LINE
  5
16E
330
136
100
AcDbEntity
  8
0
  6
Continuous
 62
   179
100
AcDbLine
 10
4462.7758841487
 20
7851.1049960358
 30
0.0
 11
4317.19779369
 21
7966.3918164371
 31
0.0
  0
LINE
  5
16F
330
136
100
AcDbEntity
  8
0
  6
Continuous
 62
   179
100
AcDbLine
 10
4317.19779369
 20
7966.3918164371
 30
0.0
 11
4157.3549470669
 21
8060.9636993174
 31
0.0
  0
LINE
  5
170
330
136
100
AcDbEntity
  8
0
  6
Continuous
 62
   179
100
AcDbLine
 10
4157.3549470669
 20
8060.9636993174
 30
0.0
 11
3942.3832434805
 21
8152.0001345594
 31
0.0
  0
LINE
  5
171
330
136
100
AcDbEntity
  8
0
  6
Continuous
 62
   179
100
AcDbLine
 10
3942.3832434805
 20
8152.0001345594
 30
0.0
 11
3717.7379879586
 21
8215.7306159908
 31
0.0
  0
LINE
  5
172
330
136
100
AcDbEntity
  8
0
  6
Continuous
 62
   179
100
AcDbLine
 10
3717.7379879586
 20
8215.7306159908
 30
0.0
 11
3487.8010416052
 21
8256.6415379559
 31
0.0
  0
LINE
  5
173
330
136
100
AcDbEntity
  8
0
  6
Continuous
 62
   179
100
AcDbLine
 10
3487.8010416052
 20
8256.6415379559
 30
0.0
 11
3255.2826646592
 21
8278.7971759128
 31
0.0
  0
LINE
  5
174
330
136
100
AcDbEntity
  8
0
  6
Continuous
 62
   179
100
AcDbLine
 10
3255.2826646592
 20
8278.7971759128
 30
0.0
 11
3021.7939564
 21
8285.5640922951
 31
0.0
  0
LINE
  5
175
330
136
100
AcDbEntity
  8
0
  6
Continuous
 62
   179
100
AcDbLine
 10
3021.7939564
 20
8285.5640922951
 30
0.0
 11
2764.7286656624
 21
8276.8167344558
 31
0.0
  0
LINE
  5
176
330
136
100
AcDbEntity
  8
0
  6
Continuous
 62
   179
100
AcDbLine
 10
2764.7286656624
 20
8276.8167344558
 30
0.0
 11
2509.0566231212
 21
8248.8448730413
 31
0.0
  0
LINE
  5
177
330
136
100
AcDbEntity
  8
0
  6
Continuous
 62
   179
100
AcDbLine
 10
2509.0566231212
 20
8248.8448730413
 30
0.0
 11
2256.7624741697
 21
8198.9693632548
 31
0.0
  0
LINE
  5
178
330
136
100
AcDbEntity
  8
0
  6
Continuous
 62
   179
100
AcDbLine
 10
2256.7624741697
 20
8198.9693632548
 30
0.0
 11
2010.5862549102
 21
8124.6401609584
 31
0.0
  0
LINE
  5
179
330
136
100
AcDbEntity
  8
0
  6
Continuous
 62
   179
100
AcDbLine
 10
2010.5862549102
 20
8124.6401609584
 30
0.0
 11
1823.7042907144
 21
8047.7718170144
 31
0.0
  0
LINE
  5
17A
330
136
100
AcDbEntity
  8
0
  6
Continuous
 62
   179
100
AcDbLine
 10
1823.7042907144
 20
8047.7718170144
 30
0.0
 11
1644.6605427625
 21
7954.1022052786
 31
0.0
  0
LINE
  5
17B
330
136
100
AcDbEntity
  8
0
  6
Continuous
 62
   179
100
AcDbLine
 10
1644.6605427625
 20
7954.1022052786
 30
0.0
 11
1475.390327491
 21
7843.7545704421
 31
0.0
  0
LINE
  5
17C
330
136
100
AcDbEntity
  8
0
  6
Continuous
 62
   179
100
AcDbLine
 10
1475.390327491
 20
7843.7545704421
 30
0.0
 11
1317.6231711996
 21
7717.507163895
 31
0.0
  0
LINE
  5
17D
330
136
100
AcDbEntity
  8
0
  6
Continuous
 62
   179
100
AcDbLine
 10
1317.6231711996
 20
7717.507163895
 30
0.0
 11
1139.538084005
 21
7540.9583629978
 31
0.0
  0
LINE
  5
17E
330
136
100
AcDbEntity
  8
0
  6
Continuous
 62
   179
100
AcDbLine
 10
1139.538084005
 20
7540.9583629978
 30
0.0
 11
983.4661868123
 21
7344.6865403276
 31
0.0
  0
LINE
  5
17F
330
136
100
AcDbEntity
  8
0
  6
Continuous
 62
   179
100
AcDbLine
 10
983.4661868123
 20
7344.6865403276
 30
0.0
 11
851.5325681984
 21
7131.4315088069
 31
0.0
  0
LINE
  5
180
330
136
100
AcDbEntity
  8
0
  6
Continuous
 62
   179
100
AcDbLine
 10
851.5325681984
 20
7131.4315088069
 30
0.0
 11
744.4774564036
 21
6904.647070365
 31
0.0
  0
LINE
  5
181
330
136
100
AcDbEntity
  8
0
  6
Continuous
 62
   179
100
AcDbLine
 10
744.4774564036
 20
6904.647070365
 30
0.0
 11
658.3392621499
 21
6656.4327422403
 31
0.0
  0
LINE
  5
182
330
136
100
AcDbEntity
  8
0
  6
Continuous
 62
   179
100
AcDbLine
 10
658.3392621499
 20
6656.4327422403
 30
0.0
 11
596.9943576213
 21
6400.9335325463
 31
0.0
  0
LINE
  5
183
330
136
100
AcDbEntity
  8
0
  6
Continuous
 62
   179
100
AcDbLine
 10
596.9943576213
 20
6400.9335325463
 30
0.0
 11
557.9730775995
 21
6141.0651554946
 31
0.0
  0
LINE
  5
184
330
136
100
AcDbEntity
  8
0
  6
Continuous
 62
   179
100
AcDbLine
 10
557.9730775995
 20
6141.0651554946
 30
0.0
 11
538.0293793386
 21
5893.0807139359
 31
0.0
  0
LINE
  5
185
330
136
100
AcDbEntity
  8
0
  6
Continuous
 62
   179
100
AcDbLine
 10
538.0293793386
 20
5893.0807139359
 30
0.0
 11
537.9155556826
 21
5644.3161034396
 31
0.0
  0
LINE
  5
186
330
136
100
AcDbEntity
  8
0
  6
Continuous
 62
   179
100
AcDbLine
 10
537.9155556826
 20
5644.3161034396
 30
0.0
 11
561.0465619986
 21
5396.6565041751
 31
0.0
  0
LINE
  5
187
330
136
100
AcDbEntity
  8
0
  6
Continuous
 62
   179
100
AcDbLine
 10
561.0465619986
 20
5396.6565041751
 30
0.0
 11
610.8365836731
 21
5152.9862283491
 31
0.0
  0
LINE
  5
188
330
136
100
AcDbEntity
  8
0
  6
Continuous
 62
   179
100
AcDbLine
 10
610.8365836731
 20
5152.9862283491
 30
0.0
 11
670.4957765389
 21
4966.8752015955
 31
0.0
  0
LINE
  5
189
330
136
100
AcDbEntity
  8
0
  6
Continuous
 62
   179
100
AcDbLine
 10
670.4957765389
 20
4966.8752015955
 30
0.0
 11
749.0385092576
 21
4787.922755338
 31
0.0
  0
LINE
  5
18A
330
136
100
AcDbEntity
  8
0
  6
Continuous
 62
   179
100
AcDbLine
 10
749.0385092576
 20
4787.922755338
 30
0.0
 11
846.3298658912
 21
4618.4358151253
 31
0.0
  0
LINE
  5
18B
330
136
100
AcDbEntity
  8
0
  6
Continuous
 62
   179
100
AcDbLine
 10
846.3298658912
 20
4618.4358151253
 30
0.0
 11
961.3271095996
 21
4460.4233554942
 31
0.0
  0
LINE
  5
18C
330
136
100
AcDbEntity
  8
0
  6
Continuous
 62
   179
100
AcDbLine
 10
1593.2484263997
 20
3794.8892026942
 30
0.0
 11
2342.8146692
 21
3099.1034974946
 31
0.0
  0
LINE
  5
18D
330
136
100
AcDbEntity
  8
0
  6
Continuous
 62
   179
100
AcDbLine
 10
2342.8146692
 20
3099.1034974946
 30
0.0
 11
2457.4150864402
 21
2985.4804965343
 31
0.0
  0
LINE
  5
18E
330
136
100
AcDbEntity
  8
0
  6
Continuous
 62
   179
100
AcDbLine
 10
2457.4150864402
 20
2985.4804965343
 30
0.0
 11
2562.4777930784
 21
2863.0062246075
 31
0.0
  0
LINE
  5
18F
330
136
100
AcDbEntity
  8
0
  6
Continuous
 62
   179
100
AcDbLine
 10
2562.4777930784
 20
2863.0062246075
 30
0.0
 11
2654.9628244148
 21
2730.8077708033
 31
0.0
  0
LINE
  5
190
330
136
100
AcDbEntity
  8
0
  6
Continuous
 62
   179
100
AcDbLine
 10
2654.9628244148
 20
2730.8077708033
 30
0.0
 11
2730.9070108725
 21
2588.5028322591
 31
0.0
  0
LINE
  5
191
330
136
100
AcDbEntity
  8
0
  6
Continuous
 62
   179
100
AcDbLine
 10
2730.9070108725
 20
2588.5028322591
 30
0.0
 11
2787.6392767372
 21
2429.3959416825
 31
0.0
  0
LINE
  5
192
330
136
100
AcDbEntity
  8
0
  6
Continuous
 62
   179
100
AcDbLine
 10
2787.6392767372
 20
2429.3959416825
 30
0.0
 11
2816.0412804487
 21
2262.9265767885
 31
0.0
  0
LINE
  5
193
330
136
100
AcDbEntity
  8
0
  6
Continuous
 62
   179
100
AcDbLine
 10
2816.0412804487
 20
2262.9265767885
 30
0.0
 11
2813.3943732
 21
2094.0797010946
 31
0.0
  0
LINE
  5
194
330
136
100
AcDbEntity
  8
0
  6
Continuous
 62
   179
100
AcDbLine
 10
2171.3892056002
 20
1438.629399097
 30
0.0
 11
2081.3271648151
 21
1444.5220285234
 31
0.0
  0
LINE
  5
195
330
136
100
AcDbEntity
  8
0
  6
Continuous
 62
   179
100
AcDbLine
 10
2081.3271648151
 20
1444.5220285234
 30
0.0
 11
1993.3677378413
 21
1464.5260106363
 31
0.0
  0
LINE
  5
196
330
136
100
AcDbEntity
  8
0
  6
Continuous
 62
   179
100
AcDbLine
 10
1993.3677378413
 20
1464.5260106363
 30
0.0
 11
1911.3435803354
 21
1501.9115152047
 31
0.0
  0
LINE
  5
197
330
136
100
AcDbEntity
  8
0
  6
Continuous
 62
   179
100
AcDbLine
 10
1911.3435803354
 20
1501.9115152047
 30
0.0
 11
1840.5450992733
 21
1557.6494251181
 31
0.0
  0
LINE
  5
198
330
136
100
AcDbEntity
  8
0
  6
Continuous
 62
   179
100
AcDbLine
 10
1840.5450992733
 20
1557.6494251181
 30
0.0
 11
1785.0445168711
 21
1628.6751044787
 31
0.0
  0
LINE
  5
199
330
136
100
AcDbEntity
  8
0
  6
Continuous
 62
   179
100
AcDbLine
 10
1785.0445168711
 20
1628.6751044787
 30
0.0
 11
1745.2817682865
 21
1709.6405469696
 31
0.0
  0
LINE
  5
19A
330
136
100
AcDbEntity
  8
0
  6
Continuous
 62
   179
100
AcDbLine
 10
1745.2817682865
 20
1709.6405469696
 30
0.0
 11
1710.0353127013
 21
1840.2386565146
 31
0.0
  0
LINE
  5
19B
330
136
100
AcDbEntity
  8
0
  6
Continuous
 62
   179
100
AcDbLine
 10
1710.0353127013
 20
1840.2386565146
 30
0.0
 11
1696.0216688059
 21
1974.8977537186
 31
0.0
  0
LINE
  5
19C
330
136
100
AcDbEntity
  8
0
  6
Continuous
 62
   179
100
AcDbLine
 10
1696.0216688059
 20
1974.8977537186
 30
0.0
 11
1696.5924840549
 21
2110.3283975811
 31
0.0
  0
LINE
  5
19D
330
136
100
AcDbEntity
  8
0
  6
Continuous
 62
   179
100
AcDbLine
 10
1696.5924840549
 20
2110.3283975811
 30
0.0
 11
1707.5320688
 21
2245.3374630946
 31
0.0
  0
LINE
  5
19E
330
136
100
AcDbEntity
  8
0
  6
Continuous
 62
   179
100
AcDbLine
 10
1707.5320688
 20
2245.3374630946
 30
0.0
 11
1781.480308
 21
2897.4264814946
 31
0.0
  0
LINE
  5
19F
330
136
100
AcDbEntity
  8
0
  6
Continuous
 62
   179
100
AcDbLine
 10
1781.480308
 20
2897.4264814946
 30
0.0
 11
94.1159408
 21
2897.4264814946
 31
0.0
  0
LINE
  5
1A0
330
136
100
AcDbEntity
  8
0
  6
Continuous
 62
   179
100
AcDbLine
 10
94.1159408
 20
2897.4264814946
 30
0.0
 11
26.8902688
 21
2295.7567170946
 31
0.0
  0
LINE
  5
1A1
330
136
100
AcDbEntity
  8
0
  6
Continuous
 62
   179
100
AcDbLine
 10
26.8902688
 20
2295.7567170946
 30
0.0
 11
5.8201226117
 21
2068.3689705604
 31
0.0
  0
LINE
  5
1A2
330
136
100
AcDbEntity
  8
0
  6
Continuous
 62
   179
100
AcDbLine
 10
5.8201226117
 20
2068.3689705604
 30
0.0
 11
0.0
 21
1889.0414014946
 31
0.0
  0
LINE
  5
1A3
330
136
100
AcDbEntity
  8
0
  6
Continuous
 62
   179
100
AcDbLine
 10
0.0
 20
1889.0414014946
 30
0.0
 11
0.0
 21
1788.2028934946
 31
0.0
  0
LINE
  5
1A4
330
136
100
AcDbEntity
  8
0
  6
Continuous
 62
   179
100
AcDbLine
 10
0.0
 20
1788.2028934946
 30
0.0
 11
8.4741181851
 21
1597.5992610857
 31
0.0
  0
LINE
  5
1A5
330
136
100
AcDbEntity
  8
0
  6
Continuous
 62
   179
100
AcDbLine
 10
8.4741181851
 20
1597.5992610857
 30
0.0
 11
29.9475321698
 21
1408.0255515191
 31
0.0
  0
LINE
  5
1A6
330
136
100
AcDbEntity
  8
0
  6
Continuous
 62
   179
100
AcDbLine
 10
29.9475321698
 20
1408.0255515191
 30
0.0
 11
66.5196177454
 21
1220.7936775914
 31
0.0
  0
LINE
  5
1A7
330
136
100
AcDbEntity
  8
0
  6
Continuous
 62
   179
100
AcDbLine
 10
66.5196177454
 20
1220.7936775914
 30
0.0
 11
120.5660601196
 21
1037.8592313249
 31
0.0
  0
LINE
  5
1A8
330
136
100
AcDbEntity
  8
0
  6
Continuous
 62
   179
100
AcDbLine
 10
120.5660601196
 20
1037.8592313249
 30
0.0
 11
194.3311383855
 21
861.9730900702
 31
0.0
  0
LINE
  5
1A9
330
136
100
AcDbEntity
  8
0
  6
Continuous
 62
   179
100
AcDbLine
 10
194.3311383855
 20
861.9730900702
 30
0.0
 11
287.5295606573
 21
699.5021482411
 31
0.0
  0
LINE
  5
1AA
330
136
100
AcDbEntity
  8
0
  6
Continuous
 62
   179
100
AcDbLine
 10
287.5295606573
 20
699.5021482411
 30
0.0
 11
401.5974373649
 21
550.9580491856
 31
0.0
  0
LINE
  5
1AB
330
136
100
AcDbEntity
  8
0
  6
Continuous
 62
   179
100
AcDbLine
 10
401.5974373649
 20
550.9580491856
 30
0.0
 11
535.1901037299
 21
419.6995230367
 31
0.0
  0
LINE
  5
1AC
330
136
100
AcDbEntity
  8
0
  6
Continuous
 62
   179
100
AcDbLine
 10
535.1901037299
 20
419.6995230367
 30
0.0
 11
685.4525519751
 21
307.8901613371
 31
0.0
  0
LINE
  5
1AD
330
136
100
AcDbEntity
  8
0
  6
Continuous
 62
   179
100
AcDbLine
 10
685.4525519751
 20
307.8901613371
 30
0.0
 11
880.9909831936
 21
200.7980430706
 31
0.0
  0
LINE
  5
1AE
330
136
100
AcDbEntity
  8
0
  6
Continuous
 62
   179
100
AcDbLine
 10
880.9909831936
 20
200.7980430706
 30
0.0
 11
1088.9648544967
 21
120.3523112471
 31
0.0
  0
LINE
  5
1AF
330
136
100
AcDbEntity
  8
0
  6
Continuous
 62
   179
100
AcDbLine
 10
1088.9648544967
 20
120.3523112471
 30
0.0
 11
1304.5983771836
 21
63.4027511638
 31
0.0
  0
LINE
  5
1B0
330
136
100
AcDbEntity
  8
0
  6
Continuous
 62
   179
100
AcDbLine
 10
1304.5983771836
 20
63.4027511638
 30
0.0
 11
1524.5667113278
 21
26.4353113751
 31
0.0
  0
LINE
  5
1B1
330
136
100
AcDbEntity
  8
0
  6
Continuous
 62
   179
100
AcDbLine
 10
1524.5667113278
 20
26.4353113751
 30
0.0
 11
1746.7181907984
 21
6.2021311101
 31
0.0
  0
LINE
  5
1B2
330
136
100
AcDbEntity
  8
0
  6
Continuous
 62
   179
100
AcDbLine
 10
1746.7181907984
 20
6.2021311101
 30
0.0
 11
1969.7121896
 21
0.0000182946
 31
0.0
  0
LINE
  5
1B3
330
136
100
AcDbEntity
  8
0
  6
Continuous
 62
   179
100
AcDbLine
 10
1969.7121896
 20
0.0000182946
 30
0.0
 11
2235.4163107967
 21
9.0474941519
 31
0.0
  0
LINE
  5
1B4
330
136
100
AcDbEntity
  8
0
  6
Continuous
 62
   179
100
AcDbLine
 10
2235.4163107967
 20
9.0474941519
 30
0.0
 11
2499.6874650753
 21
37.9033605802
 31
0.0
  0
LINE
  5
1B5
330
136
100
AcDbEntity
  8
0
  6
Continuous
 62
   179
100
AcDbLine
 10
2499.6874650753
 20
37.9033605802
 30
0.0
 11
2760.5117042792
 21
89.204615755
 31
0.0
  0
LINE
  5
1B6
330
136
100
AcDbEntity
  8
0
  6
Continuous
 62
   179
100
AcDbLine
 10
2760.5117042792
 20
89.204615755
 30
0.0
 11
3015.1415277313
 21
165.4438899665
 31
0.0
  0
LINE
  5
1B7
330
136
100
AcDbEntity
  8
0
  6
Continuous
 62
   179
100
AcDbLine
 10
3015.1415277313
 20
165.4438899665
 30
0.0
 11
3208.6236023082
 21
244.1201341123
 31
0.0
  0
LINE
  5
1B8
330
136
100
AcDbEntity
  8
0
  6
Continuous
 62
   179
100
AcDbLine
 10
3208.6236023082
 20
244.1201341123
 30
0.0
 11
3394.246790929
 21
339.8610540042
 31
0.0
  0
LINE
  5
1B9
330
136
100
AcDbEntity
  8
0
  6
Continuous
 62
   179
100
AcDbLine
 10
3394.246790929
 20
339.8610540042
 30
0.0
 11
3570.08287903
 21
452.5651803685
 31
0.0
  0
LINE
  5
1BA
330
136
100
AcDbEntity
  8
0
  6
Continuous
 62
   179
100
AcDbLine
 10
3570.08287903
 20
452.5651803685
 30
0.0
 11
3734.3860796
 21
581.5020810946
 31
0.0
  0
LINE
  5
1BB
330
136
100
AcDbEntity
  8
0
  6
Continuous
 62
   179
100
AcDbLine
 10
3734.3860796
 20
581.5020810946
 30
0.0
 11
3918.9619613187
 21
762.6068684982
 31
0.0
  0
LINE
  5
1BC
330
136
100
AcDbEntity
  8
0
  6
Continuous
 62
   179
100
AcDbLine
 10
3918.9619613187
 20
762.6068684982
 30
0.0
 11
4080.6115034165
 21
964.4332031658
 31
0.0
  0
LINE
  5
1BD
330
136
100
AcDbEntity
  8
0
  6
Continuous
 62
   179
100
AcDbLine
 10
4080.6115034165
 20
964.4332031658
 30
0.0
 11
4217.129324297
 21
1184.0491590435
 31
0.0
  0
LINE
  5
1BE
330
136
100
AcDbEntity
  8
0
  6
Continuous
 62
   179
100
AcDbLine
 10
4217.129324297
 20
1184.0491590435
 30
0.0
 11
4327.807798901
 21
1417.7744861233
 31
0.0
  0
LINE
  5
1BF
330
136
100
AcDbEntity
  8
0
  6
Continuous
 62
   179
100
AcDbLine
 10
4327.807798901
 20
1417.7744861233
 30
0.0
 11
4416.8403522579
 21
1673.6616360853
 31
0.0
  0
LINE
  5
1C0
330
136
100
AcDbEntity
  8
0
  6
Continuous
 62
   179
100
AcDbLine
 10
4416.8403522579
 20
1673.6616360853
 30
0.0
 11
4480.332478423
 21
1937.0776350384
 31
0.0
  0
LINE
  5
1C1
330
136
100
AcDbEntity
  8
0
  6
Continuous
 62
   179
100
AcDbLine
 10
4480.332478423
 20
1937.0776350384
 30
0.0
 11
4520.926442
 21
2205.0020598946
 31
0.0
  0
LINE
  5
1C2
330
136
100
AcDbEntity
  8
0
  6
Continuous
 62
   179
100
AcDbLine
 10
4520.926442
 20
2205.0020598946
 30
0.0
 11
4539.8604791128
 21
2434.751251137
 31
0.0
  0
LINE
  5
1C3
330
136
100
AcDbEntity
  8
0
  6
Continuous
 62
   179
100
AcDbLine
 10
4539.8604791128
 20
2434.751251137
 30
0.0
 11
4542.0136171636
 21
2665.2555763504
 31
0.0
  0
LINE
  5
1C4
330
136
100
AcDbEntity
  8
0
  6
Continuous
 62
   179
100
AcDbLine
 10
4542.0136171636
 20
2665.2555763504
 30
0.0
 11
4524.9874932226
 21
2895.1234497405
 31
0.0
  0
LINE
  5
1C5
330
136
100
AcDbEntity
  8
0
  6
Continuous
 62
   179
100
AcDbLine
 10
4524.9874932226
 20
2895.1234497405
 30
0.0
 11
4496.6310776622
 21
3074.0098021703
 31
0.0
  0
LINE
  5
1C6
330
136
100
AcDbEntity
  8
0
  6
Continuous
 62
   179
100
AcDbLine
 10
4496.6310776622
 20
3074.0098021703
 30
0.0
 11
4454.0379981851
 21
3250.0430485054
 31
0.0
  0
LINE
  5
1C7
330
136
100
AcDbEntity
  8
0
  6
Continuous
 62
   179
100
AcDbLine
 10
4454.0379981851
 20
3250.0430485054
 30
0.0
 11
4396.5589488
 21
3421.7867230946
 31
0.0
  0
LINE
  5
1C8
330
136
100
AcDbEntity
  8
0
  6
Continuous
 62
   179
100
AcDbLine
 10
4396.5589488
 20
3421.7867230946
 30
0.0
 11
4335.0775798529
 21
3551.3591107413
 31
0.0
  0
LINE
  5
1C9
330
136
100
AcDbEntity
  8
0
  6
Continuous
 62
   179
100
AcDbLine
 10
4335.0775798529
 20
3551.3591107413
 30
0.0
 11
4262.2002057756
 21
3674.9188547719
 31
0.0
  0
LINE
  5
1CA
330
136
100
AcDbEntity
  8
0
  6
Continuous
 62
   179
100
AcDbLine
 10
4262.2002057756
 20
3674.9188547719
 30
0.0
 11
4181.3183894369
 21
3793.4113089372
 31
0.0
  0
LINE
  5
1CB
330
136
100
AcDbEntity
  8
0
  6
Continuous
 62
   179
100
AcDbLine
 10
4181.3183894369
 20
3793.4113089372
 30
0.0
 11
4078.5227471571
 21
3927.6643628842
 31
0.0
  0
LINE
  5
1CC
330
136
100
AcDbEntity
  8
0
  6
Continuous
 62
   179
100
AcDbLine
 10
4078.5227471571
 20
3927.6643628842
 30
0.0
 11
3969.6759316
 21
4057.0693234946
 31
0.0
  0
LINE
  5
1CD
330
136
100
AcDbEntity
  8
0
  6
Continuous
 62
   179
100
AcDbLine
 10
3969.6759316
 20
4057.0693234946
 30
0.0
 11
3243.638674
 21
4803.2742826946
 31
0.0
  0
LINE
  5
1CE
330
136
100
AcDbEntity
  8
0
  6
Continuous
 62
   179
100
AcDbLine
 10
2467.1821623981
 20
5616.7049138995
 30
0.0
 11
2391.5759134121
 21
5727.7039441288
 31
0.0
  0
LINE
  5
1CF
330
136
100
AcDbEntity
  8
0
  6
Continuous
 62
   179
100
AcDbLine
 10
2391.5759134121
 20
5727.7039441288
 30
0.0
 11
2326.9023872324
 21
5845.3828817498
 31
0.0
  0
LINE
  5
1D0
330
136
100
AcDbEntity
  8
0
  6
Continuous
 62
   179
100
AcDbLine
 10
2326.9023872324
 20
5845.3828817498
 30
0.0
 11
2276.7855321171
 21
5969.9206549293
 31
0.0
  0
LINE
  5
1D1
330
136
100
AcDbEntity
  8
0
  6
Continuous
 62
   179
100
AcDbLine
 10
2276.7855321171
 20
5969.9206549293
 30
0.0
 11
2250.5432565423
 21
6072.0904771882
 31
0.0
  0
LINE
  5
1D2
330
136
100
AcDbEntity
  8
0
  6
Continuous
 62
   179
100
AcDbLine
 10
2250.5432565423
 20
6072.0904771882
 30
0.0
 11
2238.3532498759
 21
6176.8496579539
 31
0.0
  0
LINE
  5
1D3
330
136
100
AcDbEntity
  8
0
  6
Continuous
 62
   179
100
AcDbLine
 10
2238.3532498759
 20
6176.8496579539
 30
0.0
 11
2241.9761612
 21
6282.2390666946
 31
0.0
  0
LINE
  5
1D4
330
136
100
AcDbEntity
  8
0
  6
Continuous
 62
   179
100
AcDbLine
 10
2813.394373201
 20
6877.1862638961
 30
0.0
 11
2899.1450330725
 21
6871.9159884789
 31
0.0
  0
LINE
  5
1D5
330
136
100
AcDbEntity
  8
0
  6
Continuous
 62
   179
100
AcDbLine
 10
2899.1450330725
 20
6871.9159884789
 30
0.0
 11
2983.1458702521
 21
6854.0846279821
 31
0.0
  0
LINE
  5
1D6
330
136
100
AcDbEntity
  8
0
  6
Continuous
 62
   179
100
AcDbLine
 10
2983.1458702521
 20
6854.0846279821
 30
0.0
 11
3062.202014936
 21
6820.6931120196
 31
0.0
  0
LINE
  5
1D7
330
136
100
AcDbEntity
  8
0
  6
Continuous
 62
   179
100
AcDbLine
 10
3062.202014936
 20
6820.6931120196
 30
0.0
 11
3131.6623634801
 21
6770.3629356214
 31
0.0
  0
LINE
  5
1D8
330
136
100
AcDbEntity
  8
0
  6
Continuous
 62
   179
100
AcDbLine
 10
3131.6623634801
 20
6770.3629356214
 30
0.0
 11
3187.37124796
 21
6705.1184696235
 31
0.0
  0
LINE
  5
1D9
330
136
100
AcDbEntity
  8
0
  6
Continuous
 62
   179
100
AcDbLine
 10
3187.37124796
 20
6705.1184696235
 30
0.0
 11
3228.1274776793
 21
6629.5646068072
 31
0.0
  0
LINE
  5
1DA
330
136
100
AcDbEntity
  8
0
  6
Continuous
 62
   179
100
AcDbLine
 10
3228.1274776793
 20
6629.5646068072
 30
0.0
 11
3265.0334180049
 21
6506.2441361359
 31
0.0
  0
LINE
  5
1DB
330
136
100
AcDbEntity
  8
0
  6
Continuous
 62
   179
100
AcDbLine
 10
3265.0334180049
 20
6506.2441361359
 30
0.0
 11
3280.3602104272
 21
6378.3104742822
 31
0.0
  0
LINE
  5
1DC
330
136
100
AcDbEntity
  8
0
  6
Continuous
 62
   179
100
AcDbLine
 10
3280.3602104272
 20
6378.3104742822
 30
0.0
 11
3280.7520241623
 21
6249.4122034737
 31
0.0
  0
LINE
  5
1DD
330
136
100
AcDbEntity
  8
0
  6
Continuous
 62
   179
100
AcDbLine
 10
3280.7520241623
 20
6249.4122034737
 30
0.0
 11
3270.5289428
 21
6120.8974538946
 31
0.0
  0
LINE
  5
1DE
330
136
100
AcDbEntity
  8
0
  6
Continuous
 62
   179
100
AcDbLine
 10
3270.5289428
 20
6120.8974538946
 30
0.0
 11
3206.6645544
 21
5566.2856598946
 31
0.0
  0
LINE
  5
1DF
330
136
100
AcDbEntity
  8
0
  6
Continuous
 62
   179
100
AcDbLine
 10
3206.6645544
 20
5566.2856598946
 30
0.0
 11
4820.0806824005
 21
5566.2856598945
 31
0.0
  0
LINE
  5
1E0
330
136
100
AcDbEntity
  8
0
  6
Continuous
 62
   179
100
AcDbLine
 10
4820.0806824005
 20
5566.2856598945
 30
0.0
 11
4894.0289216005
 21
6231.8198126945
 31
0.0
  0
LINE
  5
1E1
330
136
100
AcDbEntity
  8
0
  6
Continuous
 62
   179
100
AcDbLine
 10
4894.0289216005
 20
6231.8198126945
 30
0.0
 11
4907.4740560005
 21
6366.2711566946
 31
0.0
  0
LINE
  5
1E2
330
136
100
AcDbEntity
  8
0
  6
Continuous
 62
   179
100
AcDbLine
 10
4907.4740560005
 20
6366.2711566946
 30
0.0
 11
4917.4861623745
 21
6641.1377165616
 31
0.0
  0
LINE
  5
1E3
330
136
100
AcDbEntity
  8
0
  6
Continuous
 62
   179
100
AcDbLine
 10
4917.4861623745
 20
6641.1377165616
 30
0.0
 11
4907.4740560005
 21
6857.0185622947
 31
0.0
  0
LINE
  5
1E4
330
136
100
AcDbEntity
  8
0
  6
Continuous
 62
   179
100
AcDbLine
 10
24964.5491205926
 20
0.0000125144
 30
0.0
 11
26583.7619200447
 21
0.0000125144
 31
0.0
  0
LINE
  5
1E5
330
136
100
AcDbEntity
  8
0
  6
Continuous
 62
   179
100
AcDbLine
 10
24964.5491205926
 20
1424.0948297115
 30
0.0
 11
24964.5491205926
 21
0.0000125144
 31
0.0
  0
LINE
  5
1E6
330
136
100
AcDbEntity
  8
0
  6
Continuous
 62
   179
100
AcDbLine
 10
25016.6135325926
 20
7008.8707569115
 30
0.0
 11
24971.491042193
 21
3444.1940153109
 31
0.0
  0
LINE
  5
1E7
330
136
100
AcDbEntity
  8
0
  6
Continuous
 62
   179
100
AcDbLine
 10
24180.1119797926
 20
3343.5361521115
 30
0.0
 11
25016.6135325926
 21
7008.8707569115
 31
0.0
  0
LINE
  5
1E8
330
136
100
AcDbEntity
  8
0
  6
Continuous
 62
   179
100
AcDbLine
 10
23399.1457997926
 20
0.0000125144
 30
0.0
 11
23791.3643701938
 21
1694.8297721102
 31
0.0
  0
LINE
  5
1E9
330
136
100
AcDbEntity
  8
0
  6
Continuous
 62
   179
100
AcDbLine
 10
21618.5429093926
 20
0.0000125144
 30
0.0
 11
23399.1457997926
 21
0.0000125144
 31
0.0
  0
LINE
  5
1EA
330
136
100
AcDbEntity
  8
0
  6
Continuous
 62
   179
100
AcDbLine
 10
23986.756270993
 20
8289.6552921115
 30
0.0
 11
21618.5429093926
 21
0.0000125144
 31
0.0
  0
LINE
  5
1EB
330
136
100
AcDbEntity
  8
0
  6
Continuous
 62
   179
100
AcDbLine
 10
26353.951536593
 20
8289.6552921115
 30
0.0
 11
23986.756270993
 21
8289.6552921115
 31
0.0
  0
LINE
  5
1EC
330
136
100
AcDbEntity
  8
0
  6
Continuous
 62
   179
100
AcDbLine
 10
26583.7619200447
 20
0.0000125144
 30
0.0
 11
26353.951536593
 21
8289.6552921115
 31
0.0
  0
ENDBLK
  5
138
330
136
100
AcDbEntity
  8
0
100
AcDbBlockEnd
  0
BLOCK
  5
1EE
330
1ED
100
AcDbEntity
  8
0
100
AcDbBlockBegin
  2
Projekciju vaizdavimas_1
 70
     0
 10
0.0
 20
0.0
 30
0.0
  3
Projekciju vaizdavimas_1
  1

  0
CIRCLE
  5
1F0
330
1ED
100
AcDbEntity
  8
0
  6
Continuous
 62
     7
370
    35
100
AcDbCircle
 10
0.0
 20
0.0
 30
0.0
 40
3.5
  0
CIRCLE
  5
1F1
330
1ED
100
AcDbEntity
  8
0
  6
Continuous
 62
     7
370
    35
100
AcDbCircle
 10
0.0
 20
0.0
 30
0.0
 40
1.5
  0
LINE
  5
1F2
330
1ED
100
AcDbEntity
  8
0
  6
CENTERX2
 62
     7
370
    18
100
AcDbLine
 10
4.5
 20
0.0
 30
0.0
 11
-14.5
 21
0.0
 31
0.0
  0
LINE
  5
1F3
330
1ED
100
AcDbEntity
  8
0
  6
Continuous
 62
     7
370
    35
100
AcDbLine
 10
-13.5
 20
1.5
 30
0.0
 11
-13.5
 21
-1.5
 31
0.0
  0
LINE
  5
1F4
330
1ED
100
AcDbEntity
  8
0
  6
Continuous
 62
     7
370
    35
100
AcDbLine
 10
-13.5
 20
-1.5
 30
0.0
 11
-6.5
 21
-3.5
 31
0.0
  0
LINE
  5
1F5
330
1ED
100
AcDbEntity
  8
0
  6
Continuous
 62
     7
370
    35
100
AcDbLine
 10
-6.5
 20
-3.5
 30
0.0
 11
-6.5
 21
3.5
 31
0.0
  0
LINE
  5
1F6
330
1ED
100
AcDbEntity
  8
0
  6
Continuous
 62
     7
370
    35
100
AcDbLine
 10
-6.5
 20
3.5
 30
0.0
 11
-13.5
 21
1.5
 31
0.0
  0
LINE
  5
1F7
330
1ED
100
AcDbEntity
  8
0
  6
CENTERX2
 62
     7
370
    18
100
AcDbLine
 10
0.0
 20
4.5
 30
0.0
 11
0.0
 21
-4.5
 31
0.0
  0
ENDBLK
  5
1EF
330
1ED
100
AcDbEntity
  8
0
100
AcDbBlockEnd
  0
ENDSEC
  0
SECTION
  2
ENTITIES
  0
LINE
  5
1F8
330
1F
100
AcDbEntity
  8
0
100
AcDbLine
 10
1943.6876677104
 20
1078.8725198346
 30
0.0
 11
1943.6876677104
 21
518.8725198346
 31
0.0
  0
LINE
  5
1F9
330
1F
100
AcDbEntity
  8
0
100
AcDbLine
 10
1834.6876982254
 20
518.8725198346
 30
0.0
 11
1834.6876982254
 21
1078.8725198346
 31
0.0
  0
LINE
  5
1FA
330
1F
100
AcDbEntity
  8
0
100
AcDbLine
 10
1873.187674555
 20
518.8725198346
 30
0.0
 11
1873.187674555
 21
733.8725198346
 31
0.0
  0
LINE
  5
1FB
330
1F
100
AcDbEntity
  8
0
100
AcDbLine
 10
1873.187674555
 20
913.8725198346
 30
0.0
 11
1873.187674555
 21
1078.8725198346
 31
0.0
  0
LINE
  5
1FC
330
1F
100
AcDbEntity
  8
0
100
AcDbLine
 10
1865.1876608657
 20
1078.8725198346
 30
0.0
 11
1865.1876608657
 21
913.8725198346
 31
0.0
  0
LINE
  5
1FD
330
1F
100
AcDbEntity
  8
0
100
AcDbLine
 10
1865.1876608657
 20
733.8725198346
 30
0.0
 11
1865.1876608657
 21
518.8725198346
 31
0.0
  0
LINE
  5
1FE
330
1F
100
AcDbEntity
  8
0
100
AcDbLine
 10
1905.1876608657
 20
1078.8725198346
 30
0.0
 11
1905.1876608657
 21
913.8725198346
 31
0.0
  0
LINE
  5
1FF
330
1F
100
AcDbEntity
  8
0
100
AcDbLine
 10
1905.1876608657
 20
733.8725198346
 30
0.0
 11
1905.1876608657
 21
518.8725198346
 31
0.0
  0
LINE
  5
200
330
1F
100
AcDbEntity
  8
0
100
AcDbLine
 10
1913.187674555
 20
518.8725198346
 30
0.0
 11
1913.187674555
 21
733.8725198346
 31
0.0
  0
LINE
  5
201
330
1F
100
AcDbEntity
  8
0
100
AcDbLine
 10
1913.187674555
 20
913.8725198346
 30
0.0
 11
1913.187674555
 21
1078.8725198346
 31
0.0
  0
LINE
  5
202
330
1F
100
AcDbEntity
  8
0
100
AcDbLine
 10
1844.1876677104
 20
733.8725198346
 30
0.0
 11
1934.1876677104
 21
733.8725198346
 31
0.0
  0
CIRCLE
  5
203
330
1F
100
AcDbEntity
  8
0
100
AcDbCircle
 10
1889.1876677104
 20
823.8725198346
 30
0.0
 40
10.0
  0
LINE
  5
204
330
1F
100
AcDbEntity
  8
0
100
AcDbLine
 10
1844.1876677104
 20
913.8725198346
 30
0.0
 11
1844.1876677104
 21
733.8725198346
 31
0.0
  0
LINE
  5
205
330
1F
100
AcDbEntity
  8
0
100
AcDbLine
 10
1934.1876677104
 20
913.8725198346
 30
0.0
 11
1844.1876677104
 21
913.8725198346
 31
0.0
  0
LINE
  5
206
330
1F
100
AcDbEntity
  8
0
100
AcDbLine
 10
1934.1876677104
 20
733.8725198346
 30
0.0
 11
1934.1876677104
 21
913.8725198346
 31
0.0
  0
ARC
  5
207
330
1F
100
AcDbEntity
  8
0
100
AcDbCircle
 10
1901.687806061
 20
1083.3725198347
 30
0.0
 40
0.9999999999974989
100
AcDbArc
 50
0.0
 51
90.0
  0
LINE
  5
208
330
1F
100
AcDbEntity
  8
0
100
AcDbLine
 10
1902.687806061
 20
1081.8725198347
 30
0.0
 11
1902.687806061
 21
1083.3725198347
 31
0.0
  0
ARC
  5
209
330
1F
100
AcDbEntity
  8
0
100
AcDbCircle
 10
1903.687806061
 20
1081.8725198346
 30
0.0
 40
0.9999999999749889
100
AcDbArc
 50
179.9999999971
 51
270.0
  0
LINE
  5
20A
330
1F
100
AcDbEntity
  8
0
100
AcDbLine
 10
1949.6876982249
 20
1080.8725198346
 30
0.0
 11
1903.687806061
 21
1080.8725198346
 31
0.0
  0
LINE
  5
20B
330
1F
100
AcDbEntity
  8
0
100
AcDbLine
 10
1895.7878060611
 20
1082.3725198347
 30
0.0
 11
1900.5878060611
 21
1082.3725198347
 31
0.0
  0
LINE
  5
20C
330
1F
100
AcDbEntity
  8
0
100
AcDbLine
 10
1888.0878060611
 20
1078.8725198346
 30
0.0
 11
1888.0878060611
 21
1079.8725198346
 31
0.0
  0
LINE
  5
20D
330
1F
100
AcDbEntity
  8
0
100
AcDbLine
 10
1834.6876982254
 20
1078.8725198346
 30
0.0
 11
1888.0878060611
 21
1078.8725198346
 31
0.0
  0
LINE
  5
20E
330
1F
100
AcDbEntity
  8
0
100
AcDbLine
 10
1826.6876982254
 20
1092.8725198346
 30
0.0
 11
1826.6876982254
 21
1079.8725198346
 31
0.0
  0
ARC
  5
20F
330
1F
100
AcDbEntity
  8
0
100
AcDbCircle
 10
1827.6876982254
 20
1092.8725198346
 30
0.0
 40
1.000000000000227
100
AcDbArc
 50
90.0
 51
180.0
  0
LINE
  5
210
330
1F
100
AcDbEntity
  8
0
100
AcDbLine
 10
1834.1876982254
 20
1093.8725198346
 30
0.0
 11
1827.6876982254
 21
1093.8725198346
 31
0.0
  0
ARC
  5
211
330
1F
100
AcDbEntity
  8
0
100
AcDbCircle
 10
1834.1876982254
 20
1093.3725198347
 30
0.0
 40
0.4999999999710815
100
AcDbArc
 50
280.2234814535
 51
90.0
  0
LINE
  5
212
330
1F
100
AcDbEntity
  8
0
100
AcDbLine
 10
1828.6876982254
 20
1091.8725198346
 30
0.0
 11
1834.2764422639
 21
1092.8804583592
 31
0.0
  0
LINE
  5
213
330
1F
100
AcDbEntity
  8
0
100
AcDbLine
 10
1828.6876982254
 20
1080.8725198346
 30
0.0
 11
1828.6876982254
 21
1091.8725198346
 31
0.0
  0
ARC
  5
214
330
1F
100
AcDbEntity
  8
0
100
AcDbCircle
 10
1883.6878060611
 20
1081.8725198346
 30
0.0
 40
0.9999999999749889
100
AcDbArc
 50
270.0
 51
0.0000000029
  0
ARC
  5
215
330
1F
100
AcDbEntity
  8
0
100
AcDbCircle
 10
1827.6876982254
 20
1079.8725198346
 30
0.0
 40
1.000000000000227
100
AcDbArc
 50
180.0
 51
270.0
  0
ARC
  5
216
330
1F
100
AcDbEntity
  8
0
100
AcDbCircle
 10
1885.687806061
 20
1083.3725198347
 30
0.0
 40
1.000000000000227
100
AcDbArc
 50
90.0
 51
180.0
  0
LINE
  5
217
330
1F
100
AcDbEntity
  8
0
100
AcDbLine
 10
1901.687806061
 20
1084.3725198347
 30
0.0
 11
1885.687806061
 21
1084.3725198347
 31
0.0
  0
LINE
  5
218
330
1F
100
AcDbEntity
  8
0
100
AcDbLine
 10
1895.7878060611
 20
1081.1725198346
 30
0.0
 11
1895.7878060611
 21
1082.3725198347
 31
0.0
  0
LINE
  5
219
330
1F
100
AcDbEntity
  8
0
100
AcDbLine
 10
1897.0878060611
 20
1079.8725198346
 30
0.0
 11
1895.7878060611
 21
1081.1725198346
 31
0.0
  0
LINE
  5
21A
330
1F
100
AcDbEntity
  8
0
100
AcDbLine
 10
1890.2878060611
 20
1078.8725198346
 30
0.0
 11
1897.0878060611
 21
1078.8725198346
 31
0.0
  0
LINE
  5
21B
330
1F
100
AcDbEntity
  8
0
100
AcDbLine
 10
1883.6878060611
 20
1080.8725198346
 30
0.0
 11
1828.6876982254
 21
1080.8725198346
 31
0.0
  0
ARC
  5
21C
330
1F
100
AcDbEntity
  8
0
100
AcDbCircle
 10
1944.187698225
 20
1093.3725198347
 30
0.0
 40
0.4999999999267135
100
AcDbArc
 50
90.0
 51
259.7765186029
  0
LINE
  5
21D
330
1F
100
AcDbEntity
  8
0
100
AcDbLine
 10
1950.687698225
 20
1093.8725198346
 30
0.0
 11
1944.187698225
 21
1093.8725198346
 31
0.0
  0
ARC
  5
21E
330
1F
100
AcDbEntity
  8
0
100
AcDbCircle
 10
1950.687698225
 20
1092.8725198346
 30
0.0
 40
1.0
100
AcDbArc
 50
0.0
 51
90.0
  0
LINE
  5
21F
330
1F
100
AcDbEntity
  8
0
100
AcDbLine
 10
1951.687698225
 20
1079.8725198346
 30
0.0
 11
1951.687698225
 21
1092.8725198346
 31
0.0
  0
ARC
  5
220
330
1F
100
AcDbEntity
  8
0
100
AcDbCircle
 10
1950.687698225
 20
1079.8725198346
 30
0.0
 40
1.0
100
AcDbArc
 50
270.0
 51
0.0
  0
LINE
  5
221
330
1F
100
AcDbEntity
  8
0
100
AcDbLine
 10
1899.2878060612
 20
1078.8725198346
 30
0.0
 11
1943.6876677104
 21
1078.8725198346
 31
0.0
  0
LINE
  5
222
330
1F
100
AcDbEntity
  8
0
100
AcDbLine
 10
1899.2878060612
 20
1079.8725198346
 30
0.0
 11
1899.2878060612
 21
1078.8725198346
 31
0.0
  0
LINE
  5
223
330
1F
100
AcDbEntity
  8
0
100
AcDbLine
 10
1900.5878060611
 20
1081.1725198346
 30
0.0
 11
1899.2878060612
 21
1079.8725198346
 31
0.0
  0
LINE
  5
224
330
1F
100
AcDbEntity
  8
0
100
AcDbLine
 10
1900.5878060611
 20
1082.3725198347
 30
0.0
 11
1900.5878060611
 21
1081.1725198346
 31
0.0
  0
LINE
  5
225
330
1F
100
AcDbEntity
  8
0
100
AcDbLine
 10
1897.0878060611
 20
1078.8725198346
 30
0.0
 11
1897.0878060611
 21
1079.8725198346
 31
0.0
  0
LINE
  5
226
330
1F
100
AcDbEntity
  8
0
100
AcDbLine
 10
1949.6876982249
 20
1091.8725198346
 30
0.0
 11
1949.6876982249
 21
1080.8725198346
 31
0.0
  0
LINE
  5
227
330
1F
100
AcDbEntity
  8
0
100
AcDbLine
 10
1944.0989541869
 20
1092.8804583592
 30
0.0
 11
1949.6876982249
 21
1091.8725198346
 31
0.0
  0
LINE
  5
228
330
1F
100
AcDbEntity
  8
0
100
AcDbLine
 10
1891.5878060611
 20
1082.3725198347
 30
0.0
 11
1891.5878060611
 21
1081.1725198346
 31
0.0
  0
LINE
  5
229
330
1F
100
AcDbEntity
  8
0
100
AcDbLine
 10
1886.7878060611
 20
1082.3725198347
 30
0.0
 11
1891.5878060611
 21
1082.3725198347
 31
0.0
  0
LINE
  5
22A
330
1F
100
AcDbEntity
  8
0
100
AcDbLine
 10
1886.7878060611
 20
1081.1725198346
 30
0.0
 11
1886.7878060611
 21
1082.3725198347
 31
0.0
  0
LINE
  5
22B
330
1F
100
AcDbEntity
  8
0
100
AcDbLine
 10
1888.0878060611
 20
1079.8725198346
 30
0.0
 11
1886.7878060611
 21
1081.1725198346
 31
0.0
  0
LINE
  5
22C
330
1F
100
AcDbEntity
  8
0
100
AcDbLine
 10
1891.5878060611
 20
1081.1725198346
 30
0.0
 11
1890.2878060611
 21
1079.8725198346
 31
0.0
  0
LINE
  5
22D
330
1F
100
AcDbEntity
  8
0
100
AcDbLine
 10
1890.2878060611
 20
1079.8725198346
 30
0.0
 11
1890.2878060611
 21
1078.8725198346
 31
0.0
  0
LINE
  5
22E
330
1F
100
AcDbEntity
  8
0
100
AcDbLine
 10
1884.687806061
 20
1083.3725198347
 30
0.0
 11
1884.687806061
 21
1081.8725198347
 31
0.0
  0
ARC
  5
22F
330
1F
100
AcDbEntity
  8
0
100
AcDbCircle
 10
1892.6875903893
 20
514.3725198346
 30
0.0
 40
0.9999999999998863
100
AcDbArc
 50
270.0
 51
0.0
  0
LINE
  5
230
330
1F
100
AcDbEntity
  8
0
100
AcDbLine
 10
1876.6875903893
 20
513.3725198346
 30
0.0
 11
1892.6875903893
 21
513.3725198346
 31
0.0
  0
LINE
  5
231
330
1F
100
AcDbEntity
  8
0
100
AcDbLine
 10
1834.2764422634
 20
504.86458131
 30
0.0
 11
1828.6876982254
 21
505.8725198346
 31
0.0
  0
ARC
  5
232
330
1F
100
AcDbEntity
  8
0
100
AcDbCircle
 10
1834.1876982254
 20
504.3725198346
 30
0.0
 40
0.4999999999267694
100
AcDbArc
 50
270.0
 51
79.7765186029
  0
LINE
  5
233
330
1F
100
AcDbEntity
  8
0
100
AcDbLine
 10
1827.6876982254
 20
503.8725198346
 30
0.0
 11
1834.1876982254
 21
503.8725198346
 31
0.0
  0
ARC
  5
234
330
1F
100
AcDbEntity
  8
0
100
AcDbCircle
 10
1827.6876982254
 20
504.8725198346
 30
0.0
 40
1.000000000000227
100
AcDbArc
 50
180.0
 51
270.0
  0
LINE
  5
235
330
1F
100
AcDbEntity
  8
0
100
AcDbLine
 10
1826.6876982254
 20
517.8725198346
 30
0.0
 11
1826.6876982254
 21
504.8725198346
 31
0.0
  0
LINE
  5
236
330
1F
100
AcDbEntity
  8
0
100
AcDbLine
 10
1882.5875903892
 20
515.3725198346
 30
0.0
 11
1877.7875903892
 21
515.3725198346
 31
0.0
  0
LINE
  5
237
330
1F
100
AcDbEntity
  8
0
100
AcDbLine
 10
1882.5875903892
 20
516.5725198347
 30
0.0
 11
1882.5875903892
 21
515.3725198346
 31
0.0
  0
LINE
  5
238
330
1F
100
AcDbEntity
  8
0
100
AcDbLine
 10
1881.2875903892
 20
517.8725198346
 30
0.0
 11
1882.5875903892
 21
516.5725198347
 31
0.0
  0
LINE
  5
239
330
1F
100
AcDbEntity
  8
0
100
AcDbLine
 10
1881.2875903892
 20
518.8725198346
 30
0.0
 11
1881.2875903892
 21
517.8725198346
 31
0.0
  0
LINE
  5
23A
330
1F
100
AcDbEntity
  8
0
100
AcDbLine
 10
1888.0875903892
 20
518.8725198346
 30
0.0
 11
1881.2875903892
 21
518.8725198346
 31
0.0
  0
LINE
  5
23B
330
1F
100
AcDbEntity
  8
0
100
AcDbLine
 10
1888.0875903892
 20
517.8725198346
 30
0.0
 11
1888.0875903892
 21
518.8725198346
 31
0.0
  0
LINE
  5
23C
330
1F
100
AcDbEntity
  8
0
100
AcDbLine
 10
1886.7875903892
 20
516.5725198347
 30
0.0
 11
1888.0875903892
 21
517.8725198346
 31
0.0
  0
LINE
  5
23D
330
1F
100
AcDbEntity
  8
0
100
AcDbLine
 10
1886.7875903892
 20
515.3725198346
 30
0.0
 11
1886.7875903892
 21
516.5725198347
 31
0.0
  0
LINE
  5
23E
330
1F
100
AcDbEntity
  8
0
100
AcDbLine
 10
1891.5875903892
 20
515.3725198346
 30
0.0
 11
1886.7875903892
 21
515.3725198346
 31
0.0
  0
LINE
  5
23F
330
1F
100
AcDbEntity
  8
0
100
AcDbLine
 10
1891.5875903892
 20
516.5725198347
 30
0.0
 11
1891.5875903892
 21
515.3725198346
 31
0.0
  0
LINE
  5
240
330
1F
100
AcDbEntity
  8
0
100
AcDbLine
 10
1890.2875903893
 20
517.8725198346
 30
0.0
 11
1891.5875903892
 21
516.5725198347
 31
0.0
  0
LINE
  5
241
330
1F
100
AcDbEntity
  8
0
100
AcDbLine
 10
1890.2875903893
 20
518.8725198346
 30
0.0
 11
1890.2875903893
 21
517.8725198346
 31
0.0
  0
LINE
  5
242
330
1F
100
AcDbEntity
  8
0
100
AcDbLine
 10
1943.6876677104
 20
518.8725198346
 30
0.0
 11
1890.2875903893
 21
518.8725198346
 31
0.0
  0
ARC
  5
243
330
1F
100
AcDbEntity
  8
0
100
AcDbCircle
 10
1950.687698225
 20
517.8725198346
 30
0.0
 40
1.0
100
AcDbArc
 50
0.0
 51
90.0
  0
LINE
  5
244
330
1F
100
AcDbEntity
  8
0
100
AcDbLine
 10
1951.687698225
 20
504.8725198346
 30
0.0
 11
1951.687698225
 21
517.8725198346
 31
0.0
  0
ARC
  5
245
330
1F
100
AcDbEntity
  8
0
100
AcDbCircle
 10
1950.687698225
 20
504.8725198346
 30
0.0
 40
1.0
100
AcDbArc
 50
270.0
 51
0.0
  0
LINE
  5
246
330
1F
100
AcDbEntity
  8
0
100
AcDbLine
 10
1944.187698225
 20
503.8725198346
 30
0.0
 11
1950.687698225
 21
503.8725198346
 31
0.0
  0
LINE
  5
247
330
1F
100
AcDbEntity
  8
0
100
AcDbLine
 10
1949.6876982249
 20
516.8725198346
 30
0.0
 11
1949.6876982249
 21
505.8725198346
 31
0.0
  0
LINE
  5
248
330
1F
100
AcDbEntity
  8
0
100
AcDbLine
 10
1894.6875903892
 20
516.8725198346
 30
0.0
 11
1949.6876982249
 21
516.8725198346
 31
0.0
  0
ARC
  5
249
330
1F
100
AcDbEntity
  8
0
100
AcDbCircle
 10
1894.6875903892
 20
515.8725198347
 30
0.0
 40
0.9999999999749889
100
AcDbArc
 50
90.0
 51
180.0000000029
  0
LINE
  5
24A
330
1F
100
AcDbEntity
  8
0
100
AcDbLine
 10
1828.6876982254
 20
505.8725198346
 30
0.0
 11
1828.6876982254
 21
516.8725198346
 31
0.0
  0
LINE
  5
24B
330
1F
100
AcDbEntity
  8
0
100
AcDbLine
 10
1879.0875903892
 20
517.8725198346
 30
0.0
 11
1879.0875903892
 21
518.8725198346
 31
0.0
  0
LINE
  5
24C
330
1F
100
AcDbEntity
  8
0
100
AcDbLine
 10
1877.7875903892
 20
516.5725198347
 30
0.0
 11
1879.0875903892
 21
517.8725198346
 31
0.0
  0
ARC
  5
24D
330
1F
100
AcDbEntity
  8
0
100
AcDbCircle
 10
1876.6875903893
 20
514.3725198346
 30
0.0
 40
0.9999999999974989
100
AcDbArc
 50
180.0
 51
270.0
  0
LINE
  5
24E
330
1F
100
AcDbEntity
  8
0
100
AcDbLine
 10
1875.6875903893
 20
515.8725198346
 30
0.0
 11
1875.6875903893
 21
514.3725198346
 31
0.0
  0
ARC
  5
24F
330
1F
100
AcDbEntity
  8
0
100
AcDbCircle
 10
1944.187698225
 20
504.3725198346
 30
0.0
 40
0.4999999999711235
100
AcDbArc
 50
100.2234814535
 51
270.0
  0
LINE
  5
250
330
1F
100
AcDbEntity
  8
0
100
AcDbLine
 10
1949.6876982249
 20
505.8725198346
 30
0.0
 11
1944.0989541864
 21
504.86458131
 31
0.0
  0
LINE
  5
251
330
1F
100
AcDbEntity
  8
0
100
AcDbLine
 10
1879.0875903892
 20
518.8725198346
 30
0.0
 11
1834.6876982254
 21
518.8725198346
 31
0.0
  0
LINE
  5
252
330
1F
100
AcDbEntity
  8
0
100
AcDbLine
 10
1893.6875903893
 20
514.3725198346
 30
0.0
 11
1893.6875903893
 21
515.8725198346
 31
0.0
  0
LINE
  5
253
330
1F
100
AcDbEntity
  8
0
100
AcDbLine
 10
1877.7875903892
 20
515.3725198346
 30
0.0
 11
1877.7875903892
 21
516.5725198347
 31
0.0
  0
LINE
  5
254
330
1F
100
AcDbEntity
  8
0
100
AcDbLine
 10
1828.6876982254
 20
516.8725198346
 30
0.0
 11
1874.6875903893
 21
516.8725198346
 31
0.0
  0
ARC
  5
255
330
1F
100
AcDbEntity
  8
0
100
AcDbCircle
 10
1827.6876982254
 20
517.8725198346
 30
0.0
 40
1.000000000000227
100
AcDbArc
 50
90.0
 51
180.0
  0
ARC
  5
256
330
1F
100
AcDbEntity
  8
0
100
AcDbCircle
 10
1874.6875903893
 20
515.8725198347
 30
0.0
 40
0.9999999999749889
100
AcDbArc
 50
359.9999999971
 51
90.0
  0
LINE
  5
257
330
1F
100
AcDbEntity
  8
0
100
AcDbLine
 10
1893.1876829679
 20
827.8725198346
 30
0.0
 11
1885.1876829679
 21
827.8725198346
 31
0.0
  0
LINE
  5
258
330
1F
100
AcDbEntity
  8
0
100
AcDbLine
 10
1893.1876829679
 20
819.8725198346
 30
0.0
 11
1893.1876829679
 21
827.8725198346
 31
0.0
  0
LINE
  5
259
330
1F
100
AcDbEntity
  8
0
100
AcDbLine
 10
1885.1876829679
 20
819.8725198346
 30
0.0
 11
1893.1876829679
 21
819.8725198346
 31
0.0
  0
LINE
  5
25A
330
1F
100
AcDbEntity
  8
0
100
AcDbLine
 10
1885.1876829679
 20
827.8725198346
 30
0.0
 11
1885.1876829679
 21
819.8725198346
 31
0.0
  0
LINE
  5
25B
330
1F
100
AcDbEntity
  8
0
100
AcDbLine
 10
1883.1876829679
 20
829.8725198346
 30
0.0
 11
1883.1876829679
 21
817.8725198346
 31
0.0
  0
LINE
  5
25C
330
1F
100
AcDbEntity
  8
0
100
AcDbLine
 10
1895.1876829679
 20
829.8725198346
 30
0.0
 11
1883.1876829679
 21
829.8725198346
 31
0.0
  0
LINE
  5
25D
330
1F
100
AcDbEntity
  8
0
100
AcDbLine
 10
1895.1876829679
 20
817.8725198346
 30
0.0
 11
1895.1876829679
 21
829.8725198346
 31
0.0
  0
LINE
  5
25E
330
1F
100
AcDbEntity
  8
0
100
AcDbLine
 10
1883.1876829679
 20
817.8725198346
 30
0.0
 11
1895.1876829679
 21
817.8725198346
 31
0.0
  0
LINE
  5
25F
330
1F
100
AcDbEntity
  8
0
100
AcDbLine
 10
1834.1876982254
 20
518.8725198346
 30
0.0
 11
1834.1876982254
 21
1078.8725198346
 31
0.0
  0
LINE
  5
260
330
1F
100
AcDbEntity
  8
0
100
AcDbLine
 10
1834.1876982254
 20
518.8725198346
 30
0.0
 11
1827.6876982254
 21
518.8725198346
 31
0.0
  0
LINE
  5
261
330
1F
100
AcDbEntity
  8
0
100
AcDbLine
 10
1827.6876982254
 20
518.8725198346
 30
0.0
 11
1827.6876982254
 21
1078.8725198346
 31
0.0
  0
LINE
  5
262
330
1F
100
AcDbEntity
  8
0
100
AcDbLine
 10
1834.1876982254
 20
1078.8725198346
 30
0.0
 11
1827.6876982254
 21
1078.8725198346
 31
0.0
  0
LINE
  5
263
330
1F
100
AcDbEntity
  8
0
100
AcDbLine
 10
1827.6876982254
 20
518.8725198346
 30
0.0
 11
1826.6876982254
 21
518.8725198346
 31
0.0
  0
LINE
  5
264
330
1F
100
AcDbEntity
  8
0
100
AcDbLine
 10
1826.6876982254
 20
518.8725198346
 30
0.0
 11
1826.6876982254
 21
1078.8725198346
 31
0.0
  0
LINE
  5
265
330
1F
100
AcDbEntity
  8
0
100
AcDbLine
 10
1827.6876982254
 20
1078.8725198346
 30
0.0
 11
1826.6876982254
 21
1078.8725198346
 31
0.0
  0
LINE
  5
266
330
1F
100
AcDbEntity
  8
0
100
AcDbLine
 10
1944.1876677104
 20
518.8725198346
 30
0.0
 11
1944.1876677104
 21
1078.8725198346
 31
0.0
  0
LINE
  5
267
330
1F
100
AcDbEntity
  8
0
100
AcDbLine
 10
1944.1876677104
 20
518.8725198346
 30
0.0
 11
1943.6876677104
 21
518.8725198346
 31
0.0
  0
LINE
  5
268
330
1F
100
AcDbEntity
  8
0
100
AcDbLine
 10
1944.1876677104
 20
1078.8725198346
 30
0.0
 11
1943.6876677104
 21
1078.8725198346
 31
0.0
  0
LINE
  5
269
330
1F
100
AcDbEntity
  8
0
100
AcDbLine
 10
1950.6876677104
 20
518.8725198346
 30
0.0
 11
1950.6876677104
 21
1078.8725198346
 31
0.0
  0
LINE
  5
26A
330
1F
100
AcDbEntity
  8
0
100
AcDbLine
 10
1950.6876677104
 20
518.8725198346
 30
0.0
 11
1944.1876677104
 21
518.8725198346
 31
0.0
  0
LINE
  5
26B
330
1F
100
AcDbEntity
  8
0
100
AcDbLine
 10
1950.6876677104
 20
1078.8725198346
 30
0.0
 11
1944.1876677104
 21
1078.8725198346
 31
0.0
  0
LINE
  5
26C
330
1F
100
AcDbEntity
  8
0
100
AcDbLine
 10
1834.6876982254
 20
518.8725198346
 30
0.0
 11
1834.1876982254
 21
518.8725198346
 31
0.0
  0
LINE
  5
26D
330
1F
100
AcDbEntity
  8
0
100
AcDbLine
 10
1834.6876982254
 20
1078.8725198346
 30
0.0
 11
1834.1876982254
 21
1078.8725198346
 31
0.0
  0
LINE
  5
26E
330
1F
100
AcDbEntity
  8
0
100
AcDbLine
 10
1951.6876677104
 20
518.8725198346
 30
0.0
 11
1951.6876677104
 21
1078.8725198346
 31
0.0
  0
LINE
  5
26F
330
1F
100
AcDbEntity
  8
0
100
AcDbLine
 10
1951.6876677104
 20
518.8725198346
 30
0.0
 11
1950.6876677104
 21
518.8725198346
 31
0.0
  0
LINE
  5
270
330
1F
100
AcDbEntity
  8
0
100
AcDbLine
 10
1951.6876677104
 20
1078.8725198346
 30
0.0
 11
1950.6876677104
 21
1078.8725198346
 31
0.0
  0
LINE
  5
271
330
1F
100
AcDbEntity
  8
0
100
AcDbLine
 10
1907.7442778154
 20
518.8725198346
 30
0.0
 11
1907.7442778154
 21
733.8725198346
 31
0.0
  0
LINE
  5
272
330
1F
100
AcDbEntity
  8
0
100
AcDbLine
 10
1907.7442778154
 20
913.8725198346
 30
0.0
 11
1907.7442778154
 21
1078.8725198346
 31
0.0
  0
LINE
  5
273
330
1F
100
AcDbEntity
  8
0
100
AcDbLine
 10
1906.0651701504
 20
518.8725198346
 30
0.0
 11
1906.0651701504
 21
733.8725198346
 31
0.0
  0
LINE
  5
274
330
1F
100
AcDbEntity
  8
0
100
AcDbLine
 10
1906.0651701504
 20
913.8725198346
 30
0.0
 11
1906.0651701504
 21
1078.8725198346
 31
0.0
  0
LINE
  5
275
330
1F
100
AcDbEntity
  8
0
100
AcDbLine
 10
1910.6310270854
 20
518.8725198346
 30
0.0
 11
1910.6310270854
 21
733.8725198346
 31
0.0
  0
LINE
  5
276
330
1F
100
AcDbEntity
  8
0
100
AcDbLine
 10
1910.6310270854
 20
913.8725198346
 30
0.0
 11
1910.6310270854
 21
1078.8725198346
 31
0.0
  0
LINE
  5
277
330
1F
100
AcDbEntity
  8
0
100
AcDbLine
 10
1910.1376659449
 20
518.8725198346
 30
0.0
 11
1910.1376659449
 21
733.8725198346
 31
0.0
  0
LINE
  5
278
330
1F
100
AcDbEntity
  8
0
100
AcDbLine
 10
1910.1376659449
 20
913.8725198346
 30
0.0
 11
1910.1376659449
 21
1078.8725198346
 31
0.0
  0
LINE
  5
279
330
1F
100
AcDbEntity
  8
0
100
AcDbLine
 10
1912.3101652704
 20
518.8725198346
 30
0.0
 11
1912.3101652704
 21
733.8725198346
 31
0.0
  0
LINE
  5
27A
330
1F
100
AcDbEntity
  8
0
100
AcDbLine
 10
1912.3101652704
 20
913.8725198346
 30
0.0
 11
1912.3101652704
 21
1078.8725198346
 31
0.0
  0
LINE
  5
27B
330
1F
100
AcDbEntity
  8
0
100
AcDbLine
 10
1872.3101652704
 20
518.8725198346
 30
0.0
 11
1872.3101652704
 21
733.8725198346
 31
0.0
  0
LINE
  5
27C
330
1F
100
AcDbEntity
  8
0
100
AcDbLine
 10
1872.3101652704
 20
913.8725198346
 30
0.0
 11
1872.3101652704
 21
1078.8725198346
 31
0.0
  0
LINE
  5
27D
330
1F
100
AcDbEntity
  8
0
100
AcDbLine
 10
1908.2376690376
 20
518.8725198346
 30
0.0
 11
1908.2376690376
 21
733.8725198346
 31
0.0
  0
LINE
  5
27E
330
1F
100
AcDbEntity
  8
0
100
AcDbLine
 10
1908.2376690376
 20
913.8725198346
 30
0.0
 11
1908.2376690376
 21
1078.8725198346
 31
0.0
  0
LINE
  5
27F
330
1F
100
AcDbEntity
  8
0
100
AcDbLine
 10
1870.6310576004
 20
518.8725198346
 30
0.0
 11
1870.6310576004
 21
733.8725198346
 31
0.0
  0
LINE
  5
280
330
1F
100
AcDbEntity
  8
0
100
AcDbLine
 10
1870.6310576004
 20
913.8725198346
 30
0.0
 11
1870.6310576004
 21
1078.8725198346
 31
0.0
  0
LINE
  5
281
330
1F
100
AcDbEntity
  8
0
100
AcDbLine
 10
1870.1376659449
 20
518.8725198346
 30
0.0
 11
1870.1376659449
 21
733.8725198346
 31
0.0
  0
LINE
  5
282
330
1F
100
AcDbEntity
  8
0
100
AcDbLine
 10
1870.1376659449
 20
913.8725198346
 30
0.0
 11
1870.1376659449
 21
1078.8725198346
 31
0.0
  0
LINE
  5
283
330
1F
100
AcDbEntity
  8
0
100
AcDbLine
 10
1867.7443083354
 20
518.8725198346
 30
0.0
 11
1867.7443083354
 21
733.8725198346
 31
0.0
  0
LINE
  5
284
330
1F
100
AcDbEntity
  8
0
100
AcDbLine
 10
1867.7443083354
 20
913.8725198346
 30
0.0
 11
1867.7443083354
 21
1078.8725198346
 31
0.0
  0
LINE
  5
285
330
1F
100
AcDbEntity
  8
0
100
AcDbLine
 10
1866.0651701504
 20
518.8725198346
 30
0.0
 11
1866.0651701504
 21
733.8725198346
 31
0.0
  0
LINE
  5
286
330
1F
100
AcDbEntity
  8
0
100
AcDbLine
 10
1866.0651701504
 20
913.8725198346
 30
0.0
 11
1866.0651701504
 21
1078.8725198346
 31
0.0
  0
LINE
  5
287
330
1F
100
AcDbEntity
  8
0
100
AcDbLine
 10
1868.2376690376
 20
518.8725198346
 30
0.0
 11
1868.2376690376
 21
733.8725198346
 31
0.0
  0
LINE
  5
288
330
1F
100
AcDbEntity
  8
0
100
AcDbLine
 10
1868.2376690376
 20
913.8725198346
 30
0.0
 11
1868.2376690376
 21
1078.8725198346
 31
0.0
  0
ARC
  5
289
330
1F
100
AcDbEntity
  8
0
100
AcDbCircle
 10
1889.1876829679
 20
823.8725198346
 30
0.0
 40
10.00000000000011
100
AcDbArc
 50
89.9993273831
 51
270.0
  0
LINE
  5
28A
330
1F
100
AcDbEntity
  8
0
100
AcDbLine
 10
1890.2875903893
 20
518.8725198346
 30
0.0
 11
1888.0875903892
 21
518.8725198346
 31
0.0
  0
LINE
  5
28B
330
1F
100
AcDbEntity
  8
0
100
AcDbLine
 10
1881.2875903892
 20
518.8725198346
 30
0.0
 11
1879.0875903892
 21
518.8725198346
 31
0.0
  0
LINE
  5
28C
330
1F
100
AcDbEntity
  8
0
100
AcDbLine
 10
1899.2878060612
 20
1078.8725198346
 30
0.0
 11
1897.0878060611
 21
1078.8725198346
 31
0.0
  0
LINE
  5
28D
330
1F
100
AcDbEntity
  8
0
100
AcDbLine
 10
1890.2878060611
 20
1078.8725198346
 30
0.0
 11
1888.0878060611
 21
1078.8725198346
 31
0.0
  0
LINE
  5
28E
330
1F
100
AcDbEntity
  8
0
100
AcDbLine
 10
1914.1626127804
 20
518.8725198346
 30
0.0
 11
1914.1626127804
 21
733.8725198346
 31
0.0
  0
LINE
  5
28F
330
1F
100
AcDbEntity
  8
0
100
AcDbLine
 10
1914.1626127804
 20
913.8725198346
 30
0.0
 11
1914.1626127804
 21
1078.8725198346
 31
0.0
  0
LINE
  5
290
330
1F
100
AcDbEntity
  8
0
100
AcDbLine
 10
1874.1626127804
 20
518.8725198346
 30
0.0
 11
1874.1626127804
 21
733.8725198346
 31
0.0
  0
LINE
  5
291
330
1F
100
AcDbEntity
  8
0
100
AcDbLine
 10
1874.1626127804
 20
913.8725198346
 30
0.0
 11
1874.1626127804
 21
1078.8725198346
 31
0.0
  0
LINE
  5
292
330
1F
100
AcDbEntity
  8
0
100
AcDbLine
 10
1904.2127226404
 20
518.8725198346
 30
0.0
 11
1904.2127226404
 21
733.8725198346
 31
0.0
  0
LINE
  5
293
330
1F
100
AcDbEntity
  8
0
100
AcDbLine
 10
1904.2127226404
 20
913.8725198346
 30
0.0
 11
1904.2127226404
 21
1078.8725198346
 31
0.0
  0
LINE
  5
294
330
1F
100
AcDbEntity
  8
0
100
AcDbLine
 10
1864.2127226404
 20
518.8725198346
 30
0.0
 11
1864.2127226404
 21
733.8725198346
 31
0.0
  0
LINE
  5
295
330
1F
100
AcDbEntity
  8
0
100
AcDbLine
 10
1864.2127226404
 20
913.8725198346
 30
0.0
 11
1864.2127226404
 21
1078.8725198346
 31
0.0
  0
LINE
  5
296
330
1F
100
AcDbEntity
  8
0
100
AcDbLine
 10
194.6372647185
 20
970.1009484847
 30
0.0
 11
1414.9372647188
 21
970.1009484847
 31
0.0
  0
LINE
  5
297
330
1F
100
AcDbEntity
  8
0
100
AcDbLine
 10
1418.2872647188
 20
1077.8725207632
 30
0.0
 11
191.2872647188
 21
1077.8725207632
 31
0.0
  0
LINE
  5
298
330
1F
100
AcDbEntity
  8
0
100
AcDbLine
 10
191.2872647188
 20
870.1009484847
 30
0.0
 11
1418.2872647188
 21
870.1009484847
 31
0.0
  0
LINE
  5
299
330
1F
100
AcDbEntity
  8
0
100
AcDbLine
 10
194.6372647188
 20
770.1009484847
 30
0.0
 11
1414.9372647188
 21
770.1009484847
 31
0.0
  0
LINE
  5
29A
330
1F
100
AcDbEntity
  8
0
100
AcDbLine
 10
191.2872647188
 20
670.1009484847
 30
0.0
 11
1418.2872647188
 21
670.1009484847
 31
0.0
  0
LINE
  5
29B
330
1F
100
AcDbEntity
  8
0
100
AcDbLine
 10
191.2872647188
 20
570.1009484847
 30
0.0
 11
1418.2872647188
 21
570.1009484847
 31
0.0
  0
LINE
  5
29C
330
1F
100
AcDbEntity
  8
0
100
AcDbLine
 10
189.7872647188
 20
519.8725198346
 30
0.0
 11
1419.7872647188
 21
519.8725198346
 31
0.0
  0
LINE
  5
29D
330
1F
100
AcDbEntity
  8
0
100
AcDbLine
 10
189.7872647188
 20
568.8725198346
 30
0.0
 11
1419.7872647188
 21
568.8725198346
 31
0.0
  0
LINE
  5
29E
330
1F
100
AcDbEntity
  8
0
100
AcDbLine
 10
146.7872647188
 20
733.8725198346
 30
0.0
 11
146.7872647188
 21
913.8725198346
 31
0.0
  0
LINE
  5
29F
330
1F
100
AcDbEntity
  8
0
100
AcDbLine
 10
148.7872647188
 20
733.8725198346
 30
0.0
 11
148.7872647188
 21
913.8725198346
 31
0.0
  0
LINE
  5
2A0
330
1F
100
AcDbEntity
  8
0
100
AcDbLine
 10
146.7872647188
 20
733.8725198346
 30
0.0
 11
148.7872647188
 21
733.8725198346
 31
0.0
  0
LINE
  5
2A1
330
1F
100
AcDbEntity
  8
0
100
AcDbLine
 10
146.7872647188
 20
913.8725198346
 30
0.0
 11
148.7872647188
 21
913.8725198346
 31
0.0
  0
LINE
  5
2A2
330
1F
100
AcDbEntity
  8
0
100
AcDbLine
 10
159.7872647188
 20
733.8725198346
 30
0.0
 11
148.7872647188
 21
733.8725198346
 31
0.0
  0
LINE
  5
2A3
330
1F
100
AcDbEntity
  8
0
100
AcDbLine
 10
159.7872647188
 20
913.8725198346
 30
0.0
 11
148.7872647188
 21
913.8725198346
 31
0.0
  0
LINE
  5
2A4
330
1F
100
AcDbEntity
  8
0
100
AcDbLine
 10
191.2872647188
 20
1017.8725223948
 30
0.0
 11
1418.2872647188
 21
1017.8725223948
 31
0.0
  0
LINE
  5
2A5
330
1F
100
AcDbEntity
  8
0
100
AcDbLine
 10
191.2872647188
 20
1017.8725223948
 30
0.0
 11
191.2872647188
 21
1051.7649104235
 31
0.0
  0
LINE
  5
2A6
330
1F
100
AcDbEntity
  8
0
100
AcDbLine
 10
191.2872647188
 20
1051.7649104235
 30
0.0
 11
1418.2872647188
 21
1051.7649104235
 31
0.0
  0
LINE
  5
2A7
330
1F
100
AcDbEntity
  8
0
100
AcDbLine
 10
1418.2872647188
 20
1017.8725223948
 30
0.0
 11
1418.2872647188
 21
1051.7649104235
 31
0.0
  0
LINE
  5
2A8
330
1F
100
AcDbEntity
  8
0
100
AcDbLine
 10
191.2872647188
 20
1051.7649104235
 30
0.0
 11
191.2872647188
 21
1068.8725223948
 31
0.0
  0
LINE
  5
2A9
330
1F
100
AcDbEntity
  8
0
100
AcDbLine
 10
191.2872647188
 20
1068.8725223948
 30
0.0
 11
1418.2872647188
 21
1068.8725223948
 31
0.0
  0
LINE
  5
2AA
330
1F
100
AcDbEntity
  8
0
100
AcDbLine
 10
1418.2872647188
 20
1051.7649104235
 30
0.0
 11
1418.2872647188
 21
1068.8725223948
 31
0.0
  0
LINE
  5
2AB
330
1F
100
AcDbEntity
  8
0
100
AcDbLine
 10
191.2872647188
 20
1015.6724067329
 30
0.0
 11
191.2872647188
 21
1017.8725223948
 31
0.0
  0
LINE
  5
2AC
330
1F
100
AcDbEntity
  8
0
100
AcDbLine
 10
1418.2872647188
 20
1015.6724067329
 30
0.0
 11
1418.2872647188
 21
1017.8725223948
 31
0.0
  0
LINE
  5
2AD
330
1F
100
AcDbEntity
  8
0
100
AcDbLine
 10
191.2872647188
 20
1072.7724552548
 30
0.0
 11
1418.2872647188
 21
1072.7724552548
 31
0.0
  0
LINE
  5
2AE
330
1F
100
AcDbEntity
  8
0
100
AcDbLine
 10
191.2872647188
 20
1068.8725223948
 30
0.0
 11
191.2872647188
 21
1072.7724552548
 31
0.0
  0
LINE
  5
2AF
330
1F
100
AcDbEntity
  8
0
100
AcDbLine
 10
1418.2872647188
 20
1068.8725223948
 30
0.0
 11
1418.2872647188
 21
1072.7724552548
 31
0.0
  0
LINE
  5
2B0
330
1F
100
AcDbEntity
  8
0
100
AcDbLine
 10
191.2872647188
 20
1075.4724674623
 30
0.0
 11
1418.2872647188
 21
1075.4724674623
 31
0.0
  0
LINE
  5
2B1
330
1F
100
AcDbEntity
  8
0
100
AcDbLine
 10
191.2872647188
 20
1077.3340541716
 30
0.0
 11
1418.2872647188
 21
1077.3340541716
 31
0.0
  0
LINE
  5
2B2
330
1F
100
AcDbEntity
  8
0
100
AcDbLine
 10
191.2872647188
 20
1075.4724674623
 30
0.0
 11
191.2872647188
 21
1077.3340541716
 31
0.0
  0
LINE
  5
2B3
330
1F
100
AcDbEntity
  8
0
100
AcDbLine
 10
1418.2872647188
 20
1075.4724674623
 30
0.0
 11
1418.2872647188
 21
1077.3340541716
 31
0.0
  0
LINE
  5
2B4
330
1F
100
AcDbEntity
  8
0
100
AcDbLine
 10
191.2872647188
 20
1074.9724674623
 30
0.0
 11
1418.2872647188
 21
1074.9724674623
 31
0.0
  0
LINE
  5
2B5
330
1F
100
AcDbEntity
  8
0
100
AcDbLine
 10
191.2872647188
 20
1074.9724674623
 30
0.0
 11
191.2872647188
 21
1075.4724674623
 31
0.0
  0
LINE
  5
2B6
330
1F
100
AcDbEntity
  8
0
100
AcDbLine
 10
1418.2872647188
 20
1074.9724674623
 30
0.0
 11
1418.2872647188
 21
1075.4724674623
 31
0.0
  0
LINE
  5
2B7
330
1F
100
AcDbEntity
  8
0
100
AcDbLine
 10
191.2872647188
 20
1077.3340541716
 30
0.0
 11
191.2872647188
 21
1077.8725207632
 31
0.0
  0
LINE
  5
2B8
330
1F
100
AcDbEntity
  8
0
100
AcDbLine
 10
1418.2872647188
 20
1077.3340541716
 30
0.0
 11
1418.2872647188
 21
1077.8725207632
 31
0.0
  0
LINE
  5
2B9
330
1F
100
AcDbEntity
  8
0
100
AcDbLine
 10
191.2872647188
 20
1072.7724552548
 30
0.0
 11
191.2872647188
 21
1074.9724674623
 31
0.0
  0
LINE
  5
2BA
330
1F
100
AcDbEntity
  8
0
100
AcDbLine
 10
1418.2872647188
 20
1072.7724552548
 30
0.0
 11
1418.2872647188
 21
1074.9724674623
 31
0.0
  0
LINE
  5
2BB
330
1F
100
AcDbEntity
  8
0
100
AcDbLine
 10
191.2872647188
 20
917.8725223948
 30
0.0
 11
1418.2872647188
 21
917.8725223948
 31
0.0
  0
LINE
  5
2BC
330
1F
100
AcDbEntity
  8
0
100
AcDbLine
 10
191.2872647188
 20
917.8725223948
 30
0.0
 11
191.2872647188
 21
932.0726329364
 31
0.0
  0
LINE
  5
2BD
330
1F
100
AcDbEntity
  8
0
100
AcDbLine
 10
1418.2872647188
 20
917.8725223948
 30
0.0
 11
1418.2872647188
 21
932.0726329364
 31
0.0
  0
LINE
  5
2BE
330
1F
100
AcDbEntity
  8
0
100
AcDbLine
 10
194.6372647185
 20
968.8725223948
 30
0.0
 11
1414.9372647188
 21
968.8725223948
 31
0.0
  0
LINE
  5
2BF
330
1F
100
AcDbEntity
  8
0
100
AcDbLine
 10
191.2872647188
 20
878.8725223948
 30
0.0
 11
1418.2872647188
 21
878.8725223948
 31
0.0
  0
LINE
  5
2C0
330
1F
100
AcDbEntity
  8
0
100
AcDbLine
 10
191.2872647188
 20
878.8725223948
 30
0.0
 11
191.2872647188
 21
917.8725223948
 31
0.0
  0
LINE
  5
2C1
330
1F
100
AcDbEntity
  8
0
100
AcDbLine
 10
1418.2872647188
 20
878.8725223948
 30
0.0
 11
1418.2872647188
 21
917.8725223948
 31
0.0
  0
LINE
  5
2C2
330
1F
100
AcDbEntity
  8
0
100
AcDbLine
 10
191.2872647188
 20
872.1009527464
 30
0.0
 11
1418.2872647188
 21
872.1009527464
 31
0.0
  0
LINE
  5
2C3
330
1F
100
AcDbEntity
  8
0
100
AcDbLine
 10
191.2872647188
 20
870.1009484847
 30
0.0
 11
191.2872647188
 21
872.1009527464
 31
0.0
  0
LINE
  5
2C4
330
1F
100
AcDbEntity
  8
0
100
AcDbLine
 10
1418.2872647188
 20
870.1009484847
 30
0.0
 11
1418.2872647188
 21
872.1009527464
 31
0.0
  0
LINE
  5
2C5
330
1F
100
AcDbEntity
  8
0
100
AcDbLine
 10
191.2872647188
 20
872.1009527464
 30
0.0
 11
191.2872647188
 21
878.8725223948
 31
0.0
  0
LINE
  5
2C6
330
1F
100
AcDbEntity
  8
0
100
AcDbLine
 10
1418.2872647188
 20
872.1009527464
 30
0.0
 11
1418.2872647188
 21
878.8725223948
 31
0.0
  0
LINE
  5
2C7
330
1F
100
AcDbEntity
  8
0
100
AcDbLine
 10
191.2872647188
 20
817.8725223948
 30
0.0
 11
1418.2872647188
 21
817.8725223948
 31
0.0
  0
LINE
  5
2C8
330
1F
100
AcDbEntity
  8
0
100
AcDbLine
 10
191.2872647188
 20
817.8725223948
 30
0.0
 11
191.2872647188
 21
851.7649104235
 31
0.0
  0
LINE
  5
2C9
330
1F
100
AcDbEntity
  8
0
100
AcDbLine
 10
191.2872647188
 20
851.7649104235
 30
0.0
 11
1418.2872647188
 21
851.7649104235
 31
0.0
  0
LINE
  5
2CA
330
1F
100
AcDbEntity
  8
0
100
AcDbLine
 10
1418.2872647188
 20
817.8725223948
 30
0.0
 11
1418.2872647188
 21
851.7649104235
 31
0.0
  0
LINE
  5
2CB
330
1F
100
AcDbEntity
  8
0
100
AcDbLine
 10
191.2872647188
 20
851.7649104235
 30
0.0
 11
191.2872647188
 21
868.8725223948
 31
0.0
  0
LINE
  5
2CC
330
1F
100
AcDbEntity
  8
0
100
AcDbLine
 10
191.2872647188
 20
868.8725223948
 30
0.0
 11
1418.2872647188
 21
868.8725223948
 31
0.0
  0
LINE
  5
2CD
330
1F
100
AcDbEntity
  8
0
100
AcDbLine
 10
1418.2872647188
 20
851.7649104235
 30
0.0
 11
1418.2872647188
 21
868.8725223948
 31
0.0
  0
LINE
  5
2CE
330
1F
100
AcDbEntity
  8
0
100
AcDbLine
 10
191.2872647188
 20
815.6724067329
 30
0.0
 11
191.2872647188
 21
817.8725223948
 31
0.0
  0
LINE
  5
2CF
330
1F
100
AcDbEntity
  8
0
100
AcDbLine
 10
1418.2872647188
 20
815.6724067329
 30
0.0
 11
1418.2872647188
 21
817.8725223948
 31
0.0
  0
LINE
  5
2D0
330
1F
100
AcDbEntity
  8
0
100
AcDbLine
 10
191.2872647188
 20
868.8725223948
 30
0.0
 11
191.2872647188
 21
870.1009484847
 31
0.0
  0
LINE
  5
2D1
330
1F
100
AcDbEntity
  8
0
100
AcDbLine
 10
1418.2872647188
 20
868.8725223948
 30
0.0
 11
1418.2872647188
 21
870.1009484847
 31
0.0
  0
LINE
  5
2D2
330
1F
100
AcDbEntity
  8
0
100
AcDbLine
 10
194.6372647188
 20
768.8725223948
 30
0.0
 11
1414.9372647188
 21
768.8725223948
 31
0.0
  0
LINE
  5
2D3
330
1F
100
AcDbEntity
  8
0
100
AcDbLine
 10
191.2872647188
 20
717.8725223948
 30
0.0
 11
1418.2872647188
 21
717.8725223948
 31
0.0
  0
LINE
  5
2D4
330
1F
100
AcDbEntity
  8
0
100
AcDbLine
 10
191.2872647188
 20
717.8725223948
 30
0.0
 11
191.2872647188
 21
732.0726329364
 31
0.0
  0
LINE
  5
2D5
330
1F
100
AcDbEntity
  8
0
100
AcDbLine
 10
1418.2872647188
 20
717.8725223948
 30
0.0
 11
1418.2872647188
 21
732.0726329364
 31
0.0
  0
LINE
  5
2D6
330
1F
100
AcDbEntity
  8
0
100
AcDbLine
 10
191.2872647188
 20
678.8725223948
 30
0.0
 11
1418.2872647188
 21
678.8725223948
 31
0.0
  0
LINE
  5
2D7
330
1F
100
AcDbEntity
  8
0
100
AcDbLine
 10
191.2872647188
 20
678.8725223948
 30
0.0
 11
191.2872647188
 21
717.8725223948
 31
0.0
  0
LINE
  5
2D8
330
1F
100
AcDbEntity
  8
0
100
AcDbLine
 10
1418.2872647188
 20
678.8725223948
 30
0.0
 11
1418.2872647188
 21
717.8725223948
 31
0.0
  0
LINE
  5
2D9
330
1F
100
AcDbEntity
  8
0
100
AcDbLine
 10
191.2872647188
 20
672.1009527464
 30
0.0
 11
1418.2872647188
 21
672.1009527464
 31
0.0
  0
LINE
  5
2DA
330
1F
100
AcDbEntity
  8
0
100
AcDbLine
 10
191.2872647188
 20
672.1009527464
 30
0.0
 11
191.2872647188
 21
678.8725223948
 31
0.0
  0
LINE
  5
2DB
330
1F
100
AcDbEntity
  8
0
100
AcDbLine
 10
1418.2872647188
 20
672.1009527464
 30
0.0
 11
1418.2872647188
 21
678.8725223948
 31
0.0
  0
LINE
  5
2DC
330
1F
100
AcDbEntity
  8
0
100
AcDbLine
 10
191.2872647188
 20
670.1009484847
 30
0.0
 11
191.2872647188
 21
672.1009527464
 31
0.0
  0
LINE
  5
2DD
330
1F
100
AcDbEntity
  8
0
100
AcDbLine
 10
1418.2872647188
 20
670.1009484847
 30
0.0
 11
1418.2872647188
 21
672.1009527464
 31
0.0
  0
LINE
  5
2DE
330
1F
100
AcDbEntity
  8
0
100
AcDbLine
 10
191.2872647188
 20
617.8725223948
 30
0.0
 11
1418.2872647188
 21
617.8725223948
 31
0.0
  0
LINE
  5
2DF
330
1F
100
AcDbEntity
  8
0
100
AcDbLine
 10
191.2872647188
 20
617.8725223948
 30
0.0
 11
191.2872647188
 21
651.7649104235
 31
0.0
  0
LINE
  5
2E0
330
1F
100
AcDbEntity
  8
0
100
AcDbLine
 10
191.2872647188
 20
651.7649104235
 30
0.0
 11
1418.2872647188
 21
651.7649104235
 31
0.0
  0
LINE
  5
2E1
330
1F
100
AcDbEntity
  8
0
100
AcDbLine
 10
1418.2872647188
 20
617.8725223948
 30
0.0
 11
1418.2872647188
 21
651.7649104235
 31
0.0
  0
LINE
  5
2E2
330
1F
100
AcDbEntity
  8
0
100
AcDbLine
 10
191.2872647188
 20
651.7649104235
 30
0.0
 11
191.2872647188
 21
668.8725223948
 31
0.0
  0
LINE
  5
2E3
330
1F
100
AcDbEntity
  8
0
100
AcDbLine
 10
191.2872647188
 20
668.8725223948
 30
0.0
 11
1418.2872647188
 21
668.8725223948
 31
0.0
  0
LINE
  5
2E4
330
1F
100
AcDbEntity
  8
0
100
AcDbLine
 10
1418.2872647188
 20
651.7649104235
 30
0.0
 11
1418.2872647188
 21
668.8725223948
 31
0.0
  0
LINE
  5
2E5
330
1F
100
AcDbEntity
  8
0
100
AcDbLine
 10
191.2872647188
 20
615.6724067329
 30
0.0
 11
191.2872647188
 21
617.8725223948
 31
0.0
  0
LINE
  5
2E6
330
1F
100
AcDbEntity
  8
0
100
AcDbLine
 10
1418.2872647188
 20
615.6724067329
 30
0.0
 11
1418.2872647188
 21
617.8725223948
 31
0.0
  0
LINE
  5
2E7
330
1F
100
AcDbEntity
  8
0
100
AcDbLine
 10
191.2872647188
 20
572.1009527464
 30
0.0
 11
1418.2872647188
 21
572.1009527464
 31
0.0
  0
LINE
  5
2E8
330
1F
100
AcDbEntity
  8
0
100
AcDbLine
 10
191.2872647188
 20
570.1009484847
 30
0.0
 11
191.2872647188
 21
572.1009527464
 31
0.0
  0
LINE
  5
2E9
330
1F
100
AcDbEntity
  8
0
100
AcDbLine
 10
1418.2872647188
 20
570.1009484847
 30
0.0
 11
1418.2872647188
 21
572.1009527464
 31
0.0
  0
LINE
  5
2EA
330
1F
100
AcDbEntity
  8
0
100
AcDbLine
 10
191.2872647188
 20
572.1009527464
 30
0.0
 11
191.2872647188
 21
573.8725198346
 31
0.0
  0
LINE
  5
2EB
330
1F
100
AcDbEntity
  8
0
100
AcDbLine
 10
1418.2872647188
 20
572.1009527464
 30
0.0
 11
1418.2872647188
 21
573.8725198346
 31
0.0
  0
LINE
  5
2EC
330
1F
100
AcDbEntity
  8
0
100
AcDbLine
 10
191.2872647188
 20
668.8725223948
 30
0.0
 11
191.2872647188
 21
670.1009484847
 31
0.0
  0
LINE
  5
2ED
330
1F
100
AcDbEntity
  8
0
100
AcDbLine
 10
1418.2872647188
 20
668.8725223948
 30
0.0
 11
1418.2872647188
 21
670.1009484847
 31
0.0
  0
LINE
  5
2EE
330
1F
100
AcDbEntity
  8
0
100
AcDbLine
 10
164.7872647188
 20
1079.8725198346
 30
0.0
 11
1444.7872647188
 21
1079.8725198346
 31
0.0
  0
LINE
  5
2EF
330
1F
100
AcDbEntity
  8
0
100
AcDbLine
 10
164.7872647188
 20
1079.8725198346
 30
0.0
 11
164.7872647188
 21
1092.8725198346
 31
0.0
  0
LINE
  5
2F0
330
1F
100
AcDbEntity
  8
0
100
AcDbLine
 10
164.7872647188
 20
1092.8725198346
 30
0.0
 11
1444.7872647188
 21
1092.8725198346
 31
0.0
  0
LINE
  5
2F1
330
1F
100
AcDbEntity
  8
0
100
AcDbLine
 10
1444.7872647188
 20
1079.8725198346
 30
0.0
 11
1444.7872647188
 21
1092.8725198346
 31
0.0
  0
LINE
  5
2F2
330
1F
100
AcDbEntity
  8
0
100
AcDbLine
 10
164.7872647188
 20
1092.8725198346
 30
0.0
 11
164.7872647188
 21
1093.8725198346
 31
0.0
  0
LINE
  5
2F3
330
1F
100
AcDbEntity
  8
0
100
AcDbLine
 10
164.7872647188
 20
1093.8725198346
 30
0.0
 11
1444.7872647188
 21
1093.8725198346
 31
0.0
  0
LINE
  5
2F4
330
1F
100
AcDbEntity
  8
0
100
AcDbLine
 10
1444.7872647188
 20
1092.8725198346
 30
0.0
 11
1444.7872647188
 21
1093.8725198346
 31
0.0
  0
LINE
  5
2F5
330
1F
100
AcDbEntity
  8
0
100
AcDbLine
 10
189.7872647188
 20
1078.8725198346
 30
0.0
 11
1419.7872647188
 21
1078.8725198346
 31
0.0
  0
LINE
  5
2F6
330
1F
100
AcDbEntity
  8
0
100
AcDbLine
 10
164.7872647188
 20
1078.8725198346
 30
0.0
 11
164.7872647188
 21
1079.8725198346
 31
0.0
  0
LINE
  5
2F7
330
1F
100
AcDbEntity
  8
0
100
AcDbLine
 10
1444.7872647188
 20
1078.8725198346
 30
0.0
 11
1444.7872647188
 21
1079.8725198346
 31
0.0
  0
LINE
  5
2F8
330
1F
100
AcDbEntity
  8
0
100
AcDbLine
 10
164.7872647188
 20
504.8725198346
 30
0.0
 11
1444.7872647188
 21
504.8725198346
 31
0.0
  0
LINE
  5
2F9
330
1F
100
AcDbEntity
  8
0
100
AcDbLine
 10
164.7872647188
 20
504.8725198346
 30
0.0
 11
164.7872647188
 21
517.8725198346
 31
0.0
  0
LINE
  5
2FA
330
1F
100
AcDbEntity
  8
0
100
AcDbLine
 10
164.7872647188
 20
517.8725198346
 30
0.0
 11
1444.7872647188
 21
517.8725198346
 31
0.0
  0
LINE
  5
2FB
330
1F
100
AcDbEntity
  8
0
100
AcDbLine
 10
1444.7872647188
 20
504.8725198346
 30
0.0
 11
1444.7872647188
 21
517.8725198346
 31
0.0
  0
LINE
  5
2FC
330
1F
100
AcDbEntity
  8
0
100
AcDbLine
 10
164.7872647188
 20
503.8725198346
 30
0.0
 11
1444.7872647188
 21
503.8725198346
 31
0.0
  0
LINE
  5
2FD
330
1F
100
AcDbEntity
  8
0
100
AcDbLine
 10
164.7872647188
 20
503.8725198346
 30
0.0
 11
164.7872647188
 21
504.8725198346
 31
0.0
  0
LINE
  5
2FE
330
1F
100
AcDbEntity
  8
0
100
AcDbLine
 10
1444.7872647188
 20
503.8725198346
 30
0.0
 11
1444.7872647188
 21
504.8725198346
 31
0.0
  0
LINE
  5
2FF
330
1F
100
AcDbEntity
  8
0
100
AcDbLine
 10
164.7872647188
 20
517.8725198346
 30
0.0
 11
164.7872647188
 21
518.8725198346
 31
0.0
  0
LINE
  5
300
330
1F
100
AcDbEntity
  8
0
100
AcDbLine
 10
189.7872647188
 20
518.8725198346
 30
0.0
 11
1419.7872647188
 21
518.8725198346
 31
0.0
  0
LINE
  5
301
330
1F
100
AcDbEntity
  8
0
100
AcDbLine
 10
1444.7872647188
 20
517.8725198346
 30
0.0
 11
1444.7872647188
 21
518.8725198346
 31
0.0
  0
LINE
  5
302
330
1F
100
AcDbEntity
  8
0
100
AcDbLine
 10
1448.7872647188
 20
518.8725198346
 30
0.0
 11
1448.7872647188
 21
1078.8725198346
 31
0.0
  0
LINE
  5
303
330
1F
100
AcDbEntity
  8
0
100
AcDbLine
 10
1448.7872647188
 20
518.8725198346
 30
0.0
 11
1420.7872647188
 21
518.8725198346
 31
0.0
  0
LINE
  5
304
330
1F
100
AcDbEntity
  8
0
100
AcDbLine
 10
1420.7872647188
 20
518.8725198346
 30
0.0
 11
1420.7872647188
 21
1078.8725198346
 31
0.0
  0
LINE
  5
305
330
1F
100
AcDbEntity
  8
0
100
AcDbLine
 10
1448.7872647188
 20
1078.8725198346
 30
0.0
 11
1420.7872647188
 21
1078.8725198346
 31
0.0
  0
LINE
  5
306
330
1F
100
AcDbEntity
  8
0
100
AcDbLine
 10
1449.7872647188
 20
518.8725198346
 30
0.0
 11
1449.7872647188
 21
1078.8725198346
 31
0.0
  0
LINE
  5
307
330
1F
100
AcDbEntity
  8
0
100
AcDbLine
 10
1449.7872647188
 20
518.8725198346
 30
0.0
 11
1448.7872647188
 21
518.8725198346
 31
0.0
  0
LINE
  5
308
330
1F
100
AcDbEntity
  8
0
100
AcDbLine
 10
1449.7872647188
 20
1078.8725198346
 30
0.0
 11
1448.7872647188
 21
1078.8725198346
 31
0.0
  0
LINE
  5
309
330
1F
100
AcDbEntity
  8
0
100
AcDbLine
 10
1419.7872647188
 20
518.8725198346
 30
0.0
 11
1419.7872647188
 21
1078.8725198346
 31
0.0
  0
LINE
  5
30A
330
1F
100
AcDbEntity
  8
0
100
AcDbLine
 10
1420.7872647188
 20
518.8725198346
 30
0.0
 11
1419.7872647188
 21
518.8725198346
 31
0.0
  0
LINE
  5
30B
330
1F
100
AcDbEntity
  8
0
100
AcDbLine
 10
1420.7872647188
 20
1078.8725198346
 30
0.0
 11
1419.7872647188
 21
1078.8725198346
 31
0.0
  0
LINE
  5
30C
330
1F
100
AcDbEntity
  8
0
100
AcDbLine
 10
190.4372647188
 20
716.8725198346
 30
0.0
 11
191.1372647187
 21
716.8725198346
 31
0.0
  0
LINE
  5
30D
330
1F
100
AcDbEntity
  8
0
100
AcDbLine
 10
190.4372647188
 20
730.8725198346
 30
0.0
 11
191.1372647187
 21
730.8725198346
 31
0.0
  0
LINE
  5
30E
330
1F
100
AcDbEntity
  8
0
100
AcDbLine
 10
191.1372647187
 20
716.8725198346
 30
0.0
 11
191.1372647187
 21
730.8725198346
 31
0.0
  0
LINE
  5
30F
330
1F
100
AcDbEntity
  8
0
100
AcDbLine
 10
191.1372647187
 20
729.8725198346
 30
0.0
 11
191.2872647188
 21
729.8725198346
 31
0.0
  0
LINE
  5
310
330
1F
100
AcDbEntity
  8
0
100
AcDbLine
 10
191.1372647187
 20
717.8725198346
 30
0.0
 11
191.2872647188
 21
717.8725198346
 31
0.0
  0
LINE
  5
311
330
1F
100
AcDbEntity
  8
0
100
AcDbLine
 10
1419.1372647188
 20
930.8725198346
 30
0.0
 11
1418.4372647188
 21
930.8725198346
 31
0.0
  0
LINE
  5
312
330
1F
100
AcDbEntity
  8
0
100
AcDbLine
 10
1419.1372647188
 20
916.8725198346
 30
0.0
 11
1418.4372647188
 21
916.8725198346
 31
0.0
  0
LINE
  5
313
330
1F
100
AcDbEntity
  8
0
100
AcDbLine
 10
1418.4372647188
 20
930.8725198346
 30
0.0
 11
1418.4372647188
 21
916.8725198346
 31
0.0
  0
LINE
  5
314
330
1F
100
AcDbEntity
  8
0
100
AcDbLine
 10
1418.4372647188
 20
929.8725198346
 30
0.0
 11
1418.2872647188
 21
929.8725198346
 31
0.0
  0
LINE
  5
315
330
1F
100
AcDbEntity
  8
0
100
AcDbLine
 10
1418.4372647188
 20
917.8725198346
 30
0.0
 11
1418.2872647188
 21
917.8725198346
 31
0.0
  0
LINE
  5
316
330
1F
100
AcDbEntity
  8
0
100
AcDbLine
 10
1419.1372647188
 20
1030.8725198346
 30
0.0
 11
1418.4372647188
 21
1030.8725198346
 31
0.0
  0
LINE
  5
317
330
1F
100
AcDbEntity
  8
0
100
AcDbLine
 10
1419.1372647188
 20
1016.8725198346
 30
0.0
 11
1418.4372647188
 21
1016.8725198346
 31
0.0
  0
LINE
  5
318
330
1F
100
AcDbEntity
  8
0
100
AcDbLine
 10
1418.4372647188
 20
1030.8725198346
 30
0.0
 11
1418.4372647188
 21
1016.8725198346
 31
0.0
  0
LINE
  5
319
330
1F
100
AcDbEntity
  8
0
100
AcDbLine
 10
1418.4372647188
 20
1029.8725198346
 30
0.0
 11
1418.2872647188
 21
1029.8725198346
 31
0.0
  0
LINE
  5
31A
330
1F
100
AcDbEntity
  8
0
100
AcDbLine
 10
1418.4372647188
 20
1017.8725198346
 30
0.0
 11
1418.2872647188
 21
1017.8725198346
 31
0.0
  0
LINE
  5
31B
330
1F
100
AcDbEntity
  8
0
100
AcDbLine
 10
1419.1372647188
 20
830.8725198346
 30
0.0
 11
1418.4372647188
 21
830.8725198346
 31
0.0
  0
LINE
  5
31C
330
1F
100
AcDbEntity
  8
0
100
AcDbLine
 10
1419.1372647188
 20
816.8725198346
 30
0.0
 11
1418.4372647188
 21
816.8725198346
 31
0.0
  0
LINE
  5
31D
330
1F
100
AcDbEntity
  8
0
100
AcDbLine
 10
1418.4372647188
 20
830.8725198346
 30
0.0
 11
1418.4372647188
 21
816.8725198346
 31
0.0
  0
LINE
  5
31E
330
1F
100
AcDbEntity
  8
0
100
AcDbLine
 10
1418.4372647188
 20
829.8725198346
 30
0.0
 11
1418.2872647188
 21
829.8725198346
 31
0.0
  0
LINE
  5
31F
330
1F
100
AcDbEntity
  8
0
100
AcDbLine
 10
1418.4372647188
 20
817.8725198346
 30
0.0
 11
1418.2872647188
 21
817.8725198346
 31
0.0
  0
LINE
  5
320
330
1F
100
AcDbEntity
  8
0
100
AcDbLine
 10
191.1372647187
 20
616.8725198346
 30
0.0
 11
191.1372647187
 21
630.8725198346
 31
0.0
  0
LINE
  5
321
330
1F
100
AcDbEntity
  8
0
100
AcDbLine
 10
190.4372647185
 20
616.8725198346
 30
0.0
 11
191.1372647187
 21
616.8725198346
 31
0.0
  0
LINE
  5
322
330
1F
100
AcDbEntity
  8
0
100
AcDbLine
 10
190.4372647185
 20
630.8725198346
 30
0.0
 11
191.1372647187
 21
630.8725198346
 31
0.0
  0
LINE
  5
323
330
1F
100
AcDbEntity
  8
0
100
AcDbLine
 10
191.1372647187
 20
617.8725198346
 30
0.0
 11
191.2872647188
 21
617.8725198346
 31
0.0
  0
LINE
  5
324
330
1F
100
AcDbEntity
  8
0
100
AcDbLine
 10
191.1372647187
 20
629.8725198346
 30
0.0
 11
191.2872647188
 21
629.8725198346
 31
0.0
  0
LINE
  5
325
330
1F
100
AcDbEntity
  8
0
100
AcDbLine
 10
1419.1372647188
 20
630.8725198346
 30
0.0
 11
1418.4372647188
 21
630.8725198346
 31
0.0
  0
LINE
  5
326
330
1F
100
AcDbEntity
  8
0
100
AcDbLine
 10
1419.1372647188
 20
616.8725198346
 30
0.0
 11
1418.4372647188
 21
616.8725198346
 31
0.0
  0
LINE
  5
327
330
1F
100
AcDbEntity
  8
0
100
AcDbLine
 10
1418.4372647188
 20
630.8725198346
 30
0.0
 11
1418.4372647188
 21
616.8725198346
 31
0.0
  0
LINE
  5
328
330
1F
100
AcDbEntity
  8
0
100
AcDbLine
 10
1418.4372647188
 20
617.8725198346
 30
0.0
 11
1418.2872647188
 21
617.8725198346
 31
0.0
  0
LINE
  5
329
330
1F
100
AcDbEntity
  8
0
100
AcDbLine
 10
1418.4372647188
 20
629.8725198346
 30
0.0
 11
1418.2872647188
 21
629.8725198346
 31
0.0
  0
LINE
  5
32A
330
1F
100
AcDbEntity
  8
0
100
AcDbLine
 10
191.1372647187
 20
916.8725198346
 30
0.0
 11
191.1372647187
 21
930.8725198346
 31
0.0
  0
LINE
  5
32B
330
1F
100
AcDbEntity
  8
0
100
AcDbLine
 10
190.4372647185
 20
930.8725198346
 30
0.0
 11
191.1372647187
 21
930.8725198346
 31
0.0
  0
LINE
  5
32C
330
1F
100
AcDbEntity
  8
0
100
AcDbLine
 10
190.4372647185
 20
916.8725198346
 30
0.0
 11
191.1372647187
 21
916.8725198346
 31
0.0
  0
LINE
  5
32D
330
1F
100
AcDbEntity
  8
0
100
AcDbLine
 10
191.1372647187
 20
917.8725198346
 30
0.0
 11
191.2872647188
 21
917.8725198346
 31
0.0
  0
LINE
  5
32E
330
1F
100
AcDbEntity
  8
0
100
AcDbLine
 10
191.1372647187
 20
929.8725198346
 30
0.0
 11
191.2872647188
 21
929.8725198346
 31
0.0
  0
LINE
  5
32F
330
1F
100
AcDbEntity
  8
0
100
AcDbLine
 10
190.4372647185
 20
1016.8725198346
 30
0.0
 11
191.1372647189
 21
1016.8725198346
 31
0.0
  0
LINE
  5
330
330
1F
100
AcDbEntity
  8
0
100
AcDbLine
 10
190.4372647185
 20
1030.8725198346
 30
0.0
 11
191.1372647189
 21
1030.8725198346
 31
0.0
  0
LINE
  5
331
330
1F
100
AcDbEntity
  8
0
100
AcDbLine
 10
191.1372647189
 20
1016.8725198346
 30
0.0
 11
191.1372647189
 21
1030.8725198346
 31
0.0
  0
LINE
  5
332
330
1F
100
AcDbEntity
  8
0
100
AcDbLine
 10
191.1372647189
 20
1017.8725198346
 30
0.0
 11
191.2872647188
 21
1017.8725198346
 31
0.0
  0
LINE
  5
333
330
1F
100
AcDbEntity
  8
0
100
AcDbLine
 10
191.1372647189
 20
1029.8725198346
 30
0.0
 11
191.2872647188
 21
1029.8725198346
 31
0.0
  0
LINE
  5
334
330
1F
100
AcDbEntity
  8
0
100
AcDbLine
 10
1419.1372647188
 20
716.8725198346
 30
0.0
 11
1418.4372647188
 21
716.8725198346
 31
0.0
  0
LINE
  5
335
330
1F
100
AcDbEntity
  8
0
100
AcDbLine
 10
1419.1372647188
 20
730.8725198346
 30
0.0
 11
1418.4372647188
 21
730.8725198346
 31
0.0
  0
LINE
  5
336
330
1F
100
AcDbEntity
  8
0
100
AcDbLine
 10
1418.4372647188
 20
730.8725198346
 30
0.0
 11
1418.4372647188
 21
716.8725198346
 31
0.0
  0
LINE
  5
337
330
1F
100
AcDbEntity
  8
0
100
AcDbLine
 10
1418.4372647188
 20
717.8725198346
 30
0.0
 11
1418.2872647188
 21
717.8725198346
 31
0.0
  0
LINE
  5
338
330
1F
100
AcDbEntity
  8
0
100
AcDbLine
 10
1418.4372647188
 20
729.8725198346
 30
0.0
 11
1418.2872647188
 21
729.8725198346
 31
0.0
  0
LINE
  5
339
330
1F
100
AcDbEntity
  8
0
100
AcDbLine
 10
141.7872647187
 20
817.8725198346
 30
0.0
 11
146.7872647188
 21
817.8725198346
 31
0.0
  0
LINE
  5
33A
330
1F
100
AcDbEntity
  8
0
100
AcDbLine
 10
190.4372647189
 20
817.8725198346
 30
0.0
 11
191.2872647188
 21
817.8725198346
 31
0.0
  0
LINE
  5
33B
330
1F
100
AcDbEntity
  8
0
100
AcDbLine
 10
141.7872647187
 20
817.8725198346
 30
0.0
 11
141.7872647187
 21
829.8725198346
 31
0.0
  0
LINE
  5
33C
330
1F
100
AcDbEntity
  8
0
100
AcDbLine
 10
141.7872647187
 20
829.8725198346
 30
0.0
 11
146.7872647188
 21
829.8725198346
 31
0.0
  0
LINE
  5
33D
330
1F
100
AcDbEntity
  8
0
100
AcDbLine
 10
190.4372647189
 20
829.8725198346
 30
0.0
 11
191.2872647188
 21
829.8725198346
 31
0.0
  0
LINE
  5
33E
330
1F
100
AcDbEntity
  8
0
100
AcDbLine
 10
141.7872647187
 20
827.8725198346
 30
0.0
 11
96.7872647187
 21
827.8725198346
 31
0.0
  0
LINE
  5
33F
330
1F
100
AcDbEntity
  8
0
100
AcDbLine
 10
141.7872647187
 20
819.8725198346
 30
0.0
 11
96.7872647187
 21
819.8725198346
 31
0.0
  0
LINE
  5
340
330
1F
100
AcDbEntity
  8
0
100
AcDbLine
 10
96.7872647187
 20
819.8725198346
 30
0.0
 11
96.7872647187
 21
827.8725198346
 31
0.0
  0
LINE
  5
341
330
1F
100
AcDbEntity
  8
0
100
AcDbLine
 10
1419.1372647188
 20
635.7198824103
 30
0.0
 11
1419.1372647188
 21
615.6724067329
 31
0.0
  0
ARC
  5
342
330
1F
100
AcDbEntity
  8
0
100
AcDbCircle
 10
1409.9372647188
 20
623.8725198346
 30
0.0
 40
15.00000000000004
100
AcDbArc
 50
48.95385341480001
 51
52.1690831041
  0
LINE
  5
343
330
1F
100
AcDbEntity
  8
0
100
AcDbLine
 10
1414.9372647188
 20
613.3724067329
 30
0.0
 11
1414.9372647188
 21
615.6724067329
 31
0.0
  0
LINE
  5
344
330
1F
100
AcDbEntity
  8
0
100
AcDbLine
 10
1414.9372647188
 20
615.6724067329
 30
0.0
 11
1419.7872647188
 21
615.6724067329
 31
0.0
  0
LINE
  5
345
330
1F
100
AcDbEntity
  8
0
100
AcDbLine
 10
1414.9372647188
 20
613.3724067329
 30
0.0
 11
1419.7872647188
 21
613.3724067329
 31
0.0
  0
LINE
  5
346
330
1F
100
AcDbEntity
  8
0
100
AcDbLine
 10
1414.9372647188
 20
611.8724067329
 30
0.0
 11
1414.9372647188
 21
613.3724067329
 31
0.0
  0
LINE
  5
347
330
1F
100
AcDbEntity
  8
0
100
AcDbLine
 10
1419.1372647188
 20
673.8725198346
 30
0.0
 11
1419.1372647188
 21
635.7198824103
 31
0.0
  0
LINE
  5
348
330
1F
100
AcDbEntity
  8
0
100
AcDbLine
 10
1419.1372647188
 20
673.8725198346
 30
0.0
 11
1419.7872647188
 21
673.8725198346
 31
0.0
  0
LINE
  5
349
330
1F
100
AcDbEntity
  8
0
100
AcDbLine
 10
1414.9372647188
 20
573.8725198346
 30
0.0
 11
1414.9372647188
 21
611.8724067329
 31
0.0
  0
LINE
  5
34A
330
1F
100
AcDbEntity
  8
0
100
AcDbLine
 10
1414.9372647188
 20
573.8725198346
 30
0.0
 11
1419.7872647188
 21
573.8725198346
 31
0.0
  0
LINE
  5
34B
330
1F
100
AcDbEntity
  8
0
100
AcDbLine
 10
1418.2872647188
 20
634.4698712607
 30
0.0
 11
1419.1372647188
 21
634.4698712607
 31
0.0
  0
LINE
  5
34C
330
1F
100
AcDbEntity
  8
0
100
AcDbLine
 10
1418.2872647188
 20
673.8725198346
 30
0.0
 11
1419.1372647188
 21
673.8725198346
 31
0.0
  0
LINE
  5
34D
330
1F
100
AcDbEntity
  8
0
100
AcDbLine
 10
1418.2872647188
 20
632.0726329364
 30
0.0
 11
1419.1372647188
 21
632.0726329364
 31
0.0
  0
LINE
  5
34E
330
1F
100
AcDbEntity
  8
0
100
AcDbLine
 10
1419.1372647188
 20
835.7198824103
 30
0.0
 11
1419.1372647188
 21
815.6724067329
 31
0.0
  0
ARC
  5
34F
330
1F
100
AcDbEntity
  8
0
100
AcDbCircle
 10
1409.9372647188
 20
823.8725198346
 30
0.0
 40
14.99999999999995
100
AcDbArc
 50
48.95385341480001
 51
52.1690831041
  0
LINE
  5
350
330
1F
100
AcDbEntity
  8
0
100
AcDbLine
 10
1414.9372647188
 20
813.3724067329
 30
0.0
 11
1419.7872647188
 21
813.3724067329
 31
0.0
  0
LINE
  5
351
330
1F
100
AcDbEntity
  8
0
100
AcDbLine
 10
1414.9372647188
 20
813.3724067329
 30
0.0
 11
1414.9372647188
 21
815.6724067329
 31
0.0
  0
LINE
  5
352
330
1F
100
AcDbEntity
  8
0
100
AcDbLine
 10
1414.9372647188
 20
815.6724067329
 30
0.0
 11
1419.7872647188
 21
815.6724067329
 31
0.0
  0
LINE
  5
353
330
1F
100
AcDbEntity
  8
0
100
AcDbLine
 10
1414.9372647188
 20
811.8724067329
 30
0.0
 11
1414.9372647188
 21
813.3724067329
 31
0.0
  0
LINE
  5
354
330
1F
100
AcDbEntity
  8
0
100
AcDbLine
 10
1419.1372647188
 20
873.8725198346
 30
0.0
 11
1419.1372647188
 21
835.7198824103
 31
0.0
  0
LINE
  5
355
330
1F
100
AcDbEntity
  8
0
100
AcDbLine
 10
1419.1372647188
 20
873.8725198346
 30
0.0
 11
1419.7872647188
 21
873.8725198346
 31
0.0
  0
LINE
  5
356
330
1F
100
AcDbEntity
  8
0
100
AcDbLine
 10
1414.9372647188
 20
773.8725198346
 30
0.0
 11
1414.9372647188
 21
811.8724067329
 31
0.0
  0
LINE
  5
357
330
1F
100
AcDbEntity
  8
0
100
AcDbLine
 10
1414.9372647188
 20
773.8725198346
 30
0.0
 11
1419.7872647188
 21
773.8725198346
 31
0.0
  0
LINE
  5
358
330
1F
100
AcDbEntity
  8
0
100
AcDbLine
 10
1418.2872647188
 20
834.4698712607
 30
0.0
 11
1419.1372647188
 21
834.4698712607
 31
0.0
  0
LINE
  5
359
330
1F
100
AcDbEntity
  8
0
100
AcDbLine
 10
1418.2872647188
 20
873.8725198346
 30
0.0
 11
1419.1372647188
 21
873.8725198346
 31
0.0
  0
LINE
  5
35A
330
1F
100
AcDbEntity
  8
0
100
AcDbLine
 10
1418.2872647188
 20
832.0726329364
 30
0.0
 11
1419.1372647188
 21
832.0726329364
 31
0.0
  0
LINE
  5
35B
330
1F
100
AcDbEntity
  8
0
100
AcDbLine
 10
1419.1372647188
 20
1035.7198824103
 30
0.0
 11
1419.1372647188
 21
1015.6724067329
 31
0.0
  0
ARC
  5
35C
330
1F
100
AcDbEntity
  8
0
100
AcDbCircle
 10
1409.9372647188
 20
1023.8725198346
 30
0.0
 40
15.00000000000027
100
AcDbArc
 50
48.95385341480001
 51
52.1690831041
  0
LINE
  5
35D
330
1F
100
AcDbEntity
  8
0
100
AcDbLine
 10
1414.9372647188
 20
1013.3724067329
 30
0.0
 11
1414.9372647188
 21
1015.6724067329
 31
0.0
  0
LINE
  5
35E
330
1F
100
AcDbEntity
  8
0
100
AcDbLine
 10
1414.9372647188
 20
1015.6724067329
 30
0.0
 11
1419.7872647188
 21
1015.6724067329
 31
0.0
  0
LINE
  5
35F
330
1F
100
AcDbEntity
  8
0
100
AcDbLine
 10
1414.9372647188
 20
1013.3724067329
 30
0.0
 11
1419.7872647188
 21
1013.3724067329
 31
0.0
  0
LINE
  5
360
330
1F
100
AcDbEntity
  8
0
100
AcDbLine
 10
1414.9372647188
 20
1011.8724067329
 30
0.0
 11
1414.9372647188
 21
1013.3724067329
 31
0.0
  0
LINE
  5
361
330
1F
100
AcDbEntity
  8
0
100
AcDbLine
 10
1419.1372647188
 20
1073.8725198346
 30
0.0
 11
1419.1372647188
 21
1035.7198824103
 31
0.0
  0
LINE
  5
362
330
1F
100
AcDbEntity
  8
0
100
AcDbLine
 10
1419.1372647188
 20
1073.8725198346
 30
0.0
 11
1419.7872647188
 21
1073.8725198346
 31
0.0
  0
LINE
  5
363
330
1F
100
AcDbEntity
  8
0
100
AcDbLine
 10
1414.9372647188
 20
973.8725198346
 30
0.0
 11
1414.9372647188
 21
1011.8724067329
 31
0.0
  0
LINE
  5
364
330
1F
100
AcDbEntity
  8
0
100
AcDbLine
 10
1414.9372647188
 20
973.8725198346
 30
0.0
 11
1419.7872647188
 21
973.8725198346
 31
0.0
  0
LINE
  5
365
330
1F
100
AcDbEntity
  8
0
100
AcDbLine
 10
1418.2872647188
 20
1034.4698712607
 30
0.0
 11
1419.1372647188
 21
1034.4698712607
 31
0.0
  0
LINE
  5
366
330
1F
100
AcDbEntity
  8
0
100
AcDbLine
 10
1418.2872647188
 20
1073.8725198346
 30
0.0
 11
1419.1372647188
 21
1073.8725198346
 31
0.0
  0
LINE
  5
367
330
1F
100
AcDbEntity
  8
0
100
AcDbLine
 10
1418.2872647188
 20
1032.0726329364
 30
0.0
 11
1419.1372647188
 21
1032.0726329364
 31
0.0
  0
LINE
  5
368
330
1F
100
AcDbEntity
  8
0
100
AcDbLine
 10
190.4372647185
 20
912.0251572589
 30
0.0
 11
190.4372647185
 21
932.0726329364
 31
0.0
  0
ARC
  5
369
330
1F
100
AcDbEntity
  8
0
100
AcDbCircle
 10
199.6372647185
 20
923.8725198346
 30
0.0
 40
15.0000000000001
100
AcDbArc
 50
228.9538534164
 51
232.1690831041
  0
LINE
  5
36A
330
1F
100
AcDbEntity
  8
0
100
AcDbLine
 10
194.6372647185
 20
934.3726329364
 30
0.0
 11
189.7872647188
 21
934.3726329364
 31
0.0
  0
LINE
  5
36B
330
1F
100
AcDbEntity
  8
0
100
AcDbLine
 10
194.6372647185
 20
932.0726329364
 30
0.0
 11
189.7872647188
 21
932.0726329364
 31
0.0
  0
LINE
  5
36C
330
1F
100
AcDbEntity
  8
0
100
AcDbLine
 10
194.6372647185
 20
934.3726329364
 30
0.0
 11
194.6372647185
 21
932.0726329364
 31
0.0
  0
LINE
  5
36D
330
1F
100
AcDbEntity
  8
0
100
AcDbLine
 10
194.6372647185
 20
935.8726329364
 30
0.0
 11
194.6372647185
 21
934.3726329364
 31
0.0
  0
LINE
  5
36E
330
1F
100
AcDbEntity
  8
0
100
AcDbLine
 10
194.6372647185
 20
973.8725198346
 30
0.0
 11
194.6372647185
 21
935.8726329364
 31
0.0
  0
LINE
  5
36F
330
1F
100
AcDbEntity
  8
0
100
AcDbLine
 10
194.6372647185
 20
973.8725198346
 30
0.0
 11
189.7872647188
 21
973.8725198346
 31
0.0
  0
LINE
  5
370
330
1F
100
AcDbEntity
  8
0
100
AcDbLine
 10
190.4372647185
 20
912.0251572589
 30
0.0
 11
190.4372647185
 21
873.8725198346
 31
0.0
  0
LINE
  5
371
330
1F
100
AcDbEntity
  8
0
100
AcDbLine
 10
189.7872647188
 20
873.8725198346
 30
0.0
 11
190.4372647185
 21
873.8725198346
 31
0.0
  0
LINE
  5
372
330
1F
100
AcDbEntity
  8
0
100
AcDbLine
 10
191.2872647188
 20
913.2751684085
 30
0.0
 11
190.4372647185
 21
913.2751684085
 31
0.0
  0
LINE
  5
373
330
1F
100
AcDbEntity
  8
0
100
AcDbLine
 10
191.2872647188
 20
873.8725198346
 30
0.0
 11
190.4372647185
 21
873.8725198346
 31
0.0
  0
LINE
  5
374
330
1F
100
AcDbEntity
  8
0
100
AcDbLine
 10
191.2872647188
 20
915.6724067329
 30
0.0
 11
190.4372647185
 21
915.6724067329
 31
0.0
  0
LINE
  5
375
330
1F
100
AcDbEntity
  8
0
100
AcDbLine
 10
190.4372647188
 20
712.0251572589
 30
0.0
 11
190.4372647188
 21
732.0726329364
 31
0.0
  0
ARC
  5
376
330
1F
100
AcDbEntity
  8
0
100
AcDbCircle
 10
199.6372647188
 20
723.8725198346
 30
0.0
 40
15.00000000000002
100
AcDbArc
 50
228.9538534148
 51
232.1690831041
  0
LINE
  5
377
330
1F
100
AcDbEntity
  8
0
100
AcDbLine
 10
194.6372647188
 20
734.3726329364
 30
0.0
 11
194.6372647188
 21
732.0726329364
 31
0.0
  0
LINE
  5
378
330
1F
100
AcDbEntity
  8
0
100
AcDbLine
 10
194.6372647188
 20
734.3726329364
 30
0.0
 11
189.7872647188
 21
734.3726329364
 31
0.0
  0
LINE
  5
379
330
1F
100
AcDbEntity
  8
0
100
AcDbLine
 10
194.6372647188
 20
732.0726329364
 30
0.0
 11
189.7872647188
 21
732.0726329364
 31
0.0
  0
LINE
  5
37A
330
1F
100
AcDbEntity
  8
0
100
AcDbLine
 10
194.6372647188
 20
735.8726329364
 30
0.0
 11
194.6372647188
 21
734.3726329364
 31
0.0
  0
LINE
  5
37B
330
1F
100
AcDbEntity
  8
0
100
AcDbLine
 10
194.6372647188
 20
773.8725198346
 30
0.0
 11
194.6372647188
 21
735.8726329364
 31
0.0
  0
LINE
  5
37C
330
1F
100
AcDbEntity
  8
0
100
AcDbLine
 10
194.6372647188
 20
773.8725198346
 30
0.0
 11
189.7872647188
 21
773.8725198346
 31
0.0
  0
LINE
  5
37D
330
1F
100
AcDbEntity
  8
0
100
AcDbLine
 10
190.4372647188
 20
712.0251572589
 30
0.0
 11
190.4372647188
 21
673.8725198346
 31
0.0
  0
LINE
  5
37E
330
1F
100
AcDbEntity
  8
0
100
AcDbLine
 10
189.7872647188
 20
673.8725198346
 30
0.0
 11
190.4372647188
 21
673.8725198346
 31
0.0
  0
LINE
  5
37F
330
1F
100
AcDbEntity
  8
0
100
AcDbLine
 10
191.2872647188
 20
713.2751684085
 30
0.0
 11
190.4372647188
 21
713.2751684085
 31
0.0
  0
LINE
  5
380
330
1F
100
AcDbEntity
  8
0
100
AcDbLine
 10
191.2872647188
 20
673.8725198346
 30
0.0
 11
190.4372647188
 21
673.8725198346
 31
0.0
  0
LINE
  5
381
330
1F
100
AcDbEntity
  8
0
100
AcDbLine
 10
191.2872647188
 20
715.6724067329
 30
0.0
 11
190.4372647188
 21
715.6724067329
 31
0.0
  0
ARC
  5
382
330
1F
100
AcDbEntity
  8
0
100
AcDbCircle
 10
1409.9372647188
 20
723.8725198346
 30
0.0
 40
15.00000000000002
100
AcDbArc
 50
307.8309168959
 51
311.0461465852
  0
LINE
  5
383
330
1F
100
AcDbEntity
  8
0
100
AcDbLine
 10
1419.1372647188
 20
732.0726329364
 30
0.0
 11
1419.1372647188
 21
712.0251572589
 31
0.0
  0
LINE
  5
384
330
1F
100
AcDbEntity
  8
0
100
AcDbLine
 10
1414.9372647188
 20
732.0726329364
 30
0.0
 11
1414.9372647188
 21
734.3726329364
 31
0.0
  0
LINE
  5
385
330
1F
100
AcDbEntity
  8
0
100
AcDbLine
 10
1414.9372647188
 20
734.3726329364
 30
0.0
 11
1419.7872647188
 21
734.3726329364
 31
0.0
  0
LINE
  5
386
330
1F
100
AcDbEntity
  8
0
100
AcDbLine
 10
1414.9372647188
 20
732.0726329364
 30
0.0
 11
1419.7872647188
 21
732.0726329364
 31
0.0
  0
LINE
  5
387
330
1F
100
AcDbEntity
  8
0
100
AcDbLine
 10
1414.9372647188
 20
734.3726329364
 30
0.0
 11
1414.9372647188
 21
735.8726329364
 31
0.0
  0
LINE
  5
388
330
1F
100
AcDbEntity
  8
0
100
AcDbLine
 10
1414.9372647188
 20
735.8726329364
 30
0.0
 11
1414.9372647188
 21
773.8725198346
 31
0.0
  0
LINE
  5
389
330
1F
100
AcDbEntity
  8
0
100
AcDbLine
 10
1419.1372647188
 20
673.8725198346
 30
0.0
 11
1419.1372647188
 21
712.0251572589
 31
0.0
  0
LINE
  5
38A
330
1F
100
AcDbEntity
  8
0
100
AcDbLine
 10
1418.2872647188
 20
713.2751684085
 30
0.0
 11
1419.1372647188
 21
713.2751684085
 31
0.0
  0
LINE
  5
38B
330
1F
100
AcDbEntity
  8
0
100
AcDbLine
 10
1418.2872647188
 20
715.6724067329
 30
0.0
 11
1419.1372647188
 21
715.6724067329
 31
0.0
  0
ARC
  5
38C
330
1F
100
AcDbEntity
  8
0
100
AcDbCircle
 10
199.6372647185
 20
623.8725198346
 30
0.0
 40
15.00000000000005
100
AcDbArc
 50
127.8309168959
 51
131.0461465837
  0
LINE
  5
38D
330
1F
100
AcDbEntity
  8
0
100
AcDbLine
 10
190.4372647185
 20
615.6724067329
 30
0.0
 11
190.4372647185
 21
635.7198824103
 31
0.0
  0
LINE
  5
38E
330
1F
100
AcDbEntity
  8
0
100
AcDbLine
 10
194.6372647185
 20
615.6724067329
 30
0.0
 11
189.7872647188
 21
615.6724067329
 31
0.0
  0
LINE
  5
38F
330
1F
100
AcDbEntity
  8
0
100
AcDbLine
 10
194.6372647185
 20
615.6724067329
 30
0.0
 11
194.6372647185
 21
613.3724067329
 31
0.0
  0
LINE
  5
390
330
1F
100
AcDbEntity
  8
0
100
AcDbLine
 10
194.6372647185
 20
613.3724067329
 30
0.0
 11
189.7872647188
 21
613.3724067329
 31
0.0
  0
LINE
  5
391
330
1F
100
AcDbEntity
  8
0
100
AcDbLine
 10
194.6372647185
 20
613.3724067329
 30
0.0
 11
194.6372647185
 21
611.8724067329
 31
0.0
  0
LINE
  5
392
330
1F
100
AcDbEntity
  8
0
100
AcDbLine
 10
190.4372647185
 20
635.7198824103
 30
0.0
 11
190.4372647185
 21
673.8725198346
 31
0.0
  0
LINE
  5
393
330
1F
100
AcDbEntity
  8
0
100
AcDbLine
 10
194.6372647185
 20
611.8724067329
 30
0.0
 11
194.6372647185
 21
573.8725198346
 31
0.0
  0
LINE
  5
394
330
1F
100
AcDbEntity
  8
0
100
AcDbLine
 10
194.6372647185
 20
573.8725198346
 30
0.0
 11
189.7872647188
 21
573.8725198346
 31
0.0
  0
LINE
  5
395
330
1F
100
AcDbEntity
  8
0
100
AcDbLine
 10
191.2872647188
 20
634.4698712607
 30
0.0
 11
190.4372647185
 21
634.4698712607
 31
0.0
  0
LINE
  5
396
330
1F
100
AcDbEntity
  8
0
100
AcDbLine
 10
191.2872647188
 20
632.0726329364
 30
0.0
 11
190.4372647185
 21
632.0726329364
 31
0.0
  0
ARC
  5
397
330
1F
100
AcDbEntity
  8
0
100
AcDbCircle
 10
199.6372647185
 20
1023.8725198346
 30
0.0
 40
15.00000000000004
100
AcDbArc
 50
127.8309168959
 51
131.0461465836
  0
LINE
  5
398
330
1F
100
AcDbEntity
  8
0
100
AcDbLine
 10
190.4372647185
 20
1015.6724067329
 30
0.0
 11
190.4372647185
 21
1035.7198824103
 31
0.0
  0
LINE
  5
399
330
1F
100
AcDbEntity
  8
0
100
AcDbLine
 10
194.6372647185
 20
1015.6724067329
 30
0.0
 11
194.6372647185
 21
1013.3724067329
 31
0.0
  0
LINE
  5
39A
330
1F
100
AcDbEntity
  8
0
100
AcDbLine
 10
194.6372647185
 20
1013.3724067329
 30
0.0
 11
189.7872647188
 21
1013.3724067329
 31
0.0
  0
LINE
  5
39B
330
1F
100
AcDbEntity
  8
0
100
AcDbLine
 10
194.6372647185
 20
1015.6724067329
 30
0.0
 11
189.7872647188
 21
1015.6724067329
 31
0.0
  0
LINE
  5
39C
330
1F
100
AcDbEntity
  8
0
100
AcDbLine
 10
194.6372647185
 20
1013.3724067329
 30
0.0
 11
194.6372647185
 21
1011.8724067329
 31
0.0
  0
LINE
  5
39D
330
1F
100
AcDbEntity
  8
0
100
AcDbLine
 10
194.6372647185
 20
1011.8724067329
 30
0.0
 11
194.6372647185
 21
973.8725198346
 31
0.0
  0
LINE
  5
39E
330
1F
100
AcDbEntity
  8
0
100
AcDbLine
 10
190.4372647185
 20
1035.7198824103
 30
0.0
 11
190.4372647185
 21
1073.8725198346
 31
0.0
  0
LINE
  5
39F
330
1F
100
AcDbEntity
  8
0
100
AcDbLine
 10
190.4372647185
 20
1073.8725198346
 30
0.0
 11
189.7872647188
 21
1073.8725198346
 31
0.0
  0
LINE
  5
3A0
330
1F
100
AcDbEntity
  8
0
100
AcDbLine
 10
191.2872647188
 20
1034.4698712607
 30
0.0
 11
190.4372647185
 21
1034.4698712607
 31
0.0
  0
LINE
  5
3A1
330
1F
100
AcDbEntity
  8
0
100
AcDbLine
 10
191.2872647188
 20
1073.8725198346
 30
0.0
 11
190.4372647185
 21
1073.8725198346
 31
0.0
  0
LINE
  5
3A2
330
1F
100
AcDbEntity
  8
0
100
AcDbLine
 10
191.2872647188
 20
1032.0726329364
 30
0.0
 11
190.4372647185
 21
1032.0726329364
 31
0.0
  0
ARC
  5
3A3
330
1F
100
AcDbEntity
  8
0
100
AcDbCircle
 10
199.6372647189
 20
823.8725198346
 30
0.0
 40
15.00000000000006
100
AcDbArc
 50
127.8309168959
 51
131.0461465854
  0
LINE
  5
3A4
330
1F
100
AcDbEntity
  8
0
100
AcDbLine
 10
190.4372647189
 20
815.6724067329
 30
0.0
 11
190.4372647189
 21
835.7198824103
 31
0.0
  0
LINE
  5
3A5
330
1F
100
AcDbEntity
  8
0
100
AcDbLine
 10
194.6372647189
 20
815.6724067329
 30
0.0
 11
189.7872647188
 21
815.6724067329
 31
0.0
  0
LINE
  5
3A6
330
1F
100
AcDbEntity
  8
0
100
AcDbLine
 10
194.6372647189
 20
815.6724067329
 30
0.0
 11
194.6372647189
 21
813.3724067329
 31
0.0
  0
LINE
  5
3A7
330
1F
100
AcDbEntity
  8
0
100
AcDbLine
 10
194.6372647189
 20
813.3724067329
 30
0.0
 11
189.7872647188
 21
813.3724067329
 31
0.0
  0
LINE
  5
3A8
330
1F
100
AcDbEntity
  8
0
100
AcDbLine
 10
194.6372647189
 20
813.3724067329
 30
0.0
 11
194.6372647189
 21
811.8724067329
 31
0.0
  0
LINE
  5
3A9
330
1F
100
AcDbEntity
  8
0
100
AcDbLine
 10
194.6372647189
 20
811.8724067329
 30
0.0
 11
194.6372647189
 21
773.8725198346
 31
0.0
  0
LINE
  5
3AA
330
1F
100
AcDbEntity
  8
0
100
AcDbLine
 10
190.4372647189
 20
835.7198824103
 30
0.0
 11
190.4372647189
 21
873.8725198346
 31
0.0
  0
LINE
  5
3AB
330
1F
100
AcDbEntity
  8
0
100
AcDbLine
 10
191.2872647188
 20
834.4698712607
 30
0.0
 11
190.4372647189
 21
834.4698712607
 31
0.0
  0
LINE
  5
3AC
330
1F
100
AcDbEntity
  8
0
100
AcDbLine
 10
191.2872647188
 20
832.0726329364
 30
0.0
 11
190.4372647189
 21
832.0726329364
 31
0.0
  0
ARC
  5
3AD
330
1F
100
AcDbEntity
  8
0
100
AcDbCircle
 10
1409.9372647188
 20
923.8725198346
 30
0.0
 40
14.99999999999996
100
AcDbArc
 50
307.8309168959
 51
311.0461465852
  0
LINE
  5
3AE
330
1F
100
AcDbEntity
  8
0
100
AcDbLine
 10
1419.1372647188
 20
932.0726329364
 30
0.0
 11
1419.1372647188
 21
912.0251572589
 31
0.0
  0
LINE
  5
3AF
330
1F
100
AcDbEntity
  8
0
100
AcDbLine
 10
1414.9372647188
 20
932.0726329364
 30
0.0
 11
1419.7872647188
 21
932.0726329364
 31
0.0
  0
LINE
  5
3B0
330
1F
100
AcDbEntity
  8
0
100
AcDbLine
 10
1414.9372647188
 20
932.0726329364
 30
0.0
 11
1414.9372647188
 21
934.3726329364
 31
0.0
  0
LINE
  5
3B1
330
1F
100
AcDbEntity
  8
0
100
AcDbLine
 10
1414.9372647188
 20
934.3726329364
 30
0.0
 11
1419.7872647188
 21
934.3726329364
 31
0.0
  0
LINE
  5
3B2
330
1F
100
AcDbEntity
  8
0
100
AcDbLine
 10
1414.9372647188
 20
934.3726329364
 30
0.0
 11
1414.9372647188
 21
935.8726329364
 31
0.0
  0
LINE
  5
3B3
330
1F
100
AcDbEntity
  8
0
100
AcDbLine
 10
1414.9372647188
 20
935.8726329364
 30
0.0
 11
1414.9372647188
 21
973.8725198346
 31
0.0
  0
LINE
  5
3B4
330
1F
100
AcDbEntity
  8
0
100
AcDbLine
 10
1419.1372647188
 20
873.8725198346
 30
0.0
 11
1419.1372647188
 21
912.0251572589
 31
0.0
  0
LINE
  5
3B5
330
1F
100
AcDbEntity
  8
0
100
AcDbLine
 10
1418.2872647188
 20
913.2751684085
 30
0.0
 11
1419.1372647188
 21
913.2751684085
 31
0.0
  0
LINE
  5
3B6
330
1F
100
AcDbEntity
  8
0
100
AcDbLine
 10
1418.2872647188
 20
915.6724067329
 30
0.0
 11
1419.1372647188
 21
915.6724067329
 31
0.0
  0
LINE
  5
3B7
330
1F
100
AcDbEntity
  8
0
100
AcDbLine
 10
189.7872647188
 20
518.8725198346
 30
0.0
 11
189.7872647188
 21
1078.8725198346
 31
0.0
  0
LINE
  5
3B8
330
1F
100
AcDbEntity
  8
0
100
AcDbLine
 10
189.7872647188
 20
518.8725198346
 30
0.0
 11
188.7872647188
 21
518.8725198346
 31
0.0
  0
LINE
  5
3B9
330
1F
100
AcDbEntity
  8
0
100
AcDbLine
 10
188.7872647188
 20
518.8725198346
 30
0.0
 11
188.7872647188
 21
1078.8725198346
 31
0.0
  0
LINE
  5
3BA
330
1F
100
AcDbEntity
  8
0
100
AcDbLine
 10
189.7872647188
 20
1078.8725198346
 30
0.0
 11
188.7872647188
 21
1078.8725198346
 31
0.0
  0
LINE
  5
3BB
330
1F
100
AcDbEntity
  8
0
100
AcDbLine
 10
160.7872647188
 20
518.8725198346
 30
0.0
 11
160.7872647188
 21
1078.8725198346
 31
0.0
  0
LINE
  5
3BC
330
1F
100
AcDbEntity
  8
0
100
AcDbLine
 10
188.7872647188
 20
518.8725198346
 30
0.0
 11
160.7872647188
 21
518.8725198346
 31
0.0
  0
LINE
  5
3BD
330
1F
100
AcDbEntity
  8
0
100
AcDbLine
 10
188.7872647188
 20
1078.8725198346
 30
0.0
 11
160.7872647188
 21
1078.8725198346
 31
0.0
  0
LINE
  5
3BE
330
1F
100
AcDbEntity
  8
0
100
AcDbLine
 10
159.7872647188
 20
518.8725198346
 30
0.0
 11
159.7872647188
 21
1078.8725198346
 31
0.0
  0
LINE
  5
3BF
330
1F
100
AcDbEntity
  8
0
100
AcDbLine
 10
160.7872647188
 20
518.8725198346
 30
0.0
 11
159.7872647188
 21
518.8725198346
 31
0.0
  0
LINE
  5
3C0
330
1F
100
AcDbEntity
  8
0
100
AcDbLine
 10
160.7872647188
 20
1078.8725198346
 30
0.0
 11
159.7872647188
 21
1078.8725198346
 31
0.0
  0
LINE
  5
3C1
330
1F
100
AcDbEntity
  8
0
100
AcDbLine
 10
189.7872647188
 20
520.8725198346
 30
0.0
 11
1419.7872647188
 21
520.8725198346
 31
0.0
  0
LINE
  5
3C2
330
1F
100
AcDbEntity
  8
0
100
AcDbLine
 10
194.6372647185
 20
978.8725223948
 30
0.0
 11
1414.9372647188
 21
978.8725223948
 31
0.0
  0
LINE
  5
3C3
330
1F
100
AcDbEntity
  8
0
100
AcDbLine
 10
194.6372647185
 20
972.1009527464
 30
0.0
 11
1414.9372647188
 21
972.1009527464
 31
0.0
  0
LINE
  5
3C4
330
1F
100
AcDbEntity
  8
0
100
AcDbLine
 10
194.6372647185
 20
951.7649104235
 30
0.0
 11
1414.9372647188
 21
951.7649104235
 31
0.0
  0
LINE
  5
3C5
330
1F
100
AcDbEntity
  8
0
100
AcDbLine
 10
194.6372647189
 20
778.8725223948
 30
0.0
 11
1414.9372647188
 21
778.8725223948
 31
0.0
  0
LINE
  5
3C6
330
1F
100
AcDbEntity
  8
0
100
AcDbLine
 10
194.6372647188
 20
772.1009527464
 30
0.0
 11
1414.9372647188
 21
772.1009527464
 31
0.0
  0
LINE
  5
3C7
330
1F
100
AcDbEntity
  8
0
100
AcDbLine
 10
194.6372647188
 20
751.7649104235
 30
0.0
 11
1414.9372647188
 21
751.7649104235
 31
0.0
  0
LINE
  5
3C8
330
1F
100
AcDbEntity
  8
0
100
AcDbLine
 10
194.6372647185
 20
578.8725223948
 30
0.0
 11
1414.9372647188
 21
578.8725223948
 31
0.0
  0
LINE
  5
3C9
330
1F
100
AcDbEntity
  8
0
100
AcDbLine
 10
1414.9372647188
 20
611.8724067329
 30
0.0
 11
1419.7872647188
 21
611.8724067329
 31
0.0
  0
LINE
  5
3CA
330
1F
100
AcDbEntity
  8
0
100
AcDbLine
 10
1414.9372647188
 20
811.8724067329
 30
0.0
 11
1419.7872647188
 21
811.8724067329
 31
0.0
  0
LINE
  5
3CB
330
1F
100
AcDbEntity
  8
0
100
AcDbLine
 10
1414.9372647188
 20
1011.8724067329
 30
0.0
 11
1419.7872647188
 21
1011.8724067329
 31
0.0
  0
LINE
  5
3CC
330
1F
100
AcDbEntity
  8
0
100
AcDbLine
 10
194.6372647185
 20
935.8726329364
 30
0.0
 11
189.7872647188
 21
935.8726329364
 31
0.0
  0
LINE
  5
3CD
330
1F
100
AcDbEntity
  8
0
100
AcDbLine
 10
194.6372647188
 20
735.8726329364
 30
0.0
 11
189.7872647188
 21
735.8726329364
 31
0.0
  0
LINE
  5
3CE
330
1F
100
AcDbEntity
  8
0
100
AcDbLine
 10
1414.9372647188
 20
735.8726329364
 30
0.0
 11
1419.7872647188
 21
735.8726329364
 31
0.0
  0
LINE
  5
3CF
330
1F
100
AcDbEntity
  8
0
100
AcDbLine
 10
194.6372647185
 20
611.8724067329
 30
0.0
 11
189.7872647188
 21
611.8724067329
 31
0.0
  0
LINE
  5
3D0
330
1F
100
AcDbEntity
  8
0
100
AcDbLine
 10
194.6372647185
 20
1011.8724067329
 30
0.0
 11
189.7872647188
 21
1011.8724067329
 31
0.0
  0
LINE
  5
3D1
330
1F
100
AcDbEntity
  8
0
100
AcDbLine
 10
194.6372647189
 20
811.8724067329
 30
0.0
 11
189.7872647188
 21
811.8724067329
 31
0.0
  0
LINE
  5
3D2
330
1F
100
AcDbEntity
  8
0
100
AcDbLine
 10
1414.9372647188
 20
935.8726329364
 30
0.0
 11
1419.7872647188
 21
935.8726329364
 31
0.0
  0
LINE
  5
3D3
330
1F
100
AcDbEntity
  8
0
100
AcDbLine
 10
164.7872647188
 20
230.5443709007
 30
0.0
 11
1444.7872647188
 21
230.5443709007
 31
0.0
  0
LINE
  5
3D4
330
1F
100
AcDbEntity
  8
0
100
AcDbLine
 10
1444.7872647188
 20
121.544370901
 30
0.0
 11
164.7872647188
 21
121.544370901
 31
0.0
  0
LINE
  5
3D5
330
1F
100
AcDbEntity
  8
0
100
AcDbLine
 10
146.7872647188
 20
131.0444014156
 30
0.0
 11
148.7872647188
 21
131.0444014156
 31
0.0
  0
LINE
  5
3D6
330
1F
100
AcDbEntity
  8
0
100
AcDbLine
 10
146.7872647188
 20
131.0444014156
 30
0.0
 11
146.7872647188
 21
221.0444014156
 31
0.0
  0
LINE
  5
3D7
330
1F
100
AcDbEntity
  8
0
100
AcDbLine
 10
146.7872647188
 20
221.0444014156
 30
0.0
 11
148.7872647188
 21
221.0444014156
 31
0.0
  0
LINE
  5
3D8
330
1F
100
AcDbEntity
  8
0
100
AcDbLine
 10
148.7872647188
 20
197.0444014156
 30
0.0
 11
148.7872647188
 21
221.0444014156
 31
0.0
  0
LINE
  5
3D9
330
1F
100
AcDbEntity
  8
0
100
AcDbLine
 10
168.7872647188
 20
197.0444014156
 30
0.0
 11
168.1717153061
 21
197.0444014156
 31
0.0
  0
LINE
  5
3DA
330
1F
100
AcDbEntity
  8
0
100
AcDbLine
 10
164.7872647188
 20
197.0444014156
 30
0.0
 11
148.7872647188
 21
197.0444014156
 31
0.0
  0
ARC
  5
3DB
330
1F
100
AcDbEntity
  8
0
100
AcDbCircle
 10
169.7872647188
 20
196.0444014156
 30
0.0
 40
1.414213562373115
100
AcDbArc
 50
225.0
 51
135.0
  0
LINE
  5
3DC
330
1F
100
AcDbEntity
  8
0
100
AcDbLine
 10
168.7872647188
 20
195.0444014156
 30
0.0
 11
168.1717153061
 21
195.0444014156
 31
0.0
  0
LINE
  5
3DD
330
1F
100
AcDbEntity
  8
0
100
AcDbLine
 10
164.7872647188
 20
195.0444014156
 30
0.0
 11
148.7872647188
 21
195.0444014156
 31
0.0
  0
LINE
  5
3DE
330
1F
100
AcDbEntity
  8
0
100
AcDbLine
 10
148.7872647188
 20
157.0444014156
 30
0.0
 11
148.7872647188
 21
195.0444014156
 31
0.0
  0
LINE
  5
3DF
330
1F
100
AcDbEntity
  8
0
100
AcDbLine
 10
168.7872647188
 20
157.0444014156
 30
0.0
 11
168.1717153061
 21
157.0444014156
 31
0.0
  0
LINE
  5
3E0
330
1F
100
AcDbEntity
  8
0
100
AcDbLine
 10
164.7872647188
 20
157.0444014156
 30
0.0
 11
148.7872647188
 21
157.0444014156
 31
0.0
  0
ARC
  5
3E1
330
1F
100
AcDbEntity
  8
0
100
AcDbCircle
 10
169.7872647188
 20
156.0444014156
 30
0.0
 40
1.414213562373115
100
AcDbArc
 50
225.0
 51
135.0
  0
LINE
  5
3E2
330
1F
100
AcDbEntity
  8
0
100
AcDbLine
 10
168.7872647188
 20
155.0444014156
 30
0.0
 11
168.1717153061
 21
155.0444014156
 31
0.0
  0
LINE
  5
3E3
330
1F
100
AcDbEntity
  8
0
100
AcDbLine
 10
164.7872647188
 20
155.0444014156
 30
0.0
 11
148.7872647188
 21
155.0444014156
 31
0.0
  0
LINE
  5
3E4
330
1F
100
AcDbEntity
  8
0
100
AcDbLine
 10
148.7872647188
 20
131.0444014156
 30
0.0
 11
148.7872647188
 21
155.0444014156
 31
0.0
  0
LINE
  5
3E5
330
1F
100
AcDbEntity
  8
0
100
AcDbLine
 10
164.7872647188
 20
231.0443709006
 30
0.0
 11
1444.7872647188
 21
231.0443709006
 31
0.0
  0
LINE
  5
3E6
330
1F
100
AcDbEntity
  8
0
100
AcDbLine
 10
1444.7872647188
 20
230.5443709007
 30
0.0
 11
1444.7872647188
 21
231.0443709006
 31
0.0
  0
LINE
  5
3E7
330
1F
100
AcDbEntity
  8
0
100
AcDbLine
 10
164.7872647188
 20
230.5443709007
 30
0.0
 11
164.7872647188
 21
231.0443709006
 31
0.0
  0
LINE
  5
3E8
330
1F
100
AcDbEntity
  8
0
100
AcDbLine
 10
164.7872647188
 20
237.5443709006
 30
0.0
 11
1444.7872647188
 21
237.5443709006
 31
0.0
  0
LINE
  5
3E9
330
1F
100
AcDbEntity
  8
0
100
AcDbLine
 10
1444.7872647188
 20
231.0443709006
 30
0.0
 11
1444.7872647188
 21
237.5443709006
 31
0.0
  0
LINE
  5
3EA
330
1F
100
AcDbEntity
  8
0
100
AcDbLine
 10
164.7872647188
 20
231.0443709006
 30
0.0
 11
164.7872647188
 21
237.5443709006
 31
0.0
  0
LINE
  5
3EB
330
1F
100
AcDbEntity
  8
0
100
AcDbLine
 10
164.7872647188
 20
238.5443709006
 30
0.0
 11
1444.7872647188
 21
238.5443709006
 31
0.0
  0
LINE
  5
3EC
330
1F
100
AcDbEntity
  8
0
100
AcDbLine
 10
1444.7872647188
 20
237.5443709006
 30
0.0
 11
1444.7872647188
 21
238.5443709006
 31
0.0
  0
LINE
  5
3ED
330
1F
100
AcDbEntity
  8
0
100
AcDbLine
 10
164.7872647188
 20
237.5443709006
 30
0.0
 11
164.7872647188
 21
238.5443709006
 31
0.0
  0
LINE
  5
3EE
330
1F
100
AcDbEntity
  8
0
100
AcDbLine
 10
164.7872647188
 20
114.544370901
 30
0.0
 11
1444.7872647188
 21
114.544370901
 31
0.0
  0
LINE
  5
3EF
330
1F
100
AcDbEntity
  8
0
100
AcDbLine
 10
164.7872647188
 20
121.044370901
 30
0.0
 11
1444.7872647188
 21
121.044370901
 31
0.0
  0
LINE
  5
3F0
330
1F
100
AcDbEntity
  8
0
100
AcDbLine
 10
1444.7872647188
 20
114.544370901
 30
0.0
 11
1444.7872647188
 21
121.044370901
 31
0.0
  0
LINE
  5
3F1
330
1F
100
AcDbEntity
  8
0
100
AcDbLine
 10
164.7872647188
 20
114.544370901
 30
0.0
 11
164.7872647188
 21
121.044370901
 31
0.0
  0
LINE
  5
3F2
330
1F
100
AcDbEntity
  8
0
100
AcDbLine
 10
1444.7872647188
 20
121.044370901
 30
0.0
 11
1444.7872647188
 21
121.544370901
 31
0.0
  0
LINE
  5
3F3
330
1F
100
AcDbEntity
  8
0
100
AcDbLine
 10
164.7872647188
 20
121.044370901
 30
0.0
 11
164.7872647188
 21
121.544370901
 31
0.0
  0
LINE
  5
3F4
330
1F
100
AcDbEntity
  8
0
100
AcDbLine
 10
164.7872647188
 20
113.544370901
 30
0.0
 11
1444.7872647188
 21
113.544370901
 31
0.0
  0
LINE
  5
3F5
330
1F
100
AcDbEntity
  8
0
100
AcDbLine
 10
1444.7872647188
 20
113.544370901
 30
0.0
 11
1444.7872647188
 21
114.544370901
 31
0.0
  0
LINE
  5
3F6
330
1F
100
AcDbEntity
  8
0
100
AcDbLine
 10
164.7872647188
 20
113.544370901
 30
0.0
 11
164.7872647188
 21
114.544370901
 31
0.0
  0
LINE
  5
3F7
330
1F
100
AcDbEntity
  8
0
100
AcDbLine
 10
164.7872647188
 20
179.5442630649
 30
0.0
 11
1444.7872647188
 21
179.5442630649
 31
0.0
  0
LINE
  5
3F8
330
1F
100
AcDbEntity
  8
0
100
AcDbLine
 10
164.7872647188
 20
180.5442630649
 30
0.0
 11
1444.7872647188
 21
180.5442630649
 31
0.0
  0
LINE
  5
3F9
330
1F
100
AcDbEntity
  8
0
100
AcDbLine
 10
1444.7872647188
 20
179.5442630649
 30
0.0
 11
1444.7872647188
 21
180.5442630649
 31
0.0
  0
LINE
  5
3FA
330
1F
100
AcDbEntity
  8
0
100
AcDbLine
 10
164.7872647188
 20
179.5442630649
 30
0.0
 11
164.7872647188
 21
180.5442630649
 31
0.0
  0
LINE
  5
3FB
330
1F
100
AcDbEntity
  8
0
100
AcDbLine
 10
164.7872647188
 20
162.5442630649
 30
0.0
 11
1444.7872647188
 21
162.5442630649
 31
0.0
  0
LINE
  5
3FC
330
1F
100
AcDbEntity
  8
0
100
AcDbLine
 10
164.7872647188
 20
163.5442630649
 30
0.0
 11
1444.7872647188
 21
163.5442630649
 31
0.0
  0
LINE
  5
3FD
330
1F
100
AcDbEntity
  8
0
100
AcDbLine
 10
1444.7872647188
 20
162.5442630649
 30
0.0
 11
1444.7872647188
 21
163.5442630649
 31
0.0
  0
LINE
  5
3FE
330
1F
100
AcDbEntity
  8
0
100
AcDbLine
 10
164.7872647188
 20
162.5442630649
 30
0.0
 11
164.7872647188
 21
163.5442630649
 31
0.0
  0
LINE
  5
3FF
330
1F
100
AcDbEntity
  8
0
100
AcDbLine
 10
1444.7872647188
 20
163.5442630649
 30
0.0
 11
1444.7872647188
 21
179.5442630649
 31
0.0
  0
LINE
  5
400
330
1F
100
AcDbEntity
  8
0
100
AcDbLine
 10
164.7872647188
 20
163.5442630649
 30
0.0
 11
164.7872647188
 21
179.5442630649
 31
0.0
  0
LINE
  5
401
330
1F
100
AcDbEntity
  8
0
100
AcDbLine
 10
164.7872647188
 20
161.544263065
 30
0.0
 11
1444.7872647188
 21
161.544263065
 31
0.0
  0
LINE
  5
402
330
1F
100
AcDbEntity
  8
0
100
AcDbLine
 10
1444.7872647188
 20
161.544263065
 30
0.0
 11
1444.7872647188
 21
162.5442630649
 31
0.0
  0
LINE
  5
403
330
1F
100
AcDbEntity
  8
0
100
AcDbLine
 10
164.7872647188
 20
161.544263065
 30
0.0
 11
164.7872647188
 21
162.5442630649
 31
0.0
  0
LINE
  5
404
330
1F
100
AcDbEntity
  8
0
100
AcDbLine
 10
164.7872647188
 20
181.5442630649
 30
0.0
 11
1444.7872647188
 21
181.5442630649
 31
0.0
  0
LINE
  5
405
330
1F
100
AcDbEntity
  8
0
100
AcDbLine
 10
1444.7872647188
 20
180.5442630649
 30
0.0
 11
1444.7872647188
 21
181.5442630649
 31
0.0
  0
LINE
  5
406
330
1F
100
AcDbEntity
  8
0
100
AcDbLine
 10
164.7872647188
 20
180.5442630649
 30
0.0
 11
164.7872647188
 21
181.5442630649
 31
0.0
  0
CIRCLE
  5
407
330
1F
100
AcDbEntity
  8
0
100
AcDbCircle
 10
1423.2872647188
 20
226.044340386
 30
0.0
 40
2.000000000000455
  0
CIRCLE
  5
408
330
1F
100
AcDbEntity
  8
0
100
AcDbCircle
 10
1439.7872647188
 20
196.044340386
 30
0.0
 40
2.000000000000455
  0
CIRCLE
  5
409
330
1F
100
AcDbEntity
  8
0
100
AcDbCircle
 10
186.2872647117
 20
226.0443709006
 30
0.0
 40
2.0
  0
CIRCLE
  5
40A
330
1F
100
AcDbEntity
  8
0
100
AcDbCircle
 10
169.7872647188
 20
196.0444014117
 30
0.0
 40
2.0
  0
LINE
  5
40B
330
1F
100
AcDbEntity
  8
0
100
AcDbLine
 10
1444.7872647188
 20
181.5442630649
 30
0.0
 11
1444.7872647188
 21
230.5443709007
 31
0.0
  0
LINE
  5
40C
330
1F
100
AcDbEntity
  8
0
100
AcDbLine
 10
164.7872647188
 20
181.5442630649
 30
0.0
 11
164.7872647188
 21
230.5443709007
 31
0.0
  0
CIRCLE
  5
40D
330
1F
100
AcDbEntity
  8
0
100
AcDbCircle
 10
1439.7872647188
 20
156.044340386
 30
0.0
 40
2.000000000000455
  0
CIRCLE
  5
40E
330
1F
100
AcDbEntity
  8
0
100
AcDbCircle
 10
1423.2872647188
 20
126.044370901
 30
0.0
 40
2.000000000000455
  0
CIRCLE
  5
40F
330
1F
100
AcDbEntity
  8
0
100
AcDbCircle
 10
186.2872647354
 20
126.0444014156
 30
0.0
 40
2.0
  0
CIRCLE
  5
410
330
1F
100
AcDbEntity
  8
0
100
AcDbCircle
 10
169.7872647283
 20
156.0444014117
 30
0.0
 40
2.0
  0
LINE
  5
411
330
1F
100
AcDbEntity
  8
0
100
AcDbLine
 10
1444.7872647188
 20
121.544370901
 30
0.0
 11
1444.7872647188
 21
161.544263065
 31
0.0
  0
LINE
  5
412
330
1F
100
AcDbEntity
  8
0
100
AcDbLine
 10
164.7872647188
 20
121.544370901
 30
0.0
 11
164.7872647188
 21
161.544263065
 31
0.0
  0
LINE
  5
413
330
1F
100
AcDbEntity
  8
0
100
AcDbLine
 10
1448.7872647188
 20
113.544401414
 30
0.0
 11
1444.7872647188
 21
113.544401414
 31
0.0
  0
LINE
  5
414
330
1F
100
AcDbEntity
  8
0
100
AcDbLine
 10
1425.0193039384
 20
127.0443909718
 30
0.0
 11
1424.9327139764
 21
126.9943996485
 31
0.0
  0
ARC
  5
415
330
1F
100
AcDbEntity
  8
0
100
AcDbCircle
 10
1423.2872647188
 20
126.044401414
 30
0.0
 40
1.89999997500034
100
AcDbArc
 50
29.99993896
 51
330.00004578
  0
LINE
  5
416
330
1F
100
AcDbEntity
  8
0
100
AcDbLine
 10
1424.9327137234
 20
125.0944027412
 30
0.0
 11
1425.0193314757
 21
125.0443985265
 31
0.0
  0
LINE
  5
417
330
1F
100
AcDbEntity
  8
0
100
AcDbLine
 10
1425.0193025995
 20
227.0443627757
 30
0.0
 11
1424.9327139764
 21
226.9943691335
 31
0.0
  0
ARC
  5
418
330
1F
100
AcDbEntity
  8
0
100
AcDbCircle
 10
1423.2872647188
 20
226.044370899
 30
0.0
 40
1.899999974999784
100
AcDbArc
 50
29.99993896
 51
330.00004578
  0
LINE
  5
419
330
1F
100
AcDbEntity
  8
0
100
AcDbLine
 10
1424.9327137234
 20
225.0943722262
 30
0.0
 11
1425.0193287967
 21
225.0443633712
 31
0.0
  0
LINE
  5
41A
330
1F
100
AcDbEntity
  8
0
100
AcDbLine
 10
1441.5193039384
 20
197.0443604568
 30
0.0
 11
1441.4327139764
 21
196.9943691335
 31
0.0
  0
ARC
  5
41B
330
1F
100
AcDbEntity
  8
0
100
AcDbCircle
 10
1439.7872647188
 20
196.044370899
 30
0.0
 40
1.899999974999995
100
AcDbArc
 50
29.99993896
 51
330.00004578
  0
LINE
  5
41C
330
1F
100
AcDbEntity
  8
0
100
AcDbLine
 10
1441.4327137234
 20
195.0943722262
 30
0.0
 11
1441.5193287967
 21
195.0443633712
 31
0.0
  0
LINE
  5
41D
330
1F
100
AcDbEntity
  8
0
100
AcDbLine
 10
1441.5193025995
 20
157.0443627757
 30
0.0
 11
1441.4327139764
 21
156.9943691335
 31
0.0
  0
ARC
  5
41E
330
1F
100
AcDbEntity
  8
0
100
AcDbCircle
 10
1439.7872647188
 20
156.044370899
 30
0.0
 40
1.899999975000344
100
AcDbArc
 50
29.99993896
 51
330.00004578
  0
LINE
  5
41F
330
1F
100
AcDbEntity
  8
0
100
AcDbLine
 10
1441.4327137234
 20
155.0943722262
 30
0.0
 11
1441.5193301361
 21
155.0443656913
 31
0.0
  0
LINE
  5
420
330
1F
100
AcDbEntity
  8
0
100
AcDbLine
 10
1444.7872647188
 20
115.544401414
 30
0.0
 11
1447.9872647188
 21
115.544401414
 31
0.0
  0
LINE
  5
421
330
1F
100
AcDbEntity
  8
0
100
AcDbLine
 10
1447.9872647188
 20
115.544401414
 30
0.0
 11
1448.7952032434
 21
121.1331454529
 31
0.0
  0
ARC
  5
422
330
1F
100
AcDbEntity
  8
0
100
AcDbCircle
 10
1449.2872647188
 20
121.044401414
 30
0.0
 40
0.5000000000002274
100
AcDbArc
 50
0.0
 51
169.7765185
  0
LINE
  5
423
330
1F
100
AcDbEntity
  8
0
100
AcDbLine
 10
1449.7872647188
 20
121.044401414
 30
0.0
 11
1449.7872647188
 21
114.544401414
 31
0.0
  0
ARC
  5
424
330
1F
100
AcDbEntity
  8
0
100
AcDbCircle
 10
1448.7872647188
 20
114.544401414
 30
0.0
 40
1.0
100
AcDbArc
 50
270.0
 51
0.0
  0
LINE
  5
425
330
1F
100
AcDbEntity
  8
0
100
AcDbLine
 10
1444.7872647188
 20
238.544370899
 30
0.0
 11
1448.7872647188
 21
238.544370899
 31
0.0
  0
LINE
  5
426
330
1F
100
AcDbEntity
  8
0
100
AcDbLine
 10
1449.7872647188
 20
237.544370899
 30
0.0
 11
1449.7872647188
 21
231.044370899
 31
0.0
  0
ARC
  5
427
330
1F
100
AcDbEntity
  8
0
100
AcDbCircle
 10
1448.7872647188
 20
237.544370899
 30
0.0
 40
1.0
100
AcDbArc
 50
0.0
 51
90.0
  0
LINE
  5
428
330
1F
100
AcDbEntity
  8
0
100
AcDbLine
 10
1448.7952032434
 20
230.9556268601
 30
0.0
 11
1447.9872647188
 21
236.544370899
 31
0.0
  0
ARC
  5
429
330
1F
100
AcDbEntity
  8
0
100
AcDbCircle
 10
1449.2872647188
 20
231.044370899
 30
0.0
 40
0.500000000000116
100
AcDbArc
 50
190.2234815
 51
0.0
  0
LINE
  5
42A
330
1F
100
AcDbEntity
  8
0
100
AcDbLine
 10
1447.9872647188
 20
236.544370899
 30
0.0
 11
1444.7872647188
 21
236.544370899
 31
0.0
  0
LINE
  5
42B
330
1F
100
AcDbEntity
  8
0
100
AcDbLine
 10
141.7872647187
 20
182.0443861581
 30
0.0
 11
146.7872647188
 21
182.0443861581
 31
0.0
  0
LINE
  5
42C
330
1F
100
AcDbEntity
  8
0
100
AcDbLine
 10
148.7872647188
 20
182.0443861581
 30
0.0
 11
164.7872647188
 21
182.0443861581
 31
0.0
  0
LINE
  5
42D
330
1F
100
AcDbEntity
  8
0
100
AcDbLine
 10
141.7872647187
 20
170.0443861581
 30
0.0
 11
146.7872647188
 21
170.0443861581
 31
0.0
  0
LINE
  5
42E
330
1F
100
AcDbEntity
  8
0
100
AcDbLine
 10
148.7872647188
 20
170.0443861581
 30
0.0
 11
164.7872647188
 21
170.0443861581
 31
0.0
  0
LINE
  5
42F
330
1F
100
AcDbEntity
  8
0
100
AcDbLine
 10
141.7872647187
 20
170.0443861581
 30
0.0
 11
141.7872647187
 21
182.0443861581
 31
0.0
  0
LINE
  5
430
330
1F
100
AcDbEntity
  8
0
100
AcDbLine
 10
141.7872647187
 20
180.0443861581
 30
0.0
 11
96.7872647187
 21
180.0443861581
 31
0.0
  0
LINE
  5
431
330
1F
100
AcDbEntity
  8
0
100
AcDbLine
 10
141.7872647187
 20
172.0443861581
 30
0.0
 11
96.7872647187
 21
172.0443861581
 31
0.0
  0
LINE
  5
432
330
1F
100
AcDbEntity
  8
0
100
AcDbLine
 10
96.7872647187
 20
172.0443861581
 30
0.0
 11
96.7872647187
 21
180.0443861581
 31
0.0
  0
LINE
  5
433
330
1F
100
AcDbEntity
  8
0
100
AcDbLine
 10
184.5552122812
 20
225.0443737116
 30
0.0
 11
184.6418154612
 21
225.0943726661
 31
0.0
  0
ARC
  5
434
330
1F
100
AcDbEntity
  8
0
100
AcDbCircle
 10
186.2872647188
 20
226.0443709006
 30
0.0
 40
1.899999975000094
100
AcDbArc
 50
209.99993896
 51
150.00004578
  0
LINE
  5
435
330
1F
100
AcDbEntity
  8
0
100
AcDbLine
 10
184.6418157142
 20
226.9943695734
 30
0.0
 11
184.5552111692
 21
227.0443661636
 31
0.0
  0
LINE
  5
436
330
1F
100
AcDbEntity
  8
0
100
AcDbLine
 10
184.5552136381
 20
125.0444019176
 30
0.0
 11
184.6418154612
 21
125.0944031811
 31
0.0
  0
ARC
  5
437
330
1F
100
AcDbEntity
  8
0
100
AcDbCircle
 10
186.2872647188
 20
126.0444014156
 30
0.0
 40
1.899999975000094
100
AcDbArc
 50
209.99993896
 51
150.00004578
  0
LINE
  5
438
330
1F
100
AcDbEntity
  8
0
100
AcDbLine
 10
184.6418157142
 20
126.9944000884
 30
0.0
 11
184.5552138657
 21
127.0444013079
 31
0.0
  0
LINE
  5
439
330
1F
100
AcDbEntity
  8
0
100
AcDbLine
 10
164.7872647188
 20
113.5444014156
 30
0.0
 11
160.7872647188
 21
113.5444014156
 31
0.0
  0
ARC
  5
43A
330
1F
100
AcDbEntity
  8
0
100
AcDbCircle
 10
160.7872647188
 20
114.5444014156
 30
0.0
 40
1.0
100
AcDbArc
 50
180.0
 51
270.0
  0
LINE
  5
43B
330
1F
100
AcDbEntity
  8
0
100
AcDbLine
 10
159.7872647188
 20
114.5444014156
 30
0.0
 11
159.7872647188
 21
121.0444014156
 31
0.0
  0
ARC
  5
43C
330
1F
100
AcDbEntity
  8
0
100
AcDbCircle
 10
160.2872647188
 20
121.0444014156
 30
0.0
 40
0.5000000000000568
100
AcDbArc
 50
10.2234815
 51
180.0
  0
LINE
  5
43D
330
1F
100
AcDbEntity
  8
0
100
AcDbLine
 10
160.7793261942
 20
121.1331454545
 30
0.0
 11
161.5872647188
 21
115.5444014156
 31
0.0
  0
LINE
  5
43E
330
1F
100
AcDbEntity
  8
0
100
AcDbLine
 10
161.5872647188
 20
115.5444014156
 30
0.0
 11
164.7872647188
 21
115.5444014156
 31
0.0
  0
LINE
  5
43F
330
1F
100
AcDbEntity
  8
0
100
AcDbLine
 10
168.055212292
 20
155.0444042329
 30
0.0
 11
168.1418154612
 21
155.0944031811
 31
0.0
  0
ARC
  5
440
330
1F
100
AcDbEntity
  8
0
100
AcDbCircle
 10
169.7872647188
 20
156.0444014156
 30
0.0
 40
1.899999975000059
100
AcDbArc
 50
209.99993896
 51
150.00004578
  0
LINE
  5
441
330
1F
100
AcDbEntity
  8
0
100
AcDbLine
 10
168.1418157142
 20
156.9944000884
 30
0.0
 11
168.055213862
 21
157.04440131
 31
0.0
  0
LINE
  5
442
330
1F
100
AcDbEntity
  8
0
100
AcDbLine
 10
168.0552136239
 20
195.0444019094
 30
0.0
 11
168.1418154612
 21
195.0944031811
 31
0.0
  0
ARC
  5
443
330
1F
100
AcDbEntity
  8
0
100
AcDbCircle
 10
169.7872647188
 20
196.0444014156
 30
0.0
 40
1.899999975000045
100
AcDbArc
 50
209.99993896
 51
150.00004578
  0
LINE
  5
444
330
1F
100
AcDbEntity
  8
0
100
AcDbLine
 10
168.1418157142
 20
196.9944000884
 30
0.0
 11
168.0552125156
 21
197.0443989944
 31
0.0
  0
LINE
  5
445
330
1F
100
AcDbEntity
  8
0
100
AcDbLine
 10
164.7872647188
 20
236.5443709006
 30
0.0
 11
161.5872647188
 21
236.5443709006
 31
0.0
  0
LINE
  5
446
330
1F
100
AcDbEntity
  8
0
100
AcDbLine
 10
161.5872647188
 20
236.5443709006
 30
0.0
 11
160.7793261942
 21
230.9556268617
 31
0.0
  0
ARC
  5
447
330
1F
100
AcDbEntity
  8
0
100
AcDbCircle
 10
160.2872647188
 20
231.0443709006
 30
0.0
 40
0.5000000000000568
100
AcDbArc
 50
180.0
 51
349.7765185
  0
LINE
  5
448
330
1F
100
AcDbEntity
  8
0
100
AcDbLine
 10
159.7872647188
 20
231.0443709006
 30
0.0
 11
159.7872647188
 21
237.5443709006
 31
0.0
  0
ARC
  5
449
330
1F
100
AcDbEntity
  8
0
100
AcDbCircle
 10
160.7872647188
 20
237.5443709006
 30
0.0
 40
1.0
100
AcDbArc
 50
90.0
 51
180.0
  0
LINE
  5
44A
330
1F
100
AcDbEntity
  8
0
100
AcDbLine
 10
160.7872647188
 20
238.5443709006
 30
0.0
 11
164.7872647188
 21
238.5443709006
 31
0.0
  0
ENDSEC
  0
SECTION
  2
OBJECTS
  0
DICTIONARY
  5
C
330
0
100
AcDbDictionary
281
     1
  3
ACAD_GROUP
350
D
  3
ACAD_IMAGE_VARS
350
46E
  3
ACAD_LAYOUT
350
1A
  3
ACAD_MLINESTYLE
350
17
  3
ACAD_PLOTSETTINGS
350
19
  3
ACAD_PLOTSTYLENAME
350
E
  3
ACAD_SCALELIST
350
47
  3
APPDATA
350
46C
  3
DWGPROPS
350
46F
  0
DICTIONARY
  5
D
102
{ACAD_REACTORS
330
C
102
}
330
C
100
AcDbDictionary
281
     1
  0
RASTERVARIABLES
  5
46E
102
{ACAD_REACTORS
330
C
102
}
330
C
100
AcDbRasterVariables
 90
        0
 70
     1
 71
     1
 72
     1
  0
DICTIONARY
  5
1A
102
{ACAD_REACTORS
330
C
102
}
330
C
100
AcDbDictionary
281
     1
  3
Layout1
350
1E
  3
Layout2
350
26
  3
Model
350
22
  0
DICTIONARY
  5
17
102
{ACAD_REACTORS
330
C
102
}
330
C
100
AcDbDictionary
281
     1
  3
Standard
350
18
  0
DICTIONARY
  5
19
102
{ACAD_REACTORS
330
C
102
}
330
C
100
AcDbDictionary
281
     1
  0
ACDBDICTIONARYWDFLT
  5
E
102
{ACAD_REACTORS
330
C
102
}
330
C
100
AcDbDictionary
281
     1
  3
Normal
350
F
100
AcDbDictionaryWithDefault
340
F
  0
DICTIONARY
  5
47
102
{ACAD_REACTORS
330
C
102
}
330
C
100
AcDbDictionary
281
     1
  3
A0
350
48
  3
A1
350
49
  3
A2
350
4A
  3
A3
350
4B
  3
A4
350
4C
  3
A5
350
4D
  3
A6
350
4E
  3
A7
350
4F
  3
A8
350
50
  3
A9
350
51
  3
B0
350
52
  3
B1
350
53
  3
B2
350
54
  3
B3
350
55
  3
B4
350
56
  3
B5
350
57
  3
B6
350
58
  3
B7
350
59
  3
B8
350
5A
  3
B9
350
5B
  3
C0
350
5C
  3
C1
350
5D
  3
C2
350
5E
  3
C3
350
5F
  3
C4
350
60
  3
C5
350
61
  3
C6
350
62
  3
C7
350
63
  3
C8
350
64
  3
C9
350
65
  3
D0
350
66
  3
D1
350
67
  3
D2
350
68
  0
DICTIONARY
  5
46C
102
{ACAD_REACTORS
330
C
102
}
330
C
100
AcDbDictionary
281
     1
  0
XRECORD
  5
46F
102
{ACAD_REACTORS
330
C
102
}
330
C
100
AcDbXrecord
280
     1
  1
DWGPROPS COOKIE
  2

  3

  4

  6

  7

  8
harithreddy
  9

300
=
301
=
302
=
303
=
304
=
305
=
306
=
307
=
308
=
309
=
 40
0.0
 41
2457898.262734595
 42
2457898.265241516
  1

 90
        0
  0
LAYOUT
  5
1E
102
{ACAD_REACTORS
330
1A
102
}
330
1A
100
AcDbPlotSettings
  1

  2
none_device
  4

  6

 40
0.0
 41
0.0
 42
0.0
 43
0.0
 44
0.0
 45
0.0
 46
0.0
 47
0.0
 48
0.0
 49
0.0
140
0.0
141
0.0
142
1.0
143
1.0
 70
   688
 72
     1
 73
     0
 74
     5
  7

 75
    16
147
1.0
148
0.0
149
0.0
100
AcDbLayout
  1
Layout1
 70
     1
 71
     1
 10
0.0
 20
0.0
 11
420.0
 21
297.0
 12
0.0
 22
0.0
 32
0.0
 14
1.000000000000000E+20
 24
1.000000000000000E+20
 34
1.000000000000000E+20
 15
-1.000000000000000E+20
 25
-1.000000000000000E+20
 35
-1.000000000000000E+20
146
0.0
 13
0.0
 23
0.0
 33
0.0
 16
1.0
 26
0.0
 36
0.0
 17
0.0
 27
1.0
 37
0.0
 76
     0
330
1B
  0
LAYOUT
  5
26
102
{ACAD_REACTORS
330
1A
102
}
330
1A
100
AcDbPlotSettings
  1

  2
none_device
  4

  6

 40
0.0
 41
0.0
 42
0.0
 43
0.0
 44
0.0
 45
0.0
 46
0.0
 47
0.0
 48
0.0
 49
0.0
140
0.0
141
0.0
142
1.0
143
1.0
 70
   688
 72
     1
 73
     0
 74
     5
  7

 75
    16
147
1.0
148
0.0
149
0.0
100
AcDbLayout
  1
Layout2
 70
     1
 71
     2
 10
0.0
 20
0.0
 11
0.0
 21
0.0
 12
0.0
 22
0.0
 32
0.0
 14
0.0
 24
0.0
 34
0.0
 15
0.0
 25
0.0
 35
0.0
146
0.0
 13
0.0
 23
0.0
 33
0.0
 16
1.0
 26
0.0
 36
0.0
 17
0.0
 27
1.0
 37
0.0
 76
     0
330
23
  0
LAYOUT
  5
22
102
{ACAD_REACTORS
330
1A
102
}
330
1A
100
AcDbPlotSettings
  1

  2
none_device
  4
Letter_(8.50_x_11.00_Inches)
  6

 40
6.35
 41
6.35
 42
6.35000508
 43
6.35000508
 44
215.9
 45
279.4
 46
0.0
 47
0.0
 48
0.0
 49
0.0
140
0.0
141
0.0
142
1.0
143
1.0
 70
  1712
 72
     1
 73
     0
 74
     0
  7

 75
     0
147
1.0
148
0.0
149
0.0
100
AcDbLayout
  1
Model
 70
     1
 71
     0
 10
0.0
 20
0.0
 11
420.0
 21
297.0
 12
0.0
 22
0.0
 32
0.0
 14
96.7872647187
 24
113.544370901
 34
0.0
 15
1951.687698225
 25
1093.872519834671
 35
0.0
146
0.0
 13
0.0
 23
0.0
 33
0.0
 16
1.0
 26
0.0
 36
0.0
 17
0.0
 27
1.0
 37
0.0
 76
     0
330
1F
331
29
  0
MLINESTYLE
  5
18
102
{ACAD_REACTORS
330
17
102
}
330
17
100
AcDbMlineStyle
  2
Standard
 70
     0
  3

 62
   256
 51
90.0
 52
90.0
 71
     2
 49
0.5
 62
   256
  6
BYLAYER
 49
-0.5
 62
   256
  6
BYLAYER
  0
ACDBPLACEHOLDER
  5
F
102
{ACAD_REACTORS
330
E
102
}
330
E
  0
SCALE
  5
48
102
{ACAD_REACTORS
330
47
102
}
330
47
100
AcDbScale
 70
     0
300
1:1
140
1.0
141
1.0
290
     1
  0
SCALE
  5
49
102
{ACAD_REACTORS
330
47
102
}
330
47
100
AcDbScale
 70
     0
300
1:2
140
1.0
141
2.0
290
     0
  0
SCALE
  5
4A
102
{ACAD_REACTORS
330
47
102
}
330
47
100
AcDbScale
 70
     0
300
1:4
140
1.0
141
4.0
290
     0
  0
SCALE
  5
4B
102
{ACAD_REACTORS
330
47
102
}
330
47
100
AcDbScale
 70
     0
300
1:5
140
1.0
141
5.0
290
     0
  0
SCALE
  5
4C
102
{ACAD_REACTORS
330
47
102
}
330
47
100
AcDbScale
 70
     0
300
1:8
140
1.0
141
8.0
290
     0
  0
SCALE
  5
4D
102
{ACAD_REACTORS
330
47
102
}
330
47
100
AcDbScale
 70
     0
300
1:10
140
1.0
141
10.0
290
     0
  0
SCALE
  5
4E
102
{ACAD_REACTORS
330
47
102
}
330
47
100
AcDbScale
 70
     0
300
1:16
140
1.0
141
16.0
290
     0
  0
SCALE
  5
4F
102
{ACAD_REACTORS
330
47
102
}
330
47
100
AcDbScale
 70
     0
300
1:20
140
1.0
141
20.0
290
     0
  0
SCALE
  5
50
102
{ACAD_REACTORS
330
47
102
}
330
47
100
AcDbScale
 70
     0
300
1:30
140
1.0
141
30.0
290
     0
  0
SCALE
  5
51
102
{ACAD_REACTORS
330
47
102
}
330
47
100
AcDbScale
 70
     0
300
1:40
140
1.0
141
40.0
290
     0
  0
SCALE
  5
52
102
{ACAD_REACTORS
330
47
102
}
330
47
100
AcDbScale
 70
     0
300
1:50
140
1.0
141
50.0
290
     0
  0
SCALE
  5
53
102
{ACAD_REACTORS
330
47
102
}
330
47
100
AcDbScale
 70
     0
300
1:100
140
1.0
141
100.0
290
     0
  0
SCALE
  5
54
102
{ACAD_REACTORS
330
47
102
}
330
47
100
AcDbScale
 70
     0
300
2:1
140
2.0
141
1.0
290
     0
  0
SCALE
  5
55
102
{ACAD_REACTORS
330
47
102
}
330
47
100
AcDbScale
 70
     0
300
4:1
140
4.0
141
1.0
290
     0
  0
SCALE
  5
56
102
{ACAD_REACTORS
330
47
102
}
330
47
100
AcDbScale
 70
     0
300
8:1
140
8.0
141
1.0
290
     0
  0
SCALE
  5
57
102
{ACAD_REACTORS
330
47
102
}
330
47
100
AcDbScale
 70
     0
300
10:1
140
10.0
141
1.0
290
     0
  0
SCALE
  5
58
102
{ACAD_REACTORS
330
47
102
}
330
47
100
AcDbScale
 70
     0
300
100:1
140
100.0
141
1.0
290
     0
  0
SCALE
  5
59
102
{ACAD_REACTORS
330
47
102
}
330
47
100
AcDbScale
 70
     0
300
1/128" = 1'-0"
140
0.0078125
141
12.0
290
     0
  0
SCALE
  5
5A
102
{ACAD_REACTORS
330
47
102
}
330
47
100
AcDbScale
 70
     0
300
1/64" = 1'-0"
140
0.015625
141
12.0
290
     0
  0
SCALE
  5
5B
102
{ACAD_REACTORS
330
47
102
}
330
47
100
AcDbScale
 70
     0
300
1/32" = 1'-0"
140
0.03125
141
12.0
290
     0
  0
SCALE
  5
5C
102
{ACAD_REACTORS
330
47
102
}
330
47
100
AcDbScale
 70
     0
300
1/16" = 1'-0"
140
0.0625
141
12.0
290
     0
  0
SCALE
  5
5D
102
{ACAD_REACTORS
330
47
102
}
330
47
100
AcDbScale
 70
     0
300
3/32" = 1'-0"
140
0.09375
141
12.0
290
     0
  0
SCALE
  5
5E
102
{ACAD_REACTORS
330
47
102
}
330
47
100
AcDbScale
 70
     0
300
1/8" = 1'-0"
140
0.125
141
12.0
290
     0
  0
SCALE
  5
5F
102
{ACAD_REACTORS
330
47
102
}
330
47
100
AcDbScale
 70
     0
300
3/16" = 1'-0"
140
0.1875
141
12.0
290
     0
  0
SCALE
  5
60
102
{ACAD_REACTORS
330
47
102
}
330
47
100
AcDbScale
 70
     0
300
1/4" = 1'-0"
140
0.25
141
12.0
290
     0
  0
SCALE
  5
61
102
{ACAD_REACTORS
330
47
102
}
330
47
100
AcDbScale
 70
     0
300
3/8" = 1'-0"
140
0.375
141
12.0
290
     0
  0
SCALE
  5
62
102
{ACAD_REACTORS
330
47
102
}
330
47
100
AcDbScale
 70
     0
300
1/2" = 1'-0"
140
0.5
141
12.0
290
     0
  0
SCALE
  5
63
102
{ACAD_REACTORS
330
47
102
}
330
47
100
AcDbScale
 70
     0
300
3/4" = 1'-0"
140
0.75
141
12.0
290
     0
  0
SCALE
  5
64
102
{ACAD_REACTORS
330
47
102
}
330
47
100
AcDbScale
 70
     0
300
1" = 1'-0"
140
1.0
141
12.0
290
     0
  0
SCALE
  5
65
102
{ACAD_REACTORS
330
47
102
}
330
47
100
AcDbScale
 70
     0
300
1-1/2" = 1'-0"
140
1.5
141
12.0
290
     0
  0
SCALE
  5
66
102
{ACAD_REACTORS
330
47
102
}
330
47
100
AcDbScale
 70
     0
300
3" = 1'-0"
140
3.0
141
12.0
290
     0
  0
SCALE
  5
67
102
{ACAD_REACTORS
330
47
102
}
330
47
100
AcDbScale
 70
     0
300
6" = 1'-0"
140
6.0
141
12.0
290
     0
  0
SCALE
  5
68
102
{ACAD_REACTORS
330
47
102
}
330
47
100
AcDbScale
 70
     0
300
1'-0" = 1'-0"
140
12.0
141
12.0
290
     0
  0
ENDSEC
  0
EOF
