  0
SECTION
  2
HEADER
  9
$ACADVER
  1
AC1021
  9
$ACADMAINTVER
 70
    25
  9
$DWGCODEPAGE
  3
ANSI_1257
  9
$LASTSAVEDBY
  1
mariusbitinas
  9
$INSBASE
 10
0.0
 20
0.0
 30
0.0
  9
$EXTMIN
 10
-995.2101938137998
 20
76.8171364795
 30
0.0
  9
$EXTMAX
 10
2610.1292535828
 20
1694.5447548939
 30
0.0
  9
$LIMMIN
 10
0.0
 20
0.0
  9
$LIMMAX
 10
420.0
 20
297.0
  9
$ORTHOMODE
 70
     0
  9
$REGENMODE
 70
     1
  9
$FILLMODE
 70
     1
  9
$QTEXTMODE
 70
     0
  9
$MIRRTEXT
 70
     1
  9
$LTSCALE
 40
1.0
  9
$ATTMODE
 70
     1
  9
$TEXTSIZE
 40
5.6444444444
  9
$TRACEWID
 40
1.0
  9
$TEXTSTYLE
  7
Standard
  9
$CLAYER
  8
0
  9
$CELTYPE
  6
ByLayer
  9
$CECOLOR
 62
   256
  9
$CELTSCALE
 40
1.0
  9
$DISPSILH
 70
     0
  9
$DIMSCALE
 40
1.0
  9
$DIMASZ
 40
3.175
  9
$DIMEXO
 40
1.0
  9
$DIMDLI
 40
3.75
  9
$DIMRND
 40
0.0
  9
$DIMDLE
 40
0.0
  9
$DIMEXE
 40
1.0
  9
$DIMTP
 40
0.0
  9
$DIMTM
 40
0.0
  9
$DIMTXT
 40
4.9388888889
  9
$DIMCEN
 40
2.5
  9
$DIMTSZ
 40
0.0
  9
$DIMTOL
 70
     0
  9
$DIMLIM
 70
     0
  9
$DIMTIH
 70
     1
  9
$DIMTOH
 70
     1
  9
$DIMSE1
 70
     0
  9
$DIMSE2
 70
     0
  9
$DIMTAD
 70
     1
  9
$DIMZIN
 70
     0
  9
$DIMBLK
  1

  9
$DIMASO
 70
     1
  9
$DIMSHO
 70
     1
  9
$DIMPOST
  1

  9
$DIMAPOST
  1

  9
$DIMALT
 70
     0
  9
$DIMALTD
 70
     3
  9
$DIMALTF
 40
0.0393700787
  9
$DIMLFAC
 40
1.0
  9
$DIMTOFL
 70
     1
  9
$DIMTVP
 40
0.0
  9
$DIMTIX
 70
     0
  9
$DIMSOXD
 70
     0
  9
$DIMSAH
 70
     0
  9
$DIMBLK1
  1

  9
$DIMBLK2
  1

  9
$DIMSTYLE
  2
ISO-25
  9
$DIMCLRD
 70
     0
  9
$DIMCLRE
 70
     0
  9
$DIMCLRT
 70
     0
  9
$DIMTFAC
 40
1.0
  9
$DIMGAP
 40
1.524
  9
$DIMJUST
 70
     0
  9
$DIMSD1
 70
     0
  9
$DIMSD2
 70
     0
  9
$DIMTOLJ
 70
     0
  9
$DIMTZIN
 70
     0
  9
$DIMALTZ
 70
     0
  9
$DIMALTTZ
 70
     0
  9
$DIMUPT
 70
     0
  9
$DIMDEC
 70
     1
  9
$DIMTDEC
 70
     1
  9
$DIMALTU
 70
     2
  9
$DIMALTTD
 70
     3
  9
$DIMTXSTY
  7
Standard
  9
$DIMAUNIT
 70
     0
  9
$DIMADEC
 70
     1
  9
$DIMALTRND
 40
0.0
  9
$DIMAZIN
 70
     0
  9
$DIMDSEP
 70
    44
  9
$DIMATFIT
 70
     3
  9
$DIMFRAC
 70
     0
  9
$DIMLDRBLK
  1

  9
$DIMLUNIT
 70
     2
  9
$DIMLWD
 70
    -2
  9
$DIMLWE
 70
    -2
  9
$DIMTMOVE
 70
     0
  9
$DIMFXL
 40
1.0
  9
$DIMFXLON
 70
     0
  9
$DIMJOGANG
 40
0.7853981633974483
  9
$DIMTFILL
 70
     0
  9
$DIMTFILLCLR
 70
     0
  9
$DIMARCSYM
 70
     0
  9
$DIMLTYPE
  6

  9
$DIMLTEX1
  6

  9
$DIMLTEX2
  6

  9
$LUNITS
 70
     2
  9
$LUPREC
 70
     1
  9
$SKETCHINC
 40
1.0
  9
$FILLETRAD
 40
10.0
  9
$AUNITS
 70
     0
  9
$AUPREC
 70
     1
  9
$MENU
  1
.
  9
$ELEVATION
 40
0.0
  9
$PELEVATION
 40
0.0
  9
$THICKNESS
 40
0.0
  9
$LIMCHECK
 70
     0
  9
$CHAMFERA
 40
0.0
  9
$CHAMFERB
 40
0.0
  9
$CHAMFERC
 40
0.0
  9
$CHAMFERD
 40
0.0
  9
$SKPOLY
 70
     0
  9
$TDCREATE
 40
2459181.633398854
  9
$TDUCREATE
 40
2459181.550065521
  9
$TDUPDATE
 40
2459181.635521146
  9
$TDUUPDATE
 40
2459181.552187813
  9
$TDINDWG
 40
0.0018612616
  9
$TDUSRTIMER
 40
0.00186125
  9
$USRTIMER
 70
     1
  9
$ANGBASE
 50
0.0
  9
$ANGDIR
 70
     0
  9
$PDMODE
 70
     0
  9
$PDSIZE
 40
-1.0
  9
$PLINEWID
 40
0.0
  9
$SPLFRAME
 70
     0
  9
$SPLINETYPE
 70
     6
  9
$SPLINESEGS
 70
     8
  9
$HANDSEED
  5
48A
  9
$SURFTAB1
 70
     6
  9
$SURFTAB2
 70
     6
  9
$SURFTYPE
 70
     6
  9
$SURFU
 70
     6
  9
$SURFV
 70
     6
  9
$UCSBASE
  2

  9
$UCSNAME
  2

  9
$UCSORG
 10
0.0
 20
0.0
 30
0.0
  9
$UCSXDIR
 10
1.0
 20
0.0
 30
0.0
  9
$UCSYDIR
 10
0.0
 20
1.0
 30
0.0
  9
$UCSORTHOREF
  2

  9
$UCSORTHOVIEW
 70
     0
  9
$UCSORGTOP
 10
0.0
 20
0.0
 30
0.0
  9
$UCSORGBOTTOM
 10
0.0
 20
0.0
 30
0.0
  9
$UCSORGLEFT
 10
0.0
 20
0.0
 30
0.0
  9
$UCSORGRIGHT
 10
0.0
 20
0.0
 30
0.0
  9
$UCSORGFRONT
 10
0.0
 20
0.0
 30
0.0
  9
$UCSORGBACK
 10
0.0
 20
0.0
 30
0.0
  9
$PUCSBASE
  2

  9
$PUCSNAME
  2

  9
$PUCSORG
 10
0.0
 20
0.0
 30
0.0
  9
$PUCSXDIR
 10
1.0
 20
0.0
 30
0.0
  9
$PUCSYDIR
 10
0.0
 20
1.0
 30
0.0
  9
$PUCSORTHOREF
  2

  9
$PUCSORTHOVIEW
 70
     0
  9
$PUCSORGTOP
 10
0.0
 20
0.0
 30
0.0
  9
$PUCSORGBOTTOM
 10
0.0
 20
0.0
 30
0.0
  9
$PUCSORGLEFT
 10
0.0
 20
0.0
 30
0.0
  9
$PUCSORGRIGHT
 10
0.0
 20
0.0
 30
0.0
  9
$PUCSORGFRONT
 10
0.0
 20
0.0
 30
0.0
  9
$PUCSORGBACK
 10
0.0
 20
0.0
 30
0.0
  9
$USERI1
 70
     0
  9
$USERI2
 70
     0
  9
$USERI3
 70
     0
  9
$USERI4
 70
     0
  9
$USERI5
 70
     0
  9
$USERR1
 40
0.0
  9
$USERR2
 40
0.0
  9
$USERR3
 40
0.0
  9
$USERR4
 40
0.0
  9
$USERR5
 40
0.0
  9
$WORLDVIEW
 70
     1
  9
$SHADEDGE
 70
     3
  9
$SHADEDIF
 70
    70
  9
$TILEMODE
 70
     1
  9
$MAXACTVP
 70
    64
  9
$PINSBASE
 10
0.0
 20
0.0
 30
0.0
  9
$PLIMCHECK
 70
     0
  9
$PEXTMIN
 10
1.000000000000000E+20
 20
1.000000000000000E+20
 30
1.000000000000000E+20
  9
$PEXTMAX
 10
-1.000000000000000E+20
 20
-1.000000000000000E+20
 30
-1.000000000000000E+20
  9
$PLIMMIN
 10
0.0
 20
0.0
  9
$PLIMMAX
 10
0.0
 20
0.0
  9
$UNITMODE
 70
     0
  9
$VISRETAIN
 70
     1
  9
$PLINEGEN
 70
     0
  9
$PSLTSCALE
 70
     1
  9
$TREEDEPTH
 70
  3020
  9
$CMLSTYLE
  2
Standard
  9
$CMLJUST
 70
     0
  9
$CMLSCALE
 40
20.0
  9
$PROXYGRAPHICS
 70
     1
  9
$MEASUREMENT
 70
     1
  9
$CELWEIGHT
370
    -1
  9
$ENDCAPS
280
     0
  9
$JOINSTYLE
280
     0
  9
$LWDISPLAY
290
     1
  9
$INSUNITS
 70
     4
  9
$HYPERLINKBASE
  1

  9
$STYLESHEET
  1

  9
$XEDIT
290
     1
  9
$CEPSNTYPE
380
     0
  9
$PSTYLEMODE
290
     1
  9
$FINGERPRINTGUID
  2
{db0bb7f9-7f3e-410a-9f1c-79f389a0d7f8}
  9
$VERSIONGUID
  2
{FAEB1C32-E019-11D5-929B-00C0DF256EC4}
  9
$EXTNAMES
290
     1
  9
$PSVPSCALE
 40
0.0
  9
$OLESTARTUP
290
     0
  9
$SORTENTS
280
   127
  9
$INDEXCTL
280
     0
  9
$HIDETEXT
280
     1
  9
$XCLIPFRAME
290
     0
  9
$HALOGAP
280
     0
  9
$OBSCOLOR
 70
   257
  9
$OBSLTYPE
280
     0
  9
$INTERSECTIONDISPLAY
280
     0
  9
$INTERSECTIONCOLOR
 70
   257
  9
$DIMASSOC
280
     2
  9
$PROJECTNAME
  1

  9
$CAMERADISPLAY
290
     0
  9
$LENSLENGTH
 40
50.0
  9
$CAMERAHEIGHT
 40
0.0
  9
$STEPSPERSEC
 40
2.0
  9
$STEPSIZE
 40
6.0
  9
$3DDWFPREC
 40
2.0
  9
$PSOLWIDTH
 40
0.25
  9
$PSOLHEIGHT
 40
4.0
  9
$LOFTANG1
 40
1.570796326794897
  9
$LOFTANG2
 40
1.570796326794897
  9
$LOFTMAG1
 40
0.0
  9
$LOFTMAG2
 40
0.0
  9
$LOFTPARAM
 70
     7
  9
$LOFTNORMALS
280
     1
  9
$LATITUDE
 40
37.795
  9
$LONGITUDE
 40
-122.394
  9
$NORTHDIRECTION
 40
0.0
  9
$TIMEZONE
 70
 -8000
  9
$LIGHTGLYPHDISPLAY
280
     1
  9
$TILEMODELIGHTSYNCH
280
     1
  9
$SOLIDHIST
280
     0
  9
$SHOWHIST
280
     1
  9
$DWFFRAME
280
     2
  9
$DGNFRAME
280
     2
  9
$REALWORLDSCALE
290
     1
  9
$INTERFERECOLOR
 62
   256
  9
$CSHADOW
280
     0
  9
$SHADOWPLANELOCATION
 40
0.0
  0
ENDSEC
  0
SECTION
  2
CLASSES
  0
CLASS
  1
ACDBDICTIONARYWDFLT
  2
AcDbDictionaryWithDefault
  3
ObjectDBX Classes
 90
        0
 91
        3
280
     0
281
     0
  0
CLASS
  1
VISUALSTYLE
  2
AcDbVisualStyle
  3
ObjectDBX Classes
 90
     4095
 91
        3
280
     0
281
     0
  0
CLASS
  1
MATERIAL
  2
AcDbMaterial
  3
ObjectDBX Classes
 90
     1153
 91
        3
280
     0
281
     0
  0
CLASS
  1
SCALE
  2
AcDbScale
  3
ObjectDBX Classes
 90
     1153
 91
        3
280
     0
281
     0
  0
CLASS
  1
TABLESTYLE
  2
AcDbTableStyle
  3
ObjectDBX Classes
 90
     4095
 91
        3
280
     0
281
     0
  0
CLASS
  1
MLEADERSTYLE
  2
AcDbMLeaderStyle
  3
ACDB_MLEADERSTYLE_CLASS
 90
     4095
 91
        3
280
     0
281
     0
  0
CLASS
  1
SUN
  2
AcDbSun
  3
SCENEOE
 90
     1153
 91
        3
280
     0
281
     0
  0
CLASS
  1
ACDBPLACEHOLDER
  2
AcDbPlaceHolder
  3
ObjectDBX Classes
 90
        0
 91
        1
280
     0
281
     0
  0
CLASS
  1
LAYOUT
  2
AcDbLayout
  3
ObjectDBX Classes
 90
        0
 91
        1
280
     0
281
     0
  0
CLASS
  1
DICTIONARYVAR
  2
AcDbDictionaryVar
  3
ObjectDBX Classes
 90
        0
 91
        3
280
     0
281
     0
  0
CLASS
  1
CELLSTYLEMAP
  2
AcDbCellStyleMap
  3
ObjectDBX Classes
 90
     1152
 91
        3
280
     0
281
     0
  0
ENDSEC
  0
SECTION
  2
TABLES
  0
TABLE
  2
VPORT
  5
8
330
0
100
AcDbSymbolTable
 70
     1
  0
VPORT
  5
29
330
8
100
AcDbSymbolTableRecord
100
AcDbViewportTableRecord
  2
*Active
 70
     0
 10
0.0
 20
0.0
 11
1.0
 21
1.0
 12
309.1571446530172
 22
1070.014778979032
 13
0.0
 23
0.0
 14
10.0
 24
10.0
 15
10.0
 25
10.0
 16
0.0
 26
0.0
 36
1.0
 17
0.0
 27
0.0
 37
0.0
 40
2212.822437286377
 41
1.644036697247707
 42
50.0
 43
0.0
 44
0.0
 50
0.0
 51
0.0
 71
    16
 72
  2000
 73
     1
 74
     3
 75
     0
 76
     0
 77
     0
 78
     0
281
     0
 65
     1
110
0.0
120
0.0
130
0.0
111
1.0
121
0.0
131
0.0
112
0.0
122
1.0
132
0.0
 79
     0
146
0.0
348
45C
 60
     3
 61
     5
292
     1
282
     1
141
0.0
142
0.0
 63
   250
  0
ENDTAB
  0
TABLE
  2
LTYPE
  5
5
330
0
100
AcDbSymbolTable
 70
     6
  0
LTYPE
  5
14
330
5
100
AcDbSymbolTableRecord
100
AcDbLinetypeTableRecord
  2
ByBlock
 70
     0
  3

 72
    65
 73
     0
 40
0.0
  0
LTYPE
  5
15
330
5
100
AcDbSymbolTableRecord
100
AcDbLinetypeTableRecord
  2
ByLayer
 70
     0
  3

 72
    65
 73
     0
 40
0.0
  0
LTYPE
  5
16
330
5
100
AcDbSymbolTableRecord
100
AcDbLinetypeTableRecord
  2
Continuous
 70
     0
  3
Solid line
 72
    65
 73
     0
 40
0.0
  0
LTYPE
  5
6E
330
5
100
AcDbSymbolTableRecord
100
AcDbLinetypeTableRecord
  2
HIDDEN
 70
     0
  3
Hidden __ __ __ __ __ __ __ __ __ __ __ __ __ __
 72
    65
 73
     2
 40
1.905
 49
1.27
 74
     0
 49
-0.635
 74
     0
  0
LTYPE
  5
6F
330
5
100
AcDbSymbolTableRecord
100
AcDbLinetypeTableRecord
  2
PHANTOM
 70
     0
  3
Phantom ______  __  __  ______  __  __  ______
 72
    65
 73
     6
 40
12.7
 49
6.35
 74
     0
 49
-1.27
 74
     0
 49
1.27
 74
     0
 49
-1.27
 74
     0
 49
1.27
 74
     0
 49
-1.27
 74
     0
  0
LTYPE
  5
70
330
5
100
AcDbSymbolTableRecord
100
AcDbLinetypeTableRecord
  2
CENTER
 70
     0
  3
Center ____ _ ____ _ ____ _ ____ _ ____ _ ____
 72
    65
 73
     4
 40
10.16
 49
6.35
 74
     0
 49
-1.27
 74
     0
 49
1.27
 74
     0
 49
-1.27
 74
     0
  0
LTYPE
  5
71
330
5
100
AcDbSymbolTableRecord
100
AcDbLinetypeTableRecord
  2
CENTERX2
 70
     0
  3
Center (2x) ________  __  ________  __  _____
 72
    65
 73
     4
 40
20.32
 49
12.7
 74
     0
 49
-2.54
 74
     0
 49
2.54
 74
     0
 49
-2.54
 74
     0
  0
LTYPE
  5
72
330
5
100
AcDbSymbolTableRecord
100
AcDbLinetypeTableRecord
  2
DOT2
 70
     0
  3
Dot (.5x) ........................................
 72
    65
 73
     2
 40
0.635
 49
0.0
 74
     0
 49
-0.635
 74
     0
  0
ENDTAB
  0
TABLE
  2
LAYER
  5
2
330
0
100
AcDbSymbolTable
 70
     2
  0
LAYER
  5
10
330
2
100
AcDbSymbolTableRecord
100
AcDbLayerTableRecord
  2
0
 70
     0
 62
     7
  6
Continuous
370
    -3
390
F
347
473
  0
LAYER
  5
73
330
2
100
AcDbSymbolTableRecord
100
AcDbLayerTableRecord
  2
LENKIMO
 70
     0
 62
     1
  6
CENTERX2
370
    -3
390
F
347
473
  0
ENDTAB
  0
TABLE
  2
STYLE
  5
3
330
0
100
AcDbSymbolTable
 70
     1
  0
STYLE
  5
11
330
3
100
AcDbSymbolTableRecord
100
AcDbTextStyleTableRecord
  2
Standard
 70
     0
 40
0.0
 41
1.0
 50
0.0
 71
     0
 42
5.6444444444
  3
txt
  4

  0
ENDTAB
  0
TABLE
  2
VIEW
  5
6
330
0
100
AcDbSymbolTable
 70
     0
  0
ENDTAB
  0
TABLE
  2
UCS
  5
7
330
0
100
AcDbSymbolTable
 70
     0
  0
ENDTAB
  0
TABLE
  2
APPID
  5
9
330
0
100
AcDbSymbolTable
 70
     2
  0
APPID
  5
12
330
9
100
AcDbSymbolTableRecord
100
AcDbRegAppTableRecord
  2
ACAD
 70
     0
  0
APPID
  5
488
330
9
100
AcDbSymbolTableRecord
100
AcDbRegAppTableRecord
  2
ACAD_MLEADERVER
 70
     0
  0
ENDTAB
  0
TABLE
  2
DIMSTYLE
  5
A
330
0
100
AcDbSymbolTable
 70
     1
100
AcDbDimStyleTable
  0
DIMSTYLE
105
27
330
A
100
AcDbSymbolTableRecord
100
AcDbDimStyleTableRecord
  2
ISO-25
 70
     0
 41
2.5
 42
0.625
 43
3.75
 44
1.25
 73
     0
 74
     0
 77
     1
 78
     8
140
2.5
141
2.5
143
0.0393700787
147
0.625
171
     3
172
     1
178
     0
271
     2
272
     2
274
     3
278
    44
283
     0
284
     8
340
11
  0
ENDTAB
  0
TABLE
  2
BLOCK_RECORD
  5
1
330
0
100
AcDbSymbolTable
 70
     2
  0
BLOCK_RECORD
  5
1F
102
{ACAD_XDICTIONARY
360
479
102
}
330
1
100
AcDbSymbolTableRecord
100
AcDbBlockTableRecord
  2
*Model_Space
340
22
 70
     0
280
     1
281
     0
  0
BLOCK_RECORD
  5
1B
330
1
100
AcDbSymbolTableRecord
100
AcDbBlockTableRecord
  2
*Paper_Space
340
1E
 70
     0
280
     1
281
     0
  0
BLOCK_RECORD
  5
23
330
1
100
AcDbSymbolTableRecord
100
AcDbBlockTableRecord
  2
*Paper_Space0
340
26
 70
     0
280
     1
281
     0
  0
BLOCK_RECORD
  5
74
330
1
100
AcDbSymbolTableRecord
100
AcDbBlockTableRecord
  2
Block11_2
340
0
 70
     0
280
     1
281
     0
  0
ENDTAB
  0
ENDSEC
  0
SECTION
  2
BLOCKS
  0
BLOCK
  5
20
330
1F
100
AcDbEntity
  8
0
100
AcDbBlockBegin
  2
*Model_Space
 70
     0
 10
0.0
 20
0.0
 30
0.0
  3
*Model_Space
  1

  0
ENDBLK
  5
21
330
1F
100
AcDbEntity
  8
0
100
AcDbBlockEnd
  0
BLOCK
  5
1C
330
1B
100
AcDbEntity
 67
     1
  8
0
100
AcDbBlockBegin
  2
*Paper_Space
 70
     0
 10
0.0
 20
0.0
 30
0.0
  3
*Paper_Space
  1

  0
ENDBLK
  5
1D
330
1B
100
AcDbEntity
 67
     1
  8
0
100
AcDbBlockEnd
  0
BLOCK
  5
24
330
23
100
AcDbEntity
  8
0
100
AcDbBlockBegin
  2
*Paper_Space0
 70
     0
 10
0.0
 20
0.0
 30
0.0
  3
*Paper_Space0
  1

  0
ENDBLK
  5
25
330
23
100
AcDbEntity
  8
0
100
AcDbBlockEnd
  0
BLOCK
  5
75
330
74
100
AcDbEntity
  8
0
100
AcDbBlockBegin
  2
Block11_2
 70
     0
 10
0.0
 20
0.0
 30
0.0
  3
Block11_2
  1

  0
LINE
  5
77
330
74
100
AcDbEntity
  8
0
  6
Continuous
100
AcDbLine
 10
-15.7956326374
 20
2.3055746011
 30
0.0
 11
-18.0649288667
 21
1.8146036087
 31
0.0
  0
LINE
  5
78
330
74
100
AcDbEntity
  8
0
  6
Continuous
100
AcDbLine
 10
-15.6988785554
 20
-9.1195335787
 30
0.0
 11
-10.2261014967
 21
-7.9354771524
 31
0.0
  0
LINE
  5
79
330
74
100
AcDbEntity
  8
0
  6
Continuous
100
AcDbLine
 10
-10.2261014967
 20
-7.9354771524
 30
0.0
 11
-10.6655808869
 21
-5.9041780766
 31
0.0
  0
LINE
  5
7A
330
74
100
AcDbEntity
  8
0
  6
Continuous
100
AcDbLine
 10
-10.6655808869
 20
-5.9041780766
 30
0.0
 11
-13.8699456036
 21
-6.5974547429
 31
0.0
  0
LINE
  5
7B
330
74
100
AcDbEntity
  8
0
  6
Continuous
100
AcDbLine
 10
-8.296070931
 20
1.802048972
 30
0.0
 11
-6.9198111955
 21
2.0998080743
 31
0.0
  0
LINE
  5
7C
330
74
100
AcDbEntity
  8
0
  6
Continuous
100
AcDbLine
 10
-5.4333831358
 20
-4.7719736412
 30
0.0
 11
-6.8095376466
 21
-5.0697099777
 31
0.0
  0
LINE
  5
7D
330
74
100
AcDbEntity
  8
0
  6
Continuous
100
AcDbLine
 10
-11.0044904538
 20
3.3421566929
 30
0.0
 11
-8.6388294738
 21
-7.5920647278
 31
0.0
  0
LINE
  5
7E
330
74
100
AcDbEntity
  8
0
  6
Continuous
100
AcDbLine
 10
-8.6388294738
 20
-7.5920647278
 30
0.0
 11
-8.6384401425
 21
-7.5919804944
 31
0.0
  0
LINE
  5
7F
330
74
100
AcDbEntity
  8
0
  6
Continuous
100
AcDbLine
 10
-8.6384401425
 20
-7.5919804944
 30
0.0
 11
-4.4940245505
 21
-6.6953201952
 31
0.0
  0
LINE
  5
80
330
74
100
AcDbEntity
  8
0
  6
Continuous
100
AcDbLine
 10
-6.8595855671
 20
4.238922853
 30
0.0
 11
-11.0044904538
 21
3.3421566929
 31
0.0
  0
LINE
  5
81
330
74
100
AcDbEntity
  8
0
  6
Continuous
100
AcDbLine
 10
-32.9933593229
 20
-3.3005605139
 30
0.0
 11
-32.8591663041
 21
-3.2715273367
 31
0.0
  0
LINE
  5
82
330
74
100
AcDbEntity
  8
0
  6
Continuous
100
AcDbLine
 10
-31.5697721187
 20
-3.9678201523
 30
0.0
 11
-29.2969561243
 21
-3.4760876451
 31
0.0
  0
LINE
  5
83
330
74
100
AcDbEntity
  8
0
  6
Continuous
100
AcDbLine
 10
-33.2794920496
 20
-1.2667721217
 30
0.0
 11
-33.3448839193
 21
-1.2809199049
 31
0.0
  0
LINE
  5
84
330
74
100
AcDbEntity
  8
0
  6
Continuous
100
AcDbLine
 10
-31.3289079349
 20
-10.5856399919
 30
0.0
 11
-31.4650581325
 21
-10.6150966123
 31
0.0
  0
LINE
  5
85
330
74
100
AcDbEntity
  8
0
  6
Continuous
100
AcDbLine
 10
-32.8822392925
 20
-9.9377601564
 30
0.0
 11
-35.1888692339
 21
-10.4368084414
 31
0.0
  0
LINE
  5
86
330
74
100
AcDbEntity
  8
0
  6
Continuous
100
AcDbLine
 10
-31.5949683304
 20
-12.7295787952
 30
0.0
 11
-30.2063920476
 21
-12.4291549603
 31
0.0
  0
LINE
  5
87
330
74
100
AcDbEntity
  8
0
  6
Continuous
100
AcDbLine
 10
6.262509235
 20
-4.3681026205
 30
0.0
 11
8.6370616994
 21
-3.8543590356
 31
0.0
  0
LINE
  5
88
330
74
100
AcDbEntity
  8
0
  6
Continuous
100
AcDbLine
 10
8.6370616994
 20
-3.8543590356
 30
0.0
 11
3.9059396663
 21
6.5680857621
 31
0.0
  0
LINE
  5
89
330
74
100
AcDbEntity
  8
0
  6
Continuous
100
AcDbLine
 10
3.9059396663
 20
6.5680857621
 30
0.0
 11
0.0
 21
5.7230206493
 31
0.0
  0
LINE
  5
8A
330
74
100
AcDbEntity
  8
0
  6
Continuous
100
AcDbLine
 10
0.0
 20
5.7230206493
 30
0.0
 11
0.0
 21
-5.7230206493
 31
0.0
  0
LINE
  5
8B
330
74
100
AcDbEntity
  8
0
  6
Continuous
100
AcDbLine
 10
0.0
 20
-5.7230206493
 30
0.0
 11
2.3746576891
 21
-5.2092542987
 31
0.0
  0
LINE
  5
8C
330
74
100
AcDbEntity
  8
0
  6
Continuous
100
AcDbLine
 10
2.3746576891
 20
-5.2092542987
 30
0.0
 11
2.3747844598
 21
-3.0912381741
 31
0.0
  0
LINE
  5
8D
330
74
100
AcDbEntity
  8
0
  6
Continuous
100
AcDbLine
 10
2.3747844598
 20
-3.0912381741
 30
0.0
 11
4.0318309599
 21
-2.7327297722
 31
0.0
  0
LINE
  5
8E
330
74
100
AcDbEntity
  8
0
  6
Continuous
100
AcDbLine
 10
4.0318309599
 20
-2.7327297722
 30
0.0
 11
3.5923515697
 21
-0.7014306964
 31
0.0
  0
LINE
  5
8F
330
74
100
AcDbEntity
  8
0
  6
Continuous
100
AcDbLine
 10
3.5923515697
 20
-0.7014306964
 30
0.0
 11
2.3750284336
 21
-0.9648032524
 31
0.0
  0
LINE
  5
90
330
74
100
AcDbEntity
  8
0
  6
Continuous
100
AcDbLine
 10
2.3750284336
 20
-0.9648032524
 30
0.0
 11
2.3752084601
 21
4.1936873712
 31
0.0
  0
LINE
  5
91
330
74
100
AcDbEntity
  8
0
  6
Continuous
100
AcDbLine
 10
2.3752084601
 20
4.1936873712
 30
0.0
 11
6.262509235
 21
-4.3681026205
 31
0.0
  0
LINE
  5
92
330
74
100
AcDbEntity
  8
0
  6
Continuous
100
AcDbLine
 10
-53.0629352118
 20
-11.4801779454
 30
0.0
 11
-50.7945341276
 21
-8.0228043203
 31
0.0
  0
LINE
  5
93
330
74
100
AcDbEntity
  8
0
  6
Continuous
100
AcDbLine
 10
-50.7945341276
 20
-8.0228043203
 30
0.0
 11
-54.2891069366
 21
-5.8122833411
 31
0.0
  0
LINE
  5
94
330
74
100
AcDbEntity
  8
0
  6
Continuous
100
AcDbLine
 10
-54.2891069366
 20
-5.8122833411
 30
0.0
 11
-51.4073820962
 21
-5.1888110564
 31
0.0
  0
LINE
  5
95
330
74
100
AcDbEntity
  8
0
  6
Continuous
100
AcDbLine
 10
-51.4073820962
 20
-5.1888110564
 30
0.0
 11
-47.9127327975
 21
-7.3992273667
 31
0.0
  0
LINE
  5
96
330
74
100
AcDbEntity
  8
0
  6
Continuous
100
AcDbLine
 10
-47.9127327975
 20
-7.3992273667
 30
0.0
 11
-50.1813587974
 21
-10.8569360435
 31
0.0
  0
LINE
  5
97
330
74
100
AcDbEntity
  8
0
  6
Continuous
100
AcDbLine
 10
-50.1813587974
 20
-10.8569360435
 30
0.0
 11
-53.0628942334
 21
-11.4803673498
 31
0.0
  0
LINE
  5
98
330
74
100
AcDbEntity
  8
0
  6
Continuous
100
AcDbLine
 10
-53.0628942334
 20
-11.4803673498
 30
0.0
 11
-53.0629352118
 21
-11.4801779454
 31
0.0
  0
LINE
  5
99
330
74
100
AcDbEntity
  8
0
  6
Continuous
100
AcDbLine
 10
-42.7624916815
 20
-3.31845567
 30
0.0
 11
-45.0307950789
 21
-6.7757971452
 31
0.0
  0
LINE
  5
9A
330
74
100
AcDbEntity
  8
0
  6
Continuous
100
AcDbLine
 10
-45.0307950789
 20
-6.7757971452
 30
0.0
 11
-48.5254573289
 21
-4.5652955168
 31
0.0
  0
LINE
  5
9B
330
74
100
AcDbEntity
  8
0
  6
Continuous
100
AcDbLine
 10
-48.5254573289
 20
-4.5652955168
 30
0.0
 11
-48.5257466967
 21
-4.5653581227
 31
0.0
  0
LINE
  5
9C
330
74
100
AcDbEntity
  8
0
  6
Continuous
100
AcDbLine
 10
-48.5257466967
 20
-4.5653581227
 30
0.0
 11
-47.9126146215
 21
-7.399289919
 31
0.0
  0
LINE
  5
9D
330
74
100
AcDbEntity
  8
0
  6
Continuous
100
AcDbLine
 10
-47.9126146215
 20
-7.399289919
 30
0.0
 11
-44.4177372167
 21
-9.6098441329
 31
0.0
  0
LINE
  5
9E
330
74
100
AcDbEntity
  8
0
  6
Continuous
100
AcDbLine
 10
-44.4177372167
 20
-9.6098441329
 30
0.0
 11
-42.1490649772
 21
-6.1523237222
 31
0.0
  0
LINE
  5
9F
330
74
100
AcDbEntity
  8
0
  6
Continuous
100
AcDbLine
 10
-42.1490649772
 20
-6.1523237222
 30
0.0
 11
-42.7621970524
 21
-3.3183919259
 31
0.0
  0
LINE
  5
A0
330
74
100
AcDbEntity
  8
0
  6
Continuous
100
AcDbLine
 10
-42.7621970524
 20
-3.3183919259
 30
0.0
 11
-42.7624916815
 21
-3.31845567
 31
0.0
  0
LINE
  5
A1
330
74
100
AcDbEntity
  8
0
  6
Continuous
100
AcDbLine
 10
-41.535889647
 20
-8.9864554454
 30
0.0
 11
-43.8045413973
 21
-12.4440705583
 31
0.0
  0
LINE
  5
A2
330
74
100
AcDbEntity
  8
0
  6
Continuous
100
AcDbLine
 10
-43.8045413973
 20
-12.4440705583
 30
0.0
 11
-40.3564529382
 21
-14.625159785
 31
0.0
  0
LINE
  5
A3
330
74
100
AcDbEntity
  8
0
  6
Continuous
100
AcDbLine
 10
-40.3564529382
 20
-14.625159785
 30
0.0
 11
-43.2382724808
 21
-15.2486525588
 31
0.0
  0
LINE
  5
A4
330
74
100
AcDbEntity
  8
0
  6
Continuous
100
AcDbLine
 10
-43.2382724808
 20
-15.2486525588
 30
0.0
 11
-46.686243472
 21
-13.0676480676
 31
0.0
  0
LINE
  5
A5
330
74
100
AcDbEntity
  8
0
  6
Continuous
100
AcDbLine
 10
-46.686243472
 20
-13.0676480676
 30
0.0
 11
-44.4177144509
 21
-9.6099493576
 31
0.0
  0
LINE
  5
A6
330
74
100
AcDbEntity
  8
0
  6
Continuous
100
AcDbLine
 10
-44.4177144509
 20
-9.6099493576
 30
0.0
 11
-41.535889647
 21
-8.9864554454
 31
0.0
  0
LINE
  5
A7
330
74
100
AcDbEntity
  8
0
  6
Continuous
100
AcDbLine
 10
-51.8063383656
 20
-17.1023866618
 30
0.0
 11
-49.5681857438
 21
-13.6910572443
 31
0.0
  0
LINE
  5
A8
330
74
100
AcDbEntity
  8
0
  6
Continuous
100
AcDbLine
 10
-49.5681857438
 20
-13.6910572443
 30
0.0
 11
-46.1199973213
 21
-15.8721248435
 31
0.0
  0
LINE
  5
A9
330
74
100
AcDbEntity
  8
0
  6
Continuous
100
AcDbLine
 10
-46.1199973213
 20
-15.8721248435
 30
0.0
 11
-46.0813956519
 21
-15.8637732234
 31
0.0
  0
LINE
  5
AA
330
74
100
AcDbEntity
  8
0
  6
Continuous
100
AcDbLine
 10
-46.0813956519
 20
-15.8637732234
 30
0.0
 11
-46.6863662012
 21
-13.0675644704
 31
0.0
  0
LINE
  5
AB
330
74
100
AcDbEntity
  8
0
  6
Continuous
100
AcDbLine
 10
-46.6863662012
 20
-13.0675644704
 30
0.0
 11
-50.1813587974
 21
-10.8569360435
 31
0.0
  0
LINE
  5
AC
330
74
100
AcDbEntity
  8
0
  6
Continuous
100
AcDbLine
 10
-50.1813587974
 20
-10.8569360435
 30
0.0
 11
-52.4497621582
 21
-14.3142991462
 31
0.0
  0
LINE
  5
AD
330
74
100
AcDbEntity
  8
0
  6
Continuous
100
AcDbLine
 10
-52.4497621582
 20
-14.3142991462
 30
0.0
 11
-51.8447506306
 21
-17.1106973035
 31
0.0
  0
LINE
  5
AE
330
74
100
AcDbEntity
  8
0
  6
Continuous
100
AcDbLine
 10
-51.8447506306
 20
-17.1106973035
 30
0.0
 11
-51.8063383656
 21
-17.1023866618
 31
0.0
  0
LINE
  5
AF
330
74
100
AcDbEntity
  8
0
  6
Continuous
100
AcDbLine
 10
-20.0432683672
 20
-10.0594590717
 30
0.0
 11
-17.6687053803
 21
-9.5457132103
 31
0.0
  0
LINE
  5
B0
330
74
100
AcDbEntity
  8
0
  6
Continuous
100
AcDbLine
 10
-17.6687053803
 20
-9.5457132103
 30
0.0
 11
-22.3998379359
 21
0.8767293109
 31
0.0
  0
LINE
  5
B1
330
74
100
AcDbEntity
  8
0
  6
Continuous
100
AcDbLine
 10
-22.3998379359
 20
0.8767293109
 30
0.0
 11
-26.3058670432
 21
0.0316448472
 31
0.0
  0
LINE
  5
B2
330
74
100
AcDbEntity
  8
0
  6
Continuous
100
AcDbLine
 10
-26.3058670432
 20
0.0316448472
 30
0.0
 11
-26.3056723775
 21
-11.4143543348
 31
0.0
  0
LINE
  5
B3
330
74
100
AcDbEntity
  8
0
  6
Continuous
100
AcDbLine
 10
-26.3056723775
 20
-11.4143543348
 30
0.0
 11
-23.9311146519
 21
-10.9006096116
 31
0.0
  0
LINE
  5
B4
330
74
100
AcDbEntity
  8
0
  6
Continuous
100
AcDbLine
 10
-23.9311146519
 20
-10.9006096116
 30
0.0
 11
-23.9309931424
 21
-8.7825946253
 31
0.0
  0
LINE
  5
B5
330
74
100
AcDbEntity
  8
0
  6
Continuous
100
AcDbLine
 10
-23.9309931424
 20
-8.7825946253
 30
0.0
 11
-22.2738308951
 21
-8.4240611811
 31
0.0
  0
LINE
  5
B6
330
74
100
AcDbEntity
  8
0
  6
Continuous
100
AcDbLine
 10
-22.2738308951
 20
-8.4240611811
 30
0.0
 11
-22.7133102854
 21
-6.3927621053
 31
0.0
  0
LINE
  5
B7
330
74
100
AcDbEntity
  8
0
  6
Continuous
100
AcDbLine
 10
-22.7133102854
 20
-6.3927621053
 30
0.0
 11
-23.9308333483
 21
-6.6561779162
 31
0.0
  0
LINE
  5
B8
330
74
100
AcDbEntity
  8
0
  6
Continuous
100
AcDbLine
 10
-23.9308333483
 20
-6.6561779162
 30
0.0
 11
-23.9305586196
 21
-1.4976668035
 31
0.0
  0
LINE
  5
B9
330
74
100
AcDbEntity
  8
0
  6
Continuous
100
AcDbLine
 10
-23.9305586196
 20
-1.4976668035
 30
0.0
 11
-20.0432683672
 21
-10.0594590717
 31
0.0
  0
SPLINE
  5
BA
330
74
100
AcDbEntity
  8
0
100
AcDbSpline
210
0.0
220
0.0
230
1.0
 70
     8
 71
     3
 72
     8
 73
     4
 74
     0
 42
0.000000001
 43
0.00000001
 40
0.0
 40
0.0
 40
0.0
 40
0.0
 40
1.0
 40
1.0
 40
1.0
 40
1.0
 10
-13.86994560355125
 20
-6.597454742918429
 30
0.0
 10
-13.88373254946556
 20
-6.53373068413859
 30
0.0
 10
-15.11365515797402
 20
-0.8489574873494021
 30
0.0
 10
-15.79563263740206
 20
2.305574601061459
 30
0.0
  0
SPLINE
  5
BB
330
74
100
AcDbEntity
  8
0
100
AcDbSpline
210
0.0
220
0.0
230
1.0
 70
     8
 71
     3
 72
     8
 73
     4
 74
     0
 42
0.000000001
 43
0.00000001
 40
2.0
 40
2.0
 40
2.0
 40
2.0
 40
3.0
 40
3.0
 40
3.0
 40
3.0
 10
-18.06492886668426
 20
1.814603608696524
 30
0.0
 10
-17.24003965005502
 20
-1.995739949107536
 30
0.0
 10
-15.71186186991051
 20
-9.059523950669432
 30
0.0
 10
-15.69887855542093
 20
-9.119533578677906
 30
0.0
  0
SPLINE
  5
BC
330
74
100
AcDbEntity
  8
0
100
AcDbSpline
210
0.0
220
0.0
230
1.0
 70
     8
 71
     3
 72
     8
 73
     4
 74
     0
 42
0.000000001
 43
0.00000001
 40
0.0
 40
0.0
 40
0.0
 40
0.0
 40
1.0
 40
1.0
 40
1.0
 40
1.0
 10
-6.809537646582547
 20
-5.069709977697404
 30
0.0
 10
-7.284290309572815
 20
-2.875375801708635
 30
0.0
 10
-7.897830097865885
 20
-0.0390758678013329
 30
0.0
 10
-8.296070930952649
 20
1.80204897196991
 30
0.0
  0
SPLINE
  5
BD
330
74
100
AcDbEntity
  8
0
100
AcDbSpline
210
0.0
220
0.0
230
1.0
 70
     8
 71
     3
 72
     8
 73
     4
 74
     0
 42
0.000000001
 43
0.00000001
 40
2.0
 40
2.0
 40
2.0
 40
2.0
 40
3.0
 40
3.0
 40
3.0
 40
3.0
 10
-6.919811195494074
 20
2.099808074263809
 30
0.0
 10
-6.228016878711183
 20
2.249480443098069
 30
0.0
 10
-5.547633595833446
 20
1.815851349115847
 30
0.0
 10
-5.399398884916104
 20
1.130701970100344
 30
0.0
  0
SPLINE
  5
BE
330
74
100
AcDbEntity
  8
0
100
AcDbSpline
210
0.0
220
0.0
230
1.0
 70
     8
 71
     3
 72
     8
 73
     4
 74
     0
 42
0.000000001
 43
0.00000001
 40
3.0
 40
3.0
 40
3.0
 40
3.0
 40
4.0
 40
4.0
 40
4.0
 40
4.0
 10
-5.399398884916104
 20
1.130701970100344
 30
0.0
 10
-5.107009087764085
 20
-0.2207405274728672
 30
0.0
 10
-4.711497421058354
 20
-2.048334586467611
 30
0.0
 10
-4.449160707297047
 20
-3.260870000165379
 30
0.0
  0
SPLINE
  5
BF
330
74
100
AcDbEntity
  8
0
100
AcDbSpline
210
0.0
220
0.0
230
1.0
 70
     8
 71
     3
 72
     8
 73
     4
 74
     0
 42
0.000000001
 43
0.00000001
 40
4.0
 40
4.0
 40
4.0
 40
4.0
 40
5.0
 40
5.0
 40
5.0
 40
5.0
 10
-4.449160707297047
 20
-3.260870000165379
 30
0.0
 10
-4.300905507193207
 20
-3.946114081381999
 30
0.0
 10
-4.741570606399121
 20
-4.622385452066122
 30
0.0
 10
-5.433383135791953
 20
-4.771973641166296
 30
0.0
  0
SPLINE
  5
C0
330
74
100
AcDbEntity
  8
0
100
AcDbSpline
210
0.0
220
0.0
230
1.0
 70
     8
 71
     3
 72
     8
 73
     4
 74
     0
 42
0.000000001
 43
0.00000001
 40
3.0
 40
3.0
 40
3.0
 40
3.0
 40
4.0
 40
4.0
 40
4.0
 40
4.0
 10
-4.494024550545999
 20
-6.695320195210662
 30
0.0
 10
-2.825524345390513
 20
-6.334333740063992
 30
0.0
 10
-1.762658323115034
 20
-4.702068307882374
 30
0.0
 10
-2.120071189640999
 20
-3.049576315093403
 30
0.0
  0
SPLINE
  5
C1
330
74
100
AcDbEntity
  8
0
100
AcDbSpline
210
0.0
220
0.0
230
1.0
 70
     8
 71
     3
 72
     8
 73
     4
 74
     0
 42
0.000000001
 43
0.00000001
 40
4.0
 40
4.0
 40
4.0
 40
4.0
 40
5.0
 40
5.0
 40
5.0
 40
5.0
 10
-2.120071189640999
 20
-3.049576315093403
 30
0.0
 10
-2.485983017556096
 20
-1.358310753073632
 30
0.0
 10
-2.867352798370483
 20
0.4044023583376265
 30
0.0
 10
-3.190995488197396
 20
1.900704823656681
 30
0.0
  0
SPLINE
  5
C2
330
74
100
AcDbEntity
  8
0
100
AcDbSpline
210
0.0
220
0.0
230
1.0
 70
     8
 71
     3
 72
     8
 73
     4
 74
     0
 42
0.000000001
 43
0.00000001
 40
5.0
 40
5.0
 40
5.0
 40
5.0
 40
6.0
 40
6.0
 40
6.0
 40
6.0
 10
-3.190995488197396
 20
1.900704823656681
 30
0.0
 10
-3.54857504695031
 20
3.553458157285876
 30
0.0
 10
-5.190901218780231
 20
4.599949148191988
 30
0.0
 10
-6.859585567104196
 20
4.238922852960538
 30
0.0
  0
SPLINE
  5
C3
330
74
100
AcDbEntity
  8
0
100
AcDbSpline
210
0.0
220
0.0
230
1.0
 70
     8
 71
     3
 72
     8
 73
     4
 74
     0
 42
0.000000001
 43
0.00000001
 40
0.0
 40
0.0
 40
0.0
 40
0.0
 40
1.0
 40
1.0
 40
1.0
 40
1.0
 10
-30.23703582864644
 20
-6.251438951366732
 30
0.0
 10
-30.9104300186728
 20
-6.015603382360459
 30
0.0
 10
-31.40848551125485
 20
-5.893156856121871
 30
0.0
 10
-32.67210357750635
 20
-5.496689523479785
 30
0.0
  0
SPLINE
  5
C4
330
74
100
AcDbEntity
  8
0
100
AcDbSpline
210
0.0
220
0.0
230
1.0
 70
     8
 71
     3
 72
     8
 73
     4
 74
     0
 42
0.000000001
 43
0.00000001
 40
1.0
 40
1.0
 40
1.0
 40
1.0
 40
2.0
 40
2.0
 40
2.0
 40
2.0
 10
-32.67210357750635
 20
-5.496689523479785
 30
0.0
 10
-33.03332194555517
 20
-5.383421617718132
 30
0.0
 10
-33.81210282496122
 20
-5.206692347750555
 30
0.0
 10
-33.94849250952588
 20
-4.576291363356936
 30
0.0
  0
SPLINE
  5
C5
330
74
100
AcDbEntity
  8
0
100
AcDbSpline
210
0.0
220
0.0
230
1.0
 70
     8
 71
     3
 72
     8
 73
     4
 74
     0
 42
0.000000001
 43
0.00000001
 40
2.0
 40
2.0
 40
2.0
 40
2.0
 40
3.0
 40
3.0
 40
3.0
 40
3.0
 10
-33.94849250952588
 20
-4.576291363356936
 30
0.0
 10
-34.11622381965225
 20
-3.801027578894063
 30
0.0
 10
-33.67528356585564
 20
-3.448097454184924
 30
0.0
 10
-32.99335932290604
 20
-3.30056051389548
 30
0.0
  0
SPLINE
  5
C6
330
74
100
AcDbEntity
  8
0
100
AcDbSpline
210
0.0
220
0.0
230
1.0
 70
     8
 71
     3
 72
     8
 73
     4
 74
     0
 42
0.000000001
 43
0.00000001
 40
4.0
 40
4.0
 40
4.0
 40
4.0
 40
5.0
 40
5.0
 40
5.0
 40
5.0
 10
-32.85916630414497
 20
-3.271527336675416
 30
0.0
 10
-32.2786944245911
 20
-3.14594000653005
 30
0.0
 10
-31.77109773641243
 20
-3.328116480283148
 30
0.0
 10
-31.56977211870437
 20
-3.967820152272103
 30
0.0
  0
SPLINE
  5
C7
330
74
100
AcDbEntity
  8
0
100
AcDbSpline
210
0.0
220
0.0
230
1.0
 70
     8
 71
     3
 72
     8
 73
     4
 74
     0
 42
0.000000001
 43
0.00000001
 40
6.0
 40
6.0
 40
6.0
 40
6.0
 40
7.0
 40
7.0
 40
7.0
 40
7.0
 10
-29.29695612428625
 20
-3.476087645143529
 30
0.0
 10
-29.68810071971012
 20
-1.866802583842748
 30
0.0
 10
-30.87776107222441
 20
-0.7599478056671497
 30
0.0
 10
-33.27949204955325
 20
-1.266772121690862
 30
0.0
  0
SPLINE
  5
C8
330
74
100
AcDbEntity
  8
0
100
AcDbSpline
210
0.0
220
0.0
230
1.0
 70
     8
 71
     3
 72
     8
 73
     4
 74
     0
 42
0.000000001
 43
0.00000001
 40
8.0
 40
8.0
 40
8.0
 40
8.0
 40
9.0
 40
9.0
 40
9.0
 40
9.0
 10
-33.34488391931659
 20
-1.280919904944554
 30
0.0
 10
-35.81152992452102
 20
-1.828202838410209
 30
0.0
 10
-36.33378487826545
 20
-3.54465012997844
 30
0.0
 10
-36.09207577942843
 20
-4.962606301827474
 30
0.0
  0
SPLINE
  5
C9
330
74
100
AcDbEntity
  8
0
100
AcDbSpline
210
0.0
220
0.0
230
1.0
 70
     8
 71
     3
 72
     8
 73
     4
 74
     0
 42
0.000000001
 43
0.00000001
 40
9.0
 40
9.0
 40
9.0
 40
9.0
 40
10.0
 40
10.0
 40
10.0
 40
10.0
 10
-36.09207577942843
 20
-4.962606301827474
 30
0.0
 10
-35.83736690020325
 20
-6.457652824126185
 30
0.0
 10
-34.96800490008025
 20
-7.196828812263726
 30
0.0
 10
-33.99931718292642
 20
-7.502708028683521
 30
0.0
  0
SPLINE
  5
CA
330
74
100
AcDbEntity
  8
0
100
AcDbSpline
210
0.0
220
0.0
230
1.0
 70
     8
 71
     3
 72
     8
 73
     4
 74
     0
 42
0.000000001
 43
0.00000001
 40
10.0
 40
10.0
 40
10.0
 40
10.0
 40
11.0
 40
11.0
 40
11.0
 40
11.0
 10
-33.99931718292642
 20
-7.502708028683521
 30
0.0
 10
-33.40907414696034
 20
-7.689011641945549
 30
0.0
 10
-32.48616403135102
 20
-7.975318844696811
 30
0.0
 10
-31.47547483016511
 20
-8.271505052332133
 30
0.0
  0
SPLINE
  5
CB
330
74
100
AcDbEntity
  8
0
100
AcDbSpline
210
0.0
220
0.0
230
1.0
 70
     8
 71
     3
 72
     8
 73
     4
 74
     0
 42
0.000000001
 43
0.00000001
 40
11.0
 40
11.0
 40
11.0
 40
11.0
 40
12.0
 40
12.0
 40
12.0
 40
12.0
 10
-31.47547483016511
 20
-8.271505052332133
 30
0.0
 10
-31.11213516930565
 20
-8.377980375833697
 30
0.0
 10
-30.40258052645035
 20
-8.55729511966404
 30
0.0
 10
-30.28870163819746
 20
-9.336631754491275
 30
0.0
  0
SPLINE
  5
CC
330
74
100
AcDbEntity
  8
0
100
AcDbSpline
210
0.0
220
0.0
230
1.0
 70
     8
 71
     3
 72
     8
 73
     4
 74
     0
 42
0.000000001
 43
0.00000001
 40
12.0
 40
12.0
 40
12.0
 40
12.0
 40
13.0
 40
13.0
 40
13.0
 40
13.0
 10
-30.28870163819746
 20
-9.336631754491275
 30
0.0
 10
-30.1883718252622
 20
-10.02498578462436
 30
0.0
 10
-30.64014408852681
 20
-10.43662327702193
 30
0.0
 10
-31.32890793487913
 20
-10.58563999188937
 30
0.0
  0
SPLINE
  5
CD
330
74
100
AcDbEntity
  8
0
100
AcDbSpline
210
0.0
220
0.0
230
1.0
 70
     8
 71
     3
 72
     8
 73
     4
 74
     0
 42
0.000000001
 43
0.00000001
 40
14.0
 40
14.0
 40
14.0
 40
14.0
 40
15.0
 40
15.0
 40
15.0
 40
15.0
 10
-31.46505813246006
 20
-10.61509661229636
 30
0.0
 10
-32.05208024758041
 20
-10.74210111117219
 30
0.0
 10
-32.71260096537058
 20
-10.55064660173623
 30
0.0
 10
-32.8822392924921
 20
-9.937760156430087
 30
0.0
  0
SPLINE
  5
CE
330
74
100
AcDbEntity
  8
0
100
AcDbSpline
210
0.0
220
0.0
230
1.0
 70
     8
 71
     3
 72
     8
 73
     4
 74
     0
 42
0.000000001
 43
0.00000001
 40
16.0
 40
16.0
 40
16.0
 40
16.0
 40
17.0
 40
17.0
 40
17.0
 40
17.0
 10
-35.1888692338865
 20
-10.43680844141459
 30
0.0
 10
-34.81471685749703
 20
-11.8843133271045
 30
0.0
 10
-33.72975075395794
 20
-12.95131992706823
 30
0.0
 10
-31.59496833044066
 20
-12.72957879515504
 30
0.0
  0
SPLINE
  5
CF
330
74
100
AcDbEntity
  8
0
100
AcDbSpline
210
0.0
220
0.0
230
1.0
 70
     8
 71
     3
 72
     8
 73
     4
 74
     0
 42
0.000000001
 43
0.00000001
 40
18.0
 40
18.0
 40
18.0
 40
18.0
 40
19.0
 40
19.0
 40
19.0
 40
19.0
 10
-30.20639204762402
 20
-12.42915496033268
 30
0.0
 10
-28.36320980349184
 20
-11.79454394754582
 30
0.0
 10
-27.78707037380765
 20
-10.41512978795686
 30
0.0
 10
-27.91988511866083
 20
-9.073464993912006
 30
0.0
  0
SPLINE
  5
D0
330
74
100
AcDbEntity
  8
0
100
AcDbSpline
210
0.0
220
0.0
230
1.0
 70
     8
 71
     3
 72
     8
 73
     4
 74
     0
 42
0.000000001
 43
0.00000001
 40
19.0
 40
19.0
 40
19.0
 40
19.0
 40
20.0
 40
20.0
 40
20.0
 40
20.0
 10
-27.91988511866083
 20
-9.073464993912006
 30
0.0
 10
-28.12563217330358
 20
-6.994152508733083
 30
0.0
 10
-29.51271678483619
 20
-6.50510505043454
 30
0.0
 10
-30.23703582864644
 20
-6.251438951366732
 30
0.0
  0
HATCH
  5
D1
330
74
100
AcDbEntity
  8
0
100
AcDbHatch
 10
0.0
 20
0.0
 30
0.0
210
0.0
220
0.0
230
1.0
  2
SOLID
 70
     1
 71
     0
 91
        1
 92
        0
 93
        7
 72
     1
 10
-53.06293521179145
 20
-11.48017794540906
 11
-53.0628942334185
 21
-11.48036734981106
 72
     1
 10
-53.0628942334185
 20
-11.48036734981106
 11
-50.18135879739363
 21
-10.85693604353014
 72
     1
 10
-50.18135879739363
 20
-10.85693604353014
 11
-47.91273279754322
 21
-7.399227366744369
 72
     1
 10
-47.91273279754322
 20
-7.399227366744369
 11
-51.40738209617635
 21
-5.188811056417426
 72
     1
 10
-51.40738209617635
 20
-5.188811056417426
 11
-54.28910693660305
 21
-5.812283341071309
 72
     1
 10
-54.28910693660305
 20
-5.812283341071309
 11
-50.79453412756107
 21
-8.022804320319173
 72
     1
 10
-50.79453412756107
 20
-8.022804320319173
 11
-53.06293521179145
 21
-11.48017794540906
 97
        0
 75
     0
 76
     1
 98
        1
 10
0.0
 20
0.0
  0
HATCH
  5
D2
330
74
100
AcDbEntity
  8
0
100
AcDbHatch
 10
0.0
 20
0.0
 30
0.0
210
0.0
220
0.0
230
1.0
  2
SOLID
 70
     1
 71
     0
 91
        1
 92
        0
 93
        6
 72
     1
 10
-41.53588964704281
 20
-8.986455445432597
 11
-44.41771445090438
 21
-9.609949357561213
 72
     1
 10
-44.41771445090438
 20
-9.609949357561213
 11
-46.68624347197728
 21
-13.06764806762683
 72
     1
 10
-46.68624347197728
 20
-13.06764806762683
 11
-43.23827248082917
 21
-15.24865255879992
 72
     1
 10
-43.23827248082917
 20
-15.24865255879992
 11
-40.35645293820115
 21
-14.62515978495947
 72
     1
 10
-40.35645293820115
 20
-14.62515978495947
 11
-43.80454139731328
 21
-12.44407055830516
 72
     1
 10
-43.80454139731328
 20
-12.44407055830516
 11
-41.53588964704281
 21
-8.986455445432597
 97
        0
 75
     0
 76
     1
 98
        1
 10
0.0
 20
0.0
  0
HATCH
  5
D3
330
74
100
AcDbEntity
  8
0
100
AcDbHatch
 10
0.0
 20
0.0
 30
0.0
210
0.0
220
0.0
230
1.0
  2
SOLID
 70
     1
 71
     0
 91
        1
 92
        0
 93
       20
 72
     4
 94
        3
 73
     1
 74
     0
 95
        8
 96
        4
 40
18.0
 40
18.0
 40
18.0
 40
18.0
 40
19.0
 40
19.0
 40
19.0
 40
19.0
 10
-30.20639204762402
 20
-12.42915496033267
 42
1.0
 10
-28.36320980349188
 20
-11.79454394754584
 42
1.0
 10
-27.78707037380775
 20
-10.41512978795687
 42
1.0
 10
-27.91988511866085
 20
-9.073464993912015
 42
1.0
 72
     4
 94
        3
 73
     1
 74
     0
 95
        8
 96
        4
 40
19.0
 40
19.0
 40
19.0
 40
19.0
 40
20.0
 40
20.0
 40
20.0
 40
20.0
 10
-27.91988511866085
 20
-9.073464993912015
 42
1.0
 10
-28.1256321733036
 20
-6.994152508733093
 42
1.0
 10
-29.51271678483624
 20
-6.505105050434554
 42
1.0
 10
-30.23703582864647
 20
-6.251438951366739
 42
1.0
 72
     4
 94
        3
 73
     1
 74
     0
 95
        8
 96
        4
 40
0.0
 40
0.0
 40
0.0
 40
0.0
 40
1.0
 40
1.0
 40
1.0
 40
1.0
 10
-30.23703582864647
 20
-6.251438951366739
 42
1.0
 10
-30.91043001867278
 20
-6.015603382360466
 42
1.0
 10
-31.40848551125484
 20
-5.893156856121866
 42
1.0
 10
-32.67210357750633
 20
-5.496689523479784
 42
1.0
 72
     4
 94
        3
 73
     1
 74
     0
 95
        8
 96
        4
 40
1.0
 40
1.0
 40
1.0
 40
1.0
 40
2.0
 40
2.0
 40
2.0
 40
2.0
 10
-32.67210357750633
 20
-5.496689523479784
 42
1.0
 10
-33.03332194555515
 20
-5.383421617718138
 42
1.0
 10
-33.81210282496121
 20
-5.206692347750558
 42
1.0
 10
-33.94849250952591
 20
-4.576291363356954
 42
1.0
 72
     4
 94
        3
 73
     1
 74
     0
 95
        8
 96
        4
 40
2.0
 40
2.0
 40
2.0
 40
2.0
 40
3.0
 40
3.0
 40
3.0
 40
3.0
 10
-33.94849250952591
 20
-4.576291363356954
 42
1.0
 10
-34.11622381965228
 20
-3.801027578894066
 42
1.0
 10
-33.67528356585566
 20
-3.448097454184939
 42
1.0
 10
-32.99335932290605
 20
-3.300560513895483
 42
1.0
 72
     1
 10
-32.99335932290605
 20
-3.300560513895483
 11
-32.85916630414502
 21
-3.271527336675422
 72
     4
 94
        3
 73
     1
 74
     0
 95
        8
 96
        4
 40
4.0
 40
4.0
 40
4.0
 40
4.0
 40
5.0
 40
5.0
 40
5.0
 40
5.0
 10
-32.85916630414502
 20
-3.271527336675422
 42
1.0
 10
-32.27869442459117
 20
-3.145940006530068
 42
1.0
 10
-31.77109773641243
 20
-3.328116480283154
 42
1.0
 10
-31.5697721187044
 20
-3.967820152272114
 42
1.0
 72
     1
 10
-31.5697721187044
 20
-3.967820152272114
 11
-29.29695612428624
 21
-3.476087645143523
 72
     4
 94
        3
 73
     1
 74
     0
 95
        8
 96
        4
 40
6.0
 40
6.0
 40
6.0
 40
6.0
 40
7.0
 40
7.0
 40
7.0
 40
7.0
 10
-29.2969561242863
 20
-3.476087645143538
 42
1.0
 10
-29.6881007197101
 20
-1.866802583842747
 42
1.0
 10
-30.87776107222446
 20
-0.7599478056671519
 42
1.0
 10
-33.27949204955327
 20
-1.266772121690873
 42
1.0
 72
     1
 10
-33.27949204955321
 20
-1.266772121690857
 11
-33.3448839193166
 21
-1.280919904944549
 72
     4
 94
        3
 73
     1
 74
     0
 95
        8
 96
        4
 40
8.0
 40
8.0
 40
8.0
 40
8.0
 40
9.0
 40
9.0
 40
9.0
 40
9.0
 10
-33.34488391931666
 20
-1.280919904944565
 42
1.0
 10
-35.8115299245211
 20
-1.828202838410234
 42
1.0
 10
-36.3337848782655
 20
-3.544650129978449
 42
1.0
 10
-36.09207577942846
 20
-4.962606301827486
 42
1.0
 72
     4
 94
        3
 73
     1
 74
     0
 95
        8
 96
        4
 40
9.0
 40
9.0
 40
9.0
 40
9.0
 40
10.0
 40
10.0
 40
10.0
 40
10.0
 10
-36.09207577942846
 20
-4.962606301827486
 42
1.0
 10
-35.83736690020323
 20
-6.457652824126184
 42
1.0
 10
-34.96800490008029
 20
-7.196828812263736
 42
1.0
 10
-33.99931718292643
 20
-7.502708028683525
 42
1.0
 72
     4
 94
        3
 73
     1
 74
     0
 95
        8
 96
        4
 40
10.0
 40
10.0
 40
10.0
 40
10.0
 40
11.0
 40
11.0
 40
11.0
 40
11.0
 10
-33.99931718292643
 20
-7.502708028683525
 42
1.0
 10
-33.40907414696031
 20
-7.689011641945555
 42
1.0
 10
-32.48616403135106
 20
-7.975318844696822
 42
1.0
 10
-31.47547483016516
 20
-8.27150505233215
 42
1.0
 72
     4
 94
        3
 73
     1
 74
     0
 95
        8
 96
        4
 40
11.0
 40
11.0
 40
11.0
 40
11.0
 40
12.0
 40
12.0
 40
12.0
 40
12.0
 10
-31.47547483016516
 20
-8.27150505233215
 42
1.0
 10
-31.11213516930568
 20
-8.377980375833708
 42
1.0
 10
-30.40258052645039
 20
-8.557295119664056
 42
1.0
 10
-30.28870163819752
 20
-9.336631754491272
 42
1.0
 72
     4
 94
        3
 73
     1
 74
     0
 95
        8
 96
        4
 40
12.0
 40
12.0
 40
12.0
 40
12.0
 40
13.0
 40
13.0
 40
13.0
 40
13.0
 10
-30.28870163819752
 20
-9.336631754491272
 42
1.0
 10
-30.18837182526216
 20
-10.02498578462435
 42
1.0
 10
-30.64014408852681
 20
-10.43662327702195
 42
1.0
 10
-31.32890793487914
 20
-10.58563999188937
 42
1.0
 72
     1
 10
-31.32890793487914
 20
-10.58563999188937
 11
-31.46505813246008
 21
-10.61509661229637
 72
     4
 94
        3
 73
     1
 74
     0
 95
        8
 96
        4
 40
14.0
 40
14.0
 40
14.0
 40
14.0
 40
15.0
 40
15.0
 40
15.0
 40
15.0
 10
-31.46505813246008
 20
-10.61509661229637
 42
1.0
 10
-32.05208024758041
 20
-10.7421011111722
 42
1.0
 10
-32.71260096537064
 20
-10.55064660173623
 42
1.0
 10
-32.88223929249212
 20
-9.937760156430087
 42
1.0
 72
     1
 10
-32.88223929249212
 20
-9.937760156430087
 11
-35.18886923388655
 21
-10.43680844141459
 72
     4
 94
        3
 73
     1
 74
     0
 95
        8
 96
        4
 40
16.0
 40
16.0
 40
16.0
 40
16.0
 40
17.0
 40
17.0
 40
17.0
 40
17.0
 10
-35.18886923388649
 20
-10.43680844141459
 42
1.0
 10
-34.81471685749708
 20
-11.88431332710451
 42
1.0
 10
-33.72975075395801
 20
-12.95131992706824
 42
1.0
 10
-31.59496833044075
 20
-12.72957879515506
 42
1.0
 72
     1
 10
-31.59496833044068
 20
-12.72957879515504
 11
-30.20639204762409
 21
-12.42915496033269
 97
        0
 75
     0
 76
     1
 98
        1
 10
0.0
 20
0.0
  0
HATCH
  5
D4
330
74
100
AcDbEntity
  8
0
100
AcDbHatch
 10
0.0
 20
0.0
 30
0.0
210
0.0
220
0.0
230
1.0
  2
SOLID
 70
     1
 71
     0
 91
        1
 92
        0
 93
       11
 72
     1
 10
-23.93083334830058
 20
-6.656177916224847
 11
-23.9305586195879
 21
-1.497666803489873
 72
     1
 10
-23.9305586195879
 20
-1.497666803489873
 11
-20.04326836721582
 21
-10.05945907169815
 72
     1
 10
-20.04326836721582
 20
-10.05945907169815
 11
-17.66870538033285
 21
-9.545713210289948
 72
     1
 10
-17.66870538033285
 20
-9.545713210289948
 11
-22.39983793591613
 21
0.8767293108990284
 72
     1
 10
-22.39983793591613
 20
0.8767293108990277
 11
-26.30586704316552
 21
0.0316448471579831
 72
     1
 10
-26.30586704316552
 20
0.0316448471579831
 11
-26.30567237753049
 21
-11.41435433475813
 72
     1
 10
-26.30567237753049
 20
-11.41435433475813
 11
-23.93111465188077
 21
-10.90060961163804
 72
     1
 10
-23.93111465188077
 20
-10.90060961163804
 11
-23.93099314235586
 21
-8.782594625323274
 72
     1
 10
-23.93099314235586
 20
-8.782594625323274
 11
-22.27383089514867
 21
-8.42406118111162
 72
     1
 10
-22.27383089514867
 20
-8.42406118111162
 11
-22.7133102853523
 21
-6.392762105309743
 72
     1
 10
-22.7133102853523
 20
-6.392762105309743
 11
-23.93083334830058
 21
-6.656177916224847
 97
        0
 75
     0
 76
     1
 98
        1
 10
0.0
 20
0.0
  0
HATCH
  5
D5
330
74
100
AcDbEntity
  8
0
100
AcDbHatch
 10
0.0
 20
0.0
 30
0.0
210
0.0
220
0.0
230
1.0
  2
SOLID
 70
     1
 71
     0
 91
        1
 92
        0
 93
        6
 72
     1
 10
-15.79563263740209
 20
2.305574601061446
 11
-18.06492886668423
 21
1.814603608696526
 72
     4
 94
        3
 73
     1
 74
     0
 95
        8
 96
        4
 40
2.0
 40
2.0
 40
2.0
 40
2.0
 40
3.0
 40
3.0
 40
3.0
 40
3.0
 10
-18.06492886668423
 20
1.814603608696526
 42
1.0
 10
-17.240039650055
 20
-1.995739949107533
 42
1.0
 10
-15.71186186991055
 20
-9.059523950669437
 42
1.0
 10
-15.69887855542098
 20
-9.119533578677919
 42
1.0
 72
     1
 10
-15.69887855542092
 20
-9.119533578677903
 11
-10.22610149671526
 21
-7.93547715235816
 72
     1
 10
-10.22610149671526
 20
-7.93547715235816
 11
-10.66558088691882
 21
-5.904178076556605
 72
     1
 10
-10.66558088691882
 20
-5.904178076556605
 11
-13.86994560355126
 21
-6.597454742918437
 72
     4
 94
        3
 73
     1
 74
     0
 95
        8
 96
        4
 40
0.0
 40
0.0
 40
0.0
 40
0.0
 40
1.0
 40
1.0
 40
1.0
 40
1.0
 10
-13.86994560355126
 20
-6.597454742918437
 42
1.0
 10
-13.88373254946556
 20
-6.533730684138598
 42
1.0
 10
-15.1136551579741
 20
-0.8489574873494129
 42
1.0
 10
-15.79563263740209
 20
2.305574601061446
 42
1.0
 97
        0
 75
     0
 76
     1
 98
        1
 10
0.0
 20
0.0
  0
HATCH
  5
D6
330
74
100
AcDbEntity
  8
0
100
AcDbHatch
 10
0.0
 20
0.0
 30
0.0
210
0.0
220
0.0
230
1.0
  2
SOLID
 70
     1
 71
     0
 91
        1
 92
        0
 93
       11
 72
     1
 10
2.375028433631206
 20
-0.9648032523823513
 11
2.375208460142868
 21
4.193687371166118
 72
     1
 10
2.375208460142868
 20
4.193687371166118
 11
6.262509234981617
 21
-4.368102620465918
 72
     1
 10
6.262509234981617
 20
-4.368102620465917
 11
8.637061699398163
 21
-3.854359035633896
 72
     1
 10
8.637061699398163
 20
-3.854359035633896
 11
3.905939666281055
 21
6.568085762131229
 72
     1
 10
3.905939666281055
 20
6.56808576213123
 11
-0.0000000000001235
 21
5.723020649288631
 72
     1
 10
-0.0000000000001234
 20
5.723020649288631
 11
-0.000000000000185
 21
-5.723020649288537
 72
     1
 10
-0.000000000000185
 20
-5.723020649288538
 11
2.37465768908423
 21
-5.20925429869377
 72
     1
 10
2.37465768908423
 20
-5.20925429869377
 11
2.374784459841949
 21
-3.091238174090979
 72
     1
 10
2.374784459841949
 20
-3.091238174090979
 11
4.031830959914354
 21
-2.732729772218408
 72
     1
 10
4.031830959914354
 20
-2.732729772218408
 11
3.592351569710606
 21
-0.701430696416514
 72
     1
 10
3.592351569710606
 20
-0.7014306964165138
 11
2.375028433631206
 21
-0.9648032523823513
 97
        0
 75
     0
 76
     1
 98
        1
 10
0.0
 20
0.0
  0
HATCH
  5
D7
330
74
100
AcDbEntity
  8
0
100
AcDbHatch
 10
0.0
 20
0.0
 30
0.0
210
0.0
220
0.0
230
1.0
  2
SOLID
 70
     1
 71
     0
 91
        1
 92
        0
 93
        8
 72
     1
 10
-42.14906497721024
 20
-6.152323722221632
 11
-42.76219705242848
 21
-3.318391925879333
 72
     1
 10
-42.76219705242848
 20
-3.318391925879333
 11
-42.76249168149826
 21
-3.318455670015027
 72
     1
 10
-42.76249168149826
 20
-3.318455670015027
 11
-45.03079507887072
 21
-6.775797145163721
 72
     1
 10
-45.03079507887072
 20
-6.775797145163721
 11
-48.52545732888054
 21
-4.565295516814268
 72
     1
 10
-48.52545732888054
 20
-4.565295516814268
 11
-48.52574669671678
 21
-4.565358122661792
 72
     1
 10
-48.52574669671678
 20
-4.565358122661792
 11
-47.91261462149855
 21
-7.39928991900409
 72
     1
 10
-47.91261462149855
 20
-7.39928991900409
 11
-44.41773721666716
 21
-9.60984413289331
 72
     1
 10
-44.41773721666716
 20
-9.60984413289331
 11
-42.14906497721024
 21
-6.152323722221632
 97
        0
 75
     0
 76
     1
 98
        1
 10
0.0
 20
0.0
  0
HATCH
  5
D8
330
74
100
AcDbEntity
  8
0
100
AcDbHatch
 10
0.0
 20
0.0
 30
0.0
210
0.0
220
0.0
230
1.0
  2
SOLID
 70
     1
 71
     0
 91
        1
 92
        0
 93
        8
 72
     1
 10
-46.11999732125613
 20
-15.87212484345383
 11
-46.08139565189786
 21
-15.8637732233933
 72
     1
 10
-46.08139565189786
 20
-15.8637732233933
 11
-46.68636620117444
 21
-13.06756447043367
 72
     1
 10
-46.68636620117444
 20
-13.06756447043367
 11
-50.18135879739361
 21
-10.85693604353009
 72
     1
 10
-50.18135879739361
 20
-10.85693604353009
 11
-52.44976215820033
 21
-14.31429914615315
 72
     1
 10
-52.44976215820033
 20
-14.31429914615315
 11
-51.84475063055083
 21
-17.11069730351469
 72
     1
 10
-51.84475063055083
 20
-17.11069730351469
 11
-51.80633836559459
 21
-17.1023866618271
 72
     1
 10
-51.80633836559459
 20
-17.1023866618271
 11
-49.56818574380249
 21
-13.69105724427409
 72
     1
 10
-49.56818574380249
 20
-13.69105724427409
 11
-46.11999732125613
 21
-15.87212484345383
 97
        0
 75
     0
 76
     1
 98
        1
 10
0.0
 20
0.0
  0
HATCH
  5
D9
330
74
100
AcDbEntity
  8
0
100
AcDbHatch
 10
0.0
 20
0.0
 30
0.0
210
0.0
220
0.0
230
1.0
  2
SOLID
 70
     1
 71
     0
 91
        2
 92
        0
 93
        7
 72
     1
 10
-6.859585567104196
 20
4.238922852960538
 11
-11.00449045380928
 21
3.342156692939393
 72
     1
 10
-11.00449045380928
 20
3.342156692939393
 11
-8.638829473816639
 21
-7.592064727757184
 72
     1
 10
-8.638829473816639
 20
-7.592064727757185
 11
-8.63844014254617
 21
-7.591980494435086
 72
     1
 10
-8.63844014254617
 20
-7.591980494435086
 11
-4.494024550545999
 21
-6.695320195210662
 72
     4
 94
        3
 73
     1
 74
     0
 95
        8
 96
        4
 40
3.0
 40
3.0
 40
3.0
 40
3.0
 40
4.0
 40
4.0
 40
4.0
 40
4.0
 10
-4.494024550545999
 20
-6.695320195210662
 42
1.0
 10
-2.825524345390513
 20
-6.334333740063992
 42
1.0
 10
-1.762658323115034
 20
-4.702068307882374
 42
1.0
 10
-2.120071189640999
 20
-3.049576315093403
 42
1.0
 72
     4
 94
        3
 73
     1
 74
     0
 95
        8
 96
        4
 40
4.0
 40
4.0
 40
4.0
 40
4.0
 40
5.0
 40
5.0
 40
5.0
 40
5.0
 10
-2.120071189640999
 20
-3.049576315093403
 42
1.0
 10
-2.485983017556096
 20
-1.358310753073632
 42
1.0
 10
-2.867352798370483
 20
0.4044023583376265
 42
1.0
 10
-3.190995488197396
 20
1.900704823656681
 42
1.0
 72
     4
 94
        3
 73
     1
 74
     0
 95
        8
 96
        4
 40
5.0
 40
5.0
 40
5.0
 40
5.0
 40
6.0
 40
6.0
 40
6.0
 40
6.0
 10
-3.190995488197396
 20
1.900704823656681
 42
1.0
 10
-3.54857504695031
 20
3.553458157285876
 42
1.0
 10
-5.190901218780231
 20
4.599949148191988
 42
1.0
 10
-6.859585567104196
 20
4.238922852960538
 42
1.0
 97
        0
 92
        0
 93
        6
 72
     4
 94
        3
 73
     1
 74
     0
 95
        8
 96
        4
 40
2.0
 40
2.0
 40
2.0
 40
2.0
 40
3.0
 40
3.0
 40
3.0
 40
3.0
 10
-6.919811195494074
 20
2.099808074263809
 42
1.0
 10
-6.228016878711183
 20
2.249480443098069
 42
1.0
 10
-5.547633595833446
 20
1.815851349115847
 42
1.0
 10
-5.399398884916104
 20
1.130701970100344
 42
1.0
 72
     4
 94
        3
 73
     1
 74
     0
 95
        8
 96
        4
 40
3.0
 40
3.0
 40
3.0
 40
3.0
 40
4.0
 40
4.0
 40
4.0
 40
4.0
 10
-5.399398884916104
 20
1.130701970100344
 42
1.0
 10
-5.107009087764085
 20
-0.2207405274728672
 42
1.0
 10
-4.711497421058354
 20
-2.048334586467611
 42
1.0
 10
-4.449160707297047
 20
-3.260870000165379
 42
1.0
 72
     4
 94
        3
 73
     1
 74
     0
 95
        8
 96
        4
 40
4.0
 40
4.0
 40
4.0
 40
4.0
 40
5.0
 40
5.0
 40
5.0
 40
5.0
 10
-4.449160707297047
 20
-3.260870000165379
 42
1.0
 10
-4.300905507193207
 20
-3.946114081381999
 42
1.0
 10
-4.741570606399121
 20
-4.622385452066122
 42
1.0
 10
-5.433383135791953
 20
-4.771973641166296
 42
1.0
 72
     1
 10
-5.433383135791953
 20
-4.771973641166296
 11
-6.809537646582547
 21
-5.069709977697404
 72
     4
 94
        3
 73
     1
 74
     0
 95
        8
 96
        4
 40
0.0
 40
0.0
 40
0.0
 40
0.0
 40
1.0
 40
1.0
 40
1.0
 40
1.0
 10
-6.809537646582547
 20
-5.069709977697404
 42
1.0
 10
-7.284290309572815
 20
-2.875375801708635
 42
1.0
 10
-7.897830097865885
 20
-0.0390758678013329
 42
1.0
 10
-8.296070930952649
 20
1.80204897196991
 42
1.0
 72
     1
 10
-8.296070930952649
 20
1.80204897196991
 11
-6.919811195494074
 21
2.099808074263809
 97
        0
 75
     0
 76
     1
 98
        1
 10
0.0
 20
0.0
  0
ENDBLK
  5
76
330
74
100
AcDbEntity
  8
0
100
AcDbBlockEnd
  0
ENDSEC
  0
SECTION
  2
ENTITIES
  0
LINE
  5
DA
330
1F
100
AcDbEntity
  8
0
100
AcDbLine
 10
-995.2101938137
 20
1687.5447548939
 30
0.0
 11
-995.2101938137
 21
1685.5447548939
 31
0.0
  0
ARC
  5
DB
330
1F
100
AcDbEntity
  8
0
100
AcDbCircle
 10
-963.7316324128
 20
1684.5447548939
 30
0.0
 40
1.0
100
AcDbArc
 50
44.38221603950001
 51
90.0
  0
ARC
  5
DC
330
1F
100
AcDbEntity
  8
0
100
AcDbCircle
 10
-958.2101938137
 20
1679.0233162948
 30
0.0
 40
1.000000000000341
100
AcDbArc
 50
0.0
 51
45.8625958166
  0
LINE
  5
DD
330
1F
100
AcDbEntity
  8
0
100
AcDbLine
 10
-963.0245256316
 20
1685.2518616751
 30
0.0
 11
-957.5030870326
 21
1679.730423076
 31
0.0
  0
LINE
  5
DE
330
1F
100
AcDbEntity
  8
0
100
AcDbLine
 10
1093.9898061863
 20
1685.5447548939
 30
0.0
 11
1093.9898061863
 21
1687.5447548939
 31
0.0
  0
ARC
  5
DF
330
1F
100
AcDbEntity
  8
0
100
AcDbCircle
 10
1056.9898061863
 20
1679.0233162948
 30
0.0
 40
1.000000000000227
100
AcDbArc
 50
134.3822160395
 51
180.0
  0
ARC
  5
E0
330
1F
100
AcDbEntity
  8
0
100
AcDbCircle
 10
1062.5112447853
 20
1684.5447548939
 30
0.0
 40
0.9999999999998793
100
AcDbArc
 50
90.0
 51
135.8625958166
  0
LINE
  5
E1
330
1F
100
AcDbEntity
  8
0
100
AcDbLine
 10
1056.2826994051
 20
1679.730423076
 30
0.0
 11
1061.8041380042
 21
1685.2518616751
 31
0.0
  0
LINE
  5
E2
330
1F
100
AcDbEntity
  8
0
100
AcDbLine
 10
1062.9898061863
 20
1694.0447548939
 30
0.0
 11
1062.9898061863
 21
1687.5447548939
 31
0.0
  0
LINE
  5
E3
330
1F
100
AcDbEntity
  8
0
100
AcDbLine
 10
1090.9898061863
 20
1687.5447548939
 30
0.0
 11
1090.9898061863
 21
1694.0447548939
 31
0.0
  0
LINE
  5
E4
330
1F
100
AcDbEntity
  8
0
100
AcDbLine
 10
1090.9898061863
 20
1694.0447548939
 30
0.0
 11
1090.4898061863
 21
1694.5447548939
 31
0.0
  0
LINE
  5
E5
330
1F
100
AcDbEntity
  8
0
100
AcDbLine
 10
1063.4898061863
 20
1694.5447548939
 30
0.0
 11
1062.9898061863
 21
1694.0447548939
 31
0.0
  0
LINE
  5
E6
330
1F
100
AcDbEntity
  8
0
100
AcDbLine
 10
1062.9898061863
 20
1685.5447548939
 30
0.0
 11
1062.9898061863
 21
1676.5447548939
 31
0.0
  0
LINE
  5
E7
330
1F
100
AcDbEntity
  8
0
100
AcDbLine
 10
1090.9898061863
 20
1676.5447548939
 30
0.0
 11
1090.9898061863
 21
1685.5447548939
 31
0.0
  0
LINE
  5
E8
330
1F
100
AcDbEntity
  8
0
100
AcDbLine
 10
-964.2101938137
 20
1694.0447548939
 30
0.0
 11
-964.7101938137
 21
1694.5447548939
 31
0.0
  0
LINE
  5
E9
330
1F
100
AcDbEntity
  8
0
100
AcDbLine
 10
-991.7101938137
 20
1694.5447548939
 30
0.0
 11
-992.2101938137
 21
1694.0447548939
 31
0.0
  0
LINE
  5
EA
330
1F
100
AcDbEntity
  8
0
100
AcDbLine
 10
-992.2101938137
 20
1694.0447548939
 30
0.0
 11
-992.2101938137
 21
1687.5447548939
 31
0.0
  0
LINE
  5
EB
330
1F
100
AcDbEntity
  8
0
100
AcDbLine
 10
-964.2101938137
 20
1687.5447548939
 30
0.0
 11
-964.2101938137
 21
1694.0447548939
 31
0.0
  0
LINE
  5
EC
330
1F
100
AcDbEntity
  8
0
100
AcDbLine
 10
-992.2101938137
 20
1685.5447548939
 30
0.0
 11
-992.2101938137
 21
1676.5447548939
 31
0.0
  0
LINE
  5
ED
330
1F
100
AcDbEntity
  8
0
100
AcDbLine
 10
-964.2101938137
 20
1676.5447548939
 30
0.0
 11
-964.2101938137
 21
1685.5447548939
 31
0.0
  0
LINE
  5
136
330
1F
100
AcDbEntity
  8
0
100
AcDbLine
 10
-990.5478507819
 20
1687.5447548939
 30
0.0
 11
-959.2101938137
 21
1687.5447548939
 31
0.0
  0
LINE
  5
137
330
1F
100
AcDbEntity
  8
0
100
AcDbLine
 10
-990.5478507819
 20
1685.5447548939
 30
0.0
 11
-959.2101938137
 21
1685.5447548939
 31
0.0
  0
LINE
  5
138
330
1F
100
AcDbEntity
  8
0
100
AcDbLine
 10
-990.5478507819
 20
1687.5447548939
 30
0.0
 11
-991.4539445503
 21
1687.5447548939
 31
0.0
  0
LINE
  5
139
330
1F
100
AcDbEntity
  8
0
100
AcDbLine
 10
-990.5478507819
 20
1685.5447548939
 30
0.0
 11
-991.4539445503
 21
1685.5447548939
 31
0.0
  0
ARC
  5
13A
330
1F
100
AcDbEntity
  8
0
100
AcDbCircle
 10
-959.2101938137
 20
1683.5447548939
 30
0.0
 40
4.000000000000214
100
AcDbArc
 50
60.0
 51
90.0
  0
ARC
  5
13B
330
1F
100
AcDbEntity
  8
0
100
AcDbCircle
 10
-959.2101938137
 20
1683.5447548939
 30
0.0
 40
2.000000000000227
100
AcDbArc
 50
0.0
 51
90.0
  0
LINE
  5
13C
330
1F
100
AcDbEntity
  8
0
100
AcDbLine
 10
-991.4539445503
 20
1687.5447548939
 30
0.0
 11
-995.2101938137
 21
1687.5447548939
 31
0.0
  0
LINE
  5
13D
330
1F
100
AcDbEntity
  8
0
100
AcDbLine
 10
-991.4539445503
 20
1685.5447548939
 30
0.0
 11
-995.2101938137
 21
1685.5447548939
 31
0.0
  0
LINE
  5
13E
330
1F
100
AcDbEntity
  8
0
100
AcDbLine
 10
1089.3274631544
 20
1685.5447548939
 30
0.0
 11
1057.9898061863
 21
1685.5447548939
 31
0.0
  0
LINE
  5
13F
330
1F
100
AcDbEntity
  8
0
100
AcDbLine
 10
1089.3274631544
 20
1687.5447548939
 30
0.0
 11
1057.9898061863
 21
1687.5447548939
 31
0.0
  0
LINE
  5
140
330
1F
100
AcDbEntity
  8
0
100
AcDbLine
 10
1090.2335569228
 20
1685.5447548939
 30
0.0
 11
1089.3274631544
 21
1685.5447548939
 31
0.0
  0
LINE
  5
141
330
1F
100
AcDbEntity
  8
0
100
AcDbLine
 10
1090.2335569228
 20
1687.5447548939
 30
0.0
 11
1089.3274631544
 21
1687.5447548939
 31
0.0
  0
ARC
  5
142
330
1F
100
AcDbEntity
  8
0
100
AcDbCircle
 10
1057.9898061863
 20
1683.5447548939
 30
0.0
 40
4.000000000000214
100
AcDbArc
 50
90.0
 51
120.0
  0
ARC
  5
143
330
1F
100
AcDbEntity
  8
0
100
AcDbCircle
 10
1057.9898061863
 20
1683.5447548939
 30
0.0
 40
2.000000000000227
100
AcDbArc
 50
90.0
 51
180.0
  0
LINE
  5
144
330
1F
100
AcDbEntity
  8
0
100
AcDbLine
 10
1093.9898061863
 20
1685.5447548939
 30
0.0
 11
1090.2335569228
 21
1685.5447548939
 31
0.0
  0
LINE
  5
145
330
1F
100
AcDbEntity
  8
0
100
AcDbLine
 10
1093.9898061863
 20
1687.5447548939
 30
0.0
 11
1090.2335569228
 21
1687.5447548939
 31
0.0
  0
LINE
  5
146
330
1F
100
AcDbEntity
  8
0
100
AcDbLine
 10
1076.9898061863
 20
1694.0447548939
 30
0.0
 11
1062.9898061863
 21
1694.0447548939
 31
0.0
  0
LINE
  5
147
330
1F
100
AcDbEntity
  8
0
100
AcDbLine
 10
1090.9898061863
 20
1694.0447548939
 30
0.0
 11
1076.9898061863
 21
1694.0447548939
 31
0.0
  0
LINE
  5
148
330
1F
100
AcDbEntity
  8
0
100
AcDbLine
 10
1076.9898061863
 20
1694.5447548939
 30
0.0
 11
1090.4898061863
 21
1694.5447548939
 31
0.0
  0
LINE
  5
149
330
1F
100
AcDbEntity
  8
0
100
AcDbLine
 10
1063.4898061863
 20
1694.5447548939
 30
0.0
 11
1076.9898061863
 21
1694.5447548939
 31
0.0
  0
LINE
  5
14A
330
1F
100
AcDbEntity
  8
0
100
AcDbLine
 10
1076.9898061863
 20
1676.5447548939
 30
0.0
 11
1062.9898061863
 21
1676.5447548939
 31
0.0
  0
LINE
  5
14B
330
1F
100
AcDbEntity
  8
0
100
AcDbLine
 10
1090.9898061863
 20
1676.5447548939
 30
0.0
 11
1076.9898061863
 21
1676.5447548939
 31
0.0
  0
LINE
  5
14C
330
1F
100
AcDbEntity
  8
0
100
AcDbLine
 10
-978.2101938137
 20
1694.0447548939
 30
0.0
 11
-992.2101938137
 21
1694.0447548939
 31
0.0
  0
LINE
  5
14D
330
1F
100
AcDbEntity
  8
0
100
AcDbLine
 10
-964.2101938137
 20
1694.0447548939
 30
0.0
 11
-978.2101938137
 21
1694.0447548939
 31
0.0
  0
LINE
  5
14E
330
1F
100
AcDbEntity
  8
0
100
AcDbLine
 10
-978.2101938137
 20
1694.5447548939
 30
0.0
 11
-964.7101938137
 21
1694.5447548939
 31
0.0
  0
LINE
  5
14F
330
1F
100
AcDbEntity
  8
0
100
AcDbLine
 10
-991.7101938137
 20
1694.5447548939
 30
0.0
 11
-978.2101938137
 21
1694.5447548939
 31
0.0
  0
LINE
  5
150
330
1F
100
AcDbEntity
  8
0
100
AcDbLine
 10
-978.2101938137
 20
1676.5447548939
 30
0.0
 11
-992.2101938137
 21
1676.5447548939
 31
0.0
  0
LINE
  5
151
330
1F
100
AcDbEntity
  8
0
100
AcDbLine
 10
-964.2101938137
 20
1676.5447548939
 30
0.0
 11
-978.2101938137
 21
1676.5447548939
 31
0.0
  0
LINE
  5
152
330
1F
100
AcDbEntity
  8
0
100
AcDbLine
 10
-955.2101938137
 20
1237.444754894
 30
0.0
 11
1053.9898061863
 21
1237.444754894
 31
0.0
  0
LINE
  5
153
330
1F
100
AcDbEntity
  8
0
100
AcDbLine
 10
-957.2101938137
 20
1239.444754894
 30
0.0
 11
-955.2101938137
 21
1237.444754894
 31
0.0
  0
LINE
  5
154
330
1F
100
AcDbEntity
  8
0
100
AcDbLine
 10
-957.2101938137
 20
1687.044754894
 30
0.0
 11
-957.2101938137
 21
1239.444754894
 31
0.0
  0
LINE
  5
155
330
1F
100
AcDbEntity
  8
0
100
AcDbLine
 10
-955.2101938137
 20
1689.044754894
 30
0.0
 11
-957.2101938137
 21
1687.044754894
 31
0.0
  0
LINE
  5
156
330
1F
100
AcDbEntity
  8
0
100
AcDbLine
 10
1053.9898061863
 20
1689.044754894
 30
0.0
 11
-955.2101938137
 21
1689.044754894
 31
0.0
  0
LINE
  5
157
330
1F
100
AcDbEntity
  8
0
100
AcDbLine
 10
1055.9898061863
 20
1687.044754894
 30
0.0
 11
1053.9898061863
 21
1689.044754894
 31
0.0
  0
LINE
  5
158
330
1F
100
AcDbEntity
  8
0
100
AcDbLine
 10
1055.9898061863
 20
1239.444754894
 30
0.0
 11
1055.9898061863
 21
1687.044754894
 31
0.0
  0
LINE
  5
159
330
1F
100
AcDbEntity
  8
0
100
AcDbLine
 10
-887.9201938137
 20
1286.244754894
 30
0.0
 11
-887.6101938137
 21
1286.244754894
 31
0.0
  0
LINE
  5
15A
330
1F
100
AcDbEntity
  8
0
100
AcDbLine
 10
-136.6101938137
 20
1286.244754894
 30
0.0
 11
-136.3001938137
 21
1286.244754894
 31
0.0
  0
LINE
  5
15B
330
1F
100
AcDbEntity
  8
0
100
AcDbLine
 10
-133.6101938137
 20
1287.944754894
 30
0.0
 11
-133.6101938137
 21
1288.244754894
 31
0.0
  0
LINE
  5
15C
330
1F
100
AcDbEntity
  8
0
100
AcDbLine
 10
-133.6101938137
 20
1638.244754894
 30
0.0
 11
-133.6101938137
 21
1638.544754894
 31
0.0
  0
LINE
  5
15D
330
1F
100
AcDbEntity
  8
0
100
AcDbLine
 10
-136.3001938137
 20
1640.244754894
 30
0.0
 11
-136.6101938137
 21
1640.244754894
 31
0.0
  0
LINE
  5
15E
330
1F
100
AcDbEntity
  8
0
100
AcDbLine
 10
-887.6101938137
 20
1640.244754894
 30
0.0
 11
-887.9201938137
 21
1640.244754894
 31
0.0
  0
LINE
  5
15F
330
1F
100
AcDbEntity
  8
0
100
AcDbLine
 10
-890.6101938137
 20
1638.544754894
 30
0.0
 11
-890.6101938137
 21
1638.244754894
 31
0.0
  0
LINE
  5
160
330
1F
100
AcDbEntity
  8
0
100
AcDbLine
 10
-890.6101938137
 20
1288.244754894
 30
0.0
 11
-890.6101938137
 21
1287.9447548939
 31
0.0
  0
LINE
  5
161
330
1F
100
AcDbEntity
  8
0
100
AcDbLine
 10
986.6998061863
 20
1640.244754894
 30
0.0
 11
986.3898061863
 21
1640.244754894
 31
0.0
  0
LINE
  5
162
330
1F
100
AcDbEntity
  8
0
100
AcDbLine
 10
235.3898061863
 20
1640.244754894
 30
0.0
 11
235.0798061863
 21
1640.244754894
 31
0.0
  0
LINE
  5
163
330
1F
100
AcDbEntity
  8
0
100
AcDbLine
 10
232.3898061863
 20
1638.544754894
 30
0.0
 11
232.3898061863
 21
1638.2447548939
 31
0.0
  0
LINE
  5
164
330
1F
100
AcDbEntity
  8
0
100
AcDbLine
 10
232.3898061863
 20
1288.2447548939
 30
0.0
 11
232.3898061863
 21
1287.9447548939
 31
0.0
  0
LINE
  5
165
330
1F
100
AcDbEntity
  8
0
100
AcDbLine
 10
235.0798061863
 20
1286.244754894
 30
0.0
 11
235.3898061863
 21
1286.244754894
 31
0.0
  0
LINE
  5
166
330
1F
100
AcDbEntity
  8
0
100
AcDbLine
 10
986.3898061863
 20
1286.244754894
 30
0.0
 11
986.6998061863
 21
1286.244754894
 31
0.0
  0
LINE
  5
167
330
1F
100
AcDbEntity
  8
0
100
AcDbLine
 10
989.3898061863
 20
1287.944754894
 30
0.0
 11
989.3898061863
 21
1288.244754894
 31
0.0
  0
LINE
  5
168
330
1F
100
AcDbEntity
  8
0
100
AcDbLine
 10
989.3898061863
 20
1638.244754894
 30
0.0
 11
989.3898061863
 21
1638.5447548939
 31
0.0
  0
LINE
  5
1B8
330
1F
100
AcDbEntity
  8
0
100
AcDbLine
 10
1053.9898061863
 20
1237.444754894
 30
0.0
 11
1055.9898061863
 21
1239.444754894
 31
0.0
  0
LINE
  5
1BA
330
1F
100
AcDbEntity
  8
0
100
AcDbLine
 10
-134.6101938137
 20
1288.244754894
 30
0.0
 11
-134.6101938137
 21
1289.244754894
 31
0.0
  0
LINE
  5
1BB
330
1F
100
AcDbEntity
  8
0
100
AcDbLine
 10
-134.6101938137
 20
1638.244754894
 30
0.0
 11
-134.6101938137
 21
1637.244754894
 31
0.0
  0
LINE
  5
1BC
330
1F
100
AcDbEntity
  8
0
100
AcDbLine
 10
-134.6101938137
 20
1638.244754894
 30
0.0
 11
-119.6101938137
 21
1638.244754894
 31
0.0
  0
LINE
  5
1BD
330
1F
100
AcDbEntity
  8
0
100
AcDbLine
 10
-134.6101938137
 20
1288.244754894
 30
0.0
 11
-119.6101938137
 21
1288.244754894
 31
0.0
  0
LINE
  5
1BE
330
1F
100
AcDbEntity
  8
0
100
AcDbLine
 10
-119.6101938137
 20
1638.244754894
 30
0.0
 11
-117.1101938137
 21
1638.244754894
 31
0.0
  0
LINE
  5
1BF
330
1F
100
AcDbEntity
  8
0
100
AcDbLine
 10
-117.1101938137
 20
1638.244754894
 30
0.0
 11
-117.1101938137
 21
1288.244754894
 31
0.0
  0
LINE
  5
1C0
330
1F
100
AcDbEntity
  8
0
100
AcDbLine
 10
-119.6101938137
 20
1288.244754894
 30
0.0
 11
-117.1101938137
 21
1288.244754894
 31
0.0
  0
LINE
  5
1C1
330
1F
100
AcDbEntity
  8
0
100
AcDbLine
 10
-134.6101938137
 20
1637.244754894
 30
0.0
 11
-137.1101938137
 21
1637.244754894
 31
0.0
  0
LINE
  5
1C2
330
1F
100
AcDbEntity
  8
0
100
AcDbLine
 10
-137.1101938137
 20
1637.244754894
 30
0.0
 11
-137.1101938137
 21
1289.244754894
 31
0.0
  0
LINE
  5
1C3
330
1F
100
AcDbEntity
  8
0
100
AcDbLine
 10
-137.1101938137
 20
1289.244754894
 30
0.0
 11
-134.6101938137
 21
1289.244754894
 31
0.0
  0
LINE
  5
1C4
330
1F
100
AcDbEntity
  8
0
100
AcDbLine
 10
-904.6101938137
 20
1288.244754894
 30
0.0
 11
-907.1101938137
 21
1288.244754894
 31
0.0
  0
LINE
  5
1C5
330
1F
100
AcDbEntity
  8
0
100
AcDbLine
 10
-907.1101938137
 20
1288.244754894
 30
0.0
 11
-907.1101938137
 21
1638.244754894
 31
0.0
  0
LINE
  5
1C6
330
1F
100
AcDbEntity
  8
0
100
AcDbLine
 10
-904.6101938137
 20
1638.244754894
 30
0.0
 11
-907.1101938137
 21
1638.244754894
 31
0.0
  0
LINE
  5
1C7
330
1F
100
AcDbEntity
  8
0
100
AcDbLine
 10
-889.6101938137
 20
1638.244754894
 30
0.0
 11
-889.6101938137
 21
1637.244754894
 31
0.0
  0
LINE
  5
1C8
330
1F
100
AcDbEntity
  8
0
100
AcDbLine
 10
-889.6101938137
 20
1288.244754894
 30
0.0
 11
-904.6101938137
 21
1288.244754894
 31
0.0
  0
LINE
  5
1C9
330
1F
100
AcDbEntity
  8
0
100
AcDbLine
 10
-889.6101938137
 20
1638.244754894
 30
0.0
 11
-904.6101938137
 21
1638.244754894
 31
0.0
  0
LINE
  5
1CA
330
1F
100
AcDbEntity
  8
0
100
AcDbLine
 10
-889.6101938137
 20
1288.244754894
 30
0.0
 11
-889.6101938137
 21
1289.244754894
 31
0.0
  0
LINE
  5
1CB
330
1F
100
AcDbEntity
  8
0
100
AcDbLine
 10
-887.1101938137
 20
1637.244754894
 30
0.0
 11
-889.6101938137
 21
1637.244754894
 31
0.0
  0
LINE
  5
1CC
330
1F
100
AcDbEntity
  8
0
100
AcDbLine
 10
-887.1101938137
 20
1289.244754894
 30
0.0
 11
-887.1101938137
 21
1637.244754894
 31
0.0
  0
LINE
  5
1CD
330
1F
100
AcDbEntity
  8
0
100
AcDbLine
 10
-889.6101938137
 20
1289.244754894
 30
0.0
 11
-887.1101938137
 21
1289.244754894
 31
0.0
  0
LINE
  5
1CE
330
1F
100
AcDbEntity
  8
0
100
AcDbLine
 10
233.3898061863
 20
1289.2447548939
 30
0.0
 11
235.8898061863
 21
1289.2447548939
 31
0.0
  0
LINE
  5
1CF
330
1F
100
AcDbEntity
  8
0
100
AcDbLine
 10
235.8898061863
 20
1637.2447548939
 30
0.0
 11
233.3898061863
 21
1637.2447548939
 31
0.0
  0
LINE
  5
1D0
330
1F
100
AcDbEntity
  8
0
100
AcDbLine
 10
235.8898061863
 20
1289.2447548939
 30
0.0
 11
235.8898061863
 21
1637.2447548939
 31
0.0
  0
LINE
  5
1D1
330
1F
100
AcDbEntity
  8
0
100
AcDbLine
 10
215.8898061863
 20
1288.2447548939
 30
0.0
 11
215.8898061863
 21
1638.2447548939
 31
0.0
  0
LINE
  5
1D2
330
1F
100
AcDbEntity
  8
0
100
AcDbLine
 10
218.3898061863
 20
1638.2447548939
 30
0.0
 11
215.8898061863
 21
1638.2447548939
 31
0.0
  0
LINE
  5
1D3
330
1F
100
AcDbEntity
  8
0
100
AcDbLine
 10
218.3898061863
 20
1288.2447548939
 30
0.0
 11
215.8898061863
 21
1288.2447548939
 31
0.0
  0
LINE
  5
1D4
330
1F
100
AcDbEntity
  8
0
100
AcDbLine
 10
233.3898061863
 20
1638.2447548939
 30
0.0
 11
233.3898061863
 21
1637.2447548939
 31
0.0
  0
LINE
  5
1D5
330
1F
100
AcDbEntity
  8
0
100
AcDbLine
 10
233.3898061863
 20
1638.2447548939
 30
0.0
 11
218.3898061863
 21
1638.2447548939
 31
0.0
  0
LINE
  5
1D6
330
1F
100
AcDbEntity
  8
0
100
AcDbLine
 10
233.3898061863
 20
1288.2447548939
 30
0.0
 11
218.3898061863
 21
1288.2447548939
 31
0.0
  0
LINE
  5
1D7
330
1F
100
AcDbEntity
  8
0
100
AcDbLine
 10
233.3898061863
 20
1288.2447548939
 30
0.0
 11
233.3898061863
 21
1289.2447548939
 31
0.0
  0
LINE
  5
1D8
330
1F
100
AcDbEntity
  8
0
100
AcDbLine
 10
1003.3898061863
 20
1638.244754894
 30
0.0
 11
1005.8898061863
 21
1638.244754894
 31
0.0
  0
LINE
  5
1D9
330
1F
100
AcDbEntity
  8
0
100
AcDbLine
 10
1005.8898061863
 20
1638.244754894
 30
0.0
 11
1005.8898061863
 21
1288.244754894
 31
0.0
  0
LINE
  5
1DA
330
1F
100
AcDbEntity
  8
0
100
AcDbLine
 10
1003.3898061863
 20
1288.244754894
 30
0.0
 11
1005.8898061863
 21
1288.244754894
 31
0.0
  0
LINE
  5
1DB
330
1F
100
AcDbEntity
  8
0
100
AcDbLine
 10
988.3898061863
 20
1637.244754894
 30
0.0
 11
985.8898061863
 21
1637.244754894
 31
0.0
  0
LINE
  5
1DC
330
1F
100
AcDbEntity
  8
0
100
AcDbLine
 10
985.8898061863
 20
1637.244754894
 30
0.0
 11
985.8898061863
 21
1289.244754894
 31
0.0
  0
LINE
  5
1DD
330
1F
100
AcDbEntity
  8
0
100
AcDbLine
 10
985.8898061863
 20
1289.244754894
 30
0.0
 11
988.3898061863
 21
1289.244754894
 31
0.0
  0
LINE
  5
1DE
330
1F
100
AcDbEntity
  8
0
100
AcDbLine
 10
988.3898061863
 20
1638.244754894
 30
0.0
 11
988.3898061863
 21
1637.244754894
 31
0.0
  0
LINE
  5
1DF
330
1F
100
AcDbEntity
  8
0
100
AcDbLine
 10
988.3898061863
 20
1638.244754894
 30
0.0
 11
1003.3898061863
 21
1638.244754894
 31
0.0
  0
LINE
  5
1E0
330
1F
100
AcDbEntity
  8
0
100
AcDbLine
 10
988.3898061863
 20
1288.244754894
 30
0.0
 11
1003.3898061863
 21
1288.244754894
 31
0.0
  0
LINE
  5
1E1
330
1F
100
AcDbEntity
  8
0
100
AcDbLine
 10
988.3898061863
 20
1288.244754894
 30
0.0
 11
988.3898061863
 21
1289.244754894
 31
0.0
  0
LINE
  5
1E2
330
1F
100
AcDbEntity
  8
0
100
AcDbLine
 10
986.6998061863
 20
1638.544754894
 30
0.0
 11
1004.3898061863
 21
1638.544754894
 31
0.0
  0
LINE
  5
1E3
330
1F
100
AcDbEntity
  8
0
100
AcDbLine
 10
986.6998061863
 20
1640.7447548939
 30
0.0
 11
986.6998061863
 21
1638.544754894
 31
0.0
  0
LINE
  5
1E4
330
1F
100
AcDbEntity
  8
0
100
AcDbLine
 10
986.3898061863
 20
1640.7447548939
 30
0.0
 11
986.6998061863
 21
1640.7447548939
 31
0.0
  0
LINE
  5
1E5
330
1F
100
AcDbEntity
  8
0
100
AcDbLine
 10
235.0798061863
 20
1640.744754894
 30
0.0
 11
235.3898061863
 21
1640.744754894
 31
0.0
  0
LINE
  5
1E6
330
1F
100
AcDbEntity
  8
0
100
AcDbLine
 10
235.0798061863
 20
1638.544754894
 30
0.0
 11
235.0798061863
 21
1640.744754894
 31
0.0
  0
LINE
  5
1E7
330
1F
100
AcDbEntity
  8
0
100
AcDbLine
 10
217.3898061863
 20
1638.544754894
 30
0.0
 11
235.0798061863
 21
1638.544754894
 31
0.0
  0
LINE
  5
1E8
330
1F
100
AcDbEntity
  8
0
100
AcDbLine
 10
217.3898061863
 20
1650.744754894
 30
0.0
 11
217.3898061863
 21
1638.544754894
 31
0.0
  0
ARC
  5
1E9
330
1F
100
AcDbEntity
  8
0
100
AcDbCircle
 10
222.3898061863
 20
1650.744754894
 30
0.0
 40
5.0
100
AcDbArc
 50
90.0
 51
180.0
  0
ARC
  5
1EA
330
1F
100
AcDbEntity
  8
0
100
AcDbCircle
 10
999.3898061863
 20
1650.7447548939
 30
0.0
 40
5.0
100
AcDbArc
 50
0.0
 51
90.0
  0
LINE
  5
1EB
330
1F
100
AcDbEntity
  8
0
100
AcDbLine
 10
1004.3898061863
 20
1638.544754894
 30
0.0
 11
1004.3898061863
 21
1650.7447548939
 31
0.0
  0
CIRCLE
  5
1EC
330
1F
100
AcDbEntity
  8
0
100
AcDbCircle
 10
995.8898061863
 20
1648.244754894
 30
0.0
 40
4.249999999999773
  0
CIRCLE
  5
1ED
330
1F
100
AcDbEntity
  8
0
100
AcDbCircle
 10
225.8898061863
 20
1648.244754894
 30
0.0
 40
4.25
  0
LINE
  5
1EE
330
1F
100
AcDbEntity
  8
0
100
AcDbLine
 10
222.3898061863
 20
1655.744754894
 30
0.0
 11
222.3898061863
 21
1658.244754894
 31
0.0
  0
LINE
  5
1EF
330
1F
100
AcDbEntity
  8
0
100
AcDbLine
 10
222.3898061863
 20
1658.244754894
 30
0.0
 11
999.3898061863
 21
1658.244754894
 31
0.0
  0
LINE
  5
1F0
330
1F
100
AcDbEntity
  8
0
100
AcDbLine
 10
999.3898061863
 20
1658.2447548939
 30
0.0
 11
999.3898061863
 21
1655.7447548939
 31
0.0
  0
LINE
  5
1F1
330
1F
100
AcDbEntity
  8
0
100
AcDbLine
 10
235.3898061863
 20
1638.244754894
 30
0.0
 11
235.3898061863
 21
1640.744754894
 31
0.0
  0
LINE
  5
1F2
330
1F
100
AcDbEntity
  8
0
100
AcDbLine
 10
986.3898061863
 20
1640.7447548939
 30
0.0
 11
986.3898061863
 21
1638.244754894
 31
0.0
  0
LINE
  5
1F3
330
1F
100
AcDbEntity
  8
0
100
AcDbLine
 10
235.3898061863
 20
1638.244754894
 30
0.0
 11
986.3898061863
 21
1638.244754894
 31
0.0
  0
LINE
  5
1F4
330
1F
100
AcDbEntity
  8
0
100
AcDbLine
 10
988.6810940337
 20
1638.244754894
 30
0.0
 11
988.5252218367
 21
1638.5447548939
 31
0.0
  0
LINE
  5
1F5
330
1F
100
AcDbEntity
  8
0
100
AcDbLine
 10
986.6998061863
 20
1639.7254604387
 30
0.0
 11
986.3898061863
 21
1639.7447548939
 31
0.0
  0
ARC
  5
1F6
330
1F
100
AcDbEntity
  8
0
100
AcDbCircle
 10
986.3898061863
 20
1637.2447548939
 30
0.0
 40
1.000000000000227
100
AcDbArc
 50
0.0
 51
90.0
  0
LINE
  5
1F7
330
1F
100
AcDbEntity
  8
0
100
AcDbLine
 10
235.3898061863
 20
1639.744754894
 30
0.0
 11
235.0798061863
 21
1639.7254604388
 31
0.0
  0
LINE
  5
1F8
330
1F
100
AcDbEntity
  8
0
100
AcDbLine
 10
233.2543905359
 20
1638.544754894
 30
0.0
 11
233.0985183388
 21
1638.2447548939
 31
0.0
  0
ARC
  5
1F9
330
1F
100
AcDbEntity
  8
0
100
AcDbCircle
 10
235.3898061863
 20
1637.244754894
 30
0.0
 40
1.0
100
AcDbArc
 50
90.0
 51
180.0
  0
LINE
  5
1FA
330
1F
100
AcDbEntity
  8
0
100
AcDbLine
 10
999.3898061863
 20
1268.244754894
 30
0.0
 11
222.3898061863
 21
1268.2447548939
 31
0.0
  0
LINE
  5
1FB
330
1F
100
AcDbEntity
  8
0
100
AcDbLine
 10
222.3898061863
 20
1268.2447548939
 30
0.0
 11
222.3898061863
 21
1270.7447548939
 31
0.0
  0
LINE
  5
1FC
330
1F
100
AcDbEntity
  8
0
100
AcDbLine
 10
999.3898061863
 20
1270.744754894
 30
0.0
 11
999.3898061863
 21
1268.244754894
 31
0.0
  0
LINE
  5
1FD
330
1F
100
AcDbEntity
  8
0
100
AcDbLine
 10
235.0798061863
 20
1287.9447548939
 30
0.0
 11
217.3898061863
 21
1287.9447548939
 31
0.0
  0
LINE
  5
1FE
330
1F
100
AcDbEntity
  8
0
100
AcDbLine
 10
235.0798061863
 20
1285.7447548939
 30
0.0
 11
235.0798061863
 21
1287.9447548939
 31
0.0
  0
LINE
  5
1FF
330
1F
100
AcDbEntity
  8
0
100
AcDbLine
 10
235.3898061863
 20
1285.7447548939
 30
0.0
 11
235.0798061863
 21
1285.7447548939
 31
0.0
  0
LINE
  5
200
330
1F
100
AcDbEntity
  8
0
100
AcDbLine
 10
986.6998061863
 20
1285.744754894
 30
0.0
 11
986.3898061863
 21
1285.744754894
 31
0.0
  0
LINE
  5
201
330
1F
100
AcDbEntity
  8
0
100
AcDbLine
 10
986.6998061863
 20
1287.944754894
 30
0.0
 11
986.6998061863
 21
1285.744754894
 31
0.0
  0
LINE
  5
202
330
1F
100
AcDbEntity
  8
0
100
AcDbLine
 10
1004.3898061863
 20
1287.944754894
 30
0.0
 11
986.6998061863
 21
1287.944754894
 31
0.0
  0
LINE
  5
203
330
1F
100
AcDbEntity
  8
0
100
AcDbLine
 10
1004.3898061863
 20
1275.744754894
 30
0.0
 11
1004.3898061863
 21
1287.944754894
 31
0.0
  0
ARC
  5
204
330
1F
100
AcDbEntity
  8
0
100
AcDbCircle
 10
222.3898061863
 20
1275.7447548939
 30
0.0
 40
5.0
100
AcDbArc
 50
180.0
 51
270.0
  0
LINE
  5
205
330
1F
100
AcDbEntity
  8
0
100
AcDbLine
 10
217.3898061863
 20
1287.9447548939
 30
0.0
 11
217.3898061863
 21
1275.7447548939
 31
0.0
  0
CIRCLE
  5
206
330
1F
100
AcDbEntity
  8
0
100
AcDbCircle
 10
225.8898061863
 20
1278.2447548939
 30
0.0
 40
4.25
  0
CIRCLE
  5
207
330
1F
100
AcDbEntity
  8
0
100
AcDbCircle
 10
995.8898061863
 20
1278.244754894
 30
0.0
 40
4.25
  0
ARC
  5
208
330
1F
100
AcDbEntity
  8
0
100
AcDbCircle
 10
999.3898061863
 20
1275.744754894
 30
0.0
 40
5.000000000000227
100
AcDbArc
 50
270.0
 51
0.0
  0
LINE
  5
209
330
1F
100
AcDbEntity
  8
0
100
AcDbLine
 10
235.3898061863
 20
1285.7447548939
 30
0.0
 11
235.3898061863
 21
1288.2447548939
 31
0.0
  0
LINE
  5
20A
330
1F
100
AcDbEntity
  8
0
100
AcDbLine
 10
986.3898061863
 20
1288.244754894
 30
0.0
 11
235.3898061863
 21
1288.2447548939
 31
0.0
  0
LINE
  5
20B
330
1F
100
AcDbEntity
  8
0
100
AcDbLine
 10
986.3898061863
 20
1288.244754894
 30
0.0
 11
986.3898061863
 21
1285.744754894
 31
0.0
  0
LINE
  5
20C
330
1F
100
AcDbEntity
  8
0
100
AcDbLine
 10
986.3898061863
 20
1286.744754894
 30
0.0
 11
986.6998061863
 21
1286.7640493492
 31
0.0
  0
LINE
  5
20D
330
1F
100
AcDbEntity
  8
0
100
AcDbLine
 10
988.5252218366
 20
1287.9447548939
 30
0.0
 11
988.6810940337
 21
1288.244754894
 31
0.0
  0
ARC
  5
20E
330
1F
100
AcDbEntity
  8
0
100
AcDbCircle
 10
986.3898061863
 20
1289.244754894
 30
0.0
 40
1.0
100
AcDbArc
 50
270.0
 51
0.0
  0
LINE
  5
20F
330
1F
100
AcDbEntity
  8
0
100
AcDbLine
 10
233.0985183388
 20
1288.2447548939
 30
0.0
 11
233.2543905358
 21
1287.9447548939
 31
0.0
  0
LINE
  5
210
330
1F
100
AcDbEntity
  8
0
100
AcDbLine
 10
235.0798061863
 20
1286.7640493491
 30
0.0
 11
235.3898061863
 21
1286.7447548939
 31
0.0
  0
ARC
  5
211
330
1F
100
AcDbEntity
  8
0
100
AcDbCircle
 10
235.3898061863
 20
1289.2447548939
 30
0.0
 40
1.000000000000227
100
AcDbArc
 50
180.0
 51
270.0
  0
LINE
  5
212
330
1F
100
AcDbEntity
  8
0
100
AcDbLine
 10
-136.3001938137
 20
1638.544754894
 30
0.0
 11
-118.6101938137
 21
1638.544754894
 31
0.0
  0
LINE
  5
213
330
1F
100
AcDbEntity
  8
0
100
AcDbLine
 10
-136.3001938137
 20
1640.744754894
 30
0.0
 11
-136.3001938137
 21
1638.544754894
 31
0.0
  0
LINE
  5
214
330
1F
100
AcDbEntity
  8
0
100
AcDbLine
 10
-136.6101938137
 20
1640.744754894
 30
0.0
 11
-136.3001938137
 21
1640.744754894
 31
0.0
  0
LINE
  5
215
330
1F
100
AcDbEntity
  8
0
100
AcDbLine
 10
-887.9201938137
 20
1640.744754894
 30
0.0
 11
-887.6101938137
 21
1640.744754894
 31
0.0
  0
LINE
  5
216
330
1F
100
AcDbEntity
  8
0
100
AcDbLine
 10
-887.9201938137
 20
1638.544754894
 30
0.0
 11
-887.9201938137
 21
1640.744754894
 31
0.0
  0
LINE
  5
217
330
1F
100
AcDbEntity
  8
0
100
AcDbLine
 10
-905.6101938137
 20
1638.544754894
 30
0.0
 11
-887.9201938137
 21
1638.544754894
 31
0.0
  0
LINE
  5
218
330
1F
100
AcDbEntity
  8
0
100
AcDbLine
 10
-905.6101938137
 20
1650.744754894
 30
0.0
 11
-905.6101938137
 21
1638.544754894
 31
0.0
  0
ARC
  5
219
330
1F
100
AcDbEntity
  8
0
100
AcDbCircle
 10
-900.6101938137
 20
1650.744754894
 30
0.0
 40
5.000000000000227
100
AcDbArc
 50
90.0
 51
180.0
  0
ARC
  5
21A
330
1F
100
AcDbEntity
  8
0
100
AcDbCircle
 10
-123.6101938137
 20
1650.744754894
 30
0.0
 40
4.999999999999886
100
AcDbArc
 50
0.0
 51
90.0
  0
LINE
  5
21B
330
1F
100
AcDbEntity
  8
0
100
AcDbLine
 10
-118.6101938137
 20
1638.544754894
 30
0.0
 11
-118.6101938137
 21
1650.744754894
 31
0.0
  0
CIRCLE
  5
21C
330
1F
100
AcDbEntity
  8
0
100
AcDbCircle
 10
-127.1101938137
 20
1648.244754894
 30
0.0
 40
4.249999999999773
  0
CIRCLE
  5
21D
330
1F
100
AcDbEntity
  8
0
100
AcDbCircle
 10
-897.1101938137
 20
1648.244754894
 30
0.0
 40
4.249999999999773
  0
LINE
  5
21E
330
1F
100
AcDbEntity
  8
0
100
AcDbLine
 10
-900.6101938137
 20
1655.744754894
 30
0.0
 11
-900.6101938137
 21
1658.244754894
 31
0.0
  0
LINE
  5
21F
330
1F
100
AcDbEntity
  8
0
100
AcDbLine
 10
-900.6101938137
 20
1658.244754894
 30
0.0
 11
-123.6101938137
 21
1658.244754894
 31
0.0
  0
LINE
  5
220
330
1F
100
AcDbEntity
  8
0
100
AcDbLine
 10
-123.6101938137
 20
1658.244754894
 30
0.0
 11
-123.6101938137
 21
1655.744754894
 31
0.0
  0
LINE
  5
221
330
1F
100
AcDbEntity
  8
0
100
AcDbLine
 10
-887.6101938137
 20
1638.244754894
 30
0.0
 11
-887.6101938137
 21
1640.744754894
 31
0.0
  0
LINE
  5
222
330
1F
100
AcDbEntity
  8
0
100
AcDbLine
 10
-887.6101938137
 20
1638.244754894
 30
0.0
 11
-136.6101938137
 21
1638.244754894
 31
0.0
  0
LINE
  5
223
330
1F
100
AcDbEntity
  8
0
100
AcDbLine
 10
-136.6101938137
 20
1640.744754894
 30
0.0
 11
-136.6101938137
 21
1638.244754894
 31
0.0
  0
LINE
  5
224
330
1F
100
AcDbEntity
  8
0
100
AcDbLine
 10
-134.3189059663
 20
1638.244754894
 30
0.0
 11
-134.4747781633
 21
1638.544754894
 31
0.0
  0
LINE
  5
225
330
1F
100
AcDbEntity
  8
0
100
AcDbLine
 10
-136.3001938137
 20
1639.7254604388
 30
0.0
 11
-136.6101938137
 21
1639.744754894
 31
0.0
  0
ARC
  5
226
330
1F
100
AcDbEntity
  8
0
100
AcDbCircle
 10
-136.6101938137
 20
1637.244754894
 30
0.0
 40
1.000000000000227
100
AcDbArc
 50
0.0
 51
90.0
  0
LINE
  5
227
330
1F
100
AcDbEntity
  8
0
100
AcDbLine
 10
-887.6101938137
 20
1639.744754894
 30
0.0
 11
-887.9201938137
 21
1639.7254604388
 31
0.0
  0
LINE
  5
228
330
1F
100
AcDbEntity
  8
0
100
AcDbLine
 10
-889.7456094642
 20
1638.544754894
 30
0.0
 11
-889.9014816612
 21
1638.2447548939
 31
0.0
  0
ARC
  5
229
330
1F
100
AcDbEntity
  8
0
100
AcDbCircle
 10
-887.6101938137
 20
1637.244754894
 30
0.0
 40
1.0
100
AcDbArc
 50
90.0
 51
180.0
  0
LINE
  5
22A
330
1F
100
AcDbEntity
  8
0
100
AcDbLine
 10
-123.6101938137
 20
1268.244754894
 30
0.0
 11
-900.6101938137
 21
1268.2447548939
 31
0.0
  0
LINE
  5
22B
330
1F
100
AcDbEntity
  8
0
100
AcDbLine
 10
-900.6101938137
 20
1268.2447548939
 30
0.0
 11
-900.6101938137
 21
1270.7447548939
 31
0.0
  0
LINE
  5
22C
330
1F
100
AcDbEntity
  8
0
100
AcDbLine
 10
-123.6101938137
 20
1270.744754894
 30
0.0
 11
-123.6101938137
 21
1268.244754894
 31
0.0
  0
LINE
  5
22D
330
1F
100
AcDbEntity
  8
0
100
AcDbLine
 10
-887.9201938137
 20
1287.9447548939
 30
0.0
 11
-905.6101938137
 21
1287.9447548939
 31
0.0
  0
LINE
  5
22E
330
1F
100
AcDbEntity
  8
0
100
AcDbLine
 10
-887.9201938137
 20
1285.7447548939
 30
0.0
 11
-887.9201938137
 21
1287.9447548939
 31
0.0
  0
LINE
  5
22F
330
1F
100
AcDbEntity
  8
0
100
AcDbLine
 10
-887.6101938137
 20
1285.7447548939
 30
0.0
 11
-887.9201938137
 21
1285.7447548939
 31
0.0
  0
LINE
  5
230
330
1F
100
AcDbEntity
  8
0
100
AcDbLine
 10
-136.3001938137
 20
1285.744754894
 30
0.0
 11
-136.6101938137
 21
1285.744754894
 31
0.0
  0
LINE
  5
231
330
1F
100
AcDbEntity
  8
0
100
AcDbLine
 10
-136.3001938137
 20
1287.944754894
 30
0.0
 11
-136.3001938137
 21
1285.744754894
 31
0.0
  0
LINE
  5
232
330
1F
100
AcDbEntity
  8
0
100
AcDbLine
 10
-118.6101938137
 20
1287.944754894
 30
0.0
 11
-136.3001938137
 21
1287.944754894
 31
0.0
  0
LINE
  5
233
330
1F
100
AcDbEntity
  8
0
100
AcDbLine
 10
-118.6101938137
 20
1275.744754894
 30
0.0
 11
-118.6101938137
 21
1287.944754894
 31
0.0
  0
ARC
  5
234
330
1F
100
AcDbEntity
  8
0
100
AcDbCircle
 10
-900.6101938137
 20
1275.7447548939
 30
0.0
 40
5.000000000000114
100
AcDbArc
 50
180.0
 51
270.0
  0
LINE
  5
235
330
1F
100
AcDbEntity
  8
0
100
AcDbLine
 10
-905.6101938137
 20
1287.9447548939
 30
0.0
 11
-905.6101938137
 21
1275.7447548939
 31
0.0
  0
CIRCLE
  5
236
330
1F
100
AcDbEntity
  8
0
100
AcDbCircle
 10
-897.1101938137
 20
1278.2447548939
 30
0.0
 40
4.25
  0
CIRCLE
  5
237
330
1F
100
AcDbEntity
  8
0
100
AcDbCircle
 10
-127.1101938137
 20
1278.244754894
 30
0.0
 40
4.25
  0
ARC
  5
238
330
1F
100
AcDbEntity
  8
0
100
AcDbCircle
 10
-123.6101938137
 20
1275.744754894
 30
0.0
 40
5.000000000000128
100
AcDbArc
 50
270.0
 51
0.0
  0
LINE
  5
239
330
1F
100
AcDbEntity
  8
0
100
AcDbLine
 10
-887.6101938137
 20
1285.7447548939
 30
0.0
 11
-887.6101938137
 21
1288.2447548939
 31
0.0
  0
LINE
  5
23A
330
1F
100
AcDbEntity
  8
0
100
AcDbLine
 10
-136.6101938137
 20
1288.244754894
 30
0.0
 11
-887.6101938137
 21
1288.2447548939
 31
0.0
  0
LINE
  5
23B
330
1F
100
AcDbEntity
  8
0
100
AcDbLine
 10
-136.6101938137
 20
1288.244754894
 30
0.0
 11
-136.6101938137
 21
1285.744754894
 31
0.0
  0
ARC
  5
23C
330
1F
100
AcDbEntity
  8
0
100
AcDbCircle
 10
-136.6101938137
 20
1289.244754894
 30
0.0
 40
1.000000000000114
100
AcDbArc
 50
270.0
 51
0.0
  0
LINE
  5
23D
330
1F
100
AcDbEntity
  8
0
100
AcDbLine
 10
-136.6101938137
 20
1286.744754894
 30
0.0
 11
-136.3001938137
 21
1286.7640493492
 31
0.0
  0
LINE
  5
23E
330
1F
100
AcDbEntity
  8
0
100
AcDbLine
 10
-134.4747781633
 20
1287.944754894
 30
0.0
 11
-134.3189059663
 21
1288.2447548939
 31
0.0
  0
ARC
  5
23F
330
1F
100
AcDbEntity
  8
0
100
AcDbCircle
 10
-887.6101938137
 20
1289.2447548939
 30
0.0
 40
1.000000000000114
100
AcDbArc
 50
180.0
 51
270.0
  0
LINE
  5
240
330
1F
100
AcDbEntity
  8
0
100
AcDbLine
 10
-889.9014816612
 20
1288.2447548939
 30
0.0
 11
-889.7456094642
 21
1287.9447548939
 31
0.0
  0
LINE
  5
241
330
1F
100
AcDbEntity
  8
0
100
AcDbLine
 10
-887.9201938137
 20
1286.7640493492
 30
0.0
 11
-887.6101938137
 21
1286.7447548939
 31
0.0
  0
LINE
  5
244
330
1F
100
AcDbEntity
  8
0
100
AcDbLine
 10
896.0398061863
 20
1638.244754894
 30
0.0
 11
896.0398061863
 21
1288.244754894
 31
0.0
  0
LINE
  5
247
330
1F
100
AcDbEntity
  8
0
100
AcDbLine
 10
342.2398061863
 20
1288.244754894
 30
0.0
 11
342.2398061863
 21
1638.244754894
 31
0.0
  0
LINE
  5
249
330
1F
100
AcDbEntity
  8
0
100
AcDbLine
 10
796.0398061863
 20
1288.244754894
 30
0.0
 11
796.0398061863
 21
1638.244754894
 31
0.0
  0
LINE
  5
24C
330
1F
100
AcDbEntity
  8
0
100
AcDbLine
 10
-570.3601938137
 20
1288.244754894
 30
0.0
 11
-570.3601938137
 21
1638.244754894
 31
0.0
  0
LINE
  5
24E
330
1F
100
AcDbEntity
  8
0
100
AcDbLine
 10
442.2398061863
 20
1638.244754894
 30
0.0
 11
442.2398061863
 21
1288.2447548939
 31
0.0
  0
LINE
  5
251
330
1F
100
AcDbEntity
  8
0
100
AcDbLine
 10
569.1398061863
 20
1288.2447548939
 30
0.0
 11
569.1398061863
 21
1638.244754894
 31
0.0
  0
LINE
  5
253
330
1F
100
AcDbEntity
  8
0
100
AcDbLine
 10
-470.3601938137
 20
1638.244754894
 30
0.0
 11
-470.3601938137
 21
1288.244754894
 31
0.0
  0
LINE
  5
255
330
1F
100
AcDbEntity
  8
0
100
AcDbLine
 10
669.1398061863
 20
1638.2447548939
 30
0.0
 11
669.1398061863
 21
1288.2447548939
 31
0.0
  0
LINE
  5
258
330
1F
100
AcDbEntity
  8
0
100
AcDbLine
 10
-243.4601938137
 20
1638.244754894
 30
0.0
 11
-243.4601938137
 21
1288.244754894
 31
0.0
  0
LINE
  5
25B
330
1F
100
AcDbEntity
  8
0
100
AcDbLine
 10
-697.2601938137
 20
1638.244754894
 30
0.0
 11
-697.2601938137
 21
1288.244754894
 31
0.0
  0
LINE
  5
25D
330
1F
100
AcDbEntity
  8
0
100
AcDbLine
 10
-343.4601938137
 20
1288.244754894
 30
0.0
 11
-343.4601938137
 21
1638.244754894
 31
0.0
  0
LINE
  5
25F
330
1F
100
AcDbEntity
  8
0
100
AcDbLine
 10
-797.2601938137
 20
1288.244754894
 30
0.0
 11
-797.2601938137
 21
1638.244754894
 31
0.0
  0
LINE
  5
284
330
1F
100
AcDbEntity
  8
0
100
AcDbLine
 10
-959.2101938138
 20
836.8171364795
 30
0.0
 11
-955.2101938138
 21
836.8171364795
 31
0.0
  0
LINE
  5
285
330
1F
100
AcDbEntity
  8
0
100
AcDbLine
 10
-990.5478507819
 20
801.8171364795
 30
0.0
 11
-959.2101938138
 21
801.8171364795
 31
0.0
  0
ARC
  5
286
330
1F
100
AcDbEntity
  8
0
100
AcDbCircle
 10
-990.5478507819
 20
802.8171364795
 30
0.0
 40
0.9999999999998863
100
AcDbArc
 50
205.0289994876
 51
270.0
  0
ARC
  5
287
330
1F
100
AcDbEntity
  8
0
100
AcDbCircle
 10
-955.2101938138
 20
819.3171364795
 30
0.0
 40
39.99999999999998
100
AcDbArc
 50
154.9710005124
 51
205.0289994876
  0
ARC
  5
288
330
1F
100
AcDbEntity
  8
0
100
AcDbCircle
 10
-990.5478507819
 20
835.8171364795
 30
0.0
 40
0.9999999999998863
100
AcDbArc
 50
90.0
 51
154.9710005124
  0
LINE
  5
289
330
1F
100
AcDbEntity
  8
0
100
AcDbLine
 10
-990.5478507819
 20
836.8171364795
 30
0.0
 11
-959.2101938138
 21
836.8171364795
 31
0.0
  0
LINE
  5
28A
330
1F
100
AcDbEntity
  8
0
100
AcDbLine
 10
-959.2101938138
 20
801.8171364795
 30
0.0
 11
-955.2101938138
 21
801.8171364795
 31
0.0
  0
ARC
  5
28B
330
1F
100
AcDbEntity
  8
0
100
AcDbCircle
 10
1089.3274631544
 20
835.8171364795
 30
0.0
 40
1.0
100
AcDbArc
 50
25.0289994876
 51
90.0
  0
ARC
  5
28C
330
1F
100
AcDbEntity
  8
0
100
AcDbCircle
 10
1053.9898061863
 20
819.3171364795
 30
0.0
 40
40.00000000000013
100
AcDbArc
 50
334.9710005124
 51
25.0289994876
  0
ARC
  5
28D
330
1F
100
AcDbEntity
  8
0
100
AcDbCircle
 10
1089.3274631544
 20
802.8171364795
 30
0.0
 40
1.0
100
AcDbArc
 50
270.0
 51
334.9710005124
  0
LINE
  5
28E
330
1F
100
AcDbEntity
  8
0
100
AcDbLine
 10
1089.3274631544
 20
801.8171364795
 30
0.0
 11
1057.9898061863
 21
801.8171364795
 31
0.0
  0
LINE
  5
28F
330
1F
100
AcDbEntity
  8
0
100
AcDbLine
 10
1089.3274631544
 20
836.8171364795
 30
0.0
 11
1057.9898061863
 21
836.8171364795
 31
0.0
  0
LINE
  5
290
330
1F
100
AcDbEntity
  8
0
100
AcDbLine
 10
1057.9898061863
 20
836.8171364795
 30
0.0
 11
1053.9898061863
 21
836.8171364795
 31
0.0
  0
LINE
  5
291
330
1F
100
AcDbEntity
  8
0
100
AcDbLine
 10
1057.9898061863
 20
801.8171364795
 30
0.0
 11
1053.9898061863
 21
801.8171364795
 31
0.0
  0
LINE
  5
292
330
1F
100
AcDbEntity
  8
0
100
AcDbLine
 10
-990.5478507819
 20
216.8171364795
 30
0.0
 11
-959.2101938137
 21
216.8171364795
 31
0.0
  0
ARC
  5
293
330
1F
100
AcDbEntity
  8
0
100
AcDbCircle
 10
-990.5478507819
 20
217.8171364795
 30
0.0
 40
1.0
100
AcDbArc
 50
205.0289994876
 51
270.0
  0
ARC
  5
294
330
1F
100
AcDbEntity
  8
0
100
AcDbCircle
 10
-955.2101938137
 20
234.3171364795
 30
0.0
 40
39.99999999999999
100
AcDbArc
 50
154.9710005124
 51
205.0289994876
  0
ARC
  5
295
330
1F
100
AcDbEntity
  8
0
100
AcDbCircle
 10
-990.5478507819
 20
250.8171364795
 30
0.0
 40
1.0
100
AcDbArc
 50
90.0
 51
154.9710005124
  0
LINE
  5
296
330
1F
100
AcDbEntity
  8
0
100
AcDbLine
 10
-990.5478507819
 20
251.8171364795
 30
0.0
 11
-959.2101938137
 21
251.8171364795
 31
0.0
  0
LINE
  5
297
330
1F
100
AcDbEntity
  8
0
100
AcDbLine
 10
-959.2101938137
 20
251.8171364795
 30
0.0
 11
-955.2101938137
 21
251.8171364795
 31
0.0
  0
LINE
  5
298
330
1F
100
AcDbEntity
  8
0
100
AcDbLine
 10
-959.2101938137
 20
216.8171364795
 30
0.0
 11
-955.2101938137
 21
216.8171364795
 31
0.0
  0
LINE
  5
299
330
1F
100
AcDbEntity
  8
0
100
AcDbLine
 10
1089.3274631544
 20
251.8171364795
 30
0.0
 11
1057.9898061863
 21
251.8171364795
 31
0.0
  0
ARC
  5
29A
330
1F
100
AcDbEntity
  8
0
100
AcDbCircle
 10
1089.3274631544
 20
250.8171364795
 30
0.0
 40
1.0
100
AcDbArc
 50
25.0289994876
 51
90.0
  0
ARC
  5
29B
330
1F
100
AcDbEntity
  8
0
100
AcDbCircle
 10
1053.9898061863
 20
234.3171364795
 30
0.0
 40
40.00000000000009
100
AcDbArc
 50
334.9710005124
 51
25.0289994876
  0
ARC
  5
29C
330
1F
100
AcDbEntity
  8
0
100
AcDbCircle
 10
1089.3274631544
 20
217.8171364795
 30
0.0
 40
1.0
100
AcDbArc
 50
270.0
 51
334.9710005124
  0
LINE
  5
29D
330
1F
100
AcDbEntity
  8
0
100
AcDbLine
 10
1089.3274631544
 20
216.8171364795
 30
0.0
 11
1057.9898061863
 21
216.8171364795
 31
0.0
  0
LINE
  5
29E
330
1F
100
AcDbEntity
  8
0
100
AcDbLine
 10
1057.9898061863
 20
251.8171364795
 30
0.0
 11
1053.9898061863
 21
251.8171364795
 31
0.0
  0
LINE
  5
29F
330
1F
100
AcDbEntity
  8
0
100
AcDbLine
 10
1057.9898061863
 20
216.8171364795
 30
0.0
 11
1053.9898061863
 21
216.8171364795
 31
0.0
  0
CIRCLE
  5
2A0
330
1F
100
AcDbEntity
  8
0
100
AcDbCircle
 10
-978.2101938137
 20
819.3171364795
 30
0.0
 40
14.0
  0
CIRCLE
  5
2A1
330
1F
100
AcDbEntity
  8
0
100
AcDbCircle
 10
-978.2101938137
 20
819.3171364795
 30
0.0
 40
13.5
  0
CIRCLE
  5
2A2
330
1F
100
AcDbEntity
  8
0
100
AcDbCircle
 10
-978.2101938137
 20
819.3171364795
 30
0.0
 40
5.5
  0
CIRCLE
  5
2A3
330
1F
100
AcDbEntity
  8
0
100
AcDbCircle
 10
1076.9898061863
 20
819.3171364795
 30
0.0
 40
14.0
  0
CIRCLE
  5
2A4
330
1F
100
AcDbEntity
  8
0
100
AcDbCircle
 10
1076.9898061863
 20
819.3171364795
 30
0.0
 40
13.5
  0
CIRCLE
  5
2A5
330
1F
100
AcDbEntity
  8
0
100
AcDbCircle
 10
1076.9898061863
 20
819.3171364795
 30
0.0
 40
5.5
  0
CIRCLE
  5
2A6
330
1F
100
AcDbEntity
  8
0
100
AcDbCircle
 10
1076.9898061863
 20
234.3171364795
 30
0.0
 40
14.0
  0
CIRCLE
  5
2A7
330
1F
100
AcDbEntity
  8
0
100
AcDbCircle
 10
1076.9898061863
 20
234.3171364795
 30
0.0
 40
13.5
  0
CIRCLE
  5
2A8
330
1F
100
AcDbEntity
  8
0
100
AcDbCircle
 10
1076.9898061863
 20
234.3171364795
 30
0.0
 40
5.5
  0
CIRCLE
  5
2A9
330
1F
100
AcDbEntity
  8
0
100
AcDbCircle
 10
-978.2101938137
 20
234.3171364795
 30
0.0
 40
5.500000000000028
  0
CIRCLE
  5
2AA
330
1F
100
AcDbEntity
  8
0
100
AcDbCircle
 10
-978.2101938137
 20
234.3171364795
 30
0.0
 40
13.50000000000003
  0
CIRCLE
  5
2AB
330
1F
100
AcDbEntity
  8
0
100
AcDbCircle
 10
-978.2101938137
 20
234.3171364795
 30
0.0
 40
14.00000000000003
  0
LINE
  5
2B0
330
1F
100
AcDbEntity
  8
0
100
AcDbLine
 10
1055.9898061863
 20
127.8171364795
 30
0.0
 11
1055.9898061863
 21
126.8171364795
 31
0.0
  0
LINE
  5
2B1
330
1F
100
AcDbEntity
  8
0
100
AcDbLine
 10
1055.9898061863
 20
126.8171364795
 30
0.0
 11
1053.9898061863
 21
126.8171364795
 31
0.0
  0
LINE
  5
2B2
330
1F
100
AcDbEntity
  8
0
100
AcDbLine
 10
1053.9898061863
 20
126.8171364795
 30
0.0
 11
1053.9898061863
 21
127.8171364795
 31
0.0
  0
LINE
  5
2B3
330
1F
100
AcDbEntity
  8
0
100
AcDbLine
 10
1053.9898061863
 20
127.8171364795
 30
0.0
 11
1055.9898061863
 21
127.8171364795
 31
0.0
  0
LINE
  5
2B4
330
1F
100
AcDbEntity
  8
0
100
AcDbLine
 10
-955.2101938137
 20
127.8171364795
 30
0.0
 11
-955.2101938137
 21
126.8171364795
 31
0.0
  0
LINE
  5
2B5
330
1F
100
AcDbEntity
  8
0
100
AcDbLine
 10
1053.9898061863
 20
126.8171364795
 30
0.0
 11
-955.2101938137
 21
126.8171364795
 31
0.0
  0
LINE
  5
2B6
330
1F
100
AcDbEntity
  8
0
100
AcDbLine
 10
1053.9898061863
 20
127.8171364795
 30
0.0
 11
-955.2101938137
 21
127.8171364795
 31
0.0
  0
LINE
  5
2B7
330
1F
100
AcDbEntity
  8
0
100
AcDbLine
 10
-957.2101938137
 20
126.8171364795
 30
0.0
 11
-957.2101938137
 21
127.8171364795
 31
0.0
  0
LINE
  5
2B8
330
1F
100
AcDbEntity
  8
0
100
AcDbLine
 10
-955.2101938137
 20
126.8171364795
 30
0.0
 11
-957.2101938137
 21
126.8171364795
 31
0.0
  0
LINE
  5
2B9
330
1F
100
AcDbEntity
  8
0
100
AcDbLine
 10
-957.2101938137
 20
127.8171364795
 30
0.0
 11
-955.2101938137
 21
127.8171364795
 31
0.0
  0
LINE
  5
2BA
330
1F
100
AcDbEntity
  8
0
100
AcDbLine
 10
-955.2101938137
 20
926.8171364795
 30
0.0
 11
-955.2101938137
 21
925.8171364795
 31
0.0
  0
LINE
  5
2BB
330
1F
100
AcDbEntity
  8
0
100
AcDbLine
 10
-955.2101938137
 20
926.8171364795
 30
0.0
 11
1053.9898061863
 21
926.8171364795
 31
0.0
  0
LINE
  5
2BC
330
1F
100
AcDbEntity
  8
0
100
AcDbLine
 10
1053.9898061863
 20
925.8171364795
 30
0.0
 11
1053.9898061863
 21
926.8171364795
 31
0.0
  0
LINE
  5
2BD
330
1F
100
AcDbEntity
  8
0
100
AcDbLine
 10
-955.2101938137
 20
925.8171364795
 30
0.0
 11
1053.9898061863
 21
925.8171364795
 31
0.0
  0
LINE
  5
2BE
330
1F
100
AcDbEntity
  8
0
100
AcDbLine
 10
1055.9898061863
 20
926.8171364795
 30
0.0
 11
1055.9898061863
 21
925.8171364795
 31
0.0
  0
LINE
  5
2BF
330
1F
100
AcDbEntity
  8
0
100
AcDbLine
 10
1053.9898061863
 20
926.8171364795
 30
0.0
 11
1055.9898061863
 21
926.8171364795
 31
0.0
  0
LINE
  5
2C0
330
1F
100
AcDbEntity
  8
0
100
AcDbLine
 10
1055.9898061863
 20
925.8171364795
 30
0.0
 11
1053.9898061863
 21
925.8171364795
 31
0.0
  0
LINE
  5
2C1
330
1F
100
AcDbEntity
  8
0
100
AcDbLine
 10
-957.2101938137
 20
925.8171364795
 30
0.0
 11
-957.2101938137
 21
926.8171364795
 31
0.0
  0
LINE
  5
2C2
330
1F
100
AcDbEntity
  8
0
100
AcDbLine
 10
-957.2101938137
 20
926.8171364795
 30
0.0
 11
-955.2101938137
 21
926.8171364795
 31
0.0
  0
LINE
  5
2C3
330
1F
100
AcDbEntity
  8
0
100
AcDbLine
 10
-955.2101938137
 20
925.8171364795
 30
0.0
 11
-957.2101938137
 21
925.8171364795
 31
0.0
  0
LINE
  5
2C4
330
1F
100
AcDbEntity
  8
0
100
AcDbLine
 10
1005.8898061863
 20
974.3171364795
 30
0.0
 11
1005.8898061863
 21
972.8171364795
 31
0.0
  0
LINE
  5
2C5
330
1F
100
AcDbEntity
  8
0
100
AcDbLine
 10
1004.3898061863
 20
974.3171364795
 30
0.0
 11
1004.3898061863
 21
972.8171364795
 31
0.0
  0
LINE
  5
2C6
330
1F
100
AcDbEntity
  8
0
100
AcDbLine
 10
1005.8898061863
 20
972.8171364795
 30
0.0
 11
1005.8898061863
 21
967.8171364795
 31
0.0
  0
LINE
  5
2C7
330
1F
100
AcDbEntity
  8
0
100
AcDbLine
 10
1005.8898061863
 20
967.8171364795
 30
0.0
 11
1004.3898061863
 21
967.8171364795
 31
0.0
  0
LINE
  5
2C8
330
1F
100
AcDbEntity
  8
0
100
AcDbLine
 10
1004.3898061863
 20
967.8171364795
 30
0.0
 11
1004.3898061863
 21
972.8171364795
 31
0.0
  0
ARC
  5
2C9
330
1F
100
AcDbEntity
  8
0
100
AcDbCircle
 10
1003.3898061863
 20
974.3171364795
 30
0.0
 40
1.000000000000114
100
AcDbArc
 50
0.0
 51
90.0
  0
ARC
  5
2CA
330
1F
100
AcDbEntity
  8
0
100
AcDbCircle
 10
1003.3898061863
 20
974.3171364795
 30
0.0
 40
2.500000000000004
100
AcDbArc
 50
0.0
 51
66.4218215218
  0
LINE
  5
2CB
330
1F
100
AcDbEntity
  8
0
100
AcDbLine
 10
-118.6101938137
 20
79.3171364795
 30
0.0
 11
-118.6101938137
 21
80.8171364795
 31
0.0
  0
LINE
  5
2CC
330
1F
100
AcDbEntity
  8
0
100
AcDbLine
 10
-117.1101938137
 20
79.3171364795
 30
0.0
 11
-117.1101938137
 21
80.8171364795
 31
0.0
  0
ARC
  5
2CD
330
1F
100
AcDbEntity
  8
0
100
AcDbCircle
 10
-119.6101938137
 20
79.3171364795
 30
0.0
 40
1.0
100
AcDbArc
 50
270.0
 51
0.0
  0
ARC
  5
2CE
330
1F
100
AcDbEntity
  8
0
100
AcDbCircle
 10
-119.6101938137
 20
79.3171364795
 30
0.0
 40
2.500000000000012
100
AcDbArc
 50
293.5781784782001
 51
0.0
  0
LINE
  5
2CF
330
1F
100
AcDbEntity
  8
0
100
AcDbLine
 10
-118.6101938137
 20
85.8171364795
 30
0.0
 11
-117.1101938137
 21
85.8171364795
 31
0.0
  0
LINE
  5
2D0
330
1F
100
AcDbEntity
  8
0
100
AcDbLine
 10
-118.6101938137
 20
80.8171364795
 30
0.0
 11
-118.6101938137
 21
85.8171364795
 31
0.0
  0
LINE
  5
2D1
330
1F
100
AcDbEntity
  8
0
100
AcDbLine
 10
-117.1101938137
 20
85.8171364795
 30
0.0
 11
-117.1101938137
 21
80.8171364795
 31
0.0
  0
LINE
  5
2D2
330
1F
100
AcDbEntity
  8
0
100
AcDbLine
 10
-907.1101938137
 20
80.8171364795
 30
0.0
 11
-907.1101938137
 21
85.8171364795
 31
0.0
  0
LINE
  5
2D3
330
1F
100
AcDbEntity
  8
0
100
AcDbLine
 10
-907.1101938137
 20
85.8171364795
 30
0.0
 11
-905.6101938137
 21
85.8171364795
 31
0.0
  0
LINE
  5
2D4
330
1F
100
AcDbEntity
  8
0
100
AcDbLine
 10
-905.6101938137
 20
85.8171364795
 30
0.0
 11
-905.6101938137
 21
80.8171364795
 31
0.0
  0
LINE
  5
2D5
330
1F
100
AcDbEntity
  8
0
100
AcDbLine
 10
-907.1101938137
 20
79.3171364795
 30
0.0
 11
-907.1101938137
 21
80.8171364795
 31
0.0
  0
LINE
  5
2D6
330
1F
100
AcDbEntity
  8
0
100
AcDbLine
 10
-905.6101938137
 20
79.3171364795
 30
0.0
 11
-905.6101938137
 21
80.8171364795
 31
0.0
  0
ARC
  5
2D7
330
1F
100
AcDbEntity
  8
0
100
AcDbCircle
 10
-904.6101938137
 20
79.3171364795
 30
0.0
 40
1.0
100
AcDbArc
 50
180.0
 51
270.0
  0
ARC
  5
2D8
330
1F
100
AcDbEntity
  8
0
100
AcDbCircle
 10
-904.6101938137
 20
79.3171364795
 30
0.0
 40
2.499999999999966
100
AcDbArc
 50
180.0
 51
246.4218215218
  0
ARC
  5
2D9
330
1F
100
AcDbEntity
  8
0
100
AcDbCircle
 10
218.3898061863
 20
974.3171364795
 30
0.0
 40
2.499999999999943
100
AcDbArc
 50
113.5781784782
 51
180.0
  0
ARC
  5
2DA
330
1F
100
AcDbEntity
  8
0
100
AcDbCircle
 10
218.3898061863
 20
974.3171364795
 30
0.0
 40
1.0
100
AcDbArc
 50
90.0
 51
180.0
  0
LINE
  5
2DB
330
1F
100
AcDbEntity
  8
0
100
AcDbLine
 10
217.3898061863
 20
974.3171364795
 30
0.0
 11
217.3898061863
 21
972.8171364795
 31
0.0
  0
LINE
  5
2DC
330
1F
100
AcDbEntity
  8
0
100
AcDbLine
 10
215.8898061863
 20
974.3171364795
 30
0.0
 11
215.8898061863
 21
972.8171364795
 31
0.0
  0
LINE
  5
2DD
330
1F
100
AcDbEntity
  8
0
100
AcDbLine
 10
217.3898061863
 20
967.8171364795
 30
0.0
 11
215.8898061863
 21
967.8171364795
 31
0.0
  0
LINE
  5
2DE
330
1F
100
AcDbEntity
  8
0
100
AcDbLine
 10
215.8898061863
 20
967.8171364795
 30
0.0
 11
215.8898061863
 21
972.8171364795
 31
0.0
  0
LINE
  5
2DF
330
1F
100
AcDbEntity
  8
0
100
AcDbLine
 10
217.3898061863
 20
972.8171364795
 30
0.0
 11
217.3898061863
 21
967.8171364795
 31
0.0
  0
LINE
  5
2E0
330
1F
100
AcDbEntity
  8
0
100
AcDbLine
 10
-117.1101938137
 20
972.8171364795
 30
0.0
 11
-117.1101938137
 21
967.8171364795
 31
0.0
  0
LINE
  5
2E1
330
1F
100
AcDbEntity
  8
0
100
AcDbLine
 10
-117.1101938137
 20
967.8171364795
 30
0.0
 11
-118.6101938137
 21
967.8171364795
 31
0.0
  0
LINE
  5
2E2
330
1F
100
AcDbEntity
  8
0
100
AcDbLine
 10
-118.6101938137
 20
967.8171364795
 30
0.0
 11
-118.6101938137
 21
972.8171364795
 31
0.0
  0
LINE
  5
2E3
330
1F
100
AcDbEntity
  8
0
100
AcDbLine
 10
-117.1101938137
 20
974.3171364795
 30
0.0
 11
-117.1101938137
 21
972.8171364795
 31
0.0
  0
LINE
  5
2E4
330
1F
100
AcDbEntity
  8
0
100
AcDbLine
 10
-118.6101938137
 20
974.3171364795
 30
0.0
 11
-118.6101938137
 21
972.8171364795
 31
0.0
  0
ARC
  5
2E5
330
1F
100
AcDbEntity
  8
0
100
AcDbCircle
 10
-119.6101938137
 20
974.3171364795
 30
0.0
 40
0.9999999999998863
100
AcDbArc
 50
360.0
 51
90.0
  0
ARC
  5
2E6
330
1F
100
AcDbEntity
  8
0
100
AcDbCircle
 10
-119.6101938137
 20
974.3171364795
 30
0.0
 40
2.499999999999943
100
AcDbArc
 50
360.0
 51
66.4218215218
  0
LINE
  5
2E7
330
1F
100
AcDbEntity
  8
0
100
AcDbLine
 10
215.8898061863
 20
80.8171364795
 30
0.0
 11
215.8898061863
 21
85.8171364795
 31
0.0
  0
LINE
  5
2E8
330
1F
100
AcDbEntity
  8
0
100
AcDbLine
 10
215.8898061863
 20
85.8171364795
 30
0.0
 11
217.3898061863
 21
85.8171364795
 31
0.0
  0
LINE
  5
2E9
330
1F
100
AcDbEntity
  8
0
100
AcDbLine
 10
217.3898061863
 20
85.8171364795
 30
0.0
 11
217.3898061863
 21
80.8171364795
 31
0.0
  0
LINE
  5
2EA
330
1F
100
AcDbEntity
  8
0
100
AcDbLine
 10
215.8898061863
 20
79.3171364795
 30
0.0
 11
215.8898061863
 21
80.8171364795
 31
0.0
  0
LINE
  5
2EB
330
1F
100
AcDbEntity
  8
0
100
AcDbLine
 10
217.3898061863
 20
79.3171364795
 30
0.0
 11
217.3898061863
 21
80.8171364795
 31
0.0
  0
ARC
  5
2EC
330
1F
100
AcDbEntity
  8
0
100
AcDbCircle
 10
218.3898061863
 20
79.3171364795
 30
0.0
 40
1.0
100
AcDbArc
 50
180.0
 51
270.0
  0
ARC
  5
2ED
330
1F
100
AcDbEntity
  8
0
100
AcDbCircle
 10
218.3898061863
 20
79.3171364795
 30
0.0
 40
2.500000000000015
100
AcDbArc
 50
180.0
 51
246.4218215219
  0
LINE
  5
2EE
330
1F
100
AcDbEntity
  8
0
100
AcDbLine
 10
1004.3898061863
 20
85.8171364795
 30
0.0
 11
1005.8898061863
 21
85.8171364795
 31
0.0
  0
LINE
  5
2EF
330
1F
100
AcDbEntity
  8
0
100
AcDbLine
 10
1005.8898061863
 20
85.8171364795
 30
0.0
 11
1005.8898061863
 21
80.8171364795
 31
0.0
  0
LINE
  5
2F0
330
1F
100
AcDbEntity
  8
0
100
AcDbLine
 10
1004.3898061863
 20
80.8171364795
 30
0.0
 11
1004.3898061863
 21
85.8171364795
 31
0.0
  0
LINE
  5
2F1
330
1F
100
AcDbEntity
  8
0
100
AcDbLine
 10
1005.8898061863
 20
79.3171364795
 30
0.0
 11
1005.8898061863
 21
80.8171364795
 31
0.0
  0
LINE
  5
2F2
330
1F
100
AcDbEntity
  8
0
100
AcDbLine
 10
1004.3898061863
 20
79.3171364795
 30
0.0
 11
1004.3898061863
 21
80.8171364795
 31
0.0
  0
ARC
  5
2F3
330
1F
100
AcDbEntity
  8
0
100
AcDbCircle
 10
1003.3898061863
 20
79.3171364795
 30
0.0
 40
2.500000000000028
100
AcDbArc
 50
293.5781784783001
 51
0.0
  0
ARC
  5
2F4
330
1F
100
AcDbEntity
  8
0
100
AcDbCircle
 10
1003.3898061863
 20
79.3171364795
 30
0.0
 40
1.0
100
AcDbArc
 50
270.0
 51
0.0
  0
LINE
  5
2F5
330
1F
100
AcDbEntity
  8
0
100
AcDbLine
 10
-905.6101938137
 20
974.3171364795
 30
0.0
 11
-905.6101938137
 21
972.8171364795
 31
0.0
  0
LINE
  5
2F6
330
1F
100
AcDbEntity
  8
0
100
AcDbLine
 10
-907.1101938137
 20
974.3171364795
 30
0.0
 11
-907.1101938137
 21
972.8171364795
 31
0.0
  0
ARC
  5
2F7
330
1F
100
AcDbEntity
  8
0
100
AcDbCircle
 10
-904.6101938137
 20
974.3171364795
 30
0.0
 40
1.0
100
AcDbArc
 50
90.0
 51
180.0
  0
ARC
  5
2F8
330
1F
100
AcDbEntity
  8
0
100
AcDbCircle
 10
-904.6101938137
 20
974.3171364795
 30
0.0
 40
2.5
100
AcDbArc
 50
113.5781784782
 51
180.0
  0
LINE
  5
2F9
330
1F
100
AcDbEntity
  8
0
100
AcDbLine
 10
-905.6101938137
 20
967.8171364795
 30
0.0
 11
-907.1101938137
 21
967.8171364795
 31
0.0
  0
LINE
  5
2FA
330
1F
100
AcDbEntity
  8
0
100
AcDbLine
 10
-907.1101938137
 20
967.8171364795
 30
0.0
 11
-907.1101938137
 21
972.8171364795
 31
0.0
  0
LINE
  5
2FB
330
1F
100
AcDbEntity
  8
0
100
AcDbLine
 10
-905.6101938137
 20
972.8171364795
 30
0.0
 11
-905.6101938137
 21
967.8171364795
 31
0.0
  0
LINE
  5
2FC
330
1F
100
AcDbEntity
  8
0
100
AcDbLine
 10
222.3898061863
 20
76.8171364795
 30
0.0
 11
222.3898061863
 21
79.3171364795
 31
0.0
  0
LINE
  5
2FD
330
1F
100
AcDbEntity
  8
0
100
AcDbLine
 10
999.3898061863
 20
79.3171364795
 30
0.0
 11
999.3898061863
 21
76.8171364795
 31
0.0
  0
LINE
  5
2FE
330
1F
100
AcDbEntity
  8
0
100
AcDbLine
 10
999.3898061863
 20
76.8171364795
 30
0.0
 11
222.3898061863
 21
76.8171364795
 31
0.0
  0
LINE
  5
2FF
330
1F
100
AcDbEntity
  8
0
100
AcDbLine
 10
222.3898061863
 20
79.3171364795
 30
0.0
 11
222.3898061863
 21
80.8171364795
 31
0.0
  0
ARC
  5
300
330
1F
100
AcDbEntity
  8
0
100
AcDbCircle
 10
227.3898061863
 20
80.8171364795
 30
0.0
 40
5.0
100
AcDbArc
 50
90.0
 51
180.0
  0
LINE
  5
301
330
1F
100
AcDbEntity
  8
0
100
AcDbLine
 10
227.3898061863
 20
85.8171364795
 30
0.0
 11
994.3898061863
 21
85.8171364795
 31
0.0
  0
ARC
  5
302
330
1F
100
AcDbEntity
  8
0
100
AcDbCircle
 10
994.3898061863
 20
80.8171364795
 30
0.0
 40
5.000000000000114
100
AcDbArc
 50
0.0
 51
90.0
  0
LINE
  5
303
330
1F
100
AcDbEntity
  8
0
100
AcDbLine
 10
999.3898061863
 20
80.8171364795
 30
0.0
 11
999.3898061863
 21
79.3171364795
 31
0.0
  0
LINE
  5
304
330
1F
100
AcDbEntity
  8
0
100
AcDbLine
 10
1004.3898061863
 20
78.3171364795
 30
0.0
 11
1004.3898061863
 21
76.8171364795
 31
0.0
  0
LINE
  5
305
330
1F
100
AcDbEntity
  8
0
100
AcDbLine
 10
999.3898061863
 20
78.3171364795
 30
0.0
 11
1004.3898061863
 21
78.3171364795
 31
0.0
  0
LINE
  5
306
330
1F
100
AcDbEntity
  8
0
100
AcDbLine
 10
1004.3898061863
 20
76.8171364795
 30
0.0
 11
999.3898061863
 21
76.8171364795
 31
0.0
  0
LINE
  5
307
330
1F
100
AcDbEntity
  8
0
100
AcDbLine
 10
217.3898061863
 20
76.8171364795
 30
0.0
 11
217.3898061863
 21
78.3171364795
 31
0.0
  0
LINE
  5
308
330
1F
100
AcDbEntity
  8
0
100
AcDbLine
 10
217.3898061863
 20
78.3171364795
 30
0.0
 11
222.3898061863
 21
78.3171364795
 31
0.0
  0
LINE
  5
309
330
1F
100
AcDbEntity
  8
0
100
AcDbLine
 10
222.3898061863
 20
76.8171364795
 30
0.0
 11
217.3898061863
 21
76.8171364795
 31
0.0
  0
LINE
  5
30A
330
1F
100
AcDbEntity
  8
0
100
AcDbLine
 10
988.8898061863
 20
126.8171364795
 30
0.0
 11
988.8898061863
 21
85.8171364795
 31
0.0
  0
LINE
  5
30B
330
1F
100
AcDbEntity
  8
0
100
AcDbLine
 10
232.8898061863
 20
126.8171364795
 30
0.0
 11
232.8898061863
 21
85.8171364795
 31
0.0
  0
LINE
  5
30C
330
1F
100
AcDbEntity
  8
0
100
AcDbLine
 10
-123.6101938137
 20
976.8171364795
 30
0.0
 11
-123.6101938137
 21
974.3171364795
 31
0.0
  0
LINE
  5
30D
330
1F
100
AcDbEntity
  8
0
100
AcDbLine
 10
-900.6101938137
 20
974.3171364795
 30
0.0
 11
-900.6101938137
 21
976.8171364795
 31
0.0
  0
LINE
  5
30E
330
1F
100
AcDbEntity
  8
0
100
AcDbLine
 10
-900.6101938137
 20
976.8171364795
 30
0.0
 11
-123.6101938137
 21
976.8171364795
 31
0.0
  0
LINE
  5
30F
330
1F
100
AcDbEntity
  8
0
100
AcDbLine
 10
-123.6101938137
 20
974.3171364795
 30
0.0
 11
-123.6101938137
 21
972.8171364795
 31
0.0
  0
ARC
  5
310
330
1F
100
AcDbEntity
  8
0
100
AcDbCircle
 10
-128.6101938137
 20
972.8171364795
 30
0.0
 40
5.000000000000114
100
AcDbArc
 50
270.0
 51
360.0
  0
LINE
  5
311
330
1F
100
AcDbEntity
  8
0
100
AcDbLine
 10
-128.6101938137
 20
967.8171364795
 30
0.0
 11
-895.6101938137
 21
967.8171364795
 31
0.0
  0
ARC
  5
312
330
1F
100
AcDbEntity
  8
0
100
AcDbCircle
 10
-895.6101938137
 20
972.8171364795
 30
0.0
 40
5.000000000000114
100
AcDbArc
 50
180.0
 51
270.0
  0
LINE
  5
313
330
1F
100
AcDbEntity
  8
0
100
AcDbLine
 10
-900.6101938137
 20
972.8171364795
 30
0.0
 11
-900.6101938137
 21
974.3171364795
 31
0.0
  0
LINE
  5
314
330
1F
100
AcDbEntity
  8
0
100
AcDbLine
 10
-905.6101938137
 20
975.3171364795
 30
0.0
 11
-905.6101938137
 21
976.8171364795
 31
0.0
  0
LINE
  5
315
330
1F
100
AcDbEntity
  8
0
100
AcDbLine
 10
-900.6101938137
 20
975.3171364795
 30
0.0
 11
-905.6101938137
 21
975.3171364795
 31
0.0
  0
LINE
  5
316
330
1F
100
AcDbEntity
  8
0
100
AcDbLine
 10
-905.6101938137
 20
976.8171364795
 30
0.0
 11
-900.6101938137
 21
976.8171364795
 31
0.0
  0
LINE
  5
317
330
1F
100
AcDbEntity
  8
0
100
AcDbLine
 10
-118.6101938137
 20
976.8171364795
 30
0.0
 11
-118.6101938137
 21
975.3171364795
 31
0.0
  0
LINE
  5
318
330
1F
100
AcDbEntity
  8
0
100
AcDbLine
 10
-118.6101938137
 20
975.3171364795
 30
0.0
 11
-123.6101938137
 21
975.3171364795
 31
0.0
  0
LINE
  5
319
330
1F
100
AcDbEntity
  8
0
100
AcDbLine
 10
-123.6101938137
 20
976.8171364795
 30
0.0
 11
-118.6101938137
 21
976.8171364795
 31
0.0
  0
LINE
  5
31A
330
1F
100
AcDbEntity
  8
0
100
AcDbLine
 10
-890.1101938137
 20
926.8171364795
 30
0.0
 11
-890.1101938137
 21
967.8171364795
 31
0.0
  0
LINE
  5
31B
330
1F
100
AcDbEntity
  8
0
100
AcDbLine
 10
-134.1101938137
 20
926.8171364795
 30
0.0
 11
-134.1101938137
 21
967.8171364795
 31
0.0
  0
LINE
  5
31C
330
1F
100
AcDbEntity
  8
0
100
AcDbLine
 10
-900.6101938137
 20
76.8171364795
 30
0.0
 11
-900.6101938137
 21
79.3171364795
 31
0.0
  0
LINE
  5
31D
330
1F
100
AcDbEntity
  8
0
100
AcDbLine
 10
-123.6101938137
 20
79.3171364795
 30
0.0
 11
-123.6101938137
 21
76.8171364795
 31
0.0
  0
LINE
  5
31E
330
1F
100
AcDbEntity
  8
0
100
AcDbLine
 10
-123.6101938137
 20
76.8171364795
 30
0.0
 11
-900.6101938137
 21
76.8171364795
 31
0.0
  0
LINE
  5
31F
330
1F
100
AcDbEntity
  8
0
100
AcDbLine
 10
-900.6101938137
 20
79.3171364795
 30
0.0
 11
-900.6101938137
 21
80.8171364795
 31
0.0
  0
ARC
  5
320
330
1F
100
AcDbEntity
  8
0
100
AcDbCircle
 10
-895.6101938137
 20
80.8171364795
 30
0.0
 40
5.0
100
AcDbArc
 50
90.0
 51
180.0
  0
LINE
  5
321
330
1F
100
AcDbEntity
  8
0
100
AcDbLine
 10
-895.6101938137
 20
85.8171364795
 30
0.0
 11
-128.6101938137
 21
85.8171364795
 31
0.0
  0
ARC
  5
322
330
1F
100
AcDbEntity
  8
0
100
AcDbCircle
 10
-128.6101938137
 20
80.8171364795
 30
0.0
 40
5.000000000000099
100
AcDbArc
 50
0.0
 51
90.0
  0
LINE
  5
323
330
1F
100
AcDbEntity
  8
0
100
AcDbLine
 10
-123.6101938137
 20
80.8171364795
 30
0.0
 11
-123.6101938137
 21
79.3171364795
 31
0.0
  0
LINE
  5
324
330
1F
100
AcDbEntity
  8
0
100
AcDbLine
 10
-118.6101938137
 20
78.3171364795
 30
0.0
 11
-118.6101938137
 21
76.8171364795
 31
0.0
  0
LINE
  5
325
330
1F
100
AcDbEntity
  8
0
100
AcDbLine
 10
-123.6101938137
 20
78.3171364795
 30
0.0
 11
-118.6101938137
 21
78.3171364795
 31
0.0
  0
LINE
  5
326
330
1F
100
AcDbEntity
  8
0
100
AcDbLine
 10
-118.6101938137
 20
76.8171364795
 30
0.0
 11
-123.6101938137
 21
76.8171364795
 31
0.0
  0
LINE
  5
327
330
1F
100
AcDbEntity
  8
0
100
AcDbLine
 10
-905.6101938137
 20
76.8171364795
 30
0.0
 11
-905.6101938137
 21
78.3171364795
 31
0.0
  0
LINE
  5
328
330
1F
100
AcDbEntity
  8
0
100
AcDbLine
 10
-905.6101938137
 20
78.3171364795
 30
0.0
 11
-900.6101938137
 21
78.3171364795
 31
0.0
  0
LINE
  5
329
330
1F
100
AcDbEntity
  8
0
100
AcDbLine
 10
-900.6101938137
 20
76.8171364795
 30
0.0
 11
-905.6101938137
 21
76.8171364795
 31
0.0
  0
LINE
  5
32A
330
1F
100
AcDbEntity
  8
0
100
AcDbLine
 10
-134.1101938137
 20
126.8171364795
 30
0.0
 11
-134.1101938137
 21
85.8171364795
 31
0.0
  0
LINE
  5
32B
330
1F
100
AcDbEntity
  8
0
100
AcDbLine
 10
-890.1101938137
 20
126.8171364795
 30
0.0
 11
-890.1101938137
 21
85.8171364795
 31
0.0
  0
LINE
  5
32C
330
1F
100
AcDbEntity
  8
0
100
AcDbLine
 10
999.3898061863
 20
976.8171364795
 30
0.0
 11
999.3898061863
 21
974.3171364795
 31
0.0
  0
LINE
  5
32D
330
1F
100
AcDbEntity
  8
0
100
AcDbLine
 10
222.3898061863
 20
974.3171364795
 30
0.0
 11
222.3898061863
 21
976.8171364795
 31
0.0
  0
LINE
  5
32E
330
1F
100
AcDbEntity
  8
0
100
AcDbLine
 10
222.3898061863
 20
976.8171364795
 30
0.0
 11
999.3898061863
 21
976.8171364795
 31
0.0
  0
LINE
  5
32F
330
1F
100
AcDbEntity
  8
0
100
AcDbLine
 10
999.3898061863
 20
974.3171364795
 30
0.0
 11
999.3898061863
 21
972.8171364795
 31
0.0
  0
ARC
  5
330
330
1F
100
AcDbEntity
  8
0
100
AcDbCircle
 10
994.3898061863
 20
972.8171364795
 30
0.0
 40
5.0
100
AcDbArc
 50
270.0
 51
0.0
  0
LINE
  5
331
330
1F
100
AcDbEntity
  8
0
100
AcDbLine
 10
994.3898061863
 20
967.8171364795
 30
0.0
 11
227.3898061863
 21
967.8171364795
 31
0.0
  0
ARC
  5
332
330
1F
100
AcDbEntity
  8
0
100
AcDbCircle
 10
227.3898061863
 20
972.8171364795
 30
0.0
 40
5.000000000000114
100
AcDbArc
 50
180.0
 51
270.0
  0
LINE
  5
333
330
1F
100
AcDbEntity
  8
0
100
AcDbLine
 10
222.3898061863
 20
972.8171364795
 30
0.0
 11
222.3898061863
 21
974.3171364795
 31
0.0
  0
LINE
  5
334
330
1F
100
AcDbEntity
  8
0
100
AcDbLine
 10
217.3898061863
 20
975.3171364795
 30
0.0
 11
217.3898061863
 21
976.8171364795
 31
0.0
  0
LINE
  5
335
330
1F
100
AcDbEntity
  8
0
100
AcDbLine
 10
222.3898061863
 20
975.3171364795
 30
0.0
 11
217.3898061863
 21
975.3171364795
 31
0.0
  0
LINE
  5
336
330
1F
100
AcDbEntity
  8
0
100
AcDbLine
 10
217.3898061863
 20
976.8171364795
 30
0.0
 11
222.3898061863
 21
976.8171364795
 31
0.0
  0
LINE
  5
337
330
1F
100
AcDbEntity
  8
0
100
AcDbLine
 10
1004.3898061863
 20
976.8171364795
 30
0.0
 11
1004.3898061863
 21
975.3171364795
 31
0.0
  0
LINE
  5
338
330
1F
100
AcDbEntity
  8
0
100
AcDbLine
 10
1004.3898061863
 20
975.3171364795
 30
0.0
 11
999.3898061863
 21
975.3171364795
 31
0.0
  0
LINE
  5
339
330
1F
100
AcDbEntity
  8
0
100
AcDbLine
 10
999.3898061863
 20
976.8171364795
 30
0.0
 11
1004.3898061863
 21
976.8171364795
 31
0.0
  0
LINE
  5
33A
330
1F
100
AcDbEntity
  8
0
100
AcDbLine
 10
232.8898061863
 20
926.8171364795
 30
0.0
 11
232.8898061863
 21
967.8171364795
 31
0.0
  0
LINE
  5
33B
330
1F
100
AcDbEntity
  8
0
100
AcDbLine
 10
988.8898061863
 20
926.8171364795
 30
0.0
 11
988.8898061863
 21
967.8171364795
 31
0.0
  0
LINE
  5
33C
330
1F
100
AcDbEntity
  8
0
100
AcDbLine
 10
1050.9898061863
 20
129.8171364795
 30
0.0
 11
1052.8633055858
 21
129.8171364795
 31
0.0
  0
LINE
  5
33D
330
1F
100
AcDbEntity
  8
0
100
AcDbLine
 10
1052.8633055858
 20
923.8171364795
 30
0.0
 11
1050.9898061863
 21
923.8171364795
 31
0.0
  0
LINE
  5
370
330
1F
100
AcDbEntity
  8
0
100
AcDbLine
 10
-952.2101938137
 20
129.8171364795
 30
0.0
 11
-954.0836932133
 21
129.8171364795
 31
0.0
  0
LINE
  5
371
330
1F
100
AcDbEntity
  8
0
100
AcDbLine
 10
-954.0836932133
 20
923.8171364795
 30
0.0
 11
-952.2101938137
 21
923.8171364795
 31
0.0
  0
LINE
  5
373
330
1F
100
AcDbEntity
  8
0
100
AcDbLine
 10
1051.9898061863
 20
924.8171364795
 30
0.0
 11
1051.9898061863
 21
925.8171364795
 31
0.0
  0
ARC
  5
374
330
1F
100
AcDbEntity
  8
0
100
AcDbCircle
 10
1051.9898061863
 20
923.8171364795
 30
0.0
 40
1.0
100
AcDbArc
 50
0.0
 51
90.0
  0
ARC
  5
375
330
1F
100
AcDbEntity
  8
0
100
AcDbCircle
 10
1051.9898061863
 20
923.8171364795
 30
0.0
 40
2.0
100
AcDbArc
 50
0.0
 51
90.0
  0
LINE
  5
376
330
1F
100
AcDbEntity
  8
0
100
AcDbLine
 10
1052.9898061863
 20
129.8171364795
 30
0.0
 11
1052.9898061863
 21
923.8171364795
 31
0.0
  0
LINE
  5
377
330
1F
100
AcDbEntity
  8
0
100
AcDbLine
 10
1053.9898061863
 20
129.8171364795
 30
0.0
 11
1053.9898061863
 21
923.8171364795
 31
0.0
  0
LINE
  5
378
330
1F
100
AcDbEntity
  8
0
100
AcDbLine
 10
1051.9898061863
 20
128.8171364795
 30
0.0
 11
1051.9898061863
 21
127.8171364795
 31
0.0
  0
ARC
  5
37A
330
1F
100
AcDbEntity
  8
0
100
AcDbCircle
 10
1051.9898061863
 20
129.8171364795
 30
0.0
 40
2.000000000000014
100
AcDbArc
 50
270.0
 51
0.0
  0
ARC
  5
37B
330
1F
100
AcDbEntity
  8
0
100
AcDbCircle
 10
1051.9898061863
 20
129.8171364795
 30
0.0
 40
1.0
100
AcDbArc
 50
270.0
 51
0.0
  0
LINE
  5
37C
330
1F
100
AcDbEntity
  8
0
100
AcDbLine
 10
-953.2101938137
 20
128.8171364795
 30
0.0
 11
-948.785929745
 21
128.8171364795
 31
0.0
  0
LINE
  5
37D
330
1F
100
AcDbEntity
  8
0
100
AcDbLine
 10
-953.2101938137
 20
128.8171364795
 30
0.0
 11
-953.2101938137
 21
127.8171364795
 31
0.0
  0
ARC
  5
37E
330
1F
100
AcDbEntity
  8
0
100
AcDbCircle
 10
-953.2101938137
 20
129.8171364795
 30
0.0
 40
1.0
100
AcDbArc
 50
180.0
 51
270.0
  0
ARC
  5
37F
330
1F
100
AcDbEntity
  8
0
100
AcDbCircle
 10
-953.2101938137
 20
129.8171364795
 30
0.0
 40
2.0
100
AcDbArc
 50
180.0
 51
270.0
  0
LINE
  5
380
330
1F
100
AcDbEntity
  8
0
100
AcDbLine
 10
-955.2101938137
 20
923.8171364795
 30
0.0
 11
-955.2101938137
 21
129.8171364795
 31
0.0
  0
LINE
  5
381
330
1F
100
AcDbEntity
  8
0
100
AcDbLine
 10
-954.2101938137
 20
923.8171364795
 30
0.0
 11
-954.2101938137
 21
129.8171364795
 31
0.0
  0
LINE
  5
382
330
1F
100
AcDbEntity
  8
0
100
AcDbLine
 10
-953.2101938137
 20
924.8171364795
 30
0.0
 11
-953.2101938137
 21
925.8171364795
 31
0.0
  0
ARC
  5
384
330
1F
100
AcDbEntity
  8
0
100
AcDbCircle
 10
-953.2101938137
 20
923.8171364795
 30
0.0
 40
1.000000000000114
100
AcDbArc
 50
90.0
 51
180.0
  0
ARC
  5
385
330
1F
100
AcDbEntity
  8
0
100
AcDbCircle
 10
-953.2101938137
 20
923.8171364795
 30
0.0
 40
2.0
100
AcDbArc
 50
90.0
 51
180.0
  0
LINE
  5
386
330
1F
100
AcDbEntity
  8
0
100
AcDbLine
 10
1853.6292535828
 20
1694.0447548939
 30
0.0
 11
1853.6292535828
 21
1687.5447548939
 31
0.0
  0
LINE
  5
387
330
1F
100
AcDbEntity
  8
0
100
AcDbLine
 10
1881.6292535828
 20
1687.5447548939
 30
0.0
 11
1881.6292535828
 21
1694.0447548939
 31
0.0
  0
LINE
  5
388
330
1F
100
AcDbEntity
  8
0
100
AcDbLine
 10
1881.6292535828
 20
1694.0447548939
 30
0.0
 11
1881.1292535828
 21
1694.5447548939
 31
0.0
  0
LINE
  5
389
330
1F
100
AcDbEntity
  8
0
100
AcDbLine
 10
1854.1292535828
 20
1694.5447548939
 30
0.0
 11
1853.6292535828
 21
1694.0447548939
 31
0.0
  0
LINE
  5
38A
330
1F
100
AcDbEntity
  8
0
100
AcDbLine
 10
1853.6292535828
 20
1685.5447548939
 30
0.0
 11
1853.6292535828
 21
1676.5447548939
 31
0.0
  0
LINE
  5
38B
330
1F
100
AcDbEntity
  8
0
100
AcDbLine
 10
1881.6292535828
 20
1676.5447548939
 30
0.0
 11
1881.6292535828
 21
1685.5447548939
 31
0.0
  0
LINE
  5
38C
330
1F
100
AcDbEntity
  8
0
100
AcDbLine
 10
2466.6292535828
 20
1694.0447548939
 30
0.0
 11
2466.1292535828
 21
1694.5447548939
 31
0.0
  0
LINE
  5
38D
330
1F
100
AcDbEntity
  8
0
100
AcDbLine
 10
2439.1292535828
 20
1694.5447548939
 30
0.0
 11
2438.6292535828
 21
1694.0447548939
 31
0.0
  0
LINE
  5
38E
330
1F
100
AcDbEntity
  8
0
100
AcDbLine
 10
2438.6292535828
 20
1694.0447548939
 30
0.0
 11
2438.6292535828
 21
1687.5447548939
 31
0.0
  0
LINE
  5
38F
330
1F
100
AcDbEntity
  8
0
100
AcDbLine
 10
2466.6292535828
 20
1687.5447548939
 30
0.0
 11
2466.6292535828
 21
1694.0447548939
 31
0.0
  0
LINE
  5
390
330
1F
100
AcDbEntity
  8
0
100
AcDbLine
 10
2438.6292535828
 20
1685.5447548939
 30
0.0
 11
2438.6292535828
 21
1676.5447548939
 31
0.0
  0
LINE
  5
391
330
1F
100
AcDbEntity
  8
0
100
AcDbLine
 10
2466.6292535828
 20
1676.5447548939
 30
0.0
 11
2466.6292535828
 21
1685.5447548939
 31
0.0
  0
LINE
  5
392
330
1F
100
AcDbEntity
  8
0
100
AcDbLine
 10
1884.5523305058
 20
1687.5447548939
 30
0.0
 11
1850.7061766597
 21
1687.5447548939
 31
0.0
  0
LINE
  5
393
330
1F
100
AcDbEntity
  8
0
100
AcDbLine
 10
1884.5523305058
 20
1685.5447548939
 30
0.0
 11
1850.7061766597
 21
1685.5447548939
 31
0.0
  0
LINE
  5
394
330
1F
100
AcDbEntity
  8
0
100
AcDbLine
 10
1885.1292535828
 20
1687.5447548939
 30
0.0
 11
1885.1292535828
 21
1685.5447548939
 31
0.0
  0
LINE
  5
395
330
1F
100
AcDbEntity
  8
0
100
AcDbLine
 10
1885.1292535828
 20
1685.5447548939
 30
0.0
 11
1884.5523305058
 21
1685.5447548939
 31
0.0
  0
LINE
  5
396
330
1F
100
AcDbEntity
  8
0
100
AcDbLine
 10
1885.1292535828
 20
1687.5447548939
 30
0.0
 11
1884.5523305058
 21
1687.5447548939
 31
0.0
  0
LINE
  5
397
330
1F
100
AcDbEntity
  8
0
100
AcDbLine
 10
1850.1292535828
 20
1687.5447548939
 30
0.0
 11
1850.1292535828
 21
1685.5447548939
 31
0.0
  0
LINE
  5
398
330
1F
100
AcDbEntity
  8
0
100
AcDbLine
 10
1850.7061766597
 20
1685.5447548939
 30
0.0
 11
1850.1292535828
 21
1685.5447548939
 31
0.0
  0
LINE
  5
399
330
1F
100
AcDbEntity
  8
0
100
AcDbLine
 10
1850.7061766597
 20
1687.5447548939
 30
0.0
 11
1850.1292535828
 21
1687.5447548939
 31
0.0
  0
LINE
  5
39A
330
1F
100
AcDbEntity
  8
0
100
AcDbLine
 10
1850.1292535828
 20
1685.5447548939
 30
0.0
 11
1850.1292535828
 21
1683.5447548939
 31
0.0
  0
LINE
  5
39B
330
1F
100
AcDbEntity
  8
0
100
AcDbLine
 10
1885.1292535828
 20
1685.5447548939
 30
0.0
 11
1885.1292535828
 21
1683.5447548939
 31
0.0
  0
ARC
  5
39C
330
1F
100
AcDbEntity
  8
0
100
AcDbCircle
 10
1867.6292535828
 20
1659.5447548939
 30
0.0
 40
39.99999999999986
100
AcDbArc
 50
244.0555202276
 51
295.9444797724
  0
LINE
  5
39D
330
1F
100
AcDbEntity
  8
0
100
AcDbLine
 10
1850.1292535828
 20
1683.5447548939
 30
0.0
 11
1850.1292535828
 21
1623.5760184691
 31
0.0
  0
LINE
  5
3A5
330
1F
100
AcDbEntity
  8
0
100
AcDbLine
 10
1885.1292535828
 20
1683.5447548939
 30
0.0
 11
1885.1292535828
 21
1623.5760184691
 31
0.0
  0
LINE
  5
3A8
330
1F
100
AcDbEntity
  8
0
100
AcDbLine
 10
2469.5523305058
 20
1685.5447548939
 30
0.0
 11
2435.7061766597
 21
1685.5447548939
 31
0.0
  0
LINE
  5
3A9
330
1F
100
AcDbEntity
  8
0
100
AcDbLine
 10
2469.5523305058
 20
1687.5447548939
 30
0.0
 11
2435.7061766597
 21
1687.5447548939
 31
0.0
  0
LINE
  5
3AA
330
1F
100
AcDbEntity
  8
0
100
AcDbLine
 10
2470.1292535828
 20
1687.5447548939
 30
0.0
 11
2470.1292535828
 21
1685.5447548939
 31
0.0
  0
LINE
  5
3AB
330
1F
100
AcDbEntity
  8
0
100
AcDbLine
 10
2470.1292535828
 20
1685.5447548939
 30
0.0
 11
2469.5523305058
 21
1685.5447548939
 31
0.0
  0
LINE
  5
3AC
330
1F
100
AcDbEntity
  8
0
100
AcDbLine
 10
2470.1292535828
 20
1687.5447548939
 30
0.0
 11
2469.5523305058
 21
1687.5447548939
 31
0.0
  0
LINE
  5
3AD
330
1F
100
AcDbEntity
  8
0
100
AcDbLine
 10
2435.1292535828
 20
1687.5447548939
 30
0.0
 11
2435.1292535828
 21
1685.5447548939
 31
0.0
  0
LINE
  5
3AE
330
1F
100
AcDbEntity
  8
0
100
AcDbLine
 10
2435.7061766597
 20
1685.5447548939
 30
0.0
 11
2435.1292535828
 21
1685.5447548939
 31
0.0
  0
LINE
  5
3AF
330
1F
100
AcDbEntity
  8
0
100
AcDbLine
 10
2435.7061766597
 20
1687.5447548939
 30
0.0
 11
2435.1292535828
 21
1687.5447548939
 31
0.0
  0
LINE
  5
3B0
330
1F
100
AcDbEntity
  8
0
100
AcDbLine
 10
2470.1292535828
 20
1685.5447548939
 30
0.0
 11
2470.1292535828
 21
1683.5447548939
 31
0.0
  0
LINE
  5
3B1
330
1F
100
AcDbEntity
  8
0
100
AcDbLine
 10
2435.1292535828
 20
1685.5447548939
 30
0.0
 11
2435.1292535828
 21
1683.5447548939
 31
0.0
  0
LINE
  5
3B2
330
1F
100
AcDbEntity
  8
0
100
AcDbLine
 10
2470.1292535828
 20
1683.5447548939
 30
0.0
 11
2470.1292535828
 21
1623.5760184691
 31
0.0
  0
ARC
  5
3B3
330
1F
100
AcDbEntity
  8
0
100
AcDbCircle
 10
2452.6292535828
 20
1659.5447548939
 30
0.0
 40
40.00000000000007
100
AcDbArc
 50
244.0555202276
 51
295.9444797724
  0
LINE
  5
3BA
330
1F
100
AcDbEntity
  8
0
100
AcDbLine
 10
2435.1292535828
 20
1683.5447548939
 30
0.0
 11
2435.1292535828
 21
1623.5760184691
 31
0.0
  0
LINE
  5
3BE
330
1F
100
AcDbEntity
  8
0
100
AcDbLine
 10
1881.6292535828
 20
1694.0447548939
 30
0.0
 11
1853.6292535828
 21
1694.0447548939
 31
0.0
  0
LINE
  5
3BF
330
1F
100
AcDbEntity
  8
0
100
AcDbLine
 10
1854.1292535828
 20
1694.5447548939
 30
0.0
 11
1881.1292535828
 21
1694.5447548939
 31
0.0
  0
LINE
  5
3C0
330
1F
100
AcDbEntity
  8
0
100
AcDbLine
 10
1881.6292535828
 20
1676.5447548939
 30
0.0
 11
1853.6292535828
 21
1676.5447548939
 31
0.0
  0
LINE
  5
3C1
330
1F
100
AcDbEntity
  8
0
100
AcDbLine
 10
2466.6292535828
 20
1694.0447548939
 30
0.0
 11
2438.6292535828
 21
1694.0447548939
 31
0.0
  0
LINE
  5
3C2
330
1F
100
AcDbEntity
  8
0
100
AcDbLine
 10
2439.1292535828
 20
1694.5447548939
 30
0.0
 11
2466.1292535828
 21
1694.5447548939
 31
0.0
  0
LINE
  5
3C3
330
1F
100
AcDbEntity
  8
0
100
AcDbLine
 10
2466.6292535828
 20
1676.5447548939
 30
0.0
 11
2438.6292535828
 21
1676.5447548939
 31
0.0
  0
LINE
  5
3C4
330
1F
100
AcDbEntity
  8
0
100
AcDbLine
 10
2560.1292535828
 20
1687.044754894
 30
0.0
 11
2559.1292535828
 21
1687.044754894
 31
0.0
  0
LINE
  5
3C5
330
1F
100
AcDbEntity
  8
0
100
AcDbLine
 10
2559.1292535828
 20
1239.444754894
 30
0.0
 11
2560.1292535828
 21
1239.444754894
 31
0.0
  0
LINE
  5
3C6
330
1F
100
AcDbEntity
  8
0
100
AcDbLine
 10
2559.1292535828
 20
1687.044754894
 30
0.0
 11
2559.1292535828
 21
1239.444754894
 31
0.0
  0
LINE
  5
3C7
330
1F
100
AcDbEntity
  8
0
100
AcDbLine
 10
2560.1292535828
 20
1687.044754894
 30
0.0
 11
2560.1292535828
 21
1239.444754894
 31
0.0
  0
LINE
  5
3C8
330
1F
100
AcDbEntity
  8
0
100
AcDbLine
 10
2559.1292535828
 20
1689.044754894
 30
0.0
 11
2560.1292535828
 21
1689.044754894
 31
0.0
  0
LINE
  5
3C9
330
1F
100
AcDbEntity
  8
0
100
AcDbLine
 10
2559.1292535828
 20
1687.044754894
 30
0.0
 11
2559.1292535828
 21
1689.044754894
 31
0.0
  0
LINE
  5
3CA
330
1F
100
AcDbEntity
  8
0
100
AcDbLine
 10
2560.1292535828
 20
1689.044754894
 30
0.0
 11
2560.1292535828
 21
1687.044754894
 31
0.0
  0
LINE
  5
3CB
330
1F
100
AcDbEntity
  8
0
100
AcDbLine
 10
2560.1292535828
 20
1237.444754894
 30
0.0
 11
2559.1292535828
 21
1237.444754894
 31
0.0
  0
LINE
  5
3CC
330
1F
100
AcDbEntity
  8
0
100
AcDbLine
 10
2559.1292535828
 20
1237.444754894
 30
0.0
 11
2559.1292535828
 21
1239.444754894
 31
0.0
  0
LINE
  5
3CD
330
1F
100
AcDbEntity
  8
0
100
AcDbLine
 10
2560.1292535828
 20
1239.444754894
 30
0.0
 11
2560.1292535828
 21
1237.444754894
 31
0.0
  0
LINE
  5
3CE
330
1F
100
AcDbEntity
  8
0
100
AcDbLine
 10
1760.1292535828
 20
1239.4447548939
 30
0.0
 11
1761.1292535828
 21
1239.4447548939
 31
0.0
  0
LINE
  5
3CF
330
1F
100
AcDbEntity
  8
0
100
AcDbLine
 10
1760.1292535828
 20
1239.4447548939
 30
0.0
 11
1760.1292535828
 21
1687.0447548939
 31
0.0
  0
LINE
  5
3D0
330
1F
100
AcDbEntity
  8
0
100
AcDbLine
 10
1761.1292535828
 20
1687.0447548939
 30
0.0
 11
1760.1292535828
 21
1687.0447548939
 31
0.0
  0
LINE
  5
3D1
330
1F
100
AcDbEntity
  8
0
100
AcDbLine
 10
1761.1292535828
 20
1239.4447548939
 30
0.0
 11
1761.1292535828
 21
1687.0447548939
 31
0.0
  0
LINE
  5
3D2
330
1F
100
AcDbEntity
  8
0
100
AcDbLine
 10
1760.1292535828
 20
1689.0447548939
 30
0.0
 11
1761.1292535828
 21
1689.0447548939
 31
0.0
  0
LINE
  5
3D3
330
1F
100
AcDbEntity
  8
0
100
AcDbLine
 10
1761.1292535828
 20
1689.0447548939
 30
0.0
 11
1761.1292535828
 21
1687.0447548939
 31
0.0
  0
LINE
  5
3D4
330
1F
100
AcDbEntity
  8
0
100
AcDbLine
 10
1760.1292535828
 20
1687.0447548939
 30
0.0
 11
1760.1292535828
 21
1689.0447548939
 31
0.0
  0
LINE
  5
3D5
330
1F
100
AcDbEntity
  8
0
100
AcDbLine
 10
1761.1292535828
 20
1237.4447548939
 30
0.0
 11
1760.1292535828
 21
1237.4447548939
 31
0.0
  0
LINE
  5
3D6
330
1F
100
AcDbEntity
  8
0
100
AcDbLine
 10
1761.1292535828
 20
1239.4447548939
 30
0.0
 11
1761.1292535828
 21
1237.4447548939
 31
0.0
  0
LINE
  5
3D7
330
1F
100
AcDbEntity
  8
0
100
AcDbLine
 10
1760.1292535828
 20
1237.4447548939
 30
0.0
 11
1760.1292535828
 21
1239.4447548939
 31
0.0
  0
LINE
  5
3D8
330
1F
100
AcDbEntity
  8
0
100
AcDbLine
 10
2607.6292535828
 20
1288.244754894
 30
0.0
 11
2606.1292535828
 21
1288.244754894
 31
0.0
  0
ARC
  5
3D9
330
1F
100
AcDbEntity
  8
0
100
AcDbCircle
 10
2606.1292535828
 20
1293.244754894
 30
0.0
 40
5.000000000000227
100
AcDbArc
 50
180.0
 51
270.0
  0
LINE
  5
3DA
330
1F
100
AcDbEntity
  8
0
100
AcDbLine
 10
2601.1292535828
 20
1293.244754894
 30
0.0
 11
2601.1292535828
 21
1633.244754894
 31
0.0
  0
ARC
  5
3DB
330
1F
100
AcDbEntity
  8
0
100
AcDbCircle
 10
2606.1292535828
 20
1633.244754894
 30
0.0
 40
5.0
100
AcDbArc
 50
90.0
 51
180.0
  0
LINE
  5
3DC
330
1F
100
AcDbEntity
  8
0
100
AcDbLine
 10
2607.6292535828
 20
1638.244754894
 30
0.0
 11
2606.1292535828
 21
1638.244754894
 31
0.0
  0
LINE
  5
3DD
330
1F
100
AcDbEntity
  8
0
100
AcDbLine
 10
2610.1292535828
 20
1288.244754894
 30
0.0
 11
2610.1292535828
 21
1638.244754894
 31
0.0
  0
LINE
  5
3DE
330
1F
100
AcDbEntity
  8
0
100
AcDbLine
 10
2610.1292535828
 20
1288.244754894
 30
0.0
 11
2607.6292535828
 21
1288.244754894
 31
0.0
  0
LINE
  5
3DF
330
1F
100
AcDbEntity
  8
0
100
AcDbLine
 10
2610.1292535828
 20
1638.244754894
 30
0.0
 11
2607.6292535828
 21
1638.244754894
 31
0.0
  0
LINE
  5
3E0
330
1F
100
AcDbEntity
  8
0
100
AcDbLine
 10
1710.1292535828
 20
1638.2447548939
 30
0.0
 11
1710.1292535828
 21
1288.2447548939
 31
0.0
  0
LINE
  5
3E1
330
1F
100
AcDbEntity
  8
0
100
AcDbLine
 10
1710.1292535828
 20
1638.2447548939
 30
0.0
 11
1712.6292535828
 21
1638.2447548939
 31
0.0
  0
LINE
  5
3E2
330
1F
100
AcDbEntity
  8
0
100
AcDbLine
 10
1710.1292535828
 20
1288.2447548939
 30
0.0
 11
1712.6292535828
 21
1288.2447548939
 31
0.0
  0
LINE
  5
3E3
330
1F
100
AcDbEntity
  8
0
100
AcDbLine
 10
1719.1292535828
 20
1633.2447548939
 30
0.0
 11
1719.1292535828
 21
1293.2447548939
 31
0.0
  0
ARC
  5
3E4
330
1F
100
AcDbEntity
  8
0
100
AcDbCircle
 10
1714.1292535828
 20
1293.2447548939
 30
0.0
 40
5.0
100
AcDbArc
 50
270.0
 51
0.0
  0
LINE
  5
3E5
330
1F
100
AcDbEntity
  8
0
100
AcDbLine
 10
1712.6292535828
 20
1288.2447548939
 30
0.0
 11
1714.1292535828
 21
1288.2447548939
 31
0.0
  0
ARC
  5
3E6
330
1F
100
AcDbEntity
  8
0
100
AcDbCircle
 10
1714.1292535828
 20
1633.2447548939
 30
0.0
 40
5.000000000000227
100
AcDbArc
 50
0.0
 51
90.0
  0
LINE
  5
3E7
330
1F
100
AcDbEntity
  8
0
100
AcDbLine
 10
1712.6292535828
 20
1638.2447548939
 30
0.0
 11
1714.1292535828
 21
1638.2447548939
 31
0.0
  0
LINE
  5
3E8
330
1F
100
AcDbEntity
  8
0
100
AcDbLine
 10
1711.6292535828
 20
1270.7447548939
 30
0.0
 11
1710.1292535828
 21
1270.7447548939
 31
0.0
  0
LINE
  5
3E9
330
1F
100
AcDbEntity
  8
0
100
AcDbLine
 10
1710.1292535828
 20
1270.7447548939
 30
0.0
 11
1710.1292535828
 21
1275.7447548939
 31
0.0
  0
LINE
  5
3EA
330
1F
100
AcDbEntity
  8
0
100
AcDbLine
 10
1711.6292535828
 20
1275.7447548939
 30
0.0
 11
1711.6292535828
 21
1270.7447548939
 31
0.0
  0
LINE
  5
3EB
330
1F
100
AcDbEntity
  8
0
100
AcDbLine
 10
1711.6292535828
 20
1287.9447548939
 30
0.0
 11
1710.1292535828
 21
1287.9447548939
 31
0.0
  0
LINE
  5
3EC
330
1F
100
AcDbEntity
  8
0
100
AcDbLine
 10
1710.1292535828
 20
1275.7447548939
 30
0.0
 11
1710.1292535828
 21
1287.9447548939
 31
0.0
  0
LINE
  5
3ED
330
1F
100
AcDbEntity
  8
0
100
AcDbLine
 10
1711.6292535828
 20
1275.7447548939
 30
0.0
 11
1711.6292535828
 21
1287.9447548939
 31
0.0
  0
ARC
  5
3EE
330
1F
100
AcDbEntity
  8
0
100
AcDbCircle
 10
1712.6292535828
 20
1270.7447548939
 30
0.0
 40
2.5
100
AcDbArc
 50
180.0
 51
270.0
  0
ARC
  5
3EF
330
1F
100
AcDbEntity
  8
0
100
AcDbCircle
 10
1712.6292535828
 20
1270.7447548939
 30
0.0
 40
1.000000000000227
100
AcDbArc
 50
180.0
 51
270.0
  0
LINE
  5
3F0
330
1F
100
AcDbEntity
  8
0
100
AcDbLine
 10
1714.1292535828
 20
1269.7447548939
 30
0.0
 11
1719.1292535828
 21
1269.7447548939
 31
0.0
  0
LINE
  5
3F1
330
1F
100
AcDbEntity
  8
0
100
AcDbLine
 10
1719.1292535828
 20
1269.7447548939
 30
0.0
 11
1719.1292535828
 21
1268.2447548939
 31
0.0
  0
LINE
  5
3F2
330
1F
100
AcDbEntity
  8
0
100
AcDbLine
 10
1719.1292535828
 20
1268.2447548939
 30
0.0
 11
1714.1292535828
 21
1268.2447548939
 31
0.0
  0
LINE
  5
3F3
330
1F
100
AcDbEntity
  8
0
100
AcDbLine
 10
1712.6292535828
 20
1268.2447548939
 30
0.0
 11
1714.1292535828
 21
1268.2447548939
 31
0.0
  0
LINE
  5
3F4
330
1F
100
AcDbEntity
  8
0
100
AcDbLine
 10
1712.6292535828
 20
1269.7447548939
 30
0.0
 11
1714.1292535828
 21
1269.7447548939
 31
0.0
  0
LINE
  5
3F9
330
1F
100
AcDbEntity
  8
0
100
AcDbLine
 10
1712.6292535828
 20
1286.7447548939
 30
0.0
 11
1712.6292535828
 21
1288.2447548939
 31
0.0
  0
LINE
  5
3FA
330
1F
100
AcDbEntity
  8
0
100
AcDbLine
 10
1760.1292535828
 20
1286.7447548939
 30
0.0
 11
1712.6292535828
 21
1286.7447548939
 31
0.0
  0
ARC
  5
3FB
330
1F
100
AcDbEntity
  8
0
100
AcDbCircle
 10
1712.6292535828
 20
1285.7447548939
 30
0.0
 40
2.499999999999987
100
AcDbArc
 50
90.0
 51
118.3576365761
  0
ARC
  5
3FC
330
1F
100
AcDbEntity
  8
0
100
AcDbCircle
 10
1712.6292535828
 20
1285.7447548939
 30
0.0
 40
1.000000000000227
100
AcDbArc
 50
90.0
 51
180.0
  0
LINE
  5
3FD
330
1F
100
AcDbEntity
  8
0
100
AcDbLine
 10
1711.6292535828
 20
1655.7447548939
 30
0.0
 11
1710.1292535828
 21
1655.7447548939
 31
0.0
  0
LINE
  5
3FE
330
1F
100
AcDbEntity
  8
0
100
AcDbLine
 10
1710.1292535828
 20
1650.7447548939
 30
0.0
 11
1710.1292535828
 21
1655.7447548939
 31
0.0
  0
LINE
  5
3FF
330
1F
100
AcDbEntity
  8
0
100
AcDbLine
 10
1711.6292535828
 20
1655.7447548939
 30
0.0
 11
1711.6292535828
 21
1650.7447548939
 31
0.0
  0
LINE
  5
400
330
1F
100
AcDbEntity
  8
0
100
AcDbLine
 10
1711.6292535828
 20
1638.5447548939
 30
0.0
 11
1710.1292535828
 21
1638.5447548939
 31
0.0
  0
LINE
  5
401
330
1F
100
AcDbEntity
  8
0
100
AcDbLine
 10
1710.1292535828
 20
1638.5447548939
 30
0.0
 11
1710.1292535828
 21
1650.7447548939
 31
0.0
  0
LINE
  5
402
330
1F
100
AcDbEntity
  8
0
100
AcDbLine
 10
1711.6292535828
 20
1638.5447548939
 30
0.0
 11
1711.6292535828
 21
1650.7447548939
 31
0.0
  0
ARC
  5
403
330
1F
100
AcDbEntity
  8
0
100
AcDbCircle
 10
1712.6292535828
 20
1655.7447548939
 30
0.0
 40
2.5
100
AcDbArc
 50
90.0
 51
180.0
  0
ARC
  5
404
330
1F
100
AcDbEntity
  8
0
100
AcDbCircle
 10
1712.6292535828
 20
1655.7447548939
 30
0.0
 40
1.000000000000227
100
AcDbArc
 50
90.0
 51
180.0
  0
LINE
  5
405
330
1F
100
AcDbEntity
  8
0
100
AcDbLine
 10
1719.1292535828
 20
1658.2447548939
 30
0.0
 11
1719.1292535828
 21
1656.7447548939
 31
0.0
  0
LINE
  5
406
330
1F
100
AcDbEntity
  8
0
100
AcDbLine
 10
1719.1292535828
 20
1656.7447548939
 30
0.0
 11
1714.1292535828
 21
1656.7447548939
 31
0.0
  0
LINE
  5
407
330
1F
100
AcDbEntity
  8
0
100
AcDbLine
 10
1714.1292535828
 20
1658.2447548939
 30
0.0
 11
1719.1292535828
 21
1658.2447548939
 31
0.0
  0
LINE
  5
408
330
1F
100
AcDbEntity
  8
0
100
AcDbLine
 10
1714.1292535828
 20
1658.2447548939
 30
0.0
 11
1712.6292535828
 21
1658.2447548939
 31
0.0
  0
LINE
  5
409
330
1F
100
AcDbEntity
  8
0
100
AcDbLine
 10
1714.1292535828
 20
1656.7447548939
 30
0.0
 11
1712.6292535828
 21
1656.7447548939
 31
0.0
  0
LINE
  5
40E
330
1F
100
AcDbEntity
  8
0
100
AcDbLine
 10
1760.1292535828
 20
1639.7447548939
 30
0.0
 11
1712.6292535828
 21
1639.7447548939
 31
0.0
  0
LINE
  5
40F
330
1F
100
AcDbEntity
  8
0
100
AcDbLine
 10
1712.6292535828
 20
1638.2447548939
 30
0.0
 11
1712.6292535828
 21
1639.7447548939
 31
0.0
  0
ARC
  5
410
330
1F
100
AcDbEntity
  8
0
100
AcDbCircle
 10
1712.6292535828
 20
1640.7447548939
 30
0.0
 40
2.500000000000026
100
AcDbArc
 50
241.6423634237
 51
270.0
  0
ARC
  5
411
330
1F
100
AcDbEntity
  8
0
100
AcDbCircle
 10
1712.6292535828
 20
1640.7447548939
 30
0.0
 40
1.0
100
AcDbArc
 50
180.0
 51
270.0
  0
LINE
  5
412
330
1F
100
AcDbEntity
  8
0
100
AcDbLine
 10
2608.6292535828
 20
1655.744754894
 30
0.0
 11
2610.1292535828
 21
1655.744754894
 31
0.0
  0
LINE
  5
413
330
1F
100
AcDbEntity
  8
0
100
AcDbLine
 10
2610.1292535828
 20
1655.744754894
 30
0.0
 11
2610.1292535828
 21
1650.744754894
 31
0.0
  0
LINE
  5
414
330
1F
100
AcDbEntity
  8
0
100
AcDbLine
 10
2608.6292535828
 20
1650.744754894
 30
0.0
 11
2608.6292535828
 21
1655.744754894
 31
0.0
  0
LINE
  5
415
330
1F
100
AcDbEntity
  8
0
100
AcDbLine
 10
2608.6292535828
 20
1638.544754894
 30
0.0
 11
2610.1292535828
 21
1638.544754894
 31
0.0
  0
LINE
  5
416
330
1F
100
AcDbEntity
  8
0
100
AcDbLine
 10
2610.1292535828
 20
1650.744754894
 30
0.0
 11
2610.1292535828
 21
1638.544754894
 31
0.0
  0
LINE
  5
417
330
1F
100
AcDbEntity
  8
0
100
AcDbLine
 10
2608.6292535828
 20
1650.744754894
 30
0.0
 11
2608.6292535828
 21
1638.544754894
 31
0.0
  0
ARC
  5
418
330
1F
100
AcDbEntity
  8
0
100
AcDbCircle
 10
2607.6292535828
 20
1655.744754894
 30
0.0
 40
1.0
100
AcDbArc
 50
0.0
 51
90.0
  0
ARC
  5
419
330
1F
100
AcDbEntity
  8
0
100
AcDbCircle
 10
2607.6292535828
 20
1655.744754894
 30
0.0
 40
2.5
100
AcDbArc
 50
0.0
 51
90.0
  0
LINE
  5
41A
330
1F
100
AcDbEntity
  8
0
100
AcDbLine
 10
2606.1292535828
 20
1656.744754894
 30
0.0
 11
2601.1292535828
 21
1656.744754894
 31
0.0
  0
LINE
  5
41B
330
1F
100
AcDbEntity
  8
0
100
AcDbLine
 10
2601.1292535828
 20
1656.744754894
 30
0.0
 11
2601.1292535828
 21
1658.244754894
 31
0.0
  0
LINE
  5
41C
330
1F
100
AcDbEntity
  8
0
100
AcDbLine
 10
2601.1292535828
 20
1658.244754894
 30
0.0
 11
2606.1292535828
 21
1658.244754894
 31
0.0
  0
LINE
  5
41D
330
1F
100
AcDbEntity
  8
0
100
AcDbLine
 10
2607.6292535828
 20
1656.744754894
 30
0.0
 11
2606.1292535828
 21
1656.744754894
 31
0.0
  0
LINE
  5
41E
330
1F
100
AcDbEntity
  8
0
100
AcDbLine
 10
2607.6292535828
 20
1658.244754894
 30
0.0
 11
2606.1292535828
 21
1658.244754894
 31
0.0
  0
LINE
  5
423
330
1F
100
AcDbEntity
  8
0
100
AcDbLine
 10
2607.6292535828
 20
1639.744754894
 30
0.0
 11
2607.6292535828
 21
1638.244754894
 31
0.0
  0
LINE
  5
424
330
1F
100
AcDbEntity
  8
0
100
AcDbLine
 10
2560.1292535828
 20
1639.744754894
 30
0.0
 11
2607.6292535828
 21
1639.744754894
 31
0.0
  0
ARC
  5
425
330
1F
100
AcDbEntity
  8
0
100
AcDbCircle
 10
2607.6292535828
 20
1640.744754894
 30
0.0
 40
2.499999999999921
100
AcDbArc
 50
270.0
 51
298.3576365763
  0
ARC
  5
426
330
1F
100
AcDbEntity
  8
0
100
AcDbCircle
 10
2607.6292535828
 20
1640.744754894
 30
0.0
 40
1.000000000000455
100
AcDbArc
 50
270.0
 51
0.0
  0
LINE
  5
427
330
1F
100
AcDbEntity
  8
0
100
AcDbLine
 10
2608.6292535828
 20
1270.7447548939
 30
0.0
 11
2610.1292535828
 21
1270.7447548939
 31
0.0
  0
LINE
  5
428
330
1F
100
AcDbEntity
  8
0
100
AcDbLine
 10
2608.6292535828
 20
1270.7447548939
 30
0.0
 11
2608.6292535828
 21
1275.7447548939
 31
0.0
  0
LINE
  5
429
330
1F
100
AcDbEntity
  8
0
100
AcDbLine
 10
2610.1292535828
 20
1275.7447548939
 30
0.0
 11
2610.1292535828
 21
1270.7447548939
 31
0.0
  0
LINE
  5
42A
330
1F
100
AcDbEntity
  8
0
100
AcDbLine
 10
2608.6292535828
 20
1287.9447548939
 30
0.0
 11
2610.1292535828
 21
1287.9447548939
 31
0.0
  0
LINE
  5
42B
330
1F
100
AcDbEntity
  8
0
100
AcDbLine
 10
2608.6292535828
 20
1287.9447548939
 30
0.0
 11
2608.6292535828
 21
1275.7447548939
 31
0.0
  0
LINE
  5
42C
330
1F
100
AcDbEntity
  8
0
100
AcDbLine
 10
2610.1292535828
 20
1287.9447548939
 30
0.0
 11
2610.1292535828
 21
1275.7447548939
 31
0.0
  0
ARC
  5
42D
330
1F
100
AcDbEntity
  8
0
100
AcDbCircle
 10
2607.6292535828
 20
1270.7447548939
 30
0.0
 40
2.5
100
AcDbArc
 50
270.0
 51
0.0
  0
ARC
  5
42E
330
1F
100
AcDbEntity
  8
0
100
AcDbCircle
 10
2607.6292535828
 20
1270.7447548939
 30
0.0
 40
1.0
100
AcDbArc
 50
270.0
 51
0.0
  0
LINE
  5
42F
330
1F
100
AcDbEntity
  8
0
100
AcDbLine
 10
2601.1292535828
 20
1268.2447548939
 30
0.0
 11
2601.1292535828
 21
1269.7447548939
 31
0.0
  0
LINE
  5
430
330
1F
100
AcDbEntity
  8
0
100
AcDbLine
 10
2606.1292535828
 20
1268.2447548939
 30
0.0
 11
2601.1292535828
 21
1268.2447548939
 31
0.0
  0
LINE
  5
431
330
1F
100
AcDbEntity
  8
0
100
AcDbLine
 10
2601.1292535828
 20
1269.7447548939
 30
0.0
 11
2606.1292535828
 21
1269.7447548939
 31
0.0
  0
LINE
  5
432
330
1F
100
AcDbEntity
  8
0
100
AcDbLine
 10
2606.1292535828
 20
1268.2447548939
 30
0.0
 11
2607.6292535828
 21
1268.2447548939
 31
0.0
  0
LINE
  5
433
330
1F
100
AcDbEntity
  8
0
100
AcDbLine
 10
2606.1292535828
 20
1269.7447548939
 30
0.0
 11
2607.6292535828
 21
1269.7447548939
 31
0.0
  0
LINE
  5
438
330
1F
100
AcDbEntity
  8
0
100
AcDbLine
 10
2607.6292535828
 20
1288.244754894
 30
0.0
 11
2607.6292535828
 21
1286.7447548939
 31
0.0
  0
LINE
  5
439
330
1F
100
AcDbEntity
  8
0
100
AcDbLine
 10
2560.1292535828
 20
1286.7447548939
 30
0.0
 11
2607.6292535828
 21
1286.7447548939
 31
0.0
  0
ARC
  5
43A
330
1F
100
AcDbEntity
  8
0
100
AcDbCircle
 10
2607.6292535828
 20
1285.7447548939
 30
0.0
 40
2.5
100
AcDbArc
 50
61.6423634237
 51
90.0
  0
ARC
  5
43B
330
1F
100
AcDbEntity
  8
0
100
AcDbCircle
 10
2607.6292535828
 20
1285.7447548939
 30
0.0
 40
1.0
100
AcDbArc
 50
0.0
 51
90.0
  0
LINE
  5
43C
330
1F
100
AcDbEntity
  8
0
100
AcDbLine
 10
1763.1292535828
 20
1689.0447548939
 30
0.0
 11
1853.6292535828
 21
1689.0447548939
 31
0.0
  0
LINE
  5
43D
330
1F
100
AcDbEntity
  8
0
100
AcDbLine
 10
1881.6292535828
 20
1689.0447548939
 30
0.0
 11
2438.6292535828
 21
1689.0447548939
 31
0.0
  0
LINE
  5
43E
330
1F
100
AcDbEntity
  8
0
100
AcDbLine
 10
2466.6292535828
 20
1689.0447548939
 30
0.0
 11
2557.1292535828
 21
1689.0447548939
 31
0.0
  0
LINE
  5
43F
330
1F
100
AcDbEntity
  8
0
100
AcDbLine
 10
2557.1292535828
 20
1237.4447548939
 30
0.0
 11
1763.1292535828
 21
1237.4447548939
 31
0.0
  0
LINE
  5
452
330
1F
100
AcDbEntity
  8
0
100
AcDbLine
 10
1763.1292535828
 20
1237.4447548939
 30
0.0
 11
1761.1292535828
 21
1237.4447548939
 31
0.0
  0
LINE
  5
453
330
1F
100
AcDbEntity
  8
0
100
AcDbLine
 10
1761.1292535828
 20
1689.0447548939
 30
0.0
 11
1763.1292535828
 21
1689.0447548939
 31
0.0
  0
LINE
  5
454
330
1F
100
AcDbEntity
  8
0
100
AcDbLine
 10
2557.1292535828
 20
1689.0447548939
 30
0.0
 11
2559.1292535828
 21
1689.0447548939
 31
0.0
  0
LINE
  5
455
330
1F
100
AcDbEntity
  8
0
100
AcDbLine
 10
2559.1292535828
 20
1237.4447548939
 30
0.0
 11
2557.1292535828
 21
1237.4447548939
 31
0.0
  0
ENDSEC
  0
SECTION
  2
OBJECTS
  0
DICTIONARY
  5
C
330
0
100
AcDbDictionary
281
     1
  3
ACAD_DETAILVIEWSTYLE
350
484
  3
ACAD_GROUP
350
D
  3
ACAD_LAYOUT
350
1A
  3
ACAD_MATERIAL
350
470
  3
ACAD_MLEADERSTYLE
350
476
  3
ACAD_MLINESTYLE
350
17
  3
ACAD_PLOTSETTINGS
350
19
  3
ACAD_PLOTSTYLENAME
350
E
  3
ACAD_SCALELIST
350
47
  3
ACAD_SECTIONVIEWSTYLE
350
485
  3
ACAD_TABLESTYLE
350
474
  3
ACAD_VISUALSTYLE
350
457
  3
ACDB_RECOMPOSE_DATA
350
489
  3
AcDbVariableDictionary
350
47B
  3
APPDATA
350
478
  0
DICTIONARY
  5
479
330
1F
100
AcDbDictionary
280
     1
281
     1
  3
DIM_BOUNDING_BOXES_V1
360
47A
  0
DICTIONARY
  5
484
102
{ACAD_REACTORS
330
C
102
}
330
C
100
AcDbDictionary
281
     1
  0
DICTIONARY
  5
D
102
{ACAD_REACTORS
330
C
102
}
330
C
100
AcDbDictionary
281
     1
  0
DICTIONARY
  5
1A
102
{ACAD_REACTORS
330
C
102
}
330
C
100
AcDbDictionary
281
     1
  3
Layout1
350
1E
  3
Layout2
350
26
  3
Model
350
22
  0
DICTIONARY
  5
470
102
{ACAD_REACTORS
330
C
102
}
330
C
100
AcDbDictionary
281
     1
  3
ByBlock
350
472
  3
ByLayer
350
471
  3
Global
350
473
  0
DICTIONARY
  5
476
102
{ACAD_REACTORS
330
C
102
}
330
C
100
AcDbDictionary
281
     1
  3
Standard
350
477
  0
DICTIONARY
  5
17
102
{ACAD_REACTORS
330
C
102
}
330
C
100
AcDbDictionary
281
     1
  3
Standard
350
18
  0
DICTIONARY
  5
19
102
{ACAD_REACTORS
330
C
102
}
330
C
100
AcDbDictionary
281
     1
  0
ACDBDICTIONARYWDFLT
  5
E
102
{ACAD_REACTORS
330
C
102
}
330
C
100
AcDbDictionary
281
     1
  3
Normal
350
F
100
AcDbDictionaryWithDefault
340
F
  0
DICTIONARY
  5
47
102
{ACAD_REACTORS
330
C
102
}
330
C
100
AcDbDictionary
281
     1
  3
A0
350
48
  3
A1
350
49
  3
A2
350
4A
  3
A3
350
4B
  3
A4
350
4C
  3
A5
350
4D
  3
A6
350
4E
  3
A7
350
4F
  3
A8
350
50
  3
A9
350
51
  3
B0
350
52
  3
B1
350
53
  3
B2
350
54
  3
B3
350
55
  3
B4
350
56
  3
B5
350
57
  3
B6
350
58
  3
B7
350
59
  3
B8
350
5A
  3
B9
350
5B
  3
C0
350
5C
  3
C1
350
5D
  3
C2
350
5E
  3
C3
350
5F
  3
C4
350
60
  3
C5
350
61
  3
C6
350
62
  3
C7
350
63
  3
C8
350
64
  3
C9
350
65
  3
D0
350
66
  3
D1
350
67
  3
D2
350
68
  0
DICTIONARY
  5
485
102
{ACAD_REACTORS
330
C
102
}
330
C
100
AcDbDictionary
281
     1
  0
DICTIONARY
  5
474
102
{ACAD_REACTORS
330
C
102
}
330
C
100
AcDbDictionary
281
     1
  3
Standard
350
475
  0
DICTIONARY
  5
457
102
{ACAD_REACTORS
330
C
102
}
330
C
100
AcDbDictionary
281
     1
  3
2dWireframe
350
45C
  3
Basic
350
45F
  3
Brighten
350
463
  3
ColorChange
350
467
  3
Conceptual
350
461
  3
Dim
350
462
  3
EdgeColorOff
350
46A
  3
Facepattern
350
466
  3
Flat
350
458
  3
FlatWithEdges
350
459
  3
Gouraud
350
45A
  3
GouraudWithEdges
350
45B
  3
Hidden
350
45E
  3
JitterOff
350
468
  3
Linepattern
350
465
  3
OverhangOff
350
469
  3
Realistic
350
460
  3
Shaded
350
46F
  3
Shaded with edges
350
46E
  3
Shades of Gray
350
46B
  3
Sketchy
350
46C
  3
Thicken
350
464
  3
Wireframe
350
45D
  3
X-Ray
350
46D
  0
XRECORD
  5
489
102
{ACAD_REACTORS
330
C
102
}
330
C
100
AcDbXrecord
280
     1
 90
        1
330
475
  0
DICTIONARY
  5
47B
102
{ACAD_REACTORS
330
C
102
}
330
C
100
AcDbDictionary
281
     1
  3
CANNOSCALE
350
47C
  3
CMLEADERSTYLE
350
482
  3
CTABLESTYLE
350
481
  3
MSLTSCALE
350
483
  0
DICTIONARY
  5
478
102
{ACAD_REACTORS
330
C
102
}
330
C
100
AcDbDictionary
281
     1
  0
DICTIONARY
  5
47A
102
{ACAD_REACTORS
330
479
102
}
330
479
100
AcDbDictionary
281
     1
  0
LAYOUT
  5
1E
102
{ACAD_REACTORS
330
1A
102
}
330
1A
100
AcDbPlotSettings
  1

  2
none_device
  4

  6

 40
0.0
 41
0.0
 42
0.0
 43
0.0
 44
0.0
 45
0.0
 46
0.0
 47
0.0
 48
0.0
 49
0.0
140
0.0
141
0.0
142
1.0
143
1.0
 70
   688
 72
     1
 73
     0
 74
     5
  7

 75
    16
 76
     0
 77
     2
 78
   300
147
1.0
148
0.0
149
0.0
100
AcDbLayout
  1
Layout1
 70
     1
 71
     1
 10
0.0
 20
0.0
 11
420.0
 21
297.0
 12
0.0
 22
0.0
 32
0.0
 14
1.000000000000000E+20
 24
1.000000000000000E+20
 34
1.000000000000000E+20
 15
-1.000000000000000E+20
 25
-1.000000000000000E+20
 35
-1.000000000000000E+20
146
0.0
 13
0.0
 23
0.0
 33
0.0
 16
1.0
 26
0.0
 36
0.0
 17
0.0
 27
1.0
 37
0.0
 76
     0
330
1B
  0
LAYOUT
  5
26
102
{ACAD_REACTORS
330
1A
102
}
330
1A
100
AcDbPlotSettings
  1

  2
none_device
  4

  6

 40
0.0
 41
0.0
 42
0.0
 43
0.0
 44
0.0
 45
0.0
 46
0.0
 47
0.0
 48
0.0
 49
0.0
140
0.0
141
0.0
142
1.0
143
1.0
 70
   688
 72
     1
 73
     0
 74
     5
  7

 75
    16
 76
     0
 77
     2
 78
   300
147
1.0
148
0.0
149
0.0
100
AcDbLayout
  1
Layout2
 70
     1
 71
     2
 10
0.0
 20
0.0
 11
0.0
 21
0.0
 12
0.0
 22
0.0
 32
0.0
 14
0.0
 24
0.0
 34
0.0
 15
0.0
 25
0.0
 35
0.0
146
0.0
 13
0.0
 23
0.0
 33
0.0
 16
1.0
 26
0.0
 36
0.0
 17
0.0
 27
1.0
 37
0.0
 76
     0
330
23
  0
LAYOUT
  5
22
102
{ACAD_REACTORS
330
1A
102
}
330
1A
100
AcDbPlotSettings
  1

  2
none_device
  4
Letter_(8.50_x_11.00_Inches)
  6

 40
6.35
 41
6.35
 42
6.35000508
 43
6.35000508
 44
215.9
 45
279.4
 46
0.0
 47
0.0
 48
0.0
 49
0.0
140
0.0
141
0.0
142
1.0
143
1.0
 70
  1712
 72
     1
 73
     0
 74
     0
  7

 75
     0
 76
     0
 77
     2
 78
   300
147
1.0
148
0.0
149
0.0
100
AcDbLayout
  1
Model
 70
     1
 71
     0
 10
0.0
 20
0.0
 11
420.0
 21
297.0
 12
0.0
 22
0.0
 32
0.0
 14
-995.2101938137998
 24
76.8171364795
 34
0.0
 15
2610.1292535828
 25
1694.5447548939
 35
0.0
146
0.0
 13
0.0
 23
0.0
 33
0.0
 16
1.0
 26
0.0
 36
0.0
 17
0.0
 27
1.0
 37
0.0
 76
     0
330
1F
331
29
  0
MATERIAL
  5
472
102
{ACAD_REACTORS
330
470
102
}
330
470
100
AcDbMaterial
  1
ByBlock
 72
     1
 94
      127
  0
MATERIAL
  5
471
102
{ACAD_REACTORS
330
470
102
}
330
470
100
AcDbMaterial
  1
ByLayer
 72
     1
 94
      127
  0
MATERIAL
  5
473
102
{ACAD_REACTORS
330
470
102
}
330
470
100
AcDbMaterial
  1
Global
 72
     1
 94
      127
  0
MLEADERSTYLE
  5
477
102
{ACAD_REACTORS
330
476
102
}
330
476
100
AcDbMLeaderStyle
170
     2
171
     1
172
     0
 90
        2
 40
0.0
 41
0.0
173
     1
 91
-1056964608
340
14
 92
       -2
290
     1
 42
2.0
291
     1
 43
8.0
  3
Standard
341
0
 44
4.0
300

342
11
174
     1
178
     1
175
     1
176
     0
 93
-1056964608
 45
4.0
292
     0
297
     0
 46
4.0
343
0
 94
-1056964608
 47
1.0
 49
1.0
140
1.0
293
     1
141
0.0
294
     1
177
     0
142
1.0
295
     0
296
     0
143
3.75
1001
ACAD_MLEADERVER
1070
     2
  0
MLINESTYLE
  5
18
102
{ACAD_REACTORS
330
17
102
}
330
17
100
AcDbMlineStyle
  2
Standard
 70
     0
  3

 62
   256
 51
90.0
 52
90.0
 71
     2
 49
0.5
 62
   256
  6
BYLAYER
 49
-0.5
 62
   256
  6
BYLAYER
  0
ACDBPLACEHOLDER
  5
F
102
{ACAD_REACTORS
330
E
102
}
330
E
  0
SCALE
  5
48
102
{ACAD_REACTORS
330
47
102
}
330
47
100
AcDbScale
 70
     0
300
1:1
140
1.0
141
1.0
290
     1
  0
SCALE
  5
49
102
{ACAD_REACTORS
330
47
102
}
330
47
100
AcDbScale
 70
     0
300
1:2
140
1.0
141
2.0
290
     0
  0
SCALE
  5
4A
102
{ACAD_REACTORS
330
47
102
}
330
47
100
AcDbScale
 70
     0
300
1:4
140
1.0
141
4.0
290
     0
  0
SCALE
  5
4B
102
{ACAD_REACTORS
330
47
102
}
330
47
100
AcDbScale
 70
     0
300
1:5
140
1.0
141
5.0
290
     0
  0
SCALE
  5
4C
102
{ACAD_REACTORS
330
47
102
}
330
47
100
AcDbScale
 70
     0
300
1:8
140
1.0
141
8.0
290
     0
  0
SCALE
  5
4D
102
{ACAD_REACTORS
330
47
102
}
330
47
100
AcDbScale
 70
     0
300
1:10
140
1.0
141
10.0
290
     0
  0
SCALE
  5
4E
102
{ACAD_REACTORS
330
47
102
}
330
47
100
AcDbScale
 70
     0
300
1:16
140
1.0
141
16.0
290
     0
  0
SCALE
  5
4F
102
{ACAD_REACTORS
330
47
102
}
330
47
100
AcDbScale
 70
     0
300
1:20
140
1.0
141
20.0
290
     0
  0
SCALE
  5
50
102
{ACAD_REACTORS
330
47
102
}
330
47
100
AcDbScale
 70
     0
300
1:30
140
1.0
141
30.0
290
     0
  0
SCALE
  5
51
102
{ACAD_REACTORS
330
47
102
}
330
47
100
AcDbScale
 70
     0
300
1:40
140
1.0
141
40.0
290
     0
  0
SCALE
  5
52
102
{ACAD_REACTORS
330
47
102
}
330
47
100
AcDbScale
 70
     0
300
1:50
140
1.0
141
50.0
290
     0
  0
SCALE
  5
53
102
{ACAD_REACTORS
330
47
102
}
330
47
100
AcDbScale
 70
     0
300
1:100
140
1.0
141
100.0
290
     0
  0
SCALE
  5
54
102
{ACAD_REACTORS
330
47
102
}
330
47
100
AcDbScale
 70
     0
300
2:1
140
2.0
141
1.0
290
     0
  0
SCALE
  5
55
102
{ACAD_REACTORS
330
47
102
}
330
47
100
AcDbScale
 70
     0
300
4:1
140
4.0
141
1.0
290
     0
  0
SCALE
  5
56
102
{ACAD_REACTORS
330
47
102
}
330
47
100
AcDbScale
 70
     0
300
8:1
140
8.0
141
1.0
290
     0
  0
SCALE
  5
57
102
{ACAD_REACTORS
330
47
102
}
330
47
100
AcDbScale
 70
     0
300
10:1
140
10.0
141
1.0
290
     0
  0
SCALE
  5
58
102
{ACAD_REACTORS
330
47
102
}
330
47
100
AcDbScale
 70
     0
300
100:1
140
100.0
141
1.0
290
     0
  0
SCALE
  5
59
102
{ACAD_REACTORS
330
47
102
}
330
47
100
AcDbScale
 70
     0
300
1/128" = 1'-0"
140
0.0078125
141
12.0
290
     0
  0
SCALE
  5
5A
102
{ACAD_REACTORS
330
47
102
}
330
47
100
AcDbScale
 70
     0
300
1/64" = 1'-0"
140
0.015625
141
12.0
290
     0
  0
SCALE
  5
5B
102
{ACAD_REACTORS
330
47
102
}
330
47
100
AcDbScale
 70
     0
300
1/32" = 1'-0"
140
0.03125
141
12.0
290
     0
  0
SCALE
  5
5C
102
{ACAD_REACTORS
330
47
102
}
330
47
100
AcDbScale
 70
     0
300
1/16" = 1'-0"
140
0.0625
141
12.0
290
     0
  0
SCALE
  5
5D
102
{ACAD_REACTORS
330
47
102
}
330
47
100
AcDbScale
 70
     0
300
3/32" = 1'-0"
140
0.09375
141
12.0
290
     0
  0
SCALE
  5
5E
102
{ACAD_REACTORS
330
47
102
}
330
47
100
AcDbScale
 70
     0
300
1/8" = 1'-0"
140
0.125
141
12.0
290
     0
  0
SCALE
  5
5F
102
{ACAD_REACTORS
330
47
102
}
330
47
100
AcDbScale
 70
     0
300
3/16" = 1'-0"
140
0.1875
141
12.0
290
     0
  0
SCALE
  5
60
102
{ACAD_REACTORS
330
47
102
}
330
47
100
AcDbScale
 70
     0
300
1/4" = 1'-0"
140
0.25
141
12.0
290
     0
  0
SCALE
  5
61
102
{ACAD_REACTORS
330
47
102
}
330
47
100
AcDbScale
 70
     0
300
3/8" = 1'-0"
140
0.375
141
12.0
290
     0
  0
SCALE
  5
62
102
{ACAD_REACTORS
330
47
102
}
330
47
100
AcDbScale
 70
     0
300
1/2" = 1'-0"
140
0.5
141
12.0
290
     0
  0
SCALE
  5
63
102
{ACAD_REACTORS
330
47
102
}
330
47
100
AcDbScale
 70
     0
300
3/4" = 1'-0"
140
0.75
141
12.0
290
     0
  0
SCALE
  5
64
102
{ACAD_REACTORS
330
47
102
}
330
47
100
AcDbScale
 70
     0
300
1" = 1'-0"
140
1.0
141
12.0
290
     0
  0
SCALE
  5
65
102
{ACAD_REACTORS
330
47
102
}
330
47
100
AcDbScale
 70
     0
300
1-1/2" = 1'-0"
140
1.5
141
12.0
290
     0
  0
SCALE
  5
66
102
{ACAD_REACTORS
330
47
102
}
330
47
100
AcDbScale
 70
     0
300
3" = 1'-0"
140
3.0
141
12.0
290
     0
  0
SCALE
  5
67
102
{ACAD_REACTORS
330
47
102
}
330
47
100
AcDbScale
 70
     0
300
6" = 1'-0"
140
6.0
141
12.0
290
     0
  0
SCALE
  5
68
102
{ACAD_REACTORS
330
47
102
}
330
47
100
AcDbScale
 70
     0
300
1'-0" = 1'-0"
140
12.0
141
12.0
290
     0
  0
TABLESTYLE
  5
475
102
{ACAD_REACTORS
330
474
102
}
102
{ACAD_XDICTIONARY
360
486
102
}
330
474
100
AcDbTableStyle
  3
Standard
 70
     0
 71
     0
 40
0.06
 41
0.06
280
     0
281
     0
  7
Standard
140
4.5
170
     2
 62
     0
 63
   257
283
     0
 90
        4
 91
        0
  1

274
    -2
284
     1
 64
     0
275
    -2
285
     1
 65
     0
276
    -2
286
     1
 66
     0
277
    -2
287
     1
 67
     0
278
    -2
288
     1
 68
     0
279
    -2
289
     1
 69
     0
  7
Standard
140
6.0
170
     5
 62
     0
 63
   257
283
     0
 90
        4
 91
        0
  1

274
    -2
284
     1
 64
     0
275
    -2
285
     1
 65
     0
276
    -2
286
     1
 66
     0
277
    -2
287
     1
 67
     0
278
    -2
288
     1
 68
     0
279
    -2
289
     1
 69
     0
  7
Standard
140
4.5
170
     5
 62
     0
 63
   257
283
     0
 90
        4
 91
        0
  1

274
    -2
284
     1
 64
     0
275
    -2
285
     1
 65
     0
276
    -2
286
     1
 66
     0
277
    -2
287
     1
 67
     0
278
    -2
288
     1
 68
     0
279
    -2
289
     1
 69
     0
  0
VISUALSTYLE
  5
45C
102
{ACAD_REACTORS
330
457
102
}
330
457
100
AcDbVisualStyle
  2
2dWireframe
 70
     4
 71
     0
 72
     2
 73
     0
 90
        0
 40
0.6
 41
30.0
 62
     5
 63
     7
421
 16777215
 74
     1
 91
        4
 64
     7
 65
   257
 75
     1
175
     1
 42
1.0
 92
        0
 66
   257
 43
1.0
 76
     1
 77
     6
 78
     2
 67
     7
 79
     5
170
     0
171
     0
290
     0
174
     0
 93
        1
 44
0.0
173
     0
291
     0
 45
0.0
  0
VISUALSTYLE
  5
45F
102
{ACAD_REACTORS
330
457
102
}
330
457
100
AcDbVisualStyle
  2
Basic
 70
     7
 71
     1
 72
     0
 73
     1
 90
        0
 40
0.6
 41
30.0
 62
     5
 63
     7
421
 16777215
 74
     0
 91
        4
 64
     7
 65
   257
 75
     1
175
     1
 42
1.0
 92
        8
 66
     7
 43
1.0
 76
     1
 77
     6
 78
     2
 67
     7
 79
     5
170
     0
171
     0
290
     0
174
     0
 93
        1
 44
0.0
173
     0
291
     1
 45
0.0
  0
VISUALSTYLE
  5
463
102
{ACAD_REACTORS
330
457
102
}
330
457
100
AcDbVisualStyle
  2
Brighten
 70
    12
 71
     2
 72
     2
 73
     0
 90
        0
 40
0.6
 41
30.0
 62
     5
 63
     7
421
 16777215
 74
     1
 91
        4
 64
     7
 65
   257
 75
     1
175
     1
 42
1.0
 92
        8
 66
     7
 43
1.0
 76
     1
 77
     6
 78
     2
 67
     7
 79
     5
170
     0
171
     0
290
     0
174
     0
 93
        1
 44
50.0
173
     0
291
     1
 45
0.0
  0
VISUALSTYLE
  5
467
102
{ACAD_REACTORS
330
457
102
}
330
457
100
AcDbVisualStyle
  2
ColorChange
 70
    16
 71
     2
 72
     2
 73
     3
 90
        0
 40
0.6
 41
30.0
 62
     5
 63
     8
421
  8421504
 74
     1
 91
        4
 64
     7
 65
   257
 75
     1
175
     1
 42
1.0
 92
        8
 66
     8
424
  8421504
 43
1.0
 76
     1
 77
     6
 78
     2
 67
     7
 79
     5
170
     0
171
     0
290
     0
174
     0
 93
        1
 44
0.0
173
     0
291
     1
 45
0.0
  0
VISUALSTYLE
  5
461
102
{ACAD_REACTORS
330
457
102
}
330
457
100
AcDbVisualStyle
  2
Conceptual
 70
     9
 71
     3
 72
     2
 73
     0
 90
        0
 40
0.6
 41
30.0
 62
     5
 63
     7
421
 16777215
 74
     2
 91
        2
 64
     7
 65
   257
 75
     1
175
     1
 42
179.0
 92
        8
 66
     7
 43
1.0
 76
     1
 77
     6
 78
     2
 67
     7
 79
     3
170
     0
171
     0
290
     0
174
     0
 93
        1
 44
0.0
173
     0
291
     0
 45
0.0
  0
VISUALSTYLE
  5
462
102
{ACAD_REACTORS
330
457
102
}
330
457
100
AcDbVisualStyle
  2
Dim
 70
    11
 71
     2
 72
     2
 73
     0
 90
        0
 40
0.6
 41
30.0
 62
     5
 63
     7
421
 16777215
 74
     1
 91
        4
 64
     7
 65
   257
 75
     1
175
     1
 42
1.0
 92
        8
 66
     7
 43
1.0
 76
     1
 77
     6
 78
     2
 67
     7
 79
     5
170
     0
171
     0
290
     0
174
     0
 93
        1
 44
-50.0
173
     0
291
     1
 45
0.0
  0
VISUALSTYLE
  5
46A
102
{ACAD_REACTORS
330
457
102
}
330
457
100
AcDbVisualStyle
  2
EdgeColorOff
 70
    22
 71
     2
 72
     2
 73
     0
 90
        0
 40
0.6
 41
30.0
 62
     5
 63
     7
421
 16777215
 74
     1
 91
        4
 64
     7
 65
   257
 75
     1
175
     1
 42
1.0
 92
        8
 66
     7
 43
1.0
 76
     1
 77
     6
 78
     2
 67
     7
 79
     5
170
     0
171
     0
290
     0
174
     0
 93
        1
 44
0.0
173
     0
291
     1
 45
0.0
  0
VISUALSTYLE
  5
466
102
{ACAD_REACTORS
330
457
102
}
330
457
100
AcDbVisualStyle
  2
Facepattern
 70
    15
 71
     2
 72
     2
 73
     0
 90
        0
 40
0.6
 41
30.0
 62
     5
 63
     7
421
 16777215
 74
     1
 91
        4
 64
     7
 65
   257
 75
     1
175
     1
 42
1.0
 92
        8
 66
     7
 43
1.0
 76
     1
 77
     6
 78
     2
 67
     7
 79
     5
170
     0
171
     0
290
     0
174
     0
 93
        1
 44
0.0
173
     0
291
     1
 45
0.0
  0
VISUALSTYLE
  5
458
102
{ACAD_REACTORS
330
457
102
}
330
457
100
AcDbVisualStyle
  2
Flat
 70
     0
 71
     2
 72
     1
 73
     1
 90
        2
 40
0.6
 41
30.0
 62
     5
 63
     7
421
 16777215
 74
     0
 91
        0
 64
     7
 65
   257
 75
     1
175
     1
 42
1.0
 92
        8
 66
     7
 43
1.0
 76
     1
 77
     6
 78
     2
 67
     7
 79
     5
170
     0
171
     0
290
     0
174
     0
 93
       13
 44
0.0
173
     0
291
     1
 45
0.0
  0
VISUALSTYLE
  5
459
102
{ACAD_REACTORS
330
457
102
}
330
457
100
AcDbVisualStyle
  2
FlatWithEdges
 70
     1
 71
     2
 72
     1
 73
     1
 90
        2
 40
0.6
 41
30.0
 62
     5
 63
     7
421
 16777215
 74
     1
 91
        0
 64
     7
 65
   257
 75
     1
175
     1
 42
1.0
 92
        0
 66
   257
 43
1.0
 76
     1
 77
     6
 78
     2
 67
     7
 79
     5
170
     0
171
     0
290
     0
174
     0
 93
       13
 44
0.0
173
     0
291
     1
 45
0.0
  0
VISUALSTYLE
  5
45A
102
{ACAD_REACTORS
330
457
102
}
330
457
100
AcDbVisualStyle
  2
Gouraud
 70
     2
 71
     2
 72
     2
 73
     1
 90
        2
 40
0.6
 41
30.0
 62
     5
 63
     7
421
 16777215
 74
     0
 91
        0
 64
     7
 65
   257
 75
     1
175
     1
 42
1.0
 92
        0
 66
     7
 43
1.0
 76
     1
 77
     6
 78
     2
 67
     7
 79
     5
170
     0
171
     0
290
     0
174
     0
 93
       13
 44
0.0
173
     0
291
     1
 45
0.0
  0
VISUALSTYLE
  5
45B
102
{ACAD_REACTORS
330
457
102
}
330
457
100
AcDbVisualStyle
  2
GouraudWithEdges
 70
     3
 71
     2
 72
     2
 73
     1
 90
        2
 40
0.6
 41
30.0
 62
     5
 63
     7
421
 16777215
 74
     1
 91
        0
 64
     7
 65
   257
 75
     1
175
     1
 42
1.0
 92
        0
 66
   257
 43
1.0
 76
     1
 77
     6
 78
     2
 67
     7
 79
     5
170
     0
171
     0
290
     0
174
     0
 93
       13
 44
0.0
173
     0
291
     1
 45
0.0
  0
VISUALSTYLE
  5
45E
102
{ACAD_REACTORS
330
457
102
}
330
457
100
AcDbVisualStyle
  2
Hidden
 70
     6
 71
     1
 72
     2
 73
     2
 90
        0
 40
0.6
 41
30.0
 62
     5
 63
     7
421
 16777215
 74
     2
 91
        2
 64
     7
 65
   257
 75
     2
175
     1
 42
40.0
 92
        0
 66
   257
 43
1.0
 76
     1
 77
     6
 78
     2
 67
     7
 79
     3
170
     0
171
     0
290
     0
174
     0
 93
        1
 44
0.0
173
     0
291
     0
 45
0.0
  0
VISUALSTYLE
  5
468
102
{ACAD_REACTORS
330
457
102
}
330
457
100
AcDbVisualStyle
  2
JitterOff
 70
    20
 71
     2
 72
     2
 73
     0
 90
        0
 40
0.6
 41
30.0
 62
     5
 63
     7
421
 16777215
 74
     1
 91
        4
 64
     7
 65
   257
 75
     1
175
     1
 42
1.0
 92
       10
 66
     7
 43
1.0
 76
     1
 77
     6
 78
     2
 67
     7
 79
     5
170
     0
171
     0
290
     0
174
     0
 93
        1
 44
0.0
173
     0
291
     1
 45
0.0
  0
VISUALSTYLE
  5
465
102
{ACAD_REACTORS
330
457
102
}
330
457
100
AcDbVisualStyle
  2
Linepattern
 70
    14
 71
     2
 72
     2
 73
     0
 90
        0
 40
0.6
 41
30.0
 62
     5
 63
     7
421
 16777215
 74
     1
 91
        4
 64
     7
 65
   257
 75
     7
175
     7
 42
1.0
 92
        8
 66
     7
 43
1.0
 76
     1
 77
     6
 78
     2
 67
     7
 79
     5
170
     0
171
     0
290
     0
174
     0
 93
        1
 44
0.0
173
     0
291
     1
 45
0.0
  0
VISUALSTYLE
  5
469
102
{ACAD_REACTORS
330
457
102
}
330
457
100
AcDbVisualStyle
  2
OverhangOff
 70
    21
 71
     2
 72
     2
 73
     0
 90
        0
 40
0.6
 41
30.0
 62
     5
 63
     7
421
 16777215
 74
     1
 91
        4
 64
     7
 65
   257
 75
     1
175
     1
 42
1.0
 92
        9
 66
     7
 43
1.0
 76
     1
 77
     6
 78
     2
 67
     7
 79
     5
170
     0
171
     0
290
     0
174
     0
 93
        1
 44
0.0
173
     0
291
     1
 45
0.0
  0
VISUALSTYLE
  5
460
102
{ACAD_REACTORS
330
457
102
}
330
457
100
AcDbVisualStyle
  2
Realistic
 70
     8
 71
     2
 72
     3
 73
     0
 90
        2
 40
0.6
 41
30.0
 62
     5
 63
     7
421
 16777215
 74
     0
 91
        0
 64
     7
 65
   257
 75
     1
175
     1
 42
1.0
 92
        8
 66
   257
 43
1.0
 76
     1
 77
     6
 78
     2
 67
     7
 79
     3
170
     0
171
     0
290
     0
174
     0
 93
       13
 44
0.0
173
     0
291
     0
 45
0.0
  0
VISUALSTYLE
  5
46F
102
{ACAD_REACTORS
330
457
102
}
330
457
100
AcDbVisualStyle
  2
Shaded
 70
    27
 71
     2
 72
     2
 73
     1
 90
        2
 40
0.6
 41
30.0
 62
     5
 63
     7
421
 16777215
 74
     0
 91
        4
 64
     7
 65
   257
 75
     1
175
     1
 42
1.0
 92
        8
 66
   257
 43
1.0
 76
     1
 77
     6
 78
     2
 67
     8
425
  7895160
 79
     3
170
     0
171
     0
290
     0
174
     0
 93
        5
 44
0.0
173
     0
291
     0
 45
0.0
  0
VISUALSTYLE
  5
46E
102
{ACAD_REACTORS
330
457
102
}
330
457
100
AcDbVisualStyle
  2
Shaded with edges
 70
    26
 71
     2
 72
     2
 73
     1
 90
        2
 40
0.6
 41
30.0
 62
     5
 63
     7
421
 16777215
 74
     1
 91
       10
 64
     7
 65
   257
 75
     2
175
     1
 42
1.0
 92
        8
 66
   257
 43
1.0
 76
     1
 77
     6
 78
     2
 67
     7
 79
     3
170
     0
171
     0
290
     0
174
     0
 93
        5
 44
0.0
173
     0
291
     0
 45
0.0
  0
VISUALSTYLE
  5
46B
102
{ACAD_REACTORS
330
457
102
}
330
457
100
AcDbVisualStyle
  2
Shades of Gray
 70
    23
 71
     2
 72
     2
 73
     3
 90
        0
 40
0.6
 41
30.0
 62
     5
 63
     7
421
 16777215
 74
     2
 91
        2
 64
     7
 65
     7
 75
     1
175
     1
 42
40.0
 92
        8
 66
     7
 43
1.0
 76
     1
 77
     6
 78
     2
 67
     7
 79
     3
170
     0
171
     0
290
     0
174
     0
 93
        1
 44
0.0
173
     0
291
     0
 45
0.0
  0
VISUALSTYLE
  5
46C
102
{ACAD_REACTORS
330
457
102
}
330
457
100
AcDbVisualStyle
  2
Sketchy
 70
    24
 71
     1
 72
     2
 73
     2
 90
        0
 40
0.6
 41
30.0
 62
     5
 63
     7
421
 16777215
 74
     2
 91
        2
 64
     7
 65
     7
 75
     1
175
     1
 42
40.0
 92
       11
 66
     7
 43
1.0
 76
     1
 77
     6
 78
     2
 67
     7
 79
     6
170
     0
171
     0
290
     0
174
     0
 93
        1
 44
0.0
173
     0
291
     0
 45
0.0
  0
VISUALSTYLE
  5
464
102
{ACAD_REACTORS
330
457
102
}
330
457
100
AcDbVisualStyle
  2
Thicken
 70
    13
 71
     2
 72
     2
 73
     0
 90
        0
 40
0.6
 41
30.0
 62
     5
 63
     7
421
 16777215
 74
     1
 91
        4
 64
     7
 65
   257
 75
     1
175
     1
 42
1.0
 92
       12
 66
     7
 43
1.0
 76
     1
 77
     6
 78
     2
 67
     7
 79
     5
170
     0
171
     0
290
     0
174
     0
 93
        1
 44
0.0
173
     0
291
     1
 45
0.0
  0
VISUALSTYLE
  5
45D
102
{ACAD_REACTORS
330
457
102
}
330
457
100
AcDbVisualStyle
  2
Wireframe
 70
     5
 71
     0
 72
     2
 73
     0
 90
        0
 40
0.6
 41
30.0
 62
     5
 63
     7
421
 16777215
 74
     1
 91
        4
 64
     7
 65
   257
 75
     1
175
     1
 42
1.0
 92
        0
 66
   257
 43
1.0
 76
     1
 77
     6
 78
     2
 67
     7
 79
     3
170
     0
171
     0
290
     0
174
     0
 93
        1
 44
0.0
173
     0
291
     0
 45
0.0
  0
VISUALSTYLE
  5
46D
102
{ACAD_REACTORS
330
457
102
}
330
457
100
AcDbVisualStyle
  2
X-Ray
 70
    25
 71
     2
 72
     2
 73
     1
 90
        1
 40
0.5
 41
30.0
 62
     5
 63
     7
421
 16777215
 74
     1
 91
        0
 64
     7
 65
   257
 75
     1
175
     1
 42
1.0
 92
        8
 66
     7
 43
1.0
 76
     1
 77
     6
 78
     2
 67
     7
 79
     3
170
     0
171
     0
290
     0
174
     0
 93
       13
 44
0.0
173
     0
291
     0
 45
0.0
  0
DICTIONARYVAR
  5
47C
102
{ACAD_REACTORS
330
47B
102
}
330
47B
100
DictionaryVariables
280
     0
  1
1:1
  0
DICTIONARYVAR
  5
482
102
{ACAD_REACTORS
330
47B
102
}
330
47B
100
DictionaryVariables
280
     0
  1
Standard
  0
DICTIONARYVAR
  5
481
102
{ACAD_REACTORS
330
47B
102
}
330
47B
100
DictionaryVariables
280
     0
  1
Standard
  0
DICTIONARYVAR
  5
483
102
{ACAD_REACTORS
330
47B
102
}
330
47B
100
DictionaryVariables
280
     0
  1
0
  0
DICTIONARY
  5
486
330
475
100
AcDbDictionary
280
     1
281
     1
  3
ACAD_ROUNDTRIP_2008_TABLESTYLE_CELLSTYLEMAP
360
487
  0
CELLSTYLEMAP
  5
487
102
{ACAD_REACTORS
330
486
102
}
330
486
100
AcDbCellStyleMap
 90
        3
300
CELLSTYLE
  1
TABLEFORMAT_BEGIN
 90
        5
170
     1
 91
        0
 92
    32768
 62
   257
 93
        1
300
CONTENTFORMAT
  1
CONTENTFORMAT_BEGIN
 90
        0
 91
        0
 92
        4
 93
        0
300

 40
0.0
140
1.0
 94
        5
 62
     0
340
11
144
6.0
309
CONTENTFORMAT_END
171
     1
301
MARGIN
  1
CELLMARGIN_BEGIN
 40
1.5
 40
1.5
 40
1.5
 40
1.5
 40
1.5
 40
1.5
309
CELLMARGIN_END
 94
        6
 95
        1
302
GRIDFORMAT
  1
GRIDFORMAT_BEGIN
 90
        0
 91
        1
 62
     0
 92
       -2
340
14
 93
        0
 40
0.045
309
GRIDFORMAT_END
 95
        2
302
GRIDFORMAT
  1
GRIDFORMAT_BEGIN
 90
        0
 91
        1
 62
     0
 92
       -2
340
14
 93
        0
 40
0.045
309
GRIDFORMAT_END
 95
        4
302
GRIDFORMAT
  1
GRIDFORMAT_BEGIN
 90
        0
 91
        1
 62
     0
 92
       -2
340
14
 93
        0
 40
0.045
309
GRIDFORMAT_END
 95
        8
302
GRIDFORMAT
  1
GRIDFORMAT_BEGIN
 90
        0
 91
        1
 62
     0
 92
       -2
340
14
 93
        0
 40
0.045
309
GRIDFORMAT_END
 95
       16
302
GRIDFORMAT
  1
GRIDFORMAT_BEGIN
 90
        0
 91
        1
 62
     0
 92
       -2
340
14
 93
        0
 40
0.045
309
GRIDFORMAT_END
 95
       32
302
GRIDFORMAT
  1
GRIDFORMAT_BEGIN
 90
        0
 91
        1
 62
     0
 92
       -2
340
14
 93
        0
 40
0.045
309
GRIDFORMAT_END
309
TABLEFORMAT_END
  1
CELLSTYLE_BEGIN
 90
        1
 91
        1
300
_TITLE
309
CELLSTYLE_END
300
CELLSTYLE
  1
TABLEFORMAT_BEGIN
 90
        5
170
     1
 91
        0
 92
        0
 62
   257
 93
        1
300
CONTENTFORMAT
  1
CONTENTFORMAT_BEGIN
 90
        0
 91
        0
 92
        4
 93
        0
300

 40
0.0
140
1.0
 94
        5
 62
     0
340
11
144
4.5
309
CONTENTFORMAT_END
171
     1
301
MARGIN
  1
CELLMARGIN_BEGIN
 40
1.5
 40
1.5
 40
1.5
 40
1.5
 40
1.5
 40
1.5
309
CELLMARGIN_END
 94
        6
 95
        1
302
GRIDFORMAT
  1
GRIDFORMAT_BEGIN
 90
        0
 91
        1
 62
     0
 92
       -2
340
14
 93
        0
 40
0.045
309
GRIDFORMAT_END
 95
        2
302
GRIDFORMAT
  1
GRIDFORMAT_BEGIN
 90
        0
 91
        1
 62
     0
 92
       -2
340
14
 93
        0
 40
0.045
309
GRIDFORMAT_END
 95
        4
302
GRIDFORMAT
  1
GRIDFORMAT_BEGIN
 90
        0
 91
        1
 62
     0
 92
       -2
340
14
 93
        0
 40
0.045
309
GRIDFORMAT_END
 95
        8
302
GRIDFORMAT
  1
GRIDFORMAT_BEGIN
 90
        0
 91
        1
 62
     0
 92
       -2
340
14
 93
        0
 40
0.045
309
GRIDFORMAT_END
 95
       16
302
GRIDFORMAT
  1
GRIDFORMAT_BEGIN
 90
        0
 91
        1
 62
     0
 92
       -2
340
14
 93
        0
 40
0.045
309
GRIDFORMAT_END
 95
       32
302
GRIDFORMAT
  1
GRIDFORMAT_BEGIN
 90
        0
 91
        1
 62
     0
 92
       -2
340
14
 93
        0
 40
0.045
309
GRIDFORMAT_END
309
TABLEFORMAT_END
  1
CELLSTYLE_BEGIN
 90
        2
 91
        1
300
_HEADER
309
CELLSTYLE_END
300
CELLSTYLE
  1
TABLEFORMAT_BEGIN
 90
        5
170
     1
 91
        0
 92
        0
 62
   257
 93
        1
300
CONTENTFORMAT
  1
CONTENTFORMAT_BEGIN
 90
        0
 91
        0
 92
        4
 93
        0
300

 40
0.0
140
1.0
 94
        2
 62
     0
340
11
144
4.5
309
CONTENTFORMAT_END
171
     1
301
MARGIN
  1
CELLMARGIN_BEGIN
 40
1.5
 40
1.5
 40
1.5
 40
1.5
 40
1.5
 40
1.5
309
CELLMARGIN_END
 94
        6
 95
        1
302
GRIDFORMAT
  1
GRIDFORMAT_BEGIN
 90
        0
 91
        1
 62
     0
 92
       -2
340
14
 93
        0
 40
0.045
309
GRIDFORMAT_END
 95
        2
302
GRIDFORMAT
  1
GRIDFORMAT_BEGIN
 90
        0
 91
        1
 62
     0
 92
       -2
340
14
 93
        0
 40
0.045
309
GRIDFORMAT_END
 95
        4
302
GRIDFORMAT
  1
GRIDFORMAT_BEGIN
 90
        0
 91
        1
 62
     0
 92
       -2
340
14
 93
        0
 40
0.045
309
GRIDFORMAT_END
 95
        8
302
GRIDFORMAT
  1
GRIDFORMAT_BEGIN
 90
        0
 91
        1
 62
     0
 92
       -2
340
14
 93
        0
 40
0.045
309
GRIDFORMAT_END
 95
       16
302
GRIDFORMAT
  1
GRIDFORMAT_BEGIN
 90
        0
 91
        1
 62
     0
 92
       -2
340
14
 93
        0
 40
0.045
309
GRIDFORMAT_END
 95
       32
302
GRIDFORMAT
  1
GRIDFORMAT_BEGIN
 90
        0
 91
        1
 62
     0
 92
       -2
340
14
 93
        0
 40
0.045
309
GRIDFORMAT_END
309
TABLEFORMAT_END
  1
CELLSTYLE_BEGIN
 90
        3
 91
        2
300
_DATA
309
CELLSTYLE_END
  0
ENDSEC
  0
EOF
