  0
SECTION
  2
HEADER
  9
$ACADVER
  1
AC1015
  9
$ACADMAINTVER
 70
     6
  9
$DWGCODEPAGE
  3
ANSI_1257
  9
$INSBASE
 10
0.0
 20
0.0
 30
0.0
  9
$EXTMIN
 10
-629.4884071958322
 20
-719.0566398494864
 30
0.0
  9
$EXTMAX
 10
1133.892874545503
 20
1280.310539442241
 30
0.0
  9
$LIMMIN
 10
0.0
 20
0.0
  9
$LIMMAX
 10
420.0
 20
297.0
  9
$ORTHOMODE
 70
     1
  9
$REGENMODE
 70
     1
  9
$FILLMODE
 70
     1
  9
$QTEXTMODE
 70
     0
  9
$MIRRTEXT
 70
     1
  9
$LTSCALE
 40
1.0
  9
$ATTMODE
 70
     1
  9
$TEXTSIZE
 40
5.644444444444444
  9
$TRACEWID
 40
1.0
  9
$TEXTSTYLE
  7
STANDARD
  9
$CLAYER
  8
0
  9
$CELTYPE
  6
BYLAYER
  9
$CECOLOR
 62
   256
  9
$CELTSCALE
 40
1.0
  9
$DISPSILH
 70
     0
  9
$DIMSCALE
 40
1.0
  9
$DIMASZ
 40
3.175
  9
$DIMEXO
 40
1.0
  9
$DIMDLI
 40
3.75
  9
$DIMRND
 40
0.0
  9
$DIMDLE
 40
0.0
  9
$DIMEXE
 40
1.0
  9
$DIMTP
 40
0.0
  9
$DIMTM
 40
0.0
  9
$DIMTXT
 40
4.938888888888888
  9
$DIMCEN
 40
2.5
  9
$DIMTSZ
 40
0.0
  9
$DIMTOL
 70
     0
  9
$DIMLIM
 70
     0
  9
$DIMTIH
 70
     1
  9
$DIMTOH
 70
     1
  9
$DIMSE1
 70
     0
  9
$DIMSE2
 70
     0
  9
$DIMTAD
 70
     1
  9
$DIMZIN
 70
     0
  9
$DIMBLK
  1

  9
$DIMASO
 70
     1
  9
$DIMSHO
 70
     1
  9
$DIMPOST
  1

  9
$DIMAPOST
  1

  9
$DIMALT
 70
     0
  9
$DIMALTD
 70
     3
  9
$DIMALTF
 40
0.0393700787401575
  9
$DIMLFAC
 40
1.0
  9
$DIMTOFL
 70
     1
  9
$DIMTVP
 40
0.0
  9
$DIMTIX
 70
     0
  9
$DIMSOXD
 70
     0
  9
$DIMSAH
 70
     0
  9
$DIMBLK1
  1

  9
$DIMBLK2
  1

  9
$DIMSTYLE
  2
ISO-25
  9
$DIMCLRD
 70
     0
  9
$DIMCLRE
 70
     0
  9
$DIMCLRT
 70
     0
  9
$DIMTFAC
 40
1.0
  9
$DIMGAP
 40
1.524
  9
$DIMJUST
 70
     0
  9
$DIMSD1
 70
     0
  9
$DIMSD2
 70
     0
  9
$DIMTOLJ
 70
     0
  9
$DIMTZIN
 70
     0
  9
$DIMALTZ
 70
     0
  9
$DIMALTTZ
 70
     0
  9
$DIMUPT
 70
     0
  9
$DIMDEC
 70
     1
  9
$DIMTDEC
 70
     1
  9
$DIMALTU
 70
     2
  9
$DIMALTTD
 70
     3
  9
$DIMTXSTY
  7
STANDARD
  9
$DIMAUNIT
 70
     0
  9
$DIMADEC
 70
     0
  9
$DIMALTRND
 40
0.0
  9
$DIMAZIN
 70
     0
  9
$DIMDSEP
 70
    46
  9
$DIMATFIT
 70
     3
  9
$DIMFRAC
 70
     0
  9
$DIMLDRBLK
  1

  9
$DIMLUNIT
 70
     2
  9
$DIMLWD
 70
    -2
  9
$DIMLWE
 70
    -2
  9
$DIMTMOVE
 70
     0
  9
$LUNITS
 70
     2
  9
$LUPREC
 70
     1
  9
$SKETCHINC
 40
1.0
  9
$FILLETRAD
 40
10.0
  9
$AUNITS
 70
     0
  9
$AUPREC
 70
     1
  9
$MENU
  1
.
  9
$ELEVATION
 40
0.0
  9
$PELEVATION
 40
0.0
  9
$THICKNESS
 40
0.0
  9
$LIMCHECK
 70
     0
  9
$CHAMFERA
 40
0.0
  9
$CHAMFERB
 40
0.0
  9
$CHAMFERC
 40
0.0
  9
$CHAMFERD
 40
0.0
  9
$SKPOLY
 70
     0
  9
$TDCREATE
 40
2457429.436814548
  9
$TDUCREATE
 40
2457429.353481215
  9
$TDUPDATE
 40
2459152.398179225
  9
$TDUUPDATE
 40
2459152.314845891
  9
$TDINDWG
 40
0.0026853241
  9
$TDUSRTIMER
 40
0.0007161921
  9
$USRTIMER
 70
     1
  9
$ANGBASE
 50
0.0
  9
$ANGDIR
 70
     0
  9
$PDMODE
 70
     0
  9
$PDSIZE
 40
-1.0
  9
$PLINEWID
 40
0.0
  9
$SPLFRAME
 70
     0
  9
$SPLINETYPE
 70
     6
  9
$SPLINESEGS
 70
     8
  9
$HANDSEED
  5
10B9
  9
$SURFTAB1
 70
     6
  9
$SURFTAB2
 70
     6
  9
$SURFTYPE
 70
     6
  9
$SURFU
 70
     6
  9
$SURFV
 70
     6
  9
$UCSBASE
  2

  9
$UCSNAME
  2

  9
$UCSORG
 10
0.0
 20
0.0
 30
0.0
  9
$UCSXDIR
 10
1.0
 20
0.0
 30
0.0
  9
$UCSYDIR
 10
0.0
 20
1.0
 30
0.0
  9
$UCSORTHOREF
  2

  9
$UCSORTHOVIEW
 70
     0
  9
$UCSORGTOP
 10
0.0
 20
0.0
 30
0.0
  9
$UCSORGBOTTOM
 10
0.0
 20
0.0
 30
0.0
  9
$UCSORGLEFT
 10
0.0
 20
0.0
 30
0.0
  9
$UCSORGRIGHT
 10
0.0
 20
0.0
 30
0.0
  9
$UCSORGFRONT
 10
0.0
 20
0.0
 30
0.0
  9
$UCSORGBACK
 10
0.0
 20
0.0
 30
0.0
  9
$PUCSBASE
  2

  9
$PUCSNAME
  2

  9
$PUCSORG
 10
0.0
 20
0.0
 30
0.0
  9
$PUCSXDIR
 10
1.0
 20
0.0
 30
0.0
  9
$PUCSYDIR
 10
0.0
 20
1.0
 30
0.0
  9
$PUCSORTHOREF
  2

  9
$PUCSORTHOVIEW
 70
     0
  9
$PUCSORGTOP
 10
0.0
 20
0.0
 30
0.0
  9
$PUCSORGBOTTOM
 10
0.0
 20
0.0
 30
0.0
  9
$PUCSORGLEFT
 10
0.0
 20
0.0
 30
0.0
  9
$PUCSORGRIGHT
 10
0.0
 20
0.0
 30
0.0
  9
$PUCSORGFRONT
 10
0.0
 20
0.0
 30
0.0
  9
$PUCSORGBACK
 10
0.0
 20
0.0
 30
0.0
  9
$USERI1
 70
     0
  9
$USERI2
 70
     0
  9
$USERI3
 70
     0
  9
$USERI4
 70
     0
  9
$USERI5
 70
     0
  9
$USERR1
 40
0.0
  9
$USERR2
 40
0.0
  9
$USERR3
 40
0.0
  9
$USERR4
 40
0.0
  9
$USERR5
 40
0.0
  9
$WORLDVIEW
 70
     1
  9
$SHADEDGE
 70
     3
  9
$SHADEDIF
 70
    70
  9
$TILEMODE
 70
     1
  9
$MAXACTVP
 70
    64
  9
$PINSBASE
 10
0.0
 20
0.0
 30
0.0
  9
$PLIMCHECK
 70
     0
  9
$PEXTMIN
 10
1.000000000000000E+20
 20
1.000000000000000E+20
 30
1.000000000000000E+20
  9
$PEXTMAX
 10
-1.000000000000000E+20
 20
-1.000000000000000E+20
 30
-1.000000000000000E+20
  9
$PLIMMIN
 10
0.0
 20
0.0
  9
$PLIMMAX
 10
0.0
 20
0.0
  9
$UNITMODE
 70
     0
  9
$VISRETAIN
 70
     1
  9
$PLINEGEN
 70
     0
  9
$PSLTSCALE
 70
     1
  9
$TREEDEPTH
 70
  3020
  9
$CMLSTYLE
  2
STANDARD
  9
$CMLJUST
 70
     0
  9
$CMLSCALE
 40
20.0
  9
$PROXYGRAPHICS
 70
     1
  9
$MEASUREMENT
 70
     1
  9
$CELWEIGHT
370
    -1
  9
$ENDCAPS
280
     0
  9
$JOINSTYLE
280
     0
  9
$LWDISPLAY
290
     0
  9
$INSUNITS
 70
     0
  9
$HYPERLINKBASE
  1

  9
$STYLESHEET
  1

  9
$XEDIT
290
     1
  9
$CEPSNTYPE
380
     0
  9
$PSTYLEMODE
290
     1
  9
$FINGERPRINTGUID
  2
{907F193C-28B3-4564-A186-9FF10EC0DC3C}
  9
$VERSIONGUID
  2
{FAEB1C32-E019-11D5-929B-00C0DF256EC4}
  9
$EXTNAMES
290
     1
  9
$PSVPSCALE
 40
0.0
  9
$OLESTARTUP
290
     0
  0
ENDSEC
  0
SECTION
  2
CLASSES
  0
CLASS
  1
ACDBDICTIONARYWDFLT
  2
AcDbDictionaryWithDefault
  3
ObjectDBX Classes
 90
        0
280
     0
281
     0
  0
CLASS
  1
VISUALSTYLE
  2
AcDbVisualStyle
  3
ObjectDBX Classes
 90
     4095
280
     0
281
     0
  0
CLASS
  1
MATERIAL
  2
AcDbMaterial
  3
ObjectDBX Classes
 90
     1153
280
     0
281
     0
  0
CLASS
  1
SCALE
  2
AcDbScale
  3
ObjectDBX Classes
 90
     1153
280
     0
281
     0
  0
CLASS
  1
TABLESTYLE
  2
AcDbTableStyle
  3
ObjectDBX Classes
 90
     4095
280
     0
281
     0
  0
CLASS
  1
MLEADERSTYLE
  2
AcDbMLeaderStyle
  3
ACDB_MLEADERSTYLE_CLASS
 90
     4095
280
     0
281
     0
  0
CLASS
  1
SUN
  2
AcDbSun
  3
SCENEOE
 90
     1153
280
     0
281
     0
  0
CLASS
  1
XRECORD
  2
AcDbXrecord
  3
ObjectDBX Classes
 90
        0
280
     0
281
     0
  0
CLASS
  1
LWPOLYLINE
  2
AcDbPolyline
  3
ObjectDBX Classes
 90
        0
280
     0
281
     1
  0
CLASS
  1
HATCH
  2
AcDbHatch
  3
ObjectDBX Classes
 90
        0
280
     0
281
     1
  0
CLASS
  1
RASTERVARIABLES
  2
AcDbRasterVariables
  3
ISM
 90
        0
280
     0
281
     0
  0
CLASS
  1
DICTIONARYVAR
  2
AcDbDictionaryVar
  3
ObjectDBX Classes
 90
        0
280
     0
281
     0
  0
CLASS
  1
ACDBPLACEHOLDER
  2
AcDbPlaceHolder
  3
ObjectDBX Classes
 90
        0
280
     0
281
     0
  0
CLASS
  1
LAYOUT
  2
AcDbLayout
  3
ObjectDBX Classes
 90
        0
280
     0
281
     0
  0
ENDSEC
  0
SECTION
  2
TABLES
  0
TABLE
  2
VPORT
  5
8
330
0
100
AcDbSymbolTable
 70
     1
  0
VPORT
  5
29
330
8
100
AcDbSymbolTableRecord
100
AcDbViewportTableRecord
  2
*ACTIVE
 70
     0
 10
0.0
 20
0.0
 11
1.0
 21
1.0
 12
252.2022336748357
 22
280.6269497963775
 13
0.0
 23
0.0
 14
10.0
 24
10.0
 15
10.0
 25
10.0
 16
0.0
 26
0.0
 36
1.0
 17
0.0
 27
0.0
 37
0.0
 40
2039.354522877562
 41
0.8819697052174309
 42
50.0
 43
0.0
 44
0.0
 50
0.0
 51
0.0
 71
    16
 72
  2000
 73
     1
 74
     3
 75
     0
 76
     0
 77
     0
 78
     0
281
     0
 65
     1
110
0.0
120
0.0
130
0.0
111
1.0
121
0.0
131
0.0
112
0.0
122
1.0
132
0.0
 79
     0
146
0.0
  0
ENDTAB
  0
TABLE
  2
LTYPE
  5
5
330
0
100
AcDbSymbolTable
 70
     6
  0
LTYPE
  5
14
330
5
100
AcDbSymbolTableRecord
100
AcDbLinetypeTableRecord
  2
BYBLOCK
 70
     0
  3

 72
    65
 73
     0
 40
0.0
  0
LTYPE
  5
15
330
5
100
AcDbSymbolTableRecord
100
AcDbLinetypeTableRecord
  2
BYLAYER
 70
     0
  3

 72
    65
 73
     0
 40
0.0
  0
LTYPE
  5
16
330
5
100
AcDbSymbolTableRecord
100
AcDbLinetypeTableRecord
  2
CONTINUOUS
 70
     0
  3
Solid line
 72
    65
 73
     0
 40
0.0
  0
LTYPE
  5
6E
330
5
100
AcDbSymbolTableRecord
100
AcDbLinetypeTableRecord
  2
HIDDEN
 70
     0
  3
Hidden __ __ __ __ __ __ __ __ __ __ __ __ __ __
 72
    65
 73
     2
 40
1.905
 49
1.27
 74
     0
 49
-0.635
 74
     0
  0
LTYPE
  5
6F
330
5
100
AcDbSymbolTableRecord
100
AcDbLinetypeTableRecord
  2
PHANTOM
 70
     0
  3
Phantom ______  __  __  ______  __  __  ______
 72
    65
 73
     6
 40
12.7
 49
6.35
 74
     0
 49
-1.27
 74
     0
 49
1.27
 74
     0
 49
-1.27
 74
     0
 49
1.27
 74
     0
 49
-1.27
 74
     0
  0
LTYPE
  5
70
330
5
100
AcDbSymbolTableRecord
100
AcDbLinetypeTableRecord
  2
CENTER
 70
     0
  3
Center ____ _ ____ _ ____ _ ____ _ ____ _ ____
 72
    65
 73
     4
 40
10.16
 49
6.35
 74
     0
 49
-1.27
 74
     0
 49
1.27
 74
     0
 49
-1.27
 74
     0
  0
LTYPE
  5
71
330
5
100
AcDbSymbolTableRecord
100
AcDbLinetypeTableRecord
  2
CENTERX2
 70
     0
  3
Center (2x) ________  __  ________  __  _____
 72
    65
 73
     4
 40
20.32
 49
12.7
 74
     0
 49
-2.54
 74
     0
 49
2.54
 74
     0
 49
-2.54
 74
     0
  0
LTYPE
  5
72
330
5
100
AcDbSymbolTableRecord
100
AcDbLinetypeTableRecord
  2
DOT2
 70
     0
  3
Dot (.5x) ........................................
 72
    65
 73
     2
 40
0.635
 49
0.0
 74
     0
 49
-0.635
 74
     0
  0
ENDTAB
  0
TABLE
  2
LAYER
  5
2
330
0
100
AcDbSymbolTable
 70
     3
  0
LAYER
  5
10
330
2
100
AcDbSymbolTableRecord
100
AcDbLayerTableRecord
  2
0
 70
     0
 62
     7
  6
CONTINUOUS
370
    -3
390
B67
  0
LAYER
  5
73
330
2
100
AcDbSymbolTableRecord
100
AcDbLayerTableRecord
  2
SLD-DEFPOINTS
 70
     0
 62
     7
  6
CONTINUOUS
370
    -3
390
B67
  0
LAYER
  5
B5E
330
2
100
AcDbSymbolTableRecord
100
AcDbLayerTableRecord
  2
Defpoints
 70
     0
 62
     7
  6
CONTINUOUS
290
     0
370
    -3
390
B67
  0
ENDTAB
  0
TABLE
  2
STYLE
  5
3
330
0
100
AcDbSymbolTable
 70
     1
  0
STYLE
  5
11
330
3
100
AcDbSymbolTableRecord
100
AcDbTextStyleTableRecord
  2
STANDARD
 70
     0
 40
0.0
 41
1.0
 50
0.0
 71
     0
 42
5.644444444444444
  3
txt
  4

  0
ENDTAB
  0
TABLE
  2
VIEW
  5
6
330
0
100
AcDbSymbolTable
 70
     0
  0
ENDTAB
  0
TABLE
  2
UCS
  5
7
330
0
100
AcDbSymbolTable
 70
     0
  0
ENDTAB
  0
TABLE
  2
APPID
  5
9
330
0
100
AcDbSymbolTable
 70
     3
  0
APPID
  5
12
330
9
100
AcDbSymbolTableRecord
100
AcDbRegAppTableRecord
  2
ACAD
 70
     0
  0
APPID
  5
B5D
330
9
100
AcDbSymbolTableRecord
100
AcDbRegAppTableRecord
  2
ACAD_DSTYLE_DIMRADIAL_EXTENSION
 70
     0
  0
APPID
  5
1069
330
9
100
AcDbSymbolTableRecord
100
AcDbRegAppTableRecord
  2
AcadAnnotative
 70
     0
  0
ENDTAB
  0
TABLE
  2
DIMSTYLE
  5
A
330
0
100
AcDbSymbolTable
 70
     2
100
AcDbDimStyleTable
  0
DIMSTYLE
105
27
330
A
100
AcDbSymbolTableRecord
100
AcDbDimStyleTableRecord
  2
ISO-25
 70
     0
 41
2.5
 42
0.625
 43
3.75
 44
1.25
 73
     0
 74
     0
 77
     1
 78
     8
140
2.5
141
2.5
143
0.03937007874016
147
0.625
171
     3
172
     1
178
     0
271
     2
272
     2
274
     3
283
     0
284
     8
340
11
  0
DIMSTYLE
105
1068
330
A
100
AcDbSymbolTableRecord
100
AcDbDimStyleTableRecord
  2
Annotative
 70
     0
 40
0.0
 41
2.5
 42
0.625
 43
3.75
 44
1.25
 73
     0
 74
     0
 77
     1
 78
     8
140
2.5
141
-2.5
143
0.03937007874016
147
0.625
171
     3
172
     1
178
     0
271
     2
272
     2
274
     3
278
    44
283
     0
284
     8
340
11
1001
AcadAnnotative
1000
AnnotativeData
1002
{
1070
     1
1070
     1
1002
}
  0
ENDTAB
  0
TABLE
  2
BLOCK_RECORD
  5
1
330
0
100
AcDbSymbolTable
 70
     3
  0
BLOCK_RECORD
  5
1F
330
1
100
AcDbSymbolTableRecord
100
AcDbBlockTableRecord
  2
*MODEL_SPACE
340
B50
  0
BLOCK_RECORD
  5
1B
330
1
100
AcDbSymbolTableRecord
100
AcDbBlockTableRecord
  2
*PAPER_SPACE
340
B51
  0
BLOCK_RECORD
  5
23
330
1
100
AcDbSymbolTableRecord
100
AcDbBlockTableRecord
  2
*PAPER_SPACE0
340
0
  0
BLOCK_RECORD
  5
74
330
1
100
AcDbSymbolTableRecord
100
AcDbBlockTableRecord
  2
BLOCK1
340
0
  0
BLOCK_RECORD
  5
12B
330
1
100
AcDbSymbolTableRecord
100
AcDbBlockTableRecord
  2
BLOCK-PROJEKCIJU_VAIZDAVIM
340
0
  0
ENDTAB
  0
ENDSEC
  0
SECTION
  2
BLOCKS
  0
BLOCK
  5
20
330
1F
100
AcDbEntity
  8
0
100
AcDbBlockBegin
  2
*MODEL_SPACE
 70
     0
 10
0.0
 20
0.0
 30
0.0
  3
*MODEL_SPACE
  1

  0
ENDBLK
  5
21
330
1F
100
AcDbEntity
  8
0
100
AcDbBlockEnd
  0
BLOCK
  5
1C
330
1B
100
AcDbEntity
 67
     1
  8
0
100
AcDbBlockBegin
  2
*PAPER_SPACE
 70
     0
 10
0.0
 20
0.0
 30
0.0
  3
*PAPER_SPACE
  1

  0
ENDBLK
  5
1D
330
1B
100
AcDbEntity
 67
     1
  8
0
100
AcDbBlockEnd
  0
BLOCK
  5
24
330
23
100
AcDbEntity
  8
0
100
AcDbBlockBegin
  2
*PAPER_SPACE0
 70
     0
 10
0.0
 20
0.0
 30
0.0
  3
*PAPER_SPACE0
  1

  0
ENDBLK
  5
25
330
23
100
AcDbEntity
  8
0
100
AcDbBlockEnd
  0
BLOCK
  5
75
330
74
100
AcDbEntity
  8
0
100
AcDbBlockBegin
  2
BLOCK1
 70
     0
 10
0.0
 20
0.0
 30
0.0
  3
BLOCK1
  1

  0
ARC
  5
77
330
74
100
AcDbEntity
  8
0
  6
Continuous
 62
   179
100
AcDbCircle
 10
7867.664902963504
 20
2430.135541908654
 30
0.0
 40
931.6078627493895
100
AcDbArc
 50
232.1189098068909
 51
101.3462704492065
  0
ARC
  5
78
330
74
100
AcDbEntity
  8
0
  6
Continuous
 62
   179
100
AcDbCircle
 10
7943.551446226948
 20
2435.961394653731
 30
0.0
 40
1140.079096555486
100
AcDbArc
 50
297.4341829349931
 51
62.17203318893132
  0
ARC
  5
79
330
74
100
AcDbEntity
  8
0
  6
Continuous
 62
   179
100
AcDbCircle
 10
20001.41030668536
 20
6936.258348176314
 30
0.0
 40
1270.831290716854
100
AcDbArc
 50
3.439111269857874
 51
76.41975789224402
  0
ARC
  5
7A
330
74
100
AcDbEntity
  8
0
  6
Continuous
 62
   179
100
AcDbCircle
 10
19239.48229494224
 20
3782.066700072844
 30
0.0
 40
4515.74411667143
100
AcDbArc
 50
76.419757892252
 51
91.67546443389824
  0
ARC
  5
7B
330
74
100
AcDbEntity
  8
0
  6
Continuous
 62
   179
100
AcDbCircle
 10
18683.95397201841
 20
2160.191162249721
 30
0.0
 40
2139.476369555804
100
AcDbArc
 50
270.3210228953653
 51
307.7127911616916
  0
ARC
  5
7C
330
74
100
AcDbEntity
  8
0
  6
Continuous
 62
   179
100
AcDbCircle
 10
18746.04220617016
 20
1962.821611746757
 30
0.0
 40
1946.678009873842
100
AcDbArc
 50
309.8210667380517
 51
331.7017265911963
  0
ARC
  5
7D
330
74
100
AcDbEntity
  8
0
  6
Continuous
 62
   179
100
AcDbCircle
 10
17863.1917469523
 20
2438.153289465792
 30
0.0
 40
2949.35698999881
100
AcDbArc
 50
331.7017265911659
 51
356.0927915539009
  0
ARC
  5
7E
330
74
100
AcDbEntity
  8
0
  6
Continuous
 62
   179
100
AcDbCircle
 10
16755.78562458259
 20
6709.226497343011
 30
0.0
 40
4524.342739831098
100
AcDbArc
 50
353.5830630920615
 51
3.843411559056907
  0
ARC
  5
7F
330
74
100
AcDbEntity
  8
0
  6
Continuous
 62
   179
100
AcDbCircle
 10
19039.32136930348
 20
6348.992835766655
 30
0.0
 40
506.1072723730909
100
AcDbArc
 50
52.45518083770012
 51
82.27169607789945
  0
ARC
  5
80
330
74
100
AcDbEntity
  8
0
  6
Continuous
 62
   179
100
AcDbCircle
 10
19108.05285528783
 20
6495.627081242485
 30
0.0
 40
349.7025539282703
100
AcDbArc
 50
10.40128742632347
 51
46.73406036112628
  0
ARC
  5
81
330
74
100
AcDbEntity
  8
0
  6
Continuous
 62
   179
100
AcDbCircle
 10
17417.00704206978
 20
6262.249610551689
 30
0.0
 40
2056.490362340239
100
AcDbArc
 50
355.4752495920009
 51
8.290034904036377
  0
ARC
  5
82
330
74
100
AcDbEntity
  8
0
  6
Continuous
 62
   179
100
AcDbCircle
 10
16921.0810184775
 20
2478.884057325912
 30
0.0
 40
2122.330793892779
100
AcDbArc
 50
339.2065439429009
 51
352.3366543812865
  0
ARC
  5
83
330
74
100
AcDbEntity
  8
0
  6
Continuous
 62
   179
100
AcDbCircle
 10
18500.14374748803
 20
1898.858911590282
 30
0.0
 40
440.5904503964751
100
AcDbArc
 50
293.8382702170105
 51
336.8232513295847
  0
ARC
  5
84
330
74
100
AcDbEntity
  8
0
  6
Continuous
 62
   179
100
AcDbCircle
 10
18201.14775323861
 20
2813.313832481288
 30
0.0
 40
1401.173285533761
100
AcDbArc
 50
267.1686990926993
 51
289.9057704418868
  0
ARC
  5
85
330
74
100
AcDbEntity
  8
0
  6
Continuous
 62
   179
100
AcDbCircle
 10
18751.27011695406
 20
4514.997092706631
 30
0.0
 40
2362.499275286643
100
AcDbArc
 50
81.33049979549513
 51
90.0
  0
ARC
  5
86
330
74
100
AcDbEntity
  8
0
  6
Continuous
 62
   179
100
AcDbCircle
 10
6720.604437529604
 20
9296.057965315804
 30
0.0
 40
7520.148763137153
100
AcDbArc
 50
220.0176677389884
 51
227.0143029097025
  0
ARC
  5
87
330
74
100
AcDbEntity
  8
0
  6
Continuous
 62
   179
100
AcDbCircle
 10
2021.389253593488
 20
2163.67555645214
 30
0.0
 40
795.0570373035339
100
AcDbArc
 50
316.8708555891025
 51
354.9781479006052
  0
ARC
  5
88
330
74
100
AcDbEntity
  8
0
  6
Continuous
 62
   179
100
AcDbCircle
 10
2182.912417046811
 20
2011.988948632246
 30
0.0
 40
573.4753329004777
100
AcDbArc
 50
268.8486412909027
 51
316.898689090132
  0
ARC
  5
89
330
74
100
AcDbEntity
  8
0
  6
Continuous
 62
   179
100
AcDbCircle
 10
10525.69607263297
 20
12531.62590477311
 30
0.0
 40
10618.65239809051
100
AcDbArc
 50
220.6325257885988
 51
226.7030345034366
  0
ARC
  5
8A
330
74
100
AcDbEntity
  8
0
  6
Continuous
 62
   179
100
AcDbCircle
 10
2962.700769445968
 20
6223.586779952877
 30
0.0
 40
723.1072200381735
100
AcDbArc
 50
137.8203941730991
 51
175.3475443105016
  0
ARC
  5
8B
330
74
100
AcDbEntity
  8
0
  6
Continuous
 62
   179
100
AcDbCircle
 10
2808.323935568476
 20
6360.286424350836
 30
0.0
 40
516.9247077280753
100
AcDbArc
 50
89.43798520159724
 51
137.5591461503917
  0
ARC
  5
8C
330
74
100
AcDbEntity
  8
0
  6
Continuous
 62
   179
100
AcDbCircle
 10
24439.2811878643
 20
2435.96139465394
 30
0.0
 40
1140.079096554877
100
AcDbArc
 50
297.4341829349403
 51
62.17203318890007
  0
ARC
  5
8D
330
74
100
AcDbEntity
  8
0
  6
Continuous
 62
   179
100
AcDbCircle
 10
24363.39464460094
 20
2430.135541908909
 30
0.0
 40
931.6078627500976
100
AcDbArc
 50
232.118909807001
 51
101.3462704492597
  0
LINE
  5
8E
330
74
100
AcDbEntity
  8
0
  6
Continuous
 62
   179
100
AcDbLine
 10
10088.03217840744
 20
0.0000125144457019
 30
0.0
 11
9858.221794955722
 21
8289.655292111545
 31
0.0
  0
LINE
  5
8F
330
74
100
AcDbEntity
  8
0
  6
Continuous
 62
   179
100
AcDbLine
 10
9858.221794955722
 20
8289.655292111545
 30
0.0
 11
7491.02652935572
 21
8289.655292111545
 31
0.0
  0
LINE
  5
90
330
74
100
AcDbEntity
  8
0
  6
Continuous
 62
   179
100
AcDbLine
 10
7491.02652935572
 20
8289.655292111545
 30
0.0
 11
5122.81316775534
 21
0.0000125144457019
 31
0.0
  0
LINE
  5
91
330
74
100
AcDbEntity
  8
0
  6
Continuous
 62
   179
100
AcDbLine
 10
5122.81316775534
 20
0.0000125144457019
 30
0.0
 11
6903.41605815534
 21
0.0000125144457019
 31
0.0
  0
LINE
  5
92
330
74
100
AcDbEntity
  8
0
  6
Continuous
 62
   179
100
AcDbLine
 10
6903.41605815534
 20
0.0000125144457019
 30
0.0
 11
7295.63462855534
 21
1694.829772111546
 31
0.0
  0
LINE
  5
93
330
74
100
AcDbEntity
  8
0
  6
Continuous
 62
   179
100
AcDbLine
 10
7684.382238156128
 20
3343.536152110767
 30
0.0
 11
8520.883790955342
 21
7008.870756911546
 31
0.0
  0
LINE
  5
94
330
74
100
AcDbEntity
  8
0
  6
Continuous
 62
   179
100
AcDbLine
 10
8520.883790955342
 20
7008.870756911546
 30
0.0
 11
8475.761300555341
 21
3444.194015311545
 31
0.0
  0
LINE
  5
95
330
74
100
AcDbEntity
  8
0
  6
Continuous
 62
   179
100
AcDbLine
 10
8468.819378956492
 20
1424.094829711189
 30
0.0
 11
8468.819378956492
 21
0.0000125144457019
 31
0.0
  0
LINE
  5
96
330
74
100
AcDbEntity
  8
0
  6
Continuous
 62
   179
100
AcDbLine
 10
8468.819378956492
 20
0.0000125144457019
 30
0.0
 11
10088.03217840744
 21
0.0000125144457019
 31
0.0
  0
LINE
  5
97
330
74
100
AcDbEntity
  8
0
  6
Continuous
 62
   179
100
AcDbLine
 10
19107.45004975194
 20
8295.880211227532
 30
0.0
 11
16935.78987695406
 21
8295.880211227532
 31
0.0
  0
LINE
  5
98
330
74
100
AcDbEntity
  8
0
  6
Continuous
 62
   179
100
AcDbLine
 10
16935.78987695406
 20
8295.880211227532
 30
0.0
 11
15991.74015215406
 21
0.000028827531473
 31
0.0
  0
LINE
  5
99
330
74
100
AcDbEntity
  8
0
  6
Continuous
 62
   179
100
AcDbLine
 10
15991.74015215406
 20
0.000028827531473
 30
0.0
 11
17855.63319855406
 21
0.000028827531473
 31
0.0
  0
LINE
  5
9A
330
74
100
AcDbEntity
  8
0
  6
Continuous
 62
   179
100
AcDbLine
 10
17855.63319855406
 20
0.000028827531473
 30
0.0
 11
18695.94119535406
 21
20.74837442753169
 31
0.0
  0
LINE
  5
9B
330
74
100
AcDbEntity
  8
0
  6
Continuous
 62
   179
100
AcDbLine
 10
20805.69358737719
 20
2237.181715478457
 30
0.0
 11
21251.78301777719
 21
6203.573782676331
 31
0.0
  0
LINE
  5
9C
330
74
100
AcDbEntity
  8
0
  6
Continuous
 62
   179
100
AcDbLine
 10
19024.45666735406
 20
2195.866604827532
 30
0.0
 11
19467.0880401544
 21
6100.013635223699
 31
0.0
  0
LINE
  5
9D
330
74
100
AcDbEntity
  8
0
  6
Continuous
 62
   179
100
AcDbLine
 10
17907.50406255406
 20
1417.803644827532
 30
0.0
 11
18131.93621849202
 21
1413.850957106775
 31
0.0
  0
LINE
  5
9E
330
74
100
AcDbEntity
  8
0
  6
Continuous
 62
   179
100
AcDbLine
 10
18529.95443055405
 20
6877.496367993273
 30
0.0
 11
17907.50406255406
 21
1417.803644827532
 31
0.0
  0
LINE
  5
9F
330
74
100
AcDbEntity
  8
0
  6
Continuous
 62
   179
100
AcDbLine
 10
18751.27011695406
 20
6877.496367993273
 30
0.0
 11
18529.95443055405
 21
6877.496367993273
 31
0.0
  0
LINE
  5
A0
330
74
100
AcDbEntity
  8
0
  6
Continuous
 62
   179
100
AcDbLine
 10
11134.64467410532
 20
0.0000000000007772
 30
0.0
 11
14807.10184530532
 21
0.0000000000007772
 31
0.0
  0
LINE
  5
A1
330
74
100
AcDbEntity
  8
0
  6
Continuous
 62
   179
100
AcDbLine
 10
14807.10184530532
 20
0.0000000000007772
 30
0.0
 11
14990.37889810532
 21
1625.287072000001
 31
0.0
  0
LINE
  5
A2
330
74
100
AcDbEntity
  8
0
  6
Continuous
 62
   179
100
AcDbLine
 10
14990.37889810532
 20
1625.287072000001
 30
0.0
 11
13071.15693010532
 21
1625.287072000001
 31
0.0
  0
LINE
  5
A3
330
74
100
AcDbEntity
  8
0
  6
Continuous
 62
   179
100
AcDbLine
 10
13071.15693010532
 20
1625.287072000001
 30
0.0
 11
13828.47154450532
 21
8295.880182400002
 31
0.0
  0
LINE
  5
A4
330
74
100
AcDbEntity
  8
0
  6
Continuous
 62
   179
100
AcDbLine
 10
13828.47154450532
 20
8295.880182400002
 30
0.0
 11
12075.23634130532
 21
8295.880182400002
 31
0.0
  0
LINE
  5
A5
330
74
100
AcDbEntity
  8
0
  6
Continuous
 62
   179
100
AcDbLine
 10
12075.23634130532
 20
8295.880182400002
 30
0.0
 11
11134.64467410532
 21
0.0000000000007772
 31
0.0
  0
LINE
  5
A6
330
74
100
AcDbEntity
  8
0
  6
Continuous
 62
   179
100
AcDbLine
 10
4907.474056000466
 20
6857.018562294656
 30
0.0
 11
4882.739185627778
 21
7041.149751364578
 31
0.0
  0
LINE
  5
A7
330
74
100
AcDbEntity
  8
0
  6
Continuous
 62
   179
100
AcDbLine
 10
4882.739185627778
 20
7041.149751364578
 30
0.0
 11
4840.840978040045
 21
7222.127928907171
 31
0.0
  0
LINE
  5
A8
330
74
100
AcDbEntity
  8
0
  6
Continuous
 62
   179
100
AcDbLine
 10
4840.840978040045
 20
7222.127928907171
 30
0.0
 11
4779.230404759006
 21
7397.351638662306
 31
0.0
  0
LINE
  5
A9
330
74
100
AcDbEntity
  8
0
  6
Continuous
 62
   179
100
AcDbLine
 10
4779.230404759006
 20
7397.351638662306
 30
0.0
 11
4695.875384646897
 21
7563.306056288046
 31
0.0
  0
LINE
  5
AA
330
74
100
AcDbEntity
  8
0
  6
Continuous
 62
   179
100
AcDbLine
 10
4695.875384646897
 20
7563.306056288046
 30
0.0
 11
4590.009476013335
 21
7715.862266709747
 31
0.0
  0
LINE
  5
AB
330
74
100
AcDbEntity
  8
0
  6
Continuous
 62
   179
100
AcDbLine
 10
4590.009476013335
 20
7715.862266709747
 30
0.0
 11
4462.775884148745
 21
7851.104996035836
 31
0.0
  0
LINE
  5
AC
330
74
100
AcDbEntity
  8
0
  6
Continuous
 62
   179
100
AcDbLine
 10
4462.775884148745
 20
7851.104996035836
 30
0.0
 11
4317.197793690012
 21
7966.39181643714
 31
0.0
  0
LINE
  5
AD
330
74
100
AcDbEntity
  8
0
  6
Continuous
 62
   179
100
AcDbLine
 10
4317.197793690012
 20
7966.39181643714
 30
0.0
 11
4157.354947066913
 21
8060.963699317414
 31
0.0
  0
LINE
  5
AE
330
74
100
AcDbEntity
  8
0
  6
Continuous
 62
   179
100
AcDbLine
 10
4157.354947066913
 20
8060.963699317414
 30
0.0
 11
3942.383243480518
 21
8152.000134559417
 31
0.0
  0
LINE
  5
AF
330
74
100
AcDbEntity
  8
0
  6
Continuous
 62
   179
100
AcDbLine
 10
3942.383243480518
 20
8152.000134559417
 30
0.0
 11
3717.73798795857
 21
8215.730615990771
 31
0.0
  0
LINE
  5
B0
330
74
100
AcDbEntity
  8
0
  6
Continuous
 62
   179
100
AcDbLine
 10
3717.73798795857
 20
8215.730615990771
 30
0.0
 11
3487.801041605248
 21
8256.64153795592
 31
0.0
  0
LINE
  5
B1
330
74
100
AcDbEntity
  8
0
  6
Continuous
 62
   179
100
AcDbLine
 10
3487.801041605248
 20
8256.64153795592
 30
0.0
 11
3255.282664659154
 21
8278.797175912783
 31
0.0
  0
LINE
  5
B2
330
74
100
AcDbEntity
  8
0
  6
Continuous
 62
   179
100
AcDbLine
 10
3255.282664659154
 20
8278.797175912783
 30
0.0
 11
3021.793956399985
 21
8285.564092295104
 31
0.0
  0
LINE
  5
B3
330
74
100
AcDbEntity
  8
0
  6
Continuous
 62
   179
100
AcDbLine
 10
3021.793956399985
 20
8285.564092295104
 30
0.0
 11
2764.728665662366
 21
8276.816734455842
 31
0.0
  0
LINE
  5
B4
330
74
100
AcDbEntity
  8
0
  6
Continuous
 62
   179
100
AcDbLine
 10
2764.728665662366
 20
8276.816734455842
 30
0.0
 11
2509.05662312122
 21
8248.844873041277
 31
0.0
  0
LINE
  5
B5
330
74
100
AcDbEntity
  8
0
  6
Continuous
 62
   179
100
AcDbLine
 10
2509.05662312122
 20
8248.844873041277
 30
0.0
 11
2256.762474169712
 21
8198.969363254766
 31
0.0
  0
LINE
  5
B6
330
74
100
AcDbEntity
  8
0
  6
Continuous
 62
   179
100
AcDbLine
 10
2256.762474169712
 20
8198.969363254766
 30
0.0
 11
2010.586254910185
 21
8124.640160958412
 31
0.0
  0
LINE
  5
B7
330
74
100
AcDbEntity
  8
0
  6
Continuous
 62
   179
100
AcDbLine
 10
2010.586254910185
 20
8124.640160958412
 30
0.0
 11
1823.704290714439
 21
8047.771817014414
 31
0.0
  0
LINE
  5
B8
330
74
100
AcDbEntity
  8
0
  6
Continuous
 62
   179
100
AcDbLine
 10
1823.704290714439
 20
8047.771817014414
 30
0.0
 11
1644.660542762473
 21
7954.102205278552
 31
0.0
  0
LINE
  5
B9
330
74
100
AcDbEntity
  8
0
  6
Continuous
 62
   179
100
AcDbLine
 10
1644.660542762473
 20
7954.102205278552
 30
0.0
 11
1475.390327490992
 21
7843.754570442105
 31
0.0
  0
LINE
  5
BA
330
74
100
AcDbEntity
  8
0
  6
Continuous
 62
   179
100
AcDbLine
 10
1475.390327490992
 20
7843.754570442105
 30
0.0
 11
1317.62317119963
 21
7717.507163894967
 31
0.0
  0
LINE
  5
BB
330
74
100
AcDbEntity
  8
0
  6
Continuous
 62
   179
100
AcDbLine
 10
1317.62317119963
 20
7717.507163894967
 30
0.0
 11
1139.538084004963
 21
7540.958362997804
 31
0.0
  0
LINE
  5
BC
330
74
100
AcDbEntity
  8
0
  6
Continuous
 62
   179
100
AcDbLine
 10
1139.538084004963
 20
7540.958362997804
 30
0.0
 11
983.4661868122847
 21
7344.686540327555
 31
0.0
  0
LINE
  5
BD
330
74
100
AcDbEntity
  8
0
  6
Continuous
 62
   179
100
AcDbLine
 10
983.4661868122847
 20
7344.686540327555
 30
0.0
 11
851.532568198433
 21
7131.431508806924
 31
0.0
  0
LINE
  5
BE
330
74
100
AcDbEntity
  8
0
  6
Continuous
 62
   179
100
AcDbLine
 10
851.532568198433
 20
7131.431508806924
 30
0.0
 11
744.4774564035504
 21
6904.647070364972
 31
0.0
  0
LINE
  5
BF
330
74
100
AcDbEntity
  8
0
  6
Continuous
 62
   179
100
AcDbLine
 10
744.4774564035504
 20
6904.647070364972
 30
0.0
 11
658.3392621499113
 21
6656.43274224034
 31
0.0
  0
LINE
  5
C0
330
74
100
AcDbEntity
  8
0
  6
Continuous
 62
   179
100
AcDbLine
 10
658.3392621499113
 20
6656.43274224034
 30
0.0
 11
596.9943576212593
 21
6400.933532546314
 31
0.0
  0
LINE
  5
C1
330
74
100
AcDbEntity
  8
0
  6
Continuous
 62
   179
100
AcDbLine
 10
596.9943576212593
 20
6400.933532546314
 30
0.0
 11
557.9730775994544
 21
6141.065155494636
 31
0.0
  0
LINE
  5
C2
330
74
100
AcDbEntity
  8
0
  6
Continuous
 62
   179
100
AcDbLine
 10
557.9730775994544
 20
6141.065155494636
 30
0.0
 11
538.0293793385906
 21
5893.080713935894
 31
0.0
  0
LINE
  5
C3
330
74
100
AcDbEntity
  8
0
  6
Continuous
 62
   179
100
AcDbLine
 10
538.0293793385906
 20
5893.080713935894
 30
0.0
 11
537.9155556825718
 21
5644.316103439643
 31
0.0
  0
LINE
  5
C4
330
74
100
AcDbEntity
  8
0
  6
Continuous
 62
   179
100
AcDbLine
 10
537.9155556825718
 20
5644.316103439643
 30
0.0
 11
561.0465619985758
 21
5396.656504175062
 31
0.0
  0
LINE
  5
C5
330
74
100
AcDbEntity
  8
0
  6
Continuous
 62
   179
100
AcDbLine
 10
561.0465619985758
 20
5396.656504175062
 30
0.0
 11
610.8365836731098
 21
5152.986228349144
 31
0.0
  0
LINE
  5
C6
330
74
100
AcDbEntity
  8
0
  6
Continuous
 62
   179
100
AcDbLine
 10
610.8365836731098
 20
5152.986228349144
 30
0.0
 11
670.4957765389067
 21
4966.875201595508
 31
0.0
  0
LINE
  5
C7
330
74
100
AcDbEntity
  8
0
  6
Continuous
 62
   179
100
AcDbLine
 10
670.4957765389067
 20
4966.875201595508
 30
0.0
 11
749.03850925757
 21
4787.922755337993
 31
0.0
  0
LINE
  5
C8
330
74
100
AcDbEntity
  8
0
  6
Continuous
 62
   179
100
AcDbLine
 10
749.03850925757
 20
4787.922755337993
 30
0.0
 11
846.3298658911609
 21
4618.4358151253
 31
0.0
  0
LINE
  5
C9
330
74
100
AcDbEntity
  8
0
  6
Continuous
 62
   179
100
AcDbLine
 10
846.3298658911609
 20
4618.4358151253
 30
0.0
 11
961.3271095995639
 21
4460.423355494228
 31
0.0
  0
LINE
  5
CA
330
74
100
AcDbEntity
  8
0
  6
Continuous
 62
   179
100
AcDbLine
 10
1593.248426399736
 20
3794.889202694205
 30
0.0
 11
2342.8146692
 21
3099.103497494594
 31
0.0
  0
LINE
  5
CB
330
74
100
AcDbEntity
  8
0
  6
Continuous
 62
   179
100
AcDbLine
 10
2342.8146692
 20
3099.103497494594
 30
0.0
 11
2457.41508644016
 21
2985.480496534294
 31
0.0
  0
LINE
  5
CC
330
74
100
AcDbEntity
  8
0
  6
Continuous
 62
   179
100
AcDbLine
 10
2457.41508644016
 20
2985.480496534294
 30
0.0
 11
2562.477793078362
 21
2863.006224607534
 31
0.0
  0
LINE
  5
CD
330
74
100
AcDbEntity
  8
0
  6
Continuous
 62
   179
100
AcDbLine
 10
2562.477793078362
 20
2863.006224607534
 30
0.0
 11
2654.96282441476
 21
2730.807770803294
 31
0.0
  0
LINE
  5
CE
330
74
100
AcDbEntity
  8
0
  6
Continuous
 62
   179
100
AcDbLine
 10
2654.96282441476
 20
2730.807770803294
 30
0.0
 11
2730.907010872539
 21
2588.502832259053
 31
0.0
  0
LINE
  5
CF
330
74
100
AcDbEntity
  8
0
  6
Continuous
 62
   179
100
AcDbLine
 10
2730.907010872539
 20
2588.502832259053
 30
0.0
 11
2787.639276737219
 21
2429.395941682513
 31
0.0
  0
LINE
  5
D0
330
74
100
AcDbEntity
  8
0
  6
Continuous
 62
   179
100
AcDbLine
 10
2787.639276737219
 20
2429.395941682513
 30
0.0
 11
2816.041280448719
 21
2262.926576788534
 31
0.0
  0
LINE
  5
D1
330
74
100
AcDbEntity
  8
0
  6
Continuous
 62
   179
100
AcDbLine
 10
2816.041280448719
 20
2262.926576788534
 30
0.0
 11
2813.394373199999
 21
2094.079701094593
 31
0.0
  0
LINE
  5
D2
330
74
100
AcDbEntity
  8
0
  6
Continuous
 62
   179
100
AcDbLine
 10
2171.389205600197
 20
1438.629399096991
 30
0.0
 11
2081.32716481512
 21
1444.522028523434
 31
0.0
  0
LINE
  5
D3
330
74
100
AcDbEntity
  8
0
  6
Continuous
 62
   179
100
AcDbLine
 10
2081.32716481512
 20
1444.522028523434
 30
0.0
 11
1993.367737841259
 21
1464.526010636294
 31
0.0
  0
LINE
  5
D4
330
74
100
AcDbEntity
  8
0
  6
Continuous
 62
   179
100
AcDbLine
 10
1993.367737841259
 20
1464.526010636294
 30
0.0
 11
1911.343580335419
 21
1501.911515204734
 31
0.0
  0
LINE
  5
D5
330
74
100
AcDbEntity
  8
0
  6
Continuous
 62
   179
100
AcDbLine
 10
1911.343580335419
 20
1501.911515204734
 30
0.0
 11
1840.545099273279
 21
1557.649425118073
 31
0.0
  0
LINE
  5
D6
330
74
100
AcDbEntity
  8
0
  6
Continuous
 62
   179
100
AcDbLine
 10
1840.545099273279
 20
1557.649425118073
 30
0.0
 11
1785.04451687106
 21
1628.675104478674
 31
0.0
  0
LINE
  5
D7
330
74
100
AcDbEntity
  8
0
  6
Continuous
 62
   179
100
AcDbLine
 10
1785.04451687106
 20
1628.675104478674
 30
0.0
 11
1745.281768286479
 21
1709.640546969614
 31
0.0
  0
LINE
  5
D8
330
74
100
AcDbEntity
  8
0
  6
Continuous
 62
   179
100
AcDbLine
 10
1745.281768286479
 20
1709.640546969614
 30
0.0
 11
1710.0353127013
 21
1840.238656514554
 31
0.0
  0
LINE
  5
D9
330
74
100
AcDbEntity
  8
0
  6
Continuous
 62
   179
100
AcDbLine
 10
1710.0353127013
 20
1840.238656514554
 30
0.0
 11
1696.021668805859
 21
1974.897753718553
 31
0.0
  0
LINE
  5
DA
330
74
100
AcDbEntity
  8
0
  6
Continuous
 62
   179
100
AcDbLine
 10
1696.021668805859
 20
1974.897753718553
 30
0.0
 11
1696.59248405488
 21
2110.328397581133
 31
0.0
  0
LINE
  5
DB
330
74
100
AcDbEntity
  8
0
  6
Continuous
 62
   179
100
AcDbLine
 10
1696.59248405488
 20
2110.328397581133
 30
0.0
 11
1707.5320688
 21
2245.337463094594
 31
0.0
  0
LINE
  5
DC
330
74
100
AcDbEntity
  8
0
  6
Continuous
 62
   179
100
AcDbLine
 10
1707.5320688
 20
2245.337463094594
 30
0.0
 11
1781.480308
 21
2897.426481494593
 31
0.0
  0
LINE
  5
DD
330
74
100
AcDbEntity
  8
0
  6
Continuous
 62
   179
100
AcDbLine
 10
1781.480308
 20
2897.426481494593
 30
0.0
 11
94.11594080000097
 21
2897.426481494593
 31
0.0
  0
LINE
  5
DE
330
74
100
AcDbEntity
  8
0
  6
Continuous
 62
   179
100
AcDbLine
 10
94.11594080000097
 20
2897.426481494593
 30
0.0
 11
26.89026879999989
 21
2295.756717094594
 31
0.0
  0
LINE
  5
DF
330
74
100
AcDbEntity
  8
0
  6
Continuous
 62
   179
100
AcDbLine
 10
26.89026879999989
 20
2295.756717094594
 30
0.0
 11
5.820122611701173
 21
2068.368970560354
 31
0.0
  0
LINE
  5
E0
330
74
100
AcDbEntity
  8
0
  6
Continuous
 62
   179
100
AcDbLine
 10
5.820122611701173
 20
2068.368970560354
 30
0.0
 11
0.0
 21
1889.041401494594
 31
0.0
  0
LINE
  5
E1
330
74
100
AcDbEntity
  8
0
  6
Continuous
 62
   179
100
AcDbLine
 10
0.0
 20
1889.041401494594
 30
0.0
 11
0.0
 21
1788.202893494594
 31
0.0
  0
LINE
  5
E2
330
74
100
AcDbEntity
  8
0
  6
Continuous
 62
   179
100
AcDbLine
 10
0.0
 20
1788.202893494594
 30
0.0
 11
8.474118185080926
 21
1597.599261085654
 31
0.0
  0
LINE
  5
E3
330
74
100
AcDbEntity
  8
0
  6
Continuous
 62
   179
100
AcDbLine
 10
8.474118185080926
 20
1597.599261085654
 30
0.0
 11
29.94753216984058
 21
1408.025551519074
 31
0.0
  0
LINE
  5
E4
330
74
100
AcDbEntity
  8
0
  6
Continuous
 62
   179
100
AcDbLine
 10
29.94753216984058
 20
1408.025551519074
 30
0.0
 11
66.51961774536197
 21
1220.793677591394
 31
0.0
  0
LINE
  5
E5
330
74
100
AcDbEntity
  8
0
  6
Continuous
 62
   179
100
AcDbLine
 10
66.51961774536197
 20
1220.793677591394
 30
0.0
 11
120.5660601196215
 21
1037.859231324873
 31
0.0
  0
LINE
  5
E6
330
74
100
AcDbEntity
  8
0
  6
Continuous
 62
   179
100
AcDbLine
 10
120.5660601196215
 20
1037.859231324873
 30
0.0
 11
194.3311383854613
 21
861.9730900701736
 31
0.0
  0
LINE
  5
E7
330
74
100
AcDbEntity
  8
0
  6
Continuous
 62
   179
100
AcDbLine
 10
194.3311383854613
 20
861.9730900701736
 30
0.0
 11
287.5295606572816
 21
699.5021482410535
 31
0.0
  0
LINE
  5
E8
330
74
100
AcDbEntity
  8
0
  6
Continuous
 62
   179
100
AcDbLine
 10
287.5295606572816
 20
699.5021482410535
 30
0.0
 11
401.5974373648614
 21
550.9580491855737
 31
0.0
  0
LINE
  5
E9
330
74
100
AcDbEntity
  8
0
  6
Continuous
 62
   179
100
AcDbLine
 10
401.5974373648614
 20
550.9580491855737
 30
0.0
 11
535.1901037299207
 21
419.6995230366537
 31
0.0
  0
LINE
  5
EA
330
74
100
AcDbEntity
  8
0
  6
Continuous
 62
   179
100
AcDbLine
 10
535.1901037299207
 20
419.6995230366537
 30
0.0
 11
685.4525519750609
 21
307.8901613370536
 31
0.0
  0
LINE
  5
EB
330
74
100
AcDbEntity
  8
0
  6
Continuous
 62
   179
100
AcDbLine
 10
685.4525519750609
 20
307.8901613370536
 30
0.0
 11
880.9909831935801
 21
200.7980430706135
 31
0.0
  0
LINE
  5
EC
330
74
100
AcDbEntity
  8
0
  6
Continuous
 62
   179
100
AcDbLine
 10
880.9909831935801
 20
200.7980430706135
 30
0.0
 11
1088.964854496721
 21
120.3523112471339
 31
0.0
  0
LINE
  5
ED
330
74
100
AcDbEntity
  8
0
  6
Continuous
 62
   179
100
AcDbLine
 10
1088.964854496721
 20
120.3523112471339
 30
0.0
 11
1304.5983771836
 21
63.40275116375354
 31
0.0
  0
LINE
  5
EE
330
74
100
AcDbEntity
  8
0
  6
Continuous
 62
   179
100
AcDbLine
 10
1304.5983771836
 20
63.40275116375354
 30
0.0
 11
1524.56671132784
 21
26.43531137513372
 31
0.0
  0
LINE
  5
EF
330
74
100
AcDbEntity
  8
0
  6
Continuous
 62
   179
100
AcDbLine
 10
1524.56671132784
 20
26.43531137513372
 30
0.0
 11
1746.71819079844
 21
6.202131110053799
 31
0.0
  0
LINE
  5
F0
330
74
100
AcDbEntity
  8
0
  6
Continuous
 62
   179
100
AcDbLine
 10
1746.71819079844
 20
6.202131110053799
 30
0.0
 11
1969.7121896
 21
0.0000182945937288
 31
0.0
  0
LINE
  5
F1
330
74
100
AcDbEntity
  8
0
  6
Continuous
 62
   179
100
AcDbLine
 10
1969.7121896
 20
0.0000182945937288
 30
0.0
 11
2235.41631079674
 21
9.047494151853963
 31
0.0
  0
LINE
  5
F2
330
74
100
AcDbEntity
  8
0
  6
Continuous
 62
   179
100
AcDbLine
 10
2235.41631079674
 20
9.047494151853963
 30
0.0
 11
2499.687465075321
 21
37.90336058021382
 31
0.0
  0
LINE
  5
F3
330
74
100
AcDbEntity
  8
0
  6
Continuous
 62
   179
100
AcDbLine
 10
2499.687465075321
 20
37.90336058021382
 30
0.0
 11
2760.51170427924
 21
89.20461575499394
 31
0.0
  0
LINE
  5
F4
330
74
100
AcDbEntity
  8
0
  6
Continuous
 62
   179
100
AcDbLine
 10
2760.51170427924
 20
89.20461575499394
 30
0.0
 11
3015.141527731302
 21
165.4438899665139
 31
0.0
  0
LINE
  5
F5
330
74
100
AcDbEntity
  8
0
  6
Continuous
 62
   179
100
AcDbLine
 10
3015.141527731302
 20
165.4438899665139
 30
0.0
 11
3208.623602308161
 21
244.1201341123137
 31
0.0
  0
LINE
  5
F6
330
74
100
AcDbEntity
  8
0
  6
Continuous
 62
   179
100
AcDbLine
 10
3208.623602308161
 20
244.1201341123137
 30
0.0
 11
3394.246790928959
 21
339.8610540042337
 31
0.0
  0
LINE
  5
F7
330
74
100
AcDbEntity
  8
0
  6
Continuous
 62
   179
100
AcDbLine
 10
3394.246790928959
 20
339.8610540042337
 30
0.0
 11
3570.082879030022
 21
452.5651803684536
 31
0.0
  0
LINE
  5
F8
330
74
100
AcDbEntity
  8
0
  6
Continuous
 62
   179
100
AcDbLine
 10
3570.082879030022
 20
452.5651803684536
 30
0.0
 11
3734.386079600001
 21
581.5020810945938
 31
0.0
  0
LINE
  5
F9
330
74
100
AcDbEntity
  8
0
  6
Continuous
 62
   179
100
AcDbLine
 10
3734.386079600001
 20
581.5020810945938
 30
0.0
 11
3918.961961318719
 21
762.6068684982137
 31
0.0
  0
LINE
  5
FA
330
74
100
AcDbEntity
  8
0
  6
Continuous
 62
   179
100
AcDbLine
 10
3918.961961318719
 20
762.6068684982137
 30
0.0
 11
4080.611503416499
 21
964.4332031657939
 31
0.0
  0
LINE
  5
FB
330
74
100
AcDbEntity
  8
0
  6
Continuous
 62
   179
100
AcDbLine
 10
4080.611503416499
 20
964.4332031657939
 30
0.0
 11
4217.129324296999
 21
1184.049159043494
 31
0.0
  0
LINE
  5
FC
330
74
100
AcDbEntity
  8
0
  6
Continuous
 62
   179
100
AcDbLine
 10
4217.129324296999
 20
1184.049159043494
 30
0.0
 11
4327.807798901
 21
1417.774486123274
 31
0.0
  0
LINE
  5
FD
330
74
100
AcDbEntity
  8
0
  6
Continuous
 62
   179
100
AcDbLine
 10
4327.807798901
 20
1417.774486123274
 30
0.0
 11
4416.840352257941
 21
1673.661636085314
 31
0.0
  0
LINE
  5
FE
330
74
100
AcDbEntity
  8
0
  6
Continuous
 62
   179
100
AcDbLine
 10
4416.840352257941
 20
1673.661636085314
 30
0.0
 11
4480.332478423042
 21
1937.077635038394
 31
0.0
  0
LINE
  5
FF
330
74
100
AcDbEntity
  8
0
  6
Continuous
 62
   179
100
AcDbLine
 10
4480.332478423042
 20
1937.077635038394
 30
0.0
 11
4520.926442
 21
2205.002059894593
 31
0.0
  0
LINE
  5
100
330
74
100
AcDbEntity
  8
0
  6
Continuous
 62
   179
100
AcDbLine
 10
4520.926442
 20
2205.002059894593
 30
0.0
 11
4539.8604791128
 21
2434.751251136973
 31
0.0
  0
LINE
  5
101
330
74
100
AcDbEntity
  8
0
  6
Continuous
 62
   179
100
AcDbLine
 10
4539.8604791128
 20
2434.751251136973
 30
0.0
 11
4542.01361716364
 21
2665.255576350414
 31
0.0
  0
LINE
  5
102
330
74
100
AcDbEntity
  8
0
  6
Continuous
 62
   179
100
AcDbLine
 10
4542.01361716364
 20
2665.255576350414
 30
0.0
 11
4524.987493222559
 21
2895.123449740493
 31
0.0
  0
LINE
  5
103
330
74
100
AcDbEntity
  8
0
  6
Continuous
 62
   179
100
AcDbLine
 10
4524.987493222559
 20
2895.123449740493
 30
0.0
 11
4496.6310776622
 21
3074.009802170273
 31
0.0
  0
LINE
  5
104
330
74
100
AcDbEntity
  8
0
  6
Continuous
 62
   179
100
AcDbLine
 10
4496.6310776622
 20
3074.009802170273
 30
0.0
 11
4454.037998185081
 21
3250.043048505413
 31
0.0
  0
LINE
  5
105
330
74
100
AcDbEntity
  8
0
  6
Continuous
 62
   179
100
AcDbLine
 10
4454.037998185081
 20
3250.043048505413
 30
0.0
 11
4396.558948800001
 21
3421.786723094594
 31
0.0
  0
LINE
  5
106
330
74
100
AcDbEntity
  8
0
  6
Continuous
 62
   179
100
AcDbLine
 10
4396.558948800001
 20
3421.786723094594
 30
0.0
 11
4335.077579852899
 21
3551.359110741273
 31
0.0
  0
LINE
  5
107
330
74
100
AcDbEntity
  8
0
  6
Continuous
 62
   179
100
AcDbLine
 10
4335.077579852899
 20
3551.359110741273
 30
0.0
 11
4262.200205775581
 21
3674.918854771914
 31
0.0
  0
LINE
  5
108
330
74
100
AcDbEntity
  8
0
  6
Continuous
 62
   179
100
AcDbLine
 10
4262.200205775581
 20
3674.918854771914
 30
0.0
 11
4181.318389436922
 21
3793.411308937154
 31
0.0
  0
LINE
  5
109
330
74
100
AcDbEntity
  8
0
  6
Continuous
 62
   179
100
AcDbLine
 10
4181.318389436922
 20
3793.411308937154
 30
0.0
 11
4078.522747157142
 21
3927.664362884154
 31
0.0
  0
LINE
  5
10A
330
74
100
AcDbEntity
  8
0
  6
Continuous
 62
   179
100
AcDbLine
 10
4078.522747157142
 20
3927.664362884154
 30
0.0
 11
3969.675931600001
 21
4057.069323494594
 31
0.0
  0
LINE
  5
10B
330
74
100
AcDbEntity
  8
0
  6
Continuous
 62
   179
100
AcDbLine
 10
3969.675931600001
 20
4057.069323494594
 30
0.0
 11
3243.638674
 21
4803.274282694592
 31
0.0
  0
LINE
  5
10C
330
74
100
AcDbEntity
  8
0
  6
Continuous
 62
   179
100
AcDbLine
 10
2467.182162398092
 20
5616.704913899501
 30
0.0
 11
2391.575913412139
 21
5727.703944128753
 31
0.0
  0
LINE
  5
10D
330
74
100
AcDbEntity
  8
0
  6
Continuous
 62
   179
100
AcDbLine
 10
2391.575913412139
 20
5727.703944128753
 30
0.0
 11
2326.902387232401
 21
5845.382881749833
 31
0.0
  0
LINE
  5
10E
330
74
100
AcDbEntity
  8
0
  6
Continuous
 62
   179
100
AcDbLine
 10
2326.902387232401
 20
5845.382881749833
 30
0.0
 11
2276.785532117061
 21
5969.920654929314
 31
0.0
  0
LINE
  5
10F
330
74
100
AcDbEntity
  8
0
  6
Continuous
 62
   179
100
AcDbLine
 10
2276.785532117061
 20
5969.920654929314
 30
0.0
 11
2250.543256542281
 21
6072.090477188193
 31
0.0
  0
LINE
  5
110
330
74
100
AcDbEntity
  8
0
  6
Continuous
 62
   179
100
AcDbLine
 10
2250.543256542281
 20
6072.090477188193
 30
0.0
 11
2238.353249875859
 21
6176.849657953893
 31
0.0
  0
LINE
  5
111
330
74
100
AcDbEntity
  8
0
  6
Continuous
 62
   179
100
AcDbLine
 10
2238.353249875859
 20
6176.849657953893
 30
0.0
 11
2241.976161200001
 21
6282.239066694592
 31
0.0
  0
LINE
  5
112
330
74
100
AcDbEntity
  8
0
  6
Continuous
 62
   179
100
AcDbLine
 10
2813.394373200967
 20
6877.186263896149
 30
0.0
 11
2899.145033072479
 21
6871.915988478854
 31
0.0
  0
LINE
  5
113
330
74
100
AcDbEntity
  8
0
  6
Continuous
 62
   179
100
AcDbLine
 10
2899.145033072479
 20
6871.915988478854
 30
0.0
 11
2983.145870252079
 21
6854.084627982133
 31
0.0
  0
LINE
  5
114
330
74
100
AcDbEntity
  8
0
  6
Continuous
 62
   179
100
AcDbLine
 10
2983.145870252079
 20
6854.084627982133
 30
0.0
 11
3062.202014936021
 21
6820.693112019553
 31
0.0
  0
LINE
  5
115
330
74
100
AcDbEntity
  8
0
  6
Continuous
 62
   179
100
AcDbLine
 10
3062.202014936021
 20
6820.693112019553
 30
0.0
 11
3131.662363480119
 21
6770.362935621432
 31
0.0
  0
LINE
  5
116
330
74
100
AcDbEntity
  8
0
  6
Continuous
 62
   179
100
AcDbLine
 10
3131.662363480119
 20
6770.362935621432
 30
0.0
 11
3187.371247960019
 21
6705.118469623453
 31
0.0
  0
LINE
  5
117
330
74
100
AcDbEntity
  8
0
  6
Continuous
 62
   179
100
AcDbLine
 10
3187.371247960019
 20
6705.118469623453
 30
0.0
 11
3228.127477679299
 21
6629.564606807172
 31
0.0
  0
LINE
  5
118
330
74
100
AcDbEntity
  8
0
  6
Continuous
 62
   179
100
AcDbLine
 10
3228.127477679299
 20
6629.564606807172
 30
0.0
 11
3265.03341800494
 21
6506.244136135932
 31
0.0
  0
LINE
  5
119
330
74
100
AcDbEntity
  8
0
  6
Continuous
 62
   179
100
AcDbLine
 10
3265.03341800494
 20
6506.244136135932
 30
0.0
 11
3280.36021042724
 21
6378.310474282153
 31
0.0
  0
LINE
  5
11A
330
74
100
AcDbEntity
  8
0
  6
Continuous
 62
   179
100
AcDbLine
 10
3280.36021042724
 20
6378.310474282153
 30
0.0
 11
3280.752024162281
 21
6249.412203473673
 31
0.0
  0
LINE
  5
11B
330
74
100
AcDbEntity
  8
0
  6
Continuous
 62
   179
100
AcDbLine
 10
3280.752024162281
 20
6249.412203473673
 30
0.0
 11
3270.5289428
 21
6120.897453894593
 31
0.0
  0
LINE
  5
11C
330
74
100
AcDbEntity
  8
0
  6
Continuous
 62
   179
100
AcDbLine
 10
3270.5289428
 20
6120.897453894593
 30
0.0
 11
3206.664554400002
 21
5566.285659894595
 31
0.0
  0
LINE
  5
11D
330
74
100
AcDbEntity
  8
0
  6
Continuous
 62
   179
100
AcDbLine
 10
3206.664554400002
 20
5566.285659894595
 30
0.0
 11
4820.080682400461
 21
5566.285659894543
 31
0.0
  0
LINE
  5
11E
330
74
100
AcDbEntity
  8
0
  6
Continuous
 62
   179
100
AcDbLine
 10
4820.080682400461
 20
5566.285659894543
 30
0.0
 11
4894.028921600461
 21
6231.819812694547
 31
0.0
  0
LINE
  5
11F
330
74
100
AcDbEntity
  8
0
  6
Continuous
 62
   179
100
AcDbLine
 10
4894.028921600461
 20
6231.819812694547
 30
0.0
 11
4907.474056000467
 21
6366.271156694575
 31
0.0
  0
LINE
  5
120
330
74
100
AcDbEntity
  8
0
  6
Continuous
 62
   179
100
AcDbLine
 10
4907.474056000467
 20
6366.271156694575
 30
0.0
 11
4917.486162374486
 21
6641.137716561613
 31
0.0
  0
LINE
  5
121
330
74
100
AcDbEntity
  8
0
  6
Continuous
 62
   179
100
AcDbLine
 10
4917.486162374486
 20
6641.137716561613
 30
0.0
 11
4907.474056000466
 21
6857.018562294656
 31
0.0
  0
LINE
  5
122
330
74
100
AcDbEntity
  8
0
  6
Continuous
 62
   179
100
AcDbLine
 10
24964.54912059258
 20
0.0000125144457019
 30
0.0
 11
26583.76192004468
 21
0.0000125144457019
 31
0.0
  0
LINE
  5
123
330
74
100
AcDbEntity
  8
0
  6
Continuous
 62
   179
100
AcDbLine
 10
24964.54912059258
 20
1424.094829711545
 30
0.0
 11
24964.54912059258
 21
0.0000125144457019
 31
0.0
  0
LINE
  5
124
330
74
100
AcDbEntity
  8
0
  6
Continuous
 62
   179
100
AcDbLine
 10
25016.61353259258
 20
7008.870756911546
 30
0.0
 11
24971.49104219296
 21
3444.194015310926
 31
0.0
  0
LINE
  5
125
330
74
100
AcDbEntity
  8
0
  6
Continuous
 62
   179
100
AcDbLine
 10
24180.11197979258
 20
3343.536152111546
 30
0.0
 11
25016.61353259258
 21
7008.870756911546
 31
0.0
  0
LINE
  5
126
330
74
100
AcDbEntity
  8
0
  6
Continuous
 62
   179
100
AcDbLine
 10
23399.14579979258
 20
0.0000125144449803
 30
0.0
 11
23791.36437019383
 21
1694.829772110233
 31
0.0
  0
LINE
  5
127
330
74
100
AcDbEntity
  8
0
  6
Continuous
 62
   179
100
AcDbLine
 10
21618.54290939258
 20
0.0000125144449803
 30
0.0
 11
23399.14579979258
 21
0.0000125144449803
 31
0.0
  0
LINE
  5
128
330
74
100
AcDbEntity
  8
0
  6
Continuous
 62
   179
100
AcDbLine
 10
23986.75627099296
 20
8289.655292111545
 30
0.0
 11
21618.54290939258
 21
0.0000125144449803
 31
0.0
  0
LINE
  5
129
330
74
100
AcDbEntity
  8
0
  6
Continuous
 62
   179
100
AcDbLine
 10
26353.95153659296
 20
8289.655292111545
 30
0.0
 11
23986.75627099296
 21
8289.655292111545
 31
0.0
  0
LINE
  5
12A
330
74
100
AcDbEntity
  8
0
  6
Continuous
 62
   179
100
AcDbLine
 10
26583.76192004468
 20
0.0000125144457019
 30
0.0
 11
26353.95153659296
 21
8289.655292111545
 31
0.0
  0
ENDBLK
  5
76
330
74
100
AcDbEntity
  8
0
100
AcDbBlockEnd
  0
BLOCK
  5
12C
330
12B
100
AcDbEntity
  8
0
100
AcDbBlockBegin
  2
BLOCK-PROJEKCIJU_VAIZDAVIM
 70
     0
 10
0.0
 20
0.0
 30
0.0
  3
BLOCK-PROJEKCIJU_VAIZDAVIM
  1

  0
CIRCLE
  5
12E
330
12B
100
AcDbEntity
  8
0
  6
Continuous
 62
     7
100
AcDbCircle
 10
0.0
 20
0.0
 30
0.0
 40
3.5
  0
CIRCLE
  5
12F
330
12B
100
AcDbEntity
  8
0
  6
Continuous
 62
     7
100
AcDbCircle
 10
0.0
 20
0.0
 30
0.0
 40
1.5
  0
LINE
  5
130
330
12B
100
AcDbEntity
  8
0
  6
CENTERX2
 62
     7
100
AcDbLine
 10
4.500000000000001
 20
-0.0000000000000001
 30
0.0
 11
-14.5
 21
-0.0000000000000024
 31
0.0
  0
LINE
  5
131
330
12B
100
AcDbEntity
  8
0
  6
Continuous
 62
     7
100
AcDbLine
 10
-13.5
 20
1.499999999999998
 30
0.0
 11
-13.5
 21
-1.500000000000002
 31
0.0
  0
LINE
  5
132
330
12B
100
AcDbEntity
  8
0
  6
Continuous
 62
     7
100
AcDbLine
 10
-13.5
 20
-1.500000000000002
 30
0.0
 11
-6.5
 21
-3.500000000000001
 31
0.0
  0
LINE
  5
133
330
12B
100
AcDbEntity
  8
0
  6
Continuous
 62
     7
100
AcDbLine
 10
-6.5
 20
-3.500000000000001
 30
0.0
 11
-6.500000000000001
 21
3.499999999999999
 31
0.0
  0
LINE
  5
134
330
12B
100
AcDbEntity
  8
0
  6
Continuous
 62
     7
100
AcDbLine
 10
-6.500000000000001
 20
3.499999999999999
 30
0.0
 11
-13.5
 21
1.499999999999998
 31
0.0
  0
LINE
  5
135
330
12B
100
AcDbEntity
  8
0
  6
CENTERX2
 62
     7
100
AcDbLine
 10
0.0
 20
4.500000000000001
 30
0.0
 11
0.0000000000000011
 21
-4.500000000000003
 31
0.0
  0
ENDBLK
  5
12D
330
12B
100
AcDbEntity
  8
0
100
AcDbBlockEnd
  0
ENDSEC
  0
SECTION
  2
ENTITIES
  0
LINE
  5
142
330
1F
100
AcDbEntity
  8
0
  6
Continuous
 62
     7
100
AcDbLine
 10
462.870613141412
 20
473.5104289819784
 30
0.0
 11
462.870613141412
 21
504.5104471017905
 31
0.0
  0
LINE
  5
143
330
1F
100
AcDbEntity
  8
0
  6
Continuous
 62
     7
100
AcDbLine
 10
324.3706081346218
 20
504.5104471017905
 30
0.0
 11
324.3706081346218
 21
473.5104289819784
 31
0.0
  0
LINE
  5
144
330
1F
100
AcDbEntity
  8
0
  6
Continuous
 62
     7
100
AcDbLine
 10
49.27060048138543
 20
473.5104289819784
 30
0.0
 11
49.27060048138543
 21
504.5104471017905
 31
0.0
  0
LINE
  5
145
330
1F
100
AcDbEntity
  8
0
  6
Continuous
 62
     7
100
AcDbLine
 10
-89.22938962424351
 20
504.5104471017905
 30
0.0
 11
-89.22938962424351
 21
473.5104289819784
 31
0.0
  0
LINE
  5
160
330
1F
100
AcDbEntity
  8
0
  6
Continuous
 62
     7
100
AcDbLine
 10
180.5706009552424
 20
473.5104289819784
 30
0.0
 11
180.5706009552424
 21
504.2104569246359
 31
0.0
  0
LINE
  5
161
330
1F
100
AcDbEntity
  8
0
  6
Continuous
 62
     7
100
AcDbLine
 10
54.07060722863122
 20
504.2104569246359
 30
0.0
 11
54.07060722863122
 21
473.5104289819784
 31
0.0
  0
LINE
  5
164
330
1F
100
AcDbEntity
  8
0
  6
Continuous
 62
     7
100
AcDbLine
 10
316.370599372739
 20
473.5104289819784
 30
0.0
 11
316.370599372739
 21
504.2104569246359
 31
0.0
  0
LINE
  5
165
330
1F
100
AcDbEntity
  8
0
  6
Continuous
 62
     7
100
AcDbLine
 10
189.870600989515
 20
504.2104569246359
 30
0.0
 11
189.870600989515
 21
473.5104289819784
 31
0.0
  0
LINE
  5
182
330
1F
100
AcDbEntity
  8
0
  6
Continuous
 62
     7
100
AcDbLine
 10
458.8485513166134
 20
-145.289564786356
 30
0.0
 11
458.8485513166134
 21
472.3104086687155
 31
0.0
  0
LINE
  5
186
330
1F
100
AcDbEntity
  8
0
  6
Continuous
 62
     7
100
AcDbLine
 10
-101.6073371931369
 20
-145.289564786356
 30
0.0
 11
-101.6073371931369
 21
472.3104086687155
 31
0.0
  0
LINE
  5
188
330
1F
100
AcDbEntity
  8
0
  6
Continuous
 62
     7
100
AcDbLine
 10
-101.6073371931369
 20
472.3104086687155
 30
0.0
 11
-101.6073371931369
 21
473.5104289819784
 31
0.0
  0
LINE
  5
189
330
1F
100
AcDbEntity
  8
0
  6
Continuous
 62
     7
100
AcDbLine
 10
458.8485513166134
 20
473.5104289819784
 30
0.0
 11
-101.6073371931369
 21
473.5104289819784
 31
0.0
  0
LINE
  5
18A
330
1F
100
AcDbEntity
  8
0
  6
Continuous
 62
     7
100
AcDbLine
 10
458.8485513166134
 20
473.5104289819784
 30
0.0
 11
458.8485513166134
 21
472.3104086687155
 31
0.0
  0
LINE
  5
18B
330
1F
100
AcDbEntity
  8
0
  6
Continuous
 62
     7
100
AcDbLine
 10
-101.6073371931369
 20
-146.4895646105223
 30
0.0
 11
458.8485513166134
 21
-146.4895646105223
 31
0.0
  0
LINE
  5
18C
330
1F
100
AcDbEntity
  8
0
  6
Continuous
 62
     7
100
AcDbLine
 10
-101.6073371931369
 20
-146.4895646105223
 30
0.0
 11
-101.6073371931369
 21
-145.289564786356
 31
0.0
  0
LINE
  5
18D
330
1F
100
AcDbEntity
  8
0
  6
Continuous
 62
     7
100
AcDbLine
 10
458.8485513166134
 20
-145.289564786356
 30
0.0
 11
458.8485513166134
 21
-146.4895646105223
 31
0.0
  0
LINE
  5
192
330
1F
100
AcDbEntity
  8
0
  6
Continuous
 62
     7
100
AcDbLine
 10
474.5206091836636
 20
473.5104289819784
 30
0.0
 11
458.8485513166134
 21
473.5104289819784
 31
0.0
  0
LINE
  5
194
330
1F
100
AcDbEntity
  8
0
  6
Continuous
 62
     7
100
AcDbLine
 10
474.5206091836636
 20
-146.4895646105223
 30
0.0
 11
458.8485513166134
 21
-146.4895646105223
 31
0.0
  0
LINE
  5
196
330
1F
100
AcDbEntity
  8
0
  6
Continuous
 62
     7
100
AcDbLine
 10
-117.2793950601871
 20
473.5104289819784
 30
0.0
 11
-101.6073371931369
 21
473.5104289819784
 31
0.0
  0
LINE
  5
198
330
1F
100
AcDbEntity
  8
0
  6
Continuous
 62
     7
100
AcDbLine
 10
-117.2793950601871
 20
-146.4895646105223
 30
0.0
 11
-101.6073371931369
 21
-146.4895646105223
 31
0.0
  0
LINE
  5
19A
330
1F
100
AcDbEntity
  8
0
  6
Continuous
 62
     7
100
AcDbLine
 10
477.6205871537869
 20
-145.289564786356
 30
0.0
 11
477.6205871537869
 21
472.3104086687155
 31
0.0
  0
LINE
  5
19D
330
1F
100
AcDbEntity
  8
0
  6
Continuous
 62
     7
100
AcDbLine
 10
-120.3794028326328
 20
-145.289564786356
 30
0.0
 11
-120.3794028326328
 21
472.3104086687155
 31
0.0
  0
ARC
  5
1A2
330
1F
100
AcDbEntity
  8
0
  6
Continuous
 62
     7
100
AcDbCircle
 10
476.4206010490975
 20
472.3104345938438
 30
0.0
 40
1.200000000000102
100
AcDbArc
 50
0.0
 51
90.0
  0
ARC
  5
1A3
330
1F
100
AcDbEntity
  8
0
  6
Continuous
 62
     7
100
AcDbCircle
 10
476.4206010490952
 20
-145.2895654061561
 30
0.0
 40
1.199999999999989
100
AcDbArc
 50
270.0000000000008
 51
0.0
  0
ARC
  5
1A7
330
1F
100
AcDbEntity
  8
0
  6
Continuous
 62
     7
100
AcDbCircle
 10
-119.1793989509025
 20
472.310434593846
 30
0.0
 40
1.199999999999989
100
AcDbArc
 50
90.0
 51
180.0
  0
ARC
  5
1AE
330
1F
100
AcDbEntity
  8
0
  6
Continuous
 62
     7
100
AcDbCircle
 10
-119.1793989509048
 20
-145.289565406154
 30
0.0
 40
1.199999999999989
100
AcDbArc
 50
180.0
 51
270.0000000000008
  0
LINE
  5
1B1
330
1F
100
AcDbEntity
  8
0
  6
Continuous
 62
     7
100
AcDbLine
 10
476.4205966428463
 20
473.5104289819784
 30
0.0
 11
474.8205993608181
 21
473.5104289819784
 31
0.0
  0
LINE
  5
1B2
330
1F
100
AcDbEntity
  8
0
  6
Continuous
 62
     7
100
AcDbLine
 10
476.4205966428463
 20
-146.4895646105223
 30
0.0
 11
474.8205993608181
 21
-146.4895646105223
 31
0.0
  0
LINE
  5
1B5
330
1F
100
AcDbEntity
  8
0
  6
Continuous
 62
     7
100
AcDbLine
 10
-119.1794123216922
 20
473.5104289819784
 30
0.0
 11
-117.5793852373417
 21
473.5104289819784
 31
0.0
  0
LINE
  5
1B9
330
1F
100
AcDbEntity
  8
0
  6
Continuous
 62
     7
100
AcDbLine
 10
-119.1794123216922
 20
-146.4895646105223
 30
0.0
 11
-117.5793852373417
 21
-146.4895646105223
 31
0.0
  0
ARC
  5
1BB
330
1F
100
AcDbEntity
  8
0
  6
Continuous
 62
     7
100
AcDbCircle
 10
437.6206010492407
 20
-131.4895654062502
 30
0.0
 40
8.0
100
AcDbArc
 50
235.5380344359802
 51
90.00000000000082
  0
ARC
  5
1BC
330
1F
100
AcDbEntity
  8
0
  6
Continuous
 62
     7
100
AcDbCircle
 10
437.6206010492407
 20
-131.4895654062502
 30
0.0
 40
8.00000000000217
100
AcDbArc
 50
90.00000000000082
 51
145.5380344359771
  0
ARC
  5
1BD
330
1F
100
AcDbEntity
  8
0
  6
Continuous
 62
     7
100
AcDbCircle
 10
-80.37939895074955
 20
458.5104345937582
 30
0.0
 40
8.000000000005436
100
AcDbArc
 50
235.538034435923
 51
90.00000000000082
  0
ARC
  5
1BE
330
1F
100
AcDbEntity
  8
0
  6
Continuous
 62
     7
100
AcDbCircle
 10
-80.37939895074955
 20
458.5104345937582
 30
0.0
 40
8.00000000001018
100
AcDbArc
 50
90.00000000000082
 51
145.5380344360336
  0
ARC
  5
1BF
330
1F
100
AcDbEntity
  8
0
  6
Continuous
 62
     7
100
AcDbCircle
 10
-80.37939895076398
 20
-131.4895654062414
 30
0.0
 40
8.000000000002405
100
AcDbArc
 50
235.5380344360093
 51
90.00000000000082
  0
ARC
  5
1C0
330
1F
100
AcDbEntity
  8
0
  6
Continuous
 62
     7
100
AcDbCircle
 10
-80.37939895076398
 20
-131.4895654062414
 30
0.0
 40
8.000000000000014
100
AcDbArc
 50
90.00000000000082
 51
145.5380344360119
  0
ARC
  5
1C1
330
1F
100
AcDbEntity
  8
0
  6
Continuous
 62
     7
100
AcDbCircle
 10
437.620601049245
 20
458.5104345937496
 30
0.0
 40
8.0
100
AcDbArc
 50
235.5380344359545
 51
90.00000000000082
  0
ARC
  5
1C2
330
1F
100
AcDbEntity
  8
0
  6
Continuous
 62
     7
100
AcDbCircle
 10
437.620601049245
 20
458.5104345937496
 30
0.0
 40
8.000000000005796
100
AcDbArc
 50
90.00000000000082
 51
145.5380344359573
  0
LINE
  5
212
330
1F
100
AcDbEntity
  8
0
  6
Continuous
 62
     7
100
AcDbLine
 10
-117.5793852373417
 20
-146.4895646105223
 30
0.0
 11
-117.2793950601871
 21
-146.4895646105223
 31
0.0
  0
LINE
  5
213
330
1F
100
AcDbEntity
  8
0
  6
Continuous
 62
     7
100
AcDbLine
 10
474.5206091836636
 20
-146.4895646105223
 30
0.0
 11
474.8205993608181
 21
-146.4895646105223
 31
0.0
  0
LINE
  5
215
330
1F
100
AcDbEntity
  8
0
  6
Continuous
 62
     7
100
AcDbLine
 10
324.3706081346218
 20
504.5104471017905
 30
0.0
 11
462.870613141412
 21
504.5104471017905
 31
0.0
  0
LINE
  5
218
330
1F
100
AcDbEntity
  8
0
  6
Continuous
 62
     7
100
AcDbLine
 10
-21.32905979598121
 20
504.5104471017905
 30
0.0
 11
49.27060048138543
 21
504.5104471017905
 31
0.0
  0
LINE
  5
219
330
1F
100
AcDbEntity
  8
0
  6
Continuous
 62
     7
100
AcDbLine
 10
-89.22938962424351
 20
504.5104471017905
 30
0.0
 11
-21.44990821326331
 21
504.5104471017905
 31
0.0
  0
CIRCLE
  5
23A
330
1F
100
AcDbEntity
  8
0
  6
Continuous
 62
     7
100
AcDbCircle
 10
437.6206010492404
 20
-131.4895654062469
 30
0.0
 40
8.00000000000004
  0
CIRCLE
  5
23D
330
1F
100
AcDbEntity
  8
0
  6
Continuous
 62
     7
100
AcDbCircle
 10
-80.37939895076376
 20
-131.4895654062444
 30
0.0
 40
8.000000000000025
  0
CIRCLE
  5
240
330
1F
100
AcDbEntity
  8
0
  6
Continuous
 62
     7
100
AcDbCircle
 10
437.6206010492432
 20
458.5104345937571
 30
0.0
 40
8.000000000000066
  0
CIRCLE
  5
243
330
1F
100
AcDbEntity
  8
0
  6
Continuous
 62
     7
100
AcDbCircle
 10
-80.37939895076099
 20
458.5104345937596
 30
0.0
 40
8.00000000000004
  0
LINE
  5
248
330
1F
100
AcDbEntity
  8
0
  6
Continuous
 62
     7
100
AcDbLine
 10
474.8205993608181
 20
473.5104289819784
 30
0.0
 11
474.5206091836636
 21
473.5104289819784
 31
0.0
  0
LINE
  5
249
330
1F
100
AcDbEntity
  8
0
  6
Continuous
 62
     7
100
AcDbLine
 10
-117.2793950601871
 20
473.5104289819784
 30
0.0
 11
-117.5793852373417
 21
473.5104289819784
 31
0.0
  0
LINE
  5
24C
330
1F
100
AcDbEntity
  8
0
  6
Continuous
 62
     7
100
AcDbLine
 10
180.5706009552424
 20
504.2104569246359
 30
0.0
 11
54.07060722863122
 21
504.2104569246359
 31
0.0
  0
LINE
  5
24F
330
1F
100
AcDbEntity
  8
0
  6
Continuous
 62
     7
100
AcDbLine
 10
253.1206015781109
 20
504.2104569246359
 30
0.0
 11
189.870600989515
 21
504.2104569246359
 31
0.0
  0
LINE
  5
250
330
1F
100
AcDbEntity
  8
0
  6
Continuous
 62
     7
100
AcDbLine
 10
316.370599372739
 20
504.2104569246359
 30
0.0
 11
253.1206015781109
 21
504.2104569246359
 31
0.0
  0
LINE
  5
269
330
1F
100
AcDbEntity
  8
0
  6
Continuous
 62
     7
100
AcDbLine
 10
-88.37939758742408
 20
-715.5566385832601
 30
0.0
 11
-88.37939758742408
 21
-716.556640609818
 31
0.0
  0
LINE
  5
26A
330
1F
100
AcDbEntity
  8
0
  6
Continuous
 62
     7
100
AcDbLine
 10
-72.37939496481971
 20
-716.556640609818
 30
0.0
 11
-72.37939496481971
 21
-715.5566385832601
 31
0.0
  0
LINE
  5
26B
330
1F
100
AcDbEntity
  8
0
  6
Continuous
 62
     7
100
AcDbLine
 10
429.6205941871349
 20
-715.5566385832601
 30
0.0
 11
429.6205941871349
 21
-716.556640609818
 31
0.0
  0
LINE
  5
26C
330
1F
100
AcDbEntity
  8
0
  6
Continuous
 62
     7
100
AcDbLine
 10
445.6206117109005
 20
-716.556640609818
 30
0.0
 11
445.6206117109005
 21
-715.5566385832601
 31
0.0
  0
LINE
  5
26D
330
1F
100
AcDbEntity
  8
0
  6
Continuous
 62
     7
100
AcDbLine
 10
-72.37939496481971
 20
-395.5566382852368
 30
0.0
 11
-72.37939496481971
 21
-394.5566362586789
 31
0.0
  0
LINE
  5
26E
330
1F
100
AcDbEntity
  8
0
  6
Continuous
 62
     7
100
AcDbLine
 10
-88.37939758742408
 20
-394.5566362586789
 30
0.0
 11
-88.37939758742408
 21
-395.5566382852368
 31
0.0
  0
LINE
  5
26F
330
1F
100
AcDbEntity
  8
0
  6
Continuous
 62
     7
100
AcDbLine
 10
445.6206117109005
 20
-395.5566382852368
 30
0.0
 11
445.6206117109005
 21
-394.5566362586789
 31
0.0
  0
LINE
  5
270
330
1F
100
AcDbEntity
  8
0
  6
Continuous
 62
     7
100
AcDbLine
 10
429.6205941871349
 20
-394.5566362586789
 30
0.0
 11
429.6205941871349
 21
-395.5566382852368
 31
0.0
  0
ARC
  5
293
330
1F
100
AcDbEntity
  8
0
  6
Continuous
 62
     7
100
AcDbCircle
 10
429.8206010492515
 20
-394.4677949528856
 30
0.0
 40
0.1999999999999886
100
AcDbArc
 50
121.6579514611512
 51
180.0
  0
ARC
  5
294
330
1F
100
AcDbEntity
  8
0
  6
Continuous
 62
     7
100
AcDbCircle
 10
445.4206010492515
 20
-394.4677949528856
 30
0.0
 40
0.199999999999997
100
AcDbArc
 50
0.0
 51
58.34204853883496
  0
LINE
  5
295
330
1F
100
AcDbEntity
  8
0
  6
Continuous
 62
     7
100
AcDbLine
 10
445.6206117109005
 20
-394.5566362586789
 30
0.0
 11
445.6206117109005
 21
-394.4677955356412
 31
0.0
  0
LINE
  5
296
330
1F
100
AcDbEntity
  8
0
  6
Continuous
 62
     7
100
AcDbLine
 10
429.6205941871349
 20
-394.4677955356412
 30
0.0
 11
429.6205941871349
 21
-394.5566362586789
 31
0.0
  0
ARC
  5
297
330
1F
100
AcDbEntity
  8
0
  6
Continuous
 62
     7
100
AcDbCircle
 10
437.6216010492515
 20
-407.1162052842508
 30
0.0
 40
15.0595654347826
100
AcDbArc
 50
58.34204853884166
 51
90.0
  0
ARC
  5
298
330
1F
100
AcDbEntity
  8
0
  6
Continuous
 62
     7
100
AcDbCircle
 10
437.6196010492515
 20
-407.1162052842508
 30
0.0
 40
15.0595654347826
100
AcDbArc
 50
90.0
 51
121.6579514611584
  0
ARC
  5
299
330
1F
100
AcDbEntity
  8
0
  6
Continuous
 62
     7
100
AcDbCircle
 10
-88.17939895075655
 20
-394.4677949528835
 30
0.0
 40
0.1999999999999744
100
AcDbArc
 50
121.6579514611477
 51
180.0
  0
ARC
  5
29A
330
1F
100
AcDbEntity
  8
0
  6
Continuous
 62
     7
100
AcDbCircle
 10
-72.57939895075654
 20
-394.4677949528835
 30
0.0
 40
0.2000000000000313
100
AcDbArc
 50
0.0
 51
58.34204853883843
  0
LINE
  5
29B
330
1F
100
AcDbEntity
  8
0
  6
Continuous
 62
     7
100
AcDbLine
 10
-72.37939496481971
 20
-394.5566362586789
 30
0.0
 11
-72.37939496481971
 21
-394.4677955356412
 31
0.0
  0
LINE
  5
29C
330
1F
100
AcDbEntity
  8
0
  6
Continuous
 62
     7
100
AcDbLine
 10
-88.37939758742408
 20
-394.4677955356412
 30
0.0
 11
-88.37939758742408
 21
-394.5566362586789
 31
0.0
  0
ARC
  5
29D
330
1F
100
AcDbEntity
  8
0
  6
Continuous
 62
     7
100
AcDbCircle
 10
-80.37839895075649
 20
-407.1162052842486
 30
0.0
 40
15.0595654347826
100
AcDbArc
 50
58.34204853884168
 51
90.0
  0
ARC
  5
29E
330
1F
100
AcDbEntity
  8
0
  6
Continuous
 62
     7
100
AcDbCircle
 10
-80.38039895075654
 20
-407.1162052842486
 30
0.0
 40
15.0595654347826
100
AcDbArc
 50
90.0
 51
121.6579514611583
  0
LINE
  5
29F
330
1F
100
AcDbEntity
  8
0
  6
Continuous
 62
     7
100
AcDbLine
 10
429.6205941871349
 20
-716.556640609818
 30
0.0
 11
429.6205941871349
 21
-716.6454813328558
 31
0.0
  0
LINE
  5
2A0
330
1F
100
AcDbEntity
  8
0
  6
Continuous
 62
     7
100
AcDbLine
 10
445.6206117109005
 20
-716.6454813328558
 30
0.0
 11
445.6206117109005
 21
-716.556640609818
 31
0.0
  0
ARC
  5
2A1
330
1F
100
AcDbEntity
  8
0
  6
Continuous
 62
     7
100
AcDbCircle
 10
445.4206010492431
 20
-716.6454847460692
 30
0.0
 40
0.2000000000000455
100
AcDbArc
 50
301.6579514611659
 51
0.0
  0
ARC
  5
2A2
330
1F
100
AcDbEntity
  8
0
  6
Continuous
 62
     7
100
AcDbCircle
 10
429.8206010492431
 20
-716.6454847460686
 30
0.0
 40
0.199999999999997
100
AcDbArc
 50
180.0
 51
238.3420485388358
  0
ARC
  5
2A3
330
1F
100
AcDbEntity
  8
0
  6
Continuous
 62
     7
100
AcDbCircle
 10
437.6196010492435
 20
-703.9970744147037
 30
0.0
 40
15.0595654347826
100
AcDbArc
 50
238.3420485388407
 51
269.9999999999993
  0
ARC
  5
2A4
330
1F
100
AcDbEntity
  8
0
  6
Continuous
 62
     7
100
AcDbCircle
 10
437.6216010492436
 20
-703.9970744147037
 30
0.0
 40
15.05956543478267
100
AcDbArc
 50
269.9999999999989
 51
301.6579514611572
  0
ARC
  5
2A5
330
1F
100
AcDbEntity
  8
0
  6
Continuous
 62
     7
100
AcDbCircle
 10
-72.57939895076105
 20
-716.6454847460526
 30
0.0
 40
0.2000000000000313
100
AcDbArc
 50
301.6579514611624
 51
0.0
  0
ARC
  5
2A6
330
1F
100
AcDbEntity
  8
0
  6
Continuous
 62
     7
100
AcDbCircle
 10
-88.17939895076104
 20
-716.645484746052
 30
0.0
 40
0.1999999999999896
100
AcDbArc
 50
180.0
 51
238.3420485388392
  0
LINE
  5
2A7
330
1F
100
AcDbEntity
  8
0
  6
Continuous
 62
     7
100
AcDbLine
 10
-88.37939758742408
 20
-716.556640609818
 30
0.0
 11
-88.37939758742408
 21
-716.6454813328558
 31
0.0
  0
LINE
  5
2A8
330
1F
100
AcDbEntity
  8
0
  6
Continuous
 62
     7
100
AcDbLine
 10
-72.37939496481971
 20
-716.6454813328558
 30
0.0
 11
-72.37939496481971
 21
-716.556640609818
 31
0.0
  0
ARC
  5
2A9
330
1F
100
AcDbEntity
  8
0
  6
Continuous
 62
     7
100
AcDbCircle
 10
-80.38039895076061
 20
-703.9970744146871
 30
0.0
 40
15.05956543478271
100
AcDbArc
 50
238.3420485388406
 51
269.9999999999989
  0
ARC
  5
2AA
330
1F
100
AcDbEntity
  8
0
  6
Continuous
 62
     7
100
AcDbCircle
 10
-80.3783989507606
 20
-703.9970744146871
 30
0.0
 40
15.05956543478271
100
AcDbArc
 50
269.9999999999989
 51
301.657951461157
  0
LINE
  5
304
330
1F
100
AcDbEntity
  8
0
  6
Continuous
 62
     7
100
AcDbLine
 10
474.308476252908
 20
-696.2566397038274
 30
0.0
 11
-117.0672621294315
 21
-696.2566397038274
 31
0.0
  0
LINE
  5
309
330
1F
100
AcDbEntity
  8
0
  6
Continuous
 62
     7
100
AcDbLine
 10
-120.3794028326328
 20
-702.2396794405752
 30
0.0
 11
-120.3794028326328
 21
-697.4566451159292
 31
0.0
  0
LINE
  5
30F
330
1F
100
AcDbEntity
  8
0
  6
Continuous
 62
     7
100
AcDbLine
 10
458.8485513166134
 20
-715.5566385832601
 30
0.0
 11
-101.607337193137
 21
-715.5566385832601
 31
0.0
  0
LINE
  5
31A
330
1F
100
AcDbEntity
  8
0
  6
Continuous
 62
     7
100
AcDbLine
 10
477.6205871537869
 20
-697.4566451159292
 30
0.0
 11
477.6205871537869
 21
-702.2396794405752
 31
0.0
  0
SPLINE
  5
31D
330
1F
100
AcDbEntity
  8
0
  6
Continuous
 62
     7
100
AcDbSpline
210
0.0
220
0.0
230
1.0
 70
     8
 71
     3
 72
    11
 73
     7
 74
     0
 42
0.000000001
 43
0.00000001
 40
0.0
 40
0.0
 40
0.0
 40
0.0
 40
0.2499889476775105
 40
0.499991892200096
 40
0.7499992011619445
 40
1.0
 40
1.0
 40
1.0
 40
1.0
 10
-119.1794123216923
 20
-696.2566397038274
 30
0.0
 10
-119.3366481986325
 20
-696.274678345955
 30
0.0
 10
-119.6511287561272
 20
-696.310756640191
 30
0.0
 10
-120.0477707130493
 20
-696.5882599428537
 30
0.0
 10
-120.3252925703393
 20
-696.9848994122907
 30
0.0
 10
-120.3613662350951
 20
-697.299397912977
 30
0.0
 10
-120.3794028326328
 20
-697.4566451159292
 30
0.0
  0
ARC
  5
321
330
1F
100
AcDbEntity
  8
0
  6
Continuous
 62
     7
100
AcDbCircle
 10
-119.1793989509026
 20
-702.2396727592035
 30
0.0
 40
1.200000000000049
100
AcDbArc
 50
180.0
 51
200.8228943842191
  0
ARC
  5
323
330
1F
100
AcDbEntity
  8
0
  6
Continuous
 62
     7
100
AcDbCircle
 10
-101.6073452539837
 20
-695.5566398494688
 30
0.0
 40
20.0
100
AcDbArc
 50
200.8228943842169
 51
269.9999999999989
  0
ARC
  5
326
330
1F
100
AcDbEntity
  8
0
  6
Continuous
 62
     7
100
AcDbCircle
 10
458.848547352179
 20
-695.5566398494868
 30
0.0
 40
20.0
100
AcDbArc
 50
269.9999999999989
 51
339.1771056157811
  0
SPLINE
  5
327
330
1F
100
AcDbEntity
  8
0
  6
Continuous
 62
     7
100
AcDbSpline
210
0.0
220
0.0
230
1.0
 70
     8
 71
     3
 72
    11
 73
     7
 74
     0
 42
0.000000001
 43
0.00000001
 40
0.0
 40
0.0
 40
0.0
 40
0.0
 40
0.2499991287077511
 40
0.4999960388494067
 40
0.7499973132273535
 40
0.9999999999999999
 40
0.9999999999999999
 40
0.9999999999999999
 40
0.9999999999999999
 10
477.6205871537869
 20
-697.4566451159292
 30
0.0
 10
477.6025484427365
 20
-697.2993993474898
 30
0.0
 10
477.5664711807167
 20
-696.9849092060568
 30
0.0
 10
477.2889881558478
 20
-696.5882515240256
 30
0.0
 10
476.8923327351495
 20
-696.3107519758374
 30
0.0
 10
476.5778423030681
 20
-696.2746771617984
 30
0.0
 10
476.4205966428463
 20
-696.2566397038274
 30
0.0
  0
ARC
  5
32B
330
1F
100
AcDbEntity
  8
0
  6
Continuous
 62
     7
100
AcDbCircle
 10
476.4206010490975
 20
-702.2396727592227
 30
0.0
 40
1.199999999999989
100
AcDbArc
 50
339.1771056157803
 51
0.0
  0
LINE
  5
32D
330
1F
100
AcDbEntity
  8
0
  6
Continuous
 62
     7
100
AcDbLine
 10
-117.5793852373417
 20
-696.2566397038274
 30
0.0
 11
-119.1794123216923
 21
-696.2566397038274
 31
0.0
  0
LINE
  5
32F
330
1F
100
AcDbEntity
  8
0
  6
Continuous
 62
     7
100
AcDbLine
 10
474.8205993608181
 20
-696.2566397038274
 30
0.0
 11
476.4205966428463
 21
-696.2566397038274
 31
0.0
  0
LINE
  5
34A
330
1F
100
AcDbEntity
  8
0
  6
Continuous
 62
     7
100
AcDbLine
 10
473.4206054643337
 20
-414.8566371646695
 30
0.0
 11
-116.1793913408573
 21
-414.8566371646695
 31
0.0
  0
LINE
  5
34E
330
1F
100
AcDbEntity
  8
0
  6
Continuous
 62
     7
100
AcDbLine
 10
-116.6793849035557
 20
-414.8566371646695
 30
0.0
 11
-116.1793913408573
 21
-414.8566371646695
 31
0.0
  0
LINE
  5
351
330
1F
100
AcDbEntity
  8
0
  6
Continuous
 62
     7
100
AcDbLine
 10
473.4206054643337
 20
-414.8566371646695
 30
0.0
 11
473.9205990270321
 21
-414.8566371646695
 31
0.0
  0
LINE
  5
357
330
1F
100
AcDbEntity
  8
0
  6
Continuous
 62
     7
100
AcDbLine
 10
-116.1793913408573
 20
-696.2566397038274
 30
0.0
 11
473.4206054643337
 21
-696.2566397038274
 31
0.0
  0
LINE
  5
359
330
1F
100
AcDbEntity
  8
0
  6
Continuous
 62
     7
100
AcDbLine
 10
474.8205993608181
 20
-696.2566397038274
 30
0.0
 11
474.308476252908
 21
-696.2566397038274
 31
0.0
  0
LINE
  5
35C
330
1F
100
AcDbEntity
  8
0
  6
Continuous
 62
     7
100
AcDbLine
 10
-117.0672621294315
 20
-696.2566397038274
 30
0.0
 11
-117.5793852373417
 21
-696.2566397038274
 31
0.0
  0
LINE
  5
366
330
1F
100
AcDbEntity
  8
0
  6
Continuous
 62
     7
100
AcDbLine
 10
475.9206030801479
 20
-395.5566382852368
 30
0.0
 11
-118.6793889566715
 21
-395.5566382852368
 31
0.0
  0
LINE
  5
36E
330
1F
100
AcDbEntity
  8
0
  6
Continuous
 62
     7
100
AcDbLine
 10
475.7438157037441
 20
-414.8566371646695
 30
0.0
 11
473.9205990270321
 21
-414.8566371646695
 31
0.0
  0
LINE
  5
36F
330
1F
100
AcDbEntity
  8
0
  6
Continuous
 62
     7
100
AcDbLine
 10
-116.6793849035557
 20
-414.8566371646695
 30
0.0
 11
-118.5026313825901
 21
-414.8566371646695
 31
0.0
  0
ARC
  5
374
330
1F
100
AcDbEntity
  8
0
  6
Continuous
 62
     7
100
AcDbCircle
 10
475.9206010492563
 20
-413.1566398495036
 30
0.0
 40
1.699999999999989
100
AcDbArc
 50
269.9999999999912
 51
359.9999999999989
  0
LINE
  5
376
330
1F
100
AcDbEntity
  8
0
  6
Continuous
 62
     7
100
AcDbLine
 10
477.6205871537869
 20
-397.2566372600369
 30
0.0
 11
477.6205871537869
 21
-413.1566381898694
 31
0.0
  0
LINE
  5
37B
330
1F
100
AcDbEntity
  8
0
  6
Continuous
 62
     7
100
AcDbLine
 10
-120.3794028326328
 20
-413.1566381898694
 30
0.0
 11
-120.3794028326328
 21
-397.2566372600369
 31
0.0
  0
LINE
  5
37D
330
1F
100
AcDbEntity
  8
0
  6
Continuous
 62
     7
100
AcDbLine
 10
-118.6793889566715
 20
-414.8566371646695
 30
0.0
 11
-118.6793889566715
 21
-414.8298672285848
 31
0.0
  0
ARC
  5
37E
330
1F
100
AcDbEntity
  8
0
  6
Continuous
 62
     7
100
AcDbCircle
 10
-118.6793989507445
 20
-413.1566398494248
 30
0.0
 40
1.699999999999989
100
AcDbArc
 50
179.9999999999924
 51
269.999999999997
  0
ARC
  5
380
330
1F
100
AcDbEntity
  8
0
  6
Continuous
 62
     7
100
AcDbCircle
 10
475.92060104926
 20
-397.2566398495035
 30
0.0
 40
1.700000000000557
100
AcDbArc
 50
359.9999999999855
 51
89.99999999999234
  0
ARC
  5
382
330
1F
100
AcDbEntity
  8
0
  6
Continuous
 62
     7
100
AcDbCircle
 10
-118.6793989507444
 20
-397.2566398494248
 30
0.0
 40
1.699999999999989
100
AcDbArc
 50
89.99999999999282
 51
180.0
  0
LINE
  5
383
330
1F
100
AcDbEntity
  8
0
  6
Continuous
 62
     7
100
AcDbLine
 10
475.7438157037441
 20
-414.8566371646695
 30
0.0
 11
475.9206030801479
 21
-414.8566371646695
 31
0.0
  0
LINE
  5
384
330
1F
100
AcDbEntity
  8
0
  6
Continuous
 62
     7
100
AcDbLine
 10
-118.6793889566715
 20
-414.8566371646695
 30
0.0
 11
-118.5026313825901
 21
-414.8566371646695
 31
0.0
  0
CIRCLE
  5
394
330
1F
100
AcDbEntity
  8
0
  6
Continuous
 62
     7
100
AcDbCircle
 10
-86.57939895072053
 20
-458.5566398494457
 30
0.0
 40
11.50000000000001
  0
LINE
  5
39B
330
1F
100
AcDbEntity
  8
0
  6
Continuous
 62
     7
100
AcDbLine
 10
-63.57939501250345
 20
-559.5566428151899
 30
0.0
 11
-63.57939501250345
 21
-441.5566383746438
 31
0.0
  0
ARC
  5
39C
330
1F
100
AcDbEntity
  8
0
  6
Continuous
 62
     7
100
AcDbCircle
 10
-68.57939895072046
 20
-559.5566398494464
 30
0.0
 40
5.0
100
AcDbArc
 50
270.0000000000008
 51
0.0
  0
LINE
  5
39D
330
1F
100
AcDbEntity
  8
0
  6
Continuous
 62
     7
100
AcDbLine
 10
-104.5794035955723
 20
-564.5566380468183
 30
0.0
 11
-68.57939024413184
 21
-564.5566380468183
 31
0.0
  0
ARC
  5
39E
330
1F
100
AcDbEntity
  8
0
  6
Continuous
 62
     7
100
AcDbCircle
 10
-104.5793989507205
 20
-559.5566398494464
 30
0.0
 40
5.000000000000014
100
AcDbArc
 50
180.0
 51
270.0000000000008
  0
LINE
  5
39F
330
1F
100
AcDbEntity
  8
0
  6
Continuous
 62
     7
100
AcDbLine
 10
-109.5793988272007
 20
-441.5566383746438
 30
0.0
 11
-109.5793988272007
 21
-559.5566428151899
 31
0.0
  0
ARC
  5
3A0
330
1F
100
AcDbEntity
  8
0
  6
Continuous
 62
     7
100
AcDbCircle
 10
-104.5793989507205
 20
-441.5566398494461
 30
0.0
 40
5.000000000000057
100
AcDbArc
 50
90.0
 51
180.0
  0
LINE
  5
3A1
330
1F
100
AcDbEntity
  8
0
  6
Continuous
 62
     7
100
AcDbLine
 10
-68.57939024413184
 20
-436.5566394177251
 30
0.0
 11
-104.5794035955723
 21
-436.5566394177251
 31
0.0
  0
ARC
  5
3A2
330
1F
100
AcDbEntity
  8
0
  6
Continuous
 62
     7
100
AcDbCircle
 10
-68.57939895072046
 20
-441.5566398494461
 30
0.0
 40
5.0
100
AcDbArc
 50
0.0
 51
90.00000000000064
  0
ARC
  5
47C
330
1F
100
AcDbEntity
  8
0
  6
Continuous
 62
     7
100
AcDbCircle
 10
393.6206010492533
 20
-501.2566398499106
 30
0.0
 40
69.2500000000038
100
AcDbArc
 50
116.9294676218667
 51
116.8294676218669
  0
LINE
  5
4F1
330
1F
100
AcDbEntity
  8
0
  6
Continuous
 62
     7
100
AcDbLine
 10
437.6214746669476
 20
-392.0566386428647
 30
0.0
 11
437.6195971206371
 21
-392.0566386428647
 31
0.0
  0
LINE
  5
4F2
330
1F
100
AcDbEntity
  8
0
  6
Continuous
 62
     7
100
AcDbLine
 10
437.6214746669476
 20
-392.0566386428647
 30
0.0
 11
437.6215938762371
 21
-392.0566386428647
 31
0.0
  0
LINE
  5
4F3
330
1F
100
AcDbEntity
  8
0
  6
Continuous
 62
     7
100
AcDbLine
 10
-80.37851710761146
 20
-392.0566386428647
 30
0.0
 11
-80.38039465392188
 21
-392.0566386428647
 31
0.0
  0
LINE
  5
4F4
330
1F
100
AcDbEntity
  8
0
  6
Continuous
 62
     7
100
AcDbLine
 10
-80.37851710761146
 20
-392.0566386428647
 30
0.0
 11
-80.37839789832191
 21
-392.0566386428647
 31
0.0
  0
LINE
  5
4F6
330
1F
100
AcDbEntity
  8
0
  6
Continuous
 62
     7
100
AcDbLine
 10
437.6211617425625
 20
-719.0566382256322
 30
0.0
 11
437.6215938762371
 21
-719.0566382256322
 31
0.0
  0
LINE
  5
4F7
330
1F
100
AcDbEntity
  8
0
  6
Continuous
 62
     7
100
AcDbLine
 10
437.6195971206371
 20
-719.0566382256322
 30
0.0
 11
437.6211617425625
 21
-719.0566382256322
 31
0.0
  0
LINE
  5
4F9
330
1F
100
AcDbEntity
  8
0
  6
Continuous
 62
     7
100
AcDbLine
 10
-80.37884493315772
 20
-719.0566382256322
 30
0.0
 11
-80.37839789832191
 21
-719.0566382256322
 31
0.0
  0
LINE
  5
4FA
330
1F
100
AcDbEntity
  8
0
  6
Continuous
 62
     7
100
AcDbLine
 10
-80.38039465392188
 20
-719.0566382256322
 30
0.0
 11
-80.37884493315772
 21
-719.0566382256322
 31
0.0
  0
LINE
  5
501
330
1F
100
AcDbEntity
  8
0
  6
Continuous
 62
     7
100
AcDbLine
 10
477.6205871537869
 20
-422.2566432205014
 30
0.0
 11
477.6205871537869
 21
-688.8566336479955
 31
0.0
  0
ARC
  5
503
330
1F
100
AcDbEntity
  8
0
  6
Continuous
 62
     7
100
AcDbCircle
 10
475.9206010492498
 20
-422.2566398494258
 30
0.0
 40
1.699999999999989
100
AcDbArc
 50
0.0
 51
89.9999999999981
  0
ARC
  5
504
330
1F
100
AcDbEntity
  8
0
  6
Continuous
 62
     7
100
AcDbCircle
 10
475.9206010492498
 20
-688.8566398494258
 30
0.0
 40
1.700000000000045
100
AcDbArc
 50
270.0000000000028
 51
0.0
  0
LINE
  5
508
330
1F
100
AcDbEntity
  8
0
  6
Continuous
 62
     7
100
AcDbLine
 10
-120.3794028326328
 20
-688.8566336479955
 30
0.0
 11
-120.3794028326328
 21
-422.2566432205014
 31
0.0
  0
ARC
  5
50A
330
1F
100
AcDbEntity
  8
0
  6
Continuous
 62
     7
100
AcDbCircle
 10
-118.6793989507496
 20
-422.2566398494212
 30
0.0
 40
1.700000000000031
100
AcDbArc
 50
90.00000000000144
 51
180.0
  0
ARC
  5
50C
330
1F
100
AcDbEntity
  8
0
  6
Continuous
 62
     7
100
AcDbCircle
 10
-118.6793989507515
 20
-688.8566398494213
 30
0.0
 40
1.700000000000045
100
AcDbArc
 50
179.9999999999962
 51
269.999999999997
  0
LINE
  5
50F
330
1F
100
AcDbEntity
  8
0
  6
Continuous
 62
     7
100
AcDbLine
 10
475.9206030801479
 20
-420.5566367951207
 30
0.0
 11
-118.6793889566715
 21
-420.5566367951207
 31
0.0
  0
LINE
  5
519
330
1F
100
AcDbEntity
  8
0
  6
Continuous
 62
     7
100
AcDbLine
 10
475.9206030801479
 20
-690.5566326227956
 30
0.0
 11
-118.6793889566715
 21
-690.5566326227956
 31
0.0
  0
CIRCLE
  5
51D
330
1F
100
AcDbEntity
  8
0
  6
Continuous
 62
     7
100
AcDbCircle
 10
-19.9793989507458
 20
-617.5566398494254
 30
0.0
 40
62.25000000000341
  0
CIRCLE
  5
526
330
1F
100
AcDbEntity
  8
0
  6
Continuous
 62
     7
100
AcDbCircle
 10
253.1206010492534
 20
-617.5566398494253
 30
0.0
 40
62.25000000000341
  0
LINE
  5
5BB
330
1F
100
AcDbEntity
  8
0
  6
Continuous
 62
     7
100
AcDbLine
 10
445.3149721937267
 20
1276.810538176017
 30
0.0
 11
445.3149721937267
 21
1277.810540202575
 31
0.0
  0
LINE
  5
5BC
330
1F
100
AcDbEntity
  8
0
  6
Continuous
 62
     7
100
AcDbLine
 10
429.3149546699611
 20
1277.810540202575
 30
0.0
 11
429.3149546699611
 21
1276.810538176017
 31
0.0
  0
LINE
  5
5BD
330
1F
100
AcDbEntity
  8
0
  6
Continuous
 62
     7
100
AcDbLine
 10
-72.68503448199351
 20
1276.810538176017
 30
0.0
 11
-72.68503448199351
 21
1277.810540202575
 31
0.0
  0
LINE
  5
5BE
330
1F
100
AcDbEntity
  8
0
  6
Continuous
 62
     7
100
AcDbLine
 10
-88.68503710459788
 20
1277.810540202575
 30
0.0
 11
-88.68503710459788
 21
1276.810538176017
 31
0.0
  0
LINE
  5
5BF
330
1F
100
AcDbEntity
  8
0
  6
Continuous
 62
     7
100
AcDbLine
 10
-88.68503710459788
 20
956.8105378779941
 30
0.0
 11
-88.68503710459788
 21
955.8105358514362
 31
0.0
  0
LINE
  5
5C0
330
1F
100
AcDbEntity
  8
0
  6
Continuous
 62
     7
100
AcDbLine
 10
-72.68503448199351
 20
955.8105358514362
 30
0.0
 11
-72.68503448199351
 21
956.8105378779941
 31
0.0
  0
LINE
  5
5C1
330
1F
100
AcDbEntity
  8
0
  6
Continuous
 62
     7
100
AcDbLine
 10
429.3149546699611
 20
956.8105378779941
 30
0.0
 11
429.3149546699611
 21
955.8105358514362
 31
0.0
  0
LINE
  5
5C2
330
1F
100
AcDbEntity
  8
0
  6
Continuous
 62
     7
100
AcDbLine
 10
445.3149721937267
 20
955.8105358514362
 30
0.0
 11
445.3149721937267
 21
956.8105378779941
 31
0.0
  0
ARC
  5
5C3
330
1F
100
AcDbEntity
  8
0
  6
Continuous
 62
     7
100
AcDbCircle
 10
-72.88503846793034
 20
955.7216945456407
 30
0.0
 40
0.2000000000000313
100
AcDbArc
 50
301.6579514611685
 51
0.0
  0
ARC
  5
5C4
330
1F
100
AcDbEntity
  8
0
  6
Continuous
 62
     7
100
AcDbCircle
 10
-88.48503846793035
 20
955.7216945456407
 30
0.0
 40
0.1999999999999744
100
AcDbArc
 50
180.0
 51
238.3420485388523
  0
LINE
  5
5C5
330
1F
100
AcDbEntity
  8
0
  6
Continuous
 62
     7
100
AcDbLine
 10
-88.68503710459788
 20
955.8105358514362
 30
0.0
 11
-88.68503710459788
 21
955.7216951283984
 31
0.0
  0
LINE
  5
5C6
330
1F
100
AcDbEntity
  8
0
  6
Continuous
 62
     7
100
AcDbLine
 10
-72.68503448199351
 20
955.7216951283984
 30
0.0
 11
-72.68503448199351
 21
955.8105358514362
 31
0.0
  0
ARC
  5
5C7
330
1F
100
AcDbEntity
  8
0
  6
Continuous
 62
     7
100
AcDbCircle
 10
-80.68603846793035
 20
968.3701048770059
 30
0.0
 40
15.0595654347826
100
AcDbArc
 50
238.3420485388425
 51
270.0000000000008
  0
ARC
  5
5C8
330
1F
100
AcDbEntity
  8
0
  6
Continuous
 62
     7
100
AcDbCircle
 10
-80.68403846793029
 20
968.3701048770059
 30
0.0
 40
15.0595654347826
100
AcDbArc
 50
270.0000000000008
 51
301.6579514611591
  0
LINE
  5
5C9
330
1F
100
AcDbEntity
  8
0
  6
Continuous
 62
     7
100
AcDbLine
 10
429.3149546699611
 20
955.8105358514362
 30
0.0
 11
429.3149546699611
 21
955.7216951283984
 31
0.0
  0
LINE
  5
5CA
330
1F
100
AcDbEntity
  8
0
  6
Continuous
 62
     7
100
AcDbLine
 10
445.3149721937267
 20
955.7216951283984
 30
0.0
 11
445.3149721937267
 21
955.8105358514362
 31
0.0
  0
ARC
  5
5CB
330
1F
100
AcDbEntity
  8
0
  6
Continuous
 62
     7
100
AcDbCircle
 10
445.1149615320739
 20
955.7216945456407
 30
0.0
 40
0.199999999999997
100
AcDbArc
 50
301.6579514611651
 51
0.0
  0
ARC
  5
5CC
330
1F
100
AcDbEntity
  8
0
  6
Continuous
 62
     7
100
AcDbCircle
 10
429.5149615320739
 20
955.7216945456407
 30
0.0
 40
0.2000000000000455
100
AcDbArc
 50
180.0
 51
238.3420485388349
  0
ARC
  5
5CD
330
1F
100
AcDbEntity
  8
0
  6
Continuous
 62
     7
100
AcDbCircle
 10
437.3139615320739
 20
968.3701048770059
 30
0.0
 40
15.05956543478262
100
AcDbArc
 50
238.3420485388422
 51
270.0000000000009
  0
ARC
  5
5CE
330
1F
100
AcDbEntity
  8
0
  6
Continuous
 62
     7
100
AcDbCircle
 10
437.3159615320739
 20
968.3701048770059
 30
0.0
 40
15.0595654347826
100
AcDbArc
 50
270.0000000000009
 51
301.6579514611591
  0
LINE
  5
5CF
330
1F
100
AcDbEntity
  8
0
  6
Continuous
 62
     7
100
AcDbLine
 10
445.3149721937267
 20
1277.810540202575
 30
0.0
 11
445.3149721937267
 21
1277.899380925613
 31
0.0
  0
LINE
  5
5D0
330
1F
100
AcDbEntity
  8
0
  6
Continuous
 62
     7
100
AcDbLine
 10
429.3149546699611
 20
1277.899380925613
 30
0.0
 11
429.3149546699611
 21
1277.810540202575
 31
0.0
  0
ARC
  5
5D1
330
1F
100
AcDbEntity
  8
0
  6
Continuous
 62
     7
100
AcDbCircle
 10
429.5149615320665
 20
1277.899384338824
 30
0.0
 40
0.1999999999999318
100
AcDbArc
 50
121.6579514611821
 51
180.0
  0
ARC
  5
5D2
330
1F
100
AcDbEntity
  8
0
  6
Continuous
 62
     7
100
AcDbCircle
 10
445.1149615320666
 20
1277.899384338824
 30
0.0
 40
0.2000000000000455
100
AcDbArc
 50
0.0
 51
58.34204853883819
  0
ARC
  5
5D3
330
1F
100
AcDbEntity
  8
0
  6
Continuous
 62
     7
100
AcDbCircle
 10
437.3159615320669
 20
1265.250974007459
 30
0.0
 40
15.05956543478241
100
AcDbArc
 50
58.34204853884276
 51
90.00000000000152
  0
ARC
  5
5D4
330
1F
100
AcDbEntity
  8
0
  6
Continuous
 62
     7
100
AcDbCircle
 10
437.313961532067
 20
1265.250974007459
 30
0.0
 40
15.05956543478241
100
AcDbArc
 50
90.00000000000173
 51
121.6579514611605
  0
ARC
  5
5D5
330
1F
100
AcDbEntity
  8
0
  6
Continuous
 62
     7
100
AcDbCircle
 10
-88.48503846793763
 20
1277.899384338807
 30
0.0
 40
0.1999999999999744
100
AcDbArc
 50
121.6579514611891
 51
180.0
  0
ARC
  5
5D6
330
1F
100
AcDbEntity
  8
0
  6
Continuous
 62
     7
100
AcDbCircle
 10
-72.88503846793762
 20
1277.899384338808
 30
0.0
 40
0.2000000000000313
100
AcDbArc
 50
0.0
 51
58.34204853883819
  0
LINE
  5
5D7
330
1F
100
AcDbEntity
  8
0
  6
Continuous
 62
     7
100
AcDbLine
 10
-72.68503448199351
 20
1277.810540202575
 30
0.0
 11
-72.68503448199351
 21
1277.899380925613
 31
0.0
  0
LINE
  5
5D8
330
1F
100
AcDbEntity
  8
0
  6
Continuous
 62
     7
100
AcDbLine
 10
-88.68503710459788
 20
1277.899380925613
 30
0.0
 11
-88.68503710459788
 21
1277.810540202575
 31
0.0
  0
ARC
  5
5D9
330
1F
100
AcDbEntity
  8
0
  6
Continuous
 62
     7
100
AcDbCircle
 10
-80.68403846793717
 20
1265.250974007442
 30
0.0
 40
15.0595654347826
100
AcDbArc
 50
58.34204853884345
 51
90.00000000000193
  0
ARC
  5
5DA
330
1F
100
AcDbEntity
  8
0
  6
Continuous
 62
     7
100
AcDbCircle
 10
-80.68603846793718
 20
1265.250974007442
 30
0.0
 40
15.0595654347826
100
AcDbArc
 50
90.0000000000019
 51
121.6579514611606
  0
LINE
  5
5E7
330
1F
100
AcDbEntity
  8
0
  6
Continuous
 62
     7
100
AcDbLine
 10
-117.5850345773609
 20
1257.510539296585
 30
0.0
 11
474.0028367357341
 21
1257.510539296585
 31
0.0
  0
LINE
  5
5F5
330
1F
100
AcDbEntity
  8
0
  6
Continuous
 62
     7
100
AcDbLine
 10
477.3149476366131
 20
1258.710544708686
 30
0.0
 11
477.3149476366131
 21
1263.493579033332
 31
0.0
  0
LINE
  5
5FD
330
1F
100
AcDbEntity
  8
0
  6
Continuous
 62
     7
100
AcDbLine
 10
458.5429117994396
 20
1276.810538176017
 30
0.0
 11
-101.9129767103108
 21
1276.810538176017
 31
0.0
  0
LINE
  5
5FE
330
1F
100
AcDbEntity
  8
0
  6
Continuous
 62
     7
100
AcDbLine
 10
-120.6850423498066
 20
1263.493579033332
 30
0.0
 11
-120.6850423498066
 21
1258.710544708686
 31
0.0
  0
SPLINE
  5
609
330
1F
100
AcDbEntity
  8
0
  6
Continuous
 62
     7
100
AcDbSpline
210
0.0
220
0.0
230
1.0
 70
     8
 71
     3
 72
    11
 73
     7
 74
     0
 42
0.000000001
 43
0.00000001
 40
0.0
 40
0.0
 40
0.0
 40
0.0
 40
0.250001825068282
 40
0.5000022377366776
 40
0.749998174931718
 40
1.0
 40
1.0
 40
1.0
 40
1.0
 10
476.1149571256725
 20
1257.510539296585
 30
0.0
 10
476.2722027902033
 20
1257.528576801169
 30
0.0
 10
476.5866932308961
 20
1257.564651708435
 30
0.0
 10
476.9833485281143
 20
1257.84215051625
 30
0.0
 10
477.2608331004294
 20
1258.238812651702
 30
0.0
 10
477.2969093162764
 20
1258.553299455247
 30
0.0
 10
477.3149476366131
 20
1258.710544708686
 30
0.0
  0
ARC
  5
60B
330
1F
100
AcDbEntity
  8
0
  6
Continuous
 62
     7
100
AcDbCircle
 10
458.542907835003
 20
1256.810539442242
 30
0.0
 40
20.0
100
AcDbArc
 50
20.82289438421923
 51
90.00000000000196
  0
ARC
  5
60E
330
1F
100
AcDbEntity
  8
0
  6
Continuous
 62
     7
100
AcDbCircle
 10
476.1149615319214
 20
1263.493572351978
 30
0.0
 40
1.199999999999989
100
AcDbArc
 50
0.0
 51
20.82289438421348
  0
ARC
  5
610
330
1F
100
AcDbEntity
  8
0
  6
Continuous
 62
     7
100
AcDbCircle
 10
-101.9129847711597
 20
1256.810539442224
 30
0.0
 40
20.0
100
AcDbArc
 50
90.00000000000192
 51
159.177105615785
  0
SPLINE
  5
614
330
1F
100
AcDbEntity
  8
0
  6
Continuous
 62
     7
100
AcDbSpline
210
0.0
220
0.0
230
1.0
 70
     8
 71
     3
 72
    11
 73
     7
 74
     0
 42
0.000000001
 43
0.00000001
 40
0.0
 40
0.0
 40
0.0
 40
0.0
 40
0.2500034952217628
 40
0.500009831271597
 40
0.7500119140840378
 40
1.0
 40
1.0
 40
1.0
 40
1.0
 10
-120.6850423498066
 20
1258.710544708686
 30
0.0
 10
-120.6670061430188
 20
1258.553298020683
 30
0.0
 10
-120.6309335244949
 20
1258.238802857857
 30
0.0
 10
-120.3534101197142
 20
1257.842158935129
 30
0.0
 10
-119.9567682863278
 20
1257.564656372812
 30
0.0
 10
-119.6422877201277
 20
1257.52857798533
 30
0.0
 10
-119.4850518388661
 20
1257.510539296585
 30
0.0
  0
ARC
  5
616
330
1F
100
AcDbEntity
  8
0
  6
Continuous
 62
     7
100
AcDbCircle
 10
-119.4850384680786
 20
1263.493572351959
 30
0.0
 40
1.199999999999974
100
AcDbArc
 50
159.1771056157976
 51
180.0
  0
LINE
  5
618
330
1F
100
AcDbEntity
  8
0
  6
Continuous
 62
     7
100
AcDbLine
 10
474.5149598436443
 20
1257.510539296585
 30
0.0
 11
476.1149571256725
 21
1257.510539296585
 31
0.0
  0
LINE
  5
61A
330
1F
100
AcDbEntity
  8
0
  6
Continuous
 62
     7
100
AcDbLine
 10
-117.8850247545155
 20
1257.510539296585
 30
0.0
 11
-119.4850518388661
 21
1257.510539296585
 31
0.0
  0
LINE
  5
642
330
1F
100
AcDbEntity
  8
0
  6
Continuous
 62
     7
100
AcDbLine
 10
-116.4850308580311
 20
976.1105367574268
 30
0.0
 11
473.1149659471599
 21
976.1105367574268
 31
0.0
  0
LINE
  5
645
330
1F
100
AcDbEntity
  8
0
  6
Continuous
 62
     7
100
AcDbLine
 10
476.1149571256725
 20
976.1105367574268
 30
0.0
 11
475.6149635629741
 21
976.1105367574268
 31
0.0
  0
LINE
  5
646
330
1F
100
AcDbEntity
  8
0
  6
Continuous
 62
     7
100
AcDbLine
 10
473.6149595098583
 20
976.1105367574268
 30
0.0
 11
473.1149659471599
 21
976.1105367574268
 31
0.0
  0
LINE
  5
649
330
1F
100
AcDbEntity
  8
0
  6
Continuous
 62
     7
100
AcDbLine
 10
-116.4850308580311
 20
976.1105367574268
 30
0.0
 11
-116.9850244207295
 21
976.1105367574268
 31
0.0
  0
LINE
  5
64E
330
1F
100
AcDbEntity
  8
0
  6
Continuous
 62
     7
100
AcDbLine
 10
473.1149659471599
 20
1257.510539296585
 30
0.0
 11
-116.4850308580311
 21
1257.510539296585
 31
0.0
  0
LINE
  5
651
330
1F
100
AcDbEntity
  8
0
  6
Continuous
 62
     7
100
AcDbLine
 10
-117.8850247545155
 20
1257.510539296585
 30
0.0
 11
-117.5850345773609
 21
1257.510539296585
 31
0.0
  0
LINE
  5
654
330
1F
100
AcDbEntity
  8
0
  6
Continuous
 62
     7
100
AcDbLine
 10
474.0028367357341
 20
1257.510539296585
 30
0.0
 11
474.5149598436443
 21
1257.510539296585
 31
0.0
  0
LINE
  5
65D
330
1F
100
AcDbEntity
  8
0
  6
Continuous
 62
     7
100
AcDbLine
 10
-118.9850284738453
 20
956.8105378779941
 30
0.0
 11
475.6149635629741
 21
956.8105378779941
 31
0.0
  0
LINE
  5
666
330
1F
100
AcDbEntity
  8
0
  6
Continuous
 62
     7
100
AcDbLine
 10
-118.8082708997639
 20
976.1105367574268
 30
0.0
 11
-116.9850244207295
 21
976.1105367574268
 31
0.0
  0
LINE
  5
667
330
1F
100
AcDbEntity
  8
0
  6
Continuous
 62
     7
100
AcDbLine
 10
473.6149595098583
 20
976.1105367574268
 30
0.0
 11
475.4381761865703
 21
976.1105367574268
 31
0.0
  0
ARC
  5
66B
330
1F
100
AcDbEntity
  8
0
  6
Continuous
 62
     7
100
AcDbCircle
 10
-118.9850384679184
 20
974.4105394421817
 30
0.0
 40
1.700000000000045
100
AcDbArc
 50
90.0
 51
180.0000000000115
  0
LINE
  5
66D
330
1F
100
AcDbEntity
  8
0
  6
Continuous
 62
     7
100
AcDbLine
 10
-120.6850423498066
 20
958.5105368527942
 30
0.0
 11
-120.6850423498066
 21
974.4105377826266
 31
0.0
  0
LINE
  5
672
330
1F
100
AcDbEntity
  8
0
  6
Continuous
 62
     7
100
AcDbLine
 10
477.3149476366131
 20
974.4105377826266
 30
0.0
 11
477.3149476366131
 21
958.5105368527942
 31
0.0
  0
LINE
  5
673
330
1F
100
AcDbEntity
  8
0
  6
Continuous
 62
     7
100
AcDbLine
 10
475.6149635629741
 20
976.1105367574268
 30
0.0
 11
475.6149635629741
 21
976.083766821342
 31
0.0
  0
ARC
  5
675
330
1F
100
AcDbEntity
  8
0
  6
Continuous
 62
     7
100
AcDbCircle
 10
475.6149615320824
 20
974.4105394422605
 30
0.0
 40
1.700000000000045
100
AcDbArc
 50
0.0000000000076633
 51
90.00000000000767
  0
ARC
  5
676
330
1F
100
AcDbEntity
  8
0
  6
Continuous
 62
     7
100
AcDbCircle
 10
475.6149615320861
 20
958.5105394422606
 30
0.0
 40
1.700000000000045
100
AcDbArc
 50
270.0000000000076
 51
0.0000000000153265
  0
ARC
  5
679
330
1F
100
AcDbEntity
  8
0
  6
Continuous
 62
     7
100
AcDbCircle
 10
-118.9850384679182
 20
958.5105394421819
 30
0.0
 40
1.700000000000145
100
AcDbArc
 50
180.0
 51
269.9999999997184
  0
LINE
  5
67A
330
1F
100
AcDbEntity
  8
0
  6
Continuous
 62
     7
100
AcDbLine
 10
-118.8082708997639
 20
976.1105367574268
 30
0.0
 11
-118.9850284738453
 21
976.1105367574268
 31
0.0
  0
LINE
  5
67B
330
1F
100
AcDbEntity
  8
0
  6
Continuous
 62
     7
100
AcDbLine
 10
475.6149635629741
 20
976.1105367574268
 30
0.0
 11
475.4381761865703
 21
976.1105367574268
 31
0.0
  0
LINE
  5
67D
330
1F
100
AcDbEntity
  8
0
  6
Continuous
 62
     7
100
AcDbLine
 10
96.26039722729601
 20
1053.847856040614
 30
0.0
 11
82.76039222050585
 21
1077.230543050485
 31
0.0
  0
LINE
  5
67E
330
1F
100
AcDbEntity
  8
0
  6
Continuous
 62
     7
100
AcDbLine
 10
82.76039222050585
 20
1077.230543050485
 30
0.0
 11
75.77228406239428
 21
1103.310540470796
 31
0.0
  0
LINE
  5
67F
330
1F
100
AcDbEntity
  8
0
  6
Continuous
 62
     7
100
AcDbLine
 10
75.77228406239428
 20
1103.310540470796
 30
0.0
 11
75.77228406239428
 21
1130.310539308506
 31
0.0
  0
LINE
  5
680
330
1F
100
AcDbEntity
  8
0
  6
Continuous
 62
     7
100
AcDbLine
 10
75.77228406239428
 20
1130.310539308506
 30
0.0
 11
82.76039222050585
 21
1156.390536728817
 31
0.0
  0
LINE
  5
681
330
1F
100
AcDbEntity
  8
0
  6
Continuous
 62
     7
100
AcDbLine
 10
82.76039222050585
 20
1156.390536728817
 30
0.0
 11
96.26039722729601
 21
1179.773222807365
 31
0.0
  0
LINE
  5
682
330
1F
100
AcDbEntity
  8
0
  6
Continuous
 62
     7
100
AcDbLine
 10
96.26039722729601
 20
1179.773222807365
 30
0.0
 11
115.3522790389148
 21
1198.865112069564
 31
0.0
  0
LINE
  5
683
330
1F
100
AcDbEntity
  8
0
  6
Continuous
 62
     7
100
AcDbLine
 10
115.3522790389148
 20
1198.865112069564
 30
0.0
 11
138.7349651174632
 21
1212.365102175193
 31
0.0
  0
LINE
  5
684
330
1F
100
AcDbEntity
  8
0
  6
Continuous
 62
     7
100
AcDbLine
 10
138.7349651174632
 20
1212.365102175193
 30
0.0
 11
164.8149606751291
 21
1219.353225234466
 31
0.0
  0
LINE
  5
685
330
1F
100
AcDbEntity
  8
0
  6
Continuous
 62
     7
100
AcDbLine
 10
164.8149606751291
 20
1219.353225234466
 30
0.0
 11
191.8149616083143
 21
1219.353225234466
 31
0.0
  0
LINE
  5
686
330
1F
100
AcDbEntity
  8
0
  6
Continuous
 62
     7
100
AcDbLine
 10
191.8149616083143
 20
1219.353225234466
 30
0.0
 11
217.8949587957946
 21
1212.365102175193
 31
0.0
  0
LINE
  5
687
330
1F
100
AcDbEntity
  8
0
  6
Continuous
 62
     7
100
AcDbLine
 10
217.8949587957946
 20
1212.365102175193
 30
0.0
 11
241.2776448743431
 21
1198.865112069564
 31
0.0
  0
LINE
  5
688
330
1F
100
AcDbEntity
  8
0
  6
Continuous
 62
     7
100
AcDbLine
 10
241.2776448743431
 20
1198.865112069564
 30
0.0
 11
260.3695304112522
 21
1179.773222807365
 31
0.0
  0
LINE
  5
689
330
1F
100
AcDbEntity
  8
0
  6
Continuous
 62
     7
100
AcDbLine
 10
260.3695304112522
 20
1179.773222807365
 30
0.0
 11
273.8695279674617
 21
1156.390536728817
 31
0.0
  0
LINE
  5
68A
330
1F
100
AcDbEntity
  8
0
  6
Continuous
 62
     7
100
AcDbLine
 10
273.8695279674617
 20
1156.390536728817
 30
0.0
 11
280.8576435761539
 21
1130.310539308506
 31
0.0
  0
LINE
  5
68B
330
1F
100
AcDbEntity
  8
0
  6
Continuous
 62
     7
100
AcDbLine
 10
280.8576435761539
 20
1130.310539308506
 30
0.0
 11
280.8576435761539
 21
1103.310540470796
 31
0.0
  0
LINE
  5
68C
330
1F
100
AcDbEntity
  8
0
  6
Continuous
 62
     7
100
AcDbLine
 10
280.8576435761539
 20
1103.310540470796
 30
0.0
 11
273.8695279674617
 21
1077.230543050485
 31
0.0
  0
LINE
  5
68D
330
1F
100
AcDbEntity
  8
0
  6
Continuous
 62
     7
100
AcDbLine
 10
273.8695279674617
 20
1077.230543050485
 30
0.0
 11
260.3695304112522
 21
1053.847856040614
 31
0.0
  0
LINE
  5
68E
330
1F
100
AcDbEntity
  8
0
  6
Continuous
 62
     7
100
AcDbLine
 10
260.3695304112522
 20
1053.847856040614
 30
0.0
 11
241.2776448743431
 21
1034.755973297673
 31
0.0
  0
LINE
  5
68F
330
1F
100
AcDbEntity
  8
0
  6
Continuous
 62
     7
100
AcDbLine
 10
241.2776448743431
 20
1034.755973297673
 30
0.0
 11
217.8949587957946
 21
1021.255973878818
 31
0.0
  0
LINE
  5
690
330
1F
100
AcDbEntity
  8
0
  6
Continuous
 62
     7
100
AcDbLine
 10
191.8149616083143
 20
1014.267858270126
 30
0.0
 11
164.8149606751291
 21
1014.267858270126
 31
0.0
  0
LINE
  5
691
330
1F
100
AcDbEntity
  8
0
  6
Continuous
 62
     7
100
AcDbLine
 10
164.8149606751291
 20
1014.267858270126
 30
0.0
 11
138.7349651174632
 21
1021.255973878818
 31
0.0
  0
LINE
  5
692
330
1F
100
AcDbEntity
  8
0
  6
Continuous
 62
     7
100
AcDbLine
 10
138.7349651174632
 20
1021.255973878818
 30
0.0
 11
115.3522790389148
 21
1034.755973297673
 31
0.0
  0
LINE
  5
694
330
1F
100
AcDbEntity
  8
0
  6
Continuous
 62
     7
100
AcDbLine
 10
217.8949587957946
 20
1021.255973878818
 30
0.0
 11
191.8149616083143
 21
1014.267858270126
 31
0.0
  0
ARC
  5
695
330
1F
100
AcDbEntity
  8
0
  6
Continuous
 62
     7
100
AcDbCircle
 10
-86.38503846793452
 20
1164.610539442507
 30
0.0
 40
5.0
100
AcDbArc
 50
89.9999999999987
 51
180.0
  0
LINE
  5
696
330
1F
100
AcDbEntity
  8
0
  6
Continuous
 62
     7
100
AcDbLine
 10
-86.3850428743275
 20
1169.610541466194
 30
0.0
 11
18.61496129799761
 21
1169.610541466194
 31
0.0
  0
ARC
  5
697
330
1F
100
AcDbEntity
  8
0
  6
Continuous
 62
     7
100
AcDbCircle
 10
18.61496153206529
 20
1164.610539442507
 30
0.0
 40
5.000000000000004
100
AcDbArc
 50
359.9999999999974
 51
89.99999999999972
  0
LINE
  5
698
330
1F
100
AcDbEntity
  8
0
  6
Continuous
 62
     7
100
AcDbLine
 10
23.61495652962603
 20
1164.610538783985
 30
0.0
 11
23.61495652962603
 21
1112.610537711101
 31
0.0
  0
ARC
  5
699
330
1F
100
AcDbEntity
  8
0
  6
Continuous
 62
     7
100
AcDbCircle
 10
18.61496153206532
 20
1112.610539442507
 30
0.0
 40
5.000000000000007
100
AcDbArc
 50
269.9999999999999
 51
0.0
  0
LINE
  5
69A
330
1F
100
AcDbEntity
  8
0
  6
Continuous
 62
     7
100
AcDbLine
 10
18.61496129799761
 20
1107.610538754182
 30
0.0
 11
-86.3850428743275
 21
1107.610538754182
 31
0.0
  0
ARC
  5
69B
330
1F
100
AcDbEntity
  8
0
  6
Continuous
 62
     7
100
AcDbCircle
 10
-86.38503846793435
 20
1112.610539442507
 30
0.0
 40
5.000000000000014
100
AcDbArc
 50
179.9999999999974
 51
270.0000000000002
  0
LINE
  5
69C
330
1F
100
AcDbEntity
  8
0
  6
Continuous
 62
     7
100
AcDbLine
 10
-91.38503810595591
 20
1112.610537711101
 30
0.0
 11
-91.38503810595591
 21
1164.610538783985
 31
0.0
  0
CIRCLE
  5
6A5
330
1F
100
AcDbEntity
  8
0
  6
Continuous
 62
     7
100
AcDbCircle
 10
-111.1850384679311
 20
1226.810539442197
 30
0.0
 40
1.100000000002979
  0
CIRCLE
  5
6A6
330
1F
100
AcDbEntity
  8
0
  6
Continuous
 62
     7
100
AcDbCircle
 10
467.8149615320689
 20
1226.810539442197
 30
0.0
 40
1.100000000002979
  0
CIRCLE
  5
6A7
330
1F
100
AcDbEntity
  8
0
  6
Continuous
 62
     7
100
AcDbCircle
 10
467.814961532069
 20
1036.810539442197
 30
0.0
 40
1.100000000003206
  0
CIRCLE
  5
6A8
330
1F
100
AcDbEntity
  8
0
  6
Continuous
 62
     7
100
AcDbCircle
 10
-111.1850384679311
 20
1036.810539442197
 30
0.0
 40
1.100000000003206
  0
CIRCLE
  5
6A9
330
1F
100
AcDbEntity
  8
0
  6
Continuous
 62
     7
100
AcDbCircle
 10
-111.1850384679311
 20
1006.810539442177
 30
0.0
 40
1.100000000003092
  0
CIRCLE
  5
6AA
330
1F
100
AcDbEntity
  8
0
  6
Continuous
 62
     7
100
AcDbCircle
 10
467.8149615320689
 20
1006.810539442177
 30
0.0
 40
1.100000000003092
  0
CIRCLE
  5
6AB
330
1F
100
AcDbEntity
  8
0
  6
Continuous
 62
     7
100
AcDbCircle
 10
467.814961532069
 20
1196.810539442177
 30
0.0
 40
1.100000000003092
  0
CIRCLE
  5
6AC
330
1F
100
AcDbEntity
  8
0
  6
Continuous
 62
     7
100
AcDbCircle
 10
-111.1850384679311
 20
1196.810539442177
 30
0.0
 40
1.100000000003092
  0
LINE
  5
6AE
330
1F
100
AcDbEntity
  8
0
  6
Continuous
 62
     7
100
AcDbLine
 10
-118.9850284738453
 20
981.810536387878
 30
0.0
 11
475.6149635629741
 21
981.810536387878
 31
0.0
  0
LINE
  5
6B1
330
1F
100
AcDbEntity
  8
0
  6
Continuous
 62
     7
100
AcDbLine
 10
-118.9850284738453
 20
1251.810532215553
 30
0.0
 11
475.6149635629741
 21
1251.810532215553
 31
0.0
  0
LINE
  5
768
330
1F
100
AcDbEntity
  8
0
  6
Continuous
 62
     7
100
AcDbLine
 10
-80.68403741549571
 20
953.310538235622
 30
0.0
 11
-80.68603417109568
 21
953.310538235622
 31
0.0
  0
LINE
  5
76B
330
1F
100
AcDbEntity
  8
0
  6
Continuous
 62
     7
100
AcDbLine
 10
437.3139576034633
 20
953.310538235622
 30
0.0
 11
437.3159543590633
 21
953.310538235622
 31
0.0
  0
LINE
  5
76E
330
1F
100
AcDbEntity
  8
0
  6
Continuous
 62
     7
100
AcDbLine
 10
437.3159543590633
 20
1280.310537818389
 30
0.0
 11
437.3139576034633
 21
1280.310537818389
 31
0.0
  0
LINE
  5
771
330
1F
100
AcDbEntity
  8
0
  6
Continuous
 62
     7
100
AcDbLine
 10
-80.68403741549571
 20
1280.310537818389
 30
0.0
 11
-80.68603417109568
 21
1280.310537818389
 31
0.0
  0
LINE
  5
774
330
1F
100
AcDbEntity
  8
0
  6
Continuous
 62
     7
100
AcDbLine
 10
477.3149476366131
 20
1250.110533240753
 30
0.0
 11
477.3149476366131
 21
983.5105428132587
 31
0.0
  0
ARC
  5
775
330
1F
100
AcDbEntity
  8
0
  6
Continuous
 62
     7
100
AcDbCircle
 10
475.614961532076
 20
983.510539442183
 30
0.0
 40
1.699999999999932
100
AcDbArc
 50
270.0000000000019
 51
0.0
  0
ARC
  5
777
330
1F
100
AcDbEntity
  8
0
  6
Continuous
 62
     7
100
AcDbCircle
 10
475.614961532076
 20
1250.110539442183
 30
0.0
 40
1.700000000000045
100
AcDbArc
 50
0.0
 51
89.9999999999981
  0
LINE
  5
77A
330
1F
100
AcDbEntity
  8
0
  6
Continuous
 62
     7
100
AcDbLine
 10
-120.6850423498066
 20
983.5105428132587
 30
0.0
 11
-120.6850423498066
 21
1250.110533240753
 31
0.0
  0
ARC
  5
77C
330
1F
100
AcDbEntity
  8
0
  6
Continuous
 62
     7
100
AcDbCircle
 10
-118.9850384679234
 20
983.5105394421785
 30
0.0
 40
1.700000000000045
100
AcDbArc
 50
180.0
 51
269.9999999999995
  0
ARC
  5
77F
330
1F
100
AcDbEntity
  8
0
  6
Continuous
 62
     7
100
AcDbCircle
 10
-118.9850384679253
 20
1250.110539442178
 30
0.0
 40
1.700000000000045
100
AcDbArc
 50
90.00000000000384
 51
180.0
  0
LINE
  5
7AE
330
1F
100
AcDbEntity
  8
0
  6
Continuous
 62
     7
100
AcDbLine
 10
1130.392873279294
 20
450.5104270746297
 30
0.0
 11
1131.392875305852
 21
450.5104270746297
 31
0.0
  0
LINE
  5
7AF
330
1F
100
AcDbEntity
  8
0
  6
Continuous
 62
     7
100
AcDbLine
 10
1131.392875305852
 20
466.5104594995565
 30
0.0
 11
1130.392873279294
 21
466.5104594995565
 31
0.0
  0
LINE
  5
7B0
330
1F
100
AcDbEntity
  8
0
  6
Continuous
 62
     7
100
AcDbLine
 10
1130.392873279294
 20
-139.489565325778
 30
0.0
 11
1131.392875305852
 21
-139.489565325778
 31
0.0
  0
LINE
  5
7B1
330
1F
100
AcDbEntity
  8
0
  6
Continuous
 62
     7
100
AcDbLine
 10
1131.392875305852
 20
-123.4895654971414
 30
0.0
 11
1130.392873279294
 21
-123.4895654971414
 31
0.0
  0
LINE
  5
7B2
330
1F
100
AcDbEntity
  8
0
  6
Continuous
 62
     7
100
AcDbLine
 10
810.3928729812706
 20
466.5104594995565
 30
0.0
 11
809.3928709547126
 21
466.5104594995565
 31
0.0
  0
LINE
  5
7B3
330
1F
100
AcDbEntity
  8
0
  6
Continuous
 62
     7
100
AcDbLine
 10
809.3928709547126
 20
450.5104270746297
 30
0.0
 11
810.3928729812706
 21
450.5104270746297
 31
0.0
  0
LINE
  5
7B4
330
1F
100
AcDbEntity
  8
0
  6
Continuous
 62
     7
100
AcDbLine
 10
810.3928729812706
 20
-123.4895654971414
 30
0.0
 11
809.3928709547126
 21
-123.4895654971414
 31
0.0
  0
LINE
  5
7B5
330
1F
100
AcDbEntity
  8
0
  6
Continuous
 62
     7
100
AcDbLine
 10
809.3928709547126
 20
-139.489565325778
 30
0.0
 11
810.3928729812706
 21
-139.489565325778
 31
0.0
  0
LINE
  5
7CB
330
1F
100
AcDbEntity
  8
0
  6
Continuous
 62
     7
100
AcDbLine
 10
846.8428753237282
 20
504.5104471017904
 30
0.0
 11
846.8428753237282
 21
473.5104289819784
 31
0.0
  0
LINE
  5
7CC
330
1F
100
AcDbEntity
  8
0
  6
Continuous
 62
     7
100
AcDbLine
 10
1101.642870895107
 20
473.5104289819784
 30
0.0
 11
1101.642870895107
 21
504.5104471017904
 31
0.0
  0
LINE
  5
7CD
330
1F
100
AcDbEntity
  8
0
  6
Continuous
 62
     7
100
AcDbLine
 10
963.142873338898
 20
504.5104471017904
 30
0.0
 11
963.142873338898
 21
473.5104289819784
 31
0.0
  0
ARC
  5
7EE
330
1F
100
AcDbEntity
  8
0
  6
Continuous
 62
     7
100
AcDbCircle
 10
809.304029648914
 20
450.710434593758
 30
0.0
 40
0.2000000000001023
100
AcDbArc
 50
211.6579514611797
 51
270.0000000000008
  0
ARC
  5
7EF
330
1F
100
AcDbEntity
  8
0
  6
Continuous
 62
     7
100
AcDbCircle
 10
809.304029648914
 20
466.3104345937579
 30
0.0
 40
0.1999999999999886
100
AcDbArc
 50
90.0
 51
148.3420485388488
  0
LINE
  5
7F0
330
1F
100
AcDbEntity
  8
0
  6
Continuous
 62
     7
100
AcDbLine
 10
809.3928709547074
 20
466.5104594995565
 30
0.0
 11
809.3040302316697
 21
466.5104594995565
 31
0.0
  0
LINE
  5
7F1
330
1F
100
AcDbEntity
  8
0
  6
Continuous
 62
     7
100
AcDbLine
 10
809.3040302316697
 20
450.5104270746297
 30
0.0
 11
809.3928709547074
 21
450.5104270746297
 31
0.0
  0
ARC
  5
7F2
330
1F
100
AcDbEntity
  8
0
  6
Continuous
 62
     7
100
AcDbCircle
 10
821.9524399802792
 20
458.5114345937579
 30
0.0
 40
15.0595654347826
100
AcDbArc
 50
148.3420485388419
 51
179.9999999999998
  0
ARC
  5
7F3
330
1F
100
AcDbEntity
  8
0
  6
Continuous
 62
     7
100
AcDbCircle
 10
821.9524399802792
 20
458.5094345937578
 30
0.0
 40
15.0595654347826
100
AcDbArc
 50
179.9999999999995
 51
211.657951461159
  0
ARC
  5
7F4
330
1F
100
AcDbEntity
  8
0
  6
Continuous
 62
     7
100
AcDbCircle
 10
809.3040296489172
 20
-139.2895654062428
 30
0.0
 40
0.199999999999997
100
AcDbArc
 50
211.6579514611659
 51
270.0000000000008
  0
ARC
  5
7F5
330
1F
100
AcDbEntity
  8
0
  6
Continuous
 62
     7
100
AcDbCircle
 10
809.3040296489173
 20
-123.6895654062428
 30
0.0
 40
0.1999999999999896
100
AcDbArc
 50
90.0
 51
148.3420485388384
  0
LINE
  5
7F6
330
1F
100
AcDbEntity
  8
0
  6
Continuous
 62
     7
100
AcDbLine
 10
809.3928709547126
 20
-123.4895654971414
 30
0.0
 11
809.3040302316749
 21
-123.4895654971414
 31
0.0
  0
LINE
  5
7F7
330
1F
100
AcDbEntity
  8
0
  6
Continuous
 62
     7
100
AcDbLine
 10
809.3040302316749
 20
-139.489565325778
 30
0.0
 11
809.3928709547126
 21
-139.489565325778
 31
0.0
  0
ARC
  5
7F8
330
1F
100
AcDbEntity
  8
0
  6
Continuous
 62
     7
100
AcDbCircle
 10
821.9524399802824
 20
-131.4885654062429
 30
0.0
 40
15.0595654347826
100
AcDbArc
 50
148.3420485388412
 51
179.9999999999998
  0
ARC
  5
7F9
330
1F
100
AcDbEntity
  8
0
  6
Continuous
 62
     7
100
AcDbCircle
 10
821.9524399802824
 20
-131.4905654062429
 30
0.0
 40
15.0595654347826
100
AcDbArc
 50
179.9999999999998
 51
211.6579514611591
  0
LINE
  5
7FA
330
1F
100
AcDbEntity
  8
0
  6
Continuous
 62
     7
100
AcDbLine
 10
1131.392875305852
 20
-139.489565325778
 30
0.0
 11
1131.481716028889
 21
-139.489565325778
 31
0.0
  0
LINE
  5
7FB
330
1F
100
AcDbEntity
  8
0
  6
Continuous
 62
     7
100
AcDbLine
 10
1131.481716028889
 20
-123.4895654971414
 30
0.0
 11
1131.392875305852
 21
-123.4895654971414
 31
0.0
  0
ARC
  5
7FC
330
1F
100
AcDbEntity
  8
0
  6
Continuous
 62
     7
100
AcDbCircle
 10
1131.481719442084
 20
-123.6895654062445
 30
0.0
 40
0.2000000000000313
100
AcDbArc
 50
31.65795146117867
 51
90.0
  0
ARC
  5
7FD
330
1F
100
AcDbEntity
  8
0
  6
Continuous
 62
     7
100
AcDbCircle
 10
1131.481719442084
 20
-139.2895654062445
 30
0.0
 40
0.1999999999999602
100
AcDbArc
 50
270.0000000000008
 51
328.3420485388395
  0
ARC
  5
7FE
330
1F
100
AcDbEntity
  8
0
  6
Continuous
 62
     7
100
AcDbCircle
 10
1118.833309110719
 20
-131.4905654062444
 30
0.0
 40
15.05956543478239
100
AcDbArc
 50
328.3420485388421
 51
0.0000000000006107
  0
ARC
  5
7FF
330
1F
100
AcDbEntity
  8
0
  6
Continuous
 62
     7
100
AcDbCircle
 10
1118.833309110719
 20
-131.4885654062444
 30
0.0
 40
15.05956543478237
100
AcDbArc
 50
0.0000000000006107
 51
31.65795146115862
  0
LINE
  5
800
330
1F
100
AcDbEntity
  8
0
  6
Continuous
 62
     7
100
AcDbLine
 10
1131.392875305852
 20
450.5104270746297
 30
0.0
 11
1131.481716028889
 21
450.5104270746297
 31
0.0
  0
LINE
  5
801
330
1F
100
AcDbEntity
  8
0
  6
Continuous
 62
     7
100
AcDbLine
 10
1131.481716028889
 20
466.5104594995565
 30
0.0
 11
1131.392875305852
 21
466.5104594995565
 31
0.0
  0
ARC
  5
802
330
1F
100
AcDbEntity
  8
0
  6
Continuous
 62
     7
100
AcDbCircle
 10
1131.481719442086
 20
466.3104345937595
 30
0.0
 40
0.1999999999999886
100
AcDbArc
 50
31.65795146116828
 51
90.0
  0
ARC
  5
803
330
1F
100
AcDbEntity
  8
0
  6
Continuous
 62
     7
100
AcDbCircle
 10
1131.481719442086
 20
450.7104345937595
 30
0.0
 40
0.1999999999999886
100
AcDbArc
 50
270.0000000000008
 51
328.3420485388325
  0
ARC
  5
804
330
1F
100
AcDbEntity
  8
0
  6
Continuous
 62
     7
100
AcDbCircle
 10
1118.833309110721
 20
458.5094345937595
 30
0.0
 40
15.05956543478237
100
AcDbArc
 50
328.3420485388422
 51
0.0
  0
ARC
  5
805
330
1F
100
AcDbEntity
  8
0
  6
Continuous
 62
     7
100
AcDbCircle
 10
1118.833309110721
 20
458.5114345937595
 30
0.0
 40
15.05956543478237
100
AcDbArc
 50
0.0000000000004071
 51
31.65795146115862
  0
LINE
  5
837
330
1F
100
AcDbEntity
  8
0
  6
Continuous
 62
     7
100
AcDbLine
 10
1111.092874399862
 20
472.0982757379598
 30
0.0
 11
1111.092874399862
 21
-145.0774337182455
 31
0.0
  0
LINE
  5
83E
330
1F
100
AcDbEntity
  8
0
  6
Continuous
 62
     7
100
AcDbLine
 10
1130.392873279294
 20
-145.289564786356
 30
0.0
 11
1130.392873279294
 21
472.3104086687154
 31
0.0
  0
LINE
  5
842
330
1F
100
AcDbEntity
  8
0
  6
Continuous
 62
     7
100
AcDbLine
 10
1111.092874399862
 20
-145.289564786356
 30
0.0
 11
1111.092874399862
 21
-145.0774337182455
 31
0.0
  0
ARC
  5
843
330
1F
100
AcDbEntity
  8
0
  6
Continuous
 62
     7
100
AcDbCircle
 10
1112.292874545501
 20
-145.2895654061541
 30
0.0
 40
1.199999999999989
100
AcDbArc
 50
180.0
 51
270.0000000000008
  0
SPLINE
  5
847
330
1F
100
AcDbEntity
  8
0
  6
Continuous
 62
     7
100
AcDbSpline
210
0.0
220
0.0
230
1.0
 70
     8
 71
     3
 72
    11
 73
     7
 74
     0
 42
0.000000001
 43
0.00000001
 40
0.0
 40
0.0
 40
0.0
 40
0.0
 40
0.2499936581632198
 40
0.500003841507673
 40
0.7499860888784534
 40
0.9999999999999999
 40
0.9999999999999999
 40
0.9999999999999999
 40
0.9999999999999999
 10
1112.292879811963
 20
473.5104289819784
 30
0.0
 10
1112.135630592225
 20
473.4924070974774
 30
0.0
 10
1111.821121758197
 20
473.4563621371856
 30
0.0
 10
1111.424515919198
 20
473.1787952304317
 30
0.0
 10
1111.146970530389
 20
472.7821643249985
 30
0.0
 10
1111.110907204643
 20
472.4676671929665
 30
0.0
 10
1111.092874399862
 20
472.3104086687154
 30
0.0
  0
LINE
  5
848
330
1F
100
AcDbEntity
  8
0
  6
Continuous
 62
     7
100
AcDbLine
 10
1111.092874399862
 20
472.0982757379598
 30
0.0
 11
1111.092874399862
 21
472.3104086687154
 31
0.0
  0
ARC
  5
84A
330
1F
100
AcDbEntity
  8
0
  6
Continuous
 62
     7
100
AcDbCircle
 10
1129.192874545501
 20
-145.2895654061542
 30
0.0
 40
1.199999999999989
100
AcDbArc
 50
270.0000000000008
 51
0.0000000000027141
  0
LINE
  5
84B
330
1F
100
AcDbEntity
  8
0
  6
Continuous
 62
     7
100
AcDbLine
 10
1129.192867867192
 20
-146.4895646105223
 30
0.0
 11
1112.292874545501
 21
-146.4895654061541
 31
0.0
  0
ARC
  5
84C
330
1F
100
AcDbEntity
  8
0
  6
Continuous
 62
     7
100
AcDbCircle
 10
1129.192874545503
 20
472.3104345938457
 30
0.0
 40
1.200000000000102
100
AcDbArc
 50
0.0000000000027141
 51
90.0
  0
LINE
  5
84E
330
1F
100
AcDbEntity
  8
0
  6
Continuous
 62
     7
100
AcDbLine
 10
1112.292879811963
 20
473.5104289819784
 30
0.0
 11
1129.192867867192
 21
473.5104289819784
 31
0.0
  0
LINE
  5
869
330
1F
100
AcDbEntity
  8
0
  6
Continuous
 62
     7
100
AcDbLine
 10
829.6928718607037
 20
469.3104472925252
 30
0.0
 11
829.6928718607037
 21
-142.2895661572628
 31
0.0
  0
LINE
  5
86D
330
1F
100
AcDbEntity
  8
0
  6
Continuous
 62
     7
100
AcDbLine
 10
829.6928718607037
 20
-142.7895653078967
 30
0.0
 11
829.6928718607037
 21
-142.2895661572628
 31
0.0
  0
LINE
  5
870
330
1F
100
AcDbEntity
  8
0
  6
Continuous
 62
     7
100
AcDbLine
 10
829.6928718607037
 20
469.3104472925252
 30
0.0
 11
829.6928718607037
 21
469.8104110529012
 31
0.0
  0
LINE
  5
871
330
1F
100
AcDbEntity
  8
0
  6
Continuous
 62
     7
100
AcDbLine
 10
829.6928718607037
 20
471.8104449083394
 30
0.0
 11
829.6928718607037
 21
472.3104086687154
 31
0.0
  0
LINE
  5
876
330
1F
100
AcDbEntity
  8
0
  6
Continuous
 62
     7
100
AcDbLine
 10
1111.092874399862
 20
-142.2895661572628
 30
0.0
 11
1111.092874399862
 21
469.3104472925252
 31
0.0
  0
LINE
  5
887
330
1F
100
AcDbEntity
  8
0
  6
Continuous
 62
     7
100
AcDbLine
 10
829.6928718607037
 20
471.6336575319356
 30
0.0
 11
829.6928718607037
 21
469.8104110529012
 31
0.0
  0
LINE
  5
888
330
1F
100
AcDbEntity
  8
0
  6
Continuous
 62
     7
100
AcDbLine
 10
829.6928718607037
 20
-142.7895653078967
 30
0.0
 11
829.6928718607037
 21
-144.6127894351893
 31
0.0
  0
LINE
  5
889
330
1F
100
AcDbEntity
  8
0
  6
Continuous
 62
     7
100
AcDbLine
 10
810.392872981271
 20
471.8104449083394
 30
0.0
 11
810.392872981271
 21
-144.7895656357222
 31
0.0
  0
LINE
  5
88F
330
1F
100
AcDbEntity
  8
0
  6
Continuous
 62
     7
100
AcDbLine
 10
812.0928719560711
 20
473.5104289819784
 30
0.0
 11
827.9928728859036
 21
473.5104289819784
 31
0.0
  0
ARC
  5
891
330
1F
100
AcDbEntity
  8
0
  6
Continuous
 62
     7
100
AcDbCircle
 10
812.0928745454589
 20
471.8104345937592
 30
0.0
 40
1.700000000000045
100
AcDbArc
 50
89.99999999999618
 51
180.0000000013036
  0
ARC
  5
893
330
1F
100
AcDbEntity
  8
0
  6
Continuous
 62
     7
100
AcDbCircle
 10
827.992874545459
 20
471.8104345937571
 30
0.0
 40
1.700000000000045
100
AcDbArc
 50
359.999999999997
 51
90.00000000000767
  0
LINE
  5
894
330
1F
100
AcDbEntity
  8
0
  6
Continuous
 62
     7
100
AcDbLine
 10
829.6928718607037
 20
471.8104449083394
 30
0.0
 11
829.6661019246189
 21
471.8104449083394
 31
0.0
  0
LINE
  5
898
330
1F
100
AcDbEntity
  8
0
  6
Continuous
 62
     7
100
AcDbLine
 10
827.9928728859036
 20
-146.4895646105223
 30
0.0
 11
812.0928719560711
 21
-146.4895646105223
 31
0.0
  0
ARC
  5
899
330
1F
100
AcDbEntity
  8
0
  6
Continuous
 62
     7
100
AcDbCircle
 10
812.0928745454587
 20
-144.7895654062449
 30
0.0
 40
1.69999999999996
100
AcDbArc
 50
180.0
 51
270.0000000000084
  0
ARC
  5
89D
330
1F
100
AcDbEntity
  8
0
  6
Continuous
 62
     7
100
AcDbCircle
 10
827.9928745454588
 20
-144.7895654062432
 30
0.0
 40
1.700000000000045
100
AcDbArc
 50
269.999999999997
 51
359.999999999997
  0
LINE
  5
89E
330
1F
100
AcDbEntity
  8
0
  6
Continuous
 62
     7
100
AcDbLine
 10
829.6928718607037
 20
471.6336575319356
 30
0.0
 11
829.6928718607037
 21
471.8104449083394
 31
0.0
  0
LINE
  5
89F
330
1F
100
AcDbEntity
  8
0
  6
Continuous
 62
     7
100
AcDbLine
 10
829.6928718607037
 20
-144.7895656357222
 30
0.0
 11
829.6928718607037
 21
-144.6127894351893
 31
0.0
  0
LINE
  5
8E0
330
1F
100
AcDbEntity
  8
0
  6
Continuous
 62
     7
100
AcDbLine
 10
835.3928714911549
 20
-144.0895649621897
 30
0.0
 11
835.3928714911549
 21
-144.3724076281004
 31
0.0
  0
LINE
  5
8E3
330
1F
100
AcDbEntity
  8
0
  6
Continuous
 62
     7
100
AcDbLine
 10
835.3928714911549
 20
-144.7895656357222
 30
0.0
 11
835.3928714911549
 21
-144.3724076281004
 31
0.0
  0
LINE
  5
8E6
330
1F
100
AcDbEntity
  8
0
  6
Continuous
 62
     7
100
AcDbLine
 10
1105.39286731883
 20
-144.0895649621897
 30
0.0
 11
1105.39286731883
 21
-144.3724076281004
 31
0.0
  0
LINE
  5
8E7
330
1F
100
AcDbEntity
  8
0
  6
Continuous
 62
     7
100
AcDbLine
 10
1105.39286731883
 20
-144.7895656357222
 30
0.0
 11
1105.39286731883
 21
-144.3724076281004
 31
0.0
  0
ARC
  5
8EB
330
1F
100
AcDbEntity
  8
0
  6
Continuous
 62
     7
100
AcDbCircle
 10
837.0928745454639
 20
-144.7895654062457
 30
0.0
 40
1.700000000000045
100
AcDbArc
 50
179.9999999999981
 51
270.0000000000008
  0
LINE
  5
8EF
330
1F
100
AcDbEntity
  8
0
  6
Continuous
 62
     7
100
AcDbLine
 10
837.0928779165356
 20
-146.4895646105223
 30
0.0
 11
1103.69286834403
 21
-146.4895646105223
 31
0.0
  0
ARC
  5
8F0
330
1F
100
AcDbEntity
  8
0
  6
Continuous
 62
     7
100
AcDbCircle
 10
1103.692874545464
 20
-144.7895654062457
 30
0.0
 40
1.700000000000045
100
AcDbArc
 50
270.0000000000008
 51
0.0
  0
LINE
  5
8FF
330
1F
100
AcDbEntity
  8
0
  6
Continuous
 62
     7
100
AcDbLine
 10
854.3520174841441
 20
504.5104471017904
 30
0.0
 11
963.142873338894
 21
504.5104471017904
 31
0.0
  0
LINE
  5
900
330
1F
100
AcDbEntity
  8
0
  6
Continuous
 62
     7
100
AcDbLine
 10
846.8428753237282
 20
504.5104471017904
 30
0.0
 11
854.2973749260462
 21
504.5104471017904
 31
0.0
  0
LINE
  5
902
330
1F
100
AcDbEntity
  8
0
  6
Continuous
 62
     7
100
AcDbLine
 10
854.3520174841441
 20
504.5104471017904
 30
0.0
 11
854.2973749260462
 21
504.5104471017904
 31
0.0
  0
LINE
  5
905
330
1F
100
AcDbEntity
  8
0
  6
Continuous
 62
     7
100
AcDbLine
 10
1101.629728070935
 20
504.5104471017904
 30
0.0
 11
1101.642870895107
 21
504.5104471017904
 31
0.0
  0
LINE
  5
906
330
1F
100
AcDbEntity
  8
0
  6
Continuous
 62
     7
100
AcDbLine
 10
963.142873338898
 20
504.5104471017904
 30
0.0
 11
1101.627254478176
 21
504.5104471017904
 31
0.0
  0
LINE
  5
907
330
1F
100
AcDbEntity
  8
0
  6
Continuous
 62
     7
100
AcDbLine
 10
1101.629728070935
 20
504.5104471017904
 30
0.0
 11
1101.627254478176
 21
504.5104471017904
 31
0.0
  0
LINE
  5
930
330
1F
100
AcDbEntity
  8
0
  6
Continuous
 62
     7
100
AcDbLine
 10
806.8928733388932
 20
458.5094300081319
 30
0.0
 11
806.8928733388932
 21
458.5114565660543
 31
0.0
  0
LINE
  5
933
330
1F
100
AcDbEntity
  8
0
  6
Continuous
 62
     7
100
AcDbLine
 10
806.8928733388984
 20
-131.4885656366759
 30
0.0
 11
806.8928733388984
 21
-131.4905651862436
 31
0.0
  0
LINE
  5
936
330
1F
100
AcDbEntity
  8
0
  6
Continuous
 62
     7
100
AcDbLine
 10
1133.892872921666
 20
-131.4905651862436
 30
0.0
 11
1133.892872921666
 21
-131.4885656366759
 31
0.0
  0
LINE
  5
939
330
1F
100
AcDbEntity
  8
0
  6
Continuous
 62
     7
100
AcDbLine
 10
1133.892872921666
 20
458.5114565660543
 30
0.0
 11
1133.892872921666
 21
458.5094300081319
 31
0.0
  0
LINE
  5
942
330
1F
100
AcDbEntity
  8
0
  6
Continuous
 62
     7
100
AcDbLine
 10
835.3928714911549
 20
-144.0895649621897
 30
0.0
 11
835.3928714911549
 21
471.1104479600972
 31
0.0
  0
LINE
  5
94D
330
1F
100
AcDbEntity
  8
0
  6
Continuous
 62
     7
100
AcDbLine
 10
1105.39286731883
 20
-144.0895649621897
 30
0.0
 11
1105.39286731883
 21
471.1104479600972
 31
0.0
  0
LINE
  5
950
330
1F
100
AcDbEntity
  8
0
  6
Continuous
 62
     7
100
AcDbLine
 10
835.3928714911549
 20
471.3932719995565
 30
0.0
 11
835.3928714911549
 21
471.1104479600972
 31
0.0
  0
LINE
  5
953
330
1F
100
AcDbEntity
  8
0
  6
Continuous
 62
     7
100
AcDbLine
 10
835.3928714911549
 20
471.3932719995565
 30
0.0
 11
835.3928714911549
 21
471.8104449083394
 31
0.0
  0
ARC
  5
955
330
1F
100
AcDbEntity
  8
0
  6
Continuous
 62
     7
100
AcDbCircle
 10
837.0928745454596
 20
471.8104345937839
 30
0.0
 40
1.700000000000045
100
AcDbArc
 50
90.0
 51
179.9999999999981
  0
LINE
  5
959
330
1F
100
AcDbEntity
  8
0
  6
Continuous
 62
     7
100
AcDbLine
 10
837.0928779165356
 20
473.5104289819784
 30
0.0
 11
1103.69286834403
 21
473.5104289819784
 31
0.0
  0
LINE
  5
95C
330
1F
100
AcDbEntity
  8
0
  6
Continuous
 62
     7
100
AcDbLine
 10
1105.39286731883
 20
471.3932719995565
 30
0.0
 11
1105.39286731883
 21
471.1104479600972
 31
0.0
  0
ARC
  5
95E
330
1F
100
AcDbEntity
  8
0
  6
Continuous
 62
     7
100
AcDbCircle
 10
1103.69287454546
 20
471.8104345937839
 30
0.0
 40
1.700000000000045
100
AcDbArc
 50
0.0
 51
90.0
  0
LINE
  5
960
330
1F
100
AcDbEntity
  8
0
  6
Continuous
 62
     7
100
AcDbLine
 10
1105.39286731883
 20
471.3932719995565
 30
0.0
 11
1105.39286731883
 21
471.8104449083394
 31
0.0
  0
LINE
  5
98C
330
1F
100
AcDbEntity
  8
0
  6
Continuous
 62
     7
100
AcDbLine
 10
-625.9884059296058
 20
-123.4895654971414
 30
0.0
 11
-626.9884079561638
 21
-123.4895654971414
 31
0.0
  0
LINE
  5
98D
330
1F
100
AcDbEntity
  8
0
  6
Continuous
 62
     7
100
AcDbLine
 10
-626.9884079561638
 20
-139.489565325778
 30
0.0
 11
-625.9884059296058
 21
-139.489565325778
 31
0.0
  0
LINE
  5
98E
330
1F
100
AcDbEntity
  8
0
  6
Continuous
 62
     7
100
AcDbLine
 10
-625.9884059296058
 20
466.5104594995565
 30
0.0
 11
-626.9884079561638
 21
466.5104594995565
 31
0.0
  0
LINE
  5
98F
330
1F
100
AcDbEntity
  8
0
  6
Continuous
 62
     7
100
AcDbLine
 10
-626.9884079561638
 20
450.5104270746297
 30
0.0
 11
-625.9884059296058
 21
450.5104270746297
 31
0.0
  0
LINE
  5
990
330
1F
100
AcDbEntity
  8
0
  6
Continuous
 62
     7
100
AcDbLine
 10
-305.9884056315826
 20
450.5104270746297
 30
0.0
 11
-304.9884036050246
 21
450.5104270746297
 31
0.0
  0
LINE
  5
991
330
1F
100
AcDbEntity
  8
0
  6
Continuous
 62
     7
100
AcDbLine
 10
-304.9884036050246
 20
466.5104594995565
 30
0.0
 11
-305.9884056315826
 21
466.5104594995565
 31
0.0
  0
LINE
  5
992
330
1F
100
AcDbEntity
  8
0
  6
Continuous
 62
     7
100
AcDbLine
 10
-305.9884056315826
 20
-139.489565325778
 30
0.0
 11
-304.9884036050246
 21
-139.489565325778
 31
0.0
  0
LINE
  5
993
330
1F
100
AcDbEntity
  8
0
  6
Continuous
 62
     7
100
AcDbLine
 10
-304.9884036050246
 20
-123.4895654971414
 30
0.0
 11
-305.9884056315826
 21
-123.4895654971414
 31
0.0
  0
LINE
  5
995
330
1F
100
AcDbEntity
  8
0
  6
Continuous
 62
     7
100
AcDbLine
 10
-342.4384079740451
 20
473.5104289819784
 30
0.0
 11
-342.4384079740451
 21
504.2104569246358
 31
0.0
  0
LINE
  5
996
330
1F
100
AcDbEntity
  8
0
  6
Continuous
 62
     7
100
AcDbLine
 10
-480.938409255545
 20
504.2104569246358
 30
0.0
 11
-480.938409255545
 21
473.5104289819784
 31
0.0
  0
ARC
  5
9B0
330
1F
100
AcDbEntity
  8
0
  6
Continuous
 62
     7
100
AcDbCircle
 10
-304.8995622992314
 20
466.3104345937579
 30
0.0
 40
0.1999999999999886
100
AcDbArc
 50
31.65795146115119
 51
90.0
  0
ARC
  5
9B1
330
1F
100
AcDbEntity
  8
0
  6
Continuous
 62
     7
100
AcDbCircle
 10
-304.8995622992314
 20
450.710434593758
 30
0.0
 40
0.2000000000001023
100
AcDbArc
 50
270.0000000000008
 51
328.3420485388219
  0
LINE
  5
9B2
330
1F
100
AcDbEntity
  8
0
  6
Continuous
 62
     7
100
AcDbLine
 10
-304.9884036050246
 20
450.5104270746297
 30
0.0
 11
-304.8995628819869
 21
450.5104270746297
 31
0.0
  0
LINE
  5
9B3
330
1F
100
AcDbEntity
  8
0
  6
Continuous
 62
     7
100
AcDbLine
 10
-304.8995628819869
 20
466.5104594995565
 30
0.0
 11
-304.9884036050246
 21
466.5104594995565
 31
0.0
  0
ARC
  5
9B4
330
1F
100
AcDbEntity
  8
0
  6
Continuous
 62
     7
100
AcDbCircle
 10
-317.5479726305966
 20
458.5094345937578
 30
0.0
 40
15.0595654347826
100
AcDbArc
 50
328.3420485388427
 51
0.0000000000004836
  0
ARC
  5
9B5
330
1F
100
AcDbEntity
  8
0
  6
Continuous
 62
     7
100
AcDbCircle
 10
-317.5479726305966
 20
458.5114345937579
 30
0.0
 40
15.0595654347826
100
AcDbArc
 50
0.0000000000002163
 51
31.65795146115827
  0
ARC
  5
9B6
330
1F
100
AcDbEntity
  8
0
  6
Continuous
 62
     7
100
AcDbCircle
 10
-304.8995622992293
 20
-123.6895654062462
 30
0.0
 40
0.2000000000000313
100
AcDbArc
 50
31.65795146116158
 51
90.0
  0
ARC
  5
9B7
330
1F
100
AcDbEntity
  8
0
  6
Continuous
 62
     7
100
AcDbCircle
 10
-304.8995622992292
 20
-139.2895654062462
 30
0.0
 40
0.199999999999997
100
AcDbArc
 50
270.0000000000008
 51
328.3420485388358
  0
LINE
  5
9B8
330
1F
100
AcDbEntity
  8
0
  6
Continuous
 62
     7
100
AcDbLine
 10
-304.9884036050246
 20
-139.489565325778
 30
0.0
 11
-304.8995628819869
 21
-139.489565325778
 31
0.0
  0
LINE
  5
9B9
330
1F
100
AcDbEntity
  8
0
  6
Continuous
 62
     7
100
AcDbLine
 10
-304.8995628819869
 20
-123.4895654971414
 30
0.0
 11
-304.9884036050246
 21
-123.4895654971414
 31
0.0
  0
ARC
  5
9BA
330
1F
100
AcDbEntity
  8
0
  6
Continuous
 62
     7
100
AcDbCircle
 10
-317.5479726305944
 20
-131.4905654062463
 30
0.0
 40
15.0595654347826
100
AcDbArc
 50
328.3420485388427
 51
0.0000000000003058
  0
ARC
  5
9BB
330
1F
100
AcDbEntity
  8
0
  6
Continuous
 62
     7
100
AcDbCircle
 10
-317.5479726305944
 20
-131.4885654062463
 30
0.0
 40
15.0595654347826
100
AcDbArc
 50
0.0000000000003058
 51
31.65795146115869
  0
LINE
  5
9BC
330
1F
100
AcDbEntity
  8
0
  6
Continuous
 62
     7
100
AcDbLine
 10
-626.9884079561638
 20
-123.4895654971414
 30
0.0
 11
-627.0772486792015
 21
-123.4895654971414
 31
0.0
  0
LINE
  5
9BD
330
1F
100
AcDbEntity
  8
0
  6
Continuous
 62
     7
100
AcDbLine
 10
-627.0772486792015
 20
-139.489565325778
 30
0.0
 11
-626.9884079561638
 21
-139.489565325778
 31
0.0
  0
ARC
  5
9BE
330
1F
100
AcDbEntity
  8
0
  6
Continuous
 62
     7
100
AcDbCircle
 10
-627.0772520924127
 20
-139.289565406247
 30
0.0
 40
0.1999999999999821
100
AcDbArc
 50
211.6579514611589
 51
270.0000000000008
  0
ARC
  5
9BF
330
1F
100
AcDbEntity
  8
0
  6
Continuous
 62
     7
100
AcDbCircle
 10
-627.0772520924127
 20
-123.689565406247
 30
0.0
 40
0.2000000000000313
100
AcDbArc
 50
90.0
 51
148.3420485388384
  0
ARC
  5
9C0
330
1F
100
AcDbEntity
  8
0
  6
Continuous
 62
     7
100
AcDbCircle
 10
-614.4288417610474
 20
-131.4885654062469
 30
0.0
 40
15.05956543478266
100
AcDbArc
 50
148.3420485388421
 51
180.0000000000011
  0
ARC
  5
9C1
330
1F
100
AcDbEntity
  8
0
  6
Continuous
 62
     7
100
AcDbCircle
 10
-614.4288417610474
 20
-131.4905654062469
 30
0.0
 40
15.05956543478272
100
AcDbArc
 50
180.0000000000011
 51
211.6579514611591
  0
ARC
  5
9C2
330
1F
100
AcDbEntity
  8
0
  6
Continuous
 62
     7
100
AcDbCircle
 10
-627.0772520924146
 20
450.710434593757
 30
0.0
 40
0.1999999999999886
100
AcDbArc
 50
211.657951461152
 51
270.0000000000008
  0
ARC
  5
9C3
330
1F
100
AcDbEntity
  8
0
  6
Continuous
 62
     7
100
AcDbCircle
 10
-627.0772520924146
 20
466.3104345937571
 30
0.0
 40
0.1999999999999374
100
AcDbArc
 50
90.0
 51
148.3420485388627
  0
LINE
  5
9C4
330
1F
100
AcDbEntity
  8
0
  6
Continuous
 62
     7
100
AcDbLine
 10
-626.9884079561638
 20
466.5104594995565
 30
0.0
 11
-627.0772486792015
 21
466.5104594995565
 31
0.0
  0
LINE
  5
9C5
330
1F
100
AcDbEntity
  8
0
  6
Continuous
 62
     7
100
AcDbLine
 10
-627.0772486792015
 20
450.5104270746297
 30
0.0
 11
-626.9884079561638
 21
450.5104270746297
 31
0.0
  0
ARC
  5
9C6
330
1F
100
AcDbEntity
  8
0
  6
Continuous
 62
     7
100
AcDbCircle
 10
-614.4288417610495
 20
458.5114345937571
 30
0.0
 40
15.05956543478248
100
AcDbArc
 50
148.3420485388416
 51
180.0000000000013
  0
ARC
  5
9C7
330
1F
100
AcDbEntity
  8
0
  6
Continuous
 62
     7
100
AcDbCircle
 10
-614.4288417610495
 20
458.509434593757
 30
0.0
 40
15.05956543478248
100
AcDbArc
 50
179.9999999999998
 51
211.6579514611592
  0
LINE
  5
9CB
330
1F
100
AcDbEntity
  8
0
  6
Continuous
 62
     7
100
AcDbLine
 10
-591.2384062872337
 20
504.2104569246358
 30
0.0
 11
-591.2384062872337
 21
473.5104289819784
 31
0.0
  0
LINE
  5
9EE
330
1F
100
AcDbEntity
  8
0
  6
Continuous
 62
     7
100
AcDbLine
 10
-606.6884070501732
 20
-145.0774337182455
 30
0.0
 11
-606.6884070501732
 21
472.0982757379598
 31
0.0
  0
LINE
  5
9F2
330
1F
100
AcDbEntity
  8
0
  6
Continuous
 62
     7
100
AcDbLine
 10
-607.8884124622749
 20
473.5104289819784
 30
0.0
 11
-612.5189334021019
 21
473.5104289819784
 31
0.0
  0
LINE
  5
9F7
330
1F
100
AcDbEntity
  8
0
  6
Continuous
 62
     7
100
AcDbLine
 10
-612.5189334021019
 20
-146.4895646105223
 30
0.0
 11
-607.8884124622749
 21
-146.4895646105223
 31
0.0
  0
LINE
  5
9FB
330
1F
100
AcDbEntity
  8
0
  6
Continuous
 62
     7
100
AcDbLine
 10
-625.9884059296058
 20
-145.289564786356
 30
0.0
 11
-625.9884059296058
 21
472.3104086687154
 31
0.0
  0
SPLINE
  5
9FD
330
1F
100
AcDbEntity
  8
0
  6
Continuous
 62
     7
100
AcDbSpline
210
0.0
220
0.0
230
1.0
 70
     8
 71
     3
 72
    11
 73
     7
 74
     0
 42
0.000000001
 43
0.00000001
 40
0.0
 40
0.0
 40
0.0
 40
0.0
 40
0.2500121316554585
 40
0.499996158546208
 40
0.7500045623980427
 40
0.9999999999999999
 40
0.9999999999999999
 40
0.9999999999999999
 40
0.9999999999999999
 10
-606.6884070501732
 20
472.3104086687154
 30
0.0
 10
-606.7064404087068
 20
472.4676677818846
 30
0.0
 10
-606.7425050985793
 20
472.7821683301593
 30
0.0
 10
-607.0200450893972
 20
473.1787917500872
 30
0.0
 10
-607.416658413618
 20
473.4563640549459
 30
0.0
 10
-607.731163831339
 20
473.4924076511988
 30
0.0
 10
-607.888412462275
 20
473.5104289819785
 30
0.0
  0
LINE
  5
A00
330
1F
100
AcDbEntity
  8
0
  6
Continuous
 62
     7
100
AcDbLine
 10
-612.5189334021019
 20
473.5104289819784
 30
0.0
 11
-622.8920191393303
 21
473.5104289819784
 31
0.0
  0
SPLINE
  5
A01
330
1F
100
AcDbEntity
  8
0
  6
Continuous
 62
     7
100
AcDbSpline
210
0.0
220
0.0
230
1.0
 70
     8
 71
     3
 72
    11
 73
     7
 74
     0
 42
0.000000001
 43
0.00000001
 40
0.0
 40
0.0
 40
0.0
 40
0.0
 40
0.250002213884406
 40
0.5000006903020761
 40
0.750001491794454
 40
1.0
 40
1.0
 40
1.0
 40
1.0
 10
-607.8884124622749
 20
-146.4895646105223
 30
0.0
 10
-607.7311668553648
 20
-146.4715274756334
 30
0.0
 10
-607.4166779923247
 20
-146.4354534755058
 30
0.0
 10
-607.0200203443894
 20
-146.1579493654604
 30
0.0
 10
-606.7425205759598
 20
-145.7613010481105
 30
0.0
 10
-606.7064448369473
 20
-145.4468097261277
 30
0.0
 10
-606.6884070501732
 20
-145.289564786356
 30
0.0
  0
LINE
  5
A04
330
1F
100
AcDbEntity
  8
0
  6
Continuous
 62
     7
100
AcDbLine
 10
-612.5189334021019
 20
-146.4895646105223
 30
0.0
 11
-622.8920191393303
 21
-146.4895646105223
 31
0.0
  0
LINE
  5
A05
330
1F
100
AcDbEntity
  8
0
  6
Continuous
 62
     7
100
AcDbLine
 10
-606.6884070501732
 20
472.3104086687154
 30
0.0
 11
-606.6884070501732
 21
472.0982757379598
 31
0.0
  0
LINE
  5
A06
330
1F
100
AcDbEntity
  8
0
  6
Continuous
 62
     7
100
AcDbLine
 10
-606.6884070501732
 20
-145.0774337182455
 30
0.0
 11
-606.6884070501732
 21
-145.289564786356
 31
0.0
  0
LINE
  5
A08
330
1F
100
AcDbEntity
  8
0
  6
Continuous
 62
     7
100
AcDbLine
 10
-624.7884005175041
 20
473.5104289819784
 30
0.0
 11
-622.8920191393303
 21
473.5104289819784
 31
0.0
  0
ARC
  5
A09
330
1F
100
AcDbEntity
  8
0
  6
Continuous
 62
     7
100
AcDbCircle
 10
-624.7884071958325
 20
472.3104345938437
 30
0.0
 40
1.200000000000102
100
AcDbArc
 50
90.0
 51
179.9999999999973
  0
LINE
  5
A0B
330
1F
100
AcDbEntity
  8
0
  6
Continuous
 62
     7
100
AcDbLine
 10
-622.8920191393303
 20
-146.4895646105223
 30
0.0
 11
-624.7884005175041
 21
-146.4895646105223
 31
0.0
  0
ARC
  5
A0C
330
1F
100
AcDbEntity
  8
0
  6
Continuous
 62
     7
100
AcDbCircle
 10
-624.7884071958307
 20
-145.2895654061562
 30
0.0
 40
1.200000000000159
100
AcDbArc
 50
179.9999999999973
 51
270.0000000000008
  0
LINE
  5
A28
330
1F
100
AcDbEntity
  8
0
  6
Continuous
 62
     7
100
AcDbLine
 10
-325.2884045110152
 20
-142.2895661572628
 30
0.0
 11
-325.2884045110152
 21
469.3104472925252
 31
0.0
  0
LINE
  5
A2C
330
1F
100
AcDbEntity
  8
0
  6
Continuous
 62
     7
100
AcDbLine
 10
-325.2884045110152
 20
469.8104110529012
 30
0.0
 11
-325.2884045110152
 21
469.3104472925252
 31
0.0
  0
LINE
  5
A2F
330
1F
100
AcDbEntity
  8
0
  6
Continuous
 62
     7
100
AcDbLine
 10
-325.2884045110152
 20
-142.2895661572628
 30
0.0
 11
-325.2884045110152
 21
-142.7895653078967
 31
0.0
  0
LINE
  5
A33
330
1F
100
AcDbEntity
  8
0
  6
Continuous
 62
     7
100
AcDbLine
 10
-606.6884070501732
 20
469.3104472925252
 30
0.0
 11
-606.6884070501732
 21
-142.2895661572628
 31
0.0
  0
LINE
  5
A40
330
1F
100
AcDbEntity
  8
0
  6
Continuous
 62
     7
100
AcDbLine
 10
-305.9884056315826
 20
-144.7895656357222
 30
0.0
 11
-305.9884056315826
 21
471.8104449083394
 31
0.0
  0
LINE
  5
A48
330
1F
100
AcDbEntity
  8
0
  6
Continuous
 62
     7
100
AcDbLine
 10
-325.2884045110152
 20
-144.6127894351893
 30
0.0
 11
-325.2884045110152
 21
-142.7895653078967
 31
0.0
  0
LINE
  5
A49
330
1F
100
AcDbEntity
  8
0
  6
Continuous
 62
     7
100
AcDbLine
 10
-325.2884045110152
 20
469.8104110529012
 30
0.0
 11
-325.2884045110152
 21
471.6336575319356
 31
0.0
  0
ARC
  5
A4B
330
1F
100
AcDbEntity
  8
0
  6
Continuous
 62
     7
100
AcDbCircle
 10
-307.6884071958491
 20
-144.789565406245
 30
0.0
 40
1.700000000000358
100
AcDbArc
 50
269.9999999999893
 51
359.9999999995994
  0
LINE
  5
A4F
330
1F
100
AcDbEntity
  8
0
  6
Continuous
 62
     7
100
AcDbLine
 10
-307.6884046063827
 20
-146.4895646105223
 30
0.0
 11
-323.5884055362151
 21
-146.4895646105223
 31
0.0
  0
ARC
  5
A52
330
1F
100
AcDbEntity
  8
0
  6
Continuous
 62
     7
100
AcDbCircle
 10
-323.5884071958491
 20
-144.7895654062433
 30
0.0
 40
1.699999999999989
100
AcDbArc
 50
180.0000000000027
 51
270.0000000000028
  0
LINE
  5
A56
330
1F
100
AcDbEntity
  8
0
  6
Continuous
 62
     7
100
AcDbLine
 10
-323.5884055362151
 20
473.5104289819784
 30
0.0
 11
-307.6884046063827
 21
473.5104289819784
 31
0.0
  0
ARC
  5
A59
330
1F
100
AcDbEntity
  8
0
  6
Continuous
 62
     7
100
AcDbCircle
 10
-323.5884071958492
 20
471.8104345937571
 30
0.0
 40
1.700000000000045
100
AcDbArc
 50
90.00000000000576
 51
179.9999999999962
  0
ARC
  5
A5B
330
1F
100
AcDbEntity
  8
0
  6
Continuous
 62
     7
100
AcDbCircle
 10
-307.6884071958493
 20
471.8104345937592
 30
0.0
 40
1.700000000000045
100
AcDbArc
 50
0.0000000008295485
 51
90.00000000001151
  0
LINE
  5
A5C
330
1F
100
AcDbEntity
  8
0
  6
Continuous
 62
     7
100
AcDbLine
 10
-325.2884045110152
 20
-144.6127894351893
 30
0.0
 11
-325.2884045110152
 21
-144.7895656357222
 31
0.0
  0
LINE
  5
A5D
330
1F
100
AcDbEntity
  8
0
  6
Continuous
 62
     7
100
AcDbLine
 10
-325.2884045110152
 20
471.8104449083394
 30
0.0
 11
-325.2884045110152
 21
471.6336575319356
 31
0.0
  0
LINE
  5
A5F
330
1F
100
AcDbEntity
  8
0
  6
Continuous
 62
     7
100
AcDbLine
 10
-505.568404482405
 20
-147.1895652840548
 30
0.0
 11
-505.568404482405
 21
-146.4895646105223
 31
0.0
  0
LINE
  5
A86
330
1F
100
AcDbEntity
  8
0
  6
Continuous
 62
     7
100
AcDbLine
 10
-600.9883999691414
 20
-144.3724076281004
 30
0.0
 11
-600.9883999691414
 21
-144.0895649621897
 31
0.0
  0
LINE
  5
A8A
330
1F
100
AcDbEntity
  8
0
  6
Continuous
 62
     7
100
AcDbLine
 10
-599.2884009943413
 20
-146.4895646105223
 30
0.0
 11
-332.6884105668472
 21
-146.4895646105223
 31
0.0
  0
LINE
  5
A8C
330
1F
100
AcDbEntity
  8
0
  6
Continuous
 62
     7
100
AcDbLine
 10
-600.9883999691414
 20
-144.3724076281004
 30
0.0
 11
-600.9883999691414
 21
-144.7895656357222
 31
0.0
  0
ARC
  5
A8E
330
1F
100
AcDbEntity
  8
0
  6
Continuous
 62
     7
100
AcDbCircle
 10
-599.2884071957754
 20
-144.7895654062457
 30
0.0
 40
1.700000000000045
100
AcDbArc
 50
180.0
 51
270.0000000000008
  0
ARC
  5
A90
330
1F
100
AcDbEntity
  8
0
  6
Continuous
 62
     7
100
AcDbCircle
 10
-332.6884071957755
 20
-144.7895654062457
 30
0.0
 40
1.700000000000045
100
AcDbArc
 50
270.0000000000008
 51
0.0
  0
LINE
  5
A95
330
1F
100
AcDbEntity
  8
0
  6
Continuous
 62
     7
100
AcDbLine
 10
-330.9884041414664
 20
-144.3724076281004
 30
0.0
 11
-330.9884041414664
 21
-144.7895656357222
 31
0.0
  0
LINE
  5
A96
330
1F
100
AcDbEntity
  8
0
  6
Continuous
 62
     7
100
AcDbLine
 10
-330.9884041414664
 20
-144.3724076281004
 30
0.0
 11
-330.9884041414664
 21
-144.0895649621897
 31
0.0
  0
LINE
  5
ABA
330
1F
100
AcDbEntity
  8
0
  6
Continuous
 62
     7
100
AcDbLine
 10
-302.4884059892104
 20
458.5109201242513
 30
0.0
 11
-302.4884059892104
 21
458.5114565660543
 31
0.0
  0
LINE
  5
ABB
330
1F
100
AcDbEntity
  8
0
  6
Continuous
 62
     7
100
AcDbLine
 10
-302.4884059892104
 20
458.5109201242513
 30
0.0
 11
-302.4884059892104
 21
458.5094300081319
 31
0.0
  0
LINE
  5
ABC
330
1F
100
AcDbEntity
  8
0
  6
Continuous
 62
     7
100
AcDbLine
 10
-302.4884059892104
 20
-131.4890918339305
 30
0.0
 11
-302.4884059892104
 21
-131.4885656366759
 31
0.0
  0
LINE
  5
ABD
330
1F
100
AcDbEntity
  8
0
  6
Continuous
 62
     7
100
AcDbLine
 10
-302.4884059892104
 20
-131.4905651862436
 30
0.0
 11
-302.4884059892104
 21
-131.4890918339305
 31
0.0
  0
LINE
  5
ABE
330
1F
100
AcDbEntity
  8
0
  6
Continuous
 62
     7
100
AcDbLine
 10
-629.488405571978
 20
-131.4887407253199
 30
0.0
 11
-629.488405571978
 21
-131.4905651862436
 31
0.0
  0
LINE
  5
ABF
330
1F
100
AcDbEntity
  8
0
  6
Continuous
 62
     7
100
AcDbLine
 10
-629.488405571978
 20
-131.4885656366759
 30
0.0
 11
-629.488405571978
 21
-131.4887407253199
 31
0.0
  0
LINE
  5
AC0
330
1F
100
AcDbEntity
  8
0
  6
Continuous
 62
     7
100
AcDbLine
 10
-629.488405571978
 20
458.51127775212
 30
0.0
 11
-629.488405571978
 21
458.5094300081319
 31
0.0
  0
LINE
  5
AC1
330
1F
100
AcDbEntity
  8
0
  6
Continuous
 62
     7
100
AcDbLine
 10
-629.488405571978
 20
458.5114565660543
 30
0.0
 11
-629.488405571978
 21
458.51127775212
 31
0.0
  0
LINE
  5
ACD
330
1F
100
AcDbEntity
  8
0
  6
Continuous
 62
     7
100
AcDbLine
 10
-600.9883999691414
 20
-144.0895649621897
 30
0.0
 11
-600.9883999691414
 21
471.1104479600972
 31
0.0
  0
LINE
  5
AD1
330
1F
100
AcDbEntity
  8
0
  6
Continuous
 62
     7
100
AcDbLine
 10
-330.9884041414664
 20
-144.0895649621897
 30
0.0
 11
-330.9884041414664
 21
471.1104479600972
 31
0.0
  0
LINE
  5
AD5
330
1F
100
AcDbEntity
  8
0
  6
Continuous
 62
     7
100
AcDbLine
 10
-600.9883999691414
 20
471.1104479600972
 30
0.0
 11
-600.9883999691414
 21
471.3932719995565
 31
0.0
  0
LINE
  5
AD8
330
1F
100
AcDbEntity
  8
0
  6
Continuous
 62
     7
100
AcDbLine
 10
-600.9883999691414
 20
471.8104449083394
 30
0.0
 11
-600.9883999691414
 21
471.3932719995565
 31
0.0
  0
LINE
  5
ADB
330
1F
100
AcDbEntity
  8
0
  6
Continuous
 62
     7
100
AcDbLine
 10
-599.2884009943413
 20
473.5104289819784
 30
0.0
 11
-332.6884105668472
 21
473.5104289819784
 31
0.0
  0
ARC
  5
ADC
330
1F
100
AcDbEntity
  8
0
  6
Continuous
 62
     7
100
AcDbCircle
 10
-599.2884071957711
 20
471.8104345937804
 30
0.0
 40
1.700000000000045
100
AcDbArc
 50
90.0
 51
180.0
  0
ARC
  5
ADE
330
1F
100
AcDbEntity
  8
0
  6
Continuous
 62
     7
100
AcDbCircle
 10
-332.6884071957712
 20
471.8104345937804
 30
0.0
 40
1.700000000000045
100
AcDbArc
 50
0.0
 51
89.9999999999981
  0
LINE
  5
AE3
330
1F
100
AcDbEntity
  8
0
  6
Continuous
 62
     7
100
AcDbLine
 10
-330.9884041414664
 20
471.1104479600972
 30
0.0
 11
-330.9884041414664
 21
471.3932719995565
 31
0.0
  0
LINE
  5
AE5
330
1F
100
AcDbEntity
  8
0
  6
Continuous
 62
     7
100
AcDbLine
 10
-330.9884041414664
 20
471.8104449083394
 30
0.0
 11
-330.9884041414664
 21
471.3932719995565
 31
0.0
  0
LINE
  5
AE8
330
1F
100
AcDbEntity
  8
0
  6
Continuous
 62
     7
100
AcDbLine
 10
-342.4384079740451
 20
504.2104569246358
 30
0.0
 11
-591.2384062872337
 21
504.2104569246358
 31
0.0
  0
CIRCLE
  5
B5F
330
1F
100
AcDbEntity
  8
0
100
AcDbCircle
 10
393.6206010492533
 20
-501.2566398499106
 30
0.0
 40
62.25
  0
ARC
  5
B60
330
1F
100
AcDbEntity
  8
0
  6
Continuous
 62
     7
100
AcDbCircle
 10
-19.9793989507458
 20
-617.5566398494254
 30
0.0
 40
69.2500000000038
100
AcDbArc
 50
116.9294676218667
 51
116.8294676218669
  0
CIRCLE
  5
B62
330
1F
100
AcDbEntity
  8
0
  6
Continuous
 62
     7
100
AcDbCircle
 10
117.3206010492517
 20
-501.2566398493258
 30
0.0
 40
62.25000000000341
  0
LINE
  5
B63
330
1F
100
AcDbEntity
  8
0
100
AcDbLine
 10
96.26039722729601
 20
1053.847856040614
 30
0.0
 11
115.3522790389148
 21
1034.755973297673
 31
0.0
  0
LINE
  5
101C
330
1F
100
AcDbEntity
  8
0
  6
CENTER
 62
     1
 48
5.0
100
AcDbLine
 10
308.5145405963604
 20
1116.892454782652
 30
0.0
 11
48.51454059635859
 21
1116.892454782652
 31
0.0
  0
LINE
  5
101D
330
1F
100
AcDbEntity
  8
0
  6
CENTER
 62
     1
 48
5.0
100
AcDbLine
 10
178.5145405963604
 20
986.8924547826516
 30
0.0
 11
178.5145405963604
 21
1246.892454782652
 31
0.0
  0
LINE
  5
101E
330
1F
100
AcDbEntity
  8
0
  6
CENTER
 62
     1
 48
5.0
100
AcDbLine
 10
472.8149615320684
 20
1226.810539442197
 30
0.0
 11
462.8149615320693
 21
1226.810539442197
 31
0.0
  0
LINE
  5
101F
330
1F
100
AcDbEntity
  8
0
  6
CENTER
 62
     1
 48
5.0
100
AcDbLine
 10
467.8149615320684
 20
1221.810539442197
 30
0.0
 11
467.8149615320684
 21
1231.810539442197
 31
0.0
  0
LINE
  5
1020
330
1F
100
AcDbEntity
  8
0
  6
CENTER
 62
     1
 48
5.0
100
AcDbLine
 10
472.8149615320686
 20
1196.810539442177
 30
0.0
 11
462.8149615320695
 21
1196.810539442177
 31
0.0
  0
LINE
  5
1021
330
1F
100
AcDbEntity
  8
0
  6
CENTER
 62
     1
 48
5.0
100
AcDbLine
 10
467.8149615320686
 20
1191.810539442177
 30
0.0
 11
467.8149615320686
 21
1201.810539442177
 31
0.0
  0
LINE
  5
1022
330
1F
100
AcDbEntity
  8
0
  6
CENTER
 62
     1
 48
5.0
100
AcDbLine
 10
472.8149615320686
 20
1036.810539442197
 30
0.0
 11
462.8149615320695
 21
1036.810539442197
 31
0.0
  0
LINE
  5
1023
330
1F
100
AcDbEntity
  8
0
  6
CENTER
 62
     1
 48
5.0
100
AcDbLine
 10
467.8149615320686
 20
1031.810539442197
 30
0.0
 11
467.8149615320686
 21
1041.810539442197
 31
0.0
  0
LINE
  5
1024
330
1F
100
AcDbEntity
  8
0
  6
CENTER
 62
     1
 48
5.0
100
AcDbLine
 10
472.8149615320684
 20
1006.810539442177
 30
0.0
 11
462.8149615320693
 21
1006.810539442177
 31
0.0
  0
LINE
  5
1025
330
1F
100
AcDbEntity
  8
0
  6
CENTER
 62
     1
 48
5.0
100
AcDbLine
 10
467.8149615320684
 20
1001.810539442177
 30
0.0
 11
467.8149615320684
 21
1011.810539442177
 31
0.0
  0
LINE
  5
1026
330
1F
100
AcDbEntity
  8
0
  6
CENTER
 62
     1
 48
5.0
100
AcDbLine
 10
-106.1850384679314
 20
1006.810539442177
 30
0.0
 11
-116.1850384679305
 21
1006.810539442177
 31
0.0
  0
LINE
  5
1027
330
1F
100
AcDbEntity
  8
0
  6
CENTER
 62
     1
 48
5.0
100
AcDbLine
 10
-111.1850384679314
 20
1001.810539442177
 30
0.0
 11
-111.1850384679314
 21
1011.810539442177
 31
0.0
  0
LINE
  5
1028
330
1F
100
AcDbEntity
  8
0
  6
CENTER
 62
     1
 48
5.0
100
AcDbLine
 10
-106.1850384679314
 20
1036.810539442197
 30
0.0
 11
-116.1850384679305
 21
1036.810539442197
 31
0.0
  0
LINE
  5
1029
330
1F
100
AcDbEntity
  8
0
  6
CENTER
 62
     1
 48
5.0
100
AcDbLine
 10
-111.1850384679314
 20
1031.810539442197
 30
0.0
 11
-111.1850384679314
 21
1041.810539442197
 31
0.0
  0
LINE
  5
102A
330
1F
100
AcDbEntity
  8
0
  6
CENTER
 62
     1
 48
5.0
100
AcDbLine
 10
-106.1850384679314
 20
1196.810539442177
 30
0.0
 11
-116.1850384679305
 21
1196.810539442177
 31
0.0
  0
LINE
  5
102B
330
1F
100
AcDbEntity
  8
0
  6
CENTER
 62
     1
 48
5.0
100
AcDbLine
 10
-111.1850384679314
 20
1191.810539442177
 30
0.0
 11
-111.1850384679314
 21
1201.810539442177
 31
0.0
  0
LINE
  5
102C
330
1F
100
AcDbEntity
  8
0
  6
CENTER
 62
     1
 48
5.0
100
AcDbLine
 10
-106.1850384679314
 20
1226.810539442197
 30
0.0
 11
-116.1850384679305
 21
1226.810539442197
 31
0.0
  0
LINE
  5
102D
330
1F
100
AcDbEntity
  8
0
  6
CENTER
 62
     1
 48
5.0
100
AcDbLine
 10
-111.1850384679314
 20
1221.810539442197
 30
0.0
 11
-111.1850384679314
 21
1231.810539442197
 31
0.0
  0
LINE
  5
102E
330
1F
100
AcDbEntity
  8
0
  6
CENTER
 62
     1
 48
5.0
100
AcDbLine
 10
253.1206010492542
 20
-697.5566398494254
 30
0.0
 11
253.1206010492542
 21
-537.5566398494253
 31
0.0
  0
LINE
  5
102F
330
1F
100
AcDbEntity
  8
0
  6
CENTER
 62
     1
 48
5.0
100
AcDbLine
 10
333.1206010492542
 20
-617.5566398494253
 30
0.0
 11
173.1206010492524
 21
-617.5566398494253
 31
0.0
  0
LINE
  5
1030
330
1F
100
AcDbEntity
  8
0
  6
CENTER
 62
     1
 48
5.0
100
AcDbLine
 10
393.6206010492542
 20
-581.2566398499107
 30
0.0
 11
393.6206010492542
 21
-421.2566398499106
 31
0.0
  0
LINE
  5
1031
330
1F
100
AcDbEntity
  8
0
  6
CENTER
 62
     1
 48
5.0
100
AcDbLine
 10
473.6206010492542
 20
-501.2566398499106
 30
0.0
 11
313.6206010492524
 21
-501.2566398499106
 31
0.0
  0
LINE
  5
1034
330
1F
100
AcDbEntity
  8
0
  6
CENTER
 62
     1
 48
5.0
100
AcDbLine
 10
-19.97939895074478
 20
-697.5566398494256
 30
0.0
 11
-19.97939895074478
 21
-537.5566398494254
 31
0.0
  0
LINE
  5
1035
330
1F
100
AcDbEntity
  8
0
  6
CENTER
 62
     1
 48
5.0
100
AcDbLine
 10
60.02060104925522
 20
-617.5566398494254
 30
0.0
 11
-99.9793989507466
 21
-617.5566398494254
 31
0.0
  0
LINE
  5
1036
330
1F
100
AcDbEntity
  8
0
  6
CENTER
 62
     1
 48
5.0
100
AcDbLine
 10
117.3206010492527
 20
-581.2566398493259
 30
0.0
 11
117.3206010492527
 21
-421.2566398493258
 31
0.0
  0
LINE
  5
1037
330
1F
100
AcDbEntity
  8
0
  6
CENTER
 62
     1
 48
5.0
100
AcDbLine
 10
197.3206010492527
 20
-501.2566398493258
 30
0.0
 11
37.32060104925085
 21
-501.2566398493258
 31
0.0
  0
LINE
  5
1038
330
1F
100
AcDbEntity
  8
0
  6
CENTER
 62
     1
 48
5.0
100
AcDbLine
 10
-66.57939895072059
 20
-458.5566398494457
 30
0.0
 11
-106.5793989507206
 21
-458.5566398494457
 31
0.0
  0
LINE
  5
1039
330
1F
100
AcDbEntity
  8
0
  6
CENTER
 62
     1
 48
5.0
100
AcDbLine
 10
-86.57939895072059
 20
-478.5566398494457
 30
0.0
 11
-86.57939895072059
 21
-438.5566398494457
 31
0.0
  0
LINE
  5
1042
330
1F
100
AcDbEntity
  8
0
  6
CENTER
 62
     1
 48
2.0
100
AcDbLine
 10
393.6206106380173
 20
474.8541969571208
 30
0.0
 11
393.6206106380173
 21
514.1666972464589
 31
0.0
  0
LINE
  5
104B
330
1F
100
AcDbEntity
  8
0
  6
CENTER
 62
     1
 48
2.0
100
AcDbLine
 10
253.1206015781113
 20
474.5542067799667
 30
0.0
 11
253.1206015781113
 21
513.8667070693043
 31
0.0
  0
LINE
  5
1054
330
1F
100
AcDbEntity
  8
0
  6
CENTER
 62
     1
 48
2.0
100
AcDbLine
 10
117.3206040919367
 20
474.5542067799663
 30
0.0
 11
117.3206040919367
 21
513.8667070693043
 31
0.0
  0
LINE
  5
105D
330
1F
100
AcDbEntity
  8
0
  6
CENTER
 62
     1
 48
2.0
100
AcDbLine
 10
-21.44990821326292
 20
474.8541969571209
 30
0.0
 11
-21.44990821326383
 21
514.1666972464589
 31
0.0
  0
LINE
  5
1095
330
1F
100
AcDbEntity
  8
0
100
AcDbLine
 10
156.4349947456595
 20
583.8667070693044
 30
0.0
 11
136.4349947456595
 21
583.8667070693044
 31
0.0
  0
LINE
  5
1096
330
1F
100
AcDbEntity
  8
0
100
AcDbLine
 10
116.4349947456595
 20
533.8667070693045
 30
0.0
 11
76.43499474565954
 21
583.8667070693044
 31
0.0
  0
LINE
  5
1097
330
1F
100
AcDbEntity
  8
0
100
AcDbLine
 10
116.4349947456595
 20
533.8667070693045
 30
0.0
 11
156.4349947456595
 21
583.8667070693044
 31
0.0
  0
LINE
  5
1098
330
1F
100
AcDbEntity
  8
0
100
AcDbLine
 10
96.43499474565954
 20
583.8667070693044
 30
0.0
 11
96.43499474565954
 21
633.8667070693044
 31
0.0
  0
LINE
  5
1099
330
1F
100
AcDbEntity
  8
0
100
AcDbLine
 10
136.4349947456595
 20
583.8667070693044
 30
0.0
 11
136.4349947456595
 21
633.8667070693044
 31
0.0
  0
LINE
  5
109A
330
1F
100
AcDbEntity
  8
0
100
AcDbLine
 10
96.43499474565954
 20
583.8667070693044
 30
0.0
 11
76.43499474565954
 21
583.8667070693044
 31
0.0
  0
LINE
  5
109B
330
1F
100
AcDbEntity
  8
0
100
AcDbLine
 10
136.4349947456595
 20
633.8667070693044
 30
0.0
 11
96.43499474565954
 21
633.8667070693044
 31
0.0
  0
MTEXT
  5
109C
330
1F
100
AcDbEntity
  8
0
100
AcDbMText
 10
108.4112205723169
 20
572.8376376103541
 30
0.0
 40
17.5
 41
10.48306732651218
 71
     1
 72
     5
  1
{ETA}
 11
6.123233995736766E-17
 21
1.0
 31
0.0
 73
     1
 44
1.0
1001
ACAD
1000
ACAD_MTEXT_DEFINED_HEIGHT_BEGIN
1070
    46
1040
35.0
1000
ACAD_MTEXT_DEFINED_HEIGHT_END
  0
LINE
  5
109D
330
1F
100
AcDbEntity
  8
0
100
AcDbLine
 10
213.1206015781122
 20
583.8667070693043
 30
0.0
 11
233.1206015781122
 21
583.8667070693043
 31
0.0
  0
LINE
  5
109E
330
1F
100
AcDbEntity
  8
0
100
AcDbLine
 10
253.1206015781122
 20
633.8667070693043
 30
0.0
 11
293.1206015781122
 21
583.8667070693043
 31
0.0
  0
LINE
  5
109F
330
1F
100
AcDbEntity
  8
0
100
AcDbLine
 10
253.1206015781122
 20
633.8667070693043
 30
0.0
 11
213.1206015781122
 21
583.8667070693043
 31
0.0
  0
LINE
  5
10A0
330
1F
100
AcDbEntity
  8
0
100
AcDbLine
 10
273.1206015781122
 20
583.8667070693043
 30
0.0
 11
273.1206015781122
 21
533.8667070693045
 31
0.0
  0
LINE
  5
10A1
330
1F
100
AcDbEntity
  8
0
100
AcDbLine
 10
233.1206015781122
 20
583.8667070693043
 30
0.0
 11
233.1206015781122
 21
533.8667070693045
 31
0.0
  0
LINE
  5
10A2
330
1F
100
AcDbEntity
  8
0
100
AcDbLine
 10
273.1206015781122
 20
583.8667070693043
 30
0.0
 11
293.1206015781122
 21
583.8667070693043
 31
0.0
  0
LINE
  5
10A3
330
1F
100
AcDbEntity
  8
0
100
AcDbLine
 10
233.1206015781122
 20
533.8667070693045
 30
0.0
 11
273.1206015781122
 21
533.8667070693045
 31
0.0
  0
LINE
  5
10A4
330
1F
100
AcDbEntity
  8
0
100
AcDbLine
 10
-61.44990821326473
 20
584.166697246464
 30
0.0
 11
-41.44990821326473
 21
584.166697246464
 31
0.0
  0
LINE
  5
10A5
330
1F
100
AcDbEntity
  8
0
100
AcDbLine
 10
-21.44990821326473
 20
634.1666972464639
 30
0.0
 11
18.55009178673527
 21
584.166697246464
 31
0.0
  0
LINE
  5
10A6
330
1F
100
AcDbEntity
  8
0
100
AcDbLine
 10
-21.44990821326473
 20
634.1666972464639
 30
0.0
 11
-61.44990821326473
 21
584.166697246464
 31
0.0
  0
LINE
  5
10A7
330
1F
100
AcDbEntity
  8
0
100
AcDbLine
 10
-1.449908213264735
 20
584.166697246464
 30
0.0
 11
-1.449908213264735
 21
534.1666972464641
 31
0.0
  0
LINE
  5
10A8
330
1F
100
AcDbEntity
  8
0
100
AcDbLine
 10
-41.44990821326473
 20
584.166697246464
 30
0.0
 11
-41.44990821326473
 21
534.1666972464641
 31
0.0
  0
LINE
  5
10A9
330
1F
100
AcDbEntity
  8
0
100
AcDbLine
 10
-1.449908213264735
 20
584.166697246464
 30
0.0
 11
18.55009178673527
 21
584.166697246464
 31
0.0
  0
LINE
  5
10AA
330
1F
100
AcDbEntity
  8
0
100
AcDbLine
 10
-41.44990821326473
 20
534.1666972464641
 30
0.0
 11
-1.449908213264735
 21
534.1666972464641
 31
0.0
  0
LINE
  5
10AB
330
1F
100
AcDbEntity
  8
0
100
AcDbLine
 10
433.6206106380173
 20
584.1666972464591
 30
0.0
 11
413.6206106380173
 21
584.1666972464591
 31
0.0
  0
LINE
  5
10AC
330
1F
100
AcDbEntity
  8
0
100
AcDbLine
 10
393.6206106380173
 20
534.1666972464591
 30
0.0
 11
353.6206106380173
 21
584.1666972464591
 31
0.0
  0
LINE
  5
10AD
330
1F
100
AcDbEntity
  8
0
100
AcDbLine
 10
393.6206106380173
 20
534.1666972464591
 30
0.0
 11
433.6206106380173
 21
584.1666972464591
 31
0.0
  0
LINE
  5
10AE
330
1F
100
AcDbEntity
  8
0
100
AcDbLine
 10
373.6206106380173
 20
584.1666972464591
 30
0.0
 11
373.6206106380173
 21
634.1666972464591
 31
0.0
  0
LINE
  5
10AF
330
1F
100
AcDbEntity
  8
0
100
AcDbLine
 10
413.6206106380173
 20
584.1666972464591
 30
0.0
 11
413.6206106380173
 21
634.1666972464591
 31
0.0
  0
LINE
  5
10B0
330
1F
100
AcDbEntity
  8
0
100
AcDbLine
 10
373.6206106380173
 20
584.1666972464591
 30
0.0
 11
353.6206106380173
 21
584.1666972464591
 31
0.0
  0
LINE
  5
10B1
330
1F
100
AcDbEntity
  8
0
100
AcDbLine
 10
413.6206106380173
 20
634.1666972464591
 30
0.0
 11
373.6206106380173
 21
634.1666972464591
 31
0.0
  0
MTEXT
  5
10B2
330
1F
100
AcDbEntity
  8
0
100
AcDbMText
 10
245.0968274047691
 20
542.0258819653349
 30
0.0
 40
17.5
 41
10.48306732651218
 71
     1
 72
     5
  1
{SUP}
 11
6.123233995736766E-17
 21
1.0
 31
0.0
 73
     1
 44
1.0
1001
ACAD
1000
ACAD_MTEXT_DEFINED_HEIGHT_BEGIN
1070
    46
1040
35.595
1000
ACAD_MTEXT_DEFINED_HEIGHT_END
  0
MTEXT
  5
10B3
330
1F
100
AcDbEntity
  8
0
100
AcDbMText
 10
-29.47368238660783
 20
542.3258721424944
 30
0.0
 40
17.5
 41
10.48306732651218
 71
     1
 72
     5
  1
{EHA}
 11
6.123233995736766E-17
 21
1.0
 31
0.0
 73
     1
 44
1.0
1001
ACAD
1000
ACAD_MTEXT_DEFINED_HEIGHT_BEGIN
1070
    46
1040
35.0
1000
ACAD_MTEXT_DEFINED_HEIGHT_END
  0
MTEXT
  5
10B4
330
1F
100
AcDbEntity
  8
0
100
AcDbMText
 10
385.5968364646747
 20
573.1376277875088
 30
0.0
 40
17.5
 41
10.48306732651218
 71
     1
 72
     5
  1
{ODA}
 11
6.123233995736766E-17
 21
1.0
 31
0.0
 73
     1
 44
1.0
1001
ACAD
1000
ACAD_MTEXT_DEFINED_HEIGHT_BEGIN
1070
    46
1040
35.595
1000
ACAD_MTEXT_DEFINED_HEIGHT_END
  0
ENDSEC
  0
SECTION
  2
OBJECTS
  0
DICTIONARY
  5
C
330
0
100
AcDbDictionary
281
     1
  3
ACAD_DETAILVIEWSTYLE
350
1063
  3
ACAD_GROUP
350
D
  3
ACAD_IMAGE_VARS
350
B5C
  3
ACAD_LAYOUT
350
B4F
  3
ACAD_MLINESTYLE
350
17
  3
ACAD_PLOTSETTINGS
350
B65
  3
ACAD_PLOTSTYLENAME
350
B66
  3
ACAD_SCALELIST
350
B2D
  3
ACAD_SECTIONVIEWSTYLE
350
1064
  3
AcDbVariableDictionary
350
105E
  3
APPDATA
350
B5A
  3
DWGPROPS
350
10B8
  0
DICTIONARY
  5
1063
102
{ACAD_REACTORS
330
C
102
}
330
C
100
AcDbDictionary
281
     1
  0
DICTIONARY
  5
D
102
{ACAD_REACTORS
330
C
102
}
330
C
100
AcDbDictionary
281
     1
  0
RASTERVARIABLES
  5
B5C
102
{ACAD_REACTORS
330
C
102
}
330
C
100
AcDbRasterVariables
 90
        0
 70
     1
 71
     1
 72
     0
  0
DICTIONARY
  5
B4F
102
{ACAD_REACTORS
330
C
102
}
330
C
100
AcDbDictionary
281
     1
  3
Model
350
B50
  3
Sheet 1
350
B51
  0
DICTIONARY
  5
17
102
{ACAD_REACTORS
330
C
102
}
330
C
100
AcDbDictionary
281
     1
  3
STANDARD
350
18
  0
DICTIONARY
  5
B65
102
{ACAD_REACTORS
330
C
102
}
330
C
100
AcDbDictionary
281
     1
  0
ACDBDICTIONARYWDFLT
  5
B66
102
{ACAD_REACTORS
330
C
102
}
330
C
100
AcDbDictionary
281
     1
  3
Normal
350
B67
100
AcDbDictionaryWithDefault
340
B67
  0
DICTIONARY
  5
B2D
102
{ACAD_REACTORS
330
C
102
}
330
C
100
AcDbDictionary
281
     1
  3
A0
350
B2E
  3
A1
350
B2F
  3
A2
350
B30
  3
A3
350
B31
  3
A4
350
B32
  3
A5
350
B33
  3
A6
350
B34
  3
A7
350
B35
  3
A8
350
B36
  3
A9
350
B37
  3
B0
350
B38
  3
B1
350
B39
  3
B2
350
B3A
  3
B3
350
B3B
  3
B4
350
B3C
  3
B5
350
B3D
  3
B6
350
B3E
  3
B7
350
B3F
  3
B8
350
B40
  3
B9
350
B41
  3
C0
350
B42
  3
C1
350
B43
  3
C2
350
B44
  3
C3
350
B45
  3
C4
350
B46
  3
C5
350
B47
  3
C6
350
B48
  3
C7
350
B49
  3
C8
350
B4A
  3
C9
350
B4B
  3
D0
350
B4C
  3
D1
350
B4D
  3
D2
350
B4E
  0
DICTIONARY
  5
1064
102
{ACAD_REACTORS
330
C
102
}
330
C
100
AcDbDictionary
281
     1
  0
DICTIONARY
  5
105E
102
{ACAD_REACTORS
330
C
102
}
330
C
100
AcDbDictionary
281
     1
  0
DICTIONARY
  5
B5A
102
{ACAD_REACTORS
330
C
102
}
330
C
100
AcDbDictionary
281
     1
  0
XRECORD
  5
10B8
102
{ACAD_REACTORS
330
C
102
}
330
C
100
AcDbXrecord
280
     1
  1
DWGPROPS COOKIE
  2

  3

  4

  6

  7

  8
giedrius.milevicius
  9

300
=
301
=
302
=
303
=
304
=
305
=
306
=
307
=
308
=
309
=
 40
0.0
 41
2457429.353481215
 42
2459152.314845891
  1

 90
        0
  0
LAYOUT
  5
B50
102
{ACAD_REACTORS
330
B4F
102
}
330
B4F
100
AcDbPlotSettings
  1

  2
none_device
  4
Letter_(8.50_x_11.00_Inches)
  6

 40
6.35
 41
6.35
 42
6.35
 43
6.35
 44
215.9
 45
279.4
 46
0.0
 47
0.0
 48
0.0
 49
0.0
140
0.0
141
0.0
142
1.0
143
52.50000000000001
 70
  1712
 72
     0
 73
     0
 74
     0
  7

 75
     0
147
0.019047619047619
148
0.0
149
0.0
100
AcDbLayout
  1
Model
 70
     1
 71
     0
 10
0.0
 20
0.0
 11
420.0
 21
297.0
 12
0.0
 22
0.0
 32
0.0
 14
-629.4884071958322
 24
-719.0566398494864
 34
0.0
 15
1133.892874545503
 25
1280.310539442241
 35
0.0
146
0.0
 13
0.0
 23
0.0
 33
0.0
 16
1.0
 26
0.0
 36
0.0
 17
0.0
 27
1.0
 37
0.0
 76
     0
330
1F
331
29
  0
LAYOUT
  5
B51
102
{ACAD_REACTORS
330
B4F
102
}
330
B4F
100
AcDbPlotSettings
  1

  2
none_device
  4

  6

 40
0.0
 41
0.0
 42
0.0
 43
0.0
 44
0.0
 45
0.0
 46
0.0
 47
0.0
 48
0.0
 49
0.0
140
0.0
141
0.0
142
1.0
143
1.0
 70
   688
 72
     1
 73
     0
 74
     5
  7

 75
    16
147
1.0
148
0.0
149
0.0
100
AcDbLayout
  1
Sheet 1
 70
     1
 71
     1
 10
0.0
 20
0.0
 11
0.0
 21
0.0
 12
0.0
 22
0.0
 32
0.0
 14
1.000000000000000E+20
 24
1.000000000000000E+20
 34
1.000000000000000E+20
 15
-1.000000000000000E+20
 25
-1.000000000000000E+20
 35
-1.000000000000000E+20
146
0.0
 13
0.0
 23
0.0
 33
0.0
 16
1.0
 26
0.0
 36
0.0
 17
0.0
 27
1.0
 37
0.0
 76
     0
330
1B
  0
MLINESTYLE
  5
18
102
{ACAD_REACTORS
330
17
102
}
330
17
100
AcDbMlineStyle
  2
Standard
 70
     0
  3

 62
   256
 51
90.0
 52
90.0
 71
     2
 49
0.5
 62
   256
  6
BYLAYER
 49
-0.5
 62
   256
  6
BYLAYER
  0
ACDBPLACEHOLDER
  5
B67
102
{ACAD_REACTORS
330
B66
102
}
330
B66
  0
SCALE
  5
B2E
102
{ACAD_REACTORS
330
B2D
102
}
330
B2D
100
AcDbScale
 70
     0
300
1:1
140
1.0
141
1.0
290
     1
  0
SCALE
  5
B2F
102
{ACAD_REACTORS
330
B2D
102
}
330
B2D
100
AcDbScale
 70
     0
300
1:2
140
1.0
141
2.0
290
     0
  0
SCALE
  5
B30
102
{ACAD_REACTORS
330
B2D
102
}
330
B2D
100
AcDbScale
 70
     0
300
1:4
140
1.0
141
4.0
290
     0
  0
SCALE
  5
B31
102
{ACAD_REACTORS
330
B2D
102
}
330
B2D
100
AcDbScale
 70
     0
300
1:5
140
1.0
141
5.0
290
     0
  0
SCALE
  5
B32
102
{ACAD_REACTORS
330
B2D
102
}
330
B2D
100
AcDbScale
 70
     0
300
1:8
140
1.0
141
8.0
290
     0
  0
SCALE
  5
B33
102
{ACAD_REACTORS
330
B2D
102
}
330
B2D
100
AcDbScale
 70
     0
300
1:10
140
1.0
141
10.0
290
     0
  0
SCALE
  5
B34
102
{ACAD_REACTORS
330
B2D
102
}
330
B2D
100
AcDbScale
 70
     0
300
1:16
140
1.0
141
16.0
290
     0
  0
SCALE
  5
B35
102
{ACAD_REACTORS
330
B2D
102
}
330
B2D
100
AcDbScale
 70
     0
300
1:20
140
1.0
141
20.0
290
     0
  0
SCALE
  5
B36
102
{ACAD_REACTORS
330
B2D
102
}
330
B2D
100
AcDbScale
 70
     0
300
1:30
140
1.0
141
30.0
290
     0
  0
SCALE
  5
B37
102
{ACAD_REACTORS
330
B2D
102
}
330
B2D
100
AcDbScale
 70
     0
300
1:40
140
1.0
141
40.0
290
     0
  0
SCALE
  5
B38
102
{ACAD_REACTORS
330
B2D
102
}
330
B2D
100
AcDbScale
 70
     0
300
1:50
140
1.0
141
50.0
290
     0
  0
SCALE
  5
B39
102
{ACAD_REACTORS
330
B2D
102
}
330
B2D
100
AcDbScale
 70
     0
300
1:100
140
1.0
141
100.0
290
     0
  0
SCALE
  5
B3A
102
{ACAD_REACTORS
330
B2D
102
}
330
B2D
100
AcDbScale
 70
     0
300
2:1
140
2.0
141
1.0
290
     0
  0
SCALE
  5
B3B
102
{ACAD_REACTORS
330
B2D
102
}
330
B2D
100
AcDbScale
 70
     0
300
4:1
140
4.0
141
1.0
290
     0
  0
SCALE
  5
B3C
102
{ACAD_REACTORS
330
B2D
102
}
330
B2D
100
AcDbScale
 70
     0
300
8:1
140
8.0
141
1.0
290
     0
  0
SCALE
  5
B3D
102
{ACAD_REACTORS
330
B2D
102
}
330
B2D
100
AcDbScale
 70
     0
300
10:1
140
10.0
141
1.0
290
     0
  0
SCALE
  5
B3E
102
{ACAD_REACTORS
330
B2D
102
}
330
B2D
100
AcDbScale
 70
     0
300
100:1
140
100.0
141
1.0
290
     0
  0
SCALE
  5
B3F
102
{ACAD_REACTORS
330
B2D
102
}
330
B2D
100
AcDbScale
 70
     0
300
1/128" = 1'-0"
140
0.0078125
141
12.0
290
     0
  0
SCALE
  5
B40
102
{ACAD_REACTORS
330
B2D
102
}
330
B2D
100
AcDbScale
 70
     0
300
1/64" = 1'-0"
140
0.015625
141
12.0
290
     0
  0
SCALE
  5
B41
102
{ACAD_REACTORS
330
B2D
102
}
330
B2D
100
AcDbScale
 70
     0
300
1/32" = 1'-0"
140
0.03125
141
12.0
290
     0
  0
SCALE
  5
B42
102
{ACAD_REACTORS
330
B2D
102
}
330
B2D
100
AcDbScale
 70
     0
300
1/16" = 1'-0"
140
0.0625
141
12.0
290
     0
  0
SCALE
  5
B43
102
{ACAD_REACTORS
330
B2D
102
}
330
B2D
100
AcDbScale
 70
     0
300
3/32" = 1'-0"
140
0.09375
141
12.0
290
     0
  0
SCALE
  5
B44
102
{ACAD_REACTORS
330
B2D
102
}
330
B2D
100
AcDbScale
 70
     0
300
1/8" = 1'-0"
140
0.125
141
12.0
290
     0
  0
SCALE
  5
B45
102
{ACAD_REACTORS
330
B2D
102
}
330
B2D
100
AcDbScale
 70
     0
300
3/16" = 1'-0"
140
0.1875
141
12.0
290
     0
  0
SCALE
  5
B46
102
{ACAD_REACTORS
330
B2D
102
}
330
B2D
100
AcDbScale
 70
     0
300
1/4" = 1'-0"
140
0.25
141
12.0
290
     0
  0
SCALE
  5
B47
102
{ACAD_REACTORS
330
B2D
102
}
330
B2D
100
AcDbScale
 70
     0
300
3/8" = 1'-0"
140
0.375
141
12.0
290
     0
  0
SCALE
  5
B48
102
{ACAD_REACTORS
330
B2D
102
}
330
B2D
100
AcDbScale
 70
     0
300
1/2" = 1'-0"
140
0.5
141
12.0
290
     0
  0
SCALE
  5
B49
102
{ACAD_REACTORS
330
B2D
102
}
330
B2D
100
AcDbScale
 70
     0
300
3/4" = 1'-0"
140
0.75
141
12.0
290
     0
  0
SCALE
  5
B4A
102
{ACAD_REACTORS
330
B2D
102
}
330
B2D
100
AcDbScale
 70
     0
300
1" = 1'-0"
140
1.0
141
12.0
290
     0
  0
SCALE
  5
B4B
102
{ACAD_REACTORS
330
B2D
102
}
330
B2D
100
AcDbScale
 70
     0
300
1-1/2" = 1'-0"
140
1.5
141
12.0
290
     0
  0
SCALE
  5
B4C
102
{ACAD_REACTORS
330
B2D
102
}
330
B2D
100
AcDbScale
 70
     0
300
3" = 1'-0"
140
3.0
141
12.0
290
     0
  0
SCALE
  5
B4D
102
{ACAD_REACTORS
330
B2D
102
}
330
B2D
100
AcDbScale
 70
     0
300
6" = 1'-0"
140
6.0
141
12.0
290
     0
  0
SCALE
  5
B4E
102
{ACAD_REACTORS
330
B2D
102
}
330
B2D
100
AcDbScale
 70
     0
300
1'-0" = 1'-0"
140
12.0
141
12.0
290
     0
  0
ENDSEC
  0
EOF
