  0
SECTION
  2
HEADER
  9
$ACADVER
  1
AC1015
  9
$ACADMAINTVER
 70
     6
  9
$DWGCODEPAGE
  3
ANSI_1257
  9
$INSBASE
 10
0.0
 20
0.0
 30
0.0
  9
$EXTMIN
 10
-290.4230713076
 20
-302.3660841038
 30
0.0
  9
$EXTMAX
 10
672.9258690257
 20
307.9838506787001
 30
0.0
  9
$LIMMIN
 10
0.0
 20
0.0
  9
$LIMMAX
 10
420.0
 20
297.0
  9
$ORTHOMODE
 70
     1
  9
$REGENMODE
 70
     1
  9
$FILLMODE
 70
     1
  9
$QTEXTMODE
 70
     0
  9
$MIRRTEXT
 70
     1
  9
$LTSCALE
 40
1.0
  9
$ATTMODE
 70
     1
  9
$TEXTSIZE
 40
5.6444444444
  9
$TRACEWID
 40
1.0
  9
$TEXTSTYLE
  7
Standard
  9
$CLAYER
  8
0
  9
$CELTYPE
  6
ByLayer
  9
$CECOLOR
 62
   256
  9
$CELTSCALE
 40
1.0
  9
$DISPSILH
 70
     0
  9
$DIMSCALE
 40
1.0
  9
$DIMASZ
 40
3.175
  9
$DIMEXO
 40
1.0
  9
$DIMDLI
 40
3.75
  9
$DIMRND
 40
0.0
  9
$DIMDLE
 40
0.0
  9
$DIMEXE
 40
1.0
  9
$DIMTP
 40
0.0
  9
$DIMTM
 40
0.0
  9
$DIMTXT
 40
4.9388888889
  9
$DIMCEN
 40
2.5
  9
$DIMTSZ
 40
0.0
  9
$DIMTOL
 70
     0
  9
$DIMLIM
 70
     0
  9
$DIMTIH
 70
     1
  9
$DIMTOH
 70
     1
  9
$DIMSE1
 70
     0
  9
$DIMSE2
 70
     0
  9
$DIMTAD
 70
     1
  9
$DIMZIN
 70
     0
  9
$DIMBLK
  1

  9
$DIMASO
 70
     1
  9
$DIMSHO
 70
     1
  9
$DIMPOST
  1

  9
$DIMAPOST
  1

  9
$DIMALT
 70
     0
  9
$DIMALTD
 70
     3
  9
$DIMALTF
 40
0.0393700787
  9
$DIMLFAC
 40
1.0
  9
$DIMTOFL
 70
     1
  9
$DIMTVP
 40
0.0
  9
$DIMTIX
 70
     0
  9
$DIMSOXD
 70
     0
  9
$DIMSAH
 70
     0
  9
$DIMBLK1
  1

  9
$DIMBLK2
  1

  9
$DIMSTYLE
  2
ISO-25
  9
$DIMCLRD
 70
     0
  9
$DIMCLRE
 70
     0
  9
$DIMCLRT
 70
     0
  9
$DIMTFAC
 40
1.0
  9
$DIMGAP
 40
1.524
  9
$DIMJUST
 70
     0
  9
$DIMSD1
 70
     0
  9
$DIMSD2
 70
     0
  9
$DIMTOLJ
 70
     0
  9
$DIMTZIN
 70
     0
  9
$DIMALTZ
 70
     0
  9
$DIMALTTZ
 70
     0
  9
$DIMUPT
 70
     0
  9
$DIMDEC
 70
     1
  9
$DIMTDEC
 70
     1
  9
$DIMALTU
 70
     2
  9
$DIMALTTD
 70
     3
  9
$DIMTXSTY
  7
Standard
  9
$DIMAUNIT
 70
     0
  9
$DIMADEC
 70
     1
  9
$DIMALTRND
 40
0.0
  9
$DIMAZIN
 70
     0
  9
$DIMDSEP
 70
    44
  9
$DIMATFIT
 70
     3
  9
$DIMFRAC
 70
     0
  9
$DIMLDRBLK
  1

  9
$DIMLUNIT
 70
     2
  9
$DIMLWD
 70
    -2
  9
$DIMLWE
 70
    -2
  9
$DIMTMOVE
 70
     0
  9
$LUNITS
 70
     2
  9
$LUPREC
 70
     1
  9
$SKETCHINC
 40
1.0
  9
$FILLETRAD
 40
10.0
  9
$AUNITS
 70
     0
  9
$AUPREC
 70
     1
  9
$MENU
  1
.
  9
$ELEVATION
 40
0.0
  9
$PELEVATION
 40
0.0
  9
$THICKNESS
 40
0.0
  9
$LIMCHECK
 70
     0
  9
$CHAMFERA
 40
0.0
  9
$CHAMFERB
 40
0.0
  9
$CHAMFERC
 40
0.0
  9
$CHAMFERD
 40
0.0
  9
$SKPOLY
 70
     0
  9
$TDCREATE
 40
2459178.637803229
  9
$TDUCREATE
 40
2459178.554469896
  9
$TDUPDATE
 40
2459178.653236979
  9
$TDUUPDATE
 40
2459178.569903646
  9
$TDINDWG
 40
0.0
  9
$TDUSRTIMER
 40
0.0
  9
$USRTIMER
 70
     1
  9
$ANGBASE
 50
0.0
  9
$ANGDIR
 70
     0
  9
$PDMODE
 70
     0
  9
$PDSIZE
 40
-1.0
  9
$PLINEWID
 40
0.0
  9
$SPLFRAME
 70
     0
  9
$SPLINETYPE
 70
     6
  9
$SPLINESEGS
 70
     8
  9
$HANDSEED
  5
396
  9
$SURFTAB1
 70
     6
  9
$SURFTAB2
 70
     6
  9
$SURFTYPE
 70
     6
  9
$SURFU
 70
     6
  9
$SURFV
 70
     6
  9
$UCSBASE
  2

  9
$UCSNAME
  2

  9
$UCSORG
 10
0.0
 20
0.0
 30
0.0
  9
$UCSXDIR
 10
1.0
 20
0.0
 30
0.0
  9
$UCSYDIR
 10
0.0
 20
1.0
 30
0.0
  9
$UCSORTHOREF
  2

  9
$UCSORTHOVIEW
 70
     0
  9
$UCSORGTOP
 10
0.0
 20
0.0
 30
0.0
  9
$UCSORGBOTTOM
 10
0.0
 20
0.0
 30
0.0
  9
$UCSORGLEFT
 10
0.0
 20
0.0
 30
0.0
  9
$UCSORGRIGHT
 10
0.0
 20
0.0
 30
0.0
  9
$UCSORGFRONT
 10
0.0
 20
0.0
 30
0.0
  9
$UCSORGBACK
 10
0.0
 20
0.0
 30
0.0
  9
$PUCSBASE
  2

  9
$PUCSNAME
  2

  9
$PUCSORG
 10
0.0
 20
0.0
 30
0.0
  9
$PUCSXDIR
 10
1.0
 20
0.0
 30
0.0
  9
$PUCSYDIR
 10
0.0
 20
1.0
 30
0.0
  9
$PUCSORTHOREF
  2

  9
$PUCSORTHOVIEW
 70
     0
  9
$PUCSORGTOP
 10
0.0
 20
0.0
 30
0.0
  9
$PUCSORGBOTTOM
 10
0.0
 20
0.0
 30
0.0
  9
$PUCSORGLEFT
 10
0.0
 20
0.0
 30
0.0
  9
$PUCSORGRIGHT
 10
0.0
 20
0.0
 30
0.0
  9
$PUCSORGFRONT
 10
0.0
 20
0.0
 30
0.0
  9
$PUCSORGBACK
 10
0.0
 20
0.0
 30
0.0
  9
$USERI1
 70
     0
  9
$USERI2
 70
     0
  9
$USERI3
 70
     0
  9
$USERI4
 70
     0
  9
$USERI5
 70
     0
  9
$USERR1
 40
0.0
  9
$USERR2
 40
0.0
  9
$USERR3
 40
0.0
  9
$USERR4
 40
0.0
  9
$USERR5
 40
0.0
  9
$WORLDVIEW
 70
     1
  9
$SHADEDGE
 70
     3
  9
$SHADEDIF
 70
    70
  9
$TILEMODE
 70
     1
  9
$MAXACTVP
 70
    64
  9
$PINSBASE
 10
0.0
 20
0.0
 30
0.0
  9
$PLIMCHECK
 70
     0
  9
$PEXTMIN
 10
1.000000000000000E+20
 20
1.000000000000000E+20
 30
1.000000000000000E+20
  9
$PEXTMAX
 10
-1.000000000000000E+20
 20
-1.000000000000000E+20
 30
-1.000000000000000E+20
  9
$PLIMMIN
 10
0.0
 20
0.0
  9
$PLIMMAX
 10
0.0
 20
0.0
  9
$UNITMODE
 70
     0
  9
$VISRETAIN
 70
     1
  9
$PLINEGEN
 70
     0
  9
$PSLTSCALE
 70
     1
  9
$TREEDEPTH
 70
  3020
  9
$CMLSTYLE
  2
Standard
  9
$CMLJUST
 70
     0
  9
$CMLSCALE
 40
20.0
  9
$PROXYGRAPHICS
 70
     1
  9
$MEASUREMENT
 70
     1
  9
$CELWEIGHT
370
    -1
  9
$ENDCAPS
280
     0
  9
$JOINSTYLE
280
     0
  9
$LWDISPLAY
290
     1
  9
$INSUNITS
 70
     4
  9
$HYPERLINKBASE
  1

  9
$STYLESHEET
  1

  9
$XEDIT
290
     1
  9
$CEPSNTYPE
380
     0
  9
$PSTYLEMODE
290
     1
  9
$FINGERPRINTGUID
  2
{0bc3f6b0-6274-4070-ada7-a35307bed385}
  9
$VERSIONGUID
  2
{FAEB1C32-E019-11D5-929B-00C0DF256EC4}
  9
$EXTNAMES
290
     1
  9
$PSVPSCALE
 40
0.0
  9
$OLESTARTUP
290
     0
  0
ENDSEC
  0
SECTION
  2
CLASSES
  0
CLASS
  1
ACDBDICTIONARYWDFLT
  2
AcDbDictionaryWithDefault
  3
ObjectDBX Classes
 90
        0
280
     0
281
     0
  0
CLASS
  1
VISUALSTYLE
  2
AcDbVisualStyle
  3
ObjectDBX Classes
 90
     4095
280
     0
281
     0
  0
CLASS
  1
MATERIAL
  2
AcDbMaterial
  3
ObjectDBX Classes
 90
     1153
280
     0
281
     0
  0
CLASS
  1
SCALE
  2
AcDbScale
  3
ObjectDBX Classes
 90
     1153
280
     0
281
     0
  0
CLASS
  1
TABLESTYLE
  2
AcDbTableStyle
  3
ObjectDBX Classes
 90
     4095
280
     0
281
     0
  0
CLASS
  1
MLEADERSTYLE
  2
AcDbMLeaderStyle
  3
ACDB_MLEADERSTYLE_CLASS
 90
     4095
280
     0
281
     0
  0
CLASS
  1
SUN
  2
AcDbSun
  3
SCENEOE
 90
     1153
280
     0
281
     0
  0
CLASS
  1
ACDBPLACEHOLDER
  2
AcDbPlaceHolder
  3
ObjectDBX Classes
 90
        0
280
     0
281
     0
  0
CLASS
  1
LAYOUT
  2
AcDbLayout
  3
ObjectDBX Classes
 90
        0
280
     0
281
     0
  0
CLASS
  1
DICTIONARYVAR
  2
AcDbDictionaryVar
  3
ObjectDBX Classes
 90
        0
280
     0
281
     0
  0
ENDSEC
  0
SECTION
  2
TABLES
  0
TABLE
  2
VPORT
  5
8
330
0
100
AcDbSymbolTable
 70
     1
  0
VPORT
  5
29
330
8
100
AcDbSymbolTableRecord
100
AcDbViewportTableRecord
  2
*Active
 70
     0
 10
0.0
 20
0.0
 11
1.0
 21
1.0
 12
-262.8742161690524
 22
233.0614300284301
 13
0.0
 23
0.0
 14
10.0
 24
10.0
 15
10.0
 25
10.0
 16
0.0
 26
0.0
 36
1.0
 17
0.0
 27
0.0
 37
0.0
 40
1416.206359863279
 41
1.912558139534884
 42
50.0
 43
0.0
 44
0.0
 50
0.0
 51
0.0
 71
    16
 72
  2000
 73
     1
 74
     3
 75
     0
 76
     0
 77
     0
 78
     0
281
     0
 65
     1
110
0.0
120
0.0
130
0.0
111
1.0
121
0.0
131
0.0
112
0.0
122
1.0
132
0.0
 79
     0
146
0.0
  0
ENDTAB
  0
TABLE
  2
LTYPE
  5
5
330
0
100
AcDbSymbolTable
 70
     6
  0
LTYPE
  5
14
330
5
100
AcDbSymbolTableRecord
100
AcDbLinetypeTableRecord
  2
ByBlock
 70
     0
  3

 72
    65
 73
     0
 40
0.0
  0
LTYPE
  5
15
330
5
100
AcDbSymbolTableRecord
100
AcDbLinetypeTableRecord
  2
ByLayer
 70
     0
  3

 72
    65
 73
     0
 40
0.0
  0
LTYPE
  5
16
330
5
100
AcDbSymbolTableRecord
100
AcDbLinetypeTableRecord
  2
Continuous
 70
     0
  3
Solid line
 72
    65
 73
     0
 40
0.0
  0
LTYPE
  5
6E
330
5
100
AcDbSymbolTableRecord
100
AcDbLinetypeTableRecord
  2
HIDDEN
 70
     0
  3
Hidden __ __ __ __ __ __ __ __ __ __ __ __ __ __
 72
    65
 73
     2
 40
1.905
 49
1.27
 74
     0
 49
-0.635
 74
     0
  0
LTYPE
  5
6F
330
5
100
AcDbSymbolTableRecord
100
AcDbLinetypeTableRecord
  2
PHANTOM
 70
     0
  3
Phantom ______  __  __  ______  __  __  ______
 72
    65
 73
     6
 40
12.7
 49
6.35
 74
     0
 49
-1.27
 74
     0
 49
1.27
 74
     0
 49
-1.27
 74
     0
 49
1.27
 74
     0
 49
-1.27
 74
     0
  0
LTYPE
  5
70
330
5
100
AcDbSymbolTableRecord
100
AcDbLinetypeTableRecord
  2
CENTER
 70
     0
  3
Center ____ _ ____ _ ____ _ ____ _ ____ _ ____
 72
    65
 73
     4
 40
10.16
 49
6.35
 74
     0
 49
-1.27
 74
     0
 49
1.27
 74
     0
 49
-1.27
 74
     0
  0
LTYPE
  5
71
330
5
100
AcDbSymbolTableRecord
100
AcDbLinetypeTableRecord
  2
CENTERX2
 70
     0
  3
Center (2x) ________  __  ________  __  _____
 72
    65
 73
     4
 40
20.32
 49
12.7
 74
     0
 49
-2.54
 74
     0
 49
2.54
 74
     0
 49
-2.54
 74
     0
  0
LTYPE
  5
72
330
5
100
AcDbSymbolTableRecord
100
AcDbLinetypeTableRecord
  2
DOT2
 70
     0
  3
Dot (.5x) ........................................
 72
    65
 73
     2
 40
0.635
 49
0.0
 74
     0
 49
-0.635
 74
     0
  0
ENDTAB
  0
TABLE
  2
LAYER
  5
2
330
0
100
AcDbSymbolTable
 70
     2
  0
LAYER
  5
10
330
2
100
AcDbSymbolTableRecord
100
AcDbLayerTableRecord
  2
0
 70
     0
 62
     7
  6
Continuous
370
    -3
390
F
  0
LAYER
  5
73
330
2
100
AcDbSymbolTableRecord
100
AcDbLayerTableRecord
  2
LENKIMO
 70
     0
 62
     1
  6
CENTERX2
370
    -3
390
F
  0
ENDTAB
  0
TABLE
  2
STYLE
  5
3
330
0
100
AcDbSymbolTable
 70
     1
  0
STYLE
  5
11
330
3
100
AcDbSymbolTableRecord
100
AcDbTextStyleTableRecord
  2
Standard
 70
     0
 40
0.0
 41
1.0
 50
0.0
 71
     0
 42
5.6444444444
  3
txt
  4

  0
ENDTAB
  0
TABLE
  2
VIEW
  5
6
330
0
100
AcDbSymbolTable
 70
     0
  0
ENDTAB
  0
TABLE
  2
UCS
  5
7
330
0
100
AcDbSymbolTable
 70
     0
  0
ENDTAB
  0
TABLE
  2
APPID
  5
9
330
0
100
AcDbSymbolTable
 70
     1
  0
APPID
  5
12
330
9
100
AcDbSymbolTableRecord
100
AcDbRegAppTableRecord
  2
ACAD
 70
     0
  0
ENDTAB
  0
TABLE
  2
DIMSTYLE
  5
A
330
0
100
AcDbSymbolTable
 70
     5
100
AcDbDimStyleTable
  0
DIMSTYLE
105
27
330
A
100
AcDbSymbolTableRecord
100
AcDbDimStyleTableRecord
  2
ISO-25
 70
     0
 41
2.5
 42
0.625
 43
3.75
 44
1.25
 73
     0
 74
     0
 77
     1
 78
     8
140
2.5
141
2.5
143
0.0393700787
147
0.625
171
     3
172
     1
178
     0
271
     2
272
     2
274
     3
278
    44
283
     0
284
     8
340
11
  0
DIMSTYLE
105
34B
330
A
100
AcDbSymbolTableRecord
100
AcDbDimStyleTableRecord
  2
SLDDIMSTYLE1
 70
     0
 41
4.0
 44
0.0
 45
0.000000001
 73
     0
 77
     1
 78
    12
140
2.6458333333
144
10.0
147
0.6614583333000001
173
     1
178
     0
340
11
  0
DIMSTYLE
105
34C
330
A
100
AcDbSymbolTableRecord
100
AcDbDimStyleTableRecord
  2
SLDDIMSTYLE2
 70
     0
 41
4.0
 44
0.0
 45
0.000000001
 73
     0
 77
     1
 78
    12
140
2.6458333333
144
10.0
147
0.6614583333000001
173
     1
178
     0
340
11
  0
DIMSTYLE
105
34D
330
A
100
AcDbSymbolTableRecord
100
AcDbDimStyleTableRecord
  2
SLDDIMSTYLE3
 70
     0
 41
4.0
 44
0.0
 45
0.000000001
146
4.0
147
0.0
173
     1
178
     0
340
11
  0
DIMSTYLE
105
34E
330
A
100
AcDbSymbolTableRecord
100
AcDbDimStyleTableRecord
  2
SLDDIMSTYLE4
 70
     0
 41
4.0
 44
0.0
 73
     0
 77
     1
 78
    12
140
2.6458333333
144
7.5
147
0.6614583333000001
173
     1
178
     0
340
11
  0
ENDTAB
  0
TABLE
  2
BLOCK_RECORD
  5
1
330
0
100
AcDbSymbolTable
 70
     6
  0
BLOCK_RECORD
  5
1F
102
{ACAD_XDICTIONARY
360
391
102
}
330
1
100
AcDbSymbolTableRecord
100
AcDbBlockTableRecord
  2
*Model_Space
340
22
  0
BLOCK_RECORD
  5
1B
330
1
100
AcDbSymbolTableRecord
100
AcDbBlockTableRecord
  2
*Paper_Space
340
1E
  0
BLOCK_RECORD
  5
23
330
1
100
AcDbSymbolTableRecord
100
AcDbBlockTableRecord
  2
*Paper_Space0
340
26
  0
BLOCK_RECORD
  5
74
330
1
100
AcDbSymbolTableRecord
100
AcDbBlockTableRecord
  2
Block11_2
340
0
  0
BLOCK_RECORD
  5
35D
330
1
100
AcDbSymbolTableRecord
100
AcDbBlockTableRecord
  2
*U3
340
0
102
{BLKREFS
331
35C
331
383
102
}
  0
BLOCK_RECORD
  5
36A
330
1
100
AcDbSymbolTableRecord
100
AcDbBlockTableRecord
  2
*U4
340
0
102
{BLKREFS
331
369
331
38C
102
}
  0
BLOCK_RECORD
  5
371
330
1
100
AcDbSymbolTableRecord
100
AcDbBlockTableRecord
  2
*U5
340
0
102
{BLKREFS
331
370
331
38F
102
}
  0
BLOCK_RECORD
  5
376
330
1
100
AcDbSymbolTableRecord
100
AcDbBlockTableRecord
  2
*U6
340
0
102
{BLKREFS
331
375
331
390
102
}
  0
ENDTAB
  0
ENDSEC
  0
SECTION
  2
BLOCKS
  0
BLOCK
  5
20
330
1F
100
AcDbEntity
  8
0
100
AcDbBlockBegin
  2
*Model_Space
 70
     0
 10
0.0
 20
0.0
 30
0.0
  3
*Model_Space
  1

  0
ENDBLK
  5
21
330
1F
100
AcDbEntity
  8
0
100
AcDbBlockEnd
  0
BLOCK
  5
1C
330
1B
100
AcDbEntity
 67
     1
  8
0
100
AcDbBlockBegin
  2
*Paper_Space
 70
     0
 10
0.0
 20
0.0
 30
0.0
  3
*Paper_Space
  1

  0
ENDBLK
  5
1D
330
1B
100
AcDbEntity
 67
     1
  8
0
100
AcDbBlockEnd
  0
BLOCK
  5
24
330
23
100
AcDbEntity
  8
0
100
AcDbBlockBegin
  2
*Paper_Space0
 70
     0
 10
0.0
 20
0.0
 30
0.0
  3
*Paper_Space0
  1

  0
ENDBLK
  5
25
330
23
100
AcDbEntity
  8
0
100
AcDbBlockEnd
  0
BLOCK
  5
75
330
74
100
AcDbEntity
  8
0
100
AcDbBlockBegin
  2
Block11_2
 70
     0
 10
0.0
 20
0.0
 30
0.0
  3
Block11_2
  1

  0
LINE
  5
77
330
74
100
AcDbEntity
  8
0
  6
Continuous
100
AcDbLine
 10
-15.7956326374
 20
2.3055746011
 30
0.0
 11
-18.0649288667
 21
1.8146036087
 31
0.0
  0
LINE
  5
78
330
74
100
AcDbEntity
  8
0
  6
Continuous
100
AcDbLine
 10
-15.6988785554
 20
-9.1195335787
 30
0.0
 11
-10.2261014967
 21
-7.9354771524
 31
0.0
  0
LINE
  5
79
330
74
100
AcDbEntity
  8
0
  6
Continuous
100
AcDbLine
 10
-10.2261014967
 20
-7.9354771524
 30
0.0
 11
-10.6655808869
 21
-5.9041780766
 31
0.0
  0
LINE
  5
7A
330
74
100
AcDbEntity
  8
0
  6
Continuous
100
AcDbLine
 10
-10.6655808869
 20
-5.9041780766
 30
0.0
 11
-13.8699456036
 21
-6.5974547429
 31
0.0
  0
LINE
  5
7B
330
74
100
AcDbEntity
  8
0
  6
Continuous
100
AcDbLine
 10
-8.296070931
 20
1.802048972
 30
0.0
 11
-6.9198111955
 21
2.0998080743
 31
0.0
  0
LINE
  5
7C
330
74
100
AcDbEntity
  8
0
  6
Continuous
100
AcDbLine
 10
-5.4333831358
 20
-4.7719736412
 30
0.0
 11
-6.8095376466
 21
-5.0697099777
 31
0.0
  0
LINE
  5
7D
330
74
100
AcDbEntity
  8
0
  6
Continuous
100
AcDbLine
 10
-11.0044904538
 20
3.3421566929
 30
0.0
 11
-8.6388294738
 21
-7.5920647278
 31
0.0
  0
LINE
  5
7E
330
74
100
AcDbEntity
  8
0
  6
Continuous
100
AcDbLine
 10
-8.6388294738
 20
-7.5920647278
 30
0.0
 11
-8.6384401425
 21
-7.5919804944
 31
0.0
  0
LINE
  5
7F
330
74
100
AcDbEntity
  8
0
  6
Continuous
100
AcDbLine
 10
-8.6384401425
 20
-7.5919804944
 30
0.0
 11
-4.4940245505
 21
-6.6953201952
 31
0.0
  0
LINE
  5
80
330
74
100
AcDbEntity
  8
0
  6
Continuous
100
AcDbLine
 10
-6.8595855671
 20
4.238922853
 30
0.0
 11
-11.0044904538
 21
3.3421566929
 31
0.0
  0
LINE
  5
81
330
74
100
AcDbEntity
  8
0
  6
Continuous
100
AcDbLine
 10
-32.9933593229
 20
-3.3005605139
 30
0.0
 11
-32.8591663041
 21
-3.2715273367
 31
0.0
  0
LINE
  5
82
330
74
100
AcDbEntity
  8
0
  6
Continuous
100
AcDbLine
 10
-31.5697721187
 20
-3.9678201523
 30
0.0
 11
-29.2969561243
 21
-3.4760876451
 31
0.0
  0
LINE
  5
83
330
74
100
AcDbEntity
  8
0
  6
Continuous
100
AcDbLine
 10
-33.2794920496
 20
-1.2667721217
 30
0.0
 11
-33.3448839193
 21
-1.2809199049
 31
0.0
  0
LINE
  5
84
330
74
100
AcDbEntity
  8
0
  6
Continuous
100
AcDbLine
 10
-31.3289079349
 20
-10.5856399919
 30
0.0
 11
-31.4650581325
 21
-10.6150966123
 31
0.0
  0
LINE
  5
85
330
74
100
AcDbEntity
  8
0
  6
Continuous
100
AcDbLine
 10
-32.8822392925
 20
-9.9377601564
 30
0.0
 11
-35.1888692339
 21
-10.4368084414
 31
0.0
  0
LINE
  5
86
330
74
100
AcDbEntity
  8
0
  6
Continuous
100
AcDbLine
 10
-31.5949683304
 20
-12.7295787952
 30
0.0
 11
-30.2063920476
 21
-12.4291549603
 31
0.0
  0
LINE
  5
87
330
74
100
AcDbEntity
  8
0
  6
Continuous
100
AcDbLine
 10
6.262509235
 20
-4.3681026205
 30
0.0
 11
8.6370616994
 21
-3.8543590356
 31
0.0
  0
LINE
  5
88
330
74
100
AcDbEntity
  8
0
  6
Continuous
100
AcDbLine
 10
8.6370616994
 20
-3.8543590356
 30
0.0
 11
3.9059396663
 21
6.5680857621
 31
0.0
  0
LINE
  5
89
330
74
100
AcDbEntity
  8
0
  6
Continuous
100
AcDbLine
 10
3.9059396663
 20
6.5680857621
 30
0.0
 11
0.0
 21
5.7230206493
 31
0.0
  0
LINE
  5
8A
330
74
100
AcDbEntity
  8
0
  6
Continuous
100
AcDbLine
 10
0.0
 20
5.7230206493
 30
0.0
 11
0.0
 21
-5.7230206493
 31
0.0
  0
LINE
  5
8B
330
74
100
AcDbEntity
  8
0
  6
Continuous
100
AcDbLine
 10
0.0
 20
-5.7230206493
 30
0.0
 11
2.3746576891
 21
-5.2092542987
 31
0.0
  0
LINE
  5
8C
330
74
100
AcDbEntity
  8
0
  6
Continuous
100
AcDbLine
 10
2.3746576891
 20
-5.2092542987
 30
0.0
 11
2.3747844598
 21
-3.0912381741
 31
0.0
  0
LINE
  5
8D
330
74
100
AcDbEntity
  8
0
  6
Continuous
100
AcDbLine
 10
2.3747844598
 20
-3.0912381741
 30
0.0
 11
4.0318309599
 21
-2.7327297722
 31
0.0
  0
LINE
  5
8E
330
74
100
AcDbEntity
  8
0
  6
Continuous
100
AcDbLine
 10
4.0318309599
 20
-2.7327297722
 30
0.0
 11
3.5923515697
 21
-0.7014306964
 31
0.0
  0
LINE
  5
8F
330
74
100
AcDbEntity
  8
0
  6
Continuous
100
AcDbLine
 10
3.5923515697
 20
-0.7014306964
 30
0.0
 11
2.3750284336
 21
-0.9648032524
 31
0.0
  0
LINE
  5
90
330
74
100
AcDbEntity
  8
0
  6
Continuous
100
AcDbLine
 10
2.3750284336
 20
-0.9648032524
 30
0.0
 11
2.3752084601
 21
4.1936873712
 31
0.0
  0
LINE
  5
91
330
74
100
AcDbEntity
  8
0
  6
Continuous
100
AcDbLine
 10
2.3752084601
 20
4.1936873712
 30
0.0
 11
6.262509235
 21
-4.3681026205
 31
0.0
  0
LINE
  5
92
330
74
100
AcDbEntity
  8
0
  6
Continuous
100
AcDbLine
 10
-53.0629352118
 20
-11.4801779454
 30
0.0
 11
-50.7945341276
 21
-8.0228043203
 31
0.0
  0
LINE
  5
93
330
74
100
AcDbEntity
  8
0
  6
Continuous
100
AcDbLine
 10
-50.7945341276
 20
-8.0228043203
 30
0.0
 11
-54.2891069366
 21
-5.8122833411
 31
0.0
  0
LINE
  5
94
330
74
100
AcDbEntity
  8
0
  6
Continuous
100
AcDbLine
 10
-54.2891069366
 20
-5.8122833411
 30
0.0
 11
-51.4073820962
 21
-5.1888110564
 31
0.0
  0
LINE
  5
95
330
74
100
AcDbEntity
  8
0
  6
Continuous
100
AcDbLine
 10
-51.4073820962
 20
-5.1888110564
 30
0.0
 11
-47.9127327975
 21
-7.3992273667
 31
0.0
  0
LINE
  5
96
330
74
100
AcDbEntity
  8
0
  6
Continuous
100
AcDbLine
 10
-47.9127327975
 20
-7.3992273667
 30
0.0
 11
-50.1813587974
 21
-10.8569360435
 31
0.0
  0
LINE
  5
97
330
74
100
AcDbEntity
  8
0
  6
Continuous
100
AcDbLine
 10
-50.1813587974
 20
-10.8569360435
 30
0.0
 11
-53.0628942334
 21
-11.4803673498
 31
0.0
  0
LINE
  5
98
330
74
100
AcDbEntity
  8
0
  6
Continuous
100
AcDbLine
 10
-53.0628942334
 20
-11.4803673498
 30
0.0
 11
-53.0629352118
 21
-11.4801779454
 31
0.0
  0
LINE
  5
99
330
74
100
AcDbEntity
  8
0
  6
Continuous
100
AcDbLine
 10
-42.7624916815
 20
-3.31845567
 30
0.0
 11
-45.0307950789
 21
-6.7757971452
 31
0.0
  0
LINE
  5
9A
330
74
100
AcDbEntity
  8
0
  6
Continuous
100
AcDbLine
 10
-45.0307950789
 20
-6.7757971452
 30
0.0
 11
-48.5254573289
 21
-4.5652955168
 31
0.0
  0
LINE
  5
9B
330
74
100
AcDbEntity
  8
0
  6
Continuous
100
AcDbLine
 10
-48.5254573289
 20
-4.5652955168
 30
0.0
 11
-48.5257466967
 21
-4.5653581227
 31
0.0
  0
LINE
  5
9C
330
74
100
AcDbEntity
  8
0
  6
Continuous
100
AcDbLine
 10
-48.5257466967
 20
-4.5653581227
 30
0.0
 11
-47.9126146215
 21
-7.399289919
 31
0.0
  0
LINE
  5
9D
330
74
100
AcDbEntity
  8
0
  6
Continuous
100
AcDbLine
 10
-47.9126146215
 20
-7.399289919
 30
0.0
 11
-44.4177372167
 21
-9.6098441329
 31
0.0
  0
LINE
  5
9E
330
74
100
AcDbEntity
  8
0
  6
Continuous
100
AcDbLine
 10
-44.4177372167
 20
-9.6098441329
 30
0.0
 11
-42.1490649772
 21
-6.1523237222
 31
0.0
  0
LINE
  5
9F
330
74
100
AcDbEntity
  8
0
  6
Continuous
100
AcDbLine
 10
-42.1490649772
 20
-6.1523237222
 30
0.0
 11
-42.7621970524
 21
-3.3183919259
 31
0.0
  0
LINE
  5
A0
330
74
100
AcDbEntity
  8
0
  6
Continuous
100
AcDbLine
 10
-42.7621970524
 20
-3.3183919259
 30
0.0
 11
-42.7624916815
 21
-3.31845567
 31
0.0
  0
LINE
  5
A1
330
74
100
AcDbEntity
  8
0
  6
Continuous
100
AcDbLine
 10
-41.535889647
 20
-8.9864554454
 30
0.0
 11
-43.8045413973
 21
-12.4440705583
 31
0.0
  0
LINE
  5
A2
330
74
100
AcDbEntity
  8
0
  6
Continuous
100
AcDbLine
 10
-43.8045413973
 20
-12.4440705583
 30
0.0
 11
-40.3564529382
 21
-14.625159785
 31
0.0
  0
LINE
  5
A3
330
74
100
AcDbEntity
  8
0
  6
Continuous
100
AcDbLine
 10
-40.3564529382
 20
-14.625159785
 30
0.0
 11
-43.2382724808
 21
-15.2486525588
 31
0.0
  0
LINE
  5
A4
330
74
100
AcDbEntity
  8
0
  6
Continuous
100
AcDbLine
 10
-43.2382724808
 20
-15.2486525588
 30
0.0
 11
-46.686243472
 21
-13.0676480676
 31
0.0
  0
LINE
  5
A5
330
74
100
AcDbEntity
  8
0
  6
Continuous
100
AcDbLine
 10
-46.686243472
 20
-13.0676480676
 30
0.0
 11
-44.4177144509
 21
-9.6099493576
 31
0.0
  0
LINE
  5
A6
330
74
100
AcDbEntity
  8
0
  6
Continuous
100
AcDbLine
 10
-44.4177144509
 20
-9.6099493576
 30
0.0
 11
-41.535889647
 21
-8.9864554454
 31
0.0
  0
LINE
  5
A7
330
74
100
AcDbEntity
  8
0
  6
Continuous
100
AcDbLine
 10
-51.8063383656
 20
-17.1023866618
 30
0.0
 11
-49.5681857438
 21
-13.6910572443
 31
0.0
  0
LINE
  5
A8
330
74
100
AcDbEntity
  8
0
  6
Continuous
100
AcDbLine
 10
-49.5681857438
 20
-13.6910572443
 30
0.0
 11
-46.1199973213
 21
-15.8721248435
 31
0.0
  0
LINE
  5
A9
330
74
100
AcDbEntity
  8
0
  6
Continuous
100
AcDbLine
 10
-46.1199973213
 20
-15.8721248435
 30
0.0
 11
-46.0813956519
 21
-15.8637732234
 31
0.0
  0
LINE
  5
AA
330
74
100
AcDbEntity
  8
0
  6
Continuous
100
AcDbLine
 10
-46.0813956519
 20
-15.8637732234
 30
0.0
 11
-46.6863662012
 21
-13.0675644704
 31
0.0
  0
LINE
  5
AB
330
74
100
AcDbEntity
  8
0
  6
Continuous
100
AcDbLine
 10
-46.6863662012
 20
-13.0675644704
 30
0.0
 11
-50.1813587974
 21
-10.8569360435
 31
0.0
  0
LINE
  5
AC
330
74
100
AcDbEntity
  8
0
  6
Continuous
100
AcDbLine
 10
-50.1813587974
 20
-10.8569360435
 30
0.0
 11
-52.4497621582
 21
-14.3142991462
 31
0.0
  0
LINE
  5
AD
330
74
100
AcDbEntity
  8
0
  6
Continuous
100
AcDbLine
 10
-52.4497621582
 20
-14.3142991462
 30
0.0
 11
-51.8447506306
 21
-17.1106973035
 31
0.0
  0
LINE
  5
AE
330
74
100
AcDbEntity
  8
0
  6
Continuous
100
AcDbLine
 10
-51.8447506306
 20
-17.1106973035
 30
0.0
 11
-51.8063383656
 21
-17.1023866618
 31
0.0
  0
LINE
  5
AF
330
74
100
AcDbEntity
  8
0
  6
Continuous
100
AcDbLine
 10
-20.0432683672
 20
-10.0594590717
 30
0.0
 11
-17.6687053803
 21
-9.5457132103
 31
0.0
  0
LINE
  5
B0
330
74
100
AcDbEntity
  8
0
  6
Continuous
100
AcDbLine
 10
-17.6687053803
 20
-9.5457132103
 30
0.0
 11
-22.3998379359
 21
0.8767293109
 31
0.0
  0
LINE
  5
B1
330
74
100
AcDbEntity
  8
0
  6
Continuous
100
AcDbLine
 10
-22.3998379359
 20
0.8767293109
 30
0.0
 11
-26.3058670432
 21
0.0316448472
 31
0.0
  0
LINE
  5
B2
330
74
100
AcDbEntity
  8
0
  6
Continuous
100
AcDbLine
 10
-26.3058670432
 20
0.0316448472
 30
0.0
 11
-26.3056723775
 21
-11.4143543348
 31
0.0
  0
LINE
  5
B3
330
74
100
AcDbEntity
  8
0
  6
Continuous
100
AcDbLine
 10
-26.3056723775
 20
-11.4143543348
 30
0.0
 11
-23.9311146519
 21
-10.9006096116
 31
0.0
  0
LINE
  5
B4
330
74
100
AcDbEntity
  8
0
  6
Continuous
100
AcDbLine
 10
-23.9311146519
 20
-10.9006096116
 30
0.0
 11
-23.9309931424
 21
-8.7825946253
 31
0.0
  0
LINE
  5
B5
330
74
100
AcDbEntity
  8
0
  6
Continuous
100
AcDbLine
 10
-23.9309931424
 20
-8.7825946253
 30
0.0
 11
-22.2738308951
 21
-8.4240611811
 31
0.0
  0
LINE
  5
B6
330
74
100
AcDbEntity
  8
0
  6
Continuous
100
AcDbLine
 10
-22.2738308951
 20
-8.4240611811
 30
0.0
 11
-22.7133102854
 21
-6.3927621053
 31
0.0
  0
LINE
  5
B7
330
74
100
AcDbEntity
  8
0
  6
Continuous
100
AcDbLine
 10
-22.7133102854
 20
-6.3927621053
 30
0.0
 11
-23.9308333483
 21
-6.6561779162
 31
0.0
  0
LINE
  5
B8
330
74
100
AcDbEntity
  8
0
  6
Continuous
100
AcDbLine
 10
-23.9308333483
 20
-6.6561779162
 30
0.0
 11
-23.9305586196
 21
-1.4976668035
 31
0.0
  0
LINE
  5
B9
330
74
100
AcDbEntity
  8
0
  6
Continuous
100
AcDbLine
 10
-23.9305586196
 20
-1.4976668035
 30
0.0
 11
-20.0432683672
 21
-10.0594590717
 31
0.0
  0
SPLINE
  5
BA
330
74
100
AcDbEntity
  8
0
100
AcDbSpline
210
0.0
220
0.0
230
1.0
 70
     8
 71
     3
 72
     8
 73
     4
 74
     0
 42
0.000000001
 43
0.00000001
 40
0.0
 40
0.0
 40
0.0
 40
0.0
 40
1.0
 40
1.0
 40
1.0
 40
1.0
 10
-13.86994560355125
 20
-6.597454742918429
 30
0.0
 10
-13.88373254946556
 20
-6.53373068413859
 30
0.0
 10
-15.11365515797402
 20
-0.8489574873494021
 30
0.0
 10
-15.79563263740206
 20
2.305574601061459
 30
0.0
  0
SPLINE
  5
BB
330
74
100
AcDbEntity
  8
0
100
AcDbSpline
210
0.0
220
0.0
230
1.0
 70
     8
 71
     3
 72
     8
 73
     4
 74
     0
 42
0.000000001
 43
0.00000001
 40
2.0
 40
2.0
 40
2.0
 40
2.0
 40
3.0
 40
3.0
 40
3.0
 40
3.0
 10
-18.06492886668426
 20
1.814603608696524
 30
0.0
 10
-17.24003965005502
 20
-1.995739949107536
 30
0.0
 10
-15.71186186991051
 20
-9.059523950669432
 30
0.0
 10
-15.69887855542093
 20
-9.119533578677906
 30
0.0
  0
SPLINE
  5
BC
330
74
100
AcDbEntity
  8
0
100
AcDbSpline
210
0.0
220
0.0
230
1.0
 70
     8
 71
     3
 72
     8
 73
     4
 74
     0
 42
0.000000001
 43
0.00000001
 40
0.0
 40
0.0
 40
0.0
 40
0.0
 40
1.0
 40
1.0
 40
1.0
 40
1.0
 10
-6.809537646582547
 20
-5.069709977697404
 30
0.0
 10
-7.284290309572815
 20
-2.875375801708635
 30
0.0
 10
-7.897830097865885
 20
-0.0390758678013329
 30
0.0
 10
-8.296070930952649
 20
1.80204897196991
 30
0.0
  0
SPLINE
  5
BD
330
74
100
AcDbEntity
  8
0
100
AcDbSpline
210
0.0
220
0.0
230
1.0
 70
     8
 71
     3
 72
     8
 73
     4
 74
     0
 42
0.000000001
 43
0.00000001
 40
2.0
 40
2.0
 40
2.0
 40
2.0
 40
3.0
 40
3.0
 40
3.0
 40
3.0
 10
-6.919811195494074
 20
2.099808074263809
 30
0.0
 10
-6.228016878711183
 20
2.249480443098069
 30
0.0
 10
-5.547633595833446
 20
1.815851349115847
 30
0.0
 10
-5.399398884916104
 20
1.130701970100344
 30
0.0
  0
SPLINE
  5
BE
330
74
100
AcDbEntity
  8
0
100
AcDbSpline
210
0.0
220
0.0
230
1.0
 70
     8
 71
     3
 72
     8
 73
     4
 74
     0
 42
0.000000001
 43
0.00000001
 40
3.0
 40
3.0
 40
3.0
 40
3.0
 40
4.0
 40
4.0
 40
4.0
 40
4.0
 10
-5.399398884916104
 20
1.130701970100344
 30
0.0
 10
-5.107009087764085
 20
-0.2207405274728672
 30
0.0
 10
-4.711497421058354
 20
-2.048334586467611
 30
0.0
 10
-4.449160707297047
 20
-3.260870000165379
 30
0.0
  0
SPLINE
  5
BF
330
74
100
AcDbEntity
  8
0
100
AcDbSpline
210
0.0
220
0.0
230
1.0
 70
     8
 71
     3
 72
     8
 73
     4
 74
     0
 42
0.000000001
 43
0.00000001
 40
4.0
 40
4.0
 40
4.0
 40
4.0
 40
5.0
 40
5.0
 40
5.0
 40
5.0
 10
-4.449160707297047
 20
-3.260870000165379
 30
0.0
 10
-4.300905507193207
 20
-3.946114081381999
 30
0.0
 10
-4.741570606399121
 20
-4.622385452066122
 30
0.0
 10
-5.433383135791953
 20
-4.771973641166296
 30
0.0
  0
SPLINE
  5
C0
330
74
100
AcDbEntity
  8
0
100
AcDbSpline
210
0.0
220
0.0
230
1.0
 70
     8
 71
     3
 72
     8
 73
     4
 74
     0
 42
0.000000001
 43
0.00000001
 40
3.0
 40
3.0
 40
3.0
 40
3.0
 40
4.0
 40
4.0
 40
4.0
 40
4.0
 10
-4.494024550545999
 20
-6.695320195210662
 30
0.0
 10
-2.825524345390513
 20
-6.334333740063992
 30
0.0
 10
-1.762658323115034
 20
-4.702068307882374
 30
0.0
 10
-2.120071189640999
 20
-3.049576315093403
 30
0.0
  0
SPLINE
  5
C1
330
74
100
AcDbEntity
  8
0
100
AcDbSpline
210
0.0
220
0.0
230
1.0
 70
     8
 71
     3
 72
     8
 73
     4
 74
     0
 42
0.000000001
 43
0.00000001
 40
4.0
 40
4.0
 40
4.0
 40
4.0
 40
5.0
 40
5.0
 40
5.0
 40
5.0
 10
-2.120071189640999
 20
-3.049576315093403
 30
0.0
 10
-2.485983017556096
 20
-1.358310753073632
 30
0.0
 10
-2.867352798370483
 20
0.4044023583376265
 30
0.0
 10
-3.190995488197396
 20
1.900704823656681
 30
0.0
  0
SPLINE
  5
C2
330
74
100
AcDbEntity
  8
0
100
AcDbSpline
210
0.0
220
0.0
230
1.0
 70
     8
 71
     3
 72
     8
 73
     4
 74
     0
 42
0.000000001
 43
0.00000001
 40
5.0
 40
5.0
 40
5.0
 40
5.0
 40
6.0
 40
6.0
 40
6.0
 40
6.0
 10
-3.190995488197396
 20
1.900704823656681
 30
0.0
 10
-3.54857504695031
 20
3.553458157285876
 30
0.0
 10
-5.190901218780231
 20
4.599949148191988
 30
0.0
 10
-6.859585567104196
 20
4.238922852960538
 30
0.0
  0
SPLINE
  5
C3
330
74
100
AcDbEntity
  8
0
100
AcDbSpline
210
0.0
220
0.0
230
1.0
 70
     8
 71
     3
 72
     8
 73
     4
 74
     0
 42
0.000000001
 43
0.00000001
 40
0.0
 40
0.0
 40
0.0
 40
0.0
 40
1.0
 40
1.0
 40
1.0
 40
1.0
 10
-30.23703582864644
 20
-6.251438951366732
 30
0.0
 10
-30.9104300186728
 20
-6.015603382360459
 30
0.0
 10
-31.40848551125485
 20
-5.893156856121871
 30
0.0
 10
-32.67210357750635
 20
-5.496689523479785
 30
0.0
  0
SPLINE
  5
C4
330
74
100
AcDbEntity
  8
0
100
AcDbSpline
210
0.0
220
0.0
230
1.0
 70
     8
 71
     3
 72
     8
 73
     4
 74
     0
 42
0.000000001
 43
0.00000001
 40
1.0
 40
1.0
 40
1.0
 40
1.0
 40
2.0
 40
2.0
 40
2.0
 40
2.0
 10
-32.67210357750635
 20
-5.496689523479785
 30
0.0
 10
-33.03332194555517
 20
-5.383421617718132
 30
0.0
 10
-33.81210282496122
 20
-5.206692347750555
 30
0.0
 10
-33.94849250952588
 20
-4.576291363356936
 30
0.0
  0
SPLINE
  5
C5
330
74
100
AcDbEntity
  8
0
100
AcDbSpline
210
0.0
220
0.0
230
1.0
 70
     8
 71
     3
 72
     8
 73
     4
 74
     0
 42
0.000000001
 43
0.00000001
 40
2.0
 40
2.0
 40
2.0
 40
2.0
 40
3.0
 40
3.0
 40
3.0
 40
3.0
 10
-33.94849250952588
 20
-4.576291363356936
 30
0.0
 10
-34.11622381965225
 20
-3.801027578894063
 30
0.0
 10
-33.67528356585564
 20
-3.448097454184924
 30
0.0
 10
-32.99335932290604
 20
-3.30056051389548
 30
0.0
  0
SPLINE
  5
C6
330
74
100
AcDbEntity
  8
0
100
AcDbSpline
210
0.0
220
0.0
230
1.0
 70
     8
 71
     3
 72
     8
 73
     4
 74
     0
 42
0.000000001
 43
0.00000001
 40
4.0
 40
4.0
 40
4.0
 40
4.0
 40
5.0
 40
5.0
 40
5.0
 40
5.0
 10
-32.85916630414497
 20
-3.271527336675416
 30
0.0
 10
-32.2786944245911
 20
-3.14594000653005
 30
0.0
 10
-31.77109773641243
 20
-3.328116480283148
 30
0.0
 10
-31.56977211870437
 20
-3.967820152272103
 30
0.0
  0
SPLINE
  5
C7
330
74
100
AcDbEntity
  8
0
100
AcDbSpline
210
0.0
220
0.0
230
1.0
 70
     8
 71
     3
 72
     8
 73
     4
 74
     0
 42
0.000000001
 43
0.00000001
 40
6.0
 40
6.0
 40
6.0
 40
6.0
 40
7.0
 40
7.0
 40
7.0
 40
7.0
 10
-29.29695612428625
 20
-3.476087645143529
 30
0.0
 10
-29.68810071971012
 20
-1.866802583842748
 30
0.0
 10
-30.87776107222441
 20
-0.7599478056671497
 30
0.0
 10
-33.27949204955325
 20
-1.266772121690862
 30
0.0
  0
SPLINE
  5
C8
330
74
100
AcDbEntity
  8
0
100
AcDbSpline
210
0.0
220
0.0
230
1.0
 70
     8
 71
     3
 72
     8
 73
     4
 74
     0
 42
0.000000001
 43
0.00000001
 40
8.0
 40
8.0
 40
8.0
 40
8.0
 40
9.0
 40
9.0
 40
9.0
 40
9.0
 10
-33.34488391931659
 20
-1.280919904944554
 30
0.0
 10
-35.81152992452102
 20
-1.828202838410209
 30
0.0
 10
-36.33378487826545
 20
-3.54465012997844
 30
0.0
 10
-36.09207577942843
 20
-4.962606301827474
 30
0.0
  0
SPLINE
  5
C9
330
74
100
AcDbEntity
  8
0
100
AcDbSpline
210
0.0
220
0.0
230
1.0
 70
     8
 71
     3
 72
     8
 73
     4
 74
     0
 42
0.000000001
 43
0.00000001
 40
9.0
 40
9.0
 40
9.0
 40
9.0
 40
10.0
 40
10.0
 40
10.0
 40
10.0
 10
-36.09207577942843
 20
-4.962606301827474
 30
0.0
 10
-35.83736690020325
 20
-6.457652824126185
 30
0.0
 10
-34.96800490008025
 20
-7.196828812263726
 30
0.0
 10
-33.99931718292642
 20
-7.502708028683521
 30
0.0
  0
SPLINE
  5
CA
330
74
100
AcDbEntity
  8
0
100
AcDbSpline
210
0.0
220
0.0
230
1.0
 70
     8
 71
     3
 72
     8
 73
     4
 74
     0
 42
0.000000001
 43
0.00000001
 40
10.0
 40
10.0
 40
10.0
 40
10.0
 40
11.0
 40
11.0
 40
11.0
 40
11.0
 10
-33.99931718292642
 20
-7.502708028683521
 30
0.0
 10
-33.40907414696034
 20
-7.689011641945549
 30
0.0
 10
-32.48616403135102
 20
-7.975318844696811
 30
0.0
 10
-31.47547483016511
 20
-8.271505052332133
 30
0.0
  0
SPLINE
  5
CB
330
74
100
AcDbEntity
  8
0
100
AcDbSpline
210
0.0
220
0.0
230
1.0
 70
     8
 71
     3
 72
     8
 73
     4
 74
     0
 42
0.000000001
 43
0.00000001
 40
11.0
 40
11.0
 40
11.0
 40
11.0
 40
12.0
 40
12.0
 40
12.0
 40
12.0
 10
-31.47547483016511
 20
-8.271505052332133
 30
0.0
 10
-31.11213516930565
 20
-8.377980375833697
 30
0.0
 10
-30.40258052645035
 20
-8.55729511966404
 30
0.0
 10
-30.28870163819746
 20
-9.336631754491275
 30
0.0
  0
SPLINE
  5
CC
330
74
100
AcDbEntity
  8
0
100
AcDbSpline
210
0.0
220
0.0
230
1.0
 70
     8
 71
     3
 72
     8
 73
     4
 74
     0
 42
0.000000001
 43
0.00000001
 40
12.0
 40
12.0
 40
12.0
 40
12.0
 40
13.0
 40
13.0
 40
13.0
 40
13.0
 10
-30.28870163819746
 20
-9.336631754491275
 30
0.0
 10
-30.1883718252622
 20
-10.02498578462436
 30
0.0
 10
-30.64014408852681
 20
-10.43662327702193
 30
0.0
 10
-31.32890793487913
 20
-10.58563999188937
 30
0.0
  0
SPLINE
  5
CD
330
74
100
AcDbEntity
  8
0
100
AcDbSpline
210
0.0
220
0.0
230
1.0
 70
     8
 71
     3
 72
     8
 73
     4
 74
     0
 42
0.000000001
 43
0.00000001
 40
14.0
 40
14.0
 40
14.0
 40
14.0
 40
15.0
 40
15.0
 40
15.0
 40
15.0
 10
-31.46505813246006
 20
-10.61509661229636
 30
0.0
 10
-32.05208024758041
 20
-10.74210111117219
 30
0.0
 10
-32.71260096537058
 20
-10.55064660173623
 30
0.0
 10
-32.8822392924921
 20
-9.937760156430087
 30
0.0
  0
SPLINE
  5
CE
330
74
100
AcDbEntity
  8
0
100
AcDbSpline
210
0.0
220
0.0
230
1.0
 70
     8
 71
     3
 72
     8
 73
     4
 74
     0
 42
0.000000001
 43
0.00000001
 40
16.0
 40
16.0
 40
16.0
 40
16.0
 40
17.0
 40
17.0
 40
17.0
 40
17.0
 10
-35.1888692338865
 20
-10.43680844141459
 30
0.0
 10
-34.81471685749703
 20
-11.8843133271045
 30
0.0
 10
-33.72975075395794
 20
-12.95131992706823
 30
0.0
 10
-31.59496833044066
 20
-12.72957879515504
 30
0.0
  0
SPLINE
  5
CF
330
74
100
AcDbEntity
  8
0
100
AcDbSpline
210
0.0
220
0.0
230
1.0
 70
     8
 71
     3
 72
     8
 73
     4
 74
     0
 42
0.000000001
 43
0.00000001
 40
18.0
 40
18.0
 40
18.0
 40
18.0
 40
19.0
 40
19.0
 40
19.0
 40
19.0
 10
-30.20639204762402
 20
-12.42915496033268
 30
0.0
 10
-28.36320980349184
 20
-11.79454394754582
 30
0.0
 10
-27.78707037380765
 20
-10.41512978795686
 30
0.0
 10
-27.91988511866083
 20
-9.073464993912006
 30
0.0
  0
SPLINE
  5
D0
330
74
100
AcDbEntity
  8
0
100
AcDbSpline
210
0.0
220
0.0
230
1.0
 70
     8
 71
     3
 72
     8
 73
     4
 74
     0
 42
0.000000001
 43
0.00000001
 40
19.0
 40
19.0
 40
19.0
 40
19.0
 40
20.0
 40
20.0
 40
20.0
 40
20.0
 10
-27.91988511866083
 20
-9.073464993912006
 30
0.0
 10
-28.12563217330358
 20
-6.994152508733083
 30
0.0
 10
-29.51271678483619
 20
-6.50510505043454
 30
0.0
 10
-30.23703582864644
 20
-6.251438951366732
 30
0.0
  0
HATCH
  5
D1
330
74
100
AcDbEntity
  8
0
100
AcDbHatch
 10
0.0
 20
0.0
 30
0.0
210
0.0
220
0.0
230
1.0
  2
SOLID
 70
     1
 71
     0
 91
        1
 92
        0
 93
        7
 72
     1
 10
-53.06293521179145
 20
-11.48017794540906
 11
-53.0628942334185
 21
-11.48036734981106
 72
     1
 10
-53.0628942334185
 20
-11.48036734981106
 11
-50.18135879739363
 21
-10.85693604353014
 72
     1
 10
-50.18135879739363
 20
-10.85693604353014
 11
-47.91273279754322
 21
-7.399227366744369
 72
     1
 10
-47.91273279754322
 20
-7.399227366744369
 11
-51.40738209617635
 21
-5.188811056417426
 72
     1
 10
-51.40738209617635
 20
-5.188811056417426
 11
-54.28910693660305
 21
-5.812283341071309
 72
     1
 10
-54.28910693660305
 20
-5.812283341071309
 11
-50.79453412756107
 21
-8.022804320319173
 72
     1
 10
-50.79453412756107
 20
-8.022804320319173
 11
-53.06293521179145
 21
-11.48017794540906
 97
        0
 75
     0
 76
     1
 98
        1
 10
0.0
 20
0.0
  0
HATCH
  5
D2
330
74
100
AcDbEntity
  8
0
100
AcDbHatch
 10
0.0
 20
0.0
 30
0.0
210
0.0
220
0.0
230
1.0
  2
SOLID
 70
     1
 71
     0
 91
        1
 92
        0
 93
        6
 72
     1
 10
-41.53588964704281
 20
-8.986455445432597
 11
-44.41771445090438
 21
-9.609949357561213
 72
     1
 10
-44.41771445090438
 20
-9.609949357561213
 11
-46.68624347197728
 21
-13.06764806762683
 72
     1
 10
-46.68624347197728
 20
-13.06764806762683
 11
-43.23827248082917
 21
-15.24865255879992
 72
     1
 10
-43.23827248082917
 20
-15.24865255879992
 11
-40.35645293820115
 21
-14.62515978495947
 72
     1
 10
-40.35645293820115
 20
-14.62515978495947
 11
-43.80454139731328
 21
-12.44407055830516
 72
     1
 10
-43.80454139731328
 20
-12.44407055830516
 11
-41.53588964704281
 21
-8.986455445432597
 97
        0
 75
     0
 76
     1
 98
        1
 10
0.0
 20
0.0
  0
HATCH
  5
D3
330
74
100
AcDbEntity
  8
0
100
AcDbHatch
 10
0.0
 20
0.0
 30
0.0
210
0.0
220
0.0
230
1.0
  2
SOLID
 70
     1
 71
     0
 91
        1
 92
        0
 93
       20
 72
     4
 94
        3
 73
     1
 74
     0
 95
        8
 96
        4
 40
18.0
 40
18.0
 40
18.0
 40
18.0
 40
19.0
 40
19.0
 40
19.0
 40
19.0
 10
-30.20639204762402
 20
-12.42915496033267
 42
1.0
 10
-28.36320980349188
 20
-11.79454394754584
 42
1.0
 10
-27.78707037380775
 20
-10.41512978795687
 42
1.0
 10
-27.91988511866085
 20
-9.073464993912015
 42
1.0
 72
     4
 94
        3
 73
     1
 74
     0
 95
        8
 96
        4
 40
19.0
 40
19.0
 40
19.0
 40
19.0
 40
20.0
 40
20.0
 40
20.0
 40
20.0
 10
-27.91988511866085
 20
-9.073464993912015
 42
1.0
 10
-28.1256321733036
 20
-6.994152508733093
 42
1.0
 10
-29.51271678483624
 20
-6.505105050434554
 42
1.0
 10
-30.23703582864647
 20
-6.251438951366739
 42
1.0
 72
     4
 94
        3
 73
     1
 74
     0
 95
        8
 96
        4
 40
0.0
 40
0.0
 40
0.0
 40
0.0
 40
1.0
 40
1.0
 40
1.0
 40
1.0
 10
-30.23703582864647
 20
-6.251438951366739
 42
1.0
 10
-30.91043001867278
 20
-6.015603382360466
 42
1.0
 10
-31.40848551125484
 20
-5.893156856121866
 42
1.0
 10
-32.67210357750633
 20
-5.496689523479784
 42
1.0
 72
     4
 94
        3
 73
     1
 74
     0
 95
        8
 96
        4
 40
1.0
 40
1.0
 40
1.0
 40
1.0
 40
2.0
 40
2.0
 40
2.0
 40
2.0
 10
-32.67210357750633
 20
-5.496689523479784
 42
1.0
 10
-33.03332194555515
 20
-5.383421617718138
 42
1.0
 10
-33.81210282496121
 20
-5.206692347750558
 42
1.0
 10
-33.94849250952591
 20
-4.576291363356954
 42
1.0
 72
     4
 94
        3
 73
     1
 74
     0
 95
        8
 96
        4
 40
2.0
 40
2.0
 40
2.0
 40
2.0
 40
3.0
 40
3.0
 40
3.0
 40
3.0
 10
-33.94849250952591
 20
-4.576291363356954
 42
1.0
 10
-34.11622381965228
 20
-3.801027578894066
 42
1.0
 10
-33.67528356585566
 20
-3.448097454184939
 42
1.0
 10
-32.99335932290605
 20
-3.300560513895483
 42
1.0
 72
     1
 10
-32.99335932290605
 20
-3.300560513895483
 11
-32.85916630414502
 21
-3.271527336675422
 72
     4
 94
        3
 73
     1
 74
     0
 95
        8
 96
        4
 40
4.0
 40
4.0
 40
4.0
 40
4.0
 40
5.0
 40
5.0
 40
5.0
 40
5.0
 10
-32.85916630414502
 20
-3.271527336675422
 42
1.0
 10
-32.27869442459117
 20
-3.145940006530068
 42
1.0
 10
-31.77109773641243
 20
-3.328116480283154
 42
1.0
 10
-31.5697721187044
 20
-3.967820152272114
 42
1.0
 72
     1
 10
-31.5697721187044
 20
-3.967820152272114
 11
-29.29695612428624
 21
-3.476087645143523
 72
     4
 94
        3
 73
     1
 74
     0
 95
        8
 96
        4
 40
6.0
 40
6.0
 40
6.0
 40
6.0
 40
7.0
 40
7.0
 40
7.0
 40
7.0
 10
-29.2969561242863
 20
-3.476087645143538
 42
1.0
 10
-29.6881007197101
 20
-1.866802583842747
 42
1.0
 10
-30.87776107222446
 20
-0.7599478056671519
 42
1.0
 10
-33.27949204955327
 20
-1.266772121690873
 42
1.0
 72
     1
 10
-33.27949204955321
 20
-1.266772121690857
 11
-33.3448839193166
 21
-1.280919904944549
 72
     4
 94
        3
 73
     1
 74
     0
 95
        8
 96
        4
 40
8.0
 40
8.0
 40
8.0
 40
8.0
 40
9.0
 40
9.0
 40
9.0
 40
9.0
 10
-33.34488391931666
 20
-1.280919904944565
 42
1.0
 10
-35.8115299245211
 20
-1.828202838410234
 42
1.0
 10
-36.3337848782655
 20
-3.544650129978449
 42
1.0
 10
-36.09207577942846
 20
-4.962606301827486
 42
1.0
 72
     4
 94
        3
 73
     1
 74
     0
 95
        8
 96
        4
 40
9.0
 40
9.0
 40
9.0
 40
9.0
 40
10.0
 40
10.0
 40
10.0
 40
10.0
 10
-36.09207577942846
 20
-4.962606301827486
 42
1.0
 10
-35.83736690020323
 20
-6.457652824126184
 42
1.0
 10
-34.96800490008029
 20
-7.196828812263736
 42
1.0
 10
-33.99931718292643
 20
-7.502708028683525
 42
1.0
 72
     4
 94
        3
 73
     1
 74
     0
 95
        8
 96
        4
 40
10.0
 40
10.0
 40
10.0
 40
10.0
 40
11.0
 40
11.0
 40
11.0
 40
11.0
 10
-33.99931718292643
 20
-7.502708028683525
 42
1.0
 10
-33.40907414696031
 20
-7.689011641945555
 42
1.0
 10
-32.48616403135106
 20
-7.975318844696822
 42
1.0
 10
-31.47547483016516
 20
-8.27150505233215
 42
1.0
 72
     4
 94
        3
 73
     1
 74
     0
 95
        8
 96
        4
 40
11.0
 40
11.0
 40
11.0
 40
11.0
 40
12.0
 40
12.0
 40
12.0
 40
12.0
 10
-31.47547483016516
 20
-8.27150505233215
 42
1.0
 10
-31.11213516930568
 20
-8.377980375833708
 42
1.0
 10
-30.40258052645039
 20
-8.557295119664056
 42
1.0
 10
-30.28870163819752
 20
-9.336631754491272
 42
1.0
 72
     4
 94
        3
 73
     1
 74
     0
 95
        8
 96
        4
 40
12.0
 40
12.0
 40
12.0
 40
12.0
 40
13.0
 40
13.0
 40
13.0
 40
13.0
 10
-30.28870163819752
 20
-9.336631754491272
 42
1.0
 10
-30.18837182526216
 20
-10.02498578462435
 42
1.0
 10
-30.64014408852681
 20
-10.43662327702195
 42
1.0
 10
-31.32890793487914
 20
-10.58563999188937
 42
1.0
 72
     1
 10
-31.32890793487914
 20
-10.58563999188937
 11
-31.46505813246008
 21
-10.61509661229637
 72
     4
 94
        3
 73
     1
 74
     0
 95
        8
 96
        4
 40
14.0
 40
14.0
 40
14.0
 40
14.0
 40
15.0
 40
15.0
 40
15.0
 40
15.0
 10
-31.46505813246008
 20
-10.61509661229637
 42
1.0
 10
-32.05208024758041
 20
-10.7421011111722
 42
1.0
 10
-32.71260096537064
 20
-10.55064660173623
 42
1.0
 10
-32.88223929249212
 20
-9.937760156430087
 42
1.0
 72
     1
 10
-32.88223929249212
 20
-9.937760156430087
 11
-35.18886923388655
 21
-10.43680844141459
 72
     4
 94
        3
 73
     1
 74
     0
 95
        8
 96
        4
 40
16.0
 40
16.0
 40
16.0
 40
16.0
 40
17.0
 40
17.0
 40
17.0
 40
17.0
 10
-35.18886923388649
 20
-10.43680844141459
 42
1.0
 10
-34.81471685749708
 20
-11.88431332710451
 42
1.0
 10
-33.72975075395801
 20
-12.95131992706824
 42
1.0
 10
-31.59496833044075
 20
-12.72957879515506
 42
1.0
 72
     1
 10
-31.59496833044068
 20
-12.72957879515504
 11
-30.20639204762409
 21
-12.42915496033269
 97
        0
 75
     0
 76
     1
 98
        1
 10
0.0
 20
0.0
  0
HATCH
  5
D4
330
74
100
AcDbEntity
  8
0
100
AcDbHatch
 10
0.0
 20
0.0
 30
0.0
210
0.0
220
0.0
230
1.0
  2
SOLID
 70
     1
 71
     0
 91
        1
 92
        0
 93
       11
 72
     1
 10
-23.93083334830058
 20
-6.656177916224847
 11
-23.9305586195879
 21
-1.497666803489873
 72
     1
 10
-23.9305586195879
 20
-1.497666803489873
 11
-20.04326836721582
 21
-10.05945907169815
 72
     1
 10
-20.04326836721582
 20
-10.05945907169815
 11
-17.66870538033285
 21
-9.545713210289948
 72
     1
 10
-17.66870538033285
 20
-9.545713210289948
 11
-22.39983793591613
 21
0.8767293108990284
 72
     1
 10
-22.39983793591613
 20
0.8767293108990277
 11
-26.30586704316552
 21
0.0316448471579831
 72
     1
 10
-26.30586704316552
 20
0.0316448471579831
 11
-26.30567237753049
 21
-11.41435433475813
 72
     1
 10
-26.30567237753049
 20
-11.41435433475813
 11
-23.93111465188077
 21
-10.90060961163804
 72
     1
 10
-23.93111465188077
 20
-10.90060961163804
 11
-23.93099314235586
 21
-8.782594625323274
 72
     1
 10
-23.93099314235586
 20
-8.782594625323274
 11
-22.27383089514867
 21
-8.42406118111162
 72
     1
 10
-22.27383089514867
 20
-8.42406118111162
 11
-22.7133102853523
 21
-6.392762105309743
 72
     1
 10
-22.7133102853523
 20
-6.392762105309743
 11
-23.93083334830058
 21
-6.656177916224847
 97
        0
 75
     0
 76
     1
 98
        1
 10
0.0
 20
0.0
  0
HATCH
  5
D5
330
74
100
AcDbEntity
  8
0
100
AcDbHatch
 10
0.0
 20
0.0
 30
0.0
210
0.0
220
0.0
230
1.0
  2
SOLID
 70
     1
 71
     0
 91
        1
 92
        0
 93
        6
 72
     1
 10
-15.79563263740209
 20
2.305574601061446
 11
-18.06492886668423
 21
1.814603608696526
 72
     4
 94
        3
 73
     1
 74
     0
 95
        8
 96
        4
 40
2.0
 40
2.0
 40
2.0
 40
2.0
 40
3.0
 40
3.0
 40
3.0
 40
3.0
 10
-18.06492886668423
 20
1.814603608696526
 42
1.0
 10
-17.240039650055
 20
-1.995739949107533
 42
1.0
 10
-15.71186186991055
 20
-9.059523950669437
 42
1.0
 10
-15.69887855542098
 20
-9.119533578677919
 42
1.0
 72
     1
 10
-15.69887855542092
 20
-9.119533578677903
 11
-10.22610149671526
 21
-7.93547715235816
 72
     1
 10
-10.22610149671526
 20
-7.93547715235816
 11
-10.66558088691882
 21
-5.904178076556605
 72
     1
 10
-10.66558088691882
 20
-5.904178076556605
 11
-13.86994560355126
 21
-6.597454742918437
 72
     4
 94
        3
 73
     1
 74
     0
 95
        8
 96
        4
 40
0.0
 40
0.0
 40
0.0
 40
0.0
 40
1.0
 40
1.0
 40
1.0
 40
1.0
 10
-13.86994560355126
 20
-6.597454742918437
 42
1.0
 10
-13.88373254946556
 20
-6.533730684138598
 42
1.0
 10
-15.1136551579741
 20
-0.8489574873494129
 42
1.0
 10
-15.79563263740209
 20
2.305574601061446
 42
1.0
 97
        0
 75
     0
 76
     1
 98
        1
 10
0.0
 20
0.0
  0
HATCH
  5
D6
330
74
100
AcDbEntity
  8
0
100
AcDbHatch
 10
0.0
 20
0.0
 30
0.0
210
0.0
220
0.0
230
1.0
  2
SOLID
 70
     1
 71
     0
 91
        1
 92
        0
 93
       11
 72
     1
 10
2.375028433631206
 20
-0.9648032523823513
 11
2.375208460142868
 21
4.193687371166118
 72
     1
 10
2.375208460142868
 20
4.193687371166118
 11
6.262509234981617
 21
-4.368102620465918
 72
     1
 10
6.262509234981617
 20
-4.368102620465917
 11
8.637061699398163
 21
-3.854359035633896
 72
     1
 10
8.637061699398163
 20
-3.854359035633896
 11
3.905939666281055
 21
6.568085762131229
 72
     1
 10
3.905939666281055
 20
6.56808576213123
 11
-0.0000000000001235
 21
5.723020649288631
 72
     1
 10
-0.0000000000001234
 20
5.723020649288631
 11
-0.000000000000185
 21
-5.723020649288537
 72
     1
 10
-0.000000000000185
 20
-5.723020649288538
 11
2.37465768908423
 21
-5.20925429869377
 72
     1
 10
2.37465768908423
 20
-5.20925429869377
 11
2.374784459841949
 21
-3.091238174090979
 72
     1
 10
2.374784459841949
 20
-3.091238174090979
 11
4.031830959914354
 21
-2.732729772218408
 72
     1
 10
4.031830959914354
 20
-2.732729772218408
 11
3.592351569710606
 21
-0.701430696416514
 72
     1
 10
3.592351569710606
 20
-0.7014306964165138
 11
2.375028433631206
 21
-0.9648032523823513
 97
        0
 75
     0
 76
     1
 98
        1
 10
0.0
 20
0.0
  0
HATCH
  5
D7
330
74
100
AcDbEntity
  8
0
100
AcDbHatch
 10
0.0
 20
0.0
 30
0.0
210
0.0
220
0.0
230
1.0
  2
SOLID
 70
     1
 71
     0
 91
        1
 92
        0
 93
        8
 72
     1
 10
-42.14906497721024
 20
-6.152323722221632
 11
-42.76219705242848
 21
-3.318391925879333
 72
     1
 10
-42.76219705242848
 20
-3.318391925879333
 11
-42.76249168149826
 21
-3.318455670015027
 72
     1
 10
-42.76249168149826
 20
-3.318455670015027
 11
-45.03079507887072
 21
-6.775797145163721
 72
     1
 10
-45.03079507887072
 20
-6.775797145163721
 11
-48.52545732888054
 21
-4.565295516814268
 72
     1
 10
-48.52545732888054
 20
-4.565295516814268
 11
-48.52574669671678
 21
-4.565358122661792
 72
     1
 10
-48.52574669671678
 20
-4.565358122661792
 11
-47.91261462149855
 21
-7.39928991900409
 72
     1
 10
-47.91261462149855
 20
-7.39928991900409
 11
-44.41773721666716
 21
-9.60984413289331
 72
     1
 10
-44.41773721666716
 20
-9.60984413289331
 11
-42.14906497721024
 21
-6.152323722221632
 97
        0
 75
     0
 76
     1
 98
        1
 10
0.0
 20
0.0
  0
HATCH
  5
D8
330
74
100
AcDbEntity
  8
0
100
AcDbHatch
 10
0.0
 20
0.0
 30
0.0
210
0.0
220
0.0
230
1.0
  2
SOLID
 70
     1
 71
     0
 91
        1
 92
        0
 93
        8
 72
     1
 10
-46.11999732125613
 20
-15.87212484345383
 11
-46.08139565189786
 21
-15.8637732233933
 72
     1
 10
-46.08139565189786
 20
-15.8637732233933
 11
-46.68636620117444
 21
-13.06756447043367
 72
     1
 10
-46.68636620117444
 20
-13.06756447043367
 11
-50.18135879739361
 21
-10.85693604353009
 72
     1
 10
-50.18135879739361
 20
-10.85693604353009
 11
-52.44976215820033
 21
-14.31429914615315
 72
     1
 10
-52.44976215820033
 20
-14.31429914615315
 11
-51.84475063055083
 21
-17.11069730351469
 72
     1
 10
-51.84475063055083
 20
-17.11069730351469
 11
-51.80633836559459
 21
-17.1023866618271
 72
     1
 10
-51.80633836559459
 20
-17.1023866618271
 11
-49.56818574380249
 21
-13.69105724427409
 72
     1
 10
-49.56818574380249
 20
-13.69105724427409
 11
-46.11999732125613
 21
-15.87212484345383
 97
        0
 75
     0
 76
     1
 98
        1
 10
0.0
 20
0.0
  0
HATCH
  5
D9
330
74
100
AcDbEntity
  8
0
100
AcDbHatch
 10
0.0
 20
0.0
 30
0.0
210
0.0
220
0.0
230
1.0
  2
SOLID
 70
     1
 71
     0
 91
        2
 92
        0
 93
        7
 72
     1
 10
-6.859585567104196
 20
4.238922852960538
 11
-11.00449045380928
 21
3.342156692939393
 72
     1
 10
-11.00449045380928
 20
3.342156692939393
 11
-8.638829473816639
 21
-7.592064727757184
 72
     1
 10
-8.638829473816639
 20
-7.592064727757185
 11
-8.63844014254617
 21
-7.591980494435086
 72
     1
 10
-8.63844014254617
 20
-7.591980494435086
 11
-4.494024550545999
 21
-6.695320195210662
 72
     4
 94
        3
 73
     1
 74
     0
 95
        8
 96
        4
 40
3.0
 40
3.0
 40
3.0
 40
3.0
 40
4.0
 40
4.0
 40
4.0
 40
4.0
 10
-4.494024550545999
 20
-6.695320195210662
 42
1.0
 10
-2.825524345390513
 20
-6.334333740063992
 42
1.0
 10
-1.762658323115034
 20
-4.702068307882374
 42
1.0
 10
-2.120071189640999
 20
-3.049576315093403
 42
1.0
 72
     4
 94
        3
 73
     1
 74
     0
 95
        8
 96
        4
 40
4.0
 40
4.0
 40
4.0
 40
4.0
 40
5.0
 40
5.0
 40
5.0
 40
5.0
 10
-2.120071189640999
 20
-3.049576315093403
 42
1.0
 10
-2.485983017556096
 20
-1.358310753073632
 42
1.0
 10
-2.867352798370483
 20
0.4044023583376265
 42
1.0
 10
-3.190995488197396
 20
1.900704823656681
 42
1.0
 72
     4
 94
        3
 73
     1
 74
     0
 95
        8
 96
        4
 40
5.0
 40
5.0
 40
5.0
 40
5.0
 40
6.0
 40
6.0
 40
6.0
 40
6.0
 10
-3.190995488197396
 20
1.900704823656681
 42
1.0
 10
-3.54857504695031
 20
3.553458157285876
 42
1.0
 10
-5.190901218780231
 20
4.599949148191988
 42
1.0
 10
-6.859585567104196
 20
4.238922852960538
 42
1.0
 97
        0
 92
        0
 93
        6
 72
     4
 94
        3
 73
     1
 74
     0
 95
        8
 96
        4
 40
2.0
 40
2.0
 40
2.0
 40
2.0
 40
3.0
 40
3.0
 40
3.0
 40
3.0
 10
-6.919811195494074
 20
2.099808074263809
 42
1.0
 10
-6.228016878711183
 20
2.249480443098069
 42
1.0
 10
-5.547633595833446
 20
1.815851349115847
 42
1.0
 10
-5.399398884916104
 20
1.130701970100344
 42
1.0
 72
     4
 94
        3
 73
     1
 74
     0
 95
        8
 96
        4
 40
3.0
 40
3.0
 40
3.0
 40
3.0
 40
4.0
 40
4.0
 40
4.0
 40
4.0
 10
-5.399398884916104
 20
1.130701970100344
 42
1.0
 10
-5.107009087764085
 20
-0.2207405274728672
 42
1.0
 10
-4.711497421058354
 20
-2.048334586467611
 42
1.0
 10
-4.449160707297047
 20
-3.260870000165379
 42
1.0
 72
     4
 94
        3
 73
     1
 74
     0
 95
        8
 96
        4
 40
4.0
 40
4.0
 40
4.0
 40
4.0
 40
5.0
 40
5.0
 40
5.0
 40
5.0
 10
-4.449160707297047
 20
-3.260870000165379
 42
1.0
 10
-4.300905507193207
 20
-3.946114081381999
 42
1.0
 10
-4.741570606399121
 20
-4.622385452066122
 42
1.0
 10
-5.433383135791953
 20
-4.771973641166296
 42
1.0
 72
     1
 10
-5.433383135791953
 20
-4.771973641166296
 11
-6.809537646582547
 21
-5.069709977697404
 72
     4
 94
        3
 73
     1
 74
     0
 95
        8
 96
        4
 40
0.0
 40
0.0
 40
0.0
 40
0.0
 40
1.0
 40
1.0
 40
1.0
 40
1.0
 10
-6.809537646582547
 20
-5.069709977697404
 42
1.0
 10
-7.284290309572815
 20
-2.875375801708635
 42
1.0
 10
-7.897830097865885
 20
-0.0390758678013329
 42
1.0
 10
-8.296070930952649
 20
1.80204897196991
 42
1.0
 72
     1
 10
-8.296070930952649
 20
1.80204897196991
 11
-6.919811195494074
 21
2.099808074263809
 97
        0
 75
     0
 76
     1
 98
        1
 10
0.0
 20
0.0
  0
ENDBLK
  5
76
330
74
100
AcDbEntity
  8
0
100
AcDbBlockEnd
  0
BLOCK
  5
35E
330
35D
100
AcDbEntity
  8
0
100
AcDbBlockBegin
  2
*U3
 70
     1
 10
0.0
 20
0.0
 30
0.0
  3
*U3
  1

  0
TEXT
  5
35F
330
35D
100
AcDbEntity
  8
LENKIMO
  6
CENTERX2
100
AcDbText
 10
799.0717146298566
 20
1100.336970457902
 30
0.0
 40
100.0
  1
A
100
AcDbText
  0
ENDBLK
  5
360
330
35D
100
AcDbEntity
  8
0
100
AcDbBlockEnd
  0
BLOCK
  5
36B
330
36A
100
AcDbEntity
  8
0
100
AcDbBlockBegin
  2
*U4
 70
     1
 10
0.0
 20
0.0
 30
0.0
  3
*U4
  1

  0
TEXT
  5
36C
330
36A
100
AcDbEntity
  8
LENKIMO
  6
CENTERX2
100
AcDbText
 10
801.2712978691851
 20
1410.897389739665
 30
0.0
 40
100.0
  1
B
100
AcDbText
  0
ENDBLK
  5
36D
330
36A
100
AcDbEntity
  8
0
100
AcDbBlockEnd
  0
BLOCK
  5
372
330
371
100
AcDbEntity
  8
0
100
AcDbBlockBegin
  2
*U5
 70
     1
 10
0.0
 20
0.0
 30
0.0
  3
*U5
  1

  0
TEXT
  5
373
330
371
100
AcDbEntity
  8
LENKIMO
  6
CENTERX2
100
AcDbText
 10
799.0717146298566
 20
1100.336970457902
 30
0.0
 40
100.0
  1
A
100
AcDbText
  0
ENDBLK
  5
374
330
371
100
AcDbEntity
  8
0
100
AcDbBlockEnd
  0
BLOCK
  5
377
330
376
100
AcDbEntity
  8
0
100
AcDbBlockBegin
  2
*U6
 70
     1
 10
0.0
 20
0.0
 30
0.0
  3
*U6
  1

  0
TEXT
  5
378
330
376
100
AcDbEntity
  8
LENKIMO
  6
CENTERX2
100
AcDbText
 10
801.2712978691851
 20
1410.897389739665
 30
0.0
 40
100.0
  1
B
100
AcDbText
  0
ENDBLK
  5
379
330
376
100
AcDbEntity
  8
0
100
AcDbBlockEnd
  0
ENDSEC
  0
SECTION
  2
ENTITIES
  0
LINE
  5
DA
330
1F
100
AcDbEntity
  8
0
100
AcDbLine
 10
164.642495819
 20
64.1220169633
 30
0.0
 11
174.7547563707
 21
64.1220169633
 31
0.0
  0
LINE
  5
DB
330
1F
100
AcDbEntity
  8
0
100
AcDbLine
 10
174.7547563707
 20
306.759552657
 30
0.0
 11
164.642495819
 21
306.759552657
 31
0.0
  0
ARC
  5
DC
330
1F
100
AcDbEntity
  8
0
100
AcDbCircle
 10
164.642495819
 20
67.0715596781
 30
0.0
 40
2.949542714776086
100
AcDbArc
 50
240.0884260565
 51
270.0
  0
ARC
  5
DD
330
1F
100
AcDbEntity
  8
0
100
AcDbCircle
 10
164.642495819
 20
303.8100099422
 30
0.0
 40
2.94954271477608
100
AcDbArc
 50
90.0
 51
119.9115739435
  0
ARC
  5
DE
330
1F
100
AcDbEntity
  8
0
100
AcDbCircle
 10
160.1797349884
 20
59.3142073374
 30
0.0
 40
5.999912551817786
100
AcDbArc
 50
60.08842605649999
 51
90.0
  0
ARC
  5
DF
330
1F
100
AcDbEntity
  8
0
100
AcDbCircle
 10
160.1797349884
 20
311.5673622829
 30
0.0
 40
5.999912551817784
100
AcDbArc
 50
270.0
 51
299.9115739435
  0
ARC
  5
E0
330
1F
100
AcDbEntity
  8
0
100
AcDbCircle
 10
145.8424484193
 20
84.4728425892
 30
0.0
 40
19.15872270002436
100
AcDbArc
 50
199.3103275633
 51
270.0
  0
ARC
  5
E1
330
1F
100
AcDbEntity
  8
0
100
AcDbCircle
 10
145.8424484193
 20
286.408727031
 30
0.0
 40
19.15872270002436
100
AcDbArc
 50
90.0
 51
160.6896724367
  0
LINE
  5
E2
330
1F
100
AcDbEntity
  8
0
100
AcDbLine
 10
145.8424484193
 20
65.3141198892
 30
0.0
 11
160.1797349884
 21
65.3141198892
 31
0.0
  0
LINE
  5
E3
330
1F
100
AcDbEntity
  8
0
100
AcDbLine
 10
160.1797349884
 20
305.567449731
 30
0.0
 11
145.8424484193
 21
305.567449731
 31
0.0
  0
LINE
  5
E4
330
1F
100
AcDbEntity
  8
0
100
AcDbLine
 10
127.7615693826
 20
292.7442198104
 30
0.0
 11
121.2185982484
 21
274.0712177665
 31
0.0
  0
LINE
  5
E5
330
1F
100
AcDbEntity
  8
0
100
AcDbLine
 10
121.2185982484
 20
96.8103518538
 30
0.0
 11
127.7615693826
 21
78.1373498098
 31
0.0
  0
ARC
  5
E6
330
1F
100
AcDbEntity
  8
0
100
AcDbCircle
 10
108.0062191938
 20
92.1807687495
 30
0.0
 40
13.99999999999922
100
AcDbArc
 50
19.3103275633
 51
90.0
  0
ARC
  5
E7
330
1F
100
AcDbEntity
  8
0
100
AcDbCircle
 10
108.0062191938
 20
278.7008008707
 30
0.0
 40
13.99999999999921
100
AcDbArc
 50
270.0
 51
340.6896724367
  0
LINE
  5
E8
330
1F
100
AcDbEntity
  8
0
100
AcDbLine
 10
91.5930897988
 20
106.1807687495
 30
0.0
 11
108.0062191938
 21
106.1807687495
 31
0.0
  0
LINE
  5
E9
330
1F
100
AcDbEntity
  8
0
100
AcDbLine
 10
108.0062191938
 20
264.7008008707
 30
0.0
 11
91.5930897988
 21
264.7008008707
 31
0.0
  0
ARC
  5
EA
330
1F
100
AcDbEntity
  8
0
100
AcDbCircle
 10
91.5930897988
 20
110.1807687495
 30
0.0
 40
3.999999999999559
100
AcDbArc
 50
180.0
 51
270.0
  0
ARC
  5
EB
330
1F
100
AcDbEntity
  8
0
100
AcDbCircle
 10
91.5930897988
 20
260.7008008707
 30
0.0
 40
3.999999999999602
100
AcDbArc
 50
90.0
 51
180.0
  0
LINE
  5
EC
330
1F
100
AcDbEntity
  8
0
100
AcDbLine
 10
188.5942302636
 20
307.9838506787
 30
0.0
 11
174.7547563707
 21
307.9838506787
 31
0.0
  0
LINE
  5
ED
330
1F
100
AcDbEntity
  8
0
100
AcDbLine
 10
174.7547563707
 20
62.8977189416
 30
0.0
 11
188.5942302636
 21
62.8977189416
 31
0.0
  0
ARC
  5
EE
330
1F
100
AcDbEntity
  8
0
100
AcDbCircle
 10
188.5942302636
 20
304.9838506787
 30
0.0
 40
3.000000000000114
100
AcDbArc
 50
34.5181078411
 51
90.0
  0
ARC
  5
EF
330
1F
100
AcDbEntity
  8
0
100
AcDbCircle
 10
188.5942302636
 20
65.8977189416
 30
0.0
 40
3.000000000000121
100
AcDbArc
 50
270.0
 51
325.4818921588999
  0
ARC
  5
F0
330
1F
100
AcDbEntity
  8
0
100
AcDbCircle
 10
196.0097545202
 20
310.0838506787
 30
0.0
 40
5.999999999999663
100
AcDbArc
 50
214.5181078411
 51
269.1052337159
  0
ARC
  5
F1
330
1F
100
AcDbEntity
  8
0
100
AcDbCircle
 10
196.0097545202
 20
60.7977189416
 30
0.0
 40
5.999999999999668
100
AcDbArc
 50
90.89476628410002
 51
145.4818921589
  0
ARC
  5
F2
330
1F
100
AcDbEntity
  8
0
100
AcDbCircle
 10
195.2133393902
 20
259.0900694604
 30
0.0
 40
45.00000000000219
100
AcDbArc
 50
29.6090655215
 51
89.1052337159
  0
ARC
  5
F3
330
1F
100
AcDbEntity
  8
0
100
AcDbCircle
 10
195.2133393902
 20
111.7915001599
 30
0.0
 40
45.0000000000022
100
AcDbArc
 50
270.8947662841001
 51
330.3909344785
  0
ARC
  5
F4
330
1F
100
AcDbEntity
  8
0
100
AcDbCircle
 10
262.9204083915
 20
297.5672091942
 30
0.0
 40
32.87642438411503
100
AcDbArc
 50
209.6090655215
 51
270.0
  0
ARC
  5
F5
330
1F
100
AcDbEntity
  8
0
100
AcDbCircle
 10
262.9204083915
 20
73.314360426
 30
0.0
 40
32.87642438411502
100
AcDbArc
 50
90.0
 51
150.3909344785
  0
LINE
  5
F6
330
1F
100
AcDbEntity
  8
0
100
AcDbLine
 10
286.2548959607
 20
264.6907848101
 30
0.0
 11
262.9204083915
 21
264.6907848101
 31
0.0
  0
LINE
  5
F7
330
1F
100
AcDbEntity
  8
0
100
AcDbLine
 10
262.9204083915
 20
106.1907848101
 30
0.0
 11
286.2548959607
 21
106.1907848101
 31
0.0
  0
LINE
  5
F8
330
1F
100
AcDbEntity
  8
0
100
AcDbLine
 10
211.0942302636
 20
227.4407848101
 30
0.0
 11
211.0942302636
 21
227.9407848101
 31
0.0
  0
LINE
  5
F9
330
1F
100
AcDbEntity
  8
0
100
AcDbLine
 10
186.0942302636
 20
227.9407848101
 30
0.0
 11
186.0942302636
 21
227.4407848101
 31
0.0
  0
LINE
  5
FA
330
1F
100
AcDbEntity
  8
0
100
AcDbLine
 10
136.5942302636
 20
197.9407848101
 30
0.0
 11
136.0942302636
 21
197.9407848101
 31
0.0
  0
LINE
  5
FB
330
1F
100
AcDbEntity
  8
0
100
AcDbLine
 10
136.0942302636
 20
172.9407848101
 30
0.0
 11
136.5942302636
 21
172.9407848101
 31
0.0
  0
LINE
  5
FC
330
1F
100
AcDbEntity
  8
0
100
AcDbLine
 10
146.0942302636
 20
143.4407848101
 30
0.0
 11
146.0942302636
 21
142.9407848101
 31
0.0
  0
LINE
  5
FD
330
1F
100
AcDbEntity
  8
0
100
AcDbLine
 10
171.0942302636
 20
142.9407848101
 30
0.0
 11
171.0942302636
 21
143.4407848101
 31
0.0
  0
LINE
  5
FE
330
1F
100
AcDbEntity
  8
0
100
AcDbLine
 10
171.0942302636
 20
227.4407848101
 30
0.0
 11
171.0942302636
 21
227.9407848101
 31
0.0
  0
LINE
  5
FF
330
1F
100
AcDbEntity
  8
0
100
AcDbLine
 10
146.0942302636
 20
227.9407848101
 30
0.0
 11
146.0942302636
 21
227.4407848101
 31
0.0
  0
LINE
  5
100
330
1F
100
AcDbEntity
  8
0
100
AcDbLine
 10
186.0942302636
 20
143.4407848101
 30
0.0
 11
186.0942302636
 21
142.9407848101
 31
0.0
  0
LINE
  5
101
330
1F
100
AcDbEntity
  8
0
100
AcDbLine
 10
211.0942302636
 20
142.9407848101
 30
0.0
 11
211.0942302636
 21
143.4407848101
 31
0.0
  0
LINE
  5
102
330
1F
100
AcDbEntity
  8
0
100
AcDbLine
 10
220.5942302636
 20
192.9407848101
 30
0.0
 11
221.0942302636
 21
192.9407848101
 31
0.0
  0
LINE
  5
103
330
1F
100
AcDbEntity
  8
0
100
AcDbLine
 10
221.0942302636
 20
217.9407848101
 30
0.0
 11
220.5942302636
 21
217.9407848101
 31
0.0
  0
LINE
  5
104
330
1F
100
AcDbEntity
  8
0
100
AcDbLine
 10
220.5942302636
 20
152.9407848101
 30
0.0
 11
221.0942302636
 21
152.9407848101
 31
0.0
  0
LINE
  5
105
330
1F
100
AcDbEntity
  8
0
100
AcDbLine
 10
221.0942302636
 20
177.9407848101
 30
0.0
 11
220.5942302636
 21
177.9407848101
 31
0.0
  0
LINE
  5
106
330
1F
100
AcDbEntity
  8
0
100
AcDbLine
 10
136.0942302636
 20
195.9407848101
 30
0.0
 11
133.5942302636
 21
195.9407848101
 31
0.0
  0
LINE
  5
107
330
1F
100
AcDbEntity
  8
0
100
AcDbLine
 10
133.5942302636
 20
174.9407848101
 30
0.0
 11
136.0942302636
 21
174.9407848101
 31
0.0
  0
LINE
  5
108
330
1F
100
AcDbEntity
  8
0
100
AcDbLine
 10
169.0942302636
 20
227.9407848101
 30
0.0
 11
169.0942302636
 21
230.4407848101
 31
0.0
  0
LINE
  5
109
330
1F
100
AcDbEntity
  8
0
100
AcDbLine
 10
148.0942302636
 20
230.4407848101
 30
0.0
 11
148.0942302636
 21
227.9407848101
 31
0.0
  0
LINE
  5
10A
330
1F
100
AcDbEntity
  8
0
100
AcDbLine
 10
209.0942302636
 20
227.9407848101
 30
0.0
 11
209.0942302636
 21
230.4407848101
 31
0.0
  0
LINE
  5
10B
330
1F
100
AcDbEntity
  8
0
100
AcDbLine
 10
188.0942302636
 20
230.4407848101
 30
0.0
 11
188.0942302636
 21
227.9407848101
 31
0.0
  0
LINE
  5
10C
330
1F
100
AcDbEntity
  8
0
100
AcDbLine
 10
148.0942302636
 20
142.9407848101
 30
0.0
 11
148.0942302636
 21
140.4407848101
 31
0.0
  0
LINE
  5
10D
330
1F
100
AcDbEntity
  8
0
100
AcDbLine
 10
169.0942302636
 20
140.4407848101
 30
0.0
 11
169.0942302636
 21
142.9407848101
 31
0.0
  0
LINE
  5
10E
330
1F
100
AcDbEntity
  8
0
100
AcDbLine
 10
188.0942302636
 20
142.9407848101
 30
0.0
 11
188.0942302636
 21
140.4407848101
 31
0.0
  0
LINE
  5
10F
330
1F
100
AcDbEntity
  8
0
100
AcDbLine
 10
209.0942302636
 20
140.4407848101
 30
0.0
 11
209.0942302636
 21
142.9407848101
 31
0.0
  0
LINE
  5
110
330
1F
100
AcDbEntity
  8
0
100
AcDbLine
 10
221.0942302636
 20
194.9407848101
 30
0.0
 11
223.5942302636
 21
194.9407848101
 31
0.0
  0
LINE
  5
111
330
1F
100
AcDbEntity
  8
0
100
AcDbLine
 10
223.5942302636
 20
215.9407848101
 30
0.0
 11
221.0942302636
 21
215.9407848101
 31
0.0
  0
LINE
  5
112
330
1F
100
AcDbEntity
  8
0
100
AcDbLine
 10
221.0942302636
 20
154.9407848101
 30
0.0
 11
223.5942302636
 21
154.9407848101
 31
0.0
  0
LINE
  5
113
330
1F
100
AcDbEntity
  8
0
100
AcDbLine
 10
223.5942302636
 20
175.9407848101
 30
0.0
 11
221.0942302636
 21
175.9407848101
 31
0.0
  0
LINE
  5
114
330
1F
100
AcDbEntity
  8
0
100
AcDbLine
 10
133.5942302636
 20
193.4407848101
 30
0.0
 11
131.0942302636
 21
193.4407848101
 31
0.0
  0
LINE
  5
115
330
1F
100
AcDbEntity
  8
0
100
AcDbLine
 10
131.0942302636
 20
177.4407848101
 30
0.0
 11
133.5942302636
 21
177.4407848101
 31
0.0
  0
LINE
  5
116
330
1F
100
AcDbEntity
  8
0
100
AcDbLine
 10
166.5942302636
 20
230.4407848101
 30
0.0
 11
166.5942302636
 21
232.9407848101
 31
0.0
  0
LINE
  5
117
330
1F
100
AcDbEntity
  8
0
100
AcDbLine
 10
150.5942302636
 20
232.9407848101
 30
0.0
 11
150.5942302636
 21
230.4407848101
 31
0.0
  0
LINE
  5
118
330
1F
100
AcDbEntity
  8
0
100
AcDbLine
 10
206.5942302636
 20
230.4407848101
 30
0.0
 11
206.5942302636
 21
232.9407848101
 31
0.0
  0
LINE
  5
119
330
1F
100
AcDbEntity
  8
0
100
AcDbLine
 10
190.5942302636
 20
232.9407848101
 30
0.0
 11
190.5942302636
 21
230.4407848101
 31
0.0
  0
LINE
  5
11A
330
1F
100
AcDbEntity
  8
0
100
AcDbLine
 10
150.5942302636
 20
140.4407848101
 30
0.0
 11
150.5942302636
 21
137.9407848101
 31
0.0
  0
LINE
  5
11B
330
1F
100
AcDbEntity
  8
0
100
AcDbLine
 10
166.5942302636
 20
137.9407848101
 30
0.0
 11
166.5942302636
 21
140.4407848101
 31
0.0
  0
LINE
  5
11C
330
1F
100
AcDbEntity
  8
0
100
AcDbLine
 10
223.5942302636
 20
197.4407848101
 30
0.0
 11
226.0942302636
 21
197.4407848101
 31
0.0
  0
LINE
  5
11D
330
1F
100
AcDbEntity
  8
0
100
AcDbLine
 10
226.0942302636
 20
213.4407848101
 30
0.0
 11
223.5942302636
 21
213.4407848101
 31
0.0
  0
LINE
  5
11E
330
1F
100
AcDbEntity
  8
0
100
AcDbLine
 10
223.5942302636
 20
157.4407848101
 30
0.0
 11
226.0942302636
 21
157.4407848101
 31
0.0
  0
LINE
  5
11F
330
1F
100
AcDbEntity
  8
0
100
AcDbLine
 10
226.0942302636
 20
173.4407848101
 30
0.0
 11
223.5942302636
 21
173.4407848101
 31
0.0
  0
LINE
  5
120
330
1F
100
AcDbEntity
  8
0
100
AcDbLine
 10
190.5942302636
 20
140.4407848101
 30
0.0
 11
190.5942302636
 21
137.9407848101
 31
0.0
  0
LINE
  5
121
330
1F
100
AcDbEntity
  8
0
100
AcDbLine
 10
206.5942302636
 20
137.9407848101
 30
0.0
 11
206.5942302636
 21
140.4407848101
 31
0.0
  0
LINE
  5
122
330
1F
100
AcDbEntity
  8
0
100
AcDbLine
 10
131.0942302636
 20
190.4407848101
 30
0.0
 11
128.5942302636
 21
190.4407848101
 31
0.0
  0
LINE
  5
123
330
1F
100
AcDbEntity
  8
0
100
AcDbLine
 10
128.5942302636
 20
180.4407848101
 30
0.0
 11
131.0942302636
 21
180.4407848101
 31
0.0
  0
LINE
  5
124
330
1F
100
AcDbEntity
  8
0
100
AcDbLine
 10
153.5942302636
 20
137.9407848101
 30
0.0
 11
153.5942302636
 21
135.4407848101
 31
0.0
  0
LINE
  5
125
330
1F
100
AcDbEntity
  8
0
100
AcDbLine
 10
163.5942302636
 20
135.4407848101
 30
0.0
 11
163.5942302636
 21
137.9407848101
 31
0.0
  0
LINE
  5
126
330
1F
100
AcDbEntity
  8
0
100
AcDbLine
 10
163.5942302636
 20
232.9407848101
 30
0.0
 11
163.5942302636
 21
235.4407848101
 31
0.0
  0
LINE
  5
127
330
1F
100
AcDbEntity
  8
0
100
AcDbLine
 10
153.5942302636
 20
235.4407848101
 30
0.0
 11
153.5942302636
 21
232.9407848101
 31
0.0
  0
LINE
  5
128
330
1F
100
AcDbEntity
  8
0
100
AcDbLine
 10
203.5942302636
 20
232.9407848101
 30
0.0
 11
203.5942302636
 21
235.4407848101
 31
0.0
  0
LINE
  5
129
330
1F
100
AcDbEntity
  8
0
100
AcDbLine
 10
193.5942302636
 20
235.4407848101
 30
0.0
 11
193.5942302636
 21
232.9407848101
 31
0.0
  0
LINE
  5
12A
330
1F
100
AcDbEntity
  8
0
100
AcDbLine
 10
193.5942302636
 20
137.9407848101
 30
0.0
 11
193.5942302636
 21
135.4407848101
 31
0.0
  0
LINE
  5
12B
330
1F
100
AcDbEntity
  8
0
100
AcDbLine
 10
203.5942302636
 20
135.4407848101
 30
0.0
 11
203.5942302636
 21
137.9407848101
 31
0.0
  0
LINE
  5
12C
330
1F
100
AcDbEntity
  8
0
100
AcDbLine
 10
226.0942302636
 20
200.4407848101
 30
0.0
 11
228.5942302636
 21
200.4407848101
 31
0.0
  0
LINE
  5
12D
330
1F
100
AcDbEntity
  8
0
100
AcDbLine
 10
228.5942302636
 20
210.4407848101
 30
0.0
 11
226.0942302636
 21
210.4407848101
 31
0.0
  0
LINE
  5
12E
330
1F
100
AcDbEntity
  8
0
100
AcDbLine
 10
226.0942302636
 20
160.4407848101
 30
0.0
 11
228.5942302636
 21
160.4407848101
 31
0.0
  0
LINE
  5
12F
330
1F
100
AcDbEntity
  8
0
100
AcDbLine
 10
228.5942302636
 20
170.4407848101
 30
0.0
 11
226.0942302636
 21
170.4407848101
 31
0.0
  0
LINE
  5
130
330
1F
100
AcDbEntity
  8
0
100
AcDbLine
 10
87.5930897988
 20
185.4407848101
 30
0.0
 11
87.5930897988
 21
260.7008008707
 31
0.0
  0
LINE
  5
131
330
1F
100
AcDbEntity
  8
0
100
AcDbLine
 10
87.5930897988
 20
110.1807687495
 30
0.0
 11
87.5930897988
 21
185.4407848101
 31
0.0
  0
LINE
  5
132
330
1F
100
AcDbEntity
  8
0
100
AcDbLine
 10
174.7547563707
 20
143.4407848101
 30
0.0
 11
174.7547563707
 21
62.8977189416
 31
0.0
  0
LINE
  5
133
330
1F
100
AcDbEntity
  8
0
100
AcDbLine
 10
174.7547563707
 20
307.9838506787
 30
0.0
 11
174.7547563707
 21
227.4407848101
 31
0.0
  0
LINE
  5
134
330
1F
100
AcDbEntity
  8
0
100
AcDbLine
 10
286.2548959607
 20
185.4407848101
 30
0.0
 11
286.2548959607
 21
106.1907848101
 31
0.0
  0
LINE
  5
135
330
1F
100
AcDbEntity
  8
0
100
AcDbLine
 10
286.2548959607
 20
264.6907848101
 30
0.0
 11
286.2548959607
 21
185.4407848101
 31
0.0
  0
ARC
  5
136
330
1F
100
AcDbEntity
  8
0
100
AcDbCircle
 10
144.5942302636
 20
219.4407848101
 30
0.0
 40
6.0
100
AcDbArc
 50
90.0
 51
180.0
  0
LINE
  5
137
330
1F
100
AcDbEntity
  8
0
100
AcDbLine
 10
212.5942302636
 20
225.4407848101
 30
0.0
 11
144.5942302636
 21
225.4407848101
 31
0.0
  0
ARC
  5
138
330
1F
100
AcDbEntity
  8
0
100
AcDbCircle
 10
212.5942302636
 20
219.4407848101
 30
0.0
 40
6.0
100
AcDbArc
 50
0.0
 51
90.0
  0
LINE
  5
139
330
1F
100
AcDbEntity
  8
0
100
AcDbLine
 10
218.5942302636
 20
151.4407848101
 30
0.0
 11
218.5942302636
 21
219.4407848101
 31
0.0
  0
ARC
  5
13A
330
1F
100
AcDbEntity
  8
0
100
AcDbCircle
 10
212.5942302636
 20
151.4407848101
 30
0.0
 40
6.000000000000028
100
AcDbArc
 50
270.0
 51
0.0
  0
LINE
  5
13B
330
1F
100
AcDbEntity
  8
0
100
AcDbLine
 10
144.5942302636
 20
145.4407848101
 30
0.0
 11
212.5942302636
 21
145.4407848101
 31
0.0
  0
ARC
  5
13C
330
1F
100
AcDbEntity
  8
0
100
AcDbCircle
 10
144.5942302636
 20
151.4407848101
 30
0.0
 40
6.000000000000028
100
AcDbArc
 50
180.0
 51
270.0
  0
LINE
  5
13D
330
1F
100
AcDbEntity
  8
0
100
AcDbLine
 10
138.5942302636
 20
219.4407848101
 30
0.0
 11
138.5942302636
 21
151.4407848101
 31
0.0
  0
ARC
  5
13E
330
1F
100
AcDbEntity
  8
0
100
AcDbCircle
 10
142.5942302636
 20
221.4407848101
 30
0.0
 40
6.0
100
AcDbArc
 50
90.0
 51
180.0
  0
ARC
  5
13F
330
1F
100
AcDbEntity
  8
0
100
AcDbCircle
 10
214.5942302636
 20
221.4407848101
 30
0.0
 40
6.0
100
AcDbArc
 50
0.0
 51
90.0
  0
LINE
  5
140
330
1F
100
AcDbEntity
  8
0
100
AcDbLine
 10
220.5942302636
 20
221.4407848101
 30
0.0
 11
220.5942302636
 21
149.4407848101
 31
0.0
  0
ARC
  5
141
330
1F
100
AcDbEntity
  8
0
100
AcDbCircle
 10
214.5942302636
 20
149.4407848101
 30
0.0
 40
6.0
100
AcDbArc
 50
270.0
 51
0.0
  0
LINE
  5
142
330
1F
100
AcDbEntity
  8
0
100
AcDbLine
 10
214.5942302636
 20
143.4407848101
 30
0.0
 11
142.5942302636
 21
143.4407848101
 31
0.0
  0
ARC
  5
143
330
1F
100
AcDbEntity
  8
0
100
AcDbCircle
 10
142.5942302636
 20
149.4407848101
 30
0.0
 40
6.0
100
AcDbArc
 50
180.0
 51
270.0
  0
LINE
  5
144
330
1F
100
AcDbEntity
  8
0
100
AcDbLine
 10
136.5942302636
 20
149.4407848101
 30
0.0
 11
136.5942302636
 21
221.4407848101
 31
0.0
  0
LINE
  5
145
330
1F
100
AcDbEntity
  8
0
100
AcDbLine
 10
142.5942302636
 20
227.4407848101
 30
0.0
 11
214.5942302636
 21
227.4407848101
 31
0.0
  0
LINE
  5
146
330
1F
100
AcDbEntity
  8
0
100
AcDbLine
 10
186.0942302636
 20
227.9407848101
 30
0.0
 11
211.0942302636
 21
227.9407848101
 31
0.0
  0
LINE
  5
147
330
1F
100
AcDbEntity
  8
0
100
AcDbLine
 10
136.0942302636
 20
172.9407848101
 30
0.0
 11
136.0942302636
 21
197.9407848101
 31
0.0
  0
LINE
  5
148
330
1F
100
AcDbEntity
  8
0
100
AcDbLine
 10
146.0942302636
 20
142.9407848101
 30
0.0
 11
171.0942302636
 21
142.9407848101
 31
0.0
  0
LINE
  5
149
330
1F
100
AcDbEntity
  8
0
100
AcDbLine
 10
146.0942302636
 20
227.9407848101
 30
0.0
 11
171.0942302636
 21
227.9407848101
 31
0.0
  0
LINE
  5
14A
330
1F
100
AcDbEntity
  8
0
100
AcDbLine
 10
186.0942302636
 20
142.9407848101
 30
0.0
 11
211.0942302636
 21
142.9407848101
 31
0.0
  0
LINE
  5
14B
330
1F
100
AcDbEntity
  8
0
100
AcDbLine
 10
221.0942302636
 20
217.9407848101
 30
0.0
 11
221.0942302636
 21
192.9407848101
 31
0.0
  0
LINE
  5
14C
330
1F
100
AcDbEntity
  8
0
100
AcDbLine
 10
221.0942302636
 20
177.9407848101
 30
0.0
 11
221.0942302636
 21
152.9407848101
 31
0.0
  0
LINE
  5
14D
330
1F
100
AcDbEntity
  8
0
100
AcDbLine
 10
133.5942302636
 20
174.9407848101
 30
0.0
 11
133.5942302636
 21
195.9407848101
 31
0.0
  0
LINE
  5
14E
330
1F
100
AcDbEntity
  8
0
100
AcDbLine
 10
148.0942302636
 20
230.4407848101
 30
0.0
 11
169.0942302636
 21
230.4407848101
 31
0.0
  0
LINE
  5
14F
330
1F
100
AcDbEntity
  8
0
100
AcDbLine
 10
188.0942302636
 20
230.4407848101
 30
0.0
 11
209.0942302636
 21
230.4407848101
 31
0.0
  0
LINE
  5
150
330
1F
100
AcDbEntity
  8
0
100
AcDbLine
 10
148.0942302636
 20
140.4407848101
 30
0.0
 11
169.0942302636
 21
140.4407848101
 31
0.0
  0
LINE
  5
151
330
1F
100
AcDbEntity
  8
0
100
AcDbLine
 10
188.0942302636
 20
140.4407848101
 30
0.0
 11
209.0942302636
 21
140.4407848101
 31
0.0
  0
LINE
  5
152
330
1F
100
AcDbEntity
  8
0
100
AcDbLine
 10
223.5942302636
 20
215.9407848101
 30
0.0
 11
223.5942302636
 21
194.9407848101
 31
0.0
  0
LINE
  5
153
330
1F
100
AcDbEntity
  8
0
100
AcDbLine
 10
223.5942302636
 20
175.9407848101
 30
0.0
 11
223.5942302636
 21
154.9407848101
 31
0.0
  0
LINE
  5
154
330
1F
100
AcDbEntity
  8
0
100
AcDbLine
 10
131.0942302636
 20
177.4407848101
 30
0.0
 11
131.0942302636
 21
193.4407848101
 31
0.0
  0
LINE
  5
155
330
1F
100
AcDbEntity
  8
0
100
AcDbLine
 10
150.5942302636
 20
232.9407848101
 30
0.0
 11
166.5942302636
 21
232.9407848101
 31
0.0
  0
LINE
  5
156
330
1F
100
AcDbEntity
  8
0
100
AcDbLine
 10
190.5942302636
 20
232.9407848101
 30
0.0
 11
206.5942302636
 21
232.9407848101
 31
0.0
  0
LINE
  5
157
330
1F
100
AcDbEntity
  8
0
100
AcDbLine
 10
150.5942302636
 20
137.9407848101
 30
0.0
 11
166.5942302636
 21
137.9407848101
 31
0.0
  0
LINE
  5
158
330
1F
100
AcDbEntity
  8
0
100
AcDbLine
 10
226.0942302636
 20
213.4407848101
 30
0.0
 11
226.0942302636
 21
197.4407848101
 31
0.0
  0
LINE
  5
159
330
1F
100
AcDbEntity
  8
0
100
AcDbLine
 10
226.0942302636
 20
173.4407848101
 30
0.0
 11
226.0942302636
 21
157.4407848101
 31
0.0
  0
LINE
  5
15A
330
1F
100
AcDbEntity
  8
0
100
AcDbLine
 10
190.5942302636
 20
137.9407848101
 30
0.0
 11
206.5942302636
 21
137.9407848101
 31
0.0
  0
LINE
  5
15B
330
1F
100
AcDbEntity
  8
0
100
AcDbLine
 10
128.5942302636
 20
180.4407848101
 30
0.0
 11
128.5942302636
 21
190.4407848101
 31
0.0
  0
LINE
  5
15C
330
1F
100
AcDbEntity
  8
0
100
AcDbLine
 10
153.5942302636
 20
135.4407848101
 30
0.0
 11
163.5942302636
 21
135.4407848101
 31
0.0
  0
LINE
  5
15D
330
1F
100
AcDbEntity
  8
0
100
AcDbLine
 10
153.5942302636
 20
235.4407848101
 30
0.0
 11
163.5942302636
 21
235.4407848101
 31
0.0
  0
LINE
  5
15E
330
1F
100
AcDbEntity
  8
0
100
AcDbLine
 10
193.5942302636
 20
235.4407848101
 30
0.0
 11
203.5942302636
 21
235.4407848101
 31
0.0
  0
LINE
  5
15F
330
1F
100
AcDbEntity
  8
0
100
AcDbLine
 10
193.5942302636
 20
135.4407848101
 30
0.0
 11
203.5942302636
 21
135.4407848101
 31
0.0
  0
LINE
  5
160
330
1F
100
AcDbEntity
  8
0
100
AcDbLine
 10
228.5942302636
 20
210.4407848101
 30
0.0
 11
228.5942302636
 21
200.4407848101
 31
0.0
  0
LINE
  5
161
330
1F
100
AcDbEntity
  8
0
100
AcDbLine
 10
228.5942302636
 20
170.4407848101
 30
0.0
 11
228.5942302636
 21
160.4407848101
 31
0.0
  0
LINE
  5
16F
330
1F
100
AcDbEntity
  8
0
 62
     8
370
    18
100
AcDbLine
 10
108.0062191938
 20
106.1807687495
 30
0.0
 11
108.0062191938
 21
264.7008008707008
 31
0.0
  0
LINE
  5
17A
330
1F
100
AcDbEntity
  8
0
 62
     8
370
    18
100
AcDbLine
 10
262.9204083915
 20
264.690784810085
 30
0.0
 11
262.9204083915
 21
106.1907848101
 31
0.0
  0
LINE
  5
17C
330
1F
100
AcDbEntity
  8
0
100
AcDbLine
 10
626.316815175
 20
175.4407848101
 30
0.0
 11
627.9258690257
 21
175.4407848101
 31
0.0
  0
LINE
  5
17D
330
1F
100
AcDbEntity
  8
0
100
AcDbLine
 10
627.9258690257
 20
195.4407848101
 30
0.0
 11
626.316815175
 21
195.4407848101
 31
0.0
  0
LINE
  5
17E
330
1F
100
AcDbEntity
  8
0
100
AcDbLine
 10
656.4258690257
 20
225.4407848101
 30
0.0
 11
656.4258690257
 21
227.9407848101
 31
0.0
  0
LINE
  5
17F
330
1F
100
AcDbEntity
  8
0
100
AcDbLine
 10
631.4258690257
 20
227.9407848101
 30
0.0
 11
631.4258690257
 21
225.4407848101
 31
0.0
  0
LINE
  5
180
330
1F
100
AcDbEntity
  8
0
100
AcDbLine
 10
631.4258690257
 20
145.4407848101
 30
0.0
 11
631.4258690257
 21
142.9407848101
 31
0.0
  0
LINE
  5
181
330
1F
100
AcDbEntity
  8
0
100
AcDbLine
 10
656.4258690257
 20
142.9407848101
 30
0.0
 11
656.4258690257
 21
145.4407848101
 31
0.0
  0
LINE
  5
182
330
1F
100
AcDbEntity
  8
0
100
AcDbLine
 10
654.4258690257
 20
227.9407848101
 30
0.0
 11
654.4258690257
 21
230.4407848101
 31
0.0
  0
LINE
  5
183
330
1F
100
AcDbEntity
  8
0
100
AcDbLine
 10
633.4258690257
 20
230.4407848101
 30
0.0
 11
633.4258690257
 21
227.9407848101
 31
0.0
  0
LINE
  5
184
330
1F
100
AcDbEntity
  8
0
100
AcDbLine
 10
633.4258690257
 20
142.9407848101
 30
0.0
 11
633.4258690257
 21
140.4407848101
 31
0.0
  0
LINE
  5
185
330
1F
100
AcDbEntity
  8
0
100
AcDbLine
 10
654.4258690257
 20
140.4407848101
 30
0.0
 11
654.4258690257
 21
142.9407848101
 31
0.0
  0
LINE
  5
186
330
1F
100
AcDbEntity
  8
0
100
AcDbLine
 10
651.9258690257
 20
230.4407848101
 30
0.0
 11
651.9258690257
 21
232.9407848101
 31
0.0
  0
LINE
  5
187
330
1F
100
AcDbEntity
  8
0
100
AcDbLine
 10
635.9258690257
 20
232.9407848101
 30
0.0
 11
635.9258690257
 21
230.4407848101
 31
0.0
  0
LINE
  5
188
330
1F
100
AcDbEntity
  8
0
100
AcDbLine
 10
635.9258690257
 20
140.4407848101
 30
0.0
 11
635.9258690257
 21
137.9407848101
 31
0.0
  0
LINE
  5
189
330
1F
100
AcDbEntity
  8
0
100
AcDbLine
 10
651.9258690257
 20
137.9407848101
 30
0.0
 11
651.9258690257
 21
140.4407848101
 31
0.0
  0
LINE
  5
18A
330
1F
100
AcDbEntity
  8
0
100
AcDbLine
 10
648.9258690257
 20
232.9407848101
 30
0.0
 11
648.9258690257
 21
235.4407848101
 31
0.0
  0
LINE
  5
18B
330
1F
100
AcDbEntity
  8
0
100
AcDbLine
 10
638.9258690257
 20
235.4407848101
 30
0.0
 11
638.9258690257
 21
232.9407848101
 31
0.0
  0
LINE
  5
18C
330
1F
100
AcDbEntity
  8
0
100
AcDbLine
 10
638.9258690257
 20
137.9407848101
 30
0.0
 11
638.9258690257
 21
135.4407848101
 31
0.0
  0
LINE
  5
18D
330
1F
100
AcDbEntity
  8
0
100
AcDbLine
 10
648.9258690257
 20
135.4407848101
 30
0.0
 11
648.9258690257
 21
137.9407848101
 31
0.0
  0
LINE
  5
18E
330
1F
100
AcDbEntity
  8
0
100
AcDbLine
 10
385.8828031572
 20
210.9407848101
 30
0.0
 11
385.2828031572
 21
210.9407848101
 31
0.0
  0
ARC
  5
18F
330
1F
100
AcDbEntity
  8
0
100
AcDbCircle
 10
385.8828031572
 20
210.7407848101
 30
0.0
 40
0.1999999999999886
100
AcDbArc
 50
359.9999999999
 51
90.0
  0
ARC
  5
190
330
1F
100
AcDbEntity
  8
0
100
AcDbCircle
 10
385.8828031572
 20
200.1407848101
 30
0.0
 40
0.2000000000000002
100
AcDbArc
 50
290.3401113186
 51
0.0
  0
ARC
  5
191
330
1F
100
AcDbEntity
  8
0
100
AcDbCircle
 10
385.2828031572
 20
210.7407848101
 30
0.0
 40
0.1999999999999886
100
AcDbArc
 50
90.0
 51
180.0000000001
  0
ARC
  5
192
330
1F
100
AcDbEntity
  8
0
100
AcDbCircle
 10
392.0732845383
 20
205.8309223476
 30
0.0
 40
7.999999999999943
100
AcDbArc
 50
190.6930153618
 51
209.0955287963
  0
ARC
  5
193
330
1F
100
AcDbEntity
  8
0
100
AcDbCircle
 10
392.0732845383
 20
205.0506472727
 30
0.0
 40
7.999999999999972
100
AcDbArc
 50
150.9044712037
 51
169.9464538485
  0
LINE
  5
194
330
1F
100
AcDbEntity
  8
0
100
AcDbLine
 10
387.3182356806
 20
207.5407848101
 30
0.0
 11
387.1088959184
 21
207.5407848101
 31
0.0
  0
LINE
  5
195
330
1F
100
AcDbEntity
  8
0
100
AcDbLine
 10
386.0920854111
 20
207.5407848101
 30
0.0
 11
386.0828031572
 21
207.5407848101
 31
0.0
  0
LINE
  5
196
330
1F
100
AcDbEntity
  8
0
100
AcDbLine
 10
384.443625636
 20
204.6085933107
 30
0.0
 11
384.1836563275
 21
204.5812694354
 31
0.0
  0
LINE
  5
197
330
1F
100
AcDbEntity
  8
0
100
AcDbLine
 10
626.5980734721
 20
203.3407848101
 30
0.0
 11
626.8436167202
 21
203.3407848101
 31
0.0
  0
LINE
  5
198
330
1F
100
AcDbEntity
  8
0
100
AcDbLine
 10
627.8545495946
 20
203.3407848101
 30
0.0
 11
627.9258690257
 21
203.3407848101
 31
0.0
  0
LINE
  5
199
330
1F
100
AcDbEntity
  8
0
100
AcDbLine
 10
627.9258690257
 20
207.5407848101
 30
0.0
 11
627.1596526404
 21
207.5407848101
 31
0.0
  0
LINE
  5
19A
330
1F
100
AcDbEntity
  8
0
100
AcDbLine
 10
385.2828031572
 20
159.9407848101
 30
0.0
 11
385.8828031572
 21
159.9407848101
 31
0.0
  0
ARC
  5
19B
330
1F
100
AcDbEntity
  8
0
100
AcDbCircle
 10
385.8828031572
 20
160.1407848101
 30
0.0
 40
0.1999999999999886
100
AcDbArc
 50
270.0
 51
0.0000000001
  0
ARC
  5
19C
330
1F
100
AcDbEntity
  8
0
100
AcDbCircle
 10
385.2828031572
 20
160.1407848101
 30
0.0
 40
0.2000000000000171
100
AcDbArc
 50
179.9999999999
 51
270.0
  0
ARC
  5
19D
330
1F
100
AcDbEntity
  8
0
100
AcDbCircle
 10
392.0732845383
 20
165.8309223476
 30
0.0
 40
7.999999999999937
100
AcDbArc
 50
197.1464074982
 51
209.0955287963
  0
ARC
  5
19E
330
1F
100
AcDbEntity
  8
0
100
AcDbCircle
 10
392.0732845383
 20
165.0506472727
 30
0.0
 40
7.999999999999941
100
AcDbArc
 50
150.9044712037
 51
162.8547218318
  0
LINE
  5
19F
330
1F
100
AcDbEntity
  8
0
100
AcDbLine
 10
386.6161288857
 20
167.5407848101
 30
0.0
 11
386.4081213313
 21
167.5407848101
 31
0.0
  0
LINE
  5
1A0
330
1F
100
AcDbEntity
  8
0
100
AcDbLine
 10
386.0828031572
 20
163.3407848101
 30
0.0
 11
386.0920854111
 21
163.3407848101
 31
0.0
  0
LINE
  5
1A1
330
1F
100
AcDbEntity
  8
0
100
AcDbLine
 10
625.8959666772
 20
163.3407848101
 30
0.0
 11
626.142842133
 21
163.3407848101
 31
0.0
  0
LINE
  5
1A2
330
1F
100
AcDbEntity
  8
0
100
AcDbLine
 10
627.1596526404
 20
163.3407848101
 30
0.0
 11
627.9258690257
 21
163.3407848101
 31
0.0
  0
LINE
  5
1A3
330
1F
100
AcDbEntity
  8
0
100
AcDbLine
 10
627.9258690257
 20
167.5407848101
 30
0.0
 11
627.8545495946
 21
167.5407848101
 31
0.0
  0
CIRCLE
  5
1A4
330
1F
100
AcDbEntity
  8
0
100
AcDbCircle
 10
506.6071011789
 20
185.4407848101
 30
0.0
 40
79.2600160606134
  0
CIRCLE
  5
1A5
330
1F
100
AcDbEntity
  8
0
100
AcDbCircle
 10
506.6071011789
 20
185.4407848101
 30
0.0
 40
62.00049515546863
  0
CIRCLE
  5
1A6
330
1F
100
AcDbEntity
  8
0
100
AcDbCircle
 10
506.6071011789
 20
185.4407848101
 30
0.0
 40
62.0000000000029
  0
LINE
  5
1A8
330
1F
100
AcDbEntity
  8
0
100
AcDbLine
 10
626.2844985865
 20
195.8203885968
 30
0.0
 11
626.560604898
 21
195.4407848101
 31
0.0
  0
SPLINE
  5
1A9
330
1F
100
AcDbEntity
  8
0
100
AcDbSpline
210
0.0
220
0.0
230
1.0
 70
     8
 71
     3
 72
     9
 73
     5
 74
     0
 42
0.000000001
 43
0.00000001
 40
0.0
 40
0.0
 40
0.0
 40
0.0
 40
0.1780972136602944
 40
1.0
 40
1.0
 40
1.0
 40
1.0
 10
626.5573496167461
 20
175.4407848101264
 30
0.0
 10
626.5199305782592
 20
175.4076444916579
 30
0.0
 10
626.3098260083003
 20
175.2215645536988
 30
0.0
 10
626.2959243764406
 20
175.1335337699378
 30
0.0
 10
626.2844985864805
 20
175.0611810234809
 30
0.0
  0
LINE
  5
1AA
330
1F
100
AcDbEntity
  8
0
100
AcDbLine
 10
626.2844985865
 20
175.0611810235
 30
0.0
 11
626.2753086937
 21
174.9548839773
 31
0.0
  0
SPLINE
  5
1AB
330
1F
100
AcDbEntity
  8
0
100
AcDbSpline
210
0.0
220
0.0
230
1.0
 70
     8
 71
     3
 72
     9
 73
     5
 74
     0
 42
0.000000001
 43
0.00000001
 40
0.0
 40
0.0
 40
0.0
 40
0.0
 40
0.4980227645283417
 40
1.0
 40
1.0
 40
1.0
 40
1.0
 10
626.2773081936768
 20
195.9034185517802
 30
0.0
 10
626.2763722839829
 20
195.9139598222371
 30
0.0
 10
626.2744930331523
 20
195.9351260644409
 30
0.0
 10
626.2811546210191
 20
195.8587351145921
 30
0.0
 10
626.2844985864804
 20
195.820388596772
 30
0.0
  0
ARC
  5
1AE
330
1F
100
AcDbEntity
  8
0
100
AcDbCircle
 10
506.6258690257
 20
185.4407848101
 30
0.0
 40
122.5430658685651
100
AcDbArc
 50
8.167857183800002
 51
351.8321428162
  0
CIRCLE
  5
1AF
330
1F
100
AcDbEntity
  8
0
100
AcDbCircle
 10
643.9258690257
 20
185.4407848101
 30
0.0
 40
5.000000000000028
  0
CIRCLE
  5
1B0
330
1F
100
AcDbEntity
  8
0
100
AcDbCircle
 10
643.9258690257
 20
185.4407848101
 30
0.0
 40
8.000000000000028
  0
CIRCLE
  5
1B1
330
1F
100
AcDbEntity
  8
0
100
AcDbCircle
 10
643.9258690257
 20
185.4407848101
 30
0.0
 40
10.50000000000003
  0
CIRCLE
  5
1B2
330
1F
100
AcDbEntity
  8
0
100
AcDbCircle
 10
643.9258690257
 20
185.4407848101
 30
0.0
 40
12.50000000000003
  0
LINE
  5
1B3
330
1F
100
AcDbEntity
  8
0
100
AcDbLine
 10
668.8258690257
 20
227.4407848101
 30
0.0
 11
668.8258690257
 21
221.4407848101
 31
0.0
  0
LINE
  5
1B4
330
1F
100
AcDbEntity
  8
0
100
AcDbLine
 10
667.4258690257
 20
221.4407848101
 30
0.0
 11
667.4258690257
 21
226.0407848101
 31
0.0
  0
LINE
  5
1B5
330
1F
100
AcDbEntity
  8
0
100
AcDbLine
 10
668.8258690257
 20
227.4407848101
 30
0.0
 11
667.4258690257
 21
226.0407848101
 31
0.0
  0
LINE
  5
1B6
330
1F
100
AcDbEntity
  8
0
100
AcDbLine
 10
668.8258690257
 20
227.4407848101
 30
0.0
 11
669.9258690257
 21
227.4407848101
 31
0.0
  0
LINE
  5
1B7
330
1F
100
AcDbEntity
  8
0
100
AcDbLine
 10
669.9258690257
 20
227.4407848101
 30
0.0
 11
669.9258690257
 21
221.4407848101
 31
0.0
  0
LINE
  5
1B8
330
1F
100
AcDbEntity
  8
0
100
AcDbLine
 10
668.8258690257
 20
221.4407848101
 30
0.0
 11
668.8258690257
 21
149.4407848101
 31
0.0
  0
LINE
  5
1B9
330
1F
100
AcDbEntity
  8
0
100
AcDbLine
 10
667.4258690257
 20
149.4407848101
 30
0.0
 11
667.4258690257
 21
221.4407848101
 31
0.0
  0
LINE
  5
1BA
330
1F
100
AcDbEntity
  8
0
100
AcDbLine
 10
669.9258690257
 20
149.4407848101
 30
0.0
 11
669.9258690257
 21
221.4407848101
 31
0.0
  0
LINE
  5
1BB
330
1F
100
AcDbEntity
  8
0
100
AcDbLine
 10
668.8258690257
 20
149.4407848101
 30
0.0
 11
668.8258690257
 21
143.4407848101
 31
0.0
  0
LINE
  5
1BC
330
1F
100
AcDbEntity
  8
0
100
AcDbLine
 10
668.8258690257
 20
143.4407848101
 30
0.0
 11
667.4258690257
 21
144.8407848101
 31
0.0
  0
LINE
  5
1BD
330
1F
100
AcDbEntity
  8
0
100
AcDbLine
 10
667.4258690257
 20
144.8407848101
 30
0.0
 11
667.4258690257
 21
149.4407848101
 31
0.0
  0
LINE
  5
1BE
330
1F
100
AcDbEntity
  8
0
100
AcDbLine
 10
669.9258690257
 20
143.4407848101
 30
0.0
 11
668.8258690257
 21
143.4407848101
 31
0.0
  0
LINE
  5
1BF
330
1F
100
AcDbEntity
  8
0
100
AcDbLine
 10
669.9258690257
 20
149.4407848101
 30
0.0
 11
669.9258690257
 21
143.4407848101
 31
0.0
  0
LINE
  5
1C0
330
1F
100
AcDbEntity
  8
0
100
AcDbLine
 10
627.9258690257
 20
225.4407848101
 30
0.0
 11
667.4258690257
 21
225.4407848101
 31
0.0
  0
LINE
  5
1C1
330
1F
100
AcDbEntity
  8
0
100
AcDbLine
 10
627.9258690257
 20
219.4407848101
 30
0.0
 11
627.9258690257
 21
225.4407848101
 31
0.0
  0
LINE
  5
1C2
330
1F
100
AcDbEntity
  8
0
100
AcDbLine
 10
627.9258690257
 20
219.4407848101
 30
0.0
 11
627.9258690257
 21
151.4407848101
 31
0.0
  0
LINE
  5
1C3
330
1F
100
AcDbEntity
  8
0
100
AcDbLine
 10
669.9258690257
 20
225.4407848101
 30
0.0
 11
672.9258690257
 21
225.4407848101
 31
0.0
  0
LINE
  5
1C4
330
1F
100
AcDbEntity
  8
0
100
AcDbLine
 10
672.9258690257
 20
225.4407848101
 30
0.0
 11
672.9258690257
 21
219.4407848101
 31
0.0
  0
LINE
  5
1C5
330
1F
100
AcDbEntity
  8
0
100
AcDbLine
 10
672.9258690257
 20
219.4407848101
 30
0.0
 11
672.9258690257
 21
151.4407848101
 31
0.0
  0
LINE
  5
1C6
330
1F
100
AcDbEntity
  8
0
100
AcDbLine
 10
667.4258690257
 20
145.4407848101
 30
0.0
 11
627.9258690257
 21
145.4407848101
 31
0.0
  0
LINE
  5
1C7
330
1F
100
AcDbEntity
  8
0
100
AcDbLine
 10
627.9258690257
 20
145.4407848101
 30
0.0
 11
627.9258690257
 21
151.4407848101
 31
0.0
  0
LINE
  5
1C8
330
1F
100
AcDbEntity
  8
0
100
AcDbLine
 10
672.9258690257
 20
145.4407848101
 30
0.0
 11
669.9258690257
 21
145.4407848101
 31
0.0
  0
LINE
  5
1C9
330
1F
100
AcDbEntity
  8
0
100
AcDbLine
 10
672.9258690257
 20
151.4407848101
 30
0.0
 11
672.9258690257
 21
145.4407848101
 31
0.0
  0
LINE
  5
1CA
330
1F
100
AcDbEntity
  8
0
100
AcDbLine
 10
643.9258690257
 20
227.9407848101
 30
0.0
 11
656.4258690257
 21
227.9407848101
 31
0.0
  0
LINE
  5
1CB
330
1F
100
AcDbEntity
  8
0
100
AcDbLine
 10
631.4258690257
 20
227.9407848101
 30
0.0
 11
643.9258690257
 21
227.9407848101
 31
0.0
  0
LINE
  5
1CC
330
1F
100
AcDbEntity
  8
0
100
AcDbLine
 10
643.9258690257
 20
142.9407848101
 30
0.0
 11
656.4258690257
 21
142.9407848101
 31
0.0
  0
LINE
  5
1CD
330
1F
100
AcDbEntity
  8
0
100
AcDbLine
 10
631.4258690257
 20
142.9407848101
 30
0.0
 11
643.9258690257
 21
142.9407848101
 31
0.0
  0
LINE
  5
1CE
330
1F
100
AcDbEntity
  8
0
100
AcDbLine
 10
643.9258690257
 20
230.4407848101
 30
0.0
 11
654.4258690257
 21
230.4407848101
 31
0.0
  0
LINE
  5
1CF
330
1F
100
AcDbEntity
  8
0
100
AcDbLine
 10
633.4258690257
 20
230.4407848101
 30
0.0
 11
643.9258690257
 21
230.4407848101
 31
0.0
  0
LINE
  5
1D0
330
1F
100
AcDbEntity
  8
0
100
AcDbLine
 10
643.9258690257
 20
140.4407848101
 30
0.0
 11
654.4258690257
 21
140.4407848101
 31
0.0
  0
LINE
  5
1D1
330
1F
100
AcDbEntity
  8
0
100
AcDbLine
 10
633.4258690257
 20
140.4407848101
 30
0.0
 11
643.9258690257
 21
140.4407848101
 31
0.0
  0
LINE
  5
1D2
330
1F
100
AcDbEntity
  8
0
100
AcDbLine
 10
643.9258690257
 20
232.9407848101
 30
0.0
 11
651.9258690257
 21
232.9407848101
 31
0.0
  0
LINE
  5
1D3
330
1F
100
AcDbEntity
  8
0
100
AcDbLine
 10
635.9258690257
 20
232.9407848101
 30
0.0
 11
643.9258690257
 21
232.9407848101
 31
0.0
  0
LINE
  5
1D4
330
1F
100
AcDbEntity
  8
0
100
AcDbLine
 10
643.9258690257
 20
137.9407848101
 30
0.0
 11
651.9258690257
 21
137.9407848101
 31
0.0
  0
LINE
  5
1D5
330
1F
100
AcDbEntity
  8
0
100
AcDbLine
 10
635.9258690257
 20
137.9407848101
 30
0.0
 11
643.9258690257
 21
137.9407848101
 31
0.0
  0
LINE
  5
1D6
330
1F
100
AcDbEntity
  8
0
100
AcDbLine
 10
643.9258690257
 20
235.4407848101
 30
0.0
 11
648.9258690257
 21
235.4407848101
 31
0.0
  0
LINE
  5
1D7
330
1F
100
AcDbEntity
  8
0
100
AcDbLine
 10
638.9258690257
 20
235.4407848101
 30
0.0
 11
643.9258690257
 21
235.4407848101
 31
0.0
  0
LINE
  5
1D8
330
1F
100
AcDbEntity
  8
0
100
AcDbLine
 10
643.9258690257
 20
135.4407848101
 30
0.0
 11
648.9258690257
 21
135.4407848101
 31
0.0
  0
LINE
  5
1D9
330
1F
100
AcDbEntity
  8
0
100
AcDbLine
 10
638.9258690257
 20
135.4407848101
 30
0.0
 11
643.9258690257
 21
135.4407848101
 31
0.0
  0
LINE
  5
1DA
330
1F
100
AcDbEntity
  8
0
100
AcDbLine
 10
386.0828031572
 20
210.0001638086
 30
0.0
 11
386.0828031572
 21
207.5407848101
 31
0.0
  0
LINE
  5
1DB
330
1F
100
AcDbEntity
  8
0
100
AcDbLine
 10
386.0828031572
 20
200.9999021288
 30
0.0
 11
386.0828031572
 21
200.1407848101
 31
0.0
  0
LINE
  5
1DC
330
1F
100
AcDbEntity
  8
0
100
AcDbLine
 10
386.0828031572
 20
210.7407848101
 30
0.0
 11
386.0828031572
 21
210.0001638086
 31
0.0
  0
LINE
  5
1DD
330
1F
100
AcDbEntity
  8
0
100
AcDbLine
 10
385.0828031572
 20
210.0001638086
 30
0.0
 11
385.0828031572
 21
201.0640409284
 31
0.0
  0
LINE
  5
1DE
330
1F
100
AcDbEntity
  8
0
100
AcDbLine
 10
385.0828031572
 20
210.7407848101
 30
0.0
 11
385.0828031572
 21
210.0001638086
 31
0.0
  0
SPLINE
  5
1DF
330
1F
100
AcDbEntity
  8
0
100
AcDbSpline
210
0.0
220
0.0
230
1.0
 70
     8
 71
     3
 72
    10
 73
     6
 74
     0
 42
0.000000001
 43
0.00000001
 40
0.0
 40
0.0
 40
0.0
 40
0.0
 40
0.3371189905347861
 40
0.6748833620822764
 40
1.0
 40
1.0
 40
1.0
 40
1.0
 10
384.215550116578
 20
204.8283386252222
 30
0.0
 10
384.2066279762976
 20
204.8813140662141
 30
0.0
 10
384.1887666151804
 20
204.9873663644476
 30
0.0
 10
384.1763457254997
 20
205.1665804314
 30
0.0
 10
384.1802639231551
 20
205.2736064147265
 30
0.0
 10
384.1821856424837
 20
205.3260983814175
 30
0.0
  0
LINE
  5
1E0
330
1F
100
AcDbEntity
  8
0
100
AcDbLine
 10
384.2798983297
 20
204.5913848774
 30
0.0
 11
384.2155501166
 21
204.8283386252
 31
0.0
  0
SPLINE
  5
1E1
330
1F
100
AcDbEntity
  8
0
100
AcDbSpline
210
0.0
220
0.0
230
1.0
 70
     8
 71
     3
 72
    12
 73
     8
 74
     0
 42
0.000000001
 43
0.00000001
 40
0.0
 40
0.0
 40
0.0
 40
0.0
 40
0.2174770912066968
 40
0.4353705208258355
 40
0.6490388720033519
 40
0.8610609605882179
 40
1.0
 40
1.0
 40
1.0
 40
1.0
 10
384.215550116578
 20
204.5128020146421
 30
0.0
 10
384.2065725509674
 20
204.5365725518742
 30
0.0
 10
384.1886002330834
 20
204.5841591326844
 30
0.0
 10
384.1769316043041
 20
204.5845429934035
 30
0.0
 10
384.1799157516907
 20
204.5303202701423
 30
0.0
 10
384.1947246635507
 20
204.4389241555731
 30
0.0
 10
384.2096438756113
 20
204.3628335041516
 30
0.0
 10
384.2155501165797
 20
204.3327106182438
 30
0.0
  0
LINE
  5
1E2
330
1F
100
AcDbEntity
  8
0
100
AcDbLine
 10
384.443625636
 20
204.0429043715
 30
0.0
 11
384.2155501166
 21
204.5128020146
 31
0.0
  0
LINE
  5
1E3
330
1F
100
AcDbEntity
  8
0
100
AcDbLine
 10
384.443625636
 20
204.8379155955
 30
0.0
 11
384.443625636
 21
204.0429043715
 31
0.0
  0
LINE
  5
1E4
330
1F
100
AcDbEntity
  8
0
100
AcDbLine
 10
384.2155501166
 20
205.3490570422
 30
0.0
 11
384.443625636
 21
204.8379155955
 31
0.0
  0
SPLINE
  5
1E5
330
1F
100
AcDbEntity
  8
0
100
AcDbSpline
210
0.0
220
0.0
230
1.0
 70
     8
 71
     3
 72
    12
 73
     8
 74
     0
 42
0.000000001
 43
0.00000001
 40
0.0
 40
0.0
 40
0.0
 40
0.0
 40
0.2174770912063663
 40
0.4353705208256903
 40
0.649038872002926
 40
0.8610609605877992
 40
1.0
 40
1.0
 40
1.0
 40
1.0
 10
384.2155501165781
 20
206.0532309950308
 30
0.0
 10
384.2065725509672
 20
206.0001620435443
 30
0.0
 10
384.1886002330829
 20
205.8939225453048
 30
0.0
 10
384.1769316043046
 20
205.7150125460815
 30
0.0
 10
384.1799157516907
 20
205.5489022629027
 30
0.0
 10
384.1947246635503
 20
205.4241605416412
 30
0.0
 10
384.2096438756114
 20
205.3703569085305
 30
0.0
 10
384.2155501165801
 20
205.3490570422349
 30
0.0
  0
LINE
  5
1E6
330
1F
100
AcDbEntity
  8
0
100
AcDbLine
 10
384.443625636
 20
206.8930888007
 30
0.0
 11
384.2155501166
 21
206.053230995
 31
0.0
  0
LINE
  5
1E7
330
1F
100
AcDbEntity
  8
0
100
AcDbLine
 10
384.443625636
 20
207.3642726088
 30
0.0
 11
384.443625636
 21
206.8930888007
 31
0.0
  0
LINE
  5
1E8
330
1F
100
AcDbEntity
  8
0
100
AcDbLine
 10
384.2155501166
 20
206.548859002
 30
0.0
 11
384.443625636
 21
207.3642726088
 31
0.0
  0
SPLINE
  5
1E9
330
1F
100
AcDbEntity
  8
0
100
AcDbSpline
210
0.0
220
0.0
230
1.0
 70
     8
 71
     3
 72
    11
 73
     7
 74
     0
 42
0.000000001
 43
0.00000001
 40
0.0
 40
0.0
 40
0.0
 40
0.0
 40
0.1424353927327714
 40
0.4669569106866716
 40
0.788978069403402
 40
1.0
 40
1.0
 40
1.0
 40
1.0
 10
384.1844245587952
 20
206.3076094174538
 30
0.0
 10
384.182447418169
 20
206.3060726356217
 30
0.0
 10
384.1759656058816
 20
206.3010344854615
 30
0.0
 10
384.1804579812865
 20
206.3535177647993
 30
0.0
 10
384.1946422758064
 20
206.4423007959757
 30
0.0
 10
384.209620509882
 20
206.5186383656988
 30
0.0
 10
384.215550116578
 20
206.5488590020094
 30
0.0
  0
LINE
  5
1EA
330
1F
100
AcDbEntity
  8
0
100
AcDbLine
 10
386.0828031572
 20
163.3407848101
 30
0.0
 11
386.0828031572
 21
160.1407848101
 31
0.0
  0
LINE
  5
1EB
330
1F
100
AcDbEntity
  8
0
100
AcDbLine
 10
385.0828031572
 20
169.8175286919
 30
0.0
 11
385.0828031572
 21
160.1407848101
 31
0.0
  0
LINE
  5
1EC
330
1F
100
AcDbEntity
  8
0
100
AcDbLine
 10
384.2155501166
 20
164.4407848101
 30
0.0
 11
384.443625636
 21
163.4787087808
 31
0.0
  0
SPLINE
  5
1ED
330
1F
100
AcDbEntity
  8
0
100
AcDbSpline
210
0.0
220
0.0
230
1.0
 70
     8
 71
     3
 72
    12
 73
     8
 74
     0
 42
0.000000001
 43
0.00000001
 40
0.0
 40
0.0
 40
0.0
 40
0.0
 40
0.2174770912066959
 40
0.4353705208258347
 40
0.6490388720033518
 40
0.8610609605882166
 40
0.9999999999999999
 40
0.9999999999999999
 40
0.9999999999999999
 40
0.9999999999999999
 10
384.215550116578
 20
164.9547370777802
 30
0.0
 10
384.2065725509673
 20
164.9481284394086
 30
0.0
 10
384.1886002330834
 20
164.9348985110801
 30
0.0
 10
384.1769316043041
 20
164.8440105231238
 30
0.0
 10
384.1799157516907
 20
164.7126726677747
 30
0.0
 10
384.1947246635506
 20
164.5704480036049
 30
0.0
 10
384.2096438756113
 20
164.4775581789626
 30
0.0
 10
384.2155501165797
 20
164.4407848101266
 30
0.0
  0
LINE
  5
1EE
330
1F
100
AcDbEntity
  8
0
100
AcDbLine
 10
384.443625636
 20
164.9787087808
 30
0.0
 11
384.2155501166
 21
164.9547370778
 31
0.0
  0
LINE
  5
1EF
330
1F
100
AcDbEntity
  8
0
100
AcDbLine
 10
384.443625636
 20
165.9028608394
 30
0.0
 11
384.443625636
 21
164.9787087808
 31
0.0
  0
LINE
  5
1F0
330
1F
100
AcDbEntity
  8
0
100
AcDbLine
 10
384.2155501166
 20
165.9268325425
 30
0.0
 11
384.443625636
 21
165.9028608394
 31
0.0
  0
SPLINE
  5
1F1
330
1F
100
AcDbEntity
  8
0
100
AcDbSpline
210
0.0
220
0.0
230
1.0
 70
     8
 71
     3
 72
    12
 73
     8
 74
     0
 42
0.000000001
 43
0.00000001
 40
0.0
 40
0.0
 40
0.0
 40
0.0
 40
0.2174770912063657
 40
0.4353705208256897
 40
0.6490388720029245
 40
0.8610609605877977
 40
1.0
 40
1.0
 40
1.0
 40
1.0
 10
384.2155501165781
 20
166.4407848101265
 30
0.0
 10
384.2065725509672
 20
166.3830121699666
 30
0.0
 10
384.1886002330829
 20
166.2673562896328
 30
0.0
 10
384.1769316043046
 20
166.1132514265803
 30
0.0
 10
384.1799157516907
 20
165.9979991049207
 30
0.0
 10
384.1947246635503
 20
165.9372875600269
 30
0.0
 10
384.2096438756114
 20
165.9297976569852
 30
0.0
 10
384.2155501165801
 20
165.9268325424728
 30
0.0
  0
LINE
  5
1F2
330
1F
100
AcDbEntity
  8
0
100
AcDbLine
 10
384.443625636
 20
167.4028608394
 30
0.0
 11
384.2155501166
 21
166.4407848101
 31
0.0
  0
SPLINE
  5
1F9
330
1F
100
AcDbEntity
  8
0
  6
PHANTOM
 62
     8
370
    18
100
AcDbSpline
210
0.0
220
0.0
230
1.0
 70
     8
 71
     3
 72
     9
 73
     5
 74
     0
 42
0.000000001
 43
0.00000001
 40
0.0
 40
0.0
 40
0.0
 40
0.0
 40
0.468897357354093
 40
1.0
 40
1.0
 40
1.0
 40
1.0
 10
623.0901178068726
 20
214.2043306208181
 30
0.0
 10
623.1302067092548
 20
214.2087490078124
 30
0.0
 10
623.2157028242432
 20
214.2181719378525
 30
0.0
 10
623.3534547230172
 20
214.2371025518102
 30
0.0
 10
623.4266151204855
 20
214.2471566509101
 30
0.0
  0
LINE
  5
1FA
330
1F
100
AcDbEntity
  8
0
  6
PHANTOM
 62
     8
370
    18
100
AcDbLine
 10
668.8258690257
 20
221.4407848101
 30
0.0
 11
667.4258690257
 21
221.4407848101
 31
0.0
  0
LINE
  5
1FB
330
1F
100
AcDbEntity
  8
0
  6
PHANTOM
 62
     8
370
    18
100
AcDbLine
 10
669.9258690257
 20
221.4407848101
 30
0.0
 11
668.8258690257
 21
221.4407848101
 31
0.0
  0
LINE
  5
1FC
330
1F
100
AcDbEntity
  8
0
  6
PHANTOM
 62
     8
370
    18
100
AcDbLine
 10
668.8258690257
 20
149.4407848101
 30
0.0
 11
667.4258690257
 21
149.4407848101
 31
0.0
  0
LINE
  5
1FD
330
1F
100
AcDbEntity
  8
0
  6
PHANTOM
 62
     8
370
    18
100
AcDbLine
 10
668.8258690257
 20
149.4407848101
 30
0.0
 11
669.9258690257
 21
149.4407848101
 31
0.0
  0
LINE
  5
1FE
330
1F
100
AcDbEntity
  8
0
  6
PHANTOM
 62
     8
370
    18
100
AcDbLine
 10
667.4258690257
 20
219.4407848101
 30
0.0
 11
627.9258690257
 21
219.4407848101
 31
0.0
  0
LINE
  5
1FF
330
1F
100
AcDbEntity
  8
0
  6
PHANTOM
 62
     8
370
    18
100
AcDbLine
 10
627.9258690257
 20
151.4407848101
 30
0.0
 11
667.4258690257
 21
151.4407848101
 31
0.0
  0
LINE
  5
200
330
1F
100
AcDbEntity
  8
0
  6
PHANTOM
 62
     8
370
    18
100
AcDbLine
 10
672.9258690257
 20
219.4407848101
 30
0.0
 11
669.9258690257
 21
219.4407848101
 31
0.0
  0
LINE
  5
201
330
1F
100
AcDbEntity
  8
0
  6
PHANTOM
 62
     8
370
    18
100
AcDbLine
 10
669.9258690257
 20
151.4407848101
 30
0.0
 11
672.9258690257
 21
151.4407848101
 31
0.0
  0
LINE
  5
202
330
1F
100
AcDbEntity
  8
0
  6
PHANTOM
 62
     8
370
    18
100
AcDbLine
 10
385.8828031572
 20
210.1722158463
 30
0.0
 11
385.8828031572
 21
206.3672044066
 31
0.0
  0
LINE
  5
203
330
1F
100
AcDbEntity
  8
0
  6
PHANTOM
 62
     8
370
    18
100
AcDbLine
 10
385.8828031572
 20
210.9407848101
 30
0.0
 11
385.8828031572
 21
210.1722158463
 31
0.0
  0
LINE
  5
204
330
1F
100
AcDbEntity
  8
0
  6
PHANTOM
 62
     8
370
    18
100
AcDbLine
 10
385.2828031572
 20
210.1722158463
 30
0.0
 11
385.2828031572
 21
202.5481913373
 31
0.0
  0
LINE
  5
205
330
1F
100
AcDbEntity
  8
0
  6
PHANTOM
 62
     8
370
    18
100
AcDbLine
 10
385.2828031572
 20
210.9407848101
 30
0.0
 11
385.2828031572
 21
210.1722158463
 31
0.0
  0
LINE
  5
206
330
1F
100
AcDbEntity
  8
0
  6
PHANTOM
 62
     8
370
    18
100
AcDbLine
 10
384.443625636
 20
204.5334239164
 30
0.0
 11
384.2155501166
 21
204.5128020146
 31
0.0
  0
LINE
  5
207
330
1F
100
AcDbEntity
  8
0
  6
PHANTOM
 62
     8
370
    18
100
AcDbLine
 10
384.3482144529
 20
206.5417497923
 30
0.0
 11
384.2155501166
 21
206.548859002
 31
0.0
  0
LINE
  5
208
330
1F
100
AcDbEntity
  8
0
  6
PHANTOM
 62
     8
370
    18
100
AcDbLine
 10
384.4371420036
 20
204.8164639704
 30
0.0
 11
384.2155501166
 21
204.8283386252
 31
0.0
  0
LINE
  5
209
330
1F
100
AcDbEntity
  8
0
  6
PHANTOM
 62
     8
370
    18
100
AcDbLine
 10
385.8828031572
 20
164.5143652137
 30
0.0
 11
385.8828031572
 21
159.9407848101
 31
0.0
  0
LINE
  5
20A
330
1F
100
AcDbEntity
  8
0
  6
PHANTOM
 62
     8
370
    18
100
AcDbLine
 10
385.2828031572
 20
168.333378283
 30
0.0
 11
385.2828031572
 21
159.9407848101
 31
0.0
  0
LINE
  5
20B
330
1F
100
AcDbEntity
  8
0
100
AcDbLine
 10
-273.9230713076
 20
145.4407848101
 30
0.0
 11
-273.9230713076
 21
142.9407848101
 31
0.0
  0
LINE
  5
20C
330
1F
100
AcDbEntity
  8
0
100
AcDbLine
 10
-248.9230713076
 20
142.9407848101
 30
0.0
 11
-248.9230713076
 21
145.4407848101
 31
0.0
  0
LINE
  5
20D
330
1F
100
AcDbEntity
  8
0
100
AcDbLine
 10
-248.9230713076
 20
225.4407848101
 30
0.0
 11
-248.9230713076
 21
227.9407848101
 31
0.0
  0
LINE
  5
20E
330
1F
100
AcDbEntity
  8
0
100
AcDbLine
 10
-273.9230713076
 20
227.9407848101
 30
0.0
 11
-273.9230713076
 21
225.4407848101
 31
0.0
  0
LINE
  5
20F
330
1F
100
AcDbEntity
  8
0
100
AcDbLine
 10
-271.9230713076
 20
142.9407848101
 30
0.0
 11
-271.9230713076
 21
140.4407848101
 31
0.0
  0
LINE
  5
210
330
1F
100
AcDbEntity
  8
0
100
AcDbLine
 10
-250.9230713076
 20
140.4407848101
 30
0.0
 11
-250.9230713076
 21
142.9407848101
 31
0.0
  0
LINE
  5
211
330
1F
100
AcDbEntity
  8
0
100
AcDbLine
 10
-250.9230713076
 20
227.9407848101
 30
0.0
 11
-250.9230713076
 21
230.4407848101
 31
0.0
  0
LINE
  5
212
330
1F
100
AcDbEntity
  8
0
100
AcDbLine
 10
-271.9230713076
 20
230.4407848101
 30
0.0
 11
-271.9230713076
 21
227.9407848101
 31
0.0
  0
LINE
  5
213
330
1F
100
AcDbEntity
  8
0
100
AcDbLine
 10
-269.4230713076
 20
140.4407848101
 30
0.0
 11
-269.4230713076
 21
137.9407848101
 31
0.0
  0
LINE
  5
214
330
1F
100
AcDbEntity
  8
0
100
AcDbLine
 10
-253.4230713076
 20
137.9407848101
 30
0.0
 11
-253.4230713076
 21
140.4407848101
 31
0.0
  0
LINE
  5
215
330
1F
100
AcDbEntity
  8
0
100
AcDbLine
 10
-253.4230713076
 20
230.4407848101
 30
0.0
 11
-253.4230713076
 21
232.9407848101
 31
0.0
  0
LINE
  5
216
330
1F
100
AcDbEntity
  8
0
100
AcDbLine
 10
-269.4230713076
 20
232.9407848101
 30
0.0
 11
-269.4230713076
 21
230.4407848101
 31
0.0
  0
LINE
  5
217
330
1F
100
AcDbEntity
  8
0
100
AcDbLine
 10
-266.4230713076
 20
137.9407848101
 30
0.0
 11
-266.4230713076
 21
135.4407848101
 31
0.0
  0
LINE
  5
218
330
1F
100
AcDbEntity
  8
0
100
AcDbLine
 10
-256.4230713076
 20
135.4407848101
 30
0.0
 11
-256.4230713076
 21
137.9407848101
 31
0.0
  0
LINE
  5
219
330
1F
100
AcDbEntity
  8
0
100
AcDbLine
 10
-256.4230713076
 20
232.9407848101
 30
0.0
 11
-256.4230713076
 21
235.4407848101
 31
0.0
  0
LINE
  5
21A
330
1F
100
AcDbEntity
  8
0
100
AcDbLine
 10
-266.4230713076
 20
235.4407848101
 30
0.0
 11
-266.4230713076
 21
232.9407848101
 31
0.0
  0
ARC
  5
21B
330
1F
100
AcDbEntity
  8
0
100
AcDbCircle
 10
-2.780005439
 20
210.7407848101
 30
0.0
 40
0.2000000000000055
100
AcDbArc
 50
359.9999999999
 51
90.0
  0
LINE
  5
21C
330
1F
100
AcDbEntity
  8
0
100
AcDbLine
 10
-2.780005439
 20
210.9407848101
 30
0.0
 11
-3.380005439
 21
210.9407848101
 31
0.0
  0
ARC
  5
21D
330
1F
100
AcDbEntity
  8
0
100
AcDbCircle
 10
-3.380005439
 20
210.7407848101
 30
0.0
 40
0.2000000000000335
100
AcDbArc
 50
90.0
 51
180.0000000001
  0
ARC
  5
21E
330
1F
100
AcDbEntity
  8
0
100
AcDbCircle
 10
-9.5704868201
 20
205.0506472727
 30
0.0
 40
8.000000000000016
100
AcDbArc
 50
10.6930153618
 51
29.0955287963
  0
ARC
  5
21F
330
1F
100
AcDbEntity
  8
0
100
AcDbCircle
 10
-9.5704868201
 20
205.8309223476
 30
0.0
 40
7.99999999999999
100
AcDbArc
 50
330.9044712037
 51
349.9464538485
  0
LINE
  5
220
330
1F
100
AcDbEntity
  8
0
100
AcDbLine
 10
-3.580005439
 20
207.5407848101
 30
0.0
 11
-3.5892876929
 21
207.5407848101
 31
0.0
  0
LINE
  5
221
330
1F
100
AcDbEntity
  8
0
100
AcDbLine
 10
-1.9408279178
 20
206.2729763095
 30
0.0
 11
-1.6808586093
 21
206.3003001849
 31
0.0
  0
LINE
  5
222
330
1F
100
AcDbEntity
  8
0
100
AcDbLine
 10
-244.6568549222
 20
207.5407848101
 30
0.0
 11
-245.4230713076
 21
207.5407848101
 31
0.0
  0
LINE
  5
223
330
1F
100
AcDbEntity
  8
0
100
AcDbLine
 10
-245.4230713076
 20
203.3407848101
 30
0.0
 11
-245.3517518764
 21
203.3407848101
 31
0.0
  0
ARC
  5
224
330
1F
100
AcDbEntity
  8
0
100
AcDbCircle
 10
-2.780005439
 20
160.1407848101
 30
0.0
 40
0.2000000000000335
100
AcDbArc
 50
270.0
 51
0.0000000001
  0
LINE
  5
225
330
1F
100
AcDbEntity
  8
0
100
AcDbLine
 10
-3.380005439
 20
159.9407848101
 30
0.0
 11
-2.780005439
 21
159.9407848101
 31
0.0
  0
ARC
  5
226
330
1F
100
AcDbEntity
  8
0
100
AcDbCircle
 10
-3.380005439
 20
160.1407848101
 30
0.0
 40
0.2000000000000335
100
AcDbArc
 50
179.9999999999
 51
270.0
  0
ARC
  5
227
330
1F
100
AcDbEntity
  8
0
100
AcDbCircle
 10
-9.5704868201
 20
165.0506472727
 30
0.0
 40
8.00000000000003
100
AcDbArc
 50
17.1464074982
 51
29.0955287963
  0
ARC
  5
228
330
1F
100
AcDbEntity
  8
0
100
AcDbCircle
 10
-9.5704868201
 20
165.8309223476
 30
0.0
 40
8.000000000000016
100
AcDbArc
 50
330.9044712037
 51
342.8547218318
  0
LINE
  5
229
330
1F
100
AcDbEntity
  8
0
100
AcDbLine
 10
-3.5892876929
 20
163.3407848101
 30
0.0
 11
-3.580005439
 21
163.3407848101
 31
0.0
  0
LINE
  5
22A
330
1F
100
AcDbEntity
  8
0
100
AcDbLine
 10
-245.3517518764
 20
167.5407848101
 30
0.0
 11
-245.4230713076
 21
167.5407848101
 31
0.0
  0
LINE
  5
22B
330
1F
100
AcDbEntity
  8
0
100
AcDbLine
 10
-245.4230713076
 20
163.3407848101
 30
0.0
 11
-244.6568549222
 21
163.3407848101
 31
0.0
  0
CIRCLE
  5
22D
330
1F
100
AcDbEntity
  8
0
100
AcDbCircle
 10
-124.1043034607
 20
185.4407848101
 30
0.0
 40
62.00000000000294
  0
CIRCLE
  5
231
330
1F
100
AcDbEntity
  8
0
100
AcDbCircle
 10
-124.1230713076
 20
185.4407848101
 30
0.0
 40
79.25000000000007
  0
ARC
  5
232
330
1F
100
AcDbEntity
  8
0
100
AcDbCircle
 10
-124.1230713076
 20
185.4407848101
 30
0.0
 40
122.543065868565
100
AcDbArc
 50
188.1678571838
 51
171.8321428162
  0
CIRCLE
  5
233
330
1F
100
AcDbEntity
  8
0
100
AcDbCircle
 10
-261.4230713076
 20
165.4407848101
 30
0.0
 40
4.999999999999972
  0
CIRCLE
  5
234
330
1F
100
AcDbEntity
  8
0
100
AcDbCircle
 10
-261.4230713076
 20
205.4407848101
 30
0.0
 40
5.0
  0
CIRCLE
  5
235
330
1F
100
AcDbEntity
  8
0
100
AcDbCircle
 10
-261.4230713076
 20
165.4407848101
 30
0.0
 40
7.999999999999972
  0
CIRCLE
  5
236
330
1F
100
AcDbEntity
  8
0
100
AcDbCircle
 10
-261.4230713076
 20
205.4407848101
 30
0.0
 40
8.0
  0
CIRCLE
  5
237
330
1F
100
AcDbEntity
  8
0
100
AcDbCircle
 10
-261.4230713076
 20
165.4407848101
 30
0.0
 40
10.49999999999997
  0
CIRCLE
  5
238
330
1F
100
AcDbEntity
  8
0
100
AcDbCircle
 10
-261.4230713076
 20
205.4407848101
 30
0.0
 40
10.5
  0
CIRCLE
  5
239
330
1F
100
AcDbEntity
  8
0
100
AcDbCircle
 10
-261.4230713076
 20
165.4407848101
 30
0.0
 40
12.49999999999997
  0
CIRCLE
  5
23A
330
1F
100
AcDbEntity
  8
0
100
AcDbCircle
 10
-261.4230713076
 20
205.4407848101
 30
0.0
 40
12.5
  0
LINE
  5
23B
330
1F
100
AcDbEntity
  8
0
100
AcDbLine
 10
-284.9230713076
 20
149.4407848101
 30
0.0
 11
-284.9230713076
 21
144.8407848101
 31
0.0
  0
LINE
  5
23C
330
1F
100
AcDbEntity
  8
0
100
AcDbLine
 10
-284.9230713076
 20
144.8407848101
 30
0.0
 11
-286.3230713076
 21
143.4407848101
 31
0.0
  0
LINE
  5
23D
330
1F
100
AcDbEntity
  8
0
100
AcDbLine
 10
-286.3230713076
 20
143.4407848101
 30
0.0
 11
-286.3230713076
 21
149.4407848101
 31
0.0
  0
LINE
  5
23E
330
1F
100
AcDbEntity
  8
0
100
AcDbLine
 10
-286.3230713076
 20
143.4407848101
 30
0.0
 11
-287.4230713076
 21
143.4407848101
 31
0.0
  0
LINE
  5
23F
330
1F
100
AcDbEntity
  8
0
100
AcDbLine
 10
-287.4230713076
 20
143.4407848101
 30
0.0
 11
-287.4230713076
 21
149.4407848101
 31
0.0
  0
LINE
  5
240
330
1F
100
AcDbEntity
  8
0
100
AcDbLine
 10
-284.9230713076
 20
221.4407848101
 30
0.0
 11
-284.9230713076
 21
149.4407848101
 31
0.0
  0
LINE
  5
241
330
1F
100
AcDbEntity
  8
0
100
AcDbLine
 10
-286.3230713076
 20
149.4407848101
 30
0.0
 11
-286.3230713076
 21
221.4407848101
 31
0.0
  0
LINE
  5
242
330
1F
100
AcDbEntity
  8
0
100
AcDbLine
 10
-287.4230713076
 20
221.4407848101
 30
0.0
 11
-287.4230713076
 21
149.4407848101
 31
0.0
  0
LINE
  5
243
330
1F
100
AcDbEntity
  8
0
100
AcDbLine
 10
-287.4230713076
 20
227.4407848101
 30
0.0
 11
-286.3230713076
 21
227.4407848101
 31
0.0
  0
LINE
  5
244
330
1F
100
AcDbEntity
  8
0
100
AcDbLine
 10
-286.3230713076
 20
221.4407848101
 30
0.0
 11
-286.3230713076
 21
227.4407848101
 31
0.0
  0
LINE
  5
245
330
1F
100
AcDbEntity
  8
0
100
AcDbLine
 10
-287.4230713076
 20
221.4407848101
 30
0.0
 11
-287.4230713076
 21
227.4407848101
 31
0.0
  0
LINE
  5
246
330
1F
100
AcDbEntity
  8
0
100
AcDbLine
 10
-284.9230713076
 20
226.0407848101
 30
0.0
 11
-284.9230713076
 21
221.4407848101
 31
0.0
  0
LINE
  5
247
330
1F
100
AcDbEntity
  8
0
100
AcDbLine
 10
-284.9230713076
 20
226.0407848101
 30
0.0
 11
-286.3230713076
 21
227.4407848101
 31
0.0
  0
LINE
  5
248
330
1F
100
AcDbEntity
  8
0
100
AcDbLine
 10
-245.4230713076
 20
151.4407848101
 30
0.0
 11
-245.4230713076
 21
145.4407848101
 31
0.0
  0
LINE
  5
249
330
1F
100
AcDbEntity
  8
0
100
AcDbLine
 10
-245.4230713076
 20
145.4407848101
 30
0.0
 11
-284.9230713076
 21
145.4407848101
 31
0.0
  0
LINE
  5
24A
330
1F
100
AcDbEntity
  8
0
100
AcDbLine
 10
-245.4230713076
 20
151.4407848101
 30
0.0
 11
-245.4230713076
 21
219.4407848101
 31
0.0
  0
LINE
  5
24B
330
1F
100
AcDbEntity
  8
0
100
AcDbLine
 10
-287.4230713076
 20
145.4407848101
 30
0.0
 11
-290.4230713076
 21
145.4407848101
 31
0.0
  0
LINE
  5
24C
330
1F
100
AcDbEntity
  8
0
100
AcDbLine
 10
-290.4230713076
 20
145.4407848101
 30
0.0
 11
-290.4230713076
 21
151.4407848101
 31
0.0
  0
LINE
  5
24D
330
1F
100
AcDbEntity
  8
0
100
AcDbLine
 10
-290.4230713076
 20
151.4407848101
 30
0.0
 11
-290.4230713076
 21
219.4407848101
 31
0.0
  0
LINE
  5
24E
330
1F
100
AcDbEntity
  8
0
100
AcDbLine
 10
-284.9230713076
 20
225.4407848101
 30
0.0
 11
-245.4230713076
 21
225.4407848101
 31
0.0
  0
LINE
  5
24F
330
1F
100
AcDbEntity
  8
0
100
AcDbLine
 10
-245.4230713076
 20
225.4407848101
 30
0.0
 11
-245.4230713076
 21
219.4407848101
 31
0.0
  0
LINE
  5
250
330
1F
100
AcDbEntity
  8
0
100
AcDbLine
 10
-290.4230713076
 20
225.4407848101
 30
0.0
 11
-287.4230713076
 21
225.4407848101
 31
0.0
  0
LINE
  5
251
330
1F
100
AcDbEntity
  8
0
100
AcDbLine
 10
-290.4230713076
 20
219.4407848101
 30
0.0
 11
-290.4230713076
 21
225.4407848101
 31
0.0
  0
LINE
  5
252
330
1F
100
AcDbEntity
  8
0
100
AcDbLine
 10
-273.9230713076
 20
142.9407848101
 30
0.0
 11
-248.9230713076
 21
142.9407848101
 31
0.0
  0
LINE
  5
253
330
1F
100
AcDbEntity
  8
0
100
AcDbLine
 10
-273.9230713076
 20
227.9407848101
 30
0.0
 11
-248.9230713076
 21
227.9407848101
 31
0.0
  0
LINE
  5
254
330
1F
100
AcDbEntity
  8
0
100
AcDbLine
 10
-271.9230713076
 20
140.4407848101
 30
0.0
 11
-250.9230713076
 21
140.4407848101
 31
0.0
  0
LINE
  5
255
330
1F
100
AcDbEntity
  8
0
100
AcDbLine
 10
-271.9230713076
 20
230.4407848101
 30
0.0
 11
-250.9230713076
 21
230.4407848101
 31
0.0
  0
LINE
  5
256
330
1F
100
AcDbEntity
  8
0
100
AcDbLine
 10
-269.4230713076
 20
137.9407848101
 30
0.0
 11
-253.4230713076
 21
137.9407848101
 31
0.0
  0
LINE
  5
257
330
1F
100
AcDbEntity
  8
0
100
AcDbLine
 10
-269.4230713076
 20
232.9407848101
 30
0.0
 11
-253.4230713076
 21
232.9407848101
 31
0.0
  0
LINE
  5
258
330
1F
100
AcDbEntity
  8
0
100
AcDbLine
 10
-266.4230713076
 20
135.4407848101
 30
0.0
 11
-256.4230713076
 21
135.4407848101
 31
0.0
  0
LINE
  5
259
330
1F
100
AcDbEntity
  8
0
100
AcDbLine
 10
-266.4230713076
 20
235.4407848101
 30
0.0
 11
-256.4230713076
 21
235.4407848101
 31
0.0
  0
LINE
  5
25A
330
1F
100
AcDbEntity
  8
0
100
AcDbLine
 10
-2.580005439
 20
201.0640409284
 30
0.0
 11
-2.580005439
 21
210.7407848101
 31
0.0
  0
LINE
  5
25B
330
1F
100
AcDbEntity
  8
0
100
AcDbLine
 10
-3.580005439
 20
207.5407848101
 30
0.0
 11
-3.580005439
 21
210.7407848101
 31
0.0
  0
LINE
  5
25C
330
1F
100
AcDbEntity
  8
0
100
AcDbLine
 10
-1.9408279178
 20
206.8386652488
 30
0.0
 11
-1.7127523984
 21
206.3687676056
 31
0.0
  0
LINE
  5
25D
330
1F
100
AcDbEntity
  8
0
100
AcDbLine
 10
-1.9408279178
 20
206.0436540247
 30
0.0
 11
-1.9408279178
 21
206.8386652488
 31
0.0
  0
LINE
  5
25E
330
1F
100
AcDbEntity
  8
0
100
AcDbLine
 10
-1.7127523984
 20
205.532512578
 30
0.0
 11
-1.9408279178
 21
206.0436540247
 31
0.0
  0
SPLINE
  5
25F
330
1F
100
AcDbEntity
  8
0
100
AcDbSpline
210
0.0
220
0.0
230
1.0
 70
     8
 71
     3
 72
    12
 73
     8
 74
     0
 42
0.000000001
 43
0.00000001
 40
0.0
 40
0.0
 40
0.0
 40
0.0
 40
0.2174770912064702
 40
0.4353705208254995
 40
0.6490388720030145
 40
0.8610609605880125
 40
1.0
 40
1.0
 40
1.0
 40
1.0
 10
-1.712752398427386
 20
204.8283386252222
 30
0.0
 10
-1.703774832816779
 20
204.8814075767088
 30
0.0
 10
-1.685802514932777
 20
204.9876470749483
 30
0.0
 10
-1.67413388615445
 20
205.1665570741716
 30
0.0
 10
-1.677118033539704
 20
205.3326673573504
 30
0.0
 10
-1.69192694539988
 20
205.4574090786118
 30
0.0
 10
-1.706846157460917
 20
205.5112127117226
 30
0.0
 10
-1.71275239842944
 20
205.5325125780181
 30
0.0
  0
LINE
  5
260
330
1F
100
AcDbEntity
  8
0
100
AcDbLine
 10
-1.9408279178
 20
203.9884808196
 30
0.0
 11
-1.7127523984
 21
204.8283386252
 31
0.0
  0
LINE
  5
261
330
1F
100
AcDbEntity
  8
0
100
AcDbLine
 10
-1.9408279178
 20
203.5172970114
 30
0.0
 11
-1.9408279178
 21
203.9884808196
 31
0.0
  0
LINE
  5
262
330
1F
100
AcDbEntity
  8
0
100
AcDbLine
 10
-1.7127523984
 20
204.3327106182
 30
0.0
 11
-1.9408279178
 21
203.5172970114
 31
0.0
  0
SPLINE
  5
263
330
1F
100
AcDbEntity
  8
0
100
AcDbSpline
210
0.0
220
0.0
230
1.0
 70
     8
 71
     3
 72
    11
 73
     7
 74
     0
 42
0.000000001
 43
0.00000001
 40
0.0
 40
0.0
 40
0.0
 40
0.0
 40
0.1424353927326563
 40
0.4669569106863578
 40
0.7889780694030777
 40
1.0
 40
1.0
 40
1.0
 40
1.0
 10
-1.681626840644657
 20
204.5739602027993
 30
0.0
 10
-1.679649700018437
 20
204.5754969846314
 30
0.0
 10
-1.673167887730864
 20
204.5805351347915
 30
0.0
 10
-1.677660263136926
 20
204.5280518554538
 30
0.0
 10
-1.691844557654559
 20
204.439268824277
 30
0.0
 10
-1.706822791732426
 20
204.3629312545543
 30
0.0
 10
-1.712752398429163
 20
204.3327106182438
 30
0.0
  0
SPLINE
  5
264
330
1F
100
AcDbEntity
  8
0
100
AcDbSpline
210
0.0
220
0.0
230
1.0
 70
     8
 71
     3
 72
    11
 73
     7
 74
     0
 42
0.000000001
 43
0.00000001
 40
0.0
 40
0.0
 40
0.0
 40
0.0
 40
0.3290534791107737
 40
0.6587368986098028
 40
0.9820275677130402
 40
1.0
 40
1.0
 40
1.0
 40
1.0
 10
-1.712752398427553
 20
206.0532309950308
 30
0.0
 10
-1.703695216899892
 20
205.9999617820059
 30
0.0
 10
-1.685563514765037
 20
205.8933213773085
 30
0.0
 10
-1.675084279757599
 20
205.7174031143592
 30
0.0
 10
-1.674090990448074
 20
205.5952800089614
 30
0.0
 10
-1.680051069876398
 20
205.5473795879276
 30
0.0
 10
-1.680364954159519
 20
205.544856938775
 30
0.0
  0
LINE
  5
265
330
1F
100
AcDbEntity
  8
0
100
AcDbLine
 10
-1.7771006116
 20
206.2901847428
 30
0.0
 11
-1.7127523984
 21
206.053230995
 31
0.0
  0
SPLINE
  5
266
330
1F
100
AcDbEntity
  8
0
100
AcDbSpline
210
0.0
220
0.0
230
1.0
 70
     8
 71
     3
 72
    12
 73
     8
 74
     0
 42
0.000000001
 43
0.00000001
 40
0.0
 40
0.0
 40
0.0
 40
0.0
 40
0.2174770912068866
 40
0.4353705208260338
 40
0.6490388720036347
 40
0.8610609605884616
 40
1.0
 40
1.0
 40
1.0
 40
1.0
 10
-1.712752398427664
 20
206.3687676056112
 30
0.0
 10
-1.703774832816835
 20
206.3449970683791
 30
0.0
 10
-1.685802514932444
 20
206.2974104875691
 30
0.0
 10
-1.674133886154117
 20
206.2970266268495
 30
0.0
 10
-1.677118033539232
 20
206.3512493501107
 30
0.0
 10
-1.691926945401379
 20
206.4426454646796
 30
0.0
 10
-1.706846157459863
 20
206.5187361161015
 30
0.0
 10
-1.712752398427386
 20
206.5488590020094
 30
0.0
  0
LINE
  5
267
330
1F
100
AcDbEntity
  8
0
100
AcDbLine
 10
-2.580005439
 20
160.1407854485
 30
0.0
 11
-2.580005439
 21
169.8175286919
 31
0.0
  0
LINE
  5
268
330
1F
100
AcDbEntity
  8
0
100
AcDbLine
 10
-3.580005439
 20
160.1407854485
 30
0.0
 11
-3.580005439
 21
163.3407848101
 31
0.0
  0
LINE
  5
269
330
1F
100
AcDbEntity
  8
0
100
AcDbLine
 10
-1.9408279178
 20
165.9028608394
 30
0.0
 11
-1.7127523984
 21
165.9268325425
 31
0.0
  0
LINE
  5
26A
330
1F
100
AcDbEntity
  8
0
100
AcDbLine
 10
-1.9408279178
 20
164.9787087808
 30
0.0
 11
-1.9408279178
 21
165.9028608394
 31
0.0
  0
LINE
  5
26B
330
1F
100
AcDbEntity
  8
0
100
AcDbLine
 10
-1.7127523984
 20
164.9547370778
 30
0.0
 11
-1.9408279178
 21
164.9787087808
 31
0.0
  0
SPLINE
  5
26C
330
1F
100
AcDbEntity
  8
0
100
AcDbSpline
210
0.0
220
0.0
230
1.0
 70
     8
 71
     3
 72
    12
 73
     8
 74
     0
 42
0.000000001
 43
0.00000001
 40
0.0
 40
0.0
 40
0.0
 40
0.0
 40
0.2174770912064687
 40
0.4353705208254987
 40
0.6490388720030137
 40
0.8610609605880136
 40
1.0
 40
1.0
 40
1.0
 40
1.0
 10
-1.712752398427386
 20
164.4407848101265
 30
0.0
 10
-1.703774832816751
 20
164.4985574502865
 30
0.0
 10
-1.685802514932777
 20
164.6142133306202
 30
0.0
 10
-1.674133886154394
 20
164.7683181936727
 30
0.0
 10
-1.677118033539704
 20
164.8835705153323
 30
0.0
 10
-1.69192694539988
 20
164.944282060226
 30
0.0
 10
-1.706846157460917
 20
164.9517719632678
 30
0.0
 10
-1.71275239842944
 20
164.9547370777802
 30
0.0
  0
LINE
  5
26D
330
1F
100
AcDbEntity
  8
0
100
AcDbLine
 10
-1.9408279178
 20
163.4787087808
 30
0.0
 11
-1.7127523984
 21
164.4407848101
 31
0.0
  0
LINE
  5
26E
330
1F
100
AcDbEntity
  8
0
100
AcDbLine
 10
-1.7127523984
 20
166.4407848101
 30
0.0
 11
-1.9408279178
 21
167.4028608394
 31
0.0
  0
SPLINE
  5
26F
330
1F
100
AcDbEntity
  8
0
100
AcDbSpline
210
0.0
220
0.0
230
1.0
 70
     8
 71
     3
 72
    12
 73
     8
 74
     0
 42
0.000000001
 43
0.00000001
 40
0.0
 40
0.0
 40
0.0
 40
0.0
 40
0.2174770912068871
 40
0.4353705208260334
 40
0.649038872003635
 40
0.8610609605884604
 40
1.0
 40
1.0
 40
1.0
 40
1.0
 10
-1.712752398427636
 20
165.926832542473
 30
0.0
 10
-1.703774832816807
 20
165.9334411808445
 30
0.0
 10
-1.685802514932472
 20
165.9466711091732
 30
0.0
 10
-1.674133886154117
 20
166.0375590971291
 30
0.0
 10
-1.677118033539177
 20
166.1688969524783
 30
0.0
 10
-1.691926945401434
 20
166.3111216166477
 30
0.0
 10
-1.70684615745989
 20
166.4040114412903
 30
0.0
 10
-1.712752398427386
 20
166.4407848101264
 30
0.0
  0
LINE
  5
276
330
1F
100
AcDbEntity
  8
0
  6
PHANTOM
 62
     8
370
    18
100
AcDbLine
 10
-284.9230713076
 20
149.4407848101
 30
0.0
 11
-286.3230713076
 21
149.4407848101
 31
0.0
  0
LINE
  5
277
330
1F
100
AcDbEntity
  8
0
  6
PHANTOM
 62
     8
370
    18
100
AcDbLine
 10
-287.4230713076
 20
149.4407848101
 30
0.0
 11
-286.3230713076
 21
149.4407848101
 31
0.0
  0
LINE
  5
278
330
1F
100
AcDbEntity
  8
0
  6
PHANTOM
 62
     8
370
    18
100
AcDbLine
 10
-284.9230713076
 20
221.4407848101
 30
0.0
 11
-286.3230713076
 21
221.4407848101
 31
0.0
  0
LINE
  5
279
330
1F
100
AcDbEntity
  8
0
  6
PHANTOM
 62
     8
370
    18
100
AcDbLine
 10
-286.3230713076
 20
221.4407848101
 30
0.0
 11
-287.4230713076
 21
221.4407848101
 31
0.0
  0
LINE
  5
27A
330
1F
100
AcDbEntity
  8
0
  6
PHANTOM
 62
     8
370
    18
100
AcDbLine
 10
-284.9230713076
 20
151.4407848101
 30
0.0
 11
-245.4230713076
 21
151.4407848101
 31
0.0
  0
LINE
  5
27B
330
1F
100
AcDbEntity
  8
0
  6
PHANTOM
 62
     8
370
    18
100
AcDbLine
 10
-245.4230713076
 20
219.4407848101
 30
0.0
 11
-284.9230713076
 21
219.4407848101
 31
0.0
  0
LINE
  5
27C
330
1F
100
AcDbEntity
  8
0
  6
PHANTOM
 62
     8
370
    18
100
AcDbLine
 10
-290.4230713076
 20
151.4407848101
 30
0.0
 11
-287.4230713076
 21
151.4407848101
 31
0.0
  0
LINE
  5
27D
330
1F
100
AcDbEntity
  8
0
  6
PHANTOM
 62
     8
370
    18
100
AcDbLine
 10
-287.4230713076
 20
219.4407848101
 30
0.0
 11
-290.4230713076
 21
219.4407848101
 31
0.0
  0
LINE
  5
27E
330
1F
100
AcDbEntity
  8
0
  6
PHANTOM
 62
     8
370
    18
100
AcDbLine
 10
-2.780005439
 20
202.5481913373
 30
0.0
 11
-2.780005439
 21
210.9407848101
 31
0.0
  0
LINE
  5
27F
330
1F
100
AcDbEntity
  8
0
  6
PHANTOM
 62
     8
370
    18
100
AcDbLine
 10
-3.380005439
 20
206.3672044066
 30
0.0
 11
-3.380005439
 21
210.9407848101
 31
0.0
  0
LINE
  5
280
330
1F
100
AcDbEntity
  8
0
  6
PHANTOM
 62
     8
370
    18
100
AcDbLine
 10
-1.9408279178
 20
206.3481457038
 30
0.0
 11
-1.7127523984
 21
206.3687676056
 31
0.0
  0
LINE
  5
281
330
1F
100
AcDbEntity
  8
0
  6
PHANTOM
 62
     8
370
    18
100
AcDbLine
 10
-1.8454167348
 20
204.339819828
 30
0.0
 11
-1.7127523984
 21
204.3327106182
 31
0.0
  0
LINE
  5
282
330
1F
100
AcDbEntity
  8
0
  6
PHANTOM
 62
     8
370
    18
100
AcDbLine
 10
-1.9343442855
 20
206.0651056499
 30
0.0
 11
-1.7127523984
 21
206.053230995
 31
0.0
  0
LINE
  5
283
330
1F
100
AcDbEntity
  8
0
  6
PHANTOM
 62
     8
370
    18
100
AcDbLine
 10
-2.780005439
 20
159.9407848101
 30
0.0
 11
-2.780005439
 21
168.333378283
 31
0.0
  0
LINE
  5
284
330
1F
100
AcDbEntity
  8
0
  6
PHANTOM
 62
     8
370
    18
100
AcDbLine
 10
-3.380005439
 20
159.9407848101
 30
0.0
 11
-3.380005439
 21
164.5143652137
 31
0.0
  0
LINE
  5
285
330
1F
100
AcDbEntity
  8
0
100
AcDbLine
 10
174.7547563707
 20
-14.7285484101
 30
0.0
 11
164.642495819
 21
-14.7285484101
 31
0.0
  0
ARC
  5
286
330
1F
100
AcDbEntity
  8
0
100
AcDbCircle
 10
164.642495819
 20
-17.6780911249
 30
0.0
 40
2.949542714776114
100
AcDbArc
 50
90.0
 51
119.9115739435
  0
ARC
  5
287
330
1F
100
AcDbEntity
  8
0
100
AcDbCircle
 10
160.1797349884
 20
-9.9207387842
 30
0.0
 40
5.999912551817758
100
AcDbArc
 50
270.0
 51
299.9115739435
  0
LINE
  5
288
330
1F
100
AcDbEntity
  8
0
100
AcDbLine
 10
145.8424484193
 20
-256.1739811779
 30
0.0
 11
148.119794609
 21
-256.1739811779
 31
0.0
  0
LINE
  5
289
330
1F
100
AcDbEntity
  8
0
100
AcDbLine
 10
160.1797349884
 20
-15.9206513361
 30
0.0
 11
145.8424484193
 21
-15.9206513361
 31
0.0
  0
ARC
  5
28A
330
1F
100
AcDbEntity
  8
0
100
AcDbCircle
 10
145.8424484193
 20
-237.0152584779
 30
0.0
 40
19.15872270002436
100
AcDbArc
 50
199.3103275633
 51
270.0
  0
ARC
  5
28B
330
1F
100
AcDbEntity
  8
0
100
AcDbCircle
 10
145.8424484193
 20
-35.0793740361
 30
0.0
 40
19.15872270002438
100
AcDbArc
 50
90.0
 51
160.6896724367
  0
LINE
  5
28C
330
1F
100
AcDbEntity
  8
0
100
AcDbLine
 10
127.7615693826
 20
-28.7438812567
 30
0.0
 11
121.2185982484
 21
-47.4168833007
 31
0.0
  0
LINE
  5
28D
330
1F
100
AcDbEntity
  8
0
100
AcDbLine
 10
121.2185982484
 20
-224.6777492133
 30
0.0
 11
127.7615693826
 21
-243.3507512573
 31
0.0
  0
ARC
  5
28E
330
1F
100
AcDbEntity
  8
0
100
AcDbCircle
 10
108.0062191938
 20
-229.3073323176
 30
0.0
 40
13.99999999999922
100
AcDbArc
 50
19.3103275633
 51
90.0
  0
ARC
  5
28F
330
1F
100
AcDbEntity
  8
0
100
AcDbCircle
 10
108.0062191938
 20
-42.7873001964
 30
0.0
 40
13.9999999999992
100
AcDbArc
 50
270.0
 51
340.6896724367
  0
LINE
  5
290
330
1F
100
AcDbEntity
  8
0
100
AcDbLine
 10
91.5930897988
 20
-215.3073323176
 30
0.0
 11
108.0062191938
 21
-215.3073323176
 31
0.0
  0
LINE
  5
291
330
1F
100
AcDbEntity
  8
0
100
AcDbLine
 10
108.0062191938
 20
-56.7873001964
 30
0.0
 11
91.5930897988
 21
-56.7873001964
 31
0.0
  0
ARC
  5
292
330
1F
100
AcDbEntity
  8
0
100
AcDbCircle
 10
91.5930897988
 20
-211.3073323176
 30
0.0
 40
3.999999999999574
100
AcDbArc
 50
180.0
 51
270.0
  0
ARC
  5
293
330
1F
100
AcDbEntity
  8
0
100
AcDbCircle
 10
91.5930897988
 20
-60.7873001964
 30
0.0
 40
3.999999999999559
100
AcDbArc
 50
90.0
 51
180.0
  0
ARC
  5
294
330
1F
100
AcDbEntity
  8
0
100
AcDbCircle
 10
188.5942302636
 20
-16.5230182353
 30
0.0
 40
3.000000000000114
100
AcDbArc
 50
34.5181078411
 51
90.0
  0
LINE
  5
295
330
1F
100
AcDbEntity
  8
0
100
AcDbLine
 10
191.0259338759
 20
-257.3660841038
 30
0.0
 11
191.0660716825
 21
-257.3091499724
 31
0.0
  0
LINE
  5
296
330
1F
100
AcDbEntity
  8
0
100
AcDbLine
 10
188.5942302636
 20
-13.5230182353
 30
0.0
 11
174.7547563707
 21
-13.5230182353
 31
0.0
  0
ARC
  5
297
330
1F
100
AcDbEntity
  8
0
100
AcDbCircle
 10
196.0097545202
 20
-11.4230182353
 30
0.0
 40
5.999999999999646
100
AcDbArc
 50
214.5181078411
 51
269.1052337159
  0
ARC
  5
298
330
1F
100
AcDbEntity
  8
0
100
AcDbCircle
 10
196.0097545202
 20
-260.7091499724
 30
0.0
 40
5.999999999999692
100
AcDbArc
 50
90.89476628410002
 51
145.4818921589
  0
ARC
  5
299
330
1F
100
AcDbEntity
  8
0
100
AcDbCircle
 10
195.2133393902
 20
-62.4167994536
 30
0.0
 40
45.0000000000022
100
AcDbArc
 50
29.6090655215
 51
89.1052337159
  0
ARC
  5
29A
330
1F
100
AcDbEntity
  8
0
100
AcDbCircle
 10
195.2133393902
 20
-209.7153687541
 30
0.0
 40
45.00000000000219
100
AcDbArc
 50
270.8947662841001
 51
330.3909344785
  0
ARC
  5
29B
330
1F
100
AcDbEntity
  8
0
100
AcDbCircle
 10
262.9204083915
 20
-23.9396597197
 30
0.0
 40
32.876424384115
100
AcDbArc
 50
209.6090655215
 51
270.0
  0
ARC
  5
29C
330
1F
100
AcDbEntity
  8
0
100
AcDbCircle
 10
262.9204083915
 20
-248.1925084879
 30
0.0
 40
32.87642438411499
100
AcDbArc
 50
90.0
 51
150.3909344785
  0
LINE
  5
29D
330
1F
100
AcDbEntity
  8
0
100
AcDbLine
 10
286.2548959607
 20
-56.8160841038
 30
0.0
 11
262.9204083915
 21
-56.8160841038
 31
0.0
  0
LINE
  5
29E
330
1F
100
AcDbEntity
  8
0
100
AcDbLine
 10
262.9204083915
 20
-215.3160841038
 30
0.0
 11
286.2548959607
 21
-215.3160841038
 31
0.0
  0
LINE
  5
29F
330
1F
100
AcDbEntity
  8
0
100
AcDbLine
 10
148.5942302636
 20
-256.1314018245
 30
0.0
 11
148.5942302636
 21
-257.3660841038
 31
0.0
  0
LINE
  5
2A0
330
1F
100
AcDbEntity
  8
0
100
AcDbLine
 10
168.5942302636
 20
-257.3660841038
 30
0.0
 11
168.5942302636
 21
-257.3240296197
 31
0.0
  0
LINE
  5
2A1
330
1F
100
AcDbEntity
  8
0
100
AcDbLine
 10
218.5942302636
 20
-285.8660841038
 30
0.0
 11
221.0942302636
 21
-285.8660841038
 31
0.0
  0
LINE
  5
2A2
330
1F
100
AcDbEntity
  8
0
100
AcDbLine
 10
221.0942302636
 20
-260.8660841038
 30
0.0
 11
218.5942302636
 21
-260.8660841038
 31
0.0
  0
LINE
  5
2A3
330
1F
100
AcDbEntity
  8
0
100
AcDbLine
 10
221.0942302636
 20
-283.8660841038
 30
0.0
 11
223.5942302636
 21
-283.8660841038
 31
0.0
  0
LINE
  5
2A4
330
1F
100
AcDbEntity
  8
0
100
AcDbLine
 10
223.5942302636
 20
-262.8660841038
 30
0.0
 11
221.0942302636
 21
-262.8660841038
 31
0.0
  0
LINE
  5
2A5
330
1F
100
AcDbEntity
  8
0
100
AcDbLine
 10
223.5942302636
 20
-281.3660841038
 30
0.0
 11
226.0942302636
 21
-281.3660841038
 31
0.0
  0
LINE
  5
2A6
330
1F
100
AcDbEntity
  8
0
100
AcDbLine
 10
226.0942302636
 20
-265.3660841038
 30
0.0
 11
223.5942302636
 21
-265.3660841038
 31
0.0
  0
LINE
  5
2A7
330
1F
100
AcDbEntity
  8
0
100
AcDbLine
 10
226.0942302636
 20
-278.3660841038
 30
0.0
 11
228.5942302636
 21
-278.3660841038
 31
0.0
  0
LINE
  5
2A8
330
1F
100
AcDbEntity
  8
0
100
AcDbLine
 10
228.5942302636
 20
-268.3660841038
 30
0.0
 11
226.0942302636
 21
-268.3660841038
 31
0.0
  0
LINE
  5
2A9
330
1F
100
AcDbEntity
  8
0
100
AcDbLine
 10
138.5942302636
 20
-260.8660841038
 30
0.0
 11
136.0942302636
 21
-260.8660841038
 31
0.0
  0
LINE
  5
2AA
330
1F
100
AcDbEntity
  8
0
100
AcDbLine
 10
136.0942302636
 20
-285.8660841038
 30
0.0
 11
138.5942302636
 21
-285.8660841038
 31
0.0
  0
LINE
  5
2AB
330
1F
100
AcDbEntity
  8
0
100
AcDbLine
 10
136.0942302636
 20
-262.8660841038
 30
0.0
 11
133.5942302636
 21
-262.8660841038
 31
0.0
  0
LINE
  5
2AC
330
1F
100
AcDbEntity
  8
0
100
AcDbLine
 10
133.5942302636
 20
-283.8660841038
 30
0.0
 11
136.0942302636
 21
-283.8660841038
 31
0.0
  0
LINE
  5
2AD
330
1F
100
AcDbEntity
  8
0
100
AcDbLine
 10
133.5942302636
 20
-265.3660841038
 30
0.0
 11
131.0942302636
 21
-265.3660841038
 31
0.0
  0
LINE
  5
2AE
330
1F
100
AcDbEntity
  8
0
100
AcDbLine
 10
131.0942302636
 20
-281.3660841038
 30
0.0
 11
133.5942302636
 21
-281.3660841038
 31
0.0
  0
LINE
  5
2AF
330
1F
100
AcDbEntity
  8
0
100
AcDbLine
 10
131.0942302636
 20
-268.3660841038
 30
0.0
 11
128.5942302636
 21
-268.3660841038
 31
0.0
  0
LINE
  5
2B0
330
1F
100
AcDbEntity
  8
0
100
AcDbLine
 10
128.5942302636
 20
-278.3660841038
 30
0.0
 11
131.0942302636
 21
-278.3660841038
 31
0.0
  0
LINE
  5
2B1
330
1F
100
AcDbEntity
  8
0
100
AcDbLine
 10
188.2547563707
 20
-15.1661130845
 30
0.0
 11
188.2547563707
 21
-14.7230182353
 31
0.0
  0
LINE
  5
2B2
330
1F
100
AcDbEntity
  8
0
100
AcDbLine
 10
177.2547563707
 20
-14.7230182353
 30
0.0
 11
177.2547563707
 21
-15.1661130845
 31
0.0
  0
ARC
  5
2B3
330
1F
100
AcDbEntity
  8
0
100
AcDbCircle
 10
188.0547563707
 20
-14.7230182353
 30
0.0
 40
0.2000000000000171
100
AcDbArc
 50
0.0
 51
90.0000000001
  0
ARC
  5
2B4
330
1F
100
AcDbEntity
  8
0
100
AcDbCircle
 10
177.4547563707
 20
-14.7230182353
 30
0.0
 40
0.2000000000000046
100
AcDbArc
 50
89.9999999999
 51
180.0
  0
ARC
  5
2B5
330
1F
100
AcDbEntity
  8
0
100
AcDbCircle
 10
183.1448939082
 20
-21.5134996164
 30
0.0
 40
8.00000000000002
100
AcDbArc
 50
100.6930153618
 51
119.0955287963
  0
ARC
  5
2B6
330
1F
100
AcDbEntity
  8
0
100
AcDbCircle
 10
182.3646188332
 20
-21.5134996164
 30
0.0
 40
8.000000000000009
100
AcDbArc
 50
60.90447120369999
 51
79.9464538485
  0
LINE
  5
2B7
330
1F
100
AcDbEntity
  8
0
100
AcDbLine
 10
181.9225648713
 20
-13.8838407141
 30
0.0
 11
181.895240996
 21
-13.6238714056
 31
0.0
  0
LINE
  5
2B8
330
1F
100
AcDbEntity
  8
0
100
AcDbLine
 10
180.6547563707
 20
-256.9660551231
 30
0.0
 11
180.6547563707
 21
-257.3660841038
 31
0.0
  0
LINE
  5
2B9
330
1F
100
AcDbEntity
  8
0
100
AcDbLine
 10
184.8547563707
 20
-257.3660841038
 30
0.0
 11
184.8547563707
 21
-256.9660551231
 31
0.0
  0
SPLINE
  5
2BA
330
1F
100
AcDbEntity
  8
0
100
AcDbSpline
210
0.0
220
0.0
230
1.0
 70
     8
 71
     3
 72
    12
 73
     8
 74
     0
 42
0.000000001
 43
0.00000001
 40
0.0
 40
0.0
 40
0.0
 40
0.0
 40
0.1740111433809852
 40
0.3530644513569072
 40
0.5270764936290218
 40
0.706149553665771
 40
1.0
 40
1.0
 40
1.0
 40
1.0
 10
164.642495819002
 20
-257.0620878681492
 30
0.0
 10
165.1021420748471
 20
-257.0866845975448
 30
0.0
 10
166.0347533432122
 20
-257.1365907736696
 30
0.0
 10
167.1735880801634
 20
-257.2137878689073
 30
0.0
 10
168.0834424293988
 20
-257.2818445647076
 30
0.0
 10
168.8896677220112
 20
-257.3480395406261
 30
0.0
 10
169.0158358503163
 20
-257.3591688937627
 30
0.0
 10
169.0942302636118
 20
-257.3660841038179
 30
0.0
  0
SPLINE
  5
2BB
330
1F
100
AcDbEntity
  8
0
100
AcDbSpline
210
0.0
220
0.0
230
1.0
 70
     8
 71
     3
 72
     9
 73
     5
 74
     0
 42
0.000000001
 43
0.00000001
 40
0.0
 40
0.0
 40
0.0
 40
0.0
 40
0.6755736833401368
 40
0.9999999999999999
 40
0.9999999999999999
 40
0.9999999999999999
 40
0.9999999999999999
 10
163.1716684553643
 20
-256.603405624953
 30
0.0
 10
163.5023645001533
 20
-256.7657396424987
 30
0.0
 10
163.9918685364175
 20
-257.006030260012
 30
0.0
 10
164.4831206917094
 20
-257.0483562146024
 30
0.0
 10
164.642495819002
 20
-257.0620878681492
 30
0.0
  0
SPLINE
  5
2BC
330
1F
100
AcDbEntity
  8
0
100
AcDbSpline
210
0.0
220
0.0
230
1.0
 70
     8
 71
     3
 72
     9
 73
     5
 74
     0
 42
0.000000001
 43
0.00000001
 40
0.0
 40
0.0
 40
0.0
 40
0.0
 40
0.5909181151115498
 40
1.0
 40
1.0
 40
1.0
 40
1.0
 10
160.1797349883773
 20
-255.7247136645752
 30
0.0
 10
160.8198424550303
 20
-255.7916918881184
 30
0.0
 10
161.9030847017706
 20
-255.9050379200479
 30
0.0
 10
162.8033757119656
 20
-256.4006568847047
 30
0.0
 10
163.1716684553643
 20
-256.603405624953
 30
0.0
  0
SPLINE
  5
2BD
330
1F
100
AcDbEntity
  8
0
100
AcDbSpline
210
0.0
220
0.0
230
1.0
 70
     8
 71
     3
 72
    18
 73
    14
 74
     0
 42
0.000000001
 43
0.00000001
 40
0.0
 40
0.0
 40
0.0
 40
0.0
 40
0.074065216847724
 40
0.1730938258112461
 40
0.2692742562076486
 40
0.3682273812075251
 40
0.464704797922379
 40
0.5639682451545835
 40
0.6606332291167633
 40
0.7601130270393961
 40
0.8565613208446496
 40
0.95582364257905
 40
1.0
 40
1.0
 40
1.0
 40
1.0
 10
148.119794608985
 20
-256.1717537947765
 30
0.0
 10
148.1261418030708
 20
-256.1711914589885
 30
0.0
 10
148.1409754882233
 20
-256.1698772543308
 30
0.0
 10
148.5113732588407
 20
-256.137862264459
 30
0.0
 10
149.1658258318941
 20
-256.0842262378044
 30
0.0
 10
150.0885371784529
 20
-256.0145889641921
 30
0.0
 10
151.2592097087559
 20
-255.9365644738585
 30
0.0
 10
152.6289345291806
 20
-255.8598063875935
 30
0.0
 10
154.1823385504287
 20
-255.7918941774668
 30
0.0
 10
155.8473661293953
 20
-255.741568067499
 30
0.0
 10
157.6044022177212
 20
-255.7141181936079
 30
0.0
 10
159.0585682492004
 20
-255.7121020744922
 30
0.0
 10
159.9157419550779
 20
-255.7217441045584
 30
0.0
 10
160.1797349883773
 20
-255.7247136645752
 30
0.0
  0
LINE
  5
2BE
330
1F
100
AcDbEntity
  8
0
100
AcDbLine
 10
87.5930897988
 20
-211.3073323176
 30
0.0
 11
87.5930897988
 21
-60.7873002054
 31
0.0
  0
LINE
  5
2BF
330
1F
100
AcDbEntity
  8
0
100
AcDbLine
 10
174.7547563707
 20
-13.5230182353
 30
0.0
 11
174.7547563707
 21
-257.3660841038
 31
0.0
  0
LINE
  5
2C0
330
1F
100
AcDbEntity
  8
0
100
AcDbLine
 10
286.2548959607
 20
-56.8160841038
 30
0.0
 11
286.2548959607
 21
-215.3160841038
 31
0.0
  0
CIRCLE
  5
2C1
330
1F
100
AcDbEntity
  8
0
100
AcDbCircle
 10
198.5942302636
 20
-273.3660841038
 30
0.0
 40
5.000000000000028
  0
CIRCLE
  5
2C2
330
1F
100
AcDbEntity
  8
0
100
AcDbCircle
 10
158.5942302636
 20
-273.3660841038
 30
0.0
 40
5.0
  0
CIRCLE
  5
2C3
330
1F
100
AcDbEntity
  8
0
100
AcDbCircle
 10
198.5942302636
 20
-273.3660841038
 30
0.0
 40
8.000000000000028
  0
CIRCLE
  5
2C4
330
1F
100
AcDbEntity
  8
0
100
AcDbCircle
 10
158.5942302636
 20
-273.3660841038
 30
0.0
 40
8.0
  0
CIRCLE
  5
2C5
330
1F
100
AcDbEntity
  8
0
100
AcDbCircle
 10
198.5942302636
 20
-273.3660841038
 30
0.0
 40
10.50000000000003
  0
CIRCLE
  5
2C6
330
1F
100
AcDbEntity
  8
0
100
AcDbCircle
 10
158.5942302636
 20
-273.3660841038
 30
0.0
 40
10.5
  0
CIRCLE
  5
2C7
330
1F
100
AcDbEntity
  8
0
100
AcDbCircle
 10
198.5942302636
 20
-273.3660841038
 30
0.0
 40
12.50000000000003
  0
CIRCLE
  5
2C8
330
1F
100
AcDbEntity
  8
0
100
AcDbCircle
 10
158.5942302636
 20
-273.3660841038
 30
0.0
 40
12.5
  0
LINE
  5
2C9
330
1F
100
AcDbEntity
  8
0
100
AcDbLine
 10
214.5942302636
 20
-296.8660841038
 30
0.0
 11
219.1942302636
 21
-296.8660841038
 31
0.0
  0
LINE
  5
2CA
330
1F
100
AcDbEntity
  8
0
100
AcDbLine
 10
219.1942302636
 20
-296.8660841038
 30
0.0
 11
220.5942302636
 21
-298.2660841038
 31
0.0
  0
LINE
  5
2CB
330
1F
100
AcDbEntity
  8
0
100
AcDbLine
 10
220.5942302636
 20
-298.2660841038
 30
0.0
 11
214.5942302636
 21
-298.2660841038
 31
0.0
  0
LINE
  5
2CC
330
1F
100
AcDbEntity
  8
0
100
AcDbLine
 10
220.5942302636
 20
-299.3660841038
 30
0.0
 11
214.5942302636
 21
-299.3660841038
 31
0.0
  0
LINE
  5
2CD
330
1F
100
AcDbEntity
  8
0
100
AcDbLine
 10
220.5942302636
 20
-298.2660841038
 30
0.0
 11
220.5942302636
 21
-299.3660841038
 31
0.0
  0
LINE
  5
2CE
330
1F
100
AcDbEntity
  8
0
100
AcDbLine
 10
214.5942302636
 20
-298.2660841038
 30
0.0
 11
142.5942302636
 21
-298.2660841038
 31
0.0
  0
LINE
  5
2CF
330
1F
100
AcDbEntity
  8
0
100
AcDbLine
 10
142.5942302636
 20
-296.8660841038
 30
0.0
 11
214.5942302636
 21
-296.8660841038
 31
0.0
  0
LINE
  5
2D0
330
1F
100
AcDbEntity
  8
0
100
AcDbLine
 10
142.5942302636
 20
-299.3660841038
 30
0.0
 11
214.5942302636
 21
-299.3660841038
 31
0.0
  0
LINE
  5
2D1
330
1F
100
AcDbEntity
  8
0
100
AcDbLine
 10
142.5942302636
 20
-298.2660841038
 30
0.0
 11
136.5942302636
 21
-298.2660841038
 31
0.0
  0
LINE
  5
2D2
330
1F
100
AcDbEntity
  8
0
100
AcDbLine
 10
136.5942302636
 20
-298.2660841038
 30
0.0
 11
137.9942302636
 21
-296.8660841038
 31
0.0
  0
LINE
  5
2D3
330
1F
100
AcDbEntity
  8
0
100
AcDbLine
 10
137.9942302636
 20
-296.8660841038
 30
0.0
 11
142.5942302636
 21
-296.8660841038
 31
0.0
  0
LINE
  5
2D4
330
1F
100
AcDbEntity
  8
0
100
AcDbLine
 10
136.5942302636
 20
-299.3660841038
 30
0.0
 11
136.5942302636
 21
-298.2660841038
 31
0.0
  0
LINE
  5
2D5
330
1F
100
AcDbEntity
  8
0
100
AcDbLine
 10
142.5942302636
 20
-299.3660841038
 30
0.0
 11
136.5942302636
 21
-299.3660841038
 31
0.0
  0
LINE
  5
2D6
330
1F
100
AcDbEntity
  8
0
100
AcDbLine
 10
218.5942302636
 20
-257.3660841038
 30
0.0
 11
218.5942302636
 21
-296.8660841038
 31
0.0
  0
LINE
  5
2D7
330
1F
100
AcDbEntity
  8
0
100
AcDbLine
 10
212.5942302636
 20
-257.3660841038
 30
0.0
 11
218.5942302636
 21
-257.3660841038
 31
0.0
  0
LINE
  5
2D8
330
1F
100
AcDbEntity
  8
0
100
AcDbLine
 10
212.5942302636
 20
-257.3660841038
 30
0.0
 11
144.5942302636
 21
-257.3660841038
 31
0.0
  0
LINE
  5
2D9
330
1F
100
AcDbEntity
  8
0
100
AcDbLine
 10
218.5942302636
 20
-299.3660841038
 30
0.0
 11
218.5942302636
 21
-302.3660841038
 31
0.0
  0
LINE
  5
2DA
330
1F
100
AcDbEntity
  8
0
100
AcDbLine
 10
218.5942302636
 20
-302.3660841038
 30
0.0
 11
212.5942302636
 21
-302.3660841038
 31
0.0
  0
LINE
  5
2DB
330
1F
100
AcDbEntity
  8
0
100
AcDbLine
 10
212.5942302636
 20
-302.3660841038
 30
0.0
 11
144.5942302636
 21
-302.3660841038
 31
0.0
  0
LINE
  5
2DC
330
1F
100
AcDbEntity
  8
0
100
AcDbLine
 10
138.5942302636
 20
-296.8660841038
 30
0.0
 11
138.5942302636
 21
-257.3660841038
 31
0.0
  0
LINE
  5
2DD
330
1F
100
AcDbEntity
  8
0
100
AcDbLine
 10
138.5942302636
 20
-257.3660841038
 30
0.0
 11
144.5942302636
 21
-257.3660841038
 31
0.0
  0
LINE
  5
2DE
330
1F
100
AcDbEntity
  8
0
100
AcDbLine
 10
138.5942302636
 20
-302.3660841038
 30
0.0
 11
138.5942302636
 21
-299.3660841038
 31
0.0
  0
LINE
  5
2DF
330
1F
100
AcDbEntity
  8
0
100
AcDbLine
 10
144.5942302636
 20
-302.3660841038
 30
0.0
 11
138.5942302636
 21
-302.3660841038
 31
0.0
  0
LINE
  5
2E0
330
1F
100
AcDbEntity
  8
0
100
AcDbLine
 10
221.0942302636
 20
-273.3660841038
 30
0.0
 11
221.0942302636
 21
-285.8660841038
 31
0.0
  0
LINE
  5
2E1
330
1F
100
AcDbEntity
  8
0
100
AcDbLine
 10
221.0942302636
 20
-260.8660841038
 30
0.0
 11
221.0942302636
 21
-273.3660841038
 31
0.0
  0
LINE
  5
2E2
330
1F
100
AcDbEntity
  8
0
100
AcDbLine
 10
223.5942302636
 20
-273.3660841038
 30
0.0
 11
223.5942302636
 21
-283.8660841038
 31
0.0
  0
LINE
  5
2E3
330
1F
100
AcDbEntity
  8
0
100
AcDbLine
 10
223.5942302636
 20
-262.8660841038
 30
0.0
 11
223.5942302636
 21
-273.3660841038
 31
0.0
  0
LINE
  5
2E4
330
1F
100
AcDbEntity
  8
0
100
AcDbLine
 10
226.0942302636
 20
-273.3660841038
 30
0.0
 11
226.0942302636
 21
-281.3660841038
 31
0.0
  0
LINE
  5
2E5
330
1F
100
AcDbEntity
  8
0
100
AcDbLine
 10
226.0942302636
 20
-265.3660841038
 30
0.0
 11
226.0942302636
 21
-273.3660841038
 31
0.0
  0
LINE
  5
2E6
330
1F
100
AcDbEntity
  8
0
100
AcDbLine
 10
228.5942302636
 20
-273.3660841038
 30
0.0
 11
228.5942302636
 21
-278.3660841038
 31
0.0
  0
LINE
  5
2E7
330
1F
100
AcDbEntity
  8
0
100
AcDbLine
 10
228.5942302636
 20
-268.3660841038
 30
0.0
 11
228.5942302636
 21
-273.3660841038
 31
0.0
  0
LINE
  5
2E8
330
1F
100
AcDbEntity
  8
0
100
AcDbLine
 10
136.0942302636
 20
-285.8660841038
 30
0.0
 11
136.0942302636
 21
-260.8660841038
 31
0.0
  0
LINE
  5
2E9
330
1F
100
AcDbEntity
  8
0
100
AcDbLine
 10
133.5942302636
 20
-283.8660841038
 30
0.0
 11
133.5942302636
 21
-262.8660841038
 31
0.0
  0
LINE
  5
2EA
330
1F
100
AcDbEntity
  8
0
100
AcDbLine
 10
131.0942302636
 20
-281.3660841038
 30
0.0
 11
131.0942302636
 21
-265.3660841038
 31
0.0
  0
LINE
  5
2EB
330
1F
100
AcDbEntity
  8
0
100
AcDbLine
 10
128.5942302636
 20
-278.3660841038
 30
0.0
 11
128.5942302636
 21
-268.3660841038
 31
0.0
  0
LINE
  5
2EC
330
1F
100
AcDbEntity
  8
0
100
AcDbLine
 10
180.0525233778
 20
-15.5230182353
 30
0.0
 11
177.8669848254
 21
-15.5230182353
 31
0.0
  0
LINE
  5
2ED
330
1F
100
AcDbEntity
  8
0
100
AcDbLine
 10
187.642527916
 20
-15.5230182353
 30
0.0
 11
180.0525233778
 21
-15.5230182353
 31
0.0
  0
LINE
  5
2EE
330
1F
100
AcDbEntity
  8
0
100
AcDbLine
 10
180.0525233778
 20
-14.5230182353
 30
0.0
 11
177.4547563707
 21
-14.5230182353
 31
0.0
  0
LINE
  5
2EF
330
1F
100
AcDbEntity
  8
0
100
AcDbLine
 10
188.0547563707
 20
-14.5230182353
 30
0.0
 11
180.0525233778
 21
-14.5230182353
 31
0.0
  0
LINE
  5
2F0
330
1F
100
AcDbEntity
  8
0
100
AcDbLine
 10
184.2070603612
 20
-13.8838407141
 30
0.0
 11
183.3672025556
 21
-13.6557651947
 31
0.0
  0
LINE
  5
2F1
330
1F
100
AcDbEntity
  8
0
100
AcDbLine
 10
184.6782441694
 20
-13.8838407141
 30
0.0
 11
184.2070603612
 21
-13.8838407141
 31
0.0
  0
LINE
  5
2F2
330
1F
100
AcDbEntity
  8
0
100
AcDbLine
 10
183.8628305626
 20
-13.6557651947
 30
0.0
 11
184.6782441694
 21
-13.8838407141
 31
0.0
  0
SPLINE
  5
2F3
330
1F
100
AcDbEntity
  8
0
100
AcDbSpline
210
0.0
220
0.0
230
1.0
 70
     8
 71
     3
 72
    11
 73
     7
 74
     0
 42
0.000000001
 43
0.00000001
 40
0.0
 40
0.0
 40
0.0
 40
0.0
 40
0.1424353927327019
 40
0.4669569106861909
 40
0.7889780694029026
 40
1.0
 40
1.0
 40
1.0
 40
1.0
 10
183.6215809780367
 20
-13.6246396368902
 30
0.0
 10
183.6200441962046
 20
-13.62266249626409
 30
0.0
 10
183.6150060460444
 20
-13.6161806839768
 30
0.0
 10
183.6674893253817
 20
-13.62067305938172
 30
0.0
 10
183.756272356559
 20
-13.63485735389952
 30
0.0
 10
183.8326099262817
 20
-13.64983558797778
 30
0.0
 10
183.8628305625922
 20
-13.65576519467471
 30
0.0
  0
SPLINE
  5
2F4
330
1F
100
AcDbEntity
  8
0
100
AcDbSpline
210
0.0
220
0.0
230
1.0
 70
     8
 71
     3
 72
    10
 73
     6
 74
     0
 42
0.000000001
 43
0.00000001
 40
0.0
 40
0.0
 40
0.0
 40
0.0
 40
0.3371189905355122
 40
0.6748833620835476
 40
1.0
 40
1.0
 40
1.0
 40
1.0
 10
182.1423101858051
 20
-13.65576519467271
 30
0.0
 10
182.195285626797
 20
-13.64684305439234
 30
0.0
 10
182.3013379250304
 20
-13.6289816932752
 30
0.0
 10
182.4805519919826
 20
-13.61656080359364
 30
0.0
 10
182.5875779753088
 20
-13.62047900124974
 30
0.0
 10
182.6400699419994
 20
-13.62240072057863
 30
0.0
  0
LINE
  5
2F5
330
1F
100
AcDbEntity
  8
0
100
AcDbLine
 10
181.905356438
 20
-13.7201134078
 30
0.0
 11
182.1423101858
 21
-13.6557651947
 31
0.0
  0
SPLINE
  5
2F6
330
1F
100
AcDbEntity
  8
0
100
AcDbSpline
210
0.0
220
0.0
230
1.0
 70
     8
 71
     3
 72
    12
 73
     8
 74
     0
 42
0.000000001
 43
0.00000001
 40
0.0
 40
0.0
 40
0.0
 40
0.0
 40
0.2174770912063663
 40
0.4353705208256903
 40
0.649038872002926
 40
0.8610609605877992
 40
1.0
 40
1.0
 40
1.0
 40
1.0
 10
181.8267735752247
 20
-13.65576519467282
 30
0.0
 10
181.8505441124568
 20
-13.64678762906202
 30
0.0
 10
181.8981306932669
 20
-13.62881531117763
 30
0.0
 10
181.898514553986
 20
-13.61714668239933
 30
0.0
 10
181.8442918307255
 20
-13.62013082978536
 30
0.0
 10
181.7528957161558
 20
-13.63493974164504
 30
0.0
 10
181.6768050647343
 20
-13.64985895370618
 30
0.0
 10
181.6466821788264
 20
-13.65576519467482
 30
0.0
  0
LINE
  5
2F7
330
1F
100
AcDbEntity
  8
0
100
AcDbLine
 10
181.3568759321
 20
-13.8838407141
 30
0.0
 11
181.8267735752
 21
-13.6557651947
 31
0.0
  0
LINE
  5
2F8
330
1F
100
AcDbEntity
  8
0
100
AcDbLine
 10
182.1518871561
 20
-13.8838407141
 30
0.0
 11
181.3568759321
 21
-13.8838407141
 31
0.0
  0
LINE
  5
2F9
330
1F
100
AcDbEntity
  8
0
100
AcDbLine
 10
182.6630286028
 20
-13.6557651947
 30
0.0
 11
182.1518871561
 21
-13.8838407141
 31
0.0
  0
SPLINE
  5
2FA
330
1F
100
AcDbEntity
  8
0
100
AcDbSpline
210
0.0
220
0.0
230
1.0
 70
     8
 71
     3
 72
    12
 73
     8
 74
     0
 42
0.000000001
 43
0.00000001
 40
0.0
 40
0.0
 40
0.0
 40
0.0
 40
0.2174770912068866
 40
0.4353705208260338
 40
0.6490388720036347
 40
0.8610609605884616
 40
1.0
 40
1.0
 40
1.0
 40
1.0
 10
183.3672025556137
 20
-13.6557651946729
 30
0.0
 10
183.3141336041271
 20
-13.64678762906207
 30
0.0
 10
183.2078941058876
 20
-13.62881531117771
 30
0.0
 10
183.0289841066641
 20
-13.61714668239938
 30
0.0
 10
182.8628738234855
 20
-13.62013082978447
 30
0.0
 10
182.7381321022241
 20
-13.63493974164665
 30
0.0
 10
182.6843284691135
 20
-13.64985895370513
 30
0.0
 10
182.6630286028181
 20
-13.65576519467265
 30
0.0
  0
LINE
  5
301
330
1F
100
AcDbEntity
  8
0
 62
     8
370
    18
100
AcDbLine
 10
108.0062191938
 20
-215.3073323176
 30
0.0
 11
108.0062191938
 21
-56.7873001964
 31
0.0
  0
LINE
  5
307
330
1F
100
AcDbEntity
  8
0
 62
     8
370
    18
100
AcDbLine
 10
262.9204083915
 20
-56.8160841038
 30
0.0
 11
262.9204083915
 21
-215.3160841038
 31
0.0
  0
LINE
  5
308
330
1F
100
AcDbEntity
  8
0
  6
PHANTOM
 62
     8
370
    18
100
AcDbLine
 10
214.5942302636
 20
-296.8660841038
 30
0.0
 11
214.5942302636
 21
-298.2660841038
 31
0.0
  0
LINE
  5
309
330
1F
100
AcDbEntity
  8
0
  6
PHANTOM
 62
     8
370
    18
100
AcDbLine
 10
214.5942302636
 20
-299.3660841038
 30
0.0
 11
214.5942302636
 21
-298.2660841038
 31
0.0
  0
LINE
  5
30A
330
1F
100
AcDbEntity
  8
0
  6
PHANTOM
 62
     8
370
    18
100
AcDbLine
 10
142.5942302636
 20
-298.2660841038
 30
0.0
 11
142.5942302636
 21
-296.8660841038
 31
0.0
  0
LINE
  5
30B
330
1F
100
AcDbEntity
  8
0
  6
PHANTOM
 62
     8
370
    18
100
AcDbLine
 10
142.5942302636
 20
-298.2660841038
 30
0.0
 11
142.5942302636
 21
-299.3660841038
 31
0.0
  0
LINE
  5
30C
330
1F
100
AcDbEntity
  8
0
  6
PHANTOM
 62
     8
370
    18
100
AcDbLine
 10
212.5942302636
 20
-296.8660841038
 30
0.0
 11
212.5942302636
 21
-257.3660841038
 31
0.0
  0
LINE
  5
30D
330
1F
100
AcDbEntity
  8
0
  6
PHANTOM
 62
     8
370
    18
100
AcDbLine
 10
144.5942302636
 20
-257.3660841038
 30
0.0
 11
144.5942302636
 21
-296.8660841038
 31
0.0
  0
LINE
  5
30E
330
1F
100
AcDbEntity
  8
0
  6
PHANTOM
 62
     8
370
    18
100
AcDbLine
 10
212.5942302636
 20
-302.3660841038
 30
0.0
 11
212.5942302636
 21
-299.3660841038
 31
0.0
  0
LINE
  5
30F
330
1F
100
AcDbEntity
  8
0
  6
PHANTOM
 62
     8
370
    18
100
AcDbLine
 10
144.5942302636
 20
-299.3660841038
 30
0.0
 11
144.5942302636
 21
-302.3660841038
 31
0.0
  0
LINE
  5
310
330
1F
100
AcDbEntity
  8
0
  6
PHANTOM
 62
     8
370
    18
100
AcDbLine
 10
179.9505523214
 20
-15.3230182353
 30
0.0
 11
177.3333408054
 21
-15.3230182353
 31
0.0
  0
LINE
  5
311
330
1F
100
AcDbEntity
  8
0
  6
PHANTOM
 62
     8
370
    18
100
AcDbLine
 10
188.176171936
 20
-15.3230182353
 30
0.0
 11
179.9505523214
 21
-15.3230182353
 31
0.0
  0
LINE
  5
312
330
1F
100
AcDbEntity
  8
0
  6
PHANTOM
 62
     8
370
    18
100
AcDbLine
 10
179.9505523214
 20
-14.7230182353
 30
0.0
 11
177.2547563707
 21
-14.7230182353
 31
0.0
  0
LINE
  5
313
330
1F
100
AcDbEntity
  8
0
  6
PHANTOM
 62
     8
370
    18
100
AcDbLine
 10
188.2547563707
 20
-14.7230182353
 30
0.0
 11
179.9505523214
 21
-14.7230182353
 31
0.0
  0
LINE
  5
314
330
1F
100
AcDbEntity
  8
0
  6
PHANTOM
 62
     8
370
    18
100
AcDbLine
 10
181.847395477
 20
-13.8838407141
 30
0.0
 11
181.8267735752
 21
-13.6557651947
 31
0.0
  0
LINE
  5
315
330
1F
100
AcDbEntity
  8
0
  6
PHANTOM
 62
     8
370
    18
100
AcDbLine
 10
183.8557213528
 20
-13.788429531
 30
0.0
 11
183.8628305626
 21
-13.6557651947
 31
0.0
  0
LINE
  5
316
330
1F
100
AcDbEntity
  8
0
  6
PHANTOM
 62
     8
370
    18
100
AcDbLine
 10
182.130435531
 20
-13.8773570817
 30
0.0
 11
182.1423101858
 21
-13.6557651947
 31
0.0
  0
LINE
  5
37D
330
1F
100
AcDbEntity
  8
0
100
AcDbLine
 10
398.7993804372645
 20
-118.7536481230202
 30
0.0
 11
398.7993804372645
 21
-134.3536481230203
 31
0.0
  0
LINE
  5
37E
330
1F
100
AcDbEntity
  8
0
100
AcDbLine
 10
437.7993804372645
 20
-149.9536481230203
 30
0.0
 11
398.7993804372645
 21
-118.7536481230202
 31
0.0
  0
LINE
  5
37F
330
1F
100
AcDbEntity
  8
0
100
AcDbLine
 10
437.7993804372645
 20
-149.9536481230203
 30
0.0
 11
398.7993804372645
 21
-181.1536481230203
 31
0.0
  0
LINE
  5
380
330
1F
100
AcDbEntity
  8
0
100
AcDbLine
 10
398.7993804372645
 20
-165.5536481230202
 30
0.0
 11
359.7993804372645
 21
-165.5536481230202
 31
0.0
  0
LINE
  5
381
330
1F
100
AcDbEntity
  8
0
100
AcDbLine
 10
359.7993804372645
 20
-134.3536481230203
 30
0.0
 11
359.7993804372645
 21
-165.5536481230202
 31
0.0
  0
LINE
  5
382
330
1F
100
AcDbEntity
  8
0
100
AcDbLine
 10
398.7993804372645
 20
-134.3536481230203
 30
0.0
 11
359.7993804372645
 21
-134.3536481230203
 31
0.0
  0
INSERT
  5
383
330
1F
100
AcDbEntity
  8
LENKIMO
  6
CENTERX2
100
AcDbBlockReference
  2
*U3
 10
5.453336189916399
 20
-600.0560630477307
 30
0.0
 41
0.39
 42
0.39
 43
0.39
  0
LINE
  5
384
330
1F
100
AcDbEntity
  8
0
100
AcDbLine
 10
398.7993804372645
 20
-165.5536481230202
 30
0.0
 11
398.7993804372645
 21
-181.1536481230203
 31
0.0
  0
MTEXT
  5
385
330
1F
100
AcDbEntity
  8
0
100
AcDbMText
 10
366.1635368561683
 20
-143.6951042678134
 30
0.0
 40
13.65
 41
8.176792514679505
 71
     1
 72
     5
  1
{SUP}
 73
     1
 44
1.0
1001
ACAD
1000
ACAD_MTEXT_DEFINED_HEIGHT_BEGIN
1070
    46
1040
35.595
1000
ACAD_MTEXT_DEFINED_HEIGHT_END
  0
LINE
  5
386
330
1F
100
AcDbEntity
  8
0
100
AcDbLine
 10
25.09130489555946
 20
-149.9536481230203
 30
0.0
 11
-13.90869510443963
 21
-118.7536481230202
 31
0.0
  0
LINE
  5
387
330
1F
100
AcDbEntity
  8
0
100
AcDbLine
 10
-13.90869510443963
 20
-118.7536481230202
 30
0.0
 11
-13.90869510443963
 21
-134.3536481230203
 31
0.0
  0
LINE
  5
388
330
1F
100
AcDbEntity
  8
0
100
AcDbLine
 10
-13.90869510443963
 20
-165.5536481230202
 30
0.0
 11
-52.90869510443963
 21
-165.5536481230202
 31
0.0
  0
LINE
  5
389
330
1F
100
AcDbEntity
  8
0
100
AcDbLine
 10
-13.90869510443963
 20
-165.5536481230202
 30
0.0
 11
-13.90869510443963
 21
-181.1536481230203
 31
0.0
  0
LINE
  5
38A
330
1F
100
AcDbEntity
  8
0
100
AcDbLine
 10
-52.90869510443963
 20
-134.3536481230203
 30
0.0
 11
-52.90869510443963
 21
-165.5536481230202
 31
0.0
  0
LINE
  5
38B
330
1F
100
AcDbEntity
  8
0
100
AcDbLine
 10
-13.90869510443963
 20
-134.3536481230203
 30
0.0
 11
-52.90869510443963
 21
-134.3536481230203
 31
0.0
  0
INSERT
  5
38C
330
1F
100
AcDbEntity
  8
LENKIMO
  6
CENTERX2
100
AcDbBlockReference
  2
*U4
 10
-276.6888817139745
 20
-717.8734541020988
 30
0.0
 41
0.39
 42
0.39
 43
0.39
  0
LINE
  5
38D
330
1F
100
AcDbEntity
  8
0
100
AcDbLine
 10
25.09130489555946
 20
-149.9536481230203
 30
0.0
 11
-13.90869510443963
 21
-181.1536481230203
 31
0.0
  0
MTEXT
  5
38E
330
1F
100
AcDbEntity
  8
0
100
AcDbMText
 10
-44.20110953688663
 20
-141.8621094345663
 30
0.0
 40
13.65
 41
8.176792514679505
 71
     1
 72
     5
  1
{ODA}
 73
     1
 44
1.0
1001
ACAD
1000
ACAD_MTEXT_DEFINED_HEIGHT_BEGIN
1070
    46
1040
35.595
1000
ACAD_MTEXT_DEFINED_HEIGHT_END
  0
INSERT
  5
38F
330
1F
100
AcDbEntity
  8
LENKIMO
  6
CENTERX2
100
AcDbBlockReference
  2
*U5
 10
-462.3405912004729
 20
-258.133502804186
 30
0.0
 41
0.39
 42
0.39
 43
0.39
  0
INSERT
  5
390
330
1F
100
AcDbEntity
  8
LENKIMO
  6
CENTERX2
100
AcDbBlockReference
  2
*U6
 10
197.0040909618217
 20
-386.2111270665678
 30
0.0
 41
0.39
 42
0.39
 43
0.39
  0
ENDSEC
  0
SECTION
  2
OBJECTS
  0
DICTIONARY
  5
C
330
0
100
AcDbDictionary
281
     1
  3
ACAD_DETAILVIEWSTYLE
350
341
  3
ACAD_GROUP
350
D
  3
ACAD_LAYOUT
350
1A
  3
ACAD_MLINESTYLE
350
17
  3
ACAD_PLOTSETTINGS
350
19
  3
ACAD_PLOTSTYLENAME
350
E
  3
ACAD_SCALELIST
350
47
  3
ACAD_SECTIONVIEWSTYLE
350
342
  3
AcDbVariableDictionary
350
33C
  3
APPDATA
350
339
  3
DWGPROPS
350
395
  0
DICTIONARY
  5
391
330
1F
100
AcDbDictionary
280
     1
281
     1
  3
DIM_BOUNDING_BOXES_V1
360
392
  0
DICTIONARY
  5
341
102
{ACAD_REACTORS
330
C
102
}
330
C
100
AcDbDictionary
281
     1
  0
DICTIONARY
  5
D
102
{ACAD_REACTORS
330
C
102
}
330
C
100
AcDbDictionary
281
     1
  0
DICTIONARY
  5
1A
102
{ACAD_REACTORS
330
C
102
}
330
C
100
AcDbDictionary
281
     1
  3
Layout1
350
1E
  3
Layout2
350
26
  3
Model
350
22
  0
DICTIONARY
  5
17
102
{ACAD_REACTORS
330
C
102
}
330
C
100
AcDbDictionary
281
     1
  3
Standard
350
18
  0
DICTIONARY
  5
19
102
{ACAD_REACTORS
330
C
102
}
330
C
100
AcDbDictionary
281
     1
  0
ACDBDICTIONARYWDFLT
  5
E
102
{ACAD_REACTORS
330
C
102
}
330
C
100
AcDbDictionary
281
     1
  3
Normal
350
F
100
AcDbDictionaryWithDefault
340
F
  0
DICTIONARY
  5
47
102
{ACAD_REACTORS
330
C
102
}
330
C
100
AcDbDictionary
281
     1
  3
A0
350
48
  3
A1
350
49
  3
A2
350
4A
  3
A3
350
4B
  3
A4
350
4C
  3
A5
350
4D
  3
A6
350
4E
  3
A7
350
4F
  3
A8
350
50
  3
A9
350
51
  3
B0
350
52
  3
B1
350
53
  3
B2
350
54
  3
B3
350
55
  3
B4
350
56
  3
B5
350
57
  3
B6
350
58
  3
B7
350
59
  3
B8
350
5A
  3
B9
350
5B
  3
C0
350
5C
  3
C1
350
5D
  3
C2
350
5E
  3
C3
350
5F
  3
C4
350
60
  3
C5
350
61
  3
C6
350
62
  3
C7
350
63
  3
C8
350
64
  3
C9
350
65
  3
D0
350
66
  3
D1
350
67
  3
D2
350
68
  0
DICTIONARY
  5
342
102
{ACAD_REACTORS
330
C
102
}
330
C
100
AcDbDictionary
281
     1
  0
DICTIONARY
  5
33C
102
{ACAD_REACTORS
330
C
102
}
330
C
100
AcDbDictionary
281
     1
  0
DICTIONARY
  5
339
102
{ACAD_REACTORS
330
C
102
}
330
C
100
AcDbDictionary
281
     1
  0
XRECORD
  5
395
102
{ACAD_REACTORS
330
C
102
}
330
C
100
AcDbXrecord
280
     1
  1
DWGPROPS COOKIE
  2

  3

  4

  6

  7

  8
mantvydas.surka
  9

300
=
301
=
302
=
303
=
304
=
305
=
306
=
307
=
308
=
309
=
 40
0.0
 41
2459178.554469896
 42
2459178.569903646
  1

 90
        0
  0
DICTIONARY
  5
392
102
{ACAD_REACTORS
330
391
102
}
330
391
100
AcDbDictionary
281
     1
  0
LAYOUT
  5
1E
102
{ACAD_REACTORS
330
1A
102
}
330
1A
100
AcDbPlotSettings
  1

  2
none_device
  4

  6

 40
0.0
 41
0.0
 42
0.0
 43
0.0
 44
0.0
 45
0.0
 46
0.0
 47
0.0
 48
0.0
 49
0.0
140
0.0
141
0.0
142
1.0
143
1.0
 70
   688
 72
     1
 73
     0
 74
     5
  7

 75
    16
147
1.0
148
0.0
149
0.0
100
AcDbLayout
  1
Layout1
 70
     1
 71
     1
 10
0.0
 20
0.0
 11
420.0
 21
297.0
 12
0.0
 22
0.0
 32
0.0
 14
1.000000000000000E+20
 24
1.000000000000000E+20
 34
1.000000000000000E+20
 15
-1.000000000000000E+20
 25
-1.000000000000000E+20
 35
-1.000000000000000E+20
146
0.0
 13
0.0
 23
0.0
 33
0.0
 16
1.0
 26
0.0
 36
0.0
 17
0.0
 27
1.0
 37
0.0
 76
     0
330
1B
  0
LAYOUT
  5
26
102
{ACAD_REACTORS
330
1A
102
}
330
1A
100
AcDbPlotSettings
  1

  2
none_device
  4

  6

 40
0.0
 41
0.0
 42
0.0
 43
0.0
 44
0.0
 45
0.0
 46
0.0
 47
0.0
 48
0.0
 49
0.0
140
0.0
141
0.0
142
1.0
143
1.0
 70
   688
 72
     1
 73
     0
 74
     5
  7

 75
    16
147
1.0
148
0.0
149
0.0
100
AcDbLayout
  1
Layout2
 70
     1
 71
     2
 10
0.0
 20
0.0
 11
0.0
 21
0.0
 12
0.0
 22
0.0
 32
0.0
 14
0.0
 24
0.0
 34
0.0
 15
0.0
 25
0.0
 35
0.0
146
0.0
 13
0.0
 23
0.0
 33
0.0
 16
1.0
 26
0.0
 36
0.0
 17
0.0
 27
1.0
 37
0.0
 76
     0
330
23
  0
LAYOUT
  5
22
102
{ACAD_REACTORS
330
1A
102
}
330
1A
100
AcDbPlotSettings
  1

  2
none_device
  4
Letter_(8.50_x_11.00_Inches)
  6

 40
6.35
 41
6.35
 42
6.35000508
 43
6.35000508
 44
215.9
 45
279.4
 46
0.0
 47
0.0
 48
0.0
 49
0.0
140
0.0
141
0.0
142
1.0
143
1.0
 70
  1712
 72
     1
 73
     0
 74
     0
  7

 75
     0
147
1.0
148
0.0
149
0.0
100
AcDbLayout
  1
Model
 70
     1
 71
     0
 10
0.0
 20
0.0
 11
420.0
 21
297.0
 12
0.0
 22
0.0
 32
0.0
 14
-290.4230713076
 24
-302.3660841038
 34
0.0
 15
672.9258690257
 25
307.9838506787001
 35
0.0
146
0.0
 13
0.0
 23
0.0
 33
0.0
 16
1.0
 26
0.0
 36
0.0
 17
0.0
 27
1.0
 37
0.0
 76
     0
330
1F
331
29
  0
MLINESTYLE
  5
18
102
{ACAD_REACTORS
330
17
102
}
330
17
100
AcDbMlineStyle
  2
Standard
 70
     0
  3

 62
   256
 51
90.0
 52
90.0
 71
     2
 49
0.5
 62
   256
  6
BYLAYER
 49
-0.5
 62
   256
  6
BYLAYER
  0
ACDBPLACEHOLDER
  5
F
102
{ACAD_REACTORS
330
E
102
}
330
E
  0
SCALE
  5
48
102
{ACAD_REACTORS
330
47
102
}
330
47
100
AcDbScale
 70
     0
300
1:1
140
1.0
141
1.0
290
     1
  0
SCALE
  5
49
102
{ACAD_REACTORS
330
47
102
}
330
47
100
AcDbScale
 70
     0
300
1:2
140
1.0
141
2.0
290
     0
  0
SCALE
  5
4A
102
{ACAD_REACTORS
330
47
102
}
330
47
100
AcDbScale
 70
     0
300
1:4
140
1.0
141
4.0
290
     0
  0
SCALE
  5
4B
102
{ACAD_REACTORS
330
47
102
}
330
47
100
AcDbScale
 70
     0
300
1:5
140
1.0
141
5.0
290
     0
  0
SCALE
  5
4C
102
{ACAD_REACTORS
330
47
102
}
330
47
100
AcDbScale
 70
     0
300
1:8
140
1.0
141
8.0
290
     0
  0
SCALE
  5
4D
102
{ACAD_REACTORS
330
47
102
}
330
47
100
AcDbScale
 70
     0
300
1:10
140
1.0
141
10.0
290
     0
  0
SCALE
  5
4E
102
{ACAD_REACTORS
330
47
102
}
330
47
100
AcDbScale
 70
     0
300
1:16
140
1.0
141
16.0
290
     0
  0
SCALE
  5
4F
102
{ACAD_REACTORS
330
47
102
}
330
47
100
AcDbScale
 70
     0
300
1:20
140
1.0
141
20.0
290
     0
  0
SCALE
  5
50
102
{ACAD_REACTORS
330
47
102
}
330
47
100
AcDbScale
 70
     0
300
1:30
140
1.0
141
30.0
290
     0
  0
SCALE
  5
51
102
{ACAD_REACTORS
330
47
102
}
330
47
100
AcDbScale
 70
     0
300
1:40
140
1.0
141
40.0
290
     0
  0
SCALE
  5
52
102
{ACAD_REACTORS
330
47
102
}
330
47
100
AcDbScale
 70
     0
300
1:50
140
1.0
141
50.0
290
     0
  0
SCALE
  5
53
102
{ACAD_REACTORS
330
47
102
}
330
47
100
AcDbScale
 70
     0
300
1:100
140
1.0
141
100.0
290
     0
  0
SCALE
  5
54
102
{ACAD_REACTORS
330
47
102
}
330
47
100
AcDbScale
 70
     0
300
2:1
140
2.0
141
1.0
290
     0
  0
SCALE
  5
55
102
{ACAD_REACTORS
330
47
102
}
330
47
100
AcDbScale
 70
     0
300
4:1
140
4.0
141
1.0
290
     0
  0
SCALE
  5
56
102
{ACAD_REACTORS
330
47
102
}
330
47
100
AcDbScale
 70
     0
300
8:1
140
8.0
141
1.0
290
     0
  0
SCALE
  5
57
102
{ACAD_REACTORS
330
47
102
}
330
47
100
AcDbScale
 70
     0
300
10:1
140
10.0
141
1.0
290
     0
  0
SCALE
  5
58
102
{ACAD_REACTORS
330
47
102
}
330
47
100
AcDbScale
 70
     0
300
100:1
140
100.0
141
1.0
290
     0
  0
SCALE
  5
59
102
{ACAD_REACTORS
330
47
102
}
330
47
100
AcDbScale
 70
     0
300
1/128" = 1'-0"
140
0.0078125
141
12.0
290
     0
  0
SCALE
  5
5A
102
{ACAD_REACTORS
330
47
102
}
330
47
100
AcDbScale
 70
     0
300
1/64" = 1'-0"
140
0.015625
141
12.0
290
     0
  0
SCALE
  5
5B
102
{ACAD_REACTORS
330
47
102
}
330
47
100
AcDbScale
 70
     0
300
1/32" = 1'-0"
140
0.03125
141
12.0
290
     0
  0
SCALE
  5
5C
102
{ACAD_REACTORS
330
47
102
}
330
47
100
AcDbScale
 70
     0
300
1/16" = 1'-0"
140
0.0625
141
12.0
290
     0
  0
SCALE
  5
5D
102
{ACAD_REACTORS
330
47
102
}
330
47
100
AcDbScale
 70
     0
300
3/32" = 1'-0"
140
0.09375
141
12.0
290
     0
  0
SCALE
  5
5E
102
{ACAD_REACTORS
330
47
102
}
330
47
100
AcDbScale
 70
     0
300
1/8" = 1'-0"
140
0.125
141
12.0
290
     0
  0
SCALE
  5
5F
102
{ACAD_REACTORS
330
47
102
}
330
47
100
AcDbScale
 70
     0
300
3/16" = 1'-0"
140
0.1875
141
12.0
290
     0
  0
SCALE
  5
60
102
{ACAD_REACTORS
330
47
102
}
330
47
100
AcDbScale
 70
     0
300
1/4" = 1'-0"
140
0.25
141
12.0
290
     0
  0
SCALE
  5
61
102
{ACAD_REACTORS
330
47
102
}
330
47
100
AcDbScale
 70
     0
300
3/8" = 1'-0"
140
0.375
141
12.0
290
     0
  0
SCALE
  5
62
102
{ACAD_REACTORS
330
47
102
}
330
47
100
AcDbScale
 70
     0
300
1/2" = 1'-0"
140
0.5
141
12.0
290
     0
  0
SCALE
  5
63
102
{ACAD_REACTORS
330
47
102
}
330
47
100
AcDbScale
 70
     0
300
3/4" = 1'-0"
140
0.75
141
12.0
290
     0
  0
SCALE
  5
64
102
{ACAD_REACTORS
330
47
102
}
330
47
100
AcDbScale
 70
     0
300
1" = 1'-0"
140
1.0
141
12.0
290
     0
  0
SCALE
  5
65
102
{ACAD_REACTORS
330
47
102
}
330
47
100
AcDbScale
 70
     0
300
1-1/2" = 1'-0"
140
1.5
141
12.0
290
     0
  0
SCALE
  5
66
102
{ACAD_REACTORS
330
47
102
}
330
47
100
AcDbScale
 70
     0
300
3" = 1'-0"
140
3.0
141
12.0
290
     0
  0
SCALE
  5
67
102
{ACAD_REACTORS
330
47
102
}
330
47
100
AcDbScale
 70
     0
300
6" = 1'-0"
140
6.0
141
12.0
290
     0
  0
SCALE
  5
68
102
{ACAD_REACTORS
330
47
102
}
330
47
100
AcDbScale
 70
     0
300
1'-0" = 1'-0"
140
12.0
141
12.0
290
     0
  0
ENDSEC
  0
EOF
