  0
SECTION
  2
HEADER
  9
$ACADVER
  1
AC1015
  9
$ACADMAINTVER
 70
     6
  9
$DWGCODEPAGE
  3
ANSI_1257
  9
$INSBASE
 10
0.0
 20
0.0
 30
0.0
  9
$EXTMIN
 10
-401.9697327975
 20
-522.8577191114
 30
0.0
  9
$EXTMAX
 10
870.7054258570001
 20
324.6540213056001
 30
0.0
  9
$LIMMIN
 10
0.0
 20
0.0
  9
$LIMMAX
 10
420.0
 20
297.0
  9
$ORTHOMODE
 70
     1
  9
$REGENMODE
 70
     1
  9
$FILLMODE
 70
     1
  9
$QTEXTMODE
 70
     0
  9
$MIRRTEXT
 70
     1
  9
$LTSCALE
 40
1.0
  9
$ATTMODE
 70
     1
  9
$TEXTSIZE
 40
5.6444444444
  9
$TRACEWID
 40
1.0
  9
$TEXTSTYLE
  7
Standard
  9
$CLAYER
  8
0
  9
$CELTYPE
  6
ByLayer
  9
$CECOLOR
 62
   256
  9
$CELTSCALE
 40
1.0
  9
$DISPSILH
 70
     0
  9
$DIMSCALE
 40
1.0
  9
$DIMASZ
 40
3.175
  9
$DIMEXO
 40
1.0
  9
$DIMDLI
 40
3.75
  9
$DIMRND
 40
0.0
  9
$DIMDLE
 40
0.0
  9
$DIMEXE
 40
1.0
  9
$DIMTP
 40
0.0
  9
$DIMTM
 40
0.0
  9
$DIMTXT
 40
4.9388888889
  9
$DIMCEN
 40
2.5
  9
$DIMTSZ
 40
0.0
  9
$DIMTOL
 70
     0
  9
$DIMLIM
 70
     0
  9
$DIMTIH
 70
     1
  9
$DIMTOH
 70
     1
  9
$DIMSE1
 70
     0
  9
$DIMSE2
 70
     0
  9
$DIMTAD
 70
     1
  9
$DIMZIN
 70
     0
  9
$DIMBLK
  1

  9
$DIMASO
 70
     1
  9
$DIMSHO
 70
     1
  9
$DIMPOST
  1

  9
$DIMAPOST
  1

  9
$DIMALT
 70
     0
  9
$DIMALTD
 70
     3
  9
$DIMALTF
 40
0.0393700787
  9
$DIMLFAC
 40
1.0
  9
$DIMTOFL
 70
     1
  9
$DIMTVP
 40
0.0
  9
$DIMTIX
 70
     0
  9
$DIMSOXD
 70
     0
  9
$DIMSAH
 70
     0
  9
$DIMBLK1
  1

  9
$DIMBLK2
  1

  9
$DIMSTYLE
  2
ISO-25
  9
$DIMCLRD
 70
     0
  9
$DIMCLRE
 70
     0
  9
$DIMCLRT
 70
     0
  9
$DIMTFAC
 40
1.0
  9
$DIMGAP
 40
1.524
  9
$DIMJUST
 70
     0
  9
$DIMSD1
 70
     0
  9
$DIMSD2
 70
     0
  9
$DIMTOLJ
 70
     0
  9
$DIMTZIN
 70
     0
  9
$DIMALTZ
 70
     0
  9
$DIMALTTZ
 70
     0
  9
$DIMUPT
 70
     0
  9
$DIMDEC
 70
     1
  9
$DIMTDEC
 70
     1
  9
$DIMALTU
 70
     2
  9
$DIMALTTD
 70
     3
  9
$DIMTXSTY
  7
Standard
  9
$DIMAUNIT
 70
     0
  9
$DIMADEC
 70
     1
  9
$DIMALTRND
 40
0.0
  9
$DIMAZIN
 70
     0
  9
$DIMDSEP
 70
    44
  9
$DIMATFIT
 70
     3
  9
$DIMFRAC
 70
     0
  9
$DIMLDRBLK
  1

  9
$DIMLUNIT
 70
     2
  9
$DIMLWD
 70
    -2
  9
$DIMLWE
 70
    -2
  9
$DIMTMOVE
 70
     0
  9
$LUNITS
 70
     2
  9
$LUPREC
 70
     1
  9
$SKETCHINC
 40
1.0
  9
$FILLETRAD
 40
10.0
  9
$AUNITS
 70
     0
  9
$AUPREC
 70
     1
  9
$MENU
  1
.
  9
$ELEVATION
 40
0.0
  9
$PELEVATION
 40
0.0
  9
$THICKNESS
 40
0.0
  9
$LIMCHECK
 70
     0
  9
$CHAMFERA
 40
0.0
  9
$CHAMFERB
 40
0.0
  9
$CHAMFERC
 40
0.0
  9
$CHAMFERD
 40
0.0
  9
$SKPOLY
 70
     0
  9
$TDCREATE
 40
2459178.650230567
  9
$TDUCREATE
 40
2459178.566897234
  9
$TDUPDATE
 40
2459178.664005266
  9
$TDUUPDATE
 40
2459178.580671933
  9
$TDINDWG
 40
0.0010359722
  9
$TDUSRTIMER
 40
0.0000436574
  9
$USRTIMER
 70
     1
  9
$ANGBASE
 50
0.0
  9
$ANGDIR
 70
     0
  9
$PDMODE
 70
     0
  9
$PDSIZE
 40
-1.0
  9
$PLINEWID
 40
0.0
  9
$SPLFRAME
 70
     0
  9
$SPLINETYPE
 70
     6
  9
$SPLINESEGS
 70
     8
  9
$HANDSEED
  5
3AF
  9
$SURFTAB1
 70
     6
  9
$SURFTAB2
 70
     6
  9
$SURFTYPE
 70
     6
  9
$SURFU
 70
     6
  9
$SURFV
 70
     6
  9
$UCSBASE
  2

  9
$UCSNAME
  2

  9
$UCSORG
 10
0.0
 20
0.0
 30
0.0
  9
$UCSXDIR
 10
1.0
 20
0.0
 30
0.0
  9
$UCSYDIR
 10
0.0
 20
1.0
 30
0.0
  9
$UCSORTHOREF
  2

  9
$UCSORTHOVIEW
 70
     0
  9
$UCSORGTOP
 10
0.0
 20
0.0
 30
0.0
  9
$UCSORGBOTTOM
 10
0.0
 20
0.0
 30
0.0
  9
$UCSORGLEFT
 10
0.0
 20
0.0
 30
0.0
  9
$UCSORGRIGHT
 10
0.0
 20
0.0
 30
0.0
  9
$UCSORGFRONT
 10
0.0
 20
0.0
 30
0.0
  9
$UCSORGBACK
 10
0.0
 20
0.0
 30
0.0
  9
$PUCSBASE
  2

  9
$PUCSNAME
  2

  9
$PUCSORG
 10
0.0
 20
0.0
 30
0.0
  9
$PUCSXDIR
 10
1.0
 20
0.0
 30
0.0
  9
$PUCSYDIR
 10
0.0
 20
1.0
 30
0.0
  9
$PUCSORTHOREF
  2

  9
$PUCSORTHOVIEW
 70
     0
  9
$PUCSORGTOP
 10
0.0
 20
0.0
 30
0.0
  9
$PUCSORGBOTTOM
 10
0.0
 20
0.0
 30
0.0
  9
$PUCSORGLEFT
 10
0.0
 20
0.0
 30
0.0
  9
$PUCSORGRIGHT
 10
0.0
 20
0.0
 30
0.0
  9
$PUCSORGFRONT
 10
0.0
 20
0.0
 30
0.0
  9
$PUCSORGBACK
 10
0.0
 20
0.0
 30
0.0
  9
$USERI1
 70
     0
  9
$USERI2
 70
     0
  9
$USERI3
 70
     0
  9
$USERI4
 70
     0
  9
$USERI5
 70
     0
  9
$USERR1
 40
0.0
  9
$USERR2
 40
0.0
  9
$USERR3
 40
0.0
  9
$USERR4
 40
0.0
  9
$USERR5
 40
0.0
  9
$WORLDVIEW
 70
     1
  9
$SHADEDGE
 70
     3
  9
$SHADEDIF
 70
    70
  9
$TILEMODE
 70
     1
  9
$MAXACTVP
 70
    64
  9
$PINSBASE
 10
0.0
 20
0.0
 30
0.0
  9
$PLIMCHECK
 70
     0
  9
$PEXTMIN
 10
1.000000000000000E+20
 20
1.000000000000000E+20
 30
1.000000000000000E+20
  9
$PEXTMAX
 10
-1.000000000000000E+20
 20
-1.000000000000000E+20
 30
-1.000000000000000E+20
  9
$PLIMMIN
 10
0.0
 20
0.0
  9
$PLIMMAX
 10
0.0
 20
0.0
  9
$UNITMODE
 70
     0
  9
$VISRETAIN
 70
     1
  9
$PLINEGEN
 70
     0
  9
$PSLTSCALE
 70
     1
  9
$TREEDEPTH
 70
  3020
  9
$CMLSTYLE
  2
Standard
  9
$CMLJUST
 70
     0
  9
$CMLSCALE
 40
20.0
  9
$PROXYGRAPHICS
 70
     1
  9
$MEASUREMENT
 70
     1
  9
$CELWEIGHT
370
    -1
  9
$ENDCAPS
280
     0
  9
$JOINSTYLE
280
     0
  9
$LWDISPLAY
290
     1
  9
$INSUNITS
 70
     4
  9
$HYPERLINKBASE
  1

  9
$STYLESHEET
  1

  9
$XEDIT
290
     1
  9
$CEPSNTYPE
380
     0
  9
$PSTYLEMODE
290
     1
  9
$FINGERPRINTGUID
  2
{42f52727-bcc4-41bf-9e87-c9d6ff752733}
  9
$VERSIONGUID
  2
{FAEB1C32-E019-11D5-929B-00C0DF256EC4}
  9
$EXTNAMES
290
     1
  9
$PSVPSCALE
 40
0.0
  9
$OLESTARTUP
290
     0
  0
ENDSEC
  0
SECTION
  2
CLASSES
  0
CLASS
  1
ACDBDICTIONARYWDFLT
  2
AcDbDictionaryWithDefault
  3
ObjectDBX Classes
 90
        0
280
     0
281
     0
  0
CLASS
  1
VISUALSTYLE
  2
AcDbVisualStyle
  3
ObjectDBX Classes
 90
     4095
280
     0
281
     0
  0
CLASS
  1
MATERIAL
  2
AcDbMaterial
  3
ObjectDBX Classes
 90
     1153
280
     0
281
     0
  0
CLASS
  1
SCALE
  2
AcDbScale
  3
ObjectDBX Classes
 90
     1153
280
     0
281
     0
  0
CLASS
  1
TABLESTYLE
  2
AcDbTableStyle
  3
ObjectDBX Classes
 90
     4095
280
     0
281
     0
  0
CLASS
  1
MLEADERSTYLE
  2
AcDbMLeaderStyle
  3
ACDB_MLEADERSTYLE_CLASS
 90
     4095
280
     0
281
     0
  0
CLASS
  1
SUN
  2
AcDbSun
  3
SCENEOE
 90
     1153
280
     0
281
     0
  0
CLASS
  1
ACDBPLACEHOLDER
  2
AcDbPlaceHolder
  3
ObjectDBX Classes
 90
        0
280
     0
281
     0
  0
CLASS
  1
LAYOUT
  2
AcDbLayout
  3
ObjectDBX Classes
 90
        0
280
     0
281
     0
  0
ENDSEC
  0
SECTION
  2
TABLES
  0
TABLE
  2
VPORT
  5
8
330
0
100
AcDbSymbolTable
 70
     1
  0
VPORT
  5
29
330
8
100
AcDbSymbolTableRecord
100
AcDbViewportTableRecord
  2
*Active
 70
     0
 10
0.0
 20
0.0
 11
1.0
 21
1.0
 12
-379.6629292068189
 22
237.1443320928486
 13
0.0
 23
0.0
 14
10.0
 24
10.0
 15
10.0
 25
10.0
 16
0.0
 26
0.0
 36
1.0
 17
0.0
 27
0.0
 37
0.0
 40
1770.257949829101
 41
1.912558139534884
 42
50.0
 43
0.0
 44
0.0
 50
0.0
 51
0.0
 71
    16
 72
  2000
 73
     1
 74
     3
 75
     0
 76
     0
 77
     0
 78
     0
281
     0
 65
     1
110
0.0
120
0.0
130
0.0
111
1.0
121
0.0
131
0.0
112
0.0
122
1.0
132
0.0
 79
     0
146
0.0
  0
ENDTAB
  0
TABLE
  2
LTYPE
  5
5
330
0
100
AcDbSymbolTable
 70
     6
  0
LTYPE
  5
14
330
5
100
AcDbSymbolTableRecord
100
AcDbLinetypeTableRecord
  2
ByBlock
 70
     0
  3

 72
    65
 73
     0
 40
0.0
  0
LTYPE
  5
15
330
5
100
AcDbSymbolTableRecord
100
AcDbLinetypeTableRecord
  2
ByLayer
 70
     0
  3

 72
    65
 73
     0
 40
0.0
  0
LTYPE
  5
16
330
5
100
AcDbSymbolTableRecord
100
AcDbLinetypeTableRecord
  2
Continuous
 70
     0
  3
Solid line
 72
    65
 73
     0
 40
0.0
  0
LTYPE
  5
6E
330
5
100
AcDbSymbolTableRecord
100
AcDbLinetypeTableRecord
  2
HIDDEN
 70
     0
  3
Hidden __ __ __ __ __ __ __ __ __ __ __ __ __ __
 72
    65
 73
     2
 40
1.905
 49
1.27
 74
     0
 49
-0.635
 74
     0
  0
LTYPE
  5
6F
330
5
100
AcDbSymbolTableRecord
100
AcDbLinetypeTableRecord
  2
PHANTOM
 70
     0
  3
Phantom ______  __  __  ______  __  __  ______
 72
    65
 73
     6
 40
12.7
 49
6.35
 74
     0
 49
-1.27
 74
     0
 49
1.27
 74
     0
 49
-1.27
 74
     0
 49
1.27
 74
     0
 49
-1.27
 74
     0
  0
LTYPE
  5
70
330
5
100
AcDbSymbolTableRecord
100
AcDbLinetypeTableRecord
  2
CENTER
 70
     0
  3
Center ____ _ ____ _ ____ _ ____ _ ____ _ ____
 72
    65
 73
     4
 40
10.16
 49
6.35
 74
     0
 49
-1.27
 74
     0
 49
1.27
 74
     0
 49
-1.27
 74
     0
  0
LTYPE
  5
71
330
5
100
AcDbSymbolTableRecord
100
AcDbLinetypeTableRecord
  2
CENTERX2
 70
     0
  3
Center (2x) ________  __  ________  __  _____
 72
    65
 73
     4
 40
20.32
 49
12.7
 74
     0
 49
-2.54
 74
     0
 49
2.54
 74
     0
 49
-2.54
 74
     0
  0
LTYPE
  5
72
330
5
100
AcDbSymbolTableRecord
100
AcDbLinetypeTableRecord
  2
DOT2
 70
     0
  3
Dot (.5x) ........................................
 72
    65
 73
     2
 40
0.635
 49
0.0
 74
     0
 49
-0.635
 74
     0
  0
ENDTAB
  0
TABLE
  2
LAYER
  5
2
330
0
100
AcDbSymbolTable
 70
     2
  0
LAYER
  5
10
330
2
100
AcDbSymbolTableRecord
100
AcDbLayerTableRecord
  2
0
 70
     0
 62
     7
  6
Continuous
370
    -3
390
F
  0
LAYER
  5
73
330
2
100
AcDbSymbolTableRecord
100
AcDbLayerTableRecord
  2
LENKIMO
 70
     0
 62
     1
  6
CENTERX2
370
    -3
390
F
  0
ENDTAB
  0
TABLE
  2
STYLE
  5
3
330
0
100
AcDbSymbolTable
 70
     1
  0
STYLE
  5
11
330
3
100
AcDbSymbolTableRecord
100
AcDbTextStyleTableRecord
  2
Standard
 70
     0
 40
0.0
 41
1.0
 50
0.0
 71
     0
 42
5.6444444444
  3
txt
  4

  0
ENDTAB
  0
TABLE
  2
VIEW
  5
6
330
0
100
AcDbSymbolTable
 70
     0
  0
ENDTAB
  0
TABLE
  2
UCS
  5
7
330
0
100
AcDbSymbolTable
 70
     0
  0
ENDTAB
  0
TABLE
  2
APPID
  5
9
330
0
100
AcDbSymbolTable
 70
     1
  0
APPID
  5
12
330
9
100
AcDbSymbolTableRecord
100
AcDbRegAppTableRecord
  2
ACAD
 70
     0
  0
ENDTAB
  0
TABLE
  2
DIMSTYLE
  5
A
330
0
100
AcDbSymbolTable
 70
     5
100
AcDbDimStyleTable
  0
DIMSTYLE
105
27
330
A
100
AcDbSymbolTableRecord
100
AcDbDimStyleTableRecord
  2
ISO-25
 70
     0
 41
2.5
 42
0.625
 43
3.75
 44
1.25
 73
     0
 74
     0
 77
     1
 78
     8
140
2.5
141
2.5
143
0.0393700787
147
0.625
171
     3
172
     1
178
     0
271
     2
272
     2
274
     3
278
    44
283
     0
284
     8
340
11
  0
DIMSTYLE
105
33A
330
A
100
AcDbSymbolTableRecord
100
AcDbDimStyleTableRecord
  2
SLDDIMSTYLE1
 70
     0
 41
4.0
 44
0.0
 45
0.000000001
 73
     0
 77
     1
 78
    12
140
2.6458333333
144
10.0
147
0.6614583333000001
173
     1
178
     0
340
11
  0
DIMSTYLE
105
33B
330
A
100
AcDbSymbolTableRecord
100
AcDbDimStyleTableRecord
  2
SLDDIMSTYLE2
 70
     0
 41
4.0
 44
0.0
 45
0.000000001
 73
     0
 77
     1
 78
    12
140
2.6458333333
144
10.0
147
0.6614583333000001
173
     1
178
     0
340
11
  0
DIMSTYLE
105
33C
330
A
100
AcDbSymbolTableRecord
100
AcDbDimStyleTableRecord
  2
SLDDIMSTYLE3
 70
     0
 41
4.0
 44
0.0
 45
0.000000001
146
4.0
147
0.0
173
     1
178
     0
340
11
  0
DIMSTYLE
105
33D
330
A
100
AcDbSymbolTableRecord
100
AcDbDimStyleTableRecord
  2
SLDDIMSTYLE4
 70
     0
 41
4.0
 44
0.0
 73
     0
 77
     1
 78
    12
140
2.6458333333
144
7.5
147
0.6614583333000001
173
     1
178
     0
340
11
  0
ENDTAB
  0
TABLE
  2
BLOCK_RECORD
  5
1
330
0
100
AcDbSymbolTable
 70
     7
  0
BLOCK_RECORD
  5
1F
102
{ACAD_XDICTIONARY
360
3AA
102
}
330
1
100
AcDbSymbolTableRecord
100
AcDbBlockTableRecord
  2
*Model_Space
340
22
  0
BLOCK_RECORD
  5
1B
330
1
100
AcDbSymbolTableRecord
100
AcDbBlockTableRecord
  2
*Paper_Space
340
1E
  0
BLOCK_RECORD
  5
23
330
1
100
AcDbSymbolTableRecord
100
AcDbBlockTableRecord
  2
*Paper_Space0
340
26
  0
BLOCK_RECORD
  5
74
330
1
100
AcDbSymbolTableRecord
100
AcDbBlockTableRecord
  2
Block11_2
340
0
  0
BLOCK_RECORD
  5
34D
330
1
100
AcDbSymbolTableRecord
100
AcDbBlockTableRecord
  2
*U3
340
0
102
{BLKREFS
331
34C
331
0
102
}
  0
BLOCK_RECORD
  5
359
330
1
100
AcDbSymbolTableRecord
100
AcDbBlockTableRecord
  2
*U4
340
0
102
{BLKREFS
331
358
331
37B
102
}
  0
BLOCK_RECORD
  5
360
330
1
100
AcDbSymbolTableRecord
100
AcDbBlockTableRecord
  2
*U5
340
0
102
{BLKREFS
331
35F
331
37E
102
}
  0
BLOCK_RECORD
  5
365
330
1
100
AcDbSymbolTableRecord
100
AcDbBlockTableRecord
  2
*U6
340
0
102
{BLKREFS
331
364
331
37F
102
}
  0
BLOCK_RECORD
  5
399
330
1
100
AcDbSymbolTableRecord
100
AcDbBlockTableRecord
  2
*U8
340
0
102
{BLKREFS
331
398
331
3A8
102
}
  0
ENDTAB
  0
ENDSEC
  0
SECTION
  2
BLOCKS
  0
BLOCK
  5
20
330
1F
100
AcDbEntity
  8
0
100
AcDbBlockBegin
  2
*Model_Space
 70
     0
 10
0.0
 20
0.0
 30
0.0
  3
*Model_Space
  1

  0
ENDBLK
  5
21
330
1F
100
AcDbEntity
  8
0
100
AcDbBlockEnd
  0
BLOCK
  5
1C
330
1B
100
AcDbEntity
 67
     1
  8
0
100
AcDbBlockBegin
  2
*Paper_Space
 70
     0
 10
0.0
 20
0.0
 30
0.0
  3
*Paper_Space
  1

  0
ENDBLK
  5
1D
330
1B
100
AcDbEntity
 67
     1
  8
0
100
AcDbBlockEnd
  0
BLOCK
  5
24
330
23
100
AcDbEntity
  8
0
100
AcDbBlockBegin
  2
*Paper_Space0
 70
     0
 10
0.0
 20
0.0
 30
0.0
  3
*Paper_Space0
  1

  0
ENDBLK
  5
25
330
23
100
AcDbEntity
  8
0
100
AcDbBlockEnd
  0
BLOCK
  5
75
330
74
100
AcDbEntity
  8
0
100
AcDbBlockBegin
  2
Block11_2
 70
     0
 10
0.0
 20
0.0
 30
0.0
  3
Block11_2
  1

  0
LINE
  5
77
330
74
100
AcDbEntity
  8
0
  6
Continuous
100
AcDbLine
 10
-15.7956326374
 20
2.3055746011
 30
0.0
 11
-18.0649288667
 21
1.8146036087
 31
0.0
  0
LINE
  5
78
330
74
100
AcDbEntity
  8
0
  6
Continuous
100
AcDbLine
 10
-15.6988785554
 20
-9.1195335787
 30
0.0
 11
-10.2261014967
 21
-7.9354771524
 31
0.0
  0
LINE
  5
79
330
74
100
AcDbEntity
  8
0
  6
Continuous
100
AcDbLine
 10
-10.2261014967
 20
-7.9354771524
 30
0.0
 11
-10.6655808869
 21
-5.9041780766
 31
0.0
  0
LINE
  5
7A
330
74
100
AcDbEntity
  8
0
  6
Continuous
100
AcDbLine
 10
-10.6655808869
 20
-5.9041780766
 30
0.0
 11
-13.8699456036
 21
-6.5974547429
 31
0.0
  0
LINE
  5
7B
330
74
100
AcDbEntity
  8
0
  6
Continuous
100
AcDbLine
 10
-8.296070931
 20
1.802048972
 30
0.0
 11
-6.9198111955
 21
2.0998080743
 31
0.0
  0
LINE
  5
7C
330
74
100
AcDbEntity
  8
0
  6
Continuous
100
AcDbLine
 10
-5.4333831358
 20
-4.7719736412
 30
0.0
 11
-6.8095376466
 21
-5.0697099777
 31
0.0
  0
LINE
  5
7D
330
74
100
AcDbEntity
  8
0
  6
Continuous
100
AcDbLine
 10
-11.0044904538
 20
3.3421566929
 30
0.0
 11
-8.6388294738
 21
-7.5920647278
 31
0.0
  0
LINE
  5
7E
330
74
100
AcDbEntity
  8
0
  6
Continuous
100
AcDbLine
 10
-8.6388294738
 20
-7.5920647278
 30
0.0
 11
-8.6384401425
 21
-7.5919804944
 31
0.0
  0
LINE
  5
7F
330
74
100
AcDbEntity
  8
0
  6
Continuous
100
AcDbLine
 10
-8.6384401425
 20
-7.5919804944
 30
0.0
 11
-4.4940245505
 21
-6.6953201952
 31
0.0
  0
LINE
  5
80
330
74
100
AcDbEntity
  8
0
  6
Continuous
100
AcDbLine
 10
-6.8595855671
 20
4.238922853
 30
0.0
 11
-11.0044904538
 21
3.3421566929
 31
0.0
  0
LINE
  5
81
330
74
100
AcDbEntity
  8
0
  6
Continuous
100
AcDbLine
 10
-32.9933593229
 20
-3.3005605139
 30
0.0
 11
-32.8591663041
 21
-3.2715273367
 31
0.0
  0
LINE
  5
82
330
74
100
AcDbEntity
  8
0
  6
Continuous
100
AcDbLine
 10
-31.5697721187
 20
-3.9678201523
 30
0.0
 11
-29.2969561243
 21
-3.4760876451
 31
0.0
  0
LINE
  5
83
330
74
100
AcDbEntity
  8
0
  6
Continuous
100
AcDbLine
 10
-33.2794920496
 20
-1.2667721217
 30
0.0
 11
-33.3448839193
 21
-1.2809199049
 31
0.0
  0
LINE
  5
84
330
74
100
AcDbEntity
  8
0
  6
Continuous
100
AcDbLine
 10
-31.3289079349
 20
-10.5856399919
 30
0.0
 11
-31.4650581325
 21
-10.6150966123
 31
0.0
  0
LINE
  5
85
330
74
100
AcDbEntity
  8
0
  6
Continuous
100
AcDbLine
 10
-32.8822392925
 20
-9.9377601564
 30
0.0
 11
-35.1888692339
 21
-10.4368084414
 31
0.0
  0
LINE
  5
86
330
74
100
AcDbEntity
  8
0
  6
Continuous
100
AcDbLine
 10
-31.5949683304
 20
-12.7295787952
 30
0.0
 11
-30.2063920476
 21
-12.4291549603
 31
0.0
  0
LINE
  5
87
330
74
100
AcDbEntity
  8
0
  6
Continuous
100
AcDbLine
 10
6.262509235
 20
-4.3681026205
 30
0.0
 11
8.6370616994
 21
-3.8543590356
 31
0.0
  0
LINE
  5
88
330
74
100
AcDbEntity
  8
0
  6
Continuous
100
AcDbLine
 10
8.6370616994
 20
-3.8543590356
 30
0.0
 11
3.9059396663
 21
6.5680857621
 31
0.0
  0
LINE
  5
89
330
74
100
AcDbEntity
  8
0
  6
Continuous
100
AcDbLine
 10
3.9059396663
 20
6.5680857621
 30
0.0
 11
0.0
 21
5.7230206493
 31
0.0
  0
LINE
  5
8A
330
74
100
AcDbEntity
  8
0
  6
Continuous
100
AcDbLine
 10
0.0
 20
5.7230206493
 30
0.0
 11
0.0
 21
-5.7230206493
 31
0.0
  0
LINE
  5
8B
330
74
100
AcDbEntity
  8
0
  6
Continuous
100
AcDbLine
 10
0.0
 20
-5.7230206493
 30
0.0
 11
2.3746576891
 21
-5.2092542987
 31
0.0
  0
LINE
  5
8C
330
74
100
AcDbEntity
  8
0
  6
Continuous
100
AcDbLine
 10
2.3746576891
 20
-5.2092542987
 30
0.0
 11
2.3747844598
 21
-3.0912381741
 31
0.0
  0
LINE
  5
8D
330
74
100
AcDbEntity
  8
0
  6
Continuous
100
AcDbLine
 10
2.3747844598
 20
-3.0912381741
 30
0.0
 11
4.0318309599
 21
-2.7327297722
 31
0.0
  0
LINE
  5
8E
330
74
100
AcDbEntity
  8
0
  6
Continuous
100
AcDbLine
 10
4.0318309599
 20
-2.7327297722
 30
0.0
 11
3.5923515697
 21
-0.7014306964
 31
0.0
  0
LINE
  5
8F
330
74
100
AcDbEntity
  8
0
  6
Continuous
100
AcDbLine
 10
3.5923515697
 20
-0.7014306964
 30
0.0
 11
2.3750284336
 21
-0.9648032524
 31
0.0
  0
LINE
  5
90
330
74
100
AcDbEntity
  8
0
  6
Continuous
100
AcDbLine
 10
2.3750284336
 20
-0.9648032524
 30
0.0
 11
2.3752084601
 21
4.1936873712
 31
0.0
  0
LINE
  5
91
330
74
100
AcDbEntity
  8
0
  6
Continuous
100
AcDbLine
 10
2.3752084601
 20
4.1936873712
 30
0.0
 11
6.262509235
 21
-4.3681026205
 31
0.0
  0
LINE
  5
92
330
74
100
AcDbEntity
  8
0
  6
Continuous
100
AcDbLine
 10
-53.0629352118
 20
-11.4801779454
 30
0.0
 11
-50.7945341276
 21
-8.0228043203
 31
0.0
  0
LINE
  5
93
330
74
100
AcDbEntity
  8
0
  6
Continuous
100
AcDbLine
 10
-50.7945341276
 20
-8.0228043203
 30
0.0
 11
-54.2891069366
 21
-5.8122833411
 31
0.0
  0
LINE
  5
94
330
74
100
AcDbEntity
  8
0
  6
Continuous
100
AcDbLine
 10
-54.2891069366
 20
-5.8122833411
 30
0.0
 11
-51.4073820962
 21
-5.1888110564
 31
0.0
  0
LINE
  5
95
330
74
100
AcDbEntity
  8
0
  6
Continuous
100
AcDbLine
 10
-51.4073820962
 20
-5.1888110564
 30
0.0
 11
-47.9127327975
 21
-7.3992273667
 31
0.0
  0
LINE
  5
96
330
74
100
AcDbEntity
  8
0
  6
Continuous
100
AcDbLine
 10
-47.9127327975
 20
-7.3992273667
 30
0.0
 11
-50.1813587974
 21
-10.8569360435
 31
0.0
  0
LINE
  5
97
330
74
100
AcDbEntity
  8
0
  6
Continuous
100
AcDbLine
 10
-50.1813587974
 20
-10.8569360435
 30
0.0
 11
-53.0628942334
 21
-11.4803673498
 31
0.0
  0
LINE
  5
98
330
74
100
AcDbEntity
  8
0
  6
Continuous
100
AcDbLine
 10
-53.0628942334
 20
-11.4803673498
 30
0.0
 11
-53.0629352118
 21
-11.4801779454
 31
0.0
  0
LINE
  5
99
330
74
100
AcDbEntity
  8
0
  6
Continuous
100
AcDbLine
 10
-42.7624916815
 20
-3.31845567
 30
0.0
 11
-45.0307950789
 21
-6.7757971452
 31
0.0
  0
LINE
  5
9A
330
74
100
AcDbEntity
  8
0
  6
Continuous
100
AcDbLine
 10
-45.0307950789
 20
-6.7757971452
 30
0.0
 11
-48.5254573289
 21
-4.5652955168
 31
0.0
  0
LINE
  5
9B
330
74
100
AcDbEntity
  8
0
  6
Continuous
100
AcDbLine
 10
-48.5254573289
 20
-4.5652955168
 30
0.0
 11
-48.5257466967
 21
-4.5653581227
 31
0.0
  0
LINE
  5
9C
330
74
100
AcDbEntity
  8
0
  6
Continuous
100
AcDbLine
 10
-48.5257466967
 20
-4.5653581227
 30
0.0
 11
-47.9126146215
 21
-7.399289919
 31
0.0
  0
LINE
  5
9D
330
74
100
AcDbEntity
  8
0
  6
Continuous
100
AcDbLine
 10
-47.9126146215
 20
-7.399289919
 30
0.0
 11
-44.4177372167
 21
-9.6098441329
 31
0.0
  0
LINE
  5
9E
330
74
100
AcDbEntity
  8
0
  6
Continuous
100
AcDbLine
 10
-44.4177372167
 20
-9.6098441329
 30
0.0
 11
-42.1490649772
 21
-6.1523237222
 31
0.0
  0
LINE
  5
9F
330
74
100
AcDbEntity
  8
0
  6
Continuous
100
AcDbLine
 10
-42.1490649772
 20
-6.1523237222
 30
0.0
 11
-42.7621970524
 21
-3.3183919259
 31
0.0
  0
LINE
  5
A0
330
74
100
AcDbEntity
  8
0
  6
Continuous
100
AcDbLine
 10
-42.7621970524
 20
-3.3183919259
 30
0.0
 11
-42.7624916815
 21
-3.31845567
 31
0.0
  0
LINE
  5
A1
330
74
100
AcDbEntity
  8
0
  6
Continuous
100
AcDbLine
 10
-41.535889647
 20
-8.9864554454
 30
0.0
 11
-43.8045413973
 21
-12.4440705583
 31
0.0
  0
LINE
  5
A2
330
74
100
AcDbEntity
  8
0
  6
Continuous
100
AcDbLine
 10
-43.8045413973
 20
-12.4440705583
 30
0.0
 11
-40.3564529382
 21
-14.625159785
 31
0.0
  0
LINE
  5
A3
330
74
100
AcDbEntity
  8
0
  6
Continuous
100
AcDbLine
 10
-40.3564529382
 20
-14.625159785
 30
0.0
 11
-43.2382724808
 21
-15.2486525588
 31
0.0
  0
LINE
  5
A4
330
74
100
AcDbEntity
  8
0
  6
Continuous
100
AcDbLine
 10
-43.2382724808
 20
-15.2486525588
 30
0.0
 11
-46.686243472
 21
-13.0676480676
 31
0.0
  0
LINE
  5
A5
330
74
100
AcDbEntity
  8
0
  6
Continuous
100
AcDbLine
 10
-46.686243472
 20
-13.0676480676
 30
0.0
 11
-44.4177144509
 21
-9.6099493576
 31
0.0
  0
LINE
  5
A6
330
74
100
AcDbEntity
  8
0
  6
Continuous
100
AcDbLine
 10
-44.4177144509
 20
-9.6099493576
 30
0.0
 11
-41.535889647
 21
-8.9864554454
 31
0.0
  0
LINE
  5
A7
330
74
100
AcDbEntity
  8
0
  6
Continuous
100
AcDbLine
 10
-51.8063383656
 20
-17.1023866618
 30
0.0
 11
-49.5681857438
 21
-13.6910572443
 31
0.0
  0
LINE
  5
A8
330
74
100
AcDbEntity
  8
0
  6
Continuous
100
AcDbLine
 10
-49.5681857438
 20
-13.6910572443
 30
0.0
 11
-46.1199973213
 21
-15.8721248435
 31
0.0
  0
LINE
  5
A9
330
74
100
AcDbEntity
  8
0
  6
Continuous
100
AcDbLine
 10
-46.1199973213
 20
-15.8721248435
 30
0.0
 11
-46.0813956519
 21
-15.8637732234
 31
0.0
  0
LINE
  5
AA
330
74
100
AcDbEntity
  8
0
  6
Continuous
100
AcDbLine
 10
-46.0813956519
 20
-15.8637732234
 30
0.0
 11
-46.6863662012
 21
-13.0675644704
 31
0.0
  0
LINE
  5
AB
330
74
100
AcDbEntity
  8
0
  6
Continuous
100
AcDbLine
 10
-46.6863662012
 20
-13.0675644704
 30
0.0
 11
-50.1813587974
 21
-10.8569360435
 31
0.0
  0
LINE
  5
AC
330
74
100
AcDbEntity
  8
0
  6
Continuous
100
AcDbLine
 10
-50.1813587974
 20
-10.8569360435
 30
0.0
 11
-52.4497621582
 21
-14.3142991462
 31
0.0
  0
LINE
  5
AD
330
74
100
AcDbEntity
  8
0
  6
Continuous
100
AcDbLine
 10
-52.4497621582
 20
-14.3142991462
 30
0.0
 11
-51.8447506306
 21
-17.1106973035
 31
0.0
  0
LINE
  5
AE
330
74
100
AcDbEntity
  8
0
  6
Continuous
100
AcDbLine
 10
-51.8447506306
 20
-17.1106973035
 30
0.0
 11
-51.8063383656
 21
-17.1023866618
 31
0.0
  0
LINE
  5
AF
330
74
100
AcDbEntity
  8
0
  6
Continuous
100
AcDbLine
 10
-20.0432683672
 20
-10.0594590717
 30
0.0
 11
-17.6687053803
 21
-9.5457132103
 31
0.0
  0
LINE
  5
B0
330
74
100
AcDbEntity
  8
0
  6
Continuous
100
AcDbLine
 10
-17.6687053803
 20
-9.5457132103
 30
0.0
 11
-22.3998379359
 21
0.8767293109
 31
0.0
  0
LINE
  5
B1
330
74
100
AcDbEntity
  8
0
  6
Continuous
100
AcDbLine
 10
-22.3998379359
 20
0.8767293109
 30
0.0
 11
-26.3058670432
 21
0.0316448472
 31
0.0
  0
LINE
  5
B2
330
74
100
AcDbEntity
  8
0
  6
Continuous
100
AcDbLine
 10
-26.3058670432
 20
0.0316448472
 30
0.0
 11
-26.3056723775
 21
-11.4143543348
 31
0.0
  0
LINE
  5
B3
330
74
100
AcDbEntity
  8
0
  6
Continuous
100
AcDbLine
 10
-26.3056723775
 20
-11.4143543348
 30
0.0
 11
-23.9311146519
 21
-10.9006096116
 31
0.0
  0
LINE
  5
B4
330
74
100
AcDbEntity
  8
0
  6
Continuous
100
AcDbLine
 10
-23.9311146519
 20
-10.9006096116
 30
0.0
 11
-23.9309931424
 21
-8.7825946253
 31
0.0
  0
LINE
  5
B5
330
74
100
AcDbEntity
  8
0
  6
Continuous
100
AcDbLine
 10
-23.9309931424
 20
-8.7825946253
 30
0.0
 11
-22.2738308951
 21
-8.4240611811
 31
0.0
  0
LINE
  5
B6
330
74
100
AcDbEntity
  8
0
  6
Continuous
100
AcDbLine
 10
-22.2738308951
 20
-8.4240611811
 30
0.0
 11
-22.7133102854
 21
-6.3927621053
 31
0.0
  0
LINE
  5
B7
330
74
100
AcDbEntity
  8
0
  6
Continuous
100
AcDbLine
 10
-22.7133102854
 20
-6.3927621053
 30
0.0
 11
-23.9308333483
 21
-6.6561779162
 31
0.0
  0
LINE
  5
B8
330
74
100
AcDbEntity
  8
0
  6
Continuous
100
AcDbLine
 10
-23.9308333483
 20
-6.6561779162
 30
0.0
 11
-23.9305586196
 21
-1.4976668035
 31
0.0
  0
LINE
  5
B9
330
74
100
AcDbEntity
  8
0
  6
Continuous
100
AcDbLine
 10
-23.9305586196
 20
-1.4976668035
 30
0.0
 11
-20.0432683672
 21
-10.0594590717
 31
0.0
  0
SPLINE
  5
BA
330
74
100
AcDbEntity
  8
0
100
AcDbSpline
210
0.0
220
0.0
230
1.0
 70
     8
 71
     3
 72
     8
 73
     4
 74
     0
 42
0.000000001
 43
0.00000001
 40
0.0
 40
0.0
 40
0.0
 40
0.0
 40
1.0
 40
1.0
 40
1.0
 40
1.0
 10
-13.86994560355125
 20
-6.597454742918429
 30
0.0
 10
-13.88373254946556
 20
-6.53373068413859
 30
0.0
 10
-15.11365515797402
 20
-0.8489574873494021
 30
0.0
 10
-15.79563263740206
 20
2.305574601061459
 30
0.0
  0
SPLINE
  5
BB
330
74
100
AcDbEntity
  8
0
100
AcDbSpline
210
0.0
220
0.0
230
1.0
 70
     8
 71
     3
 72
     8
 73
     4
 74
     0
 42
0.000000001
 43
0.00000001
 40
2.0
 40
2.0
 40
2.0
 40
2.0
 40
3.0
 40
3.0
 40
3.0
 40
3.0
 10
-18.06492886668426
 20
1.814603608696524
 30
0.0
 10
-17.24003965005502
 20
-1.995739949107536
 30
0.0
 10
-15.71186186991051
 20
-9.059523950669432
 30
0.0
 10
-15.69887855542093
 20
-9.119533578677906
 30
0.0
  0
SPLINE
  5
BC
330
74
100
AcDbEntity
  8
0
100
AcDbSpline
210
0.0
220
0.0
230
1.0
 70
     8
 71
     3
 72
     8
 73
     4
 74
     0
 42
0.000000001
 43
0.00000001
 40
0.0
 40
0.0
 40
0.0
 40
0.0
 40
1.0
 40
1.0
 40
1.0
 40
1.0
 10
-6.809537646582547
 20
-5.069709977697404
 30
0.0
 10
-7.284290309572815
 20
-2.875375801708635
 30
0.0
 10
-7.897830097865885
 20
-0.0390758678013329
 30
0.0
 10
-8.296070930952649
 20
1.80204897196991
 30
0.0
  0
SPLINE
  5
BD
330
74
100
AcDbEntity
  8
0
100
AcDbSpline
210
0.0
220
0.0
230
1.0
 70
     8
 71
     3
 72
     8
 73
     4
 74
     0
 42
0.000000001
 43
0.00000001
 40
2.0
 40
2.0
 40
2.0
 40
2.0
 40
3.0
 40
3.0
 40
3.0
 40
3.0
 10
-6.919811195494074
 20
2.099808074263809
 30
0.0
 10
-6.228016878711183
 20
2.249480443098069
 30
0.0
 10
-5.547633595833446
 20
1.815851349115847
 30
0.0
 10
-5.399398884916104
 20
1.130701970100344
 30
0.0
  0
SPLINE
  5
BE
330
74
100
AcDbEntity
  8
0
100
AcDbSpline
210
0.0
220
0.0
230
1.0
 70
     8
 71
     3
 72
     8
 73
     4
 74
     0
 42
0.000000001
 43
0.00000001
 40
3.0
 40
3.0
 40
3.0
 40
3.0
 40
4.0
 40
4.0
 40
4.0
 40
4.0
 10
-5.399398884916104
 20
1.130701970100344
 30
0.0
 10
-5.107009087764085
 20
-0.2207405274728672
 30
0.0
 10
-4.711497421058354
 20
-2.048334586467611
 30
0.0
 10
-4.449160707297047
 20
-3.260870000165379
 30
0.0
  0
SPLINE
  5
BF
330
74
100
AcDbEntity
  8
0
100
AcDbSpline
210
0.0
220
0.0
230
1.0
 70
     8
 71
     3
 72
     8
 73
     4
 74
     0
 42
0.000000001
 43
0.00000001
 40
4.0
 40
4.0
 40
4.0
 40
4.0
 40
5.0
 40
5.0
 40
5.0
 40
5.0
 10
-4.449160707297047
 20
-3.260870000165379
 30
0.0
 10
-4.300905507193207
 20
-3.946114081381999
 30
0.0
 10
-4.741570606399121
 20
-4.622385452066122
 30
0.0
 10
-5.433383135791953
 20
-4.771973641166296
 30
0.0
  0
SPLINE
  5
C0
330
74
100
AcDbEntity
  8
0
100
AcDbSpline
210
0.0
220
0.0
230
1.0
 70
     8
 71
     3
 72
     8
 73
     4
 74
     0
 42
0.000000001
 43
0.00000001
 40
3.0
 40
3.0
 40
3.0
 40
3.0
 40
4.0
 40
4.0
 40
4.0
 40
4.0
 10
-4.494024550545999
 20
-6.695320195210662
 30
0.0
 10
-2.825524345390513
 20
-6.334333740063992
 30
0.0
 10
-1.762658323115034
 20
-4.702068307882374
 30
0.0
 10
-2.120071189640999
 20
-3.049576315093403
 30
0.0
  0
SPLINE
  5
C1
330
74
100
AcDbEntity
  8
0
100
AcDbSpline
210
0.0
220
0.0
230
1.0
 70
     8
 71
     3
 72
     8
 73
     4
 74
     0
 42
0.000000001
 43
0.00000001
 40
4.0
 40
4.0
 40
4.0
 40
4.0
 40
5.0
 40
5.0
 40
5.0
 40
5.0
 10
-2.120071189640999
 20
-3.049576315093403
 30
0.0
 10
-2.485983017556096
 20
-1.358310753073632
 30
0.0
 10
-2.867352798370483
 20
0.4044023583376265
 30
0.0
 10
-3.190995488197396
 20
1.900704823656681
 30
0.0
  0
SPLINE
  5
C2
330
74
100
AcDbEntity
  8
0
100
AcDbSpline
210
0.0
220
0.0
230
1.0
 70
     8
 71
     3
 72
     8
 73
     4
 74
     0
 42
0.000000001
 43
0.00000001
 40
5.0
 40
5.0
 40
5.0
 40
5.0
 40
6.0
 40
6.0
 40
6.0
 40
6.0
 10
-3.190995488197396
 20
1.900704823656681
 30
0.0
 10
-3.54857504695031
 20
3.553458157285876
 30
0.0
 10
-5.190901218780231
 20
4.599949148191988
 30
0.0
 10
-6.859585567104196
 20
4.238922852960538
 30
0.0
  0
SPLINE
  5
C3
330
74
100
AcDbEntity
  8
0
100
AcDbSpline
210
0.0
220
0.0
230
1.0
 70
     8
 71
     3
 72
     8
 73
     4
 74
     0
 42
0.000000001
 43
0.00000001
 40
0.0
 40
0.0
 40
0.0
 40
0.0
 40
1.0
 40
1.0
 40
1.0
 40
1.0
 10
-30.23703582864644
 20
-6.251438951366732
 30
0.0
 10
-30.9104300186728
 20
-6.015603382360459
 30
0.0
 10
-31.40848551125485
 20
-5.893156856121871
 30
0.0
 10
-32.67210357750635
 20
-5.496689523479785
 30
0.0
  0
SPLINE
  5
C4
330
74
100
AcDbEntity
  8
0
100
AcDbSpline
210
0.0
220
0.0
230
1.0
 70
     8
 71
     3
 72
     8
 73
     4
 74
     0
 42
0.000000001
 43
0.00000001
 40
1.0
 40
1.0
 40
1.0
 40
1.0
 40
2.0
 40
2.0
 40
2.0
 40
2.0
 10
-32.67210357750635
 20
-5.496689523479785
 30
0.0
 10
-33.03332194555517
 20
-5.383421617718132
 30
0.0
 10
-33.81210282496122
 20
-5.206692347750555
 30
0.0
 10
-33.94849250952588
 20
-4.576291363356936
 30
0.0
  0
SPLINE
  5
C5
330
74
100
AcDbEntity
  8
0
100
AcDbSpline
210
0.0
220
0.0
230
1.0
 70
     8
 71
     3
 72
     8
 73
     4
 74
     0
 42
0.000000001
 43
0.00000001
 40
2.0
 40
2.0
 40
2.0
 40
2.0
 40
3.0
 40
3.0
 40
3.0
 40
3.0
 10
-33.94849250952588
 20
-4.576291363356936
 30
0.0
 10
-34.11622381965225
 20
-3.801027578894063
 30
0.0
 10
-33.67528356585564
 20
-3.448097454184924
 30
0.0
 10
-32.99335932290604
 20
-3.30056051389548
 30
0.0
  0
SPLINE
  5
C6
330
74
100
AcDbEntity
  8
0
100
AcDbSpline
210
0.0
220
0.0
230
1.0
 70
     8
 71
     3
 72
     8
 73
     4
 74
     0
 42
0.000000001
 43
0.00000001
 40
4.0
 40
4.0
 40
4.0
 40
4.0
 40
5.0
 40
5.0
 40
5.0
 40
5.0
 10
-32.85916630414497
 20
-3.271527336675416
 30
0.0
 10
-32.2786944245911
 20
-3.14594000653005
 30
0.0
 10
-31.77109773641243
 20
-3.328116480283148
 30
0.0
 10
-31.56977211870437
 20
-3.967820152272103
 30
0.0
  0
SPLINE
  5
C7
330
74
100
AcDbEntity
  8
0
100
AcDbSpline
210
0.0
220
0.0
230
1.0
 70
     8
 71
     3
 72
     8
 73
     4
 74
     0
 42
0.000000001
 43
0.00000001
 40
6.0
 40
6.0
 40
6.0
 40
6.0
 40
7.0
 40
7.0
 40
7.0
 40
7.0
 10
-29.29695612428625
 20
-3.476087645143529
 30
0.0
 10
-29.68810071971012
 20
-1.866802583842748
 30
0.0
 10
-30.87776107222441
 20
-0.7599478056671497
 30
0.0
 10
-33.27949204955325
 20
-1.266772121690862
 30
0.0
  0
SPLINE
  5
C8
330
74
100
AcDbEntity
  8
0
100
AcDbSpline
210
0.0
220
0.0
230
1.0
 70
     8
 71
     3
 72
     8
 73
     4
 74
     0
 42
0.000000001
 43
0.00000001
 40
8.0
 40
8.0
 40
8.0
 40
8.0
 40
9.0
 40
9.0
 40
9.0
 40
9.0
 10
-33.34488391931659
 20
-1.280919904944554
 30
0.0
 10
-35.81152992452102
 20
-1.828202838410209
 30
0.0
 10
-36.33378487826545
 20
-3.54465012997844
 30
0.0
 10
-36.09207577942843
 20
-4.962606301827474
 30
0.0
  0
SPLINE
  5
C9
330
74
100
AcDbEntity
  8
0
100
AcDbSpline
210
0.0
220
0.0
230
1.0
 70
     8
 71
     3
 72
     8
 73
     4
 74
     0
 42
0.000000001
 43
0.00000001
 40
9.0
 40
9.0
 40
9.0
 40
9.0
 40
10.0
 40
10.0
 40
10.0
 40
10.0
 10
-36.09207577942843
 20
-4.962606301827474
 30
0.0
 10
-35.83736690020325
 20
-6.457652824126185
 30
0.0
 10
-34.96800490008025
 20
-7.196828812263726
 30
0.0
 10
-33.99931718292642
 20
-7.502708028683521
 30
0.0
  0
SPLINE
  5
CA
330
74
100
AcDbEntity
  8
0
100
AcDbSpline
210
0.0
220
0.0
230
1.0
 70
     8
 71
     3
 72
     8
 73
     4
 74
     0
 42
0.000000001
 43
0.00000001
 40
10.0
 40
10.0
 40
10.0
 40
10.0
 40
11.0
 40
11.0
 40
11.0
 40
11.0
 10
-33.99931718292642
 20
-7.502708028683521
 30
0.0
 10
-33.40907414696034
 20
-7.689011641945549
 30
0.0
 10
-32.48616403135102
 20
-7.975318844696811
 30
0.0
 10
-31.47547483016511
 20
-8.271505052332133
 30
0.0
  0
SPLINE
  5
CB
330
74
100
AcDbEntity
  8
0
100
AcDbSpline
210
0.0
220
0.0
230
1.0
 70
     8
 71
     3
 72
     8
 73
     4
 74
     0
 42
0.000000001
 43
0.00000001
 40
11.0
 40
11.0
 40
11.0
 40
11.0
 40
12.0
 40
12.0
 40
12.0
 40
12.0
 10
-31.47547483016511
 20
-8.271505052332133
 30
0.0
 10
-31.11213516930565
 20
-8.377980375833697
 30
0.0
 10
-30.40258052645035
 20
-8.55729511966404
 30
0.0
 10
-30.28870163819746
 20
-9.336631754491275
 30
0.0
  0
SPLINE
  5
CC
330
74
100
AcDbEntity
  8
0
100
AcDbSpline
210
0.0
220
0.0
230
1.0
 70
     8
 71
     3
 72
     8
 73
     4
 74
     0
 42
0.000000001
 43
0.00000001
 40
12.0
 40
12.0
 40
12.0
 40
12.0
 40
13.0
 40
13.0
 40
13.0
 40
13.0
 10
-30.28870163819746
 20
-9.336631754491275
 30
0.0
 10
-30.1883718252622
 20
-10.02498578462436
 30
0.0
 10
-30.64014408852681
 20
-10.43662327702193
 30
0.0
 10
-31.32890793487913
 20
-10.58563999188937
 30
0.0
  0
SPLINE
  5
CD
330
74
100
AcDbEntity
  8
0
100
AcDbSpline
210
0.0
220
0.0
230
1.0
 70
     8
 71
     3
 72
     8
 73
     4
 74
     0
 42
0.000000001
 43
0.00000001
 40
14.0
 40
14.0
 40
14.0
 40
14.0
 40
15.0
 40
15.0
 40
15.0
 40
15.0
 10
-31.46505813246006
 20
-10.61509661229636
 30
0.0
 10
-32.05208024758041
 20
-10.74210111117219
 30
0.0
 10
-32.71260096537058
 20
-10.55064660173623
 30
0.0
 10
-32.8822392924921
 20
-9.937760156430087
 30
0.0
  0
SPLINE
  5
CE
330
74
100
AcDbEntity
  8
0
100
AcDbSpline
210
0.0
220
0.0
230
1.0
 70
     8
 71
     3
 72
     8
 73
     4
 74
     0
 42
0.000000001
 43
0.00000001
 40
16.0
 40
16.0
 40
16.0
 40
16.0
 40
17.0
 40
17.0
 40
17.0
 40
17.0
 10
-35.1888692338865
 20
-10.43680844141459
 30
0.0
 10
-34.81471685749703
 20
-11.8843133271045
 30
0.0
 10
-33.72975075395794
 20
-12.95131992706823
 30
0.0
 10
-31.59496833044066
 20
-12.72957879515504
 30
0.0
  0
SPLINE
  5
CF
330
74
100
AcDbEntity
  8
0
100
AcDbSpline
210
0.0
220
0.0
230
1.0
 70
     8
 71
     3
 72
     8
 73
     4
 74
     0
 42
0.000000001
 43
0.00000001
 40
18.0
 40
18.0
 40
18.0
 40
18.0
 40
19.0
 40
19.0
 40
19.0
 40
19.0
 10
-30.20639204762402
 20
-12.42915496033268
 30
0.0
 10
-28.36320980349184
 20
-11.79454394754582
 30
0.0
 10
-27.78707037380765
 20
-10.41512978795686
 30
0.0
 10
-27.91988511866083
 20
-9.073464993912006
 30
0.0
  0
SPLINE
  5
D0
330
74
100
AcDbEntity
  8
0
100
AcDbSpline
210
0.0
220
0.0
230
1.0
 70
     8
 71
     3
 72
     8
 73
     4
 74
     0
 42
0.000000001
 43
0.00000001
 40
19.0
 40
19.0
 40
19.0
 40
19.0
 40
20.0
 40
20.0
 40
20.0
 40
20.0
 10
-27.91988511866083
 20
-9.073464993912006
 30
0.0
 10
-28.12563217330358
 20
-6.994152508733083
 30
0.0
 10
-29.51271678483619
 20
-6.50510505043454
 30
0.0
 10
-30.23703582864644
 20
-6.251438951366732
 30
0.0
  0
HATCH
  5
D1
330
74
100
AcDbEntity
  8
0
100
AcDbHatch
 10
0.0
 20
0.0
 30
0.0
210
0.0
220
0.0
230
1.0
  2
SOLID
 70
     1
 71
     0
 91
        1
 92
        0
 93
        7
 72
     1
 10
-53.06293521179145
 20
-11.48017794540906
 11
-53.0628942334185
 21
-11.48036734981106
 72
     1
 10
-53.0628942334185
 20
-11.48036734981106
 11
-50.18135879739363
 21
-10.85693604353014
 72
     1
 10
-50.18135879739363
 20
-10.85693604353014
 11
-47.91273279754322
 21
-7.399227366744369
 72
     1
 10
-47.91273279754322
 20
-7.399227366744369
 11
-51.40738209617635
 21
-5.188811056417426
 72
     1
 10
-51.40738209617635
 20
-5.188811056417426
 11
-54.28910693660305
 21
-5.812283341071309
 72
     1
 10
-54.28910693660305
 20
-5.812283341071309
 11
-50.79453412756107
 21
-8.022804320319173
 72
     1
 10
-50.79453412756107
 20
-8.022804320319173
 11
-53.06293521179145
 21
-11.48017794540906
 97
        0
 75
     0
 76
     1
 98
        1
 10
0.0
 20
0.0
  0
HATCH
  5
D2
330
74
100
AcDbEntity
  8
0
100
AcDbHatch
 10
0.0
 20
0.0
 30
0.0
210
0.0
220
0.0
230
1.0
  2
SOLID
 70
     1
 71
     0
 91
        1
 92
        0
 93
        6
 72
     1
 10
-41.53588964704281
 20
-8.986455445432597
 11
-44.41771445090438
 21
-9.609949357561213
 72
     1
 10
-44.41771445090438
 20
-9.609949357561213
 11
-46.68624347197728
 21
-13.06764806762683
 72
     1
 10
-46.68624347197728
 20
-13.06764806762683
 11
-43.23827248082917
 21
-15.24865255879992
 72
     1
 10
-43.23827248082917
 20
-15.24865255879992
 11
-40.35645293820115
 21
-14.62515978495947
 72
     1
 10
-40.35645293820115
 20
-14.62515978495947
 11
-43.80454139731328
 21
-12.44407055830516
 72
     1
 10
-43.80454139731328
 20
-12.44407055830516
 11
-41.53588964704281
 21
-8.986455445432597
 97
        0
 75
     0
 76
     1
 98
        1
 10
0.0
 20
0.0
  0
HATCH
  5
D3
330
74
100
AcDbEntity
  8
0
100
AcDbHatch
 10
0.0
 20
0.0
 30
0.0
210
0.0
220
0.0
230
1.0
  2
SOLID
 70
     1
 71
     0
 91
        1
 92
        0
 93
       20
 72
     4
 94
        3
 73
     1
 74
     0
 95
        8
 96
        4
 40
18.0
 40
18.0
 40
18.0
 40
18.0
 40
19.0
 40
19.0
 40
19.0
 40
19.0
 10
-30.20639204762402
 20
-12.42915496033267
 42
1.0
 10
-28.36320980349188
 20
-11.79454394754584
 42
1.0
 10
-27.78707037380775
 20
-10.41512978795687
 42
1.0
 10
-27.91988511866085
 20
-9.073464993912015
 42
1.0
 72
     4
 94
        3
 73
     1
 74
     0
 95
        8
 96
        4
 40
19.0
 40
19.0
 40
19.0
 40
19.0
 40
20.0
 40
20.0
 40
20.0
 40
20.0
 10
-27.91988511866085
 20
-9.073464993912015
 42
1.0
 10
-28.1256321733036
 20
-6.994152508733093
 42
1.0
 10
-29.51271678483624
 20
-6.505105050434554
 42
1.0
 10
-30.23703582864647
 20
-6.251438951366739
 42
1.0
 72
     4
 94
        3
 73
     1
 74
     0
 95
        8
 96
        4
 40
0.0
 40
0.0
 40
0.0
 40
0.0
 40
1.0
 40
1.0
 40
1.0
 40
1.0
 10
-30.23703582864647
 20
-6.251438951366739
 42
1.0
 10
-30.91043001867278
 20
-6.015603382360466
 42
1.0
 10
-31.40848551125484
 20
-5.893156856121866
 42
1.0
 10
-32.67210357750633
 20
-5.496689523479784
 42
1.0
 72
     4
 94
        3
 73
     1
 74
     0
 95
        8
 96
        4
 40
1.0
 40
1.0
 40
1.0
 40
1.0
 40
2.0
 40
2.0
 40
2.0
 40
2.0
 10
-32.67210357750633
 20
-5.496689523479784
 42
1.0
 10
-33.03332194555515
 20
-5.383421617718138
 42
1.0
 10
-33.81210282496121
 20
-5.206692347750558
 42
1.0
 10
-33.94849250952591
 20
-4.576291363356954
 42
1.0
 72
     4
 94
        3
 73
     1
 74
     0
 95
        8
 96
        4
 40
2.0
 40
2.0
 40
2.0
 40
2.0
 40
3.0
 40
3.0
 40
3.0
 40
3.0
 10
-33.94849250952591
 20
-4.576291363356954
 42
1.0
 10
-34.11622381965228
 20
-3.801027578894066
 42
1.0
 10
-33.67528356585566
 20
-3.448097454184939
 42
1.0
 10
-32.99335932290605
 20
-3.300560513895483
 42
1.0
 72
     1
 10
-32.99335932290605
 20
-3.300560513895483
 11
-32.85916630414502
 21
-3.271527336675422
 72
     4
 94
        3
 73
     1
 74
     0
 95
        8
 96
        4
 40
4.0
 40
4.0
 40
4.0
 40
4.0
 40
5.0
 40
5.0
 40
5.0
 40
5.0
 10
-32.85916630414502
 20
-3.271527336675422
 42
1.0
 10
-32.27869442459117
 20
-3.145940006530068
 42
1.0
 10
-31.77109773641243
 20
-3.328116480283154
 42
1.0
 10
-31.5697721187044
 20
-3.967820152272114
 42
1.0
 72
     1
 10
-31.5697721187044
 20
-3.967820152272114
 11
-29.29695612428624
 21
-3.476087645143523
 72
     4
 94
        3
 73
     1
 74
     0
 95
        8
 96
        4
 40
6.0
 40
6.0
 40
6.0
 40
6.0
 40
7.0
 40
7.0
 40
7.0
 40
7.0
 10
-29.2969561242863
 20
-3.476087645143538
 42
1.0
 10
-29.6881007197101
 20
-1.866802583842747
 42
1.0
 10
-30.87776107222446
 20
-0.7599478056671519
 42
1.0
 10
-33.27949204955327
 20
-1.266772121690873
 42
1.0
 72
     1
 10
-33.27949204955321
 20
-1.266772121690857
 11
-33.3448839193166
 21
-1.280919904944549
 72
     4
 94
        3
 73
     1
 74
     0
 95
        8
 96
        4
 40
8.0
 40
8.0
 40
8.0
 40
8.0
 40
9.0
 40
9.0
 40
9.0
 40
9.0
 10
-33.34488391931666
 20
-1.280919904944565
 42
1.0
 10
-35.8115299245211
 20
-1.828202838410234
 42
1.0
 10
-36.3337848782655
 20
-3.544650129978449
 42
1.0
 10
-36.09207577942846
 20
-4.962606301827486
 42
1.0
 72
     4
 94
        3
 73
     1
 74
     0
 95
        8
 96
        4
 40
9.0
 40
9.0
 40
9.0
 40
9.0
 40
10.0
 40
10.0
 40
10.0
 40
10.0
 10
-36.09207577942846
 20
-4.962606301827486
 42
1.0
 10
-35.83736690020323
 20
-6.457652824126184
 42
1.0
 10
-34.96800490008029
 20
-7.196828812263736
 42
1.0
 10
-33.99931718292643
 20
-7.502708028683525
 42
1.0
 72
     4
 94
        3
 73
     1
 74
     0
 95
        8
 96
        4
 40
10.0
 40
10.0
 40
10.0
 40
10.0
 40
11.0
 40
11.0
 40
11.0
 40
11.0
 10
-33.99931718292643
 20
-7.502708028683525
 42
1.0
 10
-33.40907414696031
 20
-7.689011641945555
 42
1.0
 10
-32.48616403135106
 20
-7.975318844696822
 42
1.0
 10
-31.47547483016516
 20
-8.27150505233215
 42
1.0
 72
     4
 94
        3
 73
     1
 74
     0
 95
        8
 96
        4
 40
11.0
 40
11.0
 40
11.0
 40
11.0
 40
12.0
 40
12.0
 40
12.0
 40
12.0
 10
-31.47547483016516
 20
-8.27150505233215
 42
1.0
 10
-31.11213516930568
 20
-8.377980375833708
 42
1.0
 10
-30.40258052645039
 20
-8.557295119664056
 42
1.0
 10
-30.28870163819752
 20
-9.336631754491272
 42
1.0
 72
     4
 94
        3
 73
     1
 74
     0
 95
        8
 96
        4
 40
12.0
 40
12.0
 40
12.0
 40
12.0
 40
13.0
 40
13.0
 40
13.0
 40
13.0
 10
-30.28870163819752
 20
-9.336631754491272
 42
1.0
 10
-30.18837182526216
 20
-10.02498578462435
 42
1.0
 10
-30.64014408852681
 20
-10.43662327702195
 42
1.0
 10
-31.32890793487914
 20
-10.58563999188937
 42
1.0
 72
     1
 10
-31.32890793487914
 20
-10.58563999188937
 11
-31.46505813246008
 21
-10.61509661229637
 72
     4
 94
        3
 73
     1
 74
     0
 95
        8
 96
        4
 40
14.0
 40
14.0
 40
14.0
 40
14.0
 40
15.0
 40
15.0
 40
15.0
 40
15.0
 10
-31.46505813246008
 20
-10.61509661229637
 42
1.0
 10
-32.05208024758041
 20
-10.7421011111722
 42
1.0
 10
-32.71260096537064
 20
-10.55064660173623
 42
1.0
 10
-32.88223929249212
 20
-9.937760156430087
 42
1.0
 72
     1
 10
-32.88223929249212
 20
-9.937760156430087
 11
-35.18886923388655
 21
-10.43680844141459
 72
     4
 94
        3
 73
     1
 74
     0
 95
        8
 96
        4
 40
16.0
 40
16.0
 40
16.0
 40
16.0
 40
17.0
 40
17.0
 40
17.0
 40
17.0
 10
-35.18886923388649
 20
-10.43680844141459
 42
1.0
 10
-34.81471685749708
 20
-11.88431332710451
 42
1.0
 10
-33.72975075395801
 20
-12.95131992706824
 42
1.0
 10
-31.59496833044075
 20
-12.72957879515506
 42
1.0
 72
     1
 10
-31.59496833044068
 20
-12.72957879515504
 11
-30.20639204762409
 21
-12.42915496033269
 97
        0
 75
     0
 76
     1
 98
        1
 10
0.0
 20
0.0
  0
HATCH
  5
D4
330
74
100
AcDbEntity
  8
0
100
AcDbHatch
 10
0.0
 20
0.0
 30
0.0
210
0.0
220
0.0
230
1.0
  2
SOLID
 70
     1
 71
     0
 91
        1
 92
        0
 93
       11
 72
     1
 10
-23.93083334830058
 20
-6.656177916224847
 11
-23.9305586195879
 21
-1.497666803489873
 72
     1
 10
-23.9305586195879
 20
-1.497666803489873
 11
-20.04326836721582
 21
-10.05945907169815
 72
     1
 10
-20.04326836721582
 20
-10.05945907169815
 11
-17.66870538033285
 21
-9.545713210289948
 72
     1
 10
-17.66870538033285
 20
-9.545713210289948
 11
-22.39983793591613
 21
0.8767293108990284
 72
     1
 10
-22.39983793591613
 20
0.8767293108990277
 11
-26.30586704316552
 21
0.0316448471579831
 72
     1
 10
-26.30586704316552
 20
0.0316448471579831
 11
-26.30567237753049
 21
-11.41435433475813
 72
     1
 10
-26.30567237753049
 20
-11.41435433475813
 11
-23.93111465188077
 21
-10.90060961163804
 72
     1
 10
-23.93111465188077
 20
-10.90060961163804
 11
-23.93099314235586
 21
-8.782594625323274
 72
     1
 10
-23.93099314235586
 20
-8.782594625323274
 11
-22.27383089514867
 21
-8.42406118111162
 72
     1
 10
-22.27383089514867
 20
-8.42406118111162
 11
-22.7133102853523
 21
-6.392762105309743
 72
     1
 10
-22.7133102853523
 20
-6.392762105309743
 11
-23.93083334830058
 21
-6.656177916224847
 97
        0
 75
     0
 76
     1
 98
        1
 10
0.0
 20
0.0
  0
HATCH
  5
D5
330
74
100
AcDbEntity
  8
0
100
AcDbHatch
 10
0.0
 20
0.0
 30
0.0
210
0.0
220
0.0
230
1.0
  2
SOLID
 70
     1
 71
     0
 91
        1
 92
        0
 93
        6
 72
     1
 10
-15.79563263740209
 20
2.305574601061446
 11
-18.06492886668423
 21
1.814603608696526
 72
     4
 94
        3
 73
     1
 74
     0
 95
        8
 96
        4
 40
2.0
 40
2.0
 40
2.0
 40
2.0
 40
3.0
 40
3.0
 40
3.0
 40
3.0
 10
-18.06492886668423
 20
1.814603608696526
 42
1.0
 10
-17.240039650055
 20
-1.995739949107533
 42
1.0
 10
-15.71186186991055
 20
-9.059523950669437
 42
1.0
 10
-15.69887855542098
 20
-9.119533578677919
 42
1.0
 72
     1
 10
-15.69887855542092
 20
-9.119533578677903
 11
-10.22610149671526
 21
-7.93547715235816
 72
     1
 10
-10.22610149671526
 20
-7.93547715235816
 11
-10.66558088691882
 21
-5.904178076556605
 72
     1
 10
-10.66558088691882
 20
-5.904178076556605
 11
-13.86994560355126
 21
-6.597454742918437
 72
     4
 94
        3
 73
     1
 74
     0
 95
        8
 96
        4
 40
0.0
 40
0.0
 40
0.0
 40
0.0
 40
1.0
 40
1.0
 40
1.0
 40
1.0
 10
-13.86994560355126
 20
-6.597454742918437
 42
1.0
 10
-13.88373254946556
 20
-6.533730684138598
 42
1.0
 10
-15.1136551579741
 20
-0.8489574873494129
 42
1.0
 10
-15.79563263740209
 20
2.305574601061446
 42
1.0
 97
        0
 75
     0
 76
     1
 98
        1
 10
0.0
 20
0.0
  0
HATCH
  5
D6
330
74
100
AcDbEntity
  8
0
100
AcDbHatch
 10
0.0
 20
0.0
 30
0.0
210
0.0
220
0.0
230
1.0
  2
SOLID
 70
     1
 71
     0
 91
        1
 92
        0
 93
       11
 72
     1
 10
2.375028433631206
 20
-0.9648032523823513
 11
2.375208460142868
 21
4.193687371166118
 72
     1
 10
2.375208460142868
 20
4.193687371166118
 11
6.262509234981617
 21
-4.368102620465918
 72
     1
 10
6.262509234981617
 20
-4.368102620465917
 11
8.637061699398163
 21
-3.854359035633896
 72
     1
 10
8.637061699398163
 20
-3.854359035633896
 11
3.905939666281055
 21
6.568085762131229
 72
     1
 10
3.905939666281055
 20
6.56808576213123
 11
-0.0000000000001235
 21
5.723020649288631
 72
     1
 10
-0.0000000000001234
 20
5.723020649288631
 11
-0.000000000000185
 21
-5.723020649288537
 72
     1
 10
-0.000000000000185
 20
-5.723020649288538
 11
2.37465768908423
 21
-5.20925429869377
 72
     1
 10
2.37465768908423
 20
-5.20925429869377
 11
2.374784459841949
 21
-3.091238174090979
 72
     1
 10
2.374784459841949
 20
-3.091238174090979
 11
4.031830959914354
 21
-2.732729772218408
 72
     1
 10
4.031830959914354
 20
-2.732729772218408
 11
3.592351569710606
 21
-0.701430696416514
 72
     1
 10
3.592351569710606
 20
-0.7014306964165138
 11
2.375028433631206
 21
-0.9648032523823513
 97
        0
 75
     0
 76
     1
 98
        1
 10
0.0
 20
0.0
  0
HATCH
  5
D7
330
74
100
AcDbEntity
  8
0
100
AcDbHatch
 10
0.0
 20
0.0
 30
0.0
210
0.0
220
0.0
230
1.0
  2
SOLID
 70
     1
 71
     0
 91
        1
 92
        0
 93
        8
 72
     1
 10
-42.14906497721024
 20
-6.152323722221632
 11
-42.76219705242848
 21
-3.318391925879333
 72
     1
 10
-42.76219705242848
 20
-3.318391925879333
 11
-42.76249168149826
 21
-3.318455670015027
 72
     1
 10
-42.76249168149826
 20
-3.318455670015027
 11
-45.03079507887072
 21
-6.775797145163721
 72
     1
 10
-45.03079507887072
 20
-6.775797145163721
 11
-48.52545732888054
 21
-4.565295516814268
 72
     1
 10
-48.52545732888054
 20
-4.565295516814268
 11
-48.52574669671678
 21
-4.565358122661792
 72
     1
 10
-48.52574669671678
 20
-4.565358122661792
 11
-47.91261462149855
 21
-7.39928991900409
 72
     1
 10
-47.91261462149855
 20
-7.39928991900409
 11
-44.41773721666716
 21
-9.60984413289331
 72
     1
 10
-44.41773721666716
 20
-9.60984413289331
 11
-42.14906497721024
 21
-6.152323722221632
 97
        0
 75
     0
 76
     1
 98
        1
 10
0.0
 20
0.0
  0
HATCH
  5
D8
330
74
100
AcDbEntity
  8
0
100
AcDbHatch
 10
0.0
 20
0.0
 30
0.0
210
0.0
220
0.0
230
1.0
  2
SOLID
 70
     1
 71
     0
 91
        1
 92
        0
 93
        8
 72
     1
 10
-46.11999732125613
 20
-15.87212484345383
 11
-46.08139565189786
 21
-15.8637732233933
 72
     1
 10
-46.08139565189786
 20
-15.8637732233933
 11
-46.68636620117444
 21
-13.06756447043367
 72
     1
 10
-46.68636620117444
 20
-13.06756447043367
 11
-50.18135879739361
 21
-10.85693604353009
 72
     1
 10
-50.18135879739361
 20
-10.85693604353009
 11
-52.44976215820033
 21
-14.31429914615315
 72
     1
 10
-52.44976215820033
 20
-14.31429914615315
 11
-51.84475063055083
 21
-17.11069730351469
 72
     1
 10
-51.84475063055083
 20
-17.11069730351469
 11
-51.80633836559459
 21
-17.1023866618271
 72
     1
 10
-51.80633836559459
 20
-17.1023866618271
 11
-49.56818574380249
 21
-13.69105724427409
 72
     1
 10
-49.56818574380249
 20
-13.69105724427409
 11
-46.11999732125613
 21
-15.87212484345383
 97
        0
 75
     0
 76
     1
 98
        1
 10
0.0
 20
0.0
  0
HATCH
  5
D9
330
74
100
AcDbEntity
  8
0
100
AcDbHatch
 10
0.0
 20
0.0
 30
0.0
210
0.0
220
0.0
230
1.0
  2
SOLID
 70
     1
 71
     0
 91
        2
 92
        0
 93
        7
 72
     1
 10
-6.859585567104196
 20
4.238922852960538
 11
-11.00449045380928
 21
3.342156692939393
 72
     1
 10
-11.00449045380928
 20
3.342156692939393
 11
-8.638829473816639
 21
-7.592064727757184
 72
     1
 10
-8.638829473816639
 20
-7.592064727757185
 11
-8.63844014254617
 21
-7.591980494435086
 72
     1
 10
-8.63844014254617
 20
-7.591980494435086
 11
-4.494024550545999
 21
-6.695320195210662
 72
     4
 94
        3
 73
     1
 74
     0
 95
        8
 96
        4
 40
3.0
 40
3.0
 40
3.0
 40
3.0
 40
4.0
 40
4.0
 40
4.0
 40
4.0
 10
-4.494024550545999
 20
-6.695320195210662
 42
1.0
 10
-2.825524345390513
 20
-6.334333740063992
 42
1.0
 10
-1.762658323115034
 20
-4.702068307882374
 42
1.0
 10
-2.120071189640999
 20
-3.049576315093403
 42
1.0
 72
     4
 94
        3
 73
     1
 74
     0
 95
        8
 96
        4
 40
4.0
 40
4.0
 40
4.0
 40
4.0
 40
5.0
 40
5.0
 40
5.0
 40
5.0
 10
-2.120071189640999
 20
-3.049576315093403
 42
1.0
 10
-2.485983017556096
 20
-1.358310753073632
 42
1.0
 10
-2.867352798370483
 20
0.4044023583376265
 42
1.0
 10
-3.190995488197396
 20
1.900704823656681
 42
1.0
 72
     4
 94
        3
 73
     1
 74
     0
 95
        8
 96
        4
 40
5.0
 40
5.0
 40
5.0
 40
5.0
 40
6.0
 40
6.0
 40
6.0
 40
6.0
 10
-3.190995488197396
 20
1.900704823656681
 42
1.0
 10
-3.54857504695031
 20
3.553458157285876
 42
1.0
 10
-5.190901218780231
 20
4.599949148191988
 42
1.0
 10
-6.859585567104196
 20
4.238922852960538
 42
1.0
 97
        0
 92
        0
 93
        6
 72
     4
 94
        3
 73
     1
 74
     0
 95
        8
 96
        4
 40
2.0
 40
2.0
 40
2.0
 40
2.0
 40
3.0
 40
3.0
 40
3.0
 40
3.0
 10
-6.919811195494074
 20
2.099808074263809
 42
1.0
 10
-6.228016878711183
 20
2.249480443098069
 42
1.0
 10
-5.547633595833446
 20
1.815851349115847
 42
1.0
 10
-5.399398884916104
 20
1.130701970100344
 42
1.0
 72
     4
 94
        3
 73
     1
 74
     0
 95
        8
 96
        4
 40
3.0
 40
3.0
 40
3.0
 40
3.0
 40
4.0
 40
4.0
 40
4.0
 40
4.0
 10
-5.399398884916104
 20
1.130701970100344
 42
1.0
 10
-5.107009087764085
 20
-0.2207405274728672
 42
1.0
 10
-4.711497421058354
 20
-2.048334586467611
 42
1.0
 10
-4.449160707297047
 20
-3.260870000165379
 42
1.0
 72
     4
 94
        3
 73
     1
 74
     0
 95
        8
 96
        4
 40
4.0
 40
4.0
 40
4.0
 40
4.0
 40
5.0
 40
5.0
 40
5.0
 40
5.0
 10
-4.449160707297047
 20
-3.260870000165379
 42
1.0
 10
-4.300905507193207
 20
-3.946114081381999
 42
1.0
 10
-4.741570606399121
 20
-4.622385452066122
 42
1.0
 10
-5.433383135791953
 20
-4.771973641166296
 42
1.0
 72
     1
 10
-5.433383135791953
 20
-4.771973641166296
 11
-6.809537646582547
 21
-5.069709977697404
 72
     4
 94
        3
 73
     1
 74
     0
 95
        8
 96
        4
 40
0.0
 40
0.0
 40
0.0
 40
0.0
 40
1.0
 40
1.0
 40
1.0
 40
1.0
 10
-6.809537646582547
 20
-5.069709977697404
 42
1.0
 10
-7.284290309572815
 20
-2.875375801708635
 42
1.0
 10
-7.897830097865885
 20
-0.0390758678013329
 42
1.0
 10
-8.296070930952649
 20
1.80204897196991
 42
1.0
 72
     1
 10
-8.296070930952649
 20
1.80204897196991
 11
-6.919811195494074
 21
2.099808074263809
 97
        0
 75
     0
 76
     1
 98
        1
 10
0.0
 20
0.0
  0
ENDBLK
  5
76
330
74
100
AcDbEntity
  8
0
100
AcDbBlockEnd
  0
BLOCK
  5
34E
330
34D
100
AcDbEntity
  8
0
100
AcDbBlockBegin
  2
*U3
 70
     1
 10
0.0
 20
0.0
 30
0.0
  3
*U3
  1

  0
TEXT
  5
34F
330
34D
100
AcDbEntity
  8
LENKIMO
  6
CENTERX2
100
AcDbText
 10
799.0717146298566
 20
1100.336970457902
 30
0.0
 40
100.0
  1
A
100
AcDbText
  0
ENDBLK
  5
350
330
34D
100
AcDbEntity
  8
0
100
AcDbBlockEnd
  0
BLOCK
  5
35A
330
359
100
AcDbEntity
  8
0
100
AcDbBlockBegin
  2
*U4
 70
     1
 10
0.0
 20
0.0
 30
0.0
  3
*U4
  1

  0
TEXT
  5
35B
330
359
100
AcDbEntity
  8
LENKIMO
  6
CENTERX2
100
AcDbText
 10
801.2712978691851
 20
1410.897389739665
 30
0.0
 40
100.0
  1
B
100
AcDbText
  0
ENDBLK
  5
35C
330
359
100
AcDbEntity
  8
0
100
AcDbBlockEnd
  0
BLOCK
  5
361
330
360
100
AcDbEntity
  8
0
100
AcDbBlockBegin
  2
*U5
 70
     1
 10
0.0
 20
0.0
 30
0.0
  3
*U5
  1

  0
TEXT
  5
362
330
360
100
AcDbEntity
  8
LENKIMO
  6
CENTERX2
100
AcDbText
 10
799.0717146298566
 20
1100.336970457902
 30
0.0
 40
100.0
  1
A
100
AcDbText
  0
ENDBLK
  5
363
330
360
100
AcDbEntity
  8
0
100
AcDbBlockEnd
  0
BLOCK
  5
366
330
365
100
AcDbEntity
  8
0
100
AcDbBlockBegin
  2
*U6
 70
     1
 10
0.0
 20
0.0
 30
0.0
  3
*U6
  1

  0
TEXT
  5
367
330
365
100
AcDbEntity
  8
LENKIMO
  6
CENTERX2
100
AcDbText
 10
801.2712978691851
 20
1410.897389739665
 30
0.0
 40
100.0
  1
B
100
AcDbText
  0
ENDBLK
  5
368
330
365
100
AcDbEntity
  8
0
100
AcDbBlockEnd
  0
BLOCK
  5
39A
330
399
100
AcDbEntity
  8
0
100
AcDbBlockBegin
  2
*U8
 70
     1
 10
0.0
 20
0.0
 30
0.0
  3
*U8
  1

  0
TEXT
  5
39B
330
399
100
AcDbEntity
  8
LENKIMO
  6
CENTERX2
100
AcDbText
 10
799.0717146298566
 20
1100.336970457902
 30
0.0
 40
100.0
  1
A
100
AcDbText
  0
ENDBLK
  5
39C
330
399
100
AcDbEntity
  8
0
100
AcDbBlockEnd
  0
ENDSEC
  0
SECTION
  2
ENTITIES
  0
ARC
  5
DA
330
1F
100
AcDbEntity
  8
0
100
AcDbCircle
 10
205.1289255662
 20
320.4540213056
 30
0.0
 40
3.000000000002769
100
AcDbArc
 50
90.0
 51
112.6159229627
  0
ARC
  5
DB
330
1F
100
AcDbEntity
  8
0
100
AcDbCircle
 10
205.1289255662
 20
-15.7459786944
 30
0.0
 40
3.000000000002693
100
AcDbArc
 50
247.3840770373
 51
270.0
  0
ARC
  5
DC
330
1F
100
AcDbEntity
  8
0
100
AcDbCircle
 10
201.6679586873
 20
328.7619517496
 30
0.0
 40
6.000000000000682
100
AcDbArc
 50
270.0
 51
292.6159229627
  0
ARC
  5
DD
330
1F
100
AcDbEntity
  8
0
100
AcDbCircle
 10
201.6679586873
 20
-24.0539091384
 30
0.0
 40
6.000000000000671
100
AcDbArc
 50
67.3840770373
 51
90.0
  0
LINE
  5
DE
330
1F
100
AcDbEntity
  8
0
100
AcDbLine
 10
230.15562442
 20
323.4540213056
 30
0.0
 11
205.1289255662
 21
323.4540213056
 31
0.0
  0
LINE
  5
DF
330
1F
100
AcDbEntity
  8
0
100
AcDbLine
 10
205.1289255662
 20
-18.7459786944
 30
0.0
 11
230.15562442
 21
-18.7459786944
 31
0.0
  0
LINE
  5
E0
330
1F
100
AcDbEntity
  8
0
100
AcDbLine
 10
201.6679586873
 20
322.7619517496
 30
0.0
 11
187.0103153199
 21
322.7619517496
 31
0.0
  0
LINE
  5
E1
330
1F
100
AcDbEntity
  8
0
100
AcDbLine
 10
187.0103153199
 20
-18.0539091384
 30
0.0
 11
201.6679586873
 21
-18.0539091384
 31
0.0
  0
ARC
  5
E2
330
1F
100
AcDbEntity
  8
0
100
AcDbCircle
 10
187.0103153199
 20
297.7619517496
 30
0.0
 40
25.00000000000023
100
AcDbArc
 50
90.0
 51
168.391486942
  0
ARC
  5
E3
330
1F
100
AcDbEntity
  8
0
100
AcDbCircle
 10
187.0103153199
 20
6.9460908616
 30
0.0
 40
25.00000000000021
100
AcDbArc
 50
191.608513058
 51
270.0
  0
LINE
  5
E4
330
1F
100
AcDbEntity
  8
0
100
AcDbLine
 10
162.5216812587
 20
302.7925383769
 30
0.0
 11
154.6830411191
 21
264.6344458642
 31
0.0
  0
LINE
  5
E5
330
1F
100
AcDbEntity
  8
0
100
AcDbLine
 10
154.6830411191
 20
40.073596747
 30
0.0
 11
162.5216812587
 21
1.9155042343
 31
0.0
  0
ARC
  5
E6
330
1F
100
AcDbEntity
  8
0
100
AcDbCircle
 10
139.0103153199
 20
267.8540213056
 30
0.0
 40
15.99999999999972
100
AcDbArc
 50
270.0
 51
348.391486942
  0
ARC
  5
E7
330
1F
100
AcDbEntity
  8
0
100
AcDbCircle
 10
139.0103153199
 20
36.8540213056
 30
0.0
 40
15.99999999999971
100
AcDbArc
 50
11.608513058
 51
90.0
  0
LINE
  5
E8
330
1F
100
AcDbEntity
  8
0
100
AcDbLine
 10
139.0103153199
 20
251.8540213056
 30
0.0
 11
117.9950983129
 21
251.8540213056
 31
0.0
  0
LINE
  5
E9
330
1F
100
AcDbEntity
  8
0
100
AcDbLine
 10
117.9950983129
 20
52.8540213056
 30
0.0
 11
139.0103153199
 21
52.8540213056
 31
0.0
  0
ARC
  5
EA
330
1F
100
AcDbEntity
  8
0
100
AcDbCircle
 10
117.9950983129
 20
247.8540213056
 30
0.0
 40
3.999999999999474
100
AcDbArc
 50
90.0
 51
180.0
  0
ARC
  5
EB
330
1F
100
AcDbEntity
  8
0
100
AcDbCircle
 10
117.9950983129
 20
56.8540213056
 30
0.0
 40
3.999999999999474
100
AcDbArc
 50
180.0
 51
270.0
  0
LINE
  5
EC
330
1F
100
AcDbEntity
  8
0
100
AcDbLine
 10
230.15562442
 20
-19.9459786944
 30
0.0
 11
243.9950983129
 21
-19.9459786944
 31
0.0
  0
LINE
  5
ED
330
1F
100
AcDbEntity
  8
0
100
AcDbLine
 10
243.9950983129
 20
324.6540213056
 30
0.0
 11
230.15562442
 21
324.6540213056
 31
0.0
  0
ARC
  5
EE
330
1F
100
AcDbEntity
  8
0
100
AcDbCircle
 10
243.9950983129
 20
-16.9459786944
 30
0.0
 40
2.999999999999991
100
AcDbArc
 50
270.0
 51
325.4818921588999
  0
ARC
  5
EF
330
1F
100
AcDbEntity
  8
0
100
AcDbCircle
 10
243.9950983129
 20
321.6540213056
 30
0.0
 40
3.0
100
AcDbArc
 50
34.5181078411
 51
90.0
  0
ARC
  5
F0
330
1F
100
AcDbEntity
  8
0
100
AcDbCircle
 10
251.4106225695
 20
-22.0459786944
 30
0.0
 40
5.99999999999984
100
AcDbArc
 50
90.0
 51
145.4818921589
  0
ARC
  5
F1
330
1F
100
AcDbEntity
  8
0
100
AcDbCircle
 10
251.4106225695
 20
326.7540213056
 30
0.0
 40
5.999999999999829
100
AcDbArc
 50
214.5181078411
 51
270.0
  0
LINE
  5
F2
330
1F
100
AcDbEntity
  8
0
100
AcDbLine
 10
251.4106225695
 20
-16.0459786944
 30
0.0
 11
253.4075397342
 21
-16.0459786944
 31
0.0
  0
LINE
  5
F3
330
1F
100
AcDbEntity
  8
0
100
AcDbLine
 10
253.4075397342
 20
320.7540213056
 30
0.0
 11
251.4106225695
 21
320.7540213056
 31
0.0
  0
ARC
  5
F4
330
1F
100
AcDbEntity
  8
0
100
AcDbCircle
 10
253.4075397342
 20
23.9540213056
 30
0.0
 40
40.00000000000005
100
AcDbArc
 50
270.0
 51
340.3125270199
  0
ARC
  5
F5
330
1F
100
AcDbEntity
  8
0
100
AcDbCircle
 10
253.4075397342
 20
280.7540213056
 30
0.0
 40
40.00000000000004
100
AcDbArc
 50
19.6874729801
 51
90.0
  0
LINE
  5
F6
330
1F
100
AcDbEntity
  8
0
100
AcDbLine
 10
291.0693086964
 20
10.4784449307
 30
0.0
 11
299.3508419224
 21
33.6238141774
 31
0.0
  0
LINE
  5
F7
330
1F
100
AcDbEntity
  8
0
100
AcDbLine
 10
299.3508419224
 20
271.0842284338
 30
0.0
 11
291.0693086964
 21
294.2295976805
 31
0.0
  0
ARC
  5
F8
330
1F
100
AcDbEntity
  8
0
100
AcDbCircle
 10
326.65562442
 20
23.8540213056
 30
0.0
 40
29.00000000000044
100
AcDbArc
 50
90.0
 51
160.3125270199
  0
ARC
  5
F9
330
1F
100
AcDbEntity
  8
0
100
AcDbCircle
 10
326.65562442
 20
280.8540213056
 30
0.0
 40
29.00000000000042
100
AcDbArc
 50
199.6874729801
 51
270.0
  0
LINE
  5
FA
330
1F
100
AcDbEntity
  8
0
100
AcDbLine
 10
326.65562442
 20
52.8540213056
 30
0.0
 11
354.65562442
 21
52.8540213056
 31
0.0
  0
LINE
  5
FB
330
1F
100
AcDbEntity
  8
0
100
AcDbLine
 10
354.65562442
 20
251.8540213056
 30
0.0
 11
326.65562442
 21
251.8540213056
 31
0.0
  0
LINE
  5
FC
330
1F
100
AcDbEntity
  8
0
100
AcDbLine
 10
241.4950983129
 20
110.3540213056
 30
0.0
 11
241.4950983129
 21
109.8540213056
 31
0.0
  0
LINE
  5
FD
330
1F
100
AcDbEntity
  8
0
100
AcDbLine
 10
266.4950983129
 20
109.8540213056
 30
0.0
 11
266.4950983129
 21
110.3540213056
 31
0.0
  0
LINE
  5
FE
330
1F
100
AcDbEntity
  8
0
100
AcDbLine
 10
201.4950983129
 20
110.3540213056
 30
0.0
 11
201.4950983129
 21
109.8540213056
 31
0.0
  0
LINE
  5
FF
330
1F
100
AcDbEntity
  8
0
100
AcDbLine
 10
226.4950983129
 20
109.8540213056
 30
0.0
 11
226.4950983129
 21
110.3540213056
 31
0.0
  0
LINE
  5
100
330
1F
100
AcDbEntity
  8
0
100
AcDbLine
 10
191.9950983129
 20
164.8540213056
 30
0.0
 11
191.4950983129
 21
164.8540213056
 31
0.0
  0
LINE
  5
101
330
1F
100
AcDbEntity
  8
0
100
AcDbLine
 10
191.4950983129
 20
139.8540213056
 30
0.0
 11
191.9950983129
 21
139.8540213056
 31
0.0
  0
LINE
  5
102
330
1F
100
AcDbEntity
  8
0
100
AcDbLine
 10
266.4950983129
 20
194.3540213056
 30
0.0
 11
266.4950983129
 21
194.8540213056
 31
0.0
  0
LINE
  5
103
330
1F
100
AcDbEntity
  8
0
100
AcDbLine
 10
241.4950983129
 20
194.8540213056
 30
0.0
 11
241.4950983129
 21
194.3540213056
 31
0.0
  0
LINE
  5
104
330
1F
100
AcDbEntity
  8
0
100
AcDbLine
 10
275.9950983129
 20
119.8540213056
 30
0.0
 11
276.4950983129
 21
119.8540213056
 31
0.0
  0
LINE
  5
105
330
1F
100
AcDbEntity
  8
0
100
AcDbLine
 10
276.4950983129
 20
144.8540213056
 30
0.0
 11
275.9950983129
 21
144.8540213056
 31
0.0
  0
LINE
  5
106
330
1F
100
AcDbEntity
  8
0
100
AcDbLine
 10
275.9950983129
 20
159.8540213056
 30
0.0
 11
276.4950983129
 21
159.8540213056
 31
0.0
  0
LINE
  5
107
330
1F
100
AcDbEntity
  8
0
100
AcDbLine
 10
276.4950983129
 20
184.8540213056
 30
0.0
 11
275.9950983129
 21
184.8540213056
 31
0.0
  0
LINE
  5
108
330
1F
100
AcDbEntity
  8
0
100
AcDbLine
 10
226.4950983129
 20
194.3540213056
 30
0.0
 11
226.4950983129
 21
194.8540213056
 31
0.0
  0
LINE
  5
109
330
1F
100
AcDbEntity
  8
0
100
AcDbLine
 10
201.4950983129
 20
194.8540213056
 30
0.0
 11
201.4950983129
 21
194.3540213056
 31
0.0
  0
LINE
  5
10A
330
1F
100
AcDbEntity
  8
0
100
AcDbLine
 10
224.4950983129
 20
194.8540213056
 30
0.0
 11
224.4950983129
 21
197.3540213056
 31
0.0
  0
LINE
  5
10B
330
1F
100
AcDbEntity
  8
0
100
AcDbLine
 10
203.4950983129
 20
197.3540213056
 30
0.0
 11
203.4950983129
 21
194.8540213056
 31
0.0
  0
LINE
  5
10C
330
1F
100
AcDbEntity
  8
0
100
AcDbLine
 10
264.4950983129
 20
194.8540213056
 30
0.0
 11
264.4950983129
 21
197.3540213056
 31
0.0
  0
LINE
  5
10D
330
1F
100
AcDbEntity
  8
0
100
AcDbLine
 10
243.4950983129
 20
197.3540213056
 30
0.0
 11
243.4950983129
 21
194.8540213056
 31
0.0
  0
LINE
  5
10E
330
1F
100
AcDbEntity
  8
0
100
AcDbLine
 10
203.4950983129
 20
109.8540213056
 30
0.0
 11
203.4950983129
 21
107.3540213056
 31
0.0
  0
LINE
  5
10F
330
1F
100
AcDbEntity
  8
0
100
AcDbLine
 10
224.4950983129
 20
107.3540213056
 30
0.0
 11
224.4950983129
 21
109.8540213056
 31
0.0
  0
LINE
  5
110
330
1F
100
AcDbEntity
  8
0
100
AcDbLine
 10
243.4950983129
 20
109.8540213056
 30
0.0
 11
243.4950983129
 21
107.3540213056
 31
0.0
  0
LINE
  5
111
330
1F
100
AcDbEntity
  8
0
100
AcDbLine
 10
264.4950983129
 20
107.3540213056
 30
0.0
 11
264.4950983129
 21
109.8540213056
 31
0.0
  0
LINE
  5
112
330
1F
100
AcDbEntity
  8
0
100
AcDbLine
 10
191.4950983129
 20
162.8540213056
 30
0.0
 11
188.9950983129
 21
162.8540213056
 31
0.0
  0
LINE
  5
113
330
1F
100
AcDbEntity
  8
0
100
AcDbLine
 10
188.9950983129
 20
141.8540213056
 30
0.0
 11
191.4950983129
 21
141.8540213056
 31
0.0
  0
LINE
  5
114
330
1F
100
AcDbEntity
  8
0
100
AcDbLine
 10
276.4950983129
 20
121.8540213056
 30
0.0
 11
278.9950983129
 21
121.8540213056
 31
0.0
  0
LINE
  5
115
330
1F
100
AcDbEntity
  8
0
100
AcDbLine
 10
278.9950983129
 20
142.8540213056
 30
0.0
 11
276.4950983129
 21
142.8540213056
 31
0.0
  0
LINE
  5
116
330
1F
100
AcDbEntity
  8
0
100
AcDbLine
 10
276.4950983129
 20
161.8540213056
 30
0.0
 11
278.9950983129
 21
161.8540213056
 31
0.0
  0
LINE
  5
117
330
1F
100
AcDbEntity
  8
0
100
AcDbLine
 10
278.9950983129
 20
182.8540213056
 30
0.0
 11
276.4950983129
 21
182.8540213056
 31
0.0
  0
LINE
  5
118
330
1F
100
AcDbEntity
  8
0
100
AcDbLine
 10
278.9950983129
 20
164.3540213056
 30
0.0
 11
281.4950983129
 21
164.3540213056
 31
0.0
  0
LINE
  5
119
330
1F
100
AcDbEntity
  8
0
100
AcDbLine
 10
281.4950983129
 20
180.3540213056
 30
0.0
 11
278.9950983129
 21
180.3540213056
 31
0.0
  0
LINE
  5
11A
330
1F
100
AcDbEntity
  8
0
100
AcDbLine
 10
261.9950983129
 20
197.3540213056
 30
0.0
 11
261.9950983129
 21
199.8540213056
 31
0.0
  0
LINE
  5
11B
330
1F
100
AcDbEntity
  8
0
100
AcDbLine
 10
245.9950983129
 20
199.8540213056
 30
0.0
 11
245.9950983129
 21
197.3540213056
 31
0.0
  0
LINE
  5
11C
330
1F
100
AcDbEntity
  8
0
100
AcDbLine
 10
278.9950983129
 20
124.3540213056
 30
0.0
 11
281.4950983129
 21
124.3540213056
 31
0.0
  0
LINE
  5
11D
330
1F
100
AcDbEntity
  8
0
100
AcDbLine
 10
281.4950983129
 20
140.3540213056
 30
0.0
 11
278.9950983129
 21
140.3540213056
 31
0.0
  0
LINE
  5
11E
330
1F
100
AcDbEntity
  8
0
100
AcDbLine
 10
245.9950983129
 20
107.3540213056
 30
0.0
 11
245.9950983129
 21
104.8540213056
 31
0.0
  0
LINE
  5
11F
330
1F
100
AcDbEntity
  8
0
100
AcDbLine
 10
261.9950983129
 20
104.8540213056
 30
0.0
 11
261.9950983129
 21
107.3540213056
 31
0.0
  0
LINE
  5
120
330
1F
100
AcDbEntity
  8
0
100
AcDbLine
 10
221.9950983129
 20
197.3540213056
 30
0.0
 11
221.9950983129
 21
199.8540213056
 31
0.0
  0
LINE
  5
121
330
1F
100
AcDbEntity
  8
0
100
AcDbLine
 10
205.9950983129
 20
199.8540213056
 30
0.0
 11
205.9950983129
 21
197.3540213056
 31
0.0
  0
LINE
  5
122
330
1F
100
AcDbEntity
  8
0
100
AcDbLine
 10
188.9950983129
 20
160.3540213056
 30
0.0
 11
186.4950983129
 21
160.3540213056
 31
0.0
  0
LINE
  5
123
330
1F
100
AcDbEntity
  8
0
100
AcDbLine
 10
186.4950983129
 20
144.3540213056
 30
0.0
 11
188.9950983129
 21
144.3540213056
 31
0.0
  0
LINE
  5
124
330
1F
100
AcDbEntity
  8
0
100
AcDbLine
 10
205.9950983129
 20
107.3540213056
 30
0.0
 11
205.9950983129
 21
104.8540213056
 31
0.0
  0
LINE
  5
125
330
1F
100
AcDbEntity
  8
0
100
AcDbLine
 10
221.9950983129
 20
104.8540213056
 30
0.0
 11
221.9950983129
 21
107.3540213056
 31
0.0
  0
LINE
  5
126
330
1F
100
AcDbEntity
  8
0
100
AcDbLine
 10
186.4950983129
 20
157.3540213056
 30
0.0
 11
183.9950983129
 21
157.3540213056
 31
0.0
  0
LINE
  5
127
330
1F
100
AcDbEntity
  8
0
100
AcDbLine
 10
183.9950983129
 20
147.3540213056
 30
0.0
 11
186.4950983129
 21
147.3540213056
 31
0.0
  0
LINE
  5
128
330
1F
100
AcDbEntity
  8
0
100
AcDbLine
 10
208.9950983129
 20
104.8540213056
 30
0.0
 11
208.9950983129
 21
102.3540213056
 31
0.0
  0
LINE
  5
129
330
1F
100
AcDbEntity
  8
0
100
AcDbLine
 10
218.9950983129
 20
102.3540213056
 30
0.0
 11
218.9950983129
 21
104.8540213056
 31
0.0
  0
LINE
  5
12A
330
1F
100
AcDbEntity
  8
0
100
AcDbLine
 10
258.9950983129
 20
199.8540213056
 30
0.0
 11
258.9950983129
 21
202.3540213056
 31
0.0
  0
LINE
  5
12B
330
1F
100
AcDbEntity
  8
0
100
AcDbLine
 10
248.9950983129
 20
202.3540213056
 30
0.0
 11
248.9950983129
 21
199.8540213056
 31
0.0
  0
LINE
  5
12C
330
1F
100
AcDbEntity
  8
0
100
AcDbLine
 10
248.9950983129
 20
104.8540213056
 30
0.0
 11
248.9950983129
 21
102.3540213056
 31
0.0
  0
LINE
  5
12D
330
1F
100
AcDbEntity
  8
0
100
AcDbLine
 10
258.9950983129
 20
102.3540213056
 30
0.0
 11
258.9950983129
 21
104.8540213056
 31
0.0
  0
LINE
  5
12E
330
1F
100
AcDbEntity
  8
0
100
AcDbLine
 10
281.4950983129
 20
167.3540213056
 30
0.0
 11
283.9950983129
 21
167.3540213056
 31
0.0
  0
LINE
  5
12F
330
1F
100
AcDbEntity
  8
0
100
AcDbLine
 10
283.9950983129
 20
177.3540213056
 30
0.0
 11
281.4950983129
 21
177.3540213056
 31
0.0
  0
LINE
  5
130
330
1F
100
AcDbEntity
  8
0
100
AcDbLine
 10
218.9950983129
 20
199.8540213056
 30
0.0
 11
218.9950983129
 21
202.3540213056
 31
0.0
  0
LINE
  5
131
330
1F
100
AcDbEntity
  8
0
100
AcDbLine
 10
208.9950983129
 20
202.3540213056
 30
0.0
 11
208.9950983129
 21
199.8540213056
 31
0.0
  0
LINE
  5
132
330
1F
100
AcDbEntity
  8
0
100
AcDbLine
 10
281.4950983129
 20
127.3540213056
 30
0.0
 11
283.9950983129
 21
127.3540213056
 31
0.0
  0
LINE
  5
133
330
1F
100
AcDbEntity
  8
0
100
AcDbLine
 10
283.9950983129
 20
137.3540213056
 30
0.0
 11
281.4950983129
 21
137.3540213056
 31
0.0
  0
LINE
  5
134
330
1F
100
AcDbEntity
  8
0
100
AcDbLine
 10
113.9950983129
 20
247.8540213056
 30
0.0
 11
113.9950983129
 21
56.854021308
 31
0.0
  0
LINE
  5
135
330
1F
100
AcDbEntity
  8
0
100
AcDbLine
 10
230.15562442
 20
-19.9459786944
 30
0.0
 11
230.15562442
 21
110.3540213056
 31
0.0
  0
LINE
  5
136
330
1F
100
AcDbEntity
  8
0
100
AcDbLine
 10
230.15562442
 20
194.3540213056
 30
0.0
 11
230.15562442
 21
324.6540213056
 31
0.0
  0
LINE
  5
137
330
1F
100
AcDbEntity
  8
0
100
AcDbLine
 10
354.65562442
 20
52.8540213056
 30
0.0
 11
354.65562442
 21
251.8540213056
 31
0.0
  0
ARC
  5
138
330
1F
100
AcDbEntity
  8
0
100
AcDbCircle
 10
199.9950983129
 20
186.3540213056
 30
0.0
 40
6.0
100
AcDbArc
 50
90.0
 51
180.0
  0
LINE
  5
139
330
1F
100
AcDbEntity
  8
0
100
AcDbLine
 10
267.9950983129
 20
192.3540213056
 30
0.0
 11
199.9950983129
 21
192.3540213056
 31
0.0
  0
ARC
  5
13A
330
1F
100
AcDbEntity
  8
0
100
AcDbCircle
 10
267.9950983129
 20
186.3540213056
 30
0.0
 40
6.0
100
AcDbArc
 50
0.0
 51
90.0
  0
LINE
  5
13B
330
1F
100
AcDbEntity
  8
0
100
AcDbLine
 10
273.9950983129
 20
118.3540213056
 30
0.0
 11
273.9950983129
 21
186.3540213056
 31
0.0
  0
LINE
  5
13C
330
1F
100
AcDbEntity
  8
0
100
AcDbLine
 10
199.9950983129
 20
112.3540213056
 30
0.0
 11
267.9950983129
 21
112.3540213056
 31
0.0
  0
ARC
  5
13D
330
1F
100
AcDbEntity
  8
0
100
AcDbCircle
 10
199.9950983129
 20
118.3540213056
 30
0.0
 40
6.0
100
AcDbArc
 50
180.0
 51
270.0
  0
LINE
  5
13E
330
1F
100
AcDbEntity
  8
0
100
AcDbLine
 10
193.9950983129
 20
186.3540213056
 30
0.0
 11
193.9950983129
 21
118.3540213056
 31
0.0
  0
ARC
  5
13F
330
1F
100
AcDbEntity
  8
0
100
AcDbCircle
 10
267.9950983129
 20
118.3540213056
 30
0.0
 40
6.0
100
AcDbArc
 50
270.0
 51
0.0
  0
ARC
  5
140
330
1F
100
AcDbEntity
  8
0
100
AcDbCircle
 10
269.9950983129
 20
116.3540213056
 30
0.0
 40
6.0
100
AcDbArc
 50
270.0
 51
0.0
  0
LINE
  5
141
330
1F
100
AcDbEntity
  8
0
100
AcDbLine
 10
269.9950983129
 20
110.3540213056
 30
0.0
 11
197.9950983129
 21
110.3540213056
 31
0.0
  0
ARC
  5
142
330
1F
100
AcDbEntity
  8
0
100
AcDbCircle
 10
197.9950983129
 20
116.3540213056
 30
0.0
 40
6.0
100
AcDbArc
 50
180.0
 51
270.0
  0
LINE
  5
143
330
1F
100
AcDbEntity
  8
0
100
AcDbLine
 10
191.9950983129
 20
116.3540213056
 30
0.0
 11
191.9950983129
 21
188.3540213056
 31
0.0
  0
ARC
  5
144
330
1F
100
AcDbEntity
  8
0
100
AcDbCircle
 10
197.9950983129
 20
188.3540213056
 30
0.0
 40
6.0
100
AcDbArc
 50
90.0
 51
180.0
  0
LINE
  5
145
330
1F
100
AcDbEntity
  8
0
100
AcDbLine
 10
275.9950983129
 20
188.3540213056
 30
0.0
 11
275.9950983129
 21
116.3540213056
 31
0.0
  0
LINE
  5
146
330
1F
100
AcDbEntity
  8
0
100
AcDbLine
 10
197.9950983129
 20
194.3540213056
 30
0.0
 11
269.9950983129
 21
194.3540213056
 31
0.0
  0
ARC
  5
147
330
1F
100
AcDbEntity
  8
0
100
AcDbCircle
 10
269.9950983129
 20
188.3540213056
 30
0.0
 40
6.0
100
AcDbArc
 50
0.0
 51
90.0
  0
LINE
  5
148
330
1F
100
AcDbEntity
  8
0
100
AcDbLine
 10
241.4950983129
 20
109.8540213056
 30
0.0
 11
266.4950983129
 21
109.8540213056
 31
0.0
  0
LINE
  5
149
330
1F
100
AcDbEntity
  8
0
100
AcDbLine
 10
201.4950983129
 20
109.8540213056
 30
0.0
 11
226.4950983129
 21
109.8540213056
 31
0.0
  0
LINE
  5
14A
330
1F
100
AcDbEntity
  8
0
100
AcDbLine
 10
191.4950983129
 20
139.8540213056
 30
0.0
 11
191.4950983129
 21
164.8540213056
 31
0.0
  0
LINE
  5
14B
330
1F
100
AcDbEntity
  8
0
100
AcDbLine
 10
241.4950983129
 20
194.8540213056
 30
0.0
 11
266.4950983129
 21
194.8540213056
 31
0.0
  0
LINE
  5
14C
330
1F
100
AcDbEntity
  8
0
100
AcDbLine
 10
276.4950983129
 20
144.8540213056
 30
0.0
 11
276.4950983129
 21
119.8540213056
 31
0.0
  0
LINE
  5
14D
330
1F
100
AcDbEntity
  8
0
100
AcDbLine
 10
276.4950983129
 20
184.8540213056
 30
0.0
 11
276.4950983129
 21
159.8540213056
 31
0.0
  0
LINE
  5
14E
330
1F
100
AcDbEntity
  8
0
100
AcDbLine
 10
201.4950983129
 20
194.8540213056
 30
0.0
 11
226.4950983129
 21
194.8540213056
 31
0.0
  0
LINE
  5
14F
330
1F
100
AcDbEntity
  8
0
100
AcDbLine
 10
203.4950983129
 20
197.3540213056
 30
0.0
 11
224.4950983129
 21
197.3540213056
 31
0.0
  0
LINE
  5
150
330
1F
100
AcDbEntity
  8
0
100
AcDbLine
 10
243.4950983129
 20
197.3540213056
 30
0.0
 11
264.4950983129
 21
197.3540213056
 31
0.0
  0
LINE
  5
151
330
1F
100
AcDbEntity
  8
0
100
AcDbLine
 10
203.4950983129
 20
107.3540213056
 30
0.0
 11
224.4950983129
 21
107.3540213056
 31
0.0
  0
LINE
  5
152
330
1F
100
AcDbEntity
  8
0
100
AcDbLine
 10
243.4950983129
 20
107.3540213056
 30
0.0
 11
264.4950983129
 21
107.3540213056
 31
0.0
  0
LINE
  5
153
330
1F
100
AcDbEntity
  8
0
100
AcDbLine
 10
188.9950983129
 20
141.8540213056
 30
0.0
 11
188.9950983129
 21
162.8540213056
 31
0.0
  0
LINE
  5
154
330
1F
100
AcDbEntity
  8
0
100
AcDbLine
 10
278.9950983129
 20
142.8540213056
 30
0.0
 11
278.9950983129
 21
121.8540213056
 31
0.0
  0
LINE
  5
155
330
1F
100
AcDbEntity
  8
0
100
AcDbLine
 10
278.9950983129
 20
182.8540213056
 30
0.0
 11
278.9950983129
 21
161.8540213056
 31
0.0
  0
LINE
  5
156
330
1F
100
AcDbEntity
  8
0
100
AcDbLine
 10
281.4950983129
 20
180.3540213056
 30
0.0
 11
281.4950983129
 21
164.3540213056
 31
0.0
  0
LINE
  5
157
330
1F
100
AcDbEntity
  8
0
100
AcDbLine
 10
245.9950983129
 20
199.8540213056
 30
0.0
 11
261.9950983129
 21
199.8540213056
 31
0.0
  0
LINE
  5
158
330
1F
100
AcDbEntity
  8
0
100
AcDbLine
 10
281.4950983129
 20
140.3540213056
 30
0.0
 11
281.4950983129
 21
124.3540213056
 31
0.0
  0
LINE
  5
159
330
1F
100
AcDbEntity
  8
0
100
AcDbLine
 10
245.9950983129
 20
104.8540213056
 30
0.0
 11
261.9950983129
 21
104.8540213056
 31
0.0
  0
LINE
  5
15A
330
1F
100
AcDbEntity
  8
0
100
AcDbLine
 10
205.9950983129
 20
199.8540213056
 30
0.0
 11
221.9950983129
 21
199.8540213056
 31
0.0
  0
LINE
  5
15B
330
1F
100
AcDbEntity
  8
0
100
AcDbLine
 10
186.4950983129
 20
144.3540213056
 30
0.0
 11
186.4950983129
 21
160.3540213056
 31
0.0
  0
LINE
  5
15C
330
1F
100
AcDbEntity
  8
0
100
AcDbLine
 10
205.9950983129
 20
104.8540213056
 30
0.0
 11
221.9950983129
 21
104.8540213056
 31
0.0
  0
LINE
  5
15D
330
1F
100
AcDbEntity
  8
0
100
AcDbLine
 10
183.9950983129
 20
147.3540213056
 30
0.0
 11
183.9950983129
 21
157.3540213056
 31
0.0
  0
LINE
  5
15E
330
1F
100
AcDbEntity
  8
0
100
AcDbLine
 10
208.9950983129
 20
102.3540213056
 30
0.0
 11
218.9950983129
 21
102.3540213056
 31
0.0
  0
LINE
  5
15F
330
1F
100
AcDbEntity
  8
0
100
AcDbLine
 10
248.9950983129
 20
202.3540213056
 30
0.0
 11
258.9950983129
 21
202.3540213056
 31
0.0
  0
LINE
  5
160
330
1F
100
AcDbEntity
  8
0
100
AcDbLine
 10
248.9950983129
 20
102.3540213056
 30
0.0
 11
258.9950983129
 21
102.3540213056
 31
0.0
  0
LINE
  5
161
330
1F
100
AcDbEntity
  8
0
100
AcDbLine
 10
283.9950983129
 20
177.3540213056
 30
0.0
 11
283.9950983129
 21
167.3540213056
 31
0.0
  0
LINE
  5
162
330
1F
100
AcDbEntity
  8
0
100
AcDbLine
 10
208.9950983129
 20
202.3540213056
 30
0.0
 11
218.9950983129
 21
202.3540213056
 31
0.0
  0
LINE
  5
163
330
1F
100
AcDbEntity
  8
0
100
AcDbLine
 10
283.9950983129
 20
137.3540213056
 30
0.0
 11
283.9950983129
 21
127.3540213056
 31
0.0
  0
LINE
  5
16E
330
1F
100
AcDbEntity
  8
0
 62
     8
370
    18
100
AcDbLine
 10
139.0103153199
 20
251.8540213056
 30
0.0
 11
139.0103153199
 21
52.8540213056
 31
0.0
  0
LINE
  5
17A
330
1F
100
AcDbEntity
  8
0
 62
     8
370
    18
100
AcDbLine
 10
326.65562442
 20
52.8540213056
 30
0.0
 11
326.65562442
 21
251.8540213056
 31
0.0
  0
LINE
  5
17B
330
1F
100
AcDbEntity
  8
0
100
AcDbLine
 10
825.4129491105
 20
142.3540213056
 30
0.0
 11
825.705425857
 21
142.3540213056
 31
0.0
  0
LINE
  5
17C
330
1F
100
AcDbEntity
  8
0
100
AcDbLine
 10
825.705425857
 20
162.3540213056
 30
0.0
 11
825.4129491105
 21
162.3540213056
 31
0.0
  0
LINE
  5
17D
330
1F
100
AcDbEntity
  8
0
100
AcDbLine
 10
854.205425857
 20
192.3540213056
 30
0.0
 11
854.205425857
 21
194.8540213056
 31
0.0
  0
LINE
  5
17E
330
1F
100
AcDbEntity
  8
0
100
AcDbLine
 10
829.205425857
 20
194.8540213056
 30
0.0
 11
829.205425857
 21
192.3540213056
 31
0.0
  0
LINE
  5
17F
330
1F
100
AcDbEntity
  8
0
100
AcDbLine
 10
829.205425857
 20
112.3540213056
 30
0.0
 11
829.205425857
 21
109.8540213056
 31
0.0
  0
LINE
  5
180
330
1F
100
AcDbEntity
  8
0
100
AcDbLine
 10
854.205425857
 20
109.8540213056
 30
0.0
 11
854.205425857
 21
112.3540213056
 31
0.0
  0
LINE
  5
181
330
1F
100
AcDbEntity
  8
0
100
AcDbLine
 10
852.205425857
 20
194.8540213056
 30
0.0
 11
852.205425857
 21
197.3540213056
 31
0.0
  0
LINE
  5
182
330
1F
100
AcDbEntity
  8
0
100
AcDbLine
 10
831.205425857
 20
197.3540213056
 30
0.0
 11
831.205425857
 21
194.8540213056
 31
0.0
  0
LINE
  5
183
330
1F
100
AcDbEntity
  8
0
100
AcDbLine
 10
831.205425857
 20
109.8540213056
 30
0.0
 11
831.205425857
 21
107.3540213056
 31
0.0
  0
LINE
  5
184
330
1F
100
AcDbEntity
  8
0
100
AcDbLine
 10
852.205425857
 20
107.3540213056
 30
0.0
 11
852.205425857
 21
109.8540213056
 31
0.0
  0
LINE
  5
185
330
1F
100
AcDbEntity
  8
0
100
AcDbLine
 10
849.705425857
 20
197.3540213056
 30
0.0
 11
849.705425857
 21
199.8540213056
 31
0.0
  0
LINE
  5
186
330
1F
100
AcDbEntity
  8
0
100
AcDbLine
 10
833.705425857
 20
199.8540213056
 30
0.0
 11
833.705425857
 21
197.3540213056
 31
0.0
  0
LINE
  5
187
330
1F
100
AcDbEntity
  8
0
100
AcDbLine
 10
833.705425857
 20
107.3540213056
 30
0.0
 11
833.705425857
 21
104.8540213056
 31
0.0
  0
LINE
  5
188
330
1F
100
AcDbEntity
  8
0
100
AcDbLine
 10
849.705425857
 20
104.8540213056
 30
0.0
 11
849.705425857
 21
107.3540213056
 31
0.0
  0
LINE
  5
189
330
1F
100
AcDbEntity
  8
0
100
AcDbLine
 10
846.705425857
 20
199.8540213056
 30
0.0
 11
846.705425857
 21
202.3540213056
 31
0.0
  0
LINE
  5
18A
330
1F
100
AcDbEntity
  8
0
100
AcDbLine
 10
836.705425857
 20
202.3540213056
 30
0.0
 11
836.705425857
 21
199.8540213056
 31
0.0
  0
LINE
  5
18B
330
1F
100
AcDbEntity
  8
0
100
AcDbLine
 10
836.705425857
 20
104.8540213056
 30
0.0
 11
836.705425857
 21
102.3540213056
 31
0.0
  0
LINE
  5
18C
330
1F
100
AcDbEntity
  8
0
100
AcDbLine
 10
846.705425857
 20
102.3540213056
 30
0.0
 11
846.705425857
 21
104.8540213056
 31
0.0
  0
ARC
  5
18D
330
1F
100
AcDbEntity
  8
0
100
AcDbCircle
 10
483.105425857
 20
127.0540213056
 30
0.0
 40
0.2000000000000028
100
AcDbArc
 50
270.0
 51
0.0000000001
  0
LINE
  5
18E
330
1F
100
AcDbEntity
  8
0
100
AcDbLine
 10
482.9166376383
 20
137.8540213056
 30
0.0
 11
482.505425857
 21
137.8540213056
 31
0.0
  0
LINE
  5
18F
330
1F
100
AcDbEntity
  8
0
100
AcDbLine
 10
482.505425857
 20
126.8540213056
 30
0.0
 11
483.105425857
 21
126.8540213056
 31
0.0
  0
ARC
  5
190
330
1F
100
AcDbEntity
  8
0
100
AcDbCircle
 10
482.505425857
 20
137.6540213056
 30
0.0
 40
0.2000000000000171
100
AcDbArc
 50
90.0
 51
180.0000000001
  0
ARC
  5
191
330
1F
100
AcDbEntity
  8
0
100
AcDbCircle
 10
482.505425857
 20
127.0540213056
 30
0.0
 40
0.2000000000000028
100
AcDbArc
 50
179.9999999999
 51
270.0
  0
ARC
  5
192
330
1F
100
AcDbEntity
  8
0
100
AcDbCircle
 10
489.2959072381
 20
132.7441588431
 30
0.0
 40
7.999999999999969
100
AcDbArc
 50
197.1467397277
 51
209.0955287963
  0
ARC
  5
193
330
1F
100
AcDbEntity
  8
0
100
AcDbCircle
 10
489.2959072381
 20
131.9638837681
 30
0.0
 40
8.0
100
AcDbArc
 50
150.9044712037
 51
162.8515803462
  0
LINE
  5
194
330
1F
100
AcDbEntity
  8
0
100
AcDbLine
 10
484.4443257195
 20
134.4540213056
 30
0.0
 11
484.2432234763
 21
134.4540213056
 31
0.0
  0
LINE
  5
195
330
1F
100
AcDbEntity
  8
0
100
AcDbLine
 10
483.305425857
 20
130.2540213056
 30
0.0
 11
483.7286281342
 21
130.2540213056
 31
0.0
  0
LINE
  5
196
330
1F
100
AcDbEntity
  8
0
100
AcDbLine
 10
484.7370061905
 20
130.2540213056
 30
0.0
 11
484.9386937024
 21
130.2540213056
 31
0.0
  0
ARC
  5
197
330
1F
100
AcDbEntity
  8
0
100
AcDbCircle
 10
483.105425857
 20
177.6540213056
 30
0.0
 40
0.1999999999999886
100
AcDbArc
 50
359.9999999999
 51
90.0
  0
LINE
  5
198
330
1F
100
AcDbEntity
  8
0
100
AcDbLine
 10
483.105425857
 20
177.8540213056
 30
0.0
 11
482.505425857
 21
177.8540213056
 31
0.0
  0
LINE
  5
199
330
1F
100
AcDbEntity
  8
0
100
AcDbLine
 10
482.505425857
 20
166.8540213056
 30
0.0
 11
482.9166376383
 21
166.8540213056
 31
0.0
  0
ARC
  5
19A
330
1F
100
AcDbEntity
  8
0
100
AcDbCircle
 10
482.505425857
 20
177.6540213056
 30
0.0
 40
0.2000000000000171
100
AcDbArc
 50
90.0
 51
180.0000000001
  0
ARC
  5
19B
330
1F
100
AcDbEntity
  8
0
100
AcDbCircle
 10
482.505425857
 20
167.0540213056
 30
0.0
 40
0.1999999999999886
100
AcDbArc
 50
179.9999999999
 51
270.0
  0
ARC
  5
19C
330
1F
100
AcDbEntity
  8
0
100
AcDbCircle
 10
489.2959072381
 20
172.7441588431
 30
0.0
 40
7.99999999999996
100
AcDbArc
 50
197.1467397277
 51
209.0955287963
  0
ARC
  5
19D
330
1F
100
AcDbEntity
  8
0
100
AcDbCircle
 10
489.2959072381
 20
171.9638837681
 30
0.0
 40
8.000000000000009
100
AcDbArc
 50
150.9044712037
 51
162.8515803462
  0
LINE
  5
19E
330
1F
100
AcDbEntity
  8
0
100
AcDbLine
 10
484.9386937024
 20
174.4540213056
 30
0.0
 11
484.7370061905
 21
174.4540213056
 31
0.0
  0
LINE
  5
19F
330
1F
100
AcDbEntity
  8
0
100
AcDbLine
 10
483.7286281342
 20
174.4540213056
 30
0.0
 11
483.305425857
 21
174.4540213056
 31
0.0
  0
LINE
  5
1A0
330
1F
100
AcDbEntity
  8
0
100
AcDbLine
 10
484.2432234763
 20
170.2540213056
 30
0.0
 11
484.4443257195
 21
170.2540213056
 31
0.0
  0
LINE
  5
1A1
330
1F
100
AcDbEntity
  8
0
100
AcDbLine
 10
824.2721580115
 20
130.2540213056
 30
0.0
 11
824.4738455235
 21
130.2540213056
 31
0.0
  0
LINE
  5
1A2
330
1F
100
AcDbEntity
  8
0
100
AcDbLine
 10
825.4822235798
 20
130.2540213056
 30
0.0
 11
825.705425857
 21
130.2540213056
 31
0.0
  0
LINE
  5
1A3
330
1F
100
AcDbEntity
  8
0
100
AcDbLine
 10
824.9676282377
 20
134.4540213056
 30
0.0
 11
824.7665259945
 21
134.4540213056
 31
0.0
  0
LINE
  5
1A4
330
1F
100
AcDbEntity
  8
0
100
AcDbLine
 10
824.7665259945
 20
170.2540213056
 30
0.0
 11
824.9676282377
 21
170.2540213056
 31
0.0
  0
LINE
  5
1A5
330
1F
100
AcDbEntity
  8
0
100
AcDbLine
 10
825.705425857
 20
174.4540213056
 30
0.0
 11
825.4822235798
 21
174.4540213056
 31
0.0
  0
LINE
  5
1A6
330
1F
100
AcDbEntity
  8
0
100
AcDbLine
 10
824.4738455235
 20
174.4540213056
 30
0.0
 11
824.2721580115
 21
174.4540213056
 31
0.0
  0
CIRCLE
  5
1A7
330
1F
100
AcDbEntity
  8
0
100
AcDbCircle
 10
654.605425857
 20
152.3540213056
 30
0.0
 40
99.5
  0
CIRCLE
  5
1A8
330
1F
100
AcDbEntity
  8
0
100
AcDbCircle
 10
654.605425857
 20
152.3540213056
 30
0.0
 40
76.50000000000148
  0
SPLINE
  5
1AA
330
1F
100
AcDbEntity
  8
0
100
AcDbSpline
210
0.0
220
0.0
230
1.0
 70
     8
 71
     3
 72
    10
 73
     6
 74
     0
 42
0.000000001
 43
0.00000001
 40
0.0
 40
0.0
 40
0.0
 40
0.0
 40
0.4376477731525905
 40
0.9566497259216171
 40
1.0
 40
1.0
 40
1.0
 40
1.0
 10
825.4459014799593
 20
149.2150661647579
 30
0.0
 10
825.3831391999129
 20
150.1219141256142
 30
0.0
 10
825.2459477832351
 20
152.1041836730093
 30
0.0
 10
825.3157130217215
 20
154.2709931657365
 30
0.0
 10
825.4365838606035
 20
155.4055188083279
 30
0.0
 10
825.4459014799593
 20
155.4929764464544
 30
0.0
  0
LINE
  5
1AB
330
1F
100
AcDbEntity
  8
0
100
AcDbLine
 10
825.612937444
 20
157.9790529345
 30
0.0
 11
825.44590148
 21
155.4929764465
 31
0.0
  0
SPLINE
  5
1AC
330
1F
100
AcDbEntity
  8
0
100
AcDbSpline
210
0.0
220
0.0
230
1.0
 70
     8
 71
     3
 72
     9
 73
     5
 74
     0
 42
0.000000001
 43
0.00000001
 40
0.0
 40
0.0
 40
0.0
 40
0.0
 40
0.0245155957872564
 40
1.0
 40
1.0
 40
1.0
 40
1.0
 10
825.3836509565551
 20
141.8658679783763
 30
0.0
 10
825.3834139202608
 20
141.8619049426962
 30
0.0
 10
825.3737451242641
 20
141.7002512870199
 30
0.0
 10
825.3935053470171
 20
142.031192911865
 30
0.0
 10
825.4127811361367
 20
142.3540213056062
 30
0.0
  0
SPLINE
  5
1AD
330
1F
100
AcDbEntity
  8
0
100
AcDbSpline
210
0.0
220
0.0
230
1.0
 70
     8
 71
     3
 72
     9
 73
     5
 74
     0
 42
0.000000001
 43
0.00000001
 40
0.0
 40
0.0
 40
0.0
 40
0.0
 40
0.6162383605215019
 40
1.0
 40
1.0
 40
1.0
 40
1.0
 10
825.4123042406716
 20
162.3540213056062
 30
0.0
 10
825.4002064771929
 20
162.5607041488762
 30
0.0
 10
825.3805748472042
 20
162.8960984646326
 30
0.0
 10
825.3877421853774
 20
162.7759938247947
 30
0.0
 10
825.3904927348256
 20
162.7299022713015
 30
0.0
  0
LINE
  5
1AE
330
1F
100
AcDbEntity
  8
0
100
AcDbLine
 10
825.44590148
 20
149.2150661648
 30
0.0
 11
825.612937444
 21
146.7289896767
 31
0.0
  0
ARC
  5
1B2
330
1F
100
AcDbEntity
  8
0
100
AcDbCircle
 10
654.605425857
 20
152.3540213056
 30
0.0
 40
172.2999999999914
100
AcDbArc
 50
270.0
 51
353.2339065127
  0
ARC
  5
1B3
330
1F
100
AcDbEntity
  8
0
100
AcDbCircle
 10
654.605425857
 20
152.3540213056
 30
0.0
 40
172.2999999999914
100
AcDbArc
 50
6.7660934873
 51
270.0
  0
CIRCLE
  5
1B4
330
1F
100
AcDbEntity
  8
0
100
AcDbCircle
 10
841.705425857
 20
152.3540213056
 30
0.0
 40
5.0
  0
CIRCLE
  5
1B5
330
1F
100
AcDbEntity
  8
0
100
AcDbCircle
 10
841.705425857
 20
152.3540213056
 30
0.0
 40
8.0
  0
CIRCLE
  5
1B6
330
1F
100
AcDbEntity
  8
0
100
AcDbCircle
 10
841.705425857
 20
152.3540213056
 30
0.0
 40
10.5
  0
CIRCLE
  5
1B7
330
1F
100
AcDbEntity
  8
0
100
AcDbCircle
 10
841.705425857
 20
152.3540213056
 30
0.0
 40
12.5
  0
LINE
  5
1B8
330
1F
100
AcDbEntity
  8
0
100
AcDbLine
 10
866.605425857
 20
188.3540213056
 30
0.0
 11
866.605425857
 21
116.3540213056
 31
0.0
  0
LINE
  5
1B9
330
1F
100
AcDbEntity
  8
0
100
AcDbLine
 10
865.205425857
 20
116.3540213056
 30
0.0
 11
865.205425857
 21
188.3540213056
 31
0.0
  0
LINE
  5
1BA
330
1F
100
AcDbEntity
  8
0
100
AcDbLine
 10
866.605425857
 20
194.3540213056
 30
0.0
 11
866.605425857
 21
188.3540213056
 31
0.0
  0
LINE
  5
1BB
330
1F
100
AcDbEntity
  8
0
100
AcDbLine
 10
865.205425857
 20
188.3540213056
 30
0.0
 11
865.205425857
 21
192.9540213056
 31
0.0
  0
LINE
  5
1BC
330
1F
100
AcDbEntity
  8
0
100
AcDbLine
 10
866.605425857
 20
194.3540213056
 30
0.0
 11
865.205425857
 21
192.9540213056
 31
0.0
  0
LINE
  5
1BD
330
1F
100
AcDbEntity
  8
0
100
AcDbLine
 10
867.705425857
 20
116.3540213056
 30
0.0
 11
867.705425857
 21
188.3540213056
 31
0.0
  0
LINE
  5
1BE
330
1F
100
AcDbEntity
  8
0
100
AcDbLine
 10
867.705425857
 20
194.3540213056
 30
0.0
 11
867.705425857
 21
188.3540213056
 31
0.0
  0
LINE
  5
1BF
330
1F
100
AcDbEntity
  8
0
100
AcDbLine
 10
866.605425857
 20
194.3540213056
 30
0.0
 11
867.705425857
 21
194.3540213056
 31
0.0
  0
LINE
  5
1C0
330
1F
100
AcDbEntity
  8
0
100
AcDbLine
 10
866.605425857
 20
116.3540213056
 30
0.0
 11
866.605425857
 21
110.3540213056
 31
0.0
  0
LINE
  5
1C1
330
1F
100
AcDbEntity
  8
0
100
AcDbLine
 10
866.605425857
 20
110.3540213056
 30
0.0
 11
865.205425857
 21
111.7540213056
 31
0.0
  0
LINE
  5
1C2
330
1F
100
AcDbEntity
  8
0
100
AcDbLine
 10
865.205425857
 20
111.7540213056
 30
0.0
 11
865.205425857
 21
116.3540213056
 31
0.0
  0
LINE
  5
1C3
330
1F
100
AcDbEntity
  8
0
100
AcDbLine
 10
867.705425857
 20
110.3540213056
 30
0.0
 11
866.605425857
 21
110.3540213056
 31
0.0
  0
LINE
  5
1C4
330
1F
100
AcDbEntity
  8
0
100
AcDbLine
 10
867.705425857
 20
116.3540213056
 30
0.0
 11
867.705425857
 21
110.3540213056
 31
0.0
  0
LINE
  5
1C5
330
1F
100
AcDbEntity
  8
0
100
AcDbLine
 10
825.705425857
 20
192.3540213056
 30
0.0
 11
865.205425857
 21
192.3540213056
 31
0.0
  0
LINE
  5
1C6
330
1F
100
AcDbEntity
  8
0
100
AcDbLine
 10
825.705425857
 20
186.3540213056
 30
0.0
 11
825.705425857
 21
192.3540213056
 31
0.0
  0
LINE
  5
1C7
330
1F
100
AcDbEntity
  8
0
100
AcDbLine
 10
825.705425857
 20
186.3540213056
 30
0.0
 11
825.705425857
 21
118.3540213056
 31
0.0
  0
LINE
  5
1C8
330
1F
100
AcDbEntity
  8
0
100
AcDbLine
 10
867.705425857
 20
192.3540213056
 30
0.0
 11
870.705425857
 21
192.3540213056
 31
0.0
  0
LINE
  5
1C9
330
1F
100
AcDbEntity
  8
0
100
AcDbLine
 10
870.705425857
 20
192.3540213056
 30
0.0
 11
870.705425857
 21
186.3540213056
 31
0.0
  0
LINE
  5
1CA
330
1F
100
AcDbEntity
  8
0
100
AcDbLine
 10
870.705425857
 20
186.3540213056
 30
0.0
 11
870.705425857
 21
118.3540213056
 31
0.0
  0
LINE
  5
1CB
330
1F
100
AcDbEntity
  8
0
100
AcDbLine
 10
865.205425857
 20
112.3540213056
 30
0.0
 11
825.705425857
 21
112.3540213056
 31
0.0
  0
LINE
  5
1CC
330
1F
100
AcDbEntity
  8
0
100
AcDbLine
 10
825.705425857
 20
112.3540213056
 30
0.0
 11
825.705425857
 21
118.3540213056
 31
0.0
  0
LINE
  5
1CD
330
1F
100
AcDbEntity
  8
0
100
AcDbLine
 10
870.705425857
 20
112.3540213056
 30
0.0
 11
867.705425857
 21
112.3540213056
 31
0.0
  0
LINE
  5
1CE
330
1F
100
AcDbEntity
  8
0
100
AcDbLine
 10
870.705425857
 20
118.3540213056
 30
0.0
 11
870.705425857
 21
112.3540213056
 31
0.0
  0
LINE
  5
1CF
330
1F
100
AcDbEntity
  8
0
100
AcDbLine
 10
841.705425857
 20
194.8540213056
 30
0.0
 11
854.205425857
 21
194.8540213056
 31
0.0
  0
LINE
  5
1D0
330
1F
100
AcDbEntity
  8
0
100
AcDbLine
 10
829.205425857
 20
194.8540213056
 30
0.0
 11
841.705425857
 21
194.8540213056
 31
0.0
  0
LINE
  5
1D1
330
1F
100
AcDbEntity
  8
0
100
AcDbLine
 10
841.705425857
 20
109.8540213056
 30
0.0
 11
854.205425857
 21
109.8540213056
 31
0.0
  0
LINE
  5
1D2
330
1F
100
AcDbEntity
  8
0
100
AcDbLine
 10
829.205425857
 20
109.8540213056
 30
0.0
 11
841.705425857
 21
109.8540213056
 31
0.0
  0
LINE
  5
1D3
330
1F
100
AcDbEntity
  8
0
100
AcDbLine
 10
841.705425857
 20
197.3540213056
 30
0.0
 11
852.205425857
 21
197.3540213056
 31
0.0
  0
LINE
  5
1D4
330
1F
100
AcDbEntity
  8
0
100
AcDbLine
 10
831.205425857
 20
197.3540213056
 30
0.0
 11
841.705425857
 21
197.3540213056
 31
0.0
  0
LINE
  5
1D5
330
1F
100
AcDbEntity
  8
0
100
AcDbLine
 10
841.705425857
 20
107.3540213056
 30
0.0
 11
852.205425857
 21
107.3540213056
 31
0.0
  0
LINE
  5
1D6
330
1F
100
AcDbEntity
  8
0
100
AcDbLine
 10
831.205425857
 20
107.3540213056
 30
0.0
 11
841.705425857
 21
107.3540213056
 31
0.0
  0
LINE
  5
1D7
330
1F
100
AcDbEntity
  8
0
100
AcDbLine
 10
841.705425857
 20
199.8540213056
 30
0.0
 11
849.705425857
 21
199.8540213056
 31
0.0
  0
LINE
  5
1D8
330
1F
100
AcDbEntity
  8
0
100
AcDbLine
 10
833.705425857
 20
199.8540213056
 30
0.0
 11
841.705425857
 21
199.8540213056
 31
0.0
  0
LINE
  5
1D9
330
1F
100
AcDbEntity
  8
0
100
AcDbLine
 10
841.705425857
 20
104.8540213056
 30
0.0
 11
849.705425857
 21
104.8540213056
 31
0.0
  0
LINE
  5
1DA
330
1F
100
AcDbEntity
  8
0
100
AcDbLine
 10
833.705425857
 20
104.8540213056
 30
0.0
 11
841.705425857
 21
104.8540213056
 31
0.0
  0
LINE
  5
1DB
330
1F
100
AcDbEntity
  8
0
100
AcDbLine
 10
841.705425857
 20
202.3540213056
 30
0.0
 11
846.705425857
 21
202.3540213056
 31
0.0
  0
LINE
  5
1DC
330
1F
100
AcDbEntity
  8
0
100
AcDbLine
 10
836.705425857
 20
202.3540213056
 30
0.0
 11
841.705425857
 21
202.3540213056
 31
0.0
  0
LINE
  5
1DD
330
1F
100
AcDbEntity
  8
0
100
AcDbLine
 10
841.705425857
 20
102.3540213056
 30
0.0
 11
846.705425857
 21
102.3540213056
 31
0.0
  0
LINE
  5
1DE
330
1F
100
AcDbEntity
  8
0
100
AcDbLine
 10
836.705425857
 20
102.3540213056
 30
0.0
 11
841.705425857
 21
102.3540213056
 31
0.0
  0
LINE
  5
1DF
330
1F
100
AcDbEntity
  8
0
100
AcDbLine
 10
483.305425857
 20
133.8175707284
 30
0.0
 11
483.305425857
 21
127.0540213056
 31
0.0
  0
LINE
  5
1E0
330
1F
100
AcDbEntity
  8
0
100
AcDbLine
 10
482.305425857
 20
137.6540213056
 30
0.0
 11
482.305425857
 21
127.0540213056
 31
0.0
  0
LINE
  5
1E1
330
1F
100
AcDbEntity
  8
0
100
AcDbLine
 10
481.4381728164
 20
131.3540213056
 30
0.0
 11
481.6662483358
 21
130.3919452763
 31
0.0
  0
SPLINE
  5
1E2
330
1F
100
AcDbEntity
  8
0
100
AcDbSpline
210
0.0
220
0.0
230
1.0
 70
     8
 71
     3
 72
    12
 73
     8
 74
     0
 42
0.000000001
 43
0.00000001
 40
0.0
 40
0.0
 40
0.0
 40
0.0
 40
0.2174770912066959
 40
0.4353705208258347
 40
0.6490388720033518
 40
0.8610609605882166
 40
0.9999999999999999
 40
0.9999999999999999
 40
0.9999999999999999
 40
0.9999999999999999
 10
481.4381728164142
 20
131.8679735732599
 30
0.0
 10
481.4291952508036
 20
131.8613649348884
 30
0.0
 10
481.4112229329196
 20
131.8481350065598
 30
0.0
 10
481.3995543041403
 20
131.7572470186035
 30
0.0
 10
481.4025384515269
 20
131.6259091632544
 30
0.0
 10
481.4173473633868
 20
131.4836844990846
 30
0.0
 10
481.4322665754474
 20
131.3907946744423
 30
0.0
 10
481.4381728164159
 20
131.3540213056063
 30
0.0
  0
LINE
  5
1E3
330
1F
100
AcDbEntity
  8
0
100
AcDbLine
 10
481.6662483358
 20
131.8919452763
 30
0.0
 11
481.4381728164
 21
131.8679735733
 31
0.0
  0
LINE
  5
1E4
330
1F
100
AcDbEntity
  8
0
100
AcDbLine
 10
481.6662483358
 20
132.8160973349
 30
0.0
 11
481.6662483358
 21
131.8919452763
 31
0.0
  0
LINE
  5
1E5
330
1F
100
AcDbEntity
  8
0
100
AcDbLine
 10
481.4381728164
 20
132.840069038
 30
0.0
 11
481.6662483358
 21
132.8160973349
 31
0.0
  0
SPLINE
  5
1E6
330
1F
100
AcDbEntity
  8
0
100
AcDbSpline
210
0.0
220
0.0
230
1.0
 70
     8
 71
     3
 72
    12
 73
     8
 74
     0
 42
0.000000001
 43
0.00000001
 40
0.0
 40
0.0
 40
0.0
 40
0.0
 40
0.2174770912063657
 40
0.4353705208256897
 40
0.6490388720029245
 40
0.8610609605877977
 40
1.0
 40
1.0
 40
1.0
 40
1.0
 10
481.4381728164143
 20
133.3540213056062
 30
0.0
 10
481.4291952508035
 20
133.2962486654463
 30
0.0
 10
481.4112229329191
 20
133.1805927851125
 30
0.0
 10
481.3995543041408
 20
133.02648792206
 30
0.0
 10
481.4025384515269
 20
132.9112356004004
 30
0.0
 10
481.4173473633865
 20
132.8505240555066
 30
0.0
 10
481.4322665754477
 20
132.8430341524649
 30
0.0
 10
481.4381728164163
 20
132.8400690379525
 30
0.0
  0
LINE
  5
1E7
330
1F
100
AcDbEntity
  8
0
100
AcDbLine
 10
481.6662483358
 20
134.3160973349
 30
0.0
 11
481.4381728164
 21
133.3540213056
 31
0.0
  0
LINE
  5
1E8
330
1F
100
AcDbEntity
  8
0
100
AcDbLine
 10
483.305425857
 20
177.6540213056
 30
0.0
 11
483.305425857
 21
170.8904718828
 31
0.0
  0
LINE
  5
1E9
330
1F
100
AcDbEntity
  8
0
100
AcDbLine
 10
482.305425857
 20
177.6540213056
 30
0.0
 11
482.305425857
 21
167.0540213056
 31
0.0
  0
LINE
  5
1EA
330
1F
100
AcDbEntity
  8
0
100
AcDbLine
 10
481.4381728164
 20
171.3540213056
 30
0.0
 11
481.6662483358
 21
170.3919452763
 31
0.0
  0
SPLINE
  5
1EB
330
1F
100
AcDbEntity
  8
0
100
AcDbSpline
210
0.0
220
0.0
230
1.0
 70
     8
 71
     3
 72
    12
 73
     8
 74
     0
 42
0.000000001
 43
0.00000001
 40
0.0
 40
0.0
 40
0.0
 40
0.0
 40
0.2174770912066959
 40
0.4353705208258347
 40
0.6490388720033518
 40
0.8610609605882166
 40
0.9999999999999999
 40
0.9999999999999999
 40
0.9999999999999999
 40
0.9999999999999999
 10
481.4381728164142
 20
171.8679735732599
 30
0.0
 10
481.4291952508036
 20
171.8613649348884
 30
0.0
 10
481.4112229329196
 20
171.8481350065598
 30
0.0
 10
481.3995543041403
 20
171.7572470186035
 30
0.0
 10
481.4025384515269
 20
171.6259091632544
 30
0.0
 10
481.4173473633868
 20
171.4836844990847
 30
0.0
 10
481.4322665754474
 20
171.3907946744423
 30
0.0
 10
481.4381728164159
 20
171.3540213056063
 30
0.0
  0
LINE
  5
1EC
330
1F
100
AcDbEntity
  8
0
100
AcDbLine
 10
481.6662483358
 20
171.8919452763
 30
0.0
 11
481.4381728164
 21
171.8679735733
 31
0.0
  0
LINE
  5
1ED
330
1F
100
AcDbEntity
  8
0
100
AcDbLine
 10
481.6662483358
 20
172.8160973349
 30
0.0
 11
481.6662483358
 21
171.8919452763
 31
0.0
  0
LINE
  5
1EE
330
1F
100
AcDbEntity
  8
0
100
AcDbLine
 10
481.4381728164
 20
172.840069038
 30
0.0
 11
481.6662483358
 21
172.8160973349
 31
0.0
  0
SPLINE
  5
1EF
330
1F
100
AcDbEntity
  8
0
100
AcDbSpline
210
0.0
220
0.0
230
1.0
 70
     8
 71
     3
 72
    12
 73
     8
 74
     0
 42
0.000000001
 43
0.00000001
 40
0.0
 40
0.0
 40
0.0
 40
0.0
 40
0.2174770912063657
 40
0.4353705208256897
 40
0.6490388720029245
 40
0.8610609605877977
 40
1.0
 40
1.0
 40
1.0
 40
1.0
 10
481.4381728164143
 20
173.3540213056063
 30
0.0
 10
481.4291952508035
 20
173.2962486654463
 30
0.0
 10
481.4112229329191
 20
173.1805927851125
 30
0.0
 10
481.3995543041408
 20
173.02648792206
 30
0.0
 10
481.4025384515269
 20
172.9112356004004
 30
0.0
 10
481.4173473633865
 20
172.8505240555066
 30
0.0
 10
481.4322665754477
 20
172.8430341524649
 30
0.0
 10
481.4381728164163
 20
172.8400690379525
 30
0.0
  0
LINE
  5
1F0
330
1F
100
AcDbEntity
  8
0
100
AcDbLine
 10
481.6662483358
 20
174.3160973349
 30
0.0
 11
481.4381728164
 21
173.3540213056
 31
0.0
  0
LINE
  5
1F7
330
1F
100
AcDbEntity
  8
0
  6
PHANTOM
 62
     8
370
    18
100
AcDbLine
 10
866.605425857
 20
116.3540213056
 30
0.0
 11
865.205425857
 21
116.3540213056
 31
0.0
  0
LINE
  5
1F8
330
1F
100
AcDbEntity
  8
0
  6
PHANTOM
 62
     8
370
    18
100
AcDbLine
 10
866.605425857
 20
188.3540213056
 30
0.0
 11
865.205425857
 21
188.3540213056
 31
0.0
  0
LINE
  5
1F9
330
1F
100
AcDbEntity
  8
0
  6
PHANTOM
 62
     8
370
    18
100
AcDbLine
 10
866.605425857
 20
116.3540213056
 30
0.0
 11
867.705425857
 21
116.3540213056
 31
0.0
  0
LINE
  5
1FA
330
1F
100
AcDbEntity
  8
0
  6
PHANTOM
 62
     8
370
    18
100
AcDbLine
 10
867.705425857
 20
188.3540213056
 30
0.0
 11
866.605425857
 21
188.3540213056
 31
0.0
  0
LINE
  5
1FB
330
1F
100
AcDbEntity
  8
0
  6
PHANTOM
 62
     8
370
    18
100
AcDbLine
 10
865.205425857
 20
186.3540213056
 30
0.0
 11
825.705425857
 21
186.3540213056
 31
0.0
  0
LINE
  5
1FC
330
1F
100
AcDbEntity
  8
0
  6
PHANTOM
 62
     8
370
    18
100
AcDbLine
 10
825.705425857
 20
118.3540213056
 30
0.0
 11
865.205425857
 21
118.3540213056
 31
0.0
  0
LINE
  5
1FD
330
1F
100
AcDbEntity
  8
0
  6
PHANTOM
 62
     8
370
    18
100
AcDbLine
 10
870.705425857
 20
186.3540213056
 30
0.0
 11
867.705425857
 21
186.3540213056
 31
0.0
  0
LINE
  5
1FE
330
1F
100
AcDbEntity
  8
0
  6
PHANTOM
 62
     8
370
    18
100
AcDbLine
 10
867.705425857
 20
118.3540213056
 30
0.0
 11
870.705425857
 21
118.3540213056
 31
0.0
  0
LINE
  5
1FF
330
1F
100
AcDbEntity
  8
0
  6
PHANTOM
 62
     8
370
    18
100
AcDbLine
 10
483.105425857
 20
135.7696913523
 30
0.0
 11
483.105425857
 21
126.8540213056
 31
0.0
  0
LINE
  5
200
330
1F
100
AcDbEntity
  8
0
  6
PHANTOM
 62
     8
370
    18
100
AcDbLine
 10
482.505425857
 20
137.8540213056
 30
0.0
 11
482.505425857
 21
126.8540213056
 31
0.0
  0
LINE
  5
201
330
1F
100
AcDbEntity
  8
0
  6
PHANTOM
 62
     8
370
    18
100
AcDbLine
 10
483.105425857
 20
177.8540213056
 30
0.0
 11
483.105425857
 21
168.9383512589
 31
0.0
  0
LINE
  5
202
330
1F
100
AcDbEntity
  8
0
  6
PHANTOM
 62
     8
370
    18
100
AcDbLine
 10
482.505425857
 20
177.8540213056
 30
0.0
 11
482.505425857
 21
166.8540213056
 31
0.0
  0
LINE
  5
203
330
1F
100
AcDbEntity
  8
0
100
AcDbLine
 10
-385.4697327975
 20
112.3540213056
 30
0.0
 11
-385.4697327975
 21
109.8540213056
 31
0.0
  0
LINE
  5
204
330
1F
100
AcDbEntity
  8
0
100
AcDbLine
 10
-360.4697327975
 20
109.8540213056
 30
0.0
 11
-360.4697327975
 21
112.3540213056
 31
0.0
  0
LINE
  5
205
330
1F
100
AcDbEntity
  8
0
100
AcDbLine
 10
-360.4697327975
 20
192.3540213056
 30
0.0
 11
-360.4697327975
 21
194.8540213056
 31
0.0
  0
LINE
  5
206
330
1F
100
AcDbEntity
  8
0
100
AcDbLine
 10
-385.4697327975
 20
194.8540213056
 30
0.0
 11
-385.4697327975
 21
192.3540213056
 31
0.0
  0
LINE
  5
207
330
1F
100
AcDbEntity
  8
0
100
AcDbLine
 10
-383.4697327975
 20
109.8540213056
 30
0.0
 11
-383.4697327975
 21
107.3540213056
 31
0.0
  0
LINE
  5
208
330
1F
100
AcDbEntity
  8
0
100
AcDbLine
 10
-362.4697327975
 20
107.3540213056
 30
0.0
 11
-362.4697327975
 21
109.8540213056
 31
0.0
  0
LINE
  5
209
330
1F
100
AcDbEntity
  8
0
100
AcDbLine
 10
-362.4697327975
 20
194.8540213056
 30
0.0
 11
-362.4697327975
 21
197.3540213056
 31
0.0
  0
LINE
  5
20A
330
1F
100
AcDbEntity
  8
0
100
AcDbLine
 10
-383.4697327975
 20
197.3540213056
 30
0.0
 11
-383.4697327975
 21
194.8540213056
 31
0.0
  0
LINE
  5
20B
330
1F
100
AcDbEntity
  8
0
100
AcDbLine
 10
-380.9697327975
 20
107.3540213056
 30
0.0
 11
-380.9697327975
 21
104.8540213056
 31
0.0
  0
LINE
  5
20C
330
1F
100
AcDbEntity
  8
0
100
AcDbLine
 10
-364.9697327975
 20
104.8540213056
 30
0.0
 11
-364.9697327975
 21
107.3540213056
 31
0.0
  0
LINE
  5
20D
330
1F
100
AcDbEntity
  8
0
100
AcDbLine
 10
-364.9697327975
 20
197.3540213056
 30
0.0
 11
-364.9697327975
 21
199.8540213056
 31
0.0
  0
LINE
  5
20E
330
1F
100
AcDbEntity
  8
0
100
AcDbLine
 10
-380.9697327975
 20
199.8540213056
 30
0.0
 11
-380.9697327975
 21
197.3540213056
 31
0.0
  0
LINE
  5
20F
330
1F
100
AcDbEntity
  8
0
100
AcDbLine
 10
-377.9697327975
 20
104.8540213056
 30
0.0
 11
-377.9697327975
 21
102.3540213056
 31
0.0
  0
LINE
  5
210
330
1F
100
AcDbEntity
  8
0
100
AcDbLine
 10
-367.9697327975
 20
102.3540213056
 30
0.0
 11
-367.9697327975
 21
104.8540213056
 31
0.0
  0
LINE
  5
211
330
1F
100
AcDbEntity
  8
0
100
AcDbLine
 10
-367.9697327975
 20
199.8540213056
 30
0.0
 11
-367.9697327975
 21
202.3540213056
 31
0.0
  0
LINE
  5
212
330
1F
100
AcDbEntity
  8
0
100
AcDbLine
 10
-377.9697327975
 20
202.3540213056
 30
0.0
 11
-377.9697327975
 21
199.8540213056
 31
0.0
  0
LINE
  5
213
330
1F
100
AcDbEntity
  8
0
100
AcDbLine
 10
-14.3697327975
 20
126.8540213056
 30
0.0
 11
-13.7697327975
 21
126.8540213056
 31
0.0
  0
LINE
  5
214
330
1F
100
AcDbEntity
  8
0
100
AcDbLine
 10
-13.7697327975
 20
137.8540213056
 30
0.0
 11
-14.1809445788
 21
137.8540213056
 31
0.0
  0
ARC
  5
215
330
1F
100
AcDbEntity
  8
0
100
AcDbCircle
 10
-13.7697327975
 20
127.0540213056
 30
0.0
 40
0.2000000000000064
100
AcDbArc
 50
270.0
 51
0.0000000001
  0
ARC
  5
216
330
1F
100
AcDbEntity
  8
0
100
AcDbCircle
 10
-13.7697327975
 20
137.6540213056
 30
0.0
 40
0.2000000000000171
100
AcDbArc
 50
359.9999999999
 51
90.0
  0
ARC
  5
217
330
1F
100
AcDbEntity
  8
0
100
AcDbCircle
 10
-14.3697327975
 20
127.0540213056
 30
0.0
 40
0.2000000000000064
100
AcDbArc
 50
179.9999999999
 51
270.0
  0
ARC
  5
218
330
1F
100
AcDbEntity
  8
0
100
AcDbCircle
 10
-20.5602141786
 20
131.9638837681
 30
0.0
 40
7.999999999999996
100
AcDbArc
 50
17.1467397277
 51
29.0955287963
  0
ARC
  5
219
330
1F
100
AcDbEntity
  8
0
100
AcDbCircle
 10
-20.5602141786
 20
132.7441588431
 30
0.0
 40
7.999999999999981
100
AcDbArc
 50
330.9044712037
 51
342.8515803462001
  0
LINE
  5
21A
330
1F
100
AcDbEntity
  8
0
100
AcDbLine
 10
-14.9929350747
 20
130.2540213056
 30
0.0
 11
-14.5697327975
 21
130.2540213056
 31
0.0
  0
ARC
  5
21B
330
1F
100
AcDbEntity
  8
0
100
AcDbCircle
 10
-13.7697327975
 20
167.0540213056
 30
0.0
 40
0.2000000000000064
100
AcDbArc
 50
270.0
 51
0.0000000001
  0
ARC
  5
21C
330
1F
100
AcDbEntity
  8
0
100
AcDbCircle
 10
-13.7697327975
 20
177.6540213056
 30
0.0
 40
0.2000000000000171
100
AcDbArc
 50
359.9999999999
 51
90.0
  0
LINE
  5
21D
330
1F
100
AcDbEntity
  8
0
100
AcDbLine
 10
-14.1809445788
 20
166.8540213056
 30
0.0
 11
-13.7697327975
 21
166.8540213056
 31
0.0
  0
LINE
  5
21E
330
1F
100
AcDbEntity
  8
0
100
AcDbLine
 10
-13.7697327975
 20
177.8540213056
 30
0.0
 11
-14.3697327975
 21
177.8540213056
 31
0.0
  0
ARC
  5
21F
330
1F
100
AcDbEntity
  8
0
100
AcDbCircle
 10
-14.3697327975
 20
177.6540213056
 30
0.0
 40
0.2000000000000064
100
AcDbArc
 50
90.0
 51
180.0000000001
  0
ARC
  5
220
330
1F
100
AcDbEntity
  8
0
100
AcDbCircle
 10
-20.5602141786
 20
171.9638837681
 30
0.0
 40
7.999999999999996
100
AcDbArc
 50
17.1467397277
 51
29.0955287963
  0
ARC
  5
221
330
1F
100
AcDbEntity
  8
0
100
AcDbCircle
 10
-20.5602141786
 20
172.7441588431
 30
0.0
 40
7.999999999999981
100
AcDbArc
 50
330.9044712037
 51
342.8515803462001
  0
LINE
  5
222
330
1F
100
AcDbEntity
  8
0
100
AcDbLine
 10
-14.5697327975
 20
174.4540213056
 30
0.0
 11
-14.9929350747
 21
174.4540213056
 31
0.0
  0
LINE
  5
223
330
1F
100
AcDbEntity
  8
0
100
AcDbLine
 10
-356.9697327975
 20
130.2540213056
 30
0.0
 11
-356.7465305203
 21
130.2540213056
 31
0.0
  0
LINE
  5
224
330
1F
100
AcDbEntity
  8
0
100
AcDbLine
 10
-356.7465305203
 20
174.4540213056
 30
0.0
 11
-356.9697327975
 21
174.4540213056
 31
0.0
  0
CIRCLE
  5
227
330
1F
100
AcDbEntity
  8
0
100
AcDbCircle
 10
-185.8697327975
 20
152.3540213056
 30
0.0
 40
99.50000000000001
  0
ARC
  5
22A
330
1F
100
AcDbEntity
  8
0
100
AcDbCircle
 10
-185.8697327975
 20
152.3540213056
 30
0.0
 40
172.2999999999915
100
AcDbArc
 50
186.7660934873
 51
270.0
  0
ARC
  5
22B
330
1F
100
AcDbEntity
  8
0
100
AcDbCircle
 10
-185.8697327975
 20
152.3540213056
 30
0.0
 40
172.2999999999915
100
AcDbArc
 50
270.0
 51
173.2339065127
  0
CIRCLE
  5
22C
330
1F
100
AcDbEntity
  8
0
100
AcDbCircle
 10
-372.9697327975
 20
132.3540213056
 30
0.0
 40
5.000000000000028
  0
CIRCLE
  5
22D
330
1F
100
AcDbEntity
  8
0
100
AcDbCircle
 10
-372.9697327975
 20
172.3540213056
 30
0.0
 40
5.0
  0
CIRCLE
  5
22E
330
1F
100
AcDbEntity
  8
0
100
AcDbCircle
 10
-372.9697327975
 20
132.3540213056
 30
0.0
 40
8.000000000000028
  0
CIRCLE
  5
22F
330
1F
100
AcDbEntity
  8
0
100
AcDbCircle
 10
-372.9697327975
 20
172.3540213056
 30
0.0
 40
8.0
  0
CIRCLE
  5
230
330
1F
100
AcDbEntity
  8
0
100
AcDbCircle
 10
-372.9697327975
 20
132.3540213056
 30
0.0
 40
10.5
  0
CIRCLE
  5
231
330
1F
100
AcDbEntity
  8
0
100
AcDbCircle
 10
-372.9697327975
 20
172.3540213056
 30
0.0
 40
10.5
  0
CIRCLE
  5
232
330
1F
100
AcDbEntity
  8
0
100
AcDbCircle
 10
-372.9697327975
 20
132.3540213056
 30
0.0
 40
12.5
  0
CIRCLE
  5
233
330
1F
100
AcDbEntity
  8
0
100
AcDbCircle
 10
-372.9697327975
 20
172.3540213056
 30
0.0
 40
12.5
  0
LINE
  5
234
330
1F
100
AcDbEntity
  8
0
100
AcDbLine
 10
-396.4697327975
 20
116.3540213056
 30
0.0
 11
-396.4697327975
 21
111.7540213056
 31
0.0
  0
LINE
  5
235
330
1F
100
AcDbEntity
  8
0
100
AcDbLine
 10
-396.4697327975
 20
111.7540213056
 30
0.0
 11
-397.8697327975
 21
110.3540213056
 31
0.0
  0
LINE
  5
236
330
1F
100
AcDbEntity
  8
0
100
AcDbLine
 10
-397.8697327975
 20
110.3540213056
 30
0.0
 11
-397.8697327975
 21
116.3540213056
 31
0.0
  0
LINE
  5
237
330
1F
100
AcDbEntity
  8
0
100
AcDbLine
 10
-398.9697327975
 20
110.3540213056
 30
0.0
 11
-398.9697327975
 21
116.3540213056
 31
0.0
  0
LINE
  5
238
330
1F
100
AcDbEntity
  8
0
100
AcDbLine
 10
-397.8697327975
 20
110.3540213056
 30
0.0
 11
-398.9697327975
 21
110.3540213056
 31
0.0
  0
LINE
  5
239
330
1F
100
AcDbEntity
  8
0
100
AcDbLine
 10
-397.8697327975
 20
116.3540213056
 30
0.0
 11
-397.8697327975
 21
188.3540213056
 31
0.0
  0
LINE
  5
23A
330
1F
100
AcDbEntity
  8
0
100
AcDbLine
 10
-398.9697327975
 20
188.3540213056
 30
0.0
 11
-398.9697327975
 21
116.3540213056
 31
0.0
  0
LINE
  5
23B
330
1F
100
AcDbEntity
  8
0
100
AcDbLine
 10
-396.4697327975
 20
188.3540213056
 30
0.0
 11
-396.4697327975
 21
116.3540213056
 31
0.0
  0
LINE
  5
23C
330
1F
100
AcDbEntity
  8
0
100
AcDbLine
 10
-398.9697327975
 20
194.3540213056
 30
0.0
 11
-397.8697327975
 21
194.3540213056
 31
0.0
  0
LINE
  5
23D
330
1F
100
AcDbEntity
  8
0
100
AcDbLine
 10
-397.8697327975
 20
188.3540213056
 30
0.0
 11
-397.8697327975
 21
194.3540213056
 31
0.0
  0
LINE
  5
23E
330
1F
100
AcDbEntity
  8
0
100
AcDbLine
 10
-398.9697327975
 20
188.3540213056
 30
0.0
 11
-398.9697327975
 21
194.3540213056
 31
0.0
  0
LINE
  5
23F
330
1F
100
AcDbEntity
  8
0
100
AcDbLine
 10
-396.4697327975
 20
192.9540213056
 30
0.0
 11
-396.4697327975
 21
188.3540213056
 31
0.0
  0
LINE
  5
240
330
1F
100
AcDbEntity
  8
0
100
AcDbLine
 10
-396.4697327975
 20
192.9540213056
 30
0.0
 11
-397.8697327975
 21
194.3540213056
 31
0.0
  0
LINE
  5
241
330
1F
100
AcDbEntity
  8
0
100
AcDbLine
 10
-356.9697327975
 20
118.3540213056
 30
0.0
 11
-356.9697327975
 21
112.3540213056
 31
0.0
  0
LINE
  5
242
330
1F
100
AcDbEntity
  8
0
100
AcDbLine
 10
-356.9697327975
 20
112.3540213056
 30
0.0
 11
-396.4697327975
 21
112.3540213056
 31
0.0
  0
LINE
  5
243
330
1F
100
AcDbEntity
  8
0
100
AcDbLine
 10
-356.9697327975
 20
118.3540213056
 30
0.0
 11
-356.9697327975
 21
186.3540213056
 31
0.0
  0
LINE
  5
244
330
1F
100
AcDbEntity
  8
0
100
AcDbLine
 10
-398.9697327975
 20
112.3540213056
 30
0.0
 11
-401.9697327975
 21
112.3540213056
 31
0.0
  0
LINE
  5
245
330
1F
100
AcDbEntity
  8
0
100
AcDbLine
 10
-401.9697327975
 20
112.3540213056
 30
0.0
 11
-401.9697327975
 21
118.3540213056
 31
0.0
  0
LINE
  5
246
330
1F
100
AcDbEntity
  8
0
100
AcDbLine
 10
-401.9697327975
 20
118.3540213056
 30
0.0
 11
-401.9697327975
 21
186.3540213056
 31
0.0
  0
LINE
  5
247
330
1F
100
AcDbEntity
  8
0
100
AcDbLine
 10
-396.4697327975
 20
192.3540213056
 30
0.0
 11
-356.9697327975
 21
192.3540213056
 31
0.0
  0
LINE
  5
248
330
1F
100
AcDbEntity
  8
0
100
AcDbLine
 10
-356.9697327975
 20
192.3540213056
 30
0.0
 11
-356.9697327975
 21
186.3540213056
 31
0.0
  0
LINE
  5
249
330
1F
100
AcDbEntity
  8
0
100
AcDbLine
 10
-401.9697327975
 20
192.3540213056
 30
0.0
 11
-398.9697327975
 21
192.3540213056
 31
0.0
  0
LINE
  5
24A
330
1F
100
AcDbEntity
  8
0
100
AcDbLine
 10
-401.9697327975
 20
186.3540213056
 30
0.0
 11
-401.9697327975
 21
192.3540213056
 31
0.0
  0
LINE
  5
24B
330
1F
100
AcDbEntity
  8
0
100
AcDbLine
 10
-385.4697327975
 20
109.8540213056
 30
0.0
 11
-360.4697327975
 21
109.8540213056
 31
0.0
  0
LINE
  5
24C
330
1F
100
AcDbEntity
  8
0
100
AcDbLine
 10
-385.4697327975
 20
194.8540213056
 30
0.0
 11
-360.4697327975
 21
194.8540213056
 31
0.0
  0
LINE
  5
24D
330
1F
100
AcDbEntity
  8
0
100
AcDbLine
 10
-383.4697327975
 20
107.3540213056
 30
0.0
 11
-362.4697327975
 21
107.3540213056
 31
0.0
  0
LINE
  5
24E
330
1F
100
AcDbEntity
  8
0
100
AcDbLine
 10
-383.4697327975
 20
197.3540213056
 30
0.0
 11
-362.4697327975
 21
197.3540213056
 31
0.0
  0
LINE
  5
24F
330
1F
100
AcDbEntity
  8
0
100
AcDbLine
 10
-380.9697327975
 20
104.8540213056
 30
0.0
 11
-364.9697327975
 21
104.8540213056
 31
0.0
  0
LINE
  5
250
330
1F
100
AcDbEntity
  8
0
100
AcDbLine
 10
-380.9697327975
 20
199.8540213056
 30
0.0
 11
-364.9697327975
 21
199.8540213056
 31
0.0
  0
LINE
  5
251
330
1F
100
AcDbEntity
  8
0
100
AcDbLine
 10
-377.9697327975
 20
102.3540213056
 30
0.0
 11
-367.9697327975
 21
102.3540213056
 31
0.0
  0
LINE
  5
252
330
1F
100
AcDbEntity
  8
0
100
AcDbLine
 10
-377.9697327975
 20
202.3540213056
 30
0.0
 11
-367.9697327975
 21
202.3540213056
 31
0.0
  0
LINE
  5
253
330
1F
100
AcDbEntity
  8
0
100
AcDbLine
 10
-13.5697327975
 20
127.054021944
 30
0.0
 11
-13.5697327975
 21
137.6540213056
 31
0.0
  0
LINE
  5
254
330
1F
100
AcDbEntity
  8
0
100
AcDbLine
 10
-14.5697327975
 20
127.054021944
 30
0.0
 11
-14.5697327975
 21
133.8175707284
 31
0.0
  0
LINE
  5
255
330
1F
100
AcDbEntity
  8
0
100
AcDbLine
 10
-12.9305552763
 20
132.8160973349
 30
0.0
 11
-12.7024797569
 21
132.840069038
 31
0.0
  0
LINE
  5
256
330
1F
100
AcDbEntity
  8
0
100
AcDbLine
 10
-12.9305552763
 20
131.8919452763
 30
0.0
 11
-12.9305552763
 21
132.8160973349
 31
0.0
  0
LINE
  5
257
330
1F
100
AcDbEntity
  8
0
100
AcDbLine
 10
-12.7024797569
 20
131.8679735733
 30
0.0
 11
-12.9305552763
 21
131.8919452763
 31
0.0
  0
SPLINE
  5
258
330
1F
100
AcDbEntity
  8
0
100
AcDbSpline
210
0.0
220
0.0
230
1.0
 70
     8
 71
     3
 72
    12
 73
     8
 74
     0
 42
0.000000001
 43
0.00000001
 40
0.0
 40
0.0
 40
0.0
 40
0.0
 40
0.2174770912064687
 40
0.4353705208254987
 40
0.6490388720030137
 40
0.8610609605880136
 40
1.0
 40
1.0
 40
1.0
 40
1.0
 10
-12.70247975689528
 20
131.3540213056062
 30
0.0
 10
-12.69350219128465
 20
131.4117939457662
 30
0.0
 10
-12.67552987340065
 20
131.5274498260999
 30
0.0
 10
-12.66386124462226
 20
131.6815546891525
 30
0.0
 10
-12.66684539200758
 20
131.796807010812
 30
0.0
 10
-12.68165430386775
 20
131.8575185557058
 30
0.0
 10
-12.69657351592879
 20
131.8650084587475
 30
0.0
 10
-12.70247975689734
 20
131.8679735732599
 30
0.0
  0
LINE
  5
259
330
1F
100
AcDbEntity
  8
0
100
AcDbLine
 10
-12.9305552763
 20
130.3919452763
 30
0.0
 11
-12.7024797569
 21
131.3540213056
 31
0.0
  0
LINE
  5
25A
330
1F
100
AcDbEntity
  8
0
100
AcDbLine
 10
-12.7024797569
 20
133.3540213056
 30
0.0
 11
-12.9305552763
 21
134.3160973349
 31
0.0
  0
SPLINE
  5
25B
330
1F
100
AcDbEntity
  8
0
100
AcDbSpline
210
0.0
220
0.0
230
1.0
 70
     8
 71
     3
 72
    12
 73
     8
 74
     0
 42
0.000000001
 43
0.00000001
 40
0.0
 40
0.0
 40
0.0
 40
0.0
 40
0.2174770912068871
 40
0.4353705208260334
 40
0.649038872003635
 40
0.8610609605884604
 40
1.0
 40
1.0
 40
1.0
 40
1.0
 10
-12.70247975689551
 20
132.8400690379527
 30
0.0
 10
-12.69350219128468
 20
132.8466776763242
 30
0.0
 10
-12.67552987340037
 20
132.8599076046528
 30
0.0
 10
-12.66386124462199
 20
132.9507955926088
 30
0.0
 10
-12.66684539200705
 20
133.082133447958
 30
0.0
 10
-12.6816543038693
 20
133.2243581121274
 30
0.0
 10
-12.69657351592776
 20
133.31724793677
 30
0.0
 10
-12.70247975689528
 20
133.3540213056061
 30
0.0
  0
LINE
  5
25C
330
1F
100
AcDbEntity
  8
0
100
AcDbLine
 10
-13.5697327975
 20
167.054021944
 30
0.0
 11
-13.5697327975
 21
177.6540213056
 31
0.0
  0
LINE
  5
25D
330
1F
100
AcDbEntity
  8
0
100
AcDbLine
 10
-14.5697327975
 20
170.8904718828
 30
0.0
 11
-14.5697327975
 21
177.6540213056
 31
0.0
  0
LINE
  5
25E
330
1F
100
AcDbEntity
  8
0
100
AcDbLine
 10
-12.9305552763
 20
172.8160973349
 30
0.0
 11
-12.7024797569
 21
172.840069038
 31
0.0
  0
LINE
  5
25F
330
1F
100
AcDbEntity
  8
0
100
AcDbLine
 10
-12.9305552763
 20
171.8919452763
 30
0.0
 11
-12.9305552763
 21
172.8160973349
 31
0.0
  0
LINE
  5
260
330
1F
100
AcDbEntity
  8
0
100
AcDbLine
 10
-12.7024797569
 20
171.8679735733
 30
0.0
 11
-12.9305552763
 21
171.8919452763
 31
0.0
  0
SPLINE
  5
261
330
1F
100
AcDbEntity
  8
0
100
AcDbSpline
210
0.0
220
0.0
230
1.0
 70
     8
 71
     3
 72
    12
 73
     8
 74
     0
 42
0.000000001
 43
0.00000001
 40
0.0
 40
0.0
 40
0.0
 40
0.0
 40
0.2174770912064687
 40
0.4353705208254987
 40
0.6490388720030137
 40
0.8610609605880136
 40
1.0
 40
1.0
 40
1.0
 40
1.0
 10
-12.70247975689528
 20
171.3540213056062
 30
0.0
 10
-12.69350219128465
 20
171.4117939457662
 30
0.0
 10
-12.67552987340065
 20
171.5274498260999
 30
0.0
 10
-12.66386124462226
 20
171.6815546891525
 30
0.0
 10
-12.66684539200758
 20
171.796807010812
 30
0.0
 10
-12.68165430386775
 20
171.8575185557058
 30
0.0
 10
-12.69657351592879
 20
171.8650084587475
 30
0.0
 10
-12.70247975689734
 20
171.8679735732599
 30
0.0
  0
LINE
  5
262
330
1F
100
AcDbEntity
  8
0
100
AcDbLine
 10
-12.9305552763
 20
170.3919452763
 30
0.0
 11
-12.7024797569
 21
171.3540213056
 31
0.0
  0
LINE
  5
263
330
1F
100
AcDbEntity
  8
0
100
AcDbLine
 10
-12.7024797569
 20
173.3540213056
 30
0.0
 11
-12.9305552763
 21
174.3160973349
 31
0.0
  0
SPLINE
  5
264
330
1F
100
AcDbEntity
  8
0
100
AcDbSpline
210
0.0
220
0.0
230
1.0
 70
     8
 71
     3
 72
    12
 73
     8
 74
     0
 42
0.000000001
 43
0.00000001
 40
0.0
 40
0.0
 40
0.0
 40
0.0
 40
0.2174770912068871
 40
0.4353705208260334
 40
0.649038872003635
 40
0.8610609605884604
 40
1.0
 40
1.0
 40
1.0
 40
1.0
 10
-12.70247975689551
 20
172.8400690379527
 30
0.0
 10
-12.69350219128468
 20
172.8466776763242
 30
0.0
 10
-12.67552987340037
 20
172.8599076046529
 30
0.0
 10
-12.66386124462199
 20
172.9507955926088
 30
0.0
 10
-12.66684539200705
 20
173.082133447958
 30
0.0
 10
-12.6816543038693
 20
173.2243581121274
 30
0.0
 10
-12.69657351592776
 20
173.31724793677
 30
0.0
 10
-12.70247975689528
 20
173.3540213056061
 30
0.0
  0
LINE
  5
26B
330
1F
100
AcDbEntity
  8
0
  6
PHANTOM
 62
     8
370
    18
100
AcDbLine
 10
-396.4697327975
 20
116.3540213056
 30
0.0
 11
-397.8697327975
 21
116.3540213056
 31
0.0
  0
LINE
  5
26C
330
1F
100
AcDbEntity
  8
0
  6
PHANTOM
 62
     8
370
    18
100
AcDbLine
 10
-398.9697327975
 20
116.3540213056
 30
0.0
 11
-397.8697327975
 21
116.3540213056
 31
0.0
  0
LINE
  5
26D
330
1F
100
AcDbEntity
  8
0
  6
PHANTOM
 62
     8
370
    18
100
AcDbLine
 10
-397.8697327975
 20
188.3540213056
 30
0.0
 11
-398.9697327975
 21
188.3540213056
 31
0.0
  0
LINE
  5
26E
330
1F
100
AcDbEntity
  8
0
  6
PHANTOM
 62
     8
370
    18
100
AcDbLine
 10
-396.4697327975
 20
188.3540213056
 30
0.0
 11
-397.8697327975
 21
188.3540213056
 31
0.0
  0
LINE
  5
26F
330
1F
100
AcDbEntity
  8
0
  6
PHANTOM
 62
     8
370
    18
100
AcDbLine
 10
-396.4697327975
 20
118.3540213056
 30
0.0
 11
-356.9697327975
 21
118.3540213056
 31
0.0
  0
LINE
  5
270
330
1F
100
AcDbEntity
  8
0
  6
PHANTOM
 62
     8
370
    18
100
AcDbLine
 10
-356.9697327975
 20
186.3540213056
 30
0.0
 11
-396.4697327975
 21
186.3540213056
 31
0.0
  0
LINE
  5
271
330
1F
100
AcDbEntity
  8
0
  6
PHANTOM
 62
     8
370
    18
100
AcDbLine
 10
-401.9697327975
 20
118.3540213056
 30
0.0
 11
-398.9697327975
 21
118.3540213056
 31
0.0
  0
LINE
  5
272
330
1F
100
AcDbEntity
  8
0
  6
PHANTOM
 62
     8
370
    18
100
AcDbLine
 10
-398.9697327975
 20
186.3540213056
 30
0.0
 11
-401.9697327975
 21
186.3540213056
 31
0.0
  0
LINE
  5
273
330
1F
100
AcDbEntity
  8
0
  6
PHANTOM
 62
     8
370
    18
100
AcDbLine
 10
-14.3697327975
 20
126.8540213056
 30
0.0
 11
-14.3697327975
 21
135.7696913523
 31
0.0
  0
LINE
  5
274
330
1F
100
AcDbEntity
  8
0
  6
PHANTOM
 62
     8
370
    18
100
AcDbLine
 10
-13.7697327975
 20
126.8540213056
 30
0.0
 11
-13.7697327975
 21
137.8540213056
 31
0.0
  0
LINE
  5
275
330
1F
100
AcDbEntity
  8
0
  6
PHANTOM
 62
     8
370
    18
100
AcDbLine
 10
-13.7697327975
 20
166.8540213056
 30
0.0
 11
-13.7697327975
 21
177.8540213056
 31
0.0
  0
LINE
  5
276
330
1F
100
AcDbEntity
  8
0
  6
PHANTOM
 62
     8
370
    18
100
AcDbLine
 10
-14.3697327975
 20
168.9383512589
 30
0.0
 11
-14.3697327975
 21
177.8540213056
 31
0.0
  0
LINE
  5
277
330
1F
100
AcDbEntity
  8
0
100
AcDbLine
 10
230.15562442
 20
-135.6577191114
 30
0.0
 11
205.1289255662
 21
-135.6577191114
 31
0.0
  0
ARC
  5
278
330
1F
100
AcDbEntity
  8
0
100
AcDbCircle
 10
205.1289255662
 20
-138.6577191114
 30
0.0
 40
3.0000000000027
100
AcDbArc
 50
90.0
 51
112.6159229627
  0
ARC
  5
279
330
1F
100
AcDbEntity
  8
0
100
AcDbCircle
 10
201.6679586873
 20
-130.3497886674
 30
0.0
 40
6.000000000000682
100
AcDbArc
 50
270.0
 51
292.6159229627
  0
ARC
  5
27A
330
1F
100
AcDbEntity
  8
0
100
AcDbCircle
 10
201.6679586873
 20
-483.1656495554
 30
0.0
 40
6.000000000000625
100
AcDbArc
 50
71.6875020176
 51
90.0
  0
LINE
  5
27B
330
1F
100
AcDbEntity
  8
0
100
AcDbLine
 10
201.6679586873
 20
-136.3497886674
 30
0.0
 11
187.0103153199
 21
-136.3497886674
 31
0.0
  0
LINE
  5
27C
330
1F
100
AcDbEntity
  8
0
100
AcDbLine
 10
187.0103153199
 20
-477.1656495554
 30
0.0
 11
201.6679586873
 21
-477.1656495554
 31
0.0
  0
ARC
  5
27D
330
1F
100
AcDbEntity
  8
0
100
AcDbCircle
 10
187.0103153199
 20
-161.3497886674
 30
0.0
 40
25.0000000000002
100
AcDbArc
 50
90.0
 51
168.391486942
  0
ARC
  5
27E
330
1F
100
AcDbEntity
  8
0
100
AcDbCircle
 10
187.0103153199
 20
-452.1656495554
 30
0.0
 40
25.00000000000023
100
AcDbArc
 50
191.608513058
 51
270.0
  0
LINE
  5
27F
330
1F
100
AcDbEntity
  8
0
100
AcDbLine
 10
162.5216812587
 20
-156.3192020401
 30
0.0
 11
154.6830411191
 21
-194.4772945528
 31
0.0
  0
LINE
  5
280
330
1F
100
AcDbEntity
  8
0
100
AcDbLine
 10
154.6830411191
 20
-419.03814367
 30
0.0
 11
162.5216812587
 21
-457.1962361827
 31
0.0
  0
ARC
  5
281
330
1F
100
AcDbEntity
  8
0
100
AcDbCircle
 10
139.0103153199
 20
-191.2577191114
 30
0.0
 40
15.99999999999972
100
AcDbArc
 50
270.0
 51
348.391486942
  0
ARC
  5
282
330
1F
100
AcDbEntity
  8
0
100
AcDbCircle
 10
139.0103153199
 20
-422.2577191114
 30
0.0
 40
15.99999999999972
100
AcDbArc
 50
11.608513058
 51
90.0
  0
LINE
  5
283
330
1F
100
AcDbEntity
  8
0
100
AcDbLine
 10
139.0103153199
 20
-207.2577191114
 30
0.0
 11
117.9950983129
 21
-207.2577191114
 31
0.0
  0
LINE
  5
284
330
1F
100
AcDbEntity
  8
0
100
AcDbLine
 10
117.9950983129
 20
-406.2577191114
 30
0.0
 11
139.0103153199
 21
-406.2577191114
 31
0.0
  0
ARC
  5
285
330
1F
100
AcDbEntity
  8
0
100
AcDbCircle
 10
117.9950983129
 20
-211.2577191114
 30
0.0
 40
3.999999999999474
100
AcDbArc
 50
90.0
 51
180.0
  0
ARC
  5
286
330
1F
100
AcDbEntity
  8
0
100
AcDbCircle
 10
117.9950983129
 20
-402.2577191114
 30
0.0
 40
3.999999999999488
100
AcDbArc
 50
180.0
 51
270.0
  0
LINE
  5
287
330
1F
100
AcDbEntity
  8
0
100
AcDbLine
 10
243.9950983129
 20
-134.4577191114
 30
0.0
 11
243.45562442
 21
-134.4577191114
 31
0.0
  0
LINE
  5
288
330
1F
100
AcDbEntity
  8
0
100
AcDbLine
 10
232.85562442
 20
-134.4577191114
 30
0.0
 11
230.15562442
 21
-134.4577191114
 31
0.0
  0
LINE
  5
289
330
1F
100
AcDbEntity
  8
0
100
AcDbLine
 10
246.3950983129
 20
-477.8577191114
 30
0.0
 11
246.4669397318
 21
-477.7577191114
 31
0.0
  0
ARC
  5
28A
330
1F
100
AcDbEntity
  8
0
100
AcDbCircle
 10
243.9950983129
 20
-137.4577191114
 30
0.0
 40
2.999999999999999
100
AcDbArc
 50
34.5181078411
 51
90.0
  0
ARC
  5
28B
330
1F
100
AcDbEntity
  8
0
100
AcDbCircle
 10
251.4106225695
 20
-481.1577191114
 30
0.0
 40
5.999999999999904
100
AcDbArc
 50
90.0
 51
145.4818921589
  0
ARC
  5
28C
330
1F
100
AcDbEntity
  8
0
100
AcDbCircle
 10
251.4106225695
 20
-132.3577191114
 30
0.0
 40
5.999999999999872
100
AcDbArc
 50
214.5181078411
 51
270.0
  0
ARC
  5
28D
330
1F
100
AcDbEntity
  8
0
100
AcDbCircle
 10
253.4075397342
 20
-435.1577191114
 30
0.0
 40
40.00000000000006
100
AcDbArc
 50
270.0
 51
340.3125270199
  0
ARC
  5
28E
330
1F
100
AcDbEntity
  8
0
100
AcDbCircle
 10
253.4075397342
 20
-178.3577191114
 30
0.0
 40
40.00000000000004
100
AcDbArc
 50
19.6874729801
 51
90.0
  0
LINE
  5
28F
330
1F
100
AcDbEntity
  8
0
100
AcDbLine
 10
251.4106225695
 20
-475.1577191114
 30
0.0
 11
253.4075397342
 21
-475.1577191114
 31
0.0
  0
LINE
  5
290
330
1F
100
AcDbEntity
  8
0
100
AcDbLine
 10
253.4075397342
 20
-138.3577191114
 30
0.0
 11
251.4106225695
 21
-138.3577191114
 31
0.0
  0
LINE
  5
291
330
1F
100
AcDbEntity
  8
0
100
AcDbLine
 10
291.0693086964
 20
-448.6332954863
 30
0.0
 11
299.3508419224
 21
-425.4879262396
 31
0.0
  0
LINE
  5
292
330
1F
100
AcDbEntity
  8
0
100
AcDbLine
 10
299.3508419224
 20
-188.0275119832
 30
0.0
 11
291.0693086964
 21
-164.8821427365
 31
0.0
  0
ARC
  5
293
330
1F
100
AcDbEntity
  8
0
100
AcDbCircle
 10
326.65562442
 20
-435.2577191114
 30
0.0
 40
29.00000000000044
100
AcDbArc
 50
90.0
 51
160.3125270199
  0
ARC
  5
294
330
1F
100
AcDbEntity
  8
0
100
AcDbCircle
 10
326.65562442
 20
-178.2577191114
 30
0.0
 40
29.00000000000044
100
AcDbArc
 50
199.6874729801
 51
270.0
  0
LINE
  5
295
330
1F
100
AcDbEntity
  8
0
100
AcDbLine
 10
326.65562442
 20
-406.2577191114
 30
0.0
 11
354.65562442
 21
-406.2577191114
 31
0.0
  0
LINE
  5
296
330
1F
100
AcDbEntity
  8
0
100
AcDbLine
 10
354.65562442
 20
-207.2577191114
 30
0.0
 11
326.65562442
 21
-207.2577191114
 31
0.0
  0
LINE
  5
297
330
1F
100
AcDbEntity
  8
0
100
AcDbLine
 10
203.9950983129
 20
-477.601065653
 30
0.0
 11
203.9950983129
 21
-477.8577191114
 31
0.0
  0
LINE
  5
298
330
1F
100
AcDbEntity
  8
0
100
AcDbLine
 10
223.9950983129
 20
-477.8577191114
 30
0.0
 11
223.9950983129
 21
-477.8284821435
 31
0.0
  0
LINE
  5
299
330
1F
100
AcDbEntity
  8
0
100
AcDbLine
 10
273.9950983129
 20
-506.3577191114
 30
0.0
 11
276.4950983129
 21
-506.3577191114
 31
0.0
  0
LINE
  5
29A
330
1F
100
AcDbEntity
  8
0
100
AcDbLine
 10
276.4950983129
 20
-481.3577191114
 30
0.0
 11
273.9950983129
 21
-481.3577191114
 31
0.0
  0
LINE
  5
29B
330
1F
100
AcDbEntity
  8
0
100
AcDbLine
 10
276.4950983129
 20
-504.3577191114
 30
0.0
 11
278.9950983129
 21
-504.3577191114
 31
0.0
  0
LINE
  5
29C
330
1F
100
AcDbEntity
  8
0
100
AcDbLine
 10
278.9950983129
 20
-483.3577191114
 30
0.0
 11
276.4950983129
 21
-483.3577191114
 31
0.0
  0
LINE
  5
29D
330
1F
100
AcDbEntity
  8
0
100
AcDbLine
 10
278.9950983129
 20
-501.8577191114
 30
0.0
 11
281.4950983129
 21
-501.8577191114
 31
0.0
  0
LINE
  5
29E
330
1F
100
AcDbEntity
  8
0
100
AcDbLine
 10
281.4950983129
 20
-485.8577191114
 30
0.0
 11
278.9950983129
 21
-485.8577191114
 31
0.0
  0
LINE
  5
29F
330
1F
100
AcDbEntity
  8
0
100
AcDbLine
 10
281.4950983129
 20
-498.8577191114
 30
0.0
 11
283.9950983129
 21
-498.8577191114
 31
0.0
  0
LINE
  5
2A0
330
1F
100
AcDbEntity
  8
0
100
AcDbLine
 10
283.9950983129
 20
-488.8577191114
 30
0.0
 11
281.4950983129
 21
-488.8577191114
 31
0.0
  0
LINE
  5
2A1
330
1F
100
AcDbEntity
  8
0
100
AcDbLine
 10
193.9950983129
 20
-481.3577191114
 30
0.0
 11
191.4950983129
 21
-481.3577191114
 31
0.0
  0
LINE
  5
2A2
330
1F
100
AcDbEntity
  8
0
100
AcDbLine
 10
191.4950983129
 20
-506.3577191114
 30
0.0
 11
193.9950983129
 21
-506.3577191114
 31
0.0
  0
LINE
  5
2A3
330
1F
100
AcDbEntity
  8
0
100
AcDbLine
 10
191.4950983129
 20
-483.3577191114
 30
0.0
 11
188.9950983129
 21
-483.3577191114
 31
0.0
  0
LINE
  5
2A4
330
1F
100
AcDbEntity
  8
0
100
AcDbLine
 10
188.9950983129
 20
-504.3577191114
 30
0.0
 11
191.4950983129
 21
-504.3577191114
 31
0.0
  0
LINE
  5
2A5
330
1F
100
AcDbEntity
  8
0
100
AcDbLine
 10
188.9950983129
 20
-485.8577191114
 30
0.0
 11
186.4950983129
 21
-485.8577191114
 31
0.0
  0
LINE
  5
2A6
330
1F
100
AcDbEntity
  8
0
100
AcDbLine
 10
186.4950983129
 20
-501.8577191114
 30
0.0
 11
188.9950983129
 21
-501.8577191114
 31
0.0
  0
LINE
  5
2A7
330
1F
100
AcDbEntity
  8
0
100
AcDbLine
 10
186.4950983129
 20
-488.8577191114
 30
0.0
 11
183.9950983129
 21
-488.8577191114
 31
0.0
  0
LINE
  5
2A8
330
1F
100
AcDbEntity
  8
0
100
AcDbLine
 10
183.9950983129
 20
-498.8577191114
 30
0.0
 11
186.4950983129
 21
-498.8577191114
 31
0.0
  0
ARC
  5
2A9
330
1F
100
AcDbEntity
  8
0
100
AcDbCircle
 10
243.45562442
 20
-135.2577191114
 30
0.0
 40
0.2000000000000171
100
AcDbArc
 50
270.0
 51
0.0
  0
ARC
  5
2AA
330
1F
100
AcDbEntity
  8
0
100
AcDbCircle
 10
232.85562442
 20
-135.2577191114
 30
0.0
 40
0.2000000000000171
100
AcDbArc
 50
180.0
 51
270.0
  0
LINE
  5
2AB
330
1F
100
AcDbEntity
  8
0
100
AcDbLine
 10
243.65562442
 20
-135.2577191114
 30
0.0
 11
243.65562442
 21
-134.6577191114
 31
0.0
  0
LINE
  5
2AC
330
1F
100
AcDbEntity
  8
0
100
AcDbLine
 10
232.65562442
 20
-134.6577191114
 30
0.0
 11
232.65562442
 21
-135.2577191114
 31
0.0
  0
ARC
  5
2AD
330
1F
100
AcDbEntity
  8
0
100
AcDbCircle
 10
243.45562442
 20
-134.6577191114
 30
0.0
 40
0.2000000000000171
100
AcDbArc
 50
0.0
 51
90.0000000001
  0
ARC
  5
2AE
330
1F
100
AcDbEntity
  8
0
100
AcDbCircle
 10
232.85562442
 20
-134.6577191114
 30
0.0
 40
0.2000000000000171
100
AcDbArc
 50
89.9999999999
 51
180.0
  0
ARC
  5
2AF
330
1F
100
AcDbEntity
  8
0
100
AcDbCircle
 10
238.5457619575
 20
-141.4482004925
 30
0.0
 40
8.000000000000016
100
AcDbArc
 50
107.1467397277
 51
119.0955287963
  0
ARC
  5
2B0
330
1F
100
AcDbEntity
  8
0
100
AcDbCircle
 10
237.7654868825
 20
-141.4482004925
 30
0.0
 40
7.999999999999978
100
AcDbArc
 50
60.90447120369999
 51
72.8515803462
  0
LINE
  5
2B1
330
1F
100
AcDbEntity
  8
0
100
AcDbLine
 10
240.25562442
 20
-135.6224217587
 30
0.0
 11
240.25562442
 21
-135.4577191114
 31
0.0
  0
LINE
  5
2B2
330
1F
100
AcDbEntity
  8
0
100
AcDbLine
 10
236.05562442
 20
-135.4577191114
 30
0.0
 11
236.05562442
 21
-135.6224217587
 31
0.0
  0
SPLINE
  5
2B3
330
1F
100
AcDbEntity
  8
0
100
AcDbSpline
210
0.0
220
0.0
230
1.0
 70
     8
 71
     3
 72
    16
 73
    12
 74
     0
 42
0.000000001
 43
0.00000001
 40
0.0
 40
0.0
 40
0.0
 40
0.0
 40
0.0474044658398758
 40
0.178052374515133
 40
0.3087958616939562
 40
0.4397528270407374
 40
0.5707086558844843
 40
0.7014494262774669
 40
0.8320971972246236
 40
0.9629188170744165
 40
1.0
 40
1.0
 40
1.0
 40
1.0
 10
224.3575615196392
 20
-477.8493521798914
 30
0.0
 10
224.3942445900282
 20
-477.8515801067272
 30
0.0
 10
224.5320271316421
 20
-477.8599482563592
 30
0.0
 10
223.5406948358623
 20
-477.799301648993
 30
0.0
 10
221.4975991003176
 20
-477.6938299802055
 30
0.0
 10
218.5301332860038
 20
-477.5849434067931
 30
0.0
 10
215.0716059824752
 20
-477.5260781042546
 30
0.0
 10
211.4859974444265
 20
-477.5417100756484
 30
0.0
 10
208.196600233976
 20
-477.624806662592
 30
0.0
 10
206.1603189934749
 20
-477.7127058641491
 30
0.0
 10
205.3155025235209
 20
-477.755729063529
 30
0.0
 10
205.1289255662391
 20
-477.7652306984029
 30
0.0
  0
LINE
  5
2B4
330
1F
100
AcDbEntity
  8
0
100
AcDbLine
 10
205.1289255662
 20
-477.7652306984
 30
0.0
 11
203.9752699399
 21
-477.5981947344
 31
0.0
  0
SPLINE
  5
2B5
330
1F
100
AcDbEntity
  8
0
100
AcDbSpline
210
0.0
220
0.0
230
1.0
 70
     8
 71
     3
 72
     9
 73
     5
 74
     0
 42
0.000000001
 43
0.00000001
 40
0.0
 40
0.0
 40
0.0
 40
0.0
 40
0.9131159620465215
 40
1.0
 40
1.0
 40
1.0
 40
1.0
 10
203.5508324772755
 20
-477.4670217845627
 30
0.0
 10
203.5930407321073
 20
-477.4734404376278
 30
0.0
 10
203.6392651511145
 20
-477.4804698329422
 30
0.0
 10
203.9484101721816
 20
-477.5887839652017
 30
0.0
 10
203.9752699399251
 20
-477.5981947343799
 30
0.0
  0
LINE
  5
2B6
330
1F
100
AcDbEntity
  8
0
100
AcDbLine
 10
113.9950983129
 20
-306.7577191114
 30
0.0
 11
113.9950983129
 21
-402.2577191114
 31
0.0
  0
LINE
  5
2B7
330
1F
100
AcDbEntity
  8
0
100
AcDbLine
 10
113.9950983129
 20
-211.2577191114
 30
0.0
 11
113.9950983129
 21
-306.7577191114
 31
0.0
  0
LINE
  5
2B8
330
1F
100
AcDbEntity
  8
0
100
AcDbLine
 10
230.15562442
 20
-477.8577191114
 30
0.0
 11
230.15562442
 21
-134.4577191114
 31
0.0
  0
LINE
  5
2B9
330
1F
100
AcDbEntity
  8
0
100
AcDbLine
 10
354.65562442
 20
-406.2577191114
 30
0.0
 11
354.65562442
 21
-207.2577191114
 31
0.0
  0
CIRCLE
  5
2BA
330
1F
100
AcDbEntity
  8
0
100
AcDbCircle
 10
253.9950983129
 20
-493.8577191114
 30
0.0
 40
5.000000000000028
  0
CIRCLE
  5
2BB
330
1F
100
AcDbEntity
  8
0
100
AcDbCircle
 10
213.9950983129
 20
-493.8577191114
 30
0.0
 40
5.0
  0
CIRCLE
  5
2BC
330
1F
100
AcDbEntity
  8
0
100
AcDbCircle
 10
253.9950983129
 20
-493.8577191114
 30
0.0
 40
8.000000000000028
  0
CIRCLE
  5
2BD
330
1F
100
AcDbEntity
  8
0
100
AcDbCircle
 10
213.9950983129
 20
-493.8577191114
 30
0.0
 40
8.0
  0
CIRCLE
  5
2BE
330
1F
100
AcDbEntity
  8
0
100
AcDbCircle
 10
253.9950983129
 20
-493.8577191114
 30
0.0
 40
10.50000000000003
  0
CIRCLE
  5
2BF
330
1F
100
AcDbEntity
  8
0
100
AcDbCircle
 10
213.9950983129
 20
-493.8577191114
 30
0.0
 40
10.5
  0
CIRCLE
  5
2C0
330
1F
100
AcDbEntity
  8
0
100
AcDbCircle
 10
253.9950983129
 20
-493.8577191114
 30
0.0
 40
12.50000000000003
  0
CIRCLE
  5
2C1
330
1F
100
AcDbEntity
  8
0
100
AcDbCircle
 10
213.9950983129
 20
-493.8577191114
 30
0.0
 40
12.5
  0
LINE
  5
2C2
330
1F
100
AcDbEntity
  8
0
100
AcDbLine
 10
275.9950983129
 20
-519.8577191114
 30
0.0
 11
269.9950983129
 21
-519.8577191114
 31
0.0
  0
LINE
  5
2C3
330
1F
100
AcDbEntity
  8
0
100
AcDbLine
 10
275.9950983129
 20
-518.7577191114
 30
0.0
 11
269.9950983129
 21
-518.7577191114
 31
0.0
  0
LINE
  5
2C4
330
1F
100
AcDbEntity
  8
0
100
AcDbLine
 10
275.9950983129
 20
-518.7577191114
 30
0.0
 11
275.9950983129
 21
-519.8577191114
 31
0.0
  0
LINE
  5
2C5
330
1F
100
AcDbEntity
  8
0
100
AcDbLine
 10
269.9950983129
 20
-517.3577191114
 30
0.0
 11
274.5950983129
 21
-517.3577191114
 31
0.0
  0
LINE
  5
2C6
330
1F
100
AcDbEntity
  8
0
100
AcDbLine
 10
274.5950983129
 20
-517.3577191114
 30
0.0
 11
275.9950983129
 21
-518.7577191114
 31
0.0
  0
LINE
  5
2C7
330
1F
100
AcDbEntity
  8
0
100
AcDbLine
 10
269.9950983129
 20
-518.7577191114
 30
0.0
 11
197.9950983129
 21
-518.7577191114
 31
0.0
  0
LINE
  5
2C8
330
1F
100
AcDbEntity
  8
0
100
AcDbLine
 10
197.9950983129
 20
-517.3577191114
 30
0.0
 11
269.9950983129
 21
-517.3577191114
 31
0.0
  0
LINE
  5
2C9
330
1F
100
AcDbEntity
  8
0
100
AcDbLine
 10
197.9950983129
 20
-519.8577191114
 30
0.0
 11
269.9950983129
 21
-519.8577191114
 31
0.0
  0
LINE
  5
2CA
330
1F
100
AcDbEntity
  8
0
100
AcDbLine
 10
197.9950983129
 20
-518.7577191114
 30
0.0
 11
191.9950983129
 21
-518.7577191114
 31
0.0
  0
LINE
  5
2CB
330
1F
100
AcDbEntity
  8
0
100
AcDbLine
 10
191.9950983129
 20
-518.7577191114
 30
0.0
 11
193.3950983129
 21
-517.3577191114
 31
0.0
  0
LINE
  5
2CC
330
1F
100
AcDbEntity
  8
0
100
AcDbLine
 10
193.3950983129
 20
-517.3577191114
 30
0.0
 11
197.9950983129
 21
-517.3577191114
 31
0.0
  0
LINE
  5
2CD
330
1F
100
AcDbEntity
  8
0
100
AcDbLine
 10
191.9950983129
 20
-519.8577191114
 30
0.0
 11
191.9950983129
 21
-518.7577191114
 31
0.0
  0
LINE
  5
2CE
330
1F
100
AcDbEntity
  8
0
100
AcDbLine
 10
197.9950983129
 20
-519.8577191114
 30
0.0
 11
191.9950983129
 21
-519.8577191114
 31
0.0
  0
LINE
  5
2CF
330
1F
100
AcDbEntity
  8
0
100
AcDbLine
 10
267.9950983129
 20
-477.8577191114
 30
0.0
 11
273.9950983129
 21
-477.8577191114
 31
0.0
  0
LINE
  5
2D0
330
1F
100
AcDbEntity
  8
0
100
AcDbLine
 10
273.9950983129
 20
-477.8577191114
 30
0.0
 11
273.9950983129
 21
-517.3577191114
 31
0.0
  0
LINE
  5
2D1
330
1F
100
AcDbEntity
  8
0
100
AcDbLine
 10
267.9950983129
 20
-477.8577191114
 30
0.0
 11
199.9950983129
 21
-477.8577191114
 31
0.0
  0
LINE
  5
2D2
330
1F
100
AcDbEntity
  8
0
100
AcDbLine
 10
273.9950983129
 20
-519.8577191114
 30
0.0
 11
273.9950983129
 21
-522.8577191114
 31
0.0
  0
LINE
  5
2D3
330
1F
100
AcDbEntity
  8
0
100
AcDbLine
 10
273.9950983129
 20
-522.8577191114
 30
0.0
 11
267.9950983129
 21
-522.8577191114
 31
0.0
  0
LINE
  5
2D4
330
1F
100
AcDbEntity
  8
0
100
AcDbLine
 10
267.9950983129
 20
-522.8577191114
 30
0.0
 11
199.9950983129
 21
-522.8577191114
 31
0.0
  0
LINE
  5
2D5
330
1F
100
AcDbEntity
  8
0
100
AcDbLine
 10
193.9950983129
 20
-517.3577191114
 30
0.0
 11
193.9950983129
 21
-477.8577191114
 31
0.0
  0
LINE
  5
2D6
330
1F
100
AcDbEntity
  8
0
100
AcDbLine
 10
193.9950983129
 20
-477.8577191114
 30
0.0
 11
199.9950983129
 21
-477.8577191114
 31
0.0
  0
LINE
  5
2D7
330
1F
100
AcDbEntity
  8
0
100
AcDbLine
 10
193.9950983129
 20
-522.8577191114
 30
0.0
 11
193.9950983129
 21
-519.8577191114
 31
0.0
  0
LINE
  5
2D8
330
1F
100
AcDbEntity
  8
0
100
AcDbLine
 10
199.9950983129
 20
-522.8577191114
 30
0.0
 11
193.9950983129
 21
-522.8577191114
 31
0.0
  0
LINE
  5
2D9
330
1F
100
AcDbEntity
  8
0
100
AcDbLine
 10
276.4950983129
 20
-493.8577191114
 30
0.0
 11
276.4950983129
 21
-506.3577191114
 31
0.0
  0
LINE
  5
2DA
330
1F
100
AcDbEntity
  8
0
100
AcDbLine
 10
276.4950983129
 20
-481.3577191114
 30
0.0
 11
276.4950983129
 21
-493.8577191114
 31
0.0
  0
LINE
  5
2DB
330
1F
100
AcDbEntity
  8
0
100
AcDbLine
 10
278.9950983129
 20
-493.8577191114
 30
0.0
 11
278.9950983129
 21
-504.3577191114
 31
0.0
  0
LINE
  5
2DC
330
1F
100
AcDbEntity
  8
0
100
AcDbLine
 10
278.9950983129
 20
-483.3577191114
 30
0.0
 11
278.9950983129
 21
-493.8577191114
 31
0.0
  0
LINE
  5
2DD
330
1F
100
AcDbEntity
  8
0
100
AcDbLine
 10
281.4950983129
 20
-493.8577191114
 30
0.0
 11
281.4950983129
 21
-501.8577191114
 31
0.0
  0
LINE
  5
2DE
330
1F
100
AcDbEntity
  8
0
100
AcDbLine
 10
281.4950983129
 20
-485.8577191114
 30
0.0
 11
281.4950983129
 21
-493.8577191114
 31
0.0
  0
LINE
  5
2DF
330
1F
100
AcDbEntity
  8
0
100
AcDbLine
 10
283.9950983129
 20
-493.8577191114
 30
0.0
 11
283.9950983129
 21
-498.8577191114
 31
0.0
  0
LINE
  5
2E0
330
1F
100
AcDbEntity
  8
0
100
AcDbLine
 10
283.9950983129
 20
-488.8577191114
 30
0.0
 11
283.9950983129
 21
-493.8577191114
 31
0.0
  0
LINE
  5
2E1
330
1F
100
AcDbEntity
  8
0
100
AcDbLine
 10
191.4950983129
 20
-506.3577191114
 30
0.0
 11
191.4950983129
 21
-481.3577191114
 31
0.0
  0
LINE
  5
2E2
330
1F
100
AcDbEntity
  8
0
100
AcDbLine
 10
188.9950983129
 20
-504.3577191114
 30
0.0
 11
188.9950983129
 21
-483.3577191114
 31
0.0
  0
LINE
  5
2E3
330
1F
100
AcDbEntity
  8
0
100
AcDbLine
 10
186.4950983129
 20
-501.8577191114
 30
0.0
 11
186.4950983129
 21
-485.8577191114
 31
0.0
  0
LINE
  5
2E4
330
1F
100
AcDbEntity
  8
0
100
AcDbLine
 10
183.9950983129
 20
-498.8577191114
 30
0.0
 11
183.9950983129
 21
-488.8577191114
 31
0.0
  0
LINE
  5
2E5
330
1F
100
AcDbEntity
  8
0
100
AcDbLine
 10
238.15562442
 20
-135.4577191114
 30
0.0
 11
232.85562442
 21
-135.4577191114
 31
0.0
  0
LINE
  5
2E6
330
1F
100
AcDbEntity
  8
0
100
AcDbLine
 10
243.45562442
 20
-135.4577191114
 30
0.0
 11
238.15562442
 21
-135.4577191114
 31
0.0
  0
LINE
  5
2E7
330
1F
100
AcDbEntity
  8
0
100
AcDbLine
 10
238.15562442
 20
-134.4577191114
 30
0.0
 11
232.85562442
 21
-134.4577191114
 31
0.0
  0
LINE
  5
2E8
330
1F
100
AcDbEntity
  8
0
100
AcDbLine
 10
243.45562442
 20
-134.4577191114
 30
0.0
 11
238.15562442
 21
-134.4577191114
 31
0.0
  0
LINE
  5
2E9
330
1F
100
AcDbEntity
  8
0
100
AcDbLine
 10
240.1177004493
 20
-133.8185415902
 30
0.0
 11
239.15562442
 21
-133.5904660708
 31
0.0
  0
LINE
  5
2EA
330
1F
100
AcDbEntity
  8
0
100
AcDbLine
 10
237.15562442
 20
-133.5904660708
 30
0.0
 11
236.1935483907
 21
-133.8185415902
 31
0.0
  0
SPLINE
  5
2EB
330
1F
100
AcDbEntity
  8
0
100
AcDbSpline
210
0.0
220
0.0
230
1.0
 70
     8
 71
     3
 72
    12
 73
     8
 74
     0
 42
0.000000001
 43
0.00000001
 40
0.0
 40
0.0
 40
0.0
 40
0.0
 40
0.2174770912063657
 40
0.4353705208256897
 40
0.6490388720029245
 40
0.8610609605877977
 40
1.0
 40
1.0
 40
1.0
 40
1.0
 10
237.669576687644
 20
-133.5904660708349
 30
0.0
 10
237.6629680492725
 20
-133.5814885052241
 30
0.0
 10
237.6497381209439
 20
-133.5635161873397
 30
0.0
 10
237.5588501329876
 20
-133.5518475585614
 30
0.0
 10
237.427512277639
 20
-133.5548317059475
 30
0.0
 10
237.2852876134688
 20
-133.5696406178071
 30
0.0
 10
237.1923977888264
 20
-133.5845598298683
 30
0.0
 10
237.1556244199903
 20
-133.5904660708369
 30
0.0
  0
LINE
  5
2EC
330
1F
100
AcDbEntity
  8
0
100
AcDbLine
 10
237.6935483907
 20
-133.8185415902
 30
0.0
 11
237.6695766876
 21
-133.5904660708
 31
0.0
  0
LINE
  5
2ED
330
1F
100
AcDbEntity
  8
0
100
AcDbLine
 10
238.6177004493
 20
-133.8185415902
 30
0.0
 11
237.6935483907
 21
-133.8185415902
 31
0.0
  0
LINE
  5
2EE
330
1F
100
AcDbEntity
  8
0
100
AcDbLine
 10
238.6416721523
 20
-133.5904660708
 30
0.0
 11
238.6177004493
 21
-133.8185415902
 31
0.0
  0
SPLINE
  5
2EF
330
1F
100
AcDbEntity
  8
0
100
AcDbSpline
210
0.0
220
0.0
230
1.0
 70
     8
 71
     3
 72
    12
 73
     8
 74
     0
 42
0.000000001
 43
0.00000001
 40
0.0
 40
0.0
 40
0.0
 40
0.0
 40
0.2174770912068871
 40
0.4353705208260334
 40
0.649038872003635
 40
0.8610609605884604
 40
1.0
 40
1.0
 40
1.0
 40
1.0
 10
239.1556244199906
 20
-133.5904660708349
 30
0.0
 10
239.0978517798306
 20
-133.5814885052241
 30
0.0
 10
238.9821958994968
 20
-133.5635161873398
 30
0.0
 10
238.828091036444
 20
-133.5518475585614
 30
0.0
 10
238.712838714785
 20
-133.5548317059464
 30
0.0
 10
238.6521271698907
 20
-133.5696406178087
 30
0.0
 10
238.6446372668493
 20
-133.5845598298672
 30
0.0
 10
238.641672152337
 20
-133.5904660708347
 30
0.0
  0
LINE
  5
2FB
330
1F
100
AcDbEntity
  8
0
 62
     8
370
    18
100
AcDbLine
 10
139.0103153199
 20
-207.2577191114
 30
0.0
 11
139.0103153199
 21
-406.2577191114003
 31
0.0
  0
LINE
  5
304
330
1F
100
AcDbEntity
  8
0
 62
     8
370
    18
100
AcDbLine
 10
326.65562442
 20
-406.2577191114
 30
0.0
 11
326.65562442
 21
-207.2577191114
 31
0.0
  0
LINE
  5
305
330
1F
100
AcDbEntity
  8
0
  6
PHANTOM
 62
     8
370
    18
100
AcDbLine
 10
269.9950983129
 20
-519.8577191114
 30
0.0
 11
269.9950983129
 21
-518.7577191114
 31
0.0
  0
LINE
  5
306
330
1F
100
AcDbEntity
  8
0
  6
PHANTOM
 62
     8
370
    18
100
AcDbLine
 10
269.9950983129
 20
-517.3577191114
 30
0.0
 11
269.9950983129
 21
-518.7577191114
 31
0.0
  0
LINE
  5
307
330
1F
100
AcDbEntity
  8
0
  6
PHANTOM
 62
     8
370
    18
100
AcDbLine
 10
197.9950983129
 20
-518.7577191114
 30
0.0
 11
197.9950983129
 21
-517.3577191114
 31
0.0
  0
LINE
  5
308
330
1F
100
AcDbEntity
  8
0
  6
PHANTOM
 62
     8
370
    18
100
AcDbLine
 10
197.9950983129
 20
-518.7577191114
 30
0.0
 11
197.9950983129
 21
-519.8577191114
 31
0.0
  0
LINE
  5
309
330
1F
100
AcDbEntity
  8
0
  6
PHANTOM
 62
     8
370
    18
100
AcDbLine
 10
267.9950983129
 20
-517.3577191114
 30
0.0
 11
267.9950983129
 21
-477.8577191114
 31
0.0
  0
LINE
  5
30A
330
1F
100
AcDbEntity
  8
0
  6
PHANTOM
 62
     8
370
    18
100
AcDbLine
 10
199.9950983129
 20
-477.8577191114
 30
0.0
 11
199.9950983129
 21
-517.3577191114
 31
0.0
  0
LINE
  5
30B
330
1F
100
AcDbEntity
  8
0
  6
PHANTOM
 62
     8
370
    18
100
AcDbLine
 10
267.9950983129
 20
-522.8577191114
 30
0.0
 11
267.9950983129
 21
-519.8577191114
 31
0.0
  0
LINE
  5
30C
330
1F
100
AcDbEntity
  8
0
  6
PHANTOM
 62
     8
370
    18
100
AcDbLine
 10
199.9950983129
 20
-519.8577191114
 30
0.0
 11
199.9950983129
 21
-522.8577191114
 31
0.0
  0
LINE
  5
30D
330
1F
100
AcDbEntity
  8
0
  6
PHANTOM
 62
     8
370
    18
100
AcDbLine
 10
238.15562442
 20
-135.2577191114
 30
0.0
 11
232.65562442
 21
-135.2577191114
 31
0.0
  0
LINE
  5
30E
330
1F
100
AcDbEntity
  8
0
  6
PHANTOM
 62
     8
370
    18
100
AcDbLine
 10
243.65562442
 20
-135.2577191114
 30
0.0
 11
238.15562442
 21
-135.2577191114
 31
0.0
  0
LINE
  5
30F
330
1F
100
AcDbEntity
  8
0
  6
PHANTOM
 62
     8
370
    18
100
AcDbLine
 10
238.15562442
 20
-134.6577191114
 30
0.0
 11
232.65562442
 21
-134.6577191114
 31
0.0
  0
LINE
  5
310
330
1F
100
AcDbEntity
  8
0
  6
PHANTOM
 62
     8
370
    18
100
AcDbLine
 10
243.65562442
 20
-134.6577191114
 30
0.0
 11
238.15562442
 21
-134.6577191114
 31
0.0
  0
LINE
  5
375
330
1F
100
AcDbEntity
  8
0
100
AcDbLine
 10
57.96449960015252
 20
-307.1953455492637
 30
0.0
 11
18.96449960015343
 21
-275.9953455492637
 31
0.0
  0
LINE
  5
376
330
1F
100
AcDbEntity
  8
0
100
AcDbLine
 10
18.96449960015343
 20
-275.9953455492637
 30
0.0
 11
18.96449960015343
 21
-291.5953455492638
 31
0.0
  0
LINE
  5
377
330
1F
100
AcDbEntity
  8
0
100
AcDbLine
 10
18.96449960015343
 20
-322.7953455492636
 30
0.0
 11
-20.03550039984657
 21
-322.7953455492636
 31
0.0
  0
LINE
  5
378
330
1F
100
AcDbEntity
  8
0
100
AcDbLine
 10
18.96449960015343
 20
-291.5953455492638
 30
0.0
 11
-20.03550039984657
 21
-291.5953455492638
 31
0.0
  0
LINE
  5
379
330
1F
100
AcDbEntity
  8
0
100
AcDbLine
 10
-20.03550039984657
 20
-291.5953455492638
 30
0.0
 11
-20.03550039984657
 21
-322.7953455492636
 31
0.0
  0
LINE
  5
37A
330
1F
100
AcDbEntity
  8
0
100
AcDbLine
 10
18.96449960015343
 20
-322.7953455492636
 30
0.0
 11
18.96449960015343
 21
-338.3953455492638
 31
0.0
  0
INSERT
  5
37B
330
1F
100
AcDbEntity
  8
LENKIMO
  6
CENTERX2
100
AcDbBlockReference
  2
*U4
 10
-243.8156870093815
 20
-875.1151515283423
 30
0.0
 41
0.39
 42
0.39
 43
0.39
  0
LINE
  5
37C
330
1F
100
AcDbEntity
  8
0
100
AcDbLine
 10
57.96449960015252
 20
-307.1953455492637
 30
0.0
 11
18.96449960015343
 21
-338.3953455492638
 31
0.0
  0
MTEXT
  5
37D
330
1F
100
AcDbEntity
  8
0
100
AcDbMText
 10
-11.32791483229357
 20
-299.1038068608098
 30
0.0
 40
13.65
 41
8.176792514679505
 71
     1
 72
     5
  1
{ODA}
 73
     1
 44
1.0
1001
ACAD
1000
ACAD_MTEXT_DEFINED_HEIGHT_BEGIN
1070
    46
1040
35.595
1000
ACAD_MTEXT_DEFINED_HEIGHT_END
  0
INSERT
  5
37E
330
1F
100
AcDbEntity
  8
LENKIMO
  6
CENTERX2
100
AcDbBlockReference
  2
*U5
 10
-503.5712176515168
 20
-293.5155832189379
 30
0.0
 41
0.39
 42
0.39
 43
0.39
  0
INSERT
  5
37F
330
1F
100
AcDbEntity
  8
LENKIMO
  6
CENTERX2
100
AcDbBlockReference
  2
*U6
 10
328.6823805405968
 20
-426.5334622250288
 30
0.0
 41
0.39
 42
0.39
 43
0.39
  0
LINE
  5
3A1
330
1F
100
AcDbEntity
  8
0
100
AcDbLine
 10
462.844376866089
 20
-274.3485939680272
 30
0.0
 11
462.844376866089
 21
-289.9485939680274
 31
0.0
  0
LINE
  5
3A2
330
1F
100
AcDbEntity
  8
0
100
AcDbLine
 10
501.844376866089
 20
-305.5485939680273
 30
0.0
 11
462.844376866089
 21
-274.3485939680272
 31
0.0
  0
LINE
  5
3A3
330
1F
100
AcDbEntity
  8
0
100
AcDbLine
 10
501.844376866089
 20
-305.5485939680273
 30
0.0
 11
462.844376866089
 21
-336.7485939680273
 31
0.0
  0
LINE
  5
3A4
330
1F
100
AcDbEntity
  8
0
100
AcDbLine
 10
462.844376866089
 20
-321.1485939680272
 30
0.0
 11
462.844376866089
 21
-336.7485939680273
 31
0.0
  0
LINE
  5
3A5
330
1F
100
AcDbEntity
  8
0
100
AcDbLine
 10
423.844376866089
 20
-289.9485939680274
 30
0.0
 11
423.844376866089
 21
-321.1485939680272
 31
0.0
  0
LINE
  5
3A6
330
1F
100
AcDbEntity
  8
0
100
AcDbLine
 10
462.844376866089
 20
-321.1485939680272
 30
0.0
 11
423.844376866089
 21
-321.1485939680272
 31
0.0
  0
LINE
  5
3A7
330
1F
100
AcDbEntity
  8
0
100
AcDbLine
 10
462.844376866089
 20
-289.9485939680274
 30
0.0
 11
423.844376866089
 21
-289.9485939680274
 31
0.0
  0
INSERT
  5
3A8
330
1F
100
AcDbEntity
  8
LENKIMO
  6
CENTERX2
100
AcDbBlockReference
  2
*U8
 10
69.49833261874085
 20
-755.6510088927378
 30
0.0
 41
0.39
 42
0.39
 43
0.39
  0
MTEXT
  5
3A9
330
1F
100
AcDbEntity
  8
0
100
AcDbMText
 10
430.2085332849928
 20
-299.2900501128204
 30
0.0
 40
13.65
 41
8.176792514679505
 71
     1
 72
     5
  1
{SUP}
 73
     1
 44
1.0
1001
ACAD
1000
ACAD_MTEXT_DEFINED_HEIGHT_BEGIN
1070
    46
1040
35.595
1000
ACAD_MTEXT_DEFINED_HEIGHT_END
  0
ENDSEC
  0
SECTION
  2
OBJECTS
  0
DICTIONARY
  5
C
330
0
100
AcDbDictionary
281
     1
  3
ACAD_GROUP
350
D
  3
ACAD_LAYOUT
350
1A
  3
ACAD_MLINESTYLE
350
17
  3
ACAD_PLOTSETTINGS
350
19
  3
ACAD_PLOTSTYLENAME
350
E
  3
ACAD_SCALELIST
350
47
  3
APPDATA
350
333
  3
DWGPROPS
350
3AE
  0
DICTIONARY
  5
3AA
330
1F
100
AcDbDictionary
280
     1
281
     1
  3
DIM_BOUNDING_BOXES_V1
360
3AB
  0
DICTIONARY
  5
D
102
{ACAD_REACTORS
330
C
102
}
330
C
100
AcDbDictionary
281
     1
  0
DICTIONARY
  5
1A
102
{ACAD_REACTORS
330
C
102
}
330
C
100
AcDbDictionary
281
     1
  3
Layout1
350
1E
  3
Layout2
350
26
  3
Model
350
22
  0
DICTIONARY
  5
17
102
{ACAD_REACTORS
330
C
102
}
330
C
100
AcDbDictionary
281
     1
  3
Standard
350
18
  0
DICTIONARY
  5
19
102
{ACAD_REACTORS
330
C
102
}
330
C
100
AcDbDictionary
281
     1
  0
ACDBDICTIONARYWDFLT
  5
E
102
{ACAD_REACTORS
330
C
102
}
330
C
100
AcDbDictionary
281
     1
  3
Normal
350
F
100
AcDbDictionaryWithDefault
340
F
  0
DICTIONARY
  5
47
102
{ACAD_REACTORS
330
C
102
}
330
C
100
AcDbDictionary
281
     1
  3
A0
350
48
  3
A1
350
49
  3
A2
350
4A
  3
A3
350
4B
  3
A4
350
4C
  3
A5
350
4D
  3
A6
350
4E
  3
A7
350
4F
  3
A8
350
50
  3
A9
350
51
  3
B0
350
52
  3
B1
350
53
  3
B2
350
54
  3
B3
350
55
  3
B4
350
56
  3
B5
350
57
  3
B6
350
58
  3
B7
350
59
  3
B8
350
5A
  3
B9
350
5B
  3
C0
350
5C
  3
C1
350
5D
  3
C2
350
5E
  3
C3
350
5F
  3
C4
350
60
  3
C5
350
61
  3
C6
350
62
  3
C7
350
63
  3
C8
350
64
  3
C9
350
65
  3
D0
350
66
  3
D1
350
67
  3
D2
350
68
  0
DICTIONARY
  5
333
102
{ACAD_REACTORS
330
C
102
}
330
C
100
AcDbDictionary
281
     1
  0
XRECORD
  5
3AE
102
{ACAD_REACTORS
330
C
102
}
330
C
100
AcDbXrecord
280
     1
  1
DWGPROPS COOKIE
  2

  3

  4

  6

  7

  8
mantvydas.surka
  9

300
=
301
=
302
=
303
=
304
=
305
=
306
=
307
=
308
=
309
=
 40
0.0
 41
2459178.566897234
 42
2459178.580671933
  1

 90
        0
  0
DICTIONARY
  5
3AB
102
{ACAD_REACTORS
330
3AA
102
}
330
3AA
100
AcDbDictionary
281
     1
  0
LAYOUT
  5
1E
102
{ACAD_REACTORS
330
1A
102
}
330
1A
100
AcDbPlotSettings
  1

  2
none_device
  4

  6

 40
0.0
 41
0.0
 42
0.0
 43
0.0
 44
0.0
 45
0.0
 46
0.0
 47
0.0
 48
0.0
 49
0.0
140
0.0
141
0.0
142
1.0
143
1.0
 70
   688
 72
     1
 73
     0
 74
     5
  7

 75
    16
147
1.0
148
0.0
149
0.0
100
AcDbLayout
  1
Layout1
 70
     1
 71
     1
 10
0.0
 20
0.0
 11
420.0
 21
297.0
 12
0.0
 22
0.0
 32
0.0
 14
1.000000000000000E+20
 24
1.000000000000000E+20
 34
1.000000000000000E+20
 15
-1.000000000000000E+20
 25
-1.000000000000000E+20
 35
-1.000000000000000E+20
146
0.0
 13
0.0
 23
0.0
 33
0.0
 16
1.0
 26
0.0
 36
0.0
 17
0.0
 27
1.0
 37
0.0
 76
     0
330
1B
  0
LAYOUT
  5
26
102
{ACAD_REACTORS
330
1A
102
}
330
1A
100
AcDbPlotSettings
  1

  2
none_device
  4

  6

 40
0.0
 41
0.0
 42
0.0
 43
0.0
 44
0.0
 45
0.0
 46
0.0
 47
0.0
 48
0.0
 49
0.0
140
0.0
141
0.0
142
1.0
143
1.0
 70
   688
 72
     1
 73
     0
 74
     5
  7

 75
    16
147
1.0
148
0.0
149
0.0
100
AcDbLayout
  1
Layout2
 70
     1
 71
     2
 10
0.0
 20
0.0
 11
0.0
 21
0.0
 12
0.0
 22
0.0
 32
0.0
 14
0.0
 24
0.0
 34
0.0
 15
0.0
 25
0.0
 35
0.0
146
0.0
 13
0.0
 23
0.0
 33
0.0
 16
1.0
 26
0.0
 36
0.0
 17
0.0
 27
1.0
 37
0.0
 76
     0
330
23
  0
LAYOUT
  5
22
102
{ACAD_REACTORS
330
1A
102
}
330
1A
100
AcDbPlotSettings
  1

  2
none_device
  4
Letter_(8.50_x_11.00_Inches)
  6

 40
6.35
 41
6.35
 42
6.35000508
 43
6.35000508
 44
215.9
 45
279.4
 46
0.0
 47
0.0
 48
0.0
 49
0.0
140
0.0
141
0.0
142
1.0
143
1.0
 70
  1712
 72
     1
 73
     0
 74
     0
  7

 75
     0
147
1.0
148
0.0
149
0.0
100
AcDbLayout
  1
Model
 70
     1
 71
     0
 10
0.0
 20
0.0
 11
420.0
 21
297.0
 12
0.0
 22
0.0
 32
0.0
 14
-401.9697327975
 24
-522.8577191114
 34
0.0
 15
870.7054258570001
 25
324.6540213056001
 35
0.0
146
0.0
 13
0.0
 23
0.0
 33
0.0
 16
1.0
 26
0.0
 36
0.0
 17
0.0
 27
1.0
 37
0.0
 76
     0
330
1F
331
29
  0
MLINESTYLE
  5
18
102
{ACAD_REACTORS
330
17
102
}
330
17
100
AcDbMlineStyle
  2
Standard
 70
     0
  3

 62
   256
 51
90.0
 52
90.0
 71
     2
 49
0.5
 62
   256
  6
BYLAYER
 49
-0.5
 62
   256
  6
BYLAYER
  0
ACDBPLACEHOLDER
  5
F
102
{ACAD_REACTORS
330
E
102
}
330
E
  0
SCALE
  5
48
102
{ACAD_REACTORS
330
47
102
}
330
47
100
AcDbScale
 70
     0
300
1:1
140
1.0
141
1.0
290
     1
  0
SCALE
  5
49
102
{ACAD_REACTORS
330
47
102
}
330
47
100
AcDbScale
 70
     0
300
1:2
140
1.0
141
2.0
290
     0
  0
SCALE
  5
4A
102
{ACAD_REACTORS
330
47
102
}
330
47
100
AcDbScale
 70
     0
300
1:4
140
1.0
141
4.0
290
     0
  0
SCALE
  5
4B
102
{ACAD_REACTORS
330
47
102
}
330
47
100
AcDbScale
 70
     0
300
1:5
140
1.0
141
5.0
290
     0
  0
SCALE
  5
4C
102
{ACAD_REACTORS
330
47
102
}
330
47
100
AcDbScale
 70
     0
300
1:8
140
1.0
141
8.0
290
     0
  0
SCALE
  5
4D
102
{ACAD_REACTORS
330
47
102
}
330
47
100
AcDbScale
 70
     0
300
1:10
140
1.0
141
10.0
290
     0
  0
SCALE
  5
4E
102
{ACAD_REACTORS
330
47
102
}
330
47
100
AcDbScale
 70
     0
300
1:16
140
1.0
141
16.0
290
     0
  0
SCALE
  5
4F
102
{ACAD_REACTORS
330
47
102
}
330
47
100
AcDbScale
 70
     0
300
1:20
140
1.0
141
20.0
290
     0
  0
SCALE
  5
50
102
{ACAD_REACTORS
330
47
102
}
330
47
100
AcDbScale
 70
     0
300
1:30
140
1.0
141
30.0
290
     0
  0
SCALE
  5
51
102
{ACAD_REACTORS
330
47
102
}
330
47
100
AcDbScale
 70
     0
300
1:40
140
1.0
141
40.0
290
     0
  0
SCALE
  5
52
102
{ACAD_REACTORS
330
47
102
}
330
47
100
AcDbScale
 70
     0
300
1:50
140
1.0
141
50.0
290
     0
  0
SCALE
  5
53
102
{ACAD_REACTORS
330
47
102
}
330
47
100
AcDbScale
 70
     0
300
1:100
140
1.0
141
100.0
290
     0
  0
SCALE
  5
54
102
{ACAD_REACTORS
330
47
102
}
330
47
100
AcDbScale
 70
     0
300
2:1
140
2.0
141
1.0
290
     0
  0
SCALE
  5
55
102
{ACAD_REACTORS
330
47
102
}
330
47
100
AcDbScale
 70
     0
300
4:1
140
4.0
141
1.0
290
     0
  0
SCALE
  5
56
102
{ACAD_REACTORS
330
47
102
}
330
47
100
AcDbScale
 70
     0
300
8:1
140
8.0
141
1.0
290
     0
  0
SCALE
  5
57
102
{ACAD_REACTORS
330
47
102
}
330
47
100
AcDbScale
 70
     0
300
10:1
140
10.0
141
1.0
290
     0
  0
SCALE
  5
58
102
{ACAD_REACTORS
330
47
102
}
330
47
100
AcDbScale
 70
     0
300
100:1
140
100.0
141
1.0
290
     0
  0
SCALE
  5
59
102
{ACAD_REACTORS
330
47
102
}
330
47
100
AcDbScale
 70
     0
300
1/128" = 1'-0"
140
0.0078125
141
12.0
290
     0
  0
SCALE
  5
5A
102
{ACAD_REACTORS
330
47
102
}
330
47
100
AcDbScale
 70
     0
300
1/64" = 1'-0"
140
0.015625
141
12.0
290
     0
  0
SCALE
  5
5B
102
{ACAD_REACTORS
330
47
102
}
330
47
100
AcDbScale
 70
     0
300
1/32" = 1'-0"
140
0.03125
141
12.0
290
     0
  0
SCALE
  5
5C
102
{ACAD_REACTORS
330
47
102
}
330
47
100
AcDbScale
 70
     0
300
1/16" = 1'-0"
140
0.0625
141
12.0
290
     0
  0
SCALE
  5
5D
102
{ACAD_REACTORS
330
47
102
}
330
47
100
AcDbScale
 70
     0
300
3/32" = 1'-0"
140
0.09375
141
12.0
290
     0
  0
SCALE
  5
5E
102
{ACAD_REACTORS
330
47
102
}
330
47
100
AcDbScale
 70
     0
300
1/8" = 1'-0"
140
0.125
141
12.0
290
     0
  0
SCALE
  5
5F
102
{ACAD_REACTORS
330
47
102
}
330
47
100
AcDbScale
 70
     0
300
3/16" = 1'-0"
140
0.1875
141
12.0
290
     0
  0
SCALE
  5
60
102
{ACAD_REACTORS
330
47
102
}
330
47
100
AcDbScale
 70
     0
300
1/4" = 1'-0"
140
0.25
141
12.0
290
     0
  0
SCALE
  5
61
102
{ACAD_REACTORS
330
47
102
}
330
47
100
AcDbScale
 70
     0
300
3/8" = 1'-0"
140
0.375
141
12.0
290
     0
  0
SCALE
  5
62
102
{ACAD_REACTORS
330
47
102
}
330
47
100
AcDbScale
 70
     0
300
1/2" = 1'-0"
140
0.5
141
12.0
290
     0
  0
SCALE
  5
63
102
{ACAD_REACTORS
330
47
102
}
330
47
100
AcDbScale
 70
     0
300
3/4" = 1'-0"
140
0.75
141
12.0
290
     0
  0
SCALE
  5
64
102
{ACAD_REACTORS
330
47
102
}
330
47
100
AcDbScale
 70
     0
300
1" = 1'-0"
140
1.0
141
12.0
290
     0
  0
SCALE
  5
65
102
{ACAD_REACTORS
330
47
102
}
330
47
100
AcDbScale
 70
     0
300
1-1/2" = 1'-0"
140
1.5
141
12.0
290
     0
  0
SCALE
  5
66
102
{ACAD_REACTORS
330
47
102
}
330
47
100
AcDbScale
 70
     0
300
3" = 1'-0"
140
3.0
141
12.0
290
     0
  0
SCALE
  5
67
102
{ACAD_REACTORS
330
47
102
}
330
47
100
AcDbScale
 70
     0
300
6" = 1'-0"
140
6.0
141
12.0
290
     0
  0
SCALE
  5
68
102
{ACAD_REACTORS
330
47
102
}
330
47
100
AcDbScale
 70
     0
300
1'-0" = 1'-0"
140
12.0
141
12.0
290
     0
  0
ENDSEC
  0
EOF
