  0
SECTION
  2
HEADER
  9
$ACADVER
  1
AC1015
  9
$ACADMAINTVER
 70
     6
  9
$DWGCODEPAGE
  3
ANSI_1257
  9
$INSBASE
 10
0.0
 20
0.0
 30
0.0
  9
$EXTMIN
 10
-458.4309978798
 20
-613.4054324526
 30
0.0
  9
$EXTMAX
 10
884.1828058974999
 20
355.1109377046521
 30
0.0
  9
$LIMMIN
 10
0.0
 20
0.0
  9
$LIMMAX
 10
420.0
 20
297.0
  9
$ORTHOMODE
 70
     1
  9
$REGENMODE
 70
     1
  9
$FILLMODE
 70
     1
  9
$QTEXTMODE
 70
     0
  9
$MIRRTEXT
 70
     1
  9
$LTSCALE
 40
1.0
  9
$ATTMODE
 70
     1
  9
$TEXTSIZE
 40
5.6444444444
  9
$TRACEWID
 40
1.0
  9
$TEXTSTYLE
  7
Standard
  9
$CLAYER
  8
0
  9
$CELTYPE
  6
ByLayer
  9
$CECOLOR
 62
   256
  9
$CELTSCALE
 40
1.0
  9
$DISPSILH
 70
     0
  9
$DIMSCALE
 40
1.0
  9
$DIMASZ
 40
3.175
  9
$DIMEXO
 40
1.0
  9
$DIMDLI
 40
3.75
  9
$DIMRND
 40
0.0
  9
$DIMDLE
 40
0.0
  9
$DIMEXE
 40
1.0
  9
$DIMTP
 40
0.0
  9
$DIMTM
 40
0.0
  9
$DIMTXT
 40
4.9388888889
  9
$DIMCEN
 40
2.5
  9
$DIMTSZ
 40
0.0
  9
$DIMTOL
 70
     0
  9
$DIMLIM
 70
     0
  9
$DIMTIH
 70
     1
  9
$DIMTOH
 70
     1
  9
$DIMSE1
 70
     0
  9
$DIMSE2
 70
     0
  9
$DIMTAD
 70
     1
  9
$DIMZIN
 70
     0
  9
$DIMBLK
  1

  9
$DIMASO
 70
     1
  9
$DIMSHO
 70
     1
  9
$DIMPOST
  1

  9
$DIMAPOST
  1

  9
$DIMALT
 70
     0
  9
$DIMALTD
 70
     3
  9
$DIMALTF
 40
0.0393700787
  9
$DIMLFAC
 40
1.0
  9
$DIMTOFL
 70
     1
  9
$DIMTVP
 40
0.0
  9
$DIMTIX
 70
     0
  9
$DIMSOXD
 70
     0
  9
$DIMSAH
 70
     0
  9
$DIMBLK1
  1

  9
$DIMBLK2
  1

  9
$DIMSTYLE
  2
ISO-25
  9
$DIMCLRD
 70
     0
  9
$DIMCLRE
 70
     0
  9
$DIMCLRT
 70
     0
  9
$DIMTFAC
 40
1.0
  9
$DIMGAP
 40
1.524
  9
$DIMJUST
 70
     0
  9
$DIMSD1
 70
     0
  9
$DIMSD2
 70
     0
  9
$DIMTOLJ
 70
     0
  9
$DIMTZIN
 70
     0
  9
$DIMALTZ
 70
     0
  9
$DIMALTTZ
 70
     0
  9
$DIMUPT
 70
     0
  9
$DIMDEC
 70
     1
  9
$DIMTDEC
 70
     1
  9
$DIMALTU
 70
     2
  9
$DIMALTTD
 70
     3
  9
$DIMTXSTY
  7
Standard
  9
$DIMAUNIT
 70
     0
  9
$DIMADEC
 70
     1
  9
$DIMALTRND
 40
0.0
  9
$DIMAZIN
 70
     0
  9
$DIMDSEP
 70
    44
  9
$DIMATFIT
 70
     3
  9
$DIMFRAC
 70
     0
  9
$DIMLDRBLK
  1

  9
$DIMLUNIT
 70
     2
  9
$DIMLWD
 70
    -2
  9
$DIMLWE
 70
    -2
  9
$DIMTMOVE
 70
     0
  9
$LUNITS
 70
     2
  9
$LUPREC
 70
     1
  9
$SKETCHINC
 40
1.0
  9
$FILLETRAD
 40
10.0
  9
$AUNITS
 70
     0
  9
$AUPREC
 70
     1
  9
$MENU
  1
.
  9
$ELEVATION
 40
0.0
  9
$PELEVATION
 40
0.0
  9
$THICKNESS
 40
0.0
  9
$LIMCHECK
 70
     0
  9
$CHAMFERA
 40
0.0
  9
$CHAMFERB
 40
0.0
  9
$CHAMFERC
 40
0.0
  9
$CHAMFERD
 40
0.0
  9
$SKPOLY
 70
     0
  9
$TDCREATE
 40
2459178.66056963
  9
$TDUCREATE
 40
2459178.577236296
  9
$TDUPDATE
 40
2459178.663856482
  9
$TDUUPDATE
 40
2459178.580523148
  9
$TDINDWG
 40
0.0002809028
  9
$TDUSRTIMER
 40
0.0002808912
  9
$USRTIMER
 70
     1
  9
$ANGBASE
 50
0.0
  9
$ANGDIR
 70
     0
  9
$PDMODE
 70
     0
  9
$PDSIZE
 40
-1.0
  9
$PLINEWID
 40
0.0
  9
$SPLFRAME
 70
     0
  9
$SPLINETYPE
 70
     6
  9
$SPLINESEGS
 70
     8
  9
$HANDSEED
  5
43C
  9
$SURFTAB1
 70
     6
  9
$SURFTAB2
 70
     6
  9
$SURFTYPE
 70
     6
  9
$SURFU
 70
     6
  9
$SURFV
 70
     6
  9
$UCSBASE
  2

  9
$UCSNAME
  2

  9
$UCSORG
 10
0.0
 20
0.0
 30
0.0
  9
$UCSXDIR
 10
1.0
 20
0.0
 30
0.0
  9
$UCSYDIR
 10
0.0
 20
1.0
 30
0.0
  9
$UCSORTHOREF
  2

  9
$UCSORTHOVIEW
 70
     0
  9
$UCSORGTOP
 10
0.0
 20
0.0
 30
0.0
  9
$UCSORGBOTTOM
 10
0.0
 20
0.0
 30
0.0
  9
$UCSORGLEFT
 10
0.0
 20
0.0
 30
0.0
  9
$UCSORGRIGHT
 10
0.0
 20
0.0
 30
0.0
  9
$UCSORGFRONT
 10
0.0
 20
0.0
 30
0.0
  9
$UCSORGBACK
 10
0.0
 20
0.0
 30
0.0
  9
$PUCSBASE
  2

  9
$PUCSNAME
  2

  9
$PUCSORG
 10
0.0
 20
0.0
 30
0.0
  9
$PUCSXDIR
 10
1.0
 20
0.0
 30
0.0
  9
$PUCSYDIR
 10
0.0
 20
1.0
 30
0.0
  9
$PUCSORTHOREF
  2

  9
$PUCSORTHOVIEW
 70
     0
  9
$PUCSORGTOP
 10
0.0
 20
0.0
 30
0.0
  9
$PUCSORGBOTTOM
 10
0.0
 20
0.0
 30
0.0
  9
$PUCSORGLEFT
 10
0.0
 20
0.0
 30
0.0
  9
$PUCSORGRIGHT
 10
0.0
 20
0.0
 30
0.0
  9
$PUCSORGFRONT
 10
0.0
 20
0.0
 30
0.0
  9
$PUCSORGBACK
 10
0.0
 20
0.0
 30
0.0
  9
$USERI1
 70
     0
  9
$USERI2
 70
     0
  9
$USERI3
 70
     0
  9
$USERI4
 70
     0
  9
$USERI5
 70
     0
  9
$USERR1
 40
0.0
  9
$USERR2
 40
0.0
  9
$USERR3
 40
0.0
  9
$USERR4
 40
0.0
  9
$USERR5
 40
0.0
  9
$WORLDVIEW
 70
     1
  9
$SHADEDGE
 70
     3
  9
$SHADEDIF
 70
    70
  9
$TILEMODE
 70
     1
  9
$MAXACTVP
 70
    64
  9
$PINSBASE
 10
0.0
 20
0.0
 30
0.0
  9
$PLIMCHECK
 70
     0
  9
$PEXTMIN
 10
1.000000000000000E+20
 20
1.000000000000000E+20
 30
1.000000000000000E+20
  9
$PEXTMAX
 10
-1.000000000000000E+20
 20
-1.000000000000000E+20
 30
-1.000000000000000E+20
  9
$PLIMMIN
 10
0.0
 20
0.0
  9
$PLIMMAX
 10
0.0
 20
0.0
  9
$UNITMODE
 70
     0
  9
$VISRETAIN
 70
     1
  9
$PLINEGEN
 70
     0
  9
$PSLTSCALE
 70
     1
  9
$TREEDEPTH
 70
  3020
  9
$CMLSTYLE
  2
Standard
  9
$CMLJUST
 70
     0
  9
$CMLSCALE
 40
20.0
  9
$PROXYGRAPHICS
 70
     1
  9
$MEASUREMENT
 70
     1
  9
$CELWEIGHT
370
    -1
  9
$ENDCAPS
280
     0
  9
$JOINSTYLE
280
     0
  9
$LWDISPLAY
290
     1
  9
$INSUNITS
 70
     4
  9
$HYPERLINKBASE
  1

  9
$STYLESHEET
  1

  9
$XEDIT
290
     1
  9
$CEPSNTYPE
380
     0
  9
$PSTYLEMODE
290
     1
  9
$FINGERPRINTGUID
  2
{5dc1f33d-b4e6-43ce-b7ff-12fc7c83b0e1}
  9
$VERSIONGUID
  2
{FAEB1C32-E019-11D5-929B-00C0DF256EC4}
  9
$EXTNAMES
290
     1
  9
$PSVPSCALE
 40
0.0
  9
$OLESTARTUP
290
     0
  0
ENDSEC
  0
SECTION
  2
CLASSES
  0
CLASS
  1
ACDBDICTIONARYWDFLT
  2
AcDbDictionaryWithDefault
  3
ObjectDBX Classes
 90
        0
280
     0
281
     0
  0
CLASS
  1
VISUALSTYLE
  2
AcDbVisualStyle
  3
ObjectDBX Classes
 90
     4095
280
     0
281
     0
  0
CLASS
  1
MATERIAL
  2
AcDbMaterial
  3
ObjectDBX Classes
 90
     1153
280
     0
281
     0
  0
CLASS
  1
SCALE
  2
AcDbScale
  3
ObjectDBX Classes
 90
     1153
280
     0
281
     0
  0
CLASS
  1
TABLESTYLE
  2
AcDbTableStyle
  3
ObjectDBX Classes
 90
     4095
280
     0
281
     0
  0
CLASS
  1
MLEADERSTYLE
  2
AcDbMLeaderStyle
  3
ACDB_MLEADERSTYLE_CLASS
 90
     4095
280
     0
281
     0
  0
CLASS
  1
SUN
  2
AcDbSun
  3
SCENEOE
 90
     1153
280
     0
281
     0
  0
CLASS
  1
ACDBPLACEHOLDER
  2
AcDbPlaceHolder
  3
ObjectDBX Classes
 90
        0
280
     0
281
     0
  0
CLASS
  1
LAYOUT
  2
AcDbLayout
  3
ObjectDBX Classes
 90
        0
280
     0
281
     0
  0
ENDSEC
  0
SECTION
  2
TABLES
  0
TABLE
  2
VPORT
  5
8
330
0
100
AcDbSymbolTable
 70
     1
  0
VPORT
  5
29
330
8
100
AcDbSymbolTableRecord
100
AcDbViewportTableRecord
  2
*Active
 70
     0
 10
0.0
 20
0.0
 11
1.0
 21
1.0
 12
371.2548669246713
 22
-79.89488691552111
 13
0.0
 23
0.0
 14
10.0
 24
10.0
 15
10.0
 25
10.0
 16
0.0
 26
0.0
 36
1.0
 17
0.0
 27
0.0
 37
0.0
 40
1416.206359863279
 41
1.912558139534884
 42
50.0
 43
0.0
 44
0.0
 50
0.0
 51
0.0
 71
    16
 72
  2000
 73
     1
 74
     3
 75
     0
 76
     0
 77
     0
 78
     0
281
     0
 65
     1
110
0.0
120
0.0
130
0.0
111
1.0
121
0.0
131
0.0
112
0.0
122
1.0
132
0.0
 79
     0
146
0.0
  0
ENDTAB
  0
TABLE
  2
LTYPE
  5
5
330
0
100
AcDbSymbolTable
 70
     6
  0
LTYPE
  5
14
330
5
100
AcDbSymbolTableRecord
100
AcDbLinetypeTableRecord
  2
ByBlock
 70
     0
  3

 72
    65
 73
     0
 40
0.0
  0
LTYPE
  5
15
330
5
100
AcDbSymbolTableRecord
100
AcDbLinetypeTableRecord
  2
ByLayer
 70
     0
  3

 72
    65
 73
     0
 40
0.0
  0
LTYPE
  5
16
330
5
100
AcDbSymbolTableRecord
100
AcDbLinetypeTableRecord
  2
Continuous
 70
     0
  3
Solid line
 72
    65
 73
     0
 40
0.0
  0
LTYPE
  5
6E
330
5
100
AcDbSymbolTableRecord
100
AcDbLinetypeTableRecord
  2
HIDDEN
 70
     0
  3
Hidden __ __ __ __ __ __ __ __ __ __ __ __ __ __
 72
    65
 73
     2
 40
1.905
 49
1.27
 74
     0
 49
-0.635
 74
     0
  0
LTYPE
  5
6F
330
5
100
AcDbSymbolTableRecord
100
AcDbLinetypeTableRecord
  2
PHANTOM
 70
     0
  3
Phantom ______  __  __  ______  __  __  ______
 72
    65
 73
     6
 40
12.7
 49
6.35
 74
     0
 49
-1.27
 74
     0
 49
1.27
 74
     0
 49
-1.27
 74
     0
 49
1.27
 74
     0
 49
-1.27
 74
     0
  0
LTYPE
  5
70
330
5
100
AcDbSymbolTableRecord
100
AcDbLinetypeTableRecord
  2
CENTER
 70
     0
  3
Center ____ _ ____ _ ____ _ ____ _ ____ _ ____
 72
    65
 73
     4
 40
10.16
 49
6.35
 74
     0
 49
-1.27
 74
     0
 49
1.27
 74
     0
 49
-1.27
 74
     0
  0
LTYPE
  5
71
330
5
100
AcDbSymbolTableRecord
100
AcDbLinetypeTableRecord
  2
CENTERX2
 70
     0
  3
Center (2x) ________  __  ________  __  _____
 72
    65
 73
     4
 40
20.32
 49
12.7
 74
     0
 49
-2.54
 74
     0
 49
2.54
 74
     0
 49
-2.54
 74
     0
  0
LTYPE
  5
72
330
5
100
AcDbSymbolTableRecord
100
AcDbLinetypeTableRecord
  2
DOT2
 70
     0
  3
Dot (.5x) ........................................
 72
    65
 73
     2
 40
0.635
 49
0.0
 74
     0
 49
-0.635
 74
     0
  0
ENDTAB
  0
TABLE
  2
LAYER
  5
2
330
0
100
AcDbSymbolTable
 70
     2
  0
LAYER
  5
10
330
2
100
AcDbSymbolTableRecord
100
AcDbLayerTableRecord
  2
0
 70
     0
 62
     7
  6
Continuous
370
    -3
390
F
  0
LAYER
  5
73
330
2
100
AcDbSymbolTableRecord
100
AcDbLayerTableRecord
  2
LENKIMO
 70
     0
 62
     1
  6
CENTERX2
370
    -3
390
F
  0
ENDTAB
  0
TABLE
  2
STYLE
  5
3
330
0
100
AcDbSymbolTable
 70
     1
  0
STYLE
  5
11
330
3
100
AcDbSymbolTableRecord
100
AcDbTextStyleTableRecord
  2
Standard
 70
     0
 40
0.0
 41
1.0
 50
0.0
 71
     0
 42
5.6444444444
  3
txt
  4

  0
ENDTAB
  0
TABLE
  2
VIEW
  5
6
330
0
100
AcDbSymbolTable
 70
     0
  0
ENDTAB
  0
TABLE
  2
UCS
  5
7
330
0
100
AcDbSymbolTable
 70
     0
  0
ENDTAB
  0
TABLE
  2
APPID
  5
9
330
0
100
AcDbSymbolTable
 70
     1
  0
APPID
  5
12
330
9
100
AcDbSymbolTableRecord
100
AcDbRegAppTableRecord
  2
ACAD
 70
     0
  0
ENDTAB
  0
TABLE
  2
DIMSTYLE
  5
A
330
0
100
AcDbSymbolTable
 70
     5
100
AcDbDimStyleTable
  0
DIMSTYLE
105
27
330
A
100
AcDbSymbolTableRecord
100
AcDbDimStyleTableRecord
  2
ISO-25
 70
     0
 41
2.5
 42
0.625
 43
3.75
 44
1.25
 73
     0
 74
     0
 77
     1
 78
     8
140
2.5
141
2.5
143
0.0393700787
147
0.625
171
     3
172
     1
178
     0
271
     2
272
     2
274
     3
278
    44
283
     0
284
     8
340
11
  0
DIMSTYLE
105
3F3
330
A
100
AcDbSymbolTableRecord
100
AcDbDimStyleTableRecord
  2
SLDDIMSTYLE1
 70
     0
 41
4.0
 44
0.0
 45
0.000000001
 73
     0
 77
     1
 78
    12
140
2.6458333333
144
10.0
147
0.6614583333000001
173
     1
178
     0
340
11
  0
DIMSTYLE
105
3F4
330
A
100
AcDbSymbolTableRecord
100
AcDbDimStyleTableRecord
  2
SLDDIMSTYLE2
 70
     0
 41
4.0
 44
0.0
 45
0.000000001
 73
     0
 77
     1
 78
    12
140
2.6458333333
144
10.0
147
0.6614583333000001
173
     1
178
     0
340
11
  0
DIMSTYLE
105
3F5
330
A
100
AcDbSymbolTableRecord
100
AcDbDimStyleTableRecord
  2
SLDDIMSTYLE3
 70
     0
 41
4.0
 44
0.0
 45
0.000000001
146
4.0
147
0.0
173
     1
178
     0
340
11
  0
DIMSTYLE
105
3F6
330
A
100
AcDbSymbolTableRecord
100
AcDbDimStyleTableRecord
  2
SLDDIMSTYLE4
 70
     0
 41
4.0
 44
0.0
 73
     0
 77
     1
 78
    12
140
2.6458333333
144
7.5
147
0.6614583333000001
173
     1
178
     0
340
11
  0
ENDTAB
  0
TABLE
  2
BLOCK_RECORD
  5
1
330
0
100
AcDbSymbolTable
 70
     6
  0
BLOCK_RECORD
  5
1F
102
{ACAD_XDICTIONARY
360
439
102
}
330
1
100
AcDbSymbolTableRecord
100
AcDbBlockTableRecord
  2
*Model_Space
340
22
  0
BLOCK_RECORD
  5
1B
330
1
100
AcDbSymbolTableRecord
100
AcDbBlockTableRecord
  2
*Paper_Space
340
1E
  0
BLOCK_RECORD
  5
23
330
1
100
AcDbSymbolTableRecord
100
AcDbBlockTableRecord
  2
*Paper_Space0
340
26
  0
BLOCK_RECORD
  5
74
330
1
100
AcDbSymbolTableRecord
100
AcDbBlockTableRecord
  2
Block11_2
340
0
  0
BLOCK_RECORD
  5
401
330
1
100
AcDbSymbolTableRecord
100
AcDbBlockTableRecord
  2
*U3
340
0
102
{BLKREFS
331
400
331
427
102
}
  0
BLOCK_RECORD
  5
40D
330
1
100
AcDbSymbolTableRecord
100
AcDbBlockTableRecord
  2
*U4
340
0
102
{BLKREFS
331
40C
331
42F
102
}
  0
BLOCK_RECORD
  5
419
330
1
100
AcDbSymbolTableRecord
100
AcDbBlockTableRecord
  2
*U5
340
0
102
{BLKREFS
331
418
331
437
102
}
  0
BLOCK_RECORD
  5
41E
330
1
100
AcDbSymbolTableRecord
100
AcDbBlockTableRecord
  2
*U6
340
0
102
{BLKREFS
331
41D
331
438
102
}
  0
ENDTAB
  0
ENDSEC
  0
SECTION
  2
BLOCKS
  0
BLOCK
  5
20
330
1F
100
AcDbEntity
  8
0
100
AcDbBlockBegin
  2
*Model_Space
 70
     0
 10
0.0
 20
0.0
 30
0.0
  3
*Model_Space
  1

  0
ENDBLK
  5
21
330
1F
100
AcDbEntity
  8
0
100
AcDbBlockEnd
  0
BLOCK
  5
1C
330
1B
100
AcDbEntity
 67
     1
  8
0
100
AcDbBlockBegin
  2
*Paper_Space
 70
     0
 10
0.0
 20
0.0
 30
0.0
  3
*Paper_Space
  1

  0
ENDBLK
  5
1D
330
1B
100
AcDbEntity
 67
     1
  8
0
100
AcDbBlockEnd
  0
BLOCK
  5
24
330
23
100
AcDbEntity
  8
0
100
AcDbBlockBegin
  2
*Paper_Space0
 70
     0
 10
0.0
 20
0.0
 30
0.0
  3
*Paper_Space0
  1

  0
ENDBLK
  5
25
330
23
100
AcDbEntity
  8
0
100
AcDbBlockEnd
  0
BLOCK
  5
75
330
74
100
AcDbEntity
  8
0
100
AcDbBlockBegin
  2
Block11_2
 70
     0
 10
0.0
 20
0.0
 30
0.0
  3
Block11_2
  1

  0
LINE
  5
77
330
74
100
AcDbEntity
  8
0
  6
Continuous
100
AcDbLine
 10
-15.7956326374
 20
2.3055746011
 30
0.0
 11
-18.0649288667
 21
1.8146036087
 31
0.0
  0
LINE
  5
78
330
74
100
AcDbEntity
  8
0
  6
Continuous
100
AcDbLine
 10
-15.6988785554
 20
-9.1195335787
 30
0.0
 11
-10.2261014967
 21
-7.9354771524
 31
0.0
  0
LINE
  5
79
330
74
100
AcDbEntity
  8
0
  6
Continuous
100
AcDbLine
 10
-10.2261014967
 20
-7.9354771524
 30
0.0
 11
-10.6655808869
 21
-5.9041780766
 31
0.0
  0
LINE
  5
7A
330
74
100
AcDbEntity
  8
0
  6
Continuous
100
AcDbLine
 10
-10.6655808869
 20
-5.9041780766
 30
0.0
 11
-13.8699456036
 21
-6.5974547429
 31
0.0
  0
LINE
  5
7B
330
74
100
AcDbEntity
  8
0
  6
Continuous
100
AcDbLine
 10
-8.296070931
 20
1.802048972
 30
0.0
 11
-6.9198111955
 21
2.0998080743
 31
0.0
  0
LINE
  5
7C
330
74
100
AcDbEntity
  8
0
  6
Continuous
100
AcDbLine
 10
-5.4333831358
 20
-4.7719736412
 30
0.0
 11
-6.8095376466
 21
-5.0697099777
 31
0.0
  0
LINE
  5
7D
330
74
100
AcDbEntity
  8
0
  6
Continuous
100
AcDbLine
 10
-11.0044904538
 20
3.3421566929
 30
0.0
 11
-8.6388294738
 21
-7.5920647278
 31
0.0
  0
LINE
  5
7E
330
74
100
AcDbEntity
  8
0
  6
Continuous
100
AcDbLine
 10
-8.6388294738
 20
-7.5920647278
 30
0.0
 11
-8.6384401425
 21
-7.5919804944
 31
0.0
  0
LINE
  5
7F
330
74
100
AcDbEntity
  8
0
  6
Continuous
100
AcDbLine
 10
-8.6384401425
 20
-7.5919804944
 30
0.0
 11
-4.4940245505
 21
-6.6953201952
 31
0.0
  0
LINE
  5
80
330
74
100
AcDbEntity
  8
0
  6
Continuous
100
AcDbLine
 10
-6.8595855671
 20
4.238922853
 30
0.0
 11
-11.0044904538
 21
3.3421566929
 31
0.0
  0
LINE
  5
81
330
74
100
AcDbEntity
  8
0
  6
Continuous
100
AcDbLine
 10
-32.9933593229
 20
-3.3005605139
 30
0.0
 11
-32.8591663041
 21
-3.2715273367
 31
0.0
  0
LINE
  5
82
330
74
100
AcDbEntity
  8
0
  6
Continuous
100
AcDbLine
 10
-31.5697721187
 20
-3.9678201523
 30
0.0
 11
-29.2969561243
 21
-3.4760876451
 31
0.0
  0
LINE
  5
83
330
74
100
AcDbEntity
  8
0
  6
Continuous
100
AcDbLine
 10
-33.2794920496
 20
-1.2667721217
 30
0.0
 11
-33.3448839193
 21
-1.2809199049
 31
0.0
  0
LINE
  5
84
330
74
100
AcDbEntity
  8
0
  6
Continuous
100
AcDbLine
 10
-31.3289079349
 20
-10.5856399919
 30
0.0
 11
-31.4650581325
 21
-10.6150966123
 31
0.0
  0
LINE
  5
85
330
74
100
AcDbEntity
  8
0
  6
Continuous
100
AcDbLine
 10
-32.8822392925
 20
-9.9377601564
 30
0.0
 11
-35.1888692339
 21
-10.4368084414
 31
0.0
  0
LINE
  5
86
330
74
100
AcDbEntity
  8
0
  6
Continuous
100
AcDbLine
 10
-31.5949683304
 20
-12.7295787952
 30
0.0
 11
-30.2063920476
 21
-12.4291549603
 31
0.0
  0
LINE
  5
87
330
74
100
AcDbEntity
  8
0
  6
Continuous
100
AcDbLine
 10
6.262509235
 20
-4.3681026205
 30
0.0
 11
8.6370616994
 21
-3.8543590356
 31
0.0
  0
LINE
  5
88
330
74
100
AcDbEntity
  8
0
  6
Continuous
100
AcDbLine
 10
8.6370616994
 20
-3.8543590356
 30
0.0
 11
3.9059396663
 21
6.5680857621
 31
0.0
  0
LINE
  5
89
330
74
100
AcDbEntity
  8
0
  6
Continuous
100
AcDbLine
 10
3.9059396663
 20
6.5680857621
 30
0.0
 11
0.0
 21
5.7230206493
 31
0.0
  0
LINE
  5
8A
330
74
100
AcDbEntity
  8
0
  6
Continuous
100
AcDbLine
 10
0.0
 20
5.7230206493
 30
0.0
 11
0.0
 21
-5.7230206493
 31
0.0
  0
LINE
  5
8B
330
74
100
AcDbEntity
  8
0
  6
Continuous
100
AcDbLine
 10
0.0
 20
-5.7230206493
 30
0.0
 11
2.3746576891
 21
-5.2092542987
 31
0.0
  0
LINE
  5
8C
330
74
100
AcDbEntity
  8
0
  6
Continuous
100
AcDbLine
 10
2.3746576891
 20
-5.2092542987
 30
0.0
 11
2.3747844598
 21
-3.0912381741
 31
0.0
  0
LINE
  5
8D
330
74
100
AcDbEntity
  8
0
  6
Continuous
100
AcDbLine
 10
2.3747844598
 20
-3.0912381741
 30
0.0
 11
4.0318309599
 21
-2.7327297722
 31
0.0
  0
LINE
  5
8E
330
74
100
AcDbEntity
  8
0
  6
Continuous
100
AcDbLine
 10
4.0318309599
 20
-2.7327297722
 30
0.0
 11
3.5923515697
 21
-0.7014306964
 31
0.0
  0
LINE
  5
8F
330
74
100
AcDbEntity
  8
0
  6
Continuous
100
AcDbLine
 10
3.5923515697
 20
-0.7014306964
 30
0.0
 11
2.3750284336
 21
-0.9648032524
 31
0.0
  0
LINE
  5
90
330
74
100
AcDbEntity
  8
0
  6
Continuous
100
AcDbLine
 10
2.3750284336
 20
-0.9648032524
 30
0.0
 11
2.3752084601
 21
4.1936873712
 31
0.0
  0
LINE
  5
91
330
74
100
AcDbEntity
  8
0
  6
Continuous
100
AcDbLine
 10
2.3752084601
 20
4.1936873712
 30
0.0
 11
6.262509235
 21
-4.3681026205
 31
0.0
  0
LINE
  5
92
330
74
100
AcDbEntity
  8
0
  6
Continuous
100
AcDbLine
 10
-53.0629352118
 20
-11.4801779454
 30
0.0
 11
-50.7945341276
 21
-8.0228043203
 31
0.0
  0
LINE
  5
93
330
74
100
AcDbEntity
  8
0
  6
Continuous
100
AcDbLine
 10
-50.7945341276
 20
-8.0228043203
 30
0.0
 11
-54.2891069366
 21
-5.8122833411
 31
0.0
  0
LINE
  5
94
330
74
100
AcDbEntity
  8
0
  6
Continuous
100
AcDbLine
 10
-54.2891069366
 20
-5.8122833411
 30
0.0
 11
-51.4073820962
 21
-5.1888110564
 31
0.0
  0
LINE
  5
95
330
74
100
AcDbEntity
  8
0
  6
Continuous
100
AcDbLine
 10
-51.4073820962
 20
-5.1888110564
 30
0.0
 11
-47.9127327975
 21
-7.3992273667
 31
0.0
  0
LINE
  5
96
330
74
100
AcDbEntity
  8
0
  6
Continuous
100
AcDbLine
 10
-47.9127327975
 20
-7.3992273667
 30
0.0
 11
-50.1813587974
 21
-10.8569360435
 31
0.0
  0
LINE
  5
97
330
74
100
AcDbEntity
  8
0
  6
Continuous
100
AcDbLine
 10
-50.1813587974
 20
-10.8569360435
 30
0.0
 11
-53.0628942334
 21
-11.4803673498
 31
0.0
  0
LINE
  5
98
330
74
100
AcDbEntity
  8
0
  6
Continuous
100
AcDbLine
 10
-53.0628942334
 20
-11.4803673498
 30
0.0
 11
-53.0629352118
 21
-11.4801779454
 31
0.0
  0
LINE
  5
99
330
74
100
AcDbEntity
  8
0
  6
Continuous
100
AcDbLine
 10
-42.7624916815
 20
-3.31845567
 30
0.0
 11
-45.0307950789
 21
-6.7757971452
 31
0.0
  0
LINE
  5
9A
330
74
100
AcDbEntity
  8
0
  6
Continuous
100
AcDbLine
 10
-45.0307950789
 20
-6.7757971452
 30
0.0
 11
-48.5254573289
 21
-4.5652955168
 31
0.0
  0
LINE
  5
9B
330
74
100
AcDbEntity
  8
0
  6
Continuous
100
AcDbLine
 10
-48.5254573289
 20
-4.5652955168
 30
0.0
 11
-48.5257466967
 21
-4.5653581227
 31
0.0
  0
LINE
  5
9C
330
74
100
AcDbEntity
  8
0
  6
Continuous
100
AcDbLine
 10
-48.5257466967
 20
-4.5653581227
 30
0.0
 11
-47.9126146215
 21
-7.399289919
 31
0.0
  0
LINE
  5
9D
330
74
100
AcDbEntity
  8
0
  6
Continuous
100
AcDbLine
 10
-47.9126146215
 20
-7.399289919
 30
0.0
 11
-44.4177372167
 21
-9.6098441329
 31
0.0
  0
LINE
  5
9E
330
74
100
AcDbEntity
  8
0
  6
Continuous
100
AcDbLine
 10
-44.4177372167
 20
-9.6098441329
 30
0.0
 11
-42.1490649772
 21
-6.1523237222
 31
0.0
  0
LINE
  5
9F
330
74
100
AcDbEntity
  8
0
  6
Continuous
100
AcDbLine
 10
-42.1490649772
 20
-6.1523237222
 30
0.0
 11
-42.7621970524
 21
-3.3183919259
 31
0.0
  0
LINE
  5
A0
330
74
100
AcDbEntity
  8
0
  6
Continuous
100
AcDbLine
 10
-42.7621970524
 20
-3.3183919259
 30
0.0
 11
-42.7624916815
 21
-3.31845567
 31
0.0
  0
LINE
  5
A1
330
74
100
AcDbEntity
  8
0
  6
Continuous
100
AcDbLine
 10
-41.535889647
 20
-8.9864554454
 30
0.0
 11
-43.8045413973
 21
-12.4440705583
 31
0.0
  0
LINE
  5
A2
330
74
100
AcDbEntity
  8
0
  6
Continuous
100
AcDbLine
 10
-43.8045413973
 20
-12.4440705583
 30
0.0
 11
-40.3564529382
 21
-14.625159785
 31
0.0
  0
LINE
  5
A3
330
74
100
AcDbEntity
  8
0
  6
Continuous
100
AcDbLine
 10
-40.3564529382
 20
-14.625159785
 30
0.0
 11
-43.2382724808
 21
-15.2486525588
 31
0.0
  0
LINE
  5
A4
330
74
100
AcDbEntity
  8
0
  6
Continuous
100
AcDbLine
 10
-43.2382724808
 20
-15.2486525588
 30
0.0
 11
-46.686243472
 21
-13.0676480676
 31
0.0
  0
LINE
  5
A5
330
74
100
AcDbEntity
  8
0
  6
Continuous
100
AcDbLine
 10
-46.686243472
 20
-13.0676480676
 30
0.0
 11
-44.4177144509
 21
-9.6099493576
 31
0.0
  0
LINE
  5
A6
330
74
100
AcDbEntity
  8
0
  6
Continuous
100
AcDbLine
 10
-44.4177144509
 20
-9.6099493576
 30
0.0
 11
-41.535889647
 21
-8.9864554454
 31
0.0
  0
LINE
  5
A7
330
74
100
AcDbEntity
  8
0
  6
Continuous
100
AcDbLine
 10
-51.8063383656
 20
-17.1023866618
 30
0.0
 11
-49.5681857438
 21
-13.6910572443
 31
0.0
  0
LINE
  5
A8
330
74
100
AcDbEntity
  8
0
  6
Continuous
100
AcDbLine
 10
-49.5681857438
 20
-13.6910572443
 30
0.0
 11
-46.1199973213
 21
-15.8721248435
 31
0.0
  0
LINE
  5
A9
330
74
100
AcDbEntity
  8
0
  6
Continuous
100
AcDbLine
 10
-46.1199973213
 20
-15.8721248435
 30
0.0
 11
-46.0813956519
 21
-15.8637732234
 31
0.0
  0
LINE
  5
AA
330
74
100
AcDbEntity
  8
0
  6
Continuous
100
AcDbLine
 10
-46.0813956519
 20
-15.8637732234
 30
0.0
 11
-46.6863662012
 21
-13.0675644704
 31
0.0
  0
LINE
  5
AB
330
74
100
AcDbEntity
  8
0
  6
Continuous
100
AcDbLine
 10
-46.6863662012
 20
-13.0675644704
 30
0.0
 11
-50.1813587974
 21
-10.8569360435
 31
0.0
  0
LINE
  5
AC
330
74
100
AcDbEntity
  8
0
  6
Continuous
100
AcDbLine
 10
-50.1813587974
 20
-10.8569360435
 30
0.0
 11
-52.4497621582
 21
-14.3142991462
 31
0.0
  0
LINE
  5
AD
330
74
100
AcDbEntity
  8
0
  6
Continuous
100
AcDbLine
 10
-52.4497621582
 20
-14.3142991462
 30
0.0
 11
-51.8447506306
 21
-17.1106973035
 31
0.0
  0
LINE
  5
AE
330
74
100
AcDbEntity
  8
0
  6
Continuous
100
AcDbLine
 10
-51.8447506306
 20
-17.1106973035
 30
0.0
 11
-51.8063383656
 21
-17.1023866618
 31
0.0
  0
LINE
  5
AF
330
74
100
AcDbEntity
  8
0
  6
Continuous
100
AcDbLine
 10
-20.0432683672
 20
-10.0594590717
 30
0.0
 11
-17.6687053803
 21
-9.5457132103
 31
0.0
  0
LINE
  5
B0
330
74
100
AcDbEntity
  8
0
  6
Continuous
100
AcDbLine
 10
-17.6687053803
 20
-9.5457132103
 30
0.0
 11
-22.3998379359
 21
0.8767293109
 31
0.0
  0
LINE
  5
B1
330
74
100
AcDbEntity
  8
0
  6
Continuous
100
AcDbLine
 10
-22.3998379359
 20
0.8767293109
 30
0.0
 11
-26.3058670432
 21
0.0316448472
 31
0.0
  0
LINE
  5
B2
330
74
100
AcDbEntity
  8
0
  6
Continuous
100
AcDbLine
 10
-26.3058670432
 20
0.0316448472
 30
0.0
 11
-26.3056723775
 21
-11.4143543348
 31
0.0
  0
LINE
  5
B3
330
74
100
AcDbEntity
  8
0
  6
Continuous
100
AcDbLine
 10
-26.3056723775
 20
-11.4143543348
 30
0.0
 11
-23.9311146519
 21
-10.9006096116
 31
0.0
  0
LINE
  5
B4
330
74
100
AcDbEntity
  8
0
  6
Continuous
100
AcDbLine
 10
-23.9311146519
 20
-10.9006096116
 30
0.0
 11
-23.9309931424
 21
-8.7825946253
 31
0.0
  0
LINE
  5
B5
330
74
100
AcDbEntity
  8
0
  6
Continuous
100
AcDbLine
 10
-23.9309931424
 20
-8.7825946253
 30
0.0
 11
-22.2738308951
 21
-8.4240611811
 31
0.0
  0
LINE
  5
B6
330
74
100
AcDbEntity
  8
0
  6
Continuous
100
AcDbLine
 10
-22.2738308951
 20
-8.4240611811
 30
0.0
 11
-22.7133102854
 21
-6.3927621053
 31
0.0
  0
LINE
  5
B7
330
74
100
AcDbEntity
  8
0
  6
Continuous
100
AcDbLine
 10
-22.7133102854
 20
-6.3927621053
 30
0.0
 11
-23.9308333483
 21
-6.6561779162
 31
0.0
  0
LINE
  5
B8
330
74
100
AcDbEntity
  8
0
  6
Continuous
100
AcDbLine
 10
-23.9308333483
 20
-6.6561779162
 30
0.0
 11
-23.9305586196
 21
-1.4976668035
 31
0.0
  0
LINE
  5
B9
330
74
100
AcDbEntity
  8
0
  6
Continuous
100
AcDbLine
 10
-23.9305586196
 20
-1.4976668035
 30
0.0
 11
-20.0432683672
 21
-10.0594590717
 31
0.0
  0
SPLINE
  5
BA
330
74
100
AcDbEntity
  8
0
100
AcDbSpline
210
0.0
220
0.0
230
1.0
 70
     8
 71
     3
 72
     8
 73
     4
 74
     0
 42
0.000000001
 43
0.00000001
 40
0.0
 40
0.0
 40
0.0
 40
0.0
 40
1.0
 40
1.0
 40
1.0
 40
1.0
 10
-13.86994560355125
 20
-6.597454742918429
 30
0.0
 10
-13.88373254946556
 20
-6.53373068413859
 30
0.0
 10
-15.11365515797402
 20
-0.8489574873494021
 30
0.0
 10
-15.79563263740206
 20
2.305574601061459
 30
0.0
  0
SPLINE
  5
BB
330
74
100
AcDbEntity
  8
0
100
AcDbSpline
210
0.0
220
0.0
230
1.0
 70
     8
 71
     3
 72
     8
 73
     4
 74
     0
 42
0.000000001
 43
0.00000001
 40
2.0
 40
2.0
 40
2.0
 40
2.0
 40
3.0
 40
3.0
 40
3.0
 40
3.0
 10
-18.06492886668426
 20
1.814603608696524
 30
0.0
 10
-17.24003965005502
 20
-1.995739949107536
 30
0.0
 10
-15.71186186991051
 20
-9.059523950669432
 30
0.0
 10
-15.69887855542093
 20
-9.119533578677906
 30
0.0
  0
SPLINE
  5
BC
330
74
100
AcDbEntity
  8
0
100
AcDbSpline
210
0.0
220
0.0
230
1.0
 70
     8
 71
     3
 72
     8
 73
     4
 74
     0
 42
0.000000001
 43
0.00000001
 40
0.0
 40
0.0
 40
0.0
 40
0.0
 40
1.0
 40
1.0
 40
1.0
 40
1.0
 10
-6.809537646582547
 20
-5.069709977697404
 30
0.0
 10
-7.284290309572815
 20
-2.875375801708635
 30
0.0
 10
-7.897830097865885
 20
-0.0390758678013329
 30
0.0
 10
-8.296070930952649
 20
1.80204897196991
 30
0.0
  0
SPLINE
  5
BD
330
74
100
AcDbEntity
  8
0
100
AcDbSpline
210
0.0
220
0.0
230
1.0
 70
     8
 71
     3
 72
     8
 73
     4
 74
     0
 42
0.000000001
 43
0.00000001
 40
2.0
 40
2.0
 40
2.0
 40
2.0
 40
3.0
 40
3.0
 40
3.0
 40
3.0
 10
-6.919811195494074
 20
2.099808074263809
 30
0.0
 10
-6.228016878711183
 20
2.249480443098069
 30
0.0
 10
-5.547633595833446
 20
1.815851349115847
 30
0.0
 10
-5.399398884916104
 20
1.130701970100344
 30
0.0
  0
SPLINE
  5
BE
330
74
100
AcDbEntity
  8
0
100
AcDbSpline
210
0.0
220
0.0
230
1.0
 70
     8
 71
     3
 72
     8
 73
     4
 74
     0
 42
0.000000001
 43
0.00000001
 40
3.0
 40
3.0
 40
3.0
 40
3.0
 40
4.0
 40
4.0
 40
4.0
 40
4.0
 10
-5.399398884916104
 20
1.130701970100344
 30
0.0
 10
-5.107009087764085
 20
-0.2207405274728672
 30
0.0
 10
-4.711497421058354
 20
-2.048334586467611
 30
0.0
 10
-4.449160707297047
 20
-3.260870000165379
 30
0.0
  0
SPLINE
  5
BF
330
74
100
AcDbEntity
  8
0
100
AcDbSpline
210
0.0
220
0.0
230
1.0
 70
     8
 71
     3
 72
     8
 73
     4
 74
     0
 42
0.000000001
 43
0.00000001
 40
4.0
 40
4.0
 40
4.0
 40
4.0
 40
5.0
 40
5.0
 40
5.0
 40
5.0
 10
-4.449160707297047
 20
-3.260870000165379
 30
0.0
 10
-4.300905507193207
 20
-3.946114081381999
 30
0.0
 10
-4.741570606399121
 20
-4.622385452066122
 30
0.0
 10
-5.433383135791953
 20
-4.771973641166296
 30
0.0
  0
SPLINE
  5
C0
330
74
100
AcDbEntity
  8
0
100
AcDbSpline
210
0.0
220
0.0
230
1.0
 70
     8
 71
     3
 72
     8
 73
     4
 74
     0
 42
0.000000001
 43
0.00000001
 40
3.0
 40
3.0
 40
3.0
 40
3.0
 40
4.0
 40
4.0
 40
4.0
 40
4.0
 10
-4.494024550545999
 20
-6.695320195210662
 30
0.0
 10
-2.825524345390513
 20
-6.334333740063992
 30
0.0
 10
-1.762658323115034
 20
-4.702068307882374
 30
0.0
 10
-2.120071189640999
 20
-3.049576315093403
 30
0.0
  0
SPLINE
  5
C1
330
74
100
AcDbEntity
  8
0
100
AcDbSpline
210
0.0
220
0.0
230
1.0
 70
     8
 71
     3
 72
     8
 73
     4
 74
     0
 42
0.000000001
 43
0.00000001
 40
4.0
 40
4.0
 40
4.0
 40
4.0
 40
5.0
 40
5.0
 40
5.0
 40
5.0
 10
-2.120071189640999
 20
-3.049576315093403
 30
0.0
 10
-2.485983017556096
 20
-1.358310753073632
 30
0.0
 10
-2.867352798370483
 20
0.4044023583376265
 30
0.0
 10
-3.190995488197396
 20
1.900704823656681
 30
0.0
  0
SPLINE
  5
C2
330
74
100
AcDbEntity
  8
0
100
AcDbSpline
210
0.0
220
0.0
230
1.0
 70
     8
 71
     3
 72
     8
 73
     4
 74
     0
 42
0.000000001
 43
0.00000001
 40
5.0
 40
5.0
 40
5.0
 40
5.0
 40
6.0
 40
6.0
 40
6.0
 40
6.0
 10
-3.190995488197396
 20
1.900704823656681
 30
0.0
 10
-3.54857504695031
 20
3.553458157285876
 30
0.0
 10
-5.190901218780231
 20
4.599949148191988
 30
0.0
 10
-6.859585567104196
 20
4.238922852960538
 30
0.0
  0
SPLINE
  5
C3
330
74
100
AcDbEntity
  8
0
100
AcDbSpline
210
0.0
220
0.0
230
1.0
 70
     8
 71
     3
 72
     8
 73
     4
 74
     0
 42
0.000000001
 43
0.00000001
 40
0.0
 40
0.0
 40
0.0
 40
0.0
 40
1.0
 40
1.0
 40
1.0
 40
1.0
 10
-30.23703582864644
 20
-6.251438951366732
 30
0.0
 10
-30.9104300186728
 20
-6.015603382360459
 30
0.0
 10
-31.40848551125485
 20
-5.893156856121871
 30
0.0
 10
-32.67210357750635
 20
-5.496689523479785
 30
0.0
  0
SPLINE
  5
C4
330
74
100
AcDbEntity
  8
0
100
AcDbSpline
210
0.0
220
0.0
230
1.0
 70
     8
 71
     3
 72
     8
 73
     4
 74
     0
 42
0.000000001
 43
0.00000001
 40
1.0
 40
1.0
 40
1.0
 40
1.0
 40
2.0
 40
2.0
 40
2.0
 40
2.0
 10
-32.67210357750635
 20
-5.496689523479785
 30
0.0
 10
-33.03332194555517
 20
-5.383421617718132
 30
0.0
 10
-33.81210282496122
 20
-5.206692347750555
 30
0.0
 10
-33.94849250952588
 20
-4.576291363356936
 30
0.0
  0
SPLINE
  5
C5
330
74
100
AcDbEntity
  8
0
100
AcDbSpline
210
0.0
220
0.0
230
1.0
 70
     8
 71
     3
 72
     8
 73
     4
 74
     0
 42
0.000000001
 43
0.00000001
 40
2.0
 40
2.0
 40
2.0
 40
2.0
 40
3.0
 40
3.0
 40
3.0
 40
3.0
 10
-33.94849250952588
 20
-4.576291363356936
 30
0.0
 10
-34.11622381965225
 20
-3.801027578894063
 30
0.0
 10
-33.67528356585564
 20
-3.448097454184924
 30
0.0
 10
-32.99335932290604
 20
-3.30056051389548
 30
0.0
  0
SPLINE
  5
C6
330
74
100
AcDbEntity
  8
0
100
AcDbSpline
210
0.0
220
0.0
230
1.0
 70
     8
 71
     3
 72
     8
 73
     4
 74
     0
 42
0.000000001
 43
0.00000001
 40
4.0
 40
4.0
 40
4.0
 40
4.0
 40
5.0
 40
5.0
 40
5.0
 40
5.0
 10
-32.85916630414497
 20
-3.271527336675416
 30
0.0
 10
-32.2786944245911
 20
-3.14594000653005
 30
0.0
 10
-31.77109773641243
 20
-3.328116480283148
 30
0.0
 10
-31.56977211870437
 20
-3.967820152272103
 30
0.0
  0
SPLINE
  5
C7
330
74
100
AcDbEntity
  8
0
100
AcDbSpline
210
0.0
220
0.0
230
1.0
 70
     8
 71
     3
 72
     8
 73
     4
 74
     0
 42
0.000000001
 43
0.00000001
 40
6.0
 40
6.0
 40
6.0
 40
6.0
 40
7.0
 40
7.0
 40
7.0
 40
7.0
 10
-29.29695612428625
 20
-3.476087645143529
 30
0.0
 10
-29.68810071971012
 20
-1.866802583842748
 30
0.0
 10
-30.87776107222441
 20
-0.7599478056671497
 30
0.0
 10
-33.27949204955325
 20
-1.266772121690862
 30
0.0
  0
SPLINE
  5
C8
330
74
100
AcDbEntity
  8
0
100
AcDbSpline
210
0.0
220
0.0
230
1.0
 70
     8
 71
     3
 72
     8
 73
     4
 74
     0
 42
0.000000001
 43
0.00000001
 40
8.0
 40
8.0
 40
8.0
 40
8.0
 40
9.0
 40
9.0
 40
9.0
 40
9.0
 10
-33.34488391931659
 20
-1.280919904944554
 30
0.0
 10
-35.81152992452102
 20
-1.828202838410209
 30
0.0
 10
-36.33378487826545
 20
-3.54465012997844
 30
0.0
 10
-36.09207577942843
 20
-4.962606301827474
 30
0.0
  0
SPLINE
  5
C9
330
74
100
AcDbEntity
  8
0
100
AcDbSpline
210
0.0
220
0.0
230
1.0
 70
     8
 71
     3
 72
     8
 73
     4
 74
     0
 42
0.000000001
 43
0.00000001
 40
9.0
 40
9.0
 40
9.0
 40
9.0
 40
10.0
 40
10.0
 40
10.0
 40
10.0
 10
-36.09207577942843
 20
-4.962606301827474
 30
0.0
 10
-35.83736690020325
 20
-6.457652824126185
 30
0.0
 10
-34.96800490008025
 20
-7.196828812263726
 30
0.0
 10
-33.99931718292642
 20
-7.502708028683521
 30
0.0
  0
SPLINE
  5
CA
330
74
100
AcDbEntity
  8
0
100
AcDbSpline
210
0.0
220
0.0
230
1.0
 70
     8
 71
     3
 72
     8
 73
     4
 74
     0
 42
0.000000001
 43
0.00000001
 40
10.0
 40
10.0
 40
10.0
 40
10.0
 40
11.0
 40
11.0
 40
11.0
 40
11.0
 10
-33.99931718292642
 20
-7.502708028683521
 30
0.0
 10
-33.40907414696034
 20
-7.689011641945549
 30
0.0
 10
-32.48616403135102
 20
-7.975318844696811
 30
0.0
 10
-31.47547483016511
 20
-8.271505052332133
 30
0.0
  0
SPLINE
  5
CB
330
74
100
AcDbEntity
  8
0
100
AcDbSpline
210
0.0
220
0.0
230
1.0
 70
     8
 71
     3
 72
     8
 73
     4
 74
     0
 42
0.000000001
 43
0.00000001
 40
11.0
 40
11.0
 40
11.0
 40
11.0
 40
12.0
 40
12.0
 40
12.0
 40
12.0
 10
-31.47547483016511
 20
-8.271505052332133
 30
0.0
 10
-31.11213516930565
 20
-8.377980375833697
 30
0.0
 10
-30.40258052645035
 20
-8.55729511966404
 30
0.0
 10
-30.28870163819746
 20
-9.336631754491275
 30
0.0
  0
SPLINE
  5
CC
330
74
100
AcDbEntity
  8
0
100
AcDbSpline
210
0.0
220
0.0
230
1.0
 70
     8
 71
     3
 72
     8
 73
     4
 74
     0
 42
0.000000001
 43
0.00000001
 40
12.0
 40
12.0
 40
12.0
 40
12.0
 40
13.0
 40
13.0
 40
13.0
 40
13.0
 10
-30.28870163819746
 20
-9.336631754491275
 30
0.0
 10
-30.1883718252622
 20
-10.02498578462436
 30
0.0
 10
-30.64014408852681
 20
-10.43662327702193
 30
0.0
 10
-31.32890793487913
 20
-10.58563999188937
 30
0.0
  0
SPLINE
  5
CD
330
74
100
AcDbEntity
  8
0
100
AcDbSpline
210
0.0
220
0.0
230
1.0
 70
     8
 71
     3
 72
     8
 73
     4
 74
     0
 42
0.000000001
 43
0.00000001
 40
14.0
 40
14.0
 40
14.0
 40
14.0
 40
15.0
 40
15.0
 40
15.0
 40
15.0
 10
-31.46505813246006
 20
-10.61509661229636
 30
0.0
 10
-32.05208024758041
 20
-10.74210111117219
 30
0.0
 10
-32.71260096537058
 20
-10.55064660173623
 30
0.0
 10
-32.8822392924921
 20
-9.937760156430087
 30
0.0
  0
SPLINE
  5
CE
330
74
100
AcDbEntity
  8
0
100
AcDbSpline
210
0.0
220
0.0
230
1.0
 70
     8
 71
     3
 72
     8
 73
     4
 74
     0
 42
0.000000001
 43
0.00000001
 40
16.0
 40
16.0
 40
16.0
 40
16.0
 40
17.0
 40
17.0
 40
17.0
 40
17.0
 10
-35.1888692338865
 20
-10.43680844141459
 30
0.0
 10
-34.81471685749703
 20
-11.8843133271045
 30
0.0
 10
-33.72975075395794
 20
-12.95131992706823
 30
0.0
 10
-31.59496833044066
 20
-12.72957879515504
 30
0.0
  0
SPLINE
  5
CF
330
74
100
AcDbEntity
  8
0
100
AcDbSpline
210
0.0
220
0.0
230
1.0
 70
     8
 71
     3
 72
     8
 73
     4
 74
     0
 42
0.000000001
 43
0.00000001
 40
18.0
 40
18.0
 40
18.0
 40
18.0
 40
19.0
 40
19.0
 40
19.0
 40
19.0
 10
-30.20639204762402
 20
-12.42915496033268
 30
0.0
 10
-28.36320980349184
 20
-11.79454394754582
 30
0.0
 10
-27.78707037380765
 20
-10.41512978795686
 30
0.0
 10
-27.91988511866083
 20
-9.073464993912006
 30
0.0
  0
SPLINE
  5
D0
330
74
100
AcDbEntity
  8
0
100
AcDbSpline
210
0.0
220
0.0
230
1.0
 70
     8
 71
     3
 72
     8
 73
     4
 74
     0
 42
0.000000001
 43
0.00000001
 40
19.0
 40
19.0
 40
19.0
 40
19.0
 40
20.0
 40
20.0
 40
20.0
 40
20.0
 10
-27.91988511866083
 20
-9.073464993912006
 30
0.0
 10
-28.12563217330358
 20
-6.994152508733083
 30
0.0
 10
-29.51271678483619
 20
-6.50510505043454
 30
0.0
 10
-30.23703582864644
 20
-6.251438951366732
 30
0.0
  0
HATCH
  5
D1
330
74
100
AcDbEntity
  8
0
100
AcDbHatch
 10
0.0
 20
0.0
 30
0.0
210
0.0
220
0.0
230
1.0
  2
SOLID
 70
     1
 71
     0
 91
        1
 92
        0
 93
        7
 72
     1
 10
-53.06293521179145
 20
-11.48017794540906
 11
-53.0628942334185
 21
-11.48036734981106
 72
     1
 10
-53.0628942334185
 20
-11.48036734981106
 11
-50.18135879739363
 21
-10.85693604353014
 72
     1
 10
-50.18135879739363
 20
-10.85693604353014
 11
-47.91273279754322
 21
-7.399227366744369
 72
     1
 10
-47.91273279754322
 20
-7.399227366744369
 11
-51.40738209617635
 21
-5.188811056417426
 72
     1
 10
-51.40738209617635
 20
-5.188811056417426
 11
-54.28910693660305
 21
-5.812283341071309
 72
     1
 10
-54.28910693660305
 20
-5.812283341071309
 11
-50.79453412756107
 21
-8.022804320319173
 72
     1
 10
-50.79453412756107
 20
-8.022804320319173
 11
-53.06293521179145
 21
-11.48017794540906
 97
        0
 75
     0
 76
     1
 98
        1
 10
0.0
 20
0.0
  0
HATCH
  5
D2
330
74
100
AcDbEntity
  8
0
100
AcDbHatch
 10
0.0
 20
0.0
 30
0.0
210
0.0
220
0.0
230
1.0
  2
SOLID
 70
     1
 71
     0
 91
        1
 92
        0
 93
        6
 72
     1
 10
-41.53588964704281
 20
-8.986455445432597
 11
-44.41771445090438
 21
-9.609949357561213
 72
     1
 10
-44.41771445090438
 20
-9.609949357561213
 11
-46.68624347197728
 21
-13.06764806762683
 72
     1
 10
-46.68624347197728
 20
-13.06764806762683
 11
-43.23827248082917
 21
-15.24865255879992
 72
     1
 10
-43.23827248082917
 20
-15.24865255879992
 11
-40.35645293820115
 21
-14.62515978495947
 72
     1
 10
-40.35645293820115
 20
-14.62515978495947
 11
-43.80454139731328
 21
-12.44407055830516
 72
     1
 10
-43.80454139731328
 20
-12.44407055830516
 11
-41.53588964704281
 21
-8.986455445432597
 97
        0
 75
     0
 76
     1
 98
        1
 10
0.0
 20
0.0
  0
HATCH
  5
D3
330
74
100
AcDbEntity
  8
0
100
AcDbHatch
 10
0.0
 20
0.0
 30
0.0
210
0.0
220
0.0
230
1.0
  2
SOLID
 70
     1
 71
     0
 91
        1
 92
        0
 93
       20
 72
     4
 94
        3
 73
     1
 74
     0
 95
        8
 96
        4
 40
18.0
 40
18.0
 40
18.0
 40
18.0
 40
19.0
 40
19.0
 40
19.0
 40
19.0
 10
-30.20639204762402
 20
-12.42915496033267
 42
1.0
 10
-28.36320980349188
 20
-11.79454394754584
 42
1.0
 10
-27.78707037380775
 20
-10.41512978795687
 42
1.0
 10
-27.91988511866085
 20
-9.073464993912015
 42
1.0
 72
     4
 94
        3
 73
     1
 74
     0
 95
        8
 96
        4
 40
19.0
 40
19.0
 40
19.0
 40
19.0
 40
20.0
 40
20.0
 40
20.0
 40
20.0
 10
-27.91988511866085
 20
-9.073464993912015
 42
1.0
 10
-28.1256321733036
 20
-6.994152508733093
 42
1.0
 10
-29.51271678483624
 20
-6.505105050434554
 42
1.0
 10
-30.23703582864647
 20
-6.251438951366739
 42
1.0
 72
     4
 94
        3
 73
     1
 74
     0
 95
        8
 96
        4
 40
0.0
 40
0.0
 40
0.0
 40
0.0
 40
1.0
 40
1.0
 40
1.0
 40
1.0
 10
-30.23703582864647
 20
-6.251438951366739
 42
1.0
 10
-30.91043001867278
 20
-6.015603382360466
 42
1.0
 10
-31.40848551125484
 20
-5.893156856121866
 42
1.0
 10
-32.67210357750633
 20
-5.496689523479784
 42
1.0
 72
     4
 94
        3
 73
     1
 74
     0
 95
        8
 96
        4
 40
1.0
 40
1.0
 40
1.0
 40
1.0
 40
2.0
 40
2.0
 40
2.0
 40
2.0
 10
-32.67210357750633
 20
-5.496689523479784
 42
1.0
 10
-33.03332194555515
 20
-5.383421617718138
 42
1.0
 10
-33.81210282496121
 20
-5.206692347750558
 42
1.0
 10
-33.94849250952591
 20
-4.576291363356954
 42
1.0
 72
     4
 94
        3
 73
     1
 74
     0
 95
        8
 96
        4
 40
2.0
 40
2.0
 40
2.0
 40
2.0
 40
3.0
 40
3.0
 40
3.0
 40
3.0
 10
-33.94849250952591
 20
-4.576291363356954
 42
1.0
 10
-34.11622381965228
 20
-3.801027578894066
 42
1.0
 10
-33.67528356585566
 20
-3.448097454184939
 42
1.0
 10
-32.99335932290605
 20
-3.300560513895483
 42
1.0
 72
     1
 10
-32.99335932290605
 20
-3.300560513895483
 11
-32.85916630414502
 21
-3.271527336675422
 72
     4
 94
        3
 73
     1
 74
     0
 95
        8
 96
        4
 40
4.0
 40
4.0
 40
4.0
 40
4.0
 40
5.0
 40
5.0
 40
5.0
 40
5.0
 10
-32.85916630414502
 20
-3.271527336675422
 42
1.0
 10
-32.27869442459117
 20
-3.145940006530068
 42
1.0
 10
-31.77109773641243
 20
-3.328116480283154
 42
1.0
 10
-31.5697721187044
 20
-3.967820152272114
 42
1.0
 72
     1
 10
-31.5697721187044
 20
-3.967820152272114
 11
-29.29695612428624
 21
-3.476087645143523
 72
     4
 94
        3
 73
     1
 74
     0
 95
        8
 96
        4
 40
6.0
 40
6.0
 40
6.0
 40
6.0
 40
7.0
 40
7.0
 40
7.0
 40
7.0
 10
-29.2969561242863
 20
-3.476087645143538
 42
1.0
 10
-29.6881007197101
 20
-1.866802583842747
 42
1.0
 10
-30.87776107222446
 20
-0.7599478056671519
 42
1.0
 10
-33.27949204955327
 20
-1.266772121690873
 42
1.0
 72
     1
 10
-33.27949204955321
 20
-1.266772121690857
 11
-33.3448839193166
 21
-1.280919904944549
 72
     4
 94
        3
 73
     1
 74
     0
 95
        8
 96
        4
 40
8.0
 40
8.0
 40
8.0
 40
8.0
 40
9.0
 40
9.0
 40
9.0
 40
9.0
 10
-33.34488391931666
 20
-1.280919904944565
 42
1.0
 10
-35.8115299245211
 20
-1.828202838410234
 42
1.0
 10
-36.3337848782655
 20
-3.544650129978449
 42
1.0
 10
-36.09207577942846
 20
-4.962606301827486
 42
1.0
 72
     4
 94
        3
 73
     1
 74
     0
 95
        8
 96
        4
 40
9.0
 40
9.0
 40
9.0
 40
9.0
 40
10.0
 40
10.0
 40
10.0
 40
10.0
 10
-36.09207577942846
 20
-4.962606301827486
 42
1.0
 10
-35.83736690020323
 20
-6.457652824126184
 42
1.0
 10
-34.96800490008029
 20
-7.196828812263736
 42
1.0
 10
-33.99931718292643
 20
-7.502708028683525
 42
1.0
 72
     4
 94
        3
 73
     1
 74
     0
 95
        8
 96
        4
 40
10.0
 40
10.0
 40
10.0
 40
10.0
 40
11.0
 40
11.0
 40
11.0
 40
11.0
 10
-33.99931718292643
 20
-7.502708028683525
 42
1.0
 10
-33.40907414696031
 20
-7.689011641945555
 42
1.0
 10
-32.48616403135106
 20
-7.975318844696822
 42
1.0
 10
-31.47547483016516
 20
-8.27150505233215
 42
1.0
 72
     4
 94
        3
 73
     1
 74
     0
 95
        8
 96
        4
 40
11.0
 40
11.0
 40
11.0
 40
11.0
 40
12.0
 40
12.0
 40
12.0
 40
12.0
 10
-31.47547483016516
 20
-8.27150505233215
 42
1.0
 10
-31.11213516930568
 20
-8.377980375833708
 42
1.0
 10
-30.40258052645039
 20
-8.557295119664056
 42
1.0
 10
-30.28870163819752
 20
-9.336631754491272
 42
1.0
 72
     4
 94
        3
 73
     1
 74
     0
 95
        8
 96
        4
 40
12.0
 40
12.0
 40
12.0
 40
12.0
 40
13.0
 40
13.0
 40
13.0
 40
13.0
 10
-30.28870163819752
 20
-9.336631754491272
 42
1.0
 10
-30.18837182526216
 20
-10.02498578462435
 42
1.0
 10
-30.64014408852681
 20
-10.43662327702195
 42
1.0
 10
-31.32890793487914
 20
-10.58563999188937
 42
1.0
 72
     1
 10
-31.32890793487914
 20
-10.58563999188937
 11
-31.46505813246008
 21
-10.61509661229637
 72
     4
 94
        3
 73
     1
 74
     0
 95
        8
 96
        4
 40
14.0
 40
14.0
 40
14.0
 40
14.0
 40
15.0
 40
15.0
 40
15.0
 40
15.0
 10
-31.46505813246008
 20
-10.61509661229637
 42
1.0
 10
-32.05208024758041
 20
-10.7421011111722
 42
1.0
 10
-32.71260096537064
 20
-10.55064660173623
 42
1.0
 10
-32.88223929249212
 20
-9.937760156430087
 42
1.0
 72
     1
 10
-32.88223929249212
 20
-9.937760156430087
 11
-35.18886923388655
 21
-10.43680844141459
 72
     4
 94
        3
 73
     1
 74
     0
 95
        8
 96
        4
 40
16.0
 40
16.0
 40
16.0
 40
16.0
 40
17.0
 40
17.0
 40
17.0
 40
17.0
 10
-35.18886923388649
 20
-10.43680844141459
 42
1.0
 10
-34.81471685749708
 20
-11.88431332710451
 42
1.0
 10
-33.72975075395801
 20
-12.95131992706824
 42
1.0
 10
-31.59496833044075
 20
-12.72957879515506
 42
1.0
 72
     1
 10
-31.59496833044068
 20
-12.72957879515504
 11
-30.20639204762409
 21
-12.42915496033269
 97
        0
 75
     0
 76
     1
 98
        1
 10
0.0
 20
0.0
  0
HATCH
  5
D4
330
74
100
AcDbEntity
  8
0
100
AcDbHatch
 10
0.0
 20
0.0
 30
0.0
210
0.0
220
0.0
230
1.0
  2
SOLID
 70
     1
 71
     0
 91
        1
 92
        0
 93
       11
 72
     1
 10
-23.93083334830058
 20
-6.656177916224847
 11
-23.9305586195879
 21
-1.497666803489873
 72
     1
 10
-23.9305586195879
 20
-1.497666803489873
 11
-20.04326836721582
 21
-10.05945907169815
 72
     1
 10
-20.04326836721582
 20
-10.05945907169815
 11
-17.66870538033285
 21
-9.545713210289948
 72
     1
 10
-17.66870538033285
 20
-9.545713210289948
 11
-22.39983793591613
 21
0.8767293108990284
 72
     1
 10
-22.39983793591613
 20
0.8767293108990277
 11
-26.30586704316552
 21
0.0316448471579831
 72
     1
 10
-26.30586704316552
 20
0.0316448471579831
 11
-26.30567237753049
 21
-11.41435433475813
 72
     1
 10
-26.30567237753049
 20
-11.41435433475813
 11
-23.93111465188077
 21
-10.90060961163804
 72
     1
 10
-23.93111465188077
 20
-10.90060961163804
 11
-23.93099314235586
 21
-8.782594625323274
 72
     1
 10
-23.93099314235586
 20
-8.782594625323274
 11
-22.27383089514867
 21
-8.42406118111162
 72
     1
 10
-22.27383089514867
 20
-8.42406118111162
 11
-22.7133102853523
 21
-6.392762105309743
 72
     1
 10
-22.7133102853523
 20
-6.392762105309743
 11
-23.93083334830058
 21
-6.656177916224847
 97
        0
 75
     0
 76
     1
 98
        1
 10
0.0
 20
0.0
  0
HATCH
  5
D5
330
74
100
AcDbEntity
  8
0
100
AcDbHatch
 10
0.0
 20
0.0
 30
0.0
210
0.0
220
0.0
230
1.0
  2
SOLID
 70
     1
 71
     0
 91
        1
 92
        0
 93
        6
 72
     1
 10
-15.79563263740209
 20
2.305574601061446
 11
-18.06492886668423
 21
1.814603608696526
 72
     4
 94
        3
 73
     1
 74
     0
 95
        8
 96
        4
 40
2.0
 40
2.0
 40
2.0
 40
2.0
 40
3.0
 40
3.0
 40
3.0
 40
3.0
 10
-18.06492886668423
 20
1.814603608696526
 42
1.0
 10
-17.240039650055
 20
-1.995739949107533
 42
1.0
 10
-15.71186186991055
 20
-9.059523950669437
 42
1.0
 10
-15.69887855542098
 20
-9.119533578677919
 42
1.0
 72
     1
 10
-15.69887855542092
 20
-9.119533578677903
 11
-10.22610149671526
 21
-7.93547715235816
 72
     1
 10
-10.22610149671526
 20
-7.93547715235816
 11
-10.66558088691882
 21
-5.904178076556605
 72
     1
 10
-10.66558088691882
 20
-5.904178076556605
 11
-13.86994560355126
 21
-6.597454742918437
 72
     4
 94
        3
 73
     1
 74
     0
 95
        8
 96
        4
 40
0.0
 40
0.0
 40
0.0
 40
0.0
 40
1.0
 40
1.0
 40
1.0
 40
1.0
 10
-13.86994560355126
 20
-6.597454742918437
 42
1.0
 10
-13.88373254946556
 20
-6.533730684138598
 42
1.0
 10
-15.1136551579741
 20
-0.8489574873494129
 42
1.0
 10
-15.79563263740209
 20
2.305574601061446
 42
1.0
 97
        0
 75
     0
 76
     1
 98
        1
 10
0.0
 20
0.0
  0
HATCH
  5
D6
330
74
100
AcDbEntity
  8
0
100
AcDbHatch
 10
0.0
 20
0.0
 30
0.0
210
0.0
220
0.0
230
1.0
  2
SOLID
 70
     1
 71
     0
 91
        1
 92
        0
 93
       11
 72
     1
 10
2.375028433631206
 20
-0.9648032523823513
 11
2.375208460142868
 21
4.193687371166118
 72
     1
 10
2.375208460142868
 20
4.193687371166118
 11
6.262509234981617
 21
-4.368102620465918
 72
     1
 10
6.262509234981617
 20
-4.368102620465917
 11
8.637061699398163
 21
-3.854359035633896
 72
     1
 10
8.637061699398163
 20
-3.854359035633896
 11
3.905939666281055
 21
6.568085762131229
 72
     1
 10
3.905939666281055
 20
6.56808576213123
 11
-0.0000000000001235
 21
5.723020649288631
 72
     1
 10
-0.0000000000001234
 20
5.723020649288631
 11
-0.000000000000185
 21
-5.723020649288537
 72
     1
 10
-0.000000000000185
 20
-5.723020649288538
 11
2.37465768908423
 21
-5.20925429869377
 72
     1
 10
2.37465768908423
 20
-5.20925429869377
 11
2.374784459841949
 21
-3.091238174090979
 72
     1
 10
2.374784459841949
 20
-3.091238174090979
 11
4.031830959914354
 21
-2.732729772218408
 72
     1
 10
4.031830959914354
 20
-2.732729772218408
 11
3.592351569710606
 21
-0.701430696416514
 72
     1
 10
3.592351569710606
 20
-0.7014306964165138
 11
2.375028433631206
 21
-0.9648032523823513
 97
        0
 75
     0
 76
     1
 98
        1
 10
0.0
 20
0.0
  0
HATCH
  5
D7
330
74
100
AcDbEntity
  8
0
100
AcDbHatch
 10
0.0
 20
0.0
 30
0.0
210
0.0
220
0.0
230
1.0
  2
SOLID
 70
     1
 71
     0
 91
        1
 92
        0
 93
        8
 72
     1
 10
-42.14906497721024
 20
-6.152323722221632
 11
-42.76219705242848
 21
-3.318391925879333
 72
     1
 10
-42.76219705242848
 20
-3.318391925879333
 11
-42.76249168149826
 21
-3.318455670015027
 72
     1
 10
-42.76249168149826
 20
-3.318455670015027
 11
-45.03079507887072
 21
-6.775797145163721
 72
     1
 10
-45.03079507887072
 20
-6.775797145163721
 11
-48.52545732888054
 21
-4.565295516814268
 72
     1
 10
-48.52545732888054
 20
-4.565295516814268
 11
-48.52574669671678
 21
-4.565358122661792
 72
     1
 10
-48.52574669671678
 20
-4.565358122661792
 11
-47.91261462149855
 21
-7.39928991900409
 72
     1
 10
-47.91261462149855
 20
-7.39928991900409
 11
-44.41773721666716
 21
-9.60984413289331
 72
     1
 10
-44.41773721666716
 20
-9.60984413289331
 11
-42.14906497721024
 21
-6.152323722221632
 97
        0
 75
     0
 76
     1
 98
        1
 10
0.0
 20
0.0
  0
HATCH
  5
D8
330
74
100
AcDbEntity
  8
0
100
AcDbHatch
 10
0.0
 20
0.0
 30
0.0
210
0.0
220
0.0
230
1.0
  2
SOLID
 70
     1
 71
     0
 91
        1
 92
        0
 93
        8
 72
     1
 10
-46.11999732125613
 20
-15.87212484345383
 11
-46.08139565189786
 21
-15.8637732233933
 72
     1
 10
-46.08139565189786
 20
-15.8637732233933
 11
-46.68636620117444
 21
-13.06756447043367
 72
     1
 10
-46.68636620117444
 20
-13.06756447043367
 11
-50.18135879739361
 21
-10.85693604353009
 72
     1
 10
-50.18135879739361
 20
-10.85693604353009
 11
-52.44976215820033
 21
-14.31429914615315
 72
     1
 10
-52.44976215820033
 20
-14.31429914615315
 11
-51.84475063055083
 21
-17.11069730351469
 72
     1
 10
-51.84475063055083
 20
-17.11069730351469
 11
-51.80633836559459
 21
-17.1023866618271
 72
     1
 10
-51.80633836559459
 20
-17.1023866618271
 11
-49.56818574380249
 21
-13.69105724427409
 72
     1
 10
-49.56818574380249
 20
-13.69105724427409
 11
-46.11999732125613
 21
-15.87212484345383
 97
        0
 75
     0
 76
     1
 98
        1
 10
0.0
 20
0.0
  0
HATCH
  5
D9
330
74
100
AcDbEntity
  8
0
100
AcDbHatch
 10
0.0
 20
0.0
 30
0.0
210
0.0
220
0.0
230
1.0
  2
SOLID
 70
     1
 71
     0
 91
        2
 92
        0
 93
        7
 72
     1
 10
-6.859585567104196
 20
4.238922852960538
 11
-11.00449045380928
 21
3.342156692939393
 72
     1
 10
-11.00449045380928
 20
3.342156692939393
 11
-8.638829473816639
 21
-7.592064727757184
 72
     1
 10
-8.638829473816639
 20
-7.592064727757185
 11
-8.63844014254617
 21
-7.591980494435086
 72
     1
 10
-8.63844014254617
 20
-7.591980494435086
 11
-4.494024550545999
 21
-6.695320195210662
 72
     4
 94
        3
 73
     1
 74
     0
 95
        8
 96
        4
 40
3.0
 40
3.0
 40
3.0
 40
3.0
 40
4.0
 40
4.0
 40
4.0
 40
4.0
 10
-4.494024550545999
 20
-6.695320195210662
 42
1.0
 10
-2.825524345390513
 20
-6.334333740063992
 42
1.0
 10
-1.762658323115034
 20
-4.702068307882374
 42
1.0
 10
-2.120071189640999
 20
-3.049576315093403
 42
1.0
 72
     4
 94
        3
 73
     1
 74
     0
 95
        8
 96
        4
 40
4.0
 40
4.0
 40
4.0
 40
4.0
 40
5.0
 40
5.0
 40
5.0
 40
5.0
 10
-2.120071189640999
 20
-3.049576315093403
 42
1.0
 10
-2.485983017556096
 20
-1.358310753073632
 42
1.0
 10
-2.867352798370483
 20
0.4044023583376265
 42
1.0
 10
-3.190995488197396
 20
1.900704823656681
 42
1.0
 72
     4
 94
        3
 73
     1
 74
     0
 95
        8
 96
        4
 40
5.0
 40
5.0
 40
5.0
 40
5.0
 40
6.0
 40
6.0
 40
6.0
 40
6.0
 10
-3.190995488197396
 20
1.900704823656681
 42
1.0
 10
-3.54857504695031
 20
3.553458157285876
 42
1.0
 10
-5.190901218780231
 20
4.599949148191988
 42
1.0
 10
-6.859585567104196
 20
4.238922852960538
 42
1.0
 97
        0
 92
        0
 93
        6
 72
     4
 94
        3
 73
     1
 74
     0
 95
        8
 96
        4
 40
2.0
 40
2.0
 40
2.0
 40
2.0
 40
3.0
 40
3.0
 40
3.0
 40
3.0
 10
-6.919811195494074
 20
2.099808074263809
 42
1.0
 10
-6.228016878711183
 20
2.249480443098069
 42
1.0
 10
-5.547633595833446
 20
1.815851349115847
 42
1.0
 10
-5.399398884916104
 20
1.130701970100344
 42
1.0
 72
     4
 94
        3
 73
     1
 74
     0
 95
        8
 96
        4
 40
3.0
 40
3.0
 40
3.0
 40
3.0
 40
4.0
 40
4.0
 40
4.0
 40
4.0
 10
-5.399398884916104
 20
1.130701970100344
 42
1.0
 10
-5.107009087764085
 20
-0.2207405274728672
 42
1.0
 10
-4.711497421058354
 20
-2.048334586467611
 42
1.0
 10
-4.449160707297047
 20
-3.260870000165379
 42
1.0
 72
     4
 94
        3
 73
     1
 74
     0
 95
        8
 96
        4
 40
4.0
 40
4.0
 40
4.0
 40
4.0
 40
5.0
 40
5.0
 40
5.0
 40
5.0
 10
-4.449160707297047
 20
-3.260870000165379
 42
1.0
 10
-4.300905507193207
 20
-3.946114081381999
 42
1.0
 10
-4.741570606399121
 20
-4.622385452066122
 42
1.0
 10
-5.433383135791953
 20
-4.771973641166296
 42
1.0
 72
     1
 10
-5.433383135791953
 20
-4.771973641166296
 11
-6.809537646582547
 21
-5.069709977697404
 72
     4
 94
        3
 73
     1
 74
     0
 95
        8
 96
        4
 40
0.0
 40
0.0
 40
0.0
 40
0.0
 40
1.0
 40
1.0
 40
1.0
 40
1.0
 10
-6.809537646582547
 20
-5.069709977697404
 42
1.0
 10
-7.284290309572815
 20
-2.875375801708635
 42
1.0
 10
-7.897830097865885
 20
-0.0390758678013329
 42
1.0
 10
-8.296070930952649
 20
1.80204897196991
 42
1.0
 72
     1
 10
-8.296070930952649
 20
1.80204897196991
 11
-6.919811195494074
 21
2.099808074263809
 97
        0
 75
     0
 76
     1
 98
        1
 10
0.0
 20
0.0
  0
ENDBLK
  5
76
330
74
100
AcDbEntity
  8
0
100
AcDbBlockEnd
  0
BLOCK
  5
402
330
401
100
AcDbEntity
  8
0
100
AcDbBlockBegin
  2
*U3
 70
     1
 10
0.0
 20
0.0
 30
0.0
  3
*U3
  1

  0
TEXT
  5
403
330
401
100
AcDbEntity
  8
LENKIMO
  6
CENTERX2
100
AcDbText
 10
799.0717146298566
 20
1100.336970457902
 30
0.0
 40
100.0
  1
A
100
AcDbText
  0
ENDBLK
  5
404
330
401
100
AcDbEntity
  8
0
100
AcDbBlockEnd
  0
BLOCK
  5
40E
330
40D
100
AcDbEntity
  8
0
100
AcDbBlockBegin
  2
*U4
 70
     1
 10
0.0
 20
0.0
 30
0.0
  3
*U4
  1

  0
TEXT
  5
40F
330
40D
100
AcDbEntity
  8
LENKIMO
  6
CENTERX2
100
AcDbText
 10
801.2712978691851
 20
1410.897389739665
 30
0.0
 40
100.0
  1
B
100
AcDbText
  0
ENDBLK
  5
410
330
40D
100
AcDbEntity
  8
0
100
AcDbBlockEnd
  0
BLOCK
  5
41A
330
419
100
AcDbEntity
  8
0
100
AcDbBlockBegin
  2
*U5
 70
     1
 10
0.0
 20
0.0
 30
0.0
  3
*U5
  1

  0
TEXT
  5
41B
330
419
100
AcDbEntity
  8
LENKIMO
  6
CENTERX2
100
AcDbText
 10
799.0717146298566
 20
1100.336970457902
 30
0.0
 40
100.0
  1
A
100
AcDbText
  0
ENDBLK
  5
41C
330
419
100
AcDbEntity
  8
0
100
AcDbBlockEnd
  0
BLOCK
  5
41F
330
41E
100
AcDbEntity
  8
0
100
AcDbBlockBegin
  2
*U6
 70
     1
 10
0.0
 20
0.0
 30
0.0
  3
*U6
  1

  0
TEXT
  5
420
330
41E
100
AcDbEntity
  8
LENKIMO
  6
CENTERX2
100
AcDbText
 10
801.2712978691851
 20
1410.897389739665
 30
0.0
 40
100.0
  1
B
100
AcDbText
  0
ENDBLK
  5
421
330
41E
100
AcDbEntity
  8
0
100
AcDbBlockEnd
  0
ENDSEC
  0
SECTION
  2
ENTITIES
  0
ARC
  5
DA
330
1F
100
AcDbEntity
  8
0
100
AcDbCircle
 10
212.3242013356
 20
-44.5931392405
 30
0.0
 40
3.0000000000028
100
AcDbArc
 50
247.3840770373
 51
270.0
  0
ARC
  5
DB
330
1F
100
AcDbEntity
  8
0
100
AcDbCircle
 10
212.3242013356
 20
349.0068607595
 30
0.0
 40
3.000000000002832
100
AcDbArc
 50
90.0
 51
112.6159229627
  0
ARC
  5
DC
330
1F
100
AcDbEntity
  8
0
100
AcDbCircle
 10
208.8632344567
 20
-52.9010696845
 30
0.0
 40
5.999999999998494
100
AcDbArc
 50
67.3840770373
 51
90.0
  0
ARC
  5
DD
330
1F
100
AcDbEntity
  8
0
100
AcDbCircle
 10
208.8632344567
 20
357.3147912035
 30
0.0
 40
5.999999999998465
100
AcDbArc
 50
270.0
 51
292.6159229627
  0
LINE
  5
DE
330
1F
100
AcDbEntity
  8
0
100
AcDbLine
 10
212.3242013356
 20
-47.5931392405
 30
0.0
 11
217.8844199866
 21
-47.5931392405
 31
0.0
  0
LINE
  5
DF
330
1F
100
AcDbEntity
  8
0
100
AcDbLine
 10
217.8844199866
 20
352.0068607595
 30
0.0
 11
212.3242013356
 21
352.0068607595
 31
0.0
  0
LINE
  5
E0
330
1F
100
AcDbEntity
  8
0
100
AcDbLine
 10
184.2055910893
 20
-46.9010696845
 30
0.0
 11
208.8632344567
 21
-46.9010696845
 31
0.0
  0
LINE
  5
E1
330
1F
100
AcDbEntity
  8
0
100
AcDbLine
 10
208.8632344567
 20
351.3147912035
 30
0.0
 11
184.2055910893
 21
351.3147912035
 31
0.0
  0
ARC
  5
E2
330
1F
100
AcDbEntity
  8
0
100
AcDbCircle
 10
184.2055910893
 20
-21.9010696845
 30
0.0
 40
24.99999999999991
100
AcDbArc
 50
218.1408077233
 51
270.0
  0
ARC
  5
E3
330
1F
100
AcDbEntity
  8
0
100
AcDbCircle
 10
184.2055910893
 20
326.3147912035
 30
0.0
 40
24.99999999999991
100
AcDbArc
 50
90.0
 51
141.8591922767
  0
LINE
  5
E4
330
1F
100
AcDbEntity
  8
0
100
AcDbLine
 10
164.5432073023
 20
341.7546961195
 30
0.0
 11
143.789516713
 21
315.3253216133
 31
0.0
  0
LINE
  5
E5
330
1F
100
AcDbEntity
  8
0
100
AcDbLine
 10
143.789516713
 20
-10.9116000943
 30
0.0
 11
164.5432073023
 21
-37.3409746005
 31
0.0
  0
ARC
  5
E6
330
1F
100
AcDbEntity
  8
0
100
AcDbCircle
 10
131.2055910893
 20
-20.7931392405
 30
0.0
 40
15.99999999999874
100
AcDbArc
 50
38.1408077233
 51
90.0
  0
ARC
  5
E7
330
1F
100
AcDbEntity
  8
0
100
AcDbCircle
 10
131.2055910893
 20
325.2068607595
 30
0.0
 40
15.9999999999987
100
AcDbArc
 50
270.0
 51
321.8591922767
  0
ARC
  5
E8
330
1F
100
AcDbEntity
  8
0
100
AcDbCircle
 10
97.2055910893
 20
1.2068607595
 30
0.0
 40
6.000000000000227
100
AcDbArc
 50
180.0
 51
270.0
  0
ARC
  5
E9
330
1F
100
AcDbEntity
  8
0
100
AcDbCircle
 10
97.2055910893
 20
303.2068607595
 30
0.0
 40
6.000000000000227
100
AcDbArc
 50
90.0
 51
180.0
  0
LINE
  5
EA
330
1F
100
AcDbEntity
  8
0
100
AcDbLine
 10
97.2055910893
 20
-4.7931392405
 30
0.0
 11
131.2055910893
 21
-4.7931392405
 31
0.0
  0
LINE
  5
EB
330
1F
100
AcDbEntity
  8
0
100
AcDbLine
 10
131.2055910893
 20
309.2068607595
 30
0.0
 11
97.2055910893
 21
309.2068607595
 31
0.0
  0
LINE
  5
EC
330
1F
100
AcDbEntity
  8
0
100
AcDbLine
 10
217.8844199866
 20
-48.7931392405
 30
0.0
 11
220.5844199866
 21
-48.7931392405
 31
0.0
  0
LINE
  5
ED
330
1F
100
AcDbEntity
  8
0
100
AcDbLine
 10
231.1844199866
 20
-48.7931392405
 30
0.0
 11
231.2055910893
 21
-48.7931392405
 31
0.0
  0
LINE
  5
EE
330
1F
100
AcDbEntity
  8
0
100
AcDbLine
 10
231.2055910893
 20
353.2068607595
 30
0.0
 11
231.1844199866
 21
353.2068607595
 31
0.0
  0
LINE
  5
EF
330
1F
100
AcDbEntity
  8
0
100
AcDbLine
 10
220.5844199866
 20
353.2068607595
 30
0.0
 11
217.8844199866
 21
353.2068607595
 31
0.0
  0
ARC
  5
F0
330
1F
100
AcDbEntity
  8
0
100
AcDbCircle
 10
231.2055910893
 20
-45.7931392405
 30
0.0
 40
3.000000000000448
100
AcDbArc
 50
270.0
 51
325.4818921588999
  0
ARC
  5
F1
330
1F
100
AcDbEntity
  8
0
100
AcDbCircle
 10
231.2055910893
 20
350.2068607595
 30
0.0
 40
3.000000000000455
100
AcDbArc
 50
34.5181078411
 51
90.0
  0
ARC
  5
F2
330
1F
100
AcDbEntity
  8
0
100
AcDbCircle
 10
238.6211153459
 20
-50.8931392405
 30
0.0
 40
5.999999999999616
100
AcDbArc
 50
90.0
 51
145.4818921589
  0
ARC
  5
F3
330
1F
100
AcDbEntity
  8
0
100
AcDbCircle
 10
238.6211153459
 20
355.3068607595
 30
0.0
 40
5.999999999999602
100
AcDbArc
 50
214.5181078411
 51
270.0
  0
LINE
  5
F4
330
1F
100
AcDbEntity
  8
0
100
AcDbLine
 10
238.6211153459
 20
-44.8931392405
 30
0.0
 11
248.8661171964
 21
-44.8931392405
 31
0.0
  0
LINE
  5
F5
330
1F
100
AcDbEntity
  8
0
100
AcDbLine
 10
248.8661171964
 20
349.3068607595
 30
0.0
 11
238.6211153459
 21
349.3068607595
 31
0.0
  0
ARC
  5
F6
330
1F
100
AcDbEntity
  8
0
100
AcDbCircle
 10
248.8661171964
 20
-19.8931392405
 30
0.0
 40
24.9999999999998
100
AcDbArc
 50
270.0
 51
313.9033847307001
  0
ARC
  5
F7
330
1F
100
AcDbEntity
  8
0
100
AcDbCircle
 10
248.8661171964
 20
324.3068607595
 30
0.0
 40
24.99999999999983
100
AcDbArc
 50
46.0966152693
 51
90.0
  0
LINE
  5
F8
330
1F
100
AcDbEntity
  8
0
100
AcDbLine
 10
266.2022270315
 20
-37.9058929386
 30
0.0
 11
293.4926356293
 21
-11.6406406164
 31
0.0
  0
LINE
  5
F9
330
1F
100
AcDbEntity
  8
0
100
AcDbLine
 10
293.4926356293
 20
316.0543621354
 30
0.0
 11
266.2022270315
 21
342.3196144575
 31
0.0
  0
ARC
  5
FA
330
1F
100
AcDbEntity
  8
0
100
AcDbCircle
 10
310.4820232677
 20
-29.2931392405
 30
0.0
 40
24.50000000000324
100
AcDbArc
 50
90.0
 51
133.9033847307
  0
ARC
  5
FB
330
1F
100
AcDbEntity
  8
0
100
AcDbCircle
 10
310.4820232677
 20
333.7068607595
 30
0.0
 40
24.50000000000324
100
AcDbArc
 50
226.0966152693
 51
270.0
  0
LINE
  5
FC
330
1F
100
AcDbEntity
  8
0
100
AcDbLine
 10
310.4820232677
 20
-4.7931392405
 30
0.0
 11
338.8844199866
 21
-4.7931392405
 31
0.0
  0
LINE
  5
FD
330
1F
100
AcDbEntity
  8
0
100
AcDbLine
 10
338.8844199866
 20
309.2068607595
 30
0.0
 11
310.4820232677
 21
309.2068607595
 31
0.0
  0
LINE
  5
FE
330
1F
100
AcDbEntity
  8
0
100
AcDbLine
 10
253.7055910893
 20
194.2068607595
 30
0.0
 11
253.7055910893
 21
194.7068607595
 31
0.0
  0
LINE
  5
FF
330
1F
100
AcDbEntity
  8
0
100
AcDbLine
 10
228.7055910893
 20
194.7068607595
 30
0.0
 11
228.7055910893
 21
194.2068607595
 31
0.0
  0
LINE
  5
100
330
1F
100
AcDbEntity
  8
0
100
AcDbLine
 10
228.7055910893
 20
110.2068607595
 30
0.0
 11
228.7055910893
 21
109.7068607595
 31
0.0
  0
LINE
  5
101
330
1F
100
AcDbEntity
  8
0
100
AcDbLine
 10
253.7055910893
 20
109.7068607595
 30
0.0
 11
253.7055910893
 21
110.2068607595
 31
0.0
  0
LINE
  5
102
330
1F
100
AcDbEntity
  8
0
100
AcDbLine
 10
213.7055910893
 20
194.2068607595
 30
0.0
 11
213.7055910893
 21
194.7068607595
 31
0.0
  0
LINE
  5
103
330
1F
100
AcDbEntity
  8
0
100
AcDbLine
 10
188.7055910893
 20
194.7068607595
 30
0.0
 11
188.7055910893
 21
194.2068607595
 31
0.0
  0
LINE
  5
104
330
1F
100
AcDbEntity
  8
0
100
AcDbLine
 10
188.7055910893
 20
110.2068607595
 30
0.0
 11
188.7055910893
 21
109.7068607595
 31
0.0
  0
LINE
  5
105
330
1F
100
AcDbEntity
  8
0
100
AcDbLine
 10
213.7055910893
 20
109.7068607595
 30
0.0
 11
213.7055910893
 21
110.2068607595
 31
0.0
  0
LINE
  5
106
330
1F
100
AcDbEntity
  8
0
100
AcDbLine
 10
179.2055910893
 20
164.7068607595
 30
0.0
 11
178.7055910893
 21
164.7068607595
 31
0.0
  0
LINE
  5
107
330
1F
100
AcDbEntity
  8
0
100
AcDbLine
 10
178.7055910893
 20
139.7068607595
 30
0.0
 11
179.2055910893
 21
139.7068607595
 31
0.0
  0
LINE
  5
108
330
1F
100
AcDbEntity
  8
0
100
AcDbLine
 10
263.2055910893
 20
159.7068607595
 30
0.0
 11
263.7055910893
 21
159.7068607595
 31
0.0
  0
LINE
  5
109
330
1F
100
AcDbEntity
  8
0
100
AcDbLine
 10
263.7055910893
 20
184.7068607595
 30
0.0
 11
263.2055910893
 21
184.7068607595
 31
0.0
  0
LINE
  5
10A
330
1F
100
AcDbEntity
  8
0
100
AcDbLine
 10
263.2055910893
 20
119.7068607595
 30
0.0
 11
263.7055910893
 21
119.7068607595
 31
0.0
  0
LINE
  5
10B
330
1F
100
AcDbEntity
  8
0
100
AcDbLine
 10
263.7055910893
 20
144.7068607595
 30
0.0
 11
263.2055910893
 21
144.7068607595
 31
0.0
  0
LINE
  5
10C
330
1F
100
AcDbEntity
  8
0
100
AcDbLine
 10
251.7055910893
 20
194.7068607595
 30
0.0
 11
251.7055910893
 21
197.2068607595
 31
0.0
  0
LINE
  5
10D
330
1F
100
AcDbEntity
  8
0
100
AcDbLine
 10
230.7055910893
 20
197.2068607595
 30
0.0
 11
230.7055910893
 21
194.7068607595
 31
0.0
  0
LINE
  5
10E
330
1F
100
AcDbEntity
  8
0
100
AcDbLine
 10
230.7055910893
 20
109.7068607595
 30
0.0
 11
230.7055910893
 21
107.2068607595
 31
0.0
  0
LINE
  5
10F
330
1F
100
AcDbEntity
  8
0
100
AcDbLine
 10
251.7055910893
 20
107.2068607595
 30
0.0
 11
251.7055910893
 21
109.7068607595
 31
0.0
  0
LINE
  5
110
330
1F
100
AcDbEntity
  8
0
100
AcDbLine
 10
190.7055910893
 20
109.7068607595
 30
0.0
 11
190.7055910893
 21
107.2068607595
 31
0.0
  0
LINE
  5
111
330
1F
100
AcDbEntity
  8
0
100
AcDbLine
 10
211.7055910893
 20
107.2068607595
 30
0.0
 11
211.7055910893
 21
109.7068607595
 31
0.0
  0
LINE
  5
112
330
1F
100
AcDbEntity
  8
0
100
AcDbLine
 10
263.7055910893
 20
161.7068607595
 30
0.0
 11
266.2055910893
 21
161.7068607595
 31
0.0
  0
LINE
  5
113
330
1F
100
AcDbEntity
  8
0
100
AcDbLine
 10
266.2055910893
 20
182.7068607595
 30
0.0
 11
263.7055910893
 21
182.7068607595
 31
0.0
  0
LINE
  5
114
330
1F
100
AcDbEntity
  8
0
100
AcDbLine
 10
211.7055910893
 20
194.7068607595
 30
0.0
 11
211.7055910893
 21
197.2068607595
 31
0.0
  0
LINE
  5
115
330
1F
100
AcDbEntity
  8
0
100
AcDbLine
 10
190.7055910893
 20
197.2068607595
 30
0.0
 11
190.7055910893
 21
194.7068607595
 31
0.0
  0
LINE
  5
116
330
1F
100
AcDbEntity
  8
0
100
AcDbLine
 10
263.7055910893
 20
121.7068607595
 30
0.0
 11
266.2055910893
 21
121.7068607595
 31
0.0
  0
LINE
  5
117
330
1F
100
AcDbEntity
  8
0
100
AcDbLine
 10
266.2055910893
 20
142.7068607595
 30
0.0
 11
263.7055910893
 21
142.7068607595
 31
0.0
  0
LINE
  5
118
330
1F
100
AcDbEntity
  8
0
100
AcDbLine
 10
178.7055910893
 20
162.7068607595
 30
0.0
 11
176.2055910893
 21
162.7068607595
 31
0.0
  0
LINE
  5
119
330
1F
100
AcDbEntity
  8
0
100
AcDbLine
 10
176.2055910893
 20
141.7068607595
 30
0.0
 11
178.7055910893
 21
141.7068607595
 31
0.0
  0
LINE
  5
11A
330
1F
100
AcDbEntity
  8
0
100
AcDbLine
 10
193.2055910893
 20
107.2068607595
 30
0.0
 11
193.2055910893
 21
104.7068607595
 31
0.0
  0
LINE
  5
11B
330
1F
100
AcDbEntity
  8
0
100
AcDbLine
 10
209.2055910893
 20
104.7068607595
 30
0.0
 11
209.2055910893
 21
107.2068607595
 31
0.0
  0
LINE
  5
11C
330
1F
100
AcDbEntity
  8
0
100
AcDbLine
 10
233.2055910893
 20
107.2068607595
 30
0.0
 11
233.2055910893
 21
104.7068607595
 31
0.0
  0
LINE
  5
11D
330
1F
100
AcDbEntity
  8
0
100
AcDbLine
 10
249.2055910893
 20
104.7068607595
 30
0.0
 11
249.2055910893
 21
107.2068607595
 31
0.0
  0
LINE
  5
11E
330
1F
100
AcDbEntity
  8
0
100
AcDbLine
 10
209.2055910893
 20
197.2068607595
 30
0.0
 11
209.2055910893
 21
199.7068607595
 31
0.0
  0
LINE
  5
11F
330
1F
100
AcDbEntity
  8
0
100
AcDbLine
 10
193.2055910893
 20
199.7068607595
 30
0.0
 11
193.2055910893
 21
197.2068607595
 31
0.0
  0
LINE
  5
120
330
1F
100
AcDbEntity
  8
0
100
AcDbLine
 10
249.2055910893
 20
197.2068607595
 30
0.0
 11
249.2055910893
 21
199.7068607595
 31
0.0
  0
LINE
  5
121
330
1F
100
AcDbEntity
  8
0
100
AcDbLine
 10
233.2055910893
 20
199.7068607595
 30
0.0
 11
233.2055910893
 21
197.2068607595
 31
0.0
  0
LINE
  5
122
330
1F
100
AcDbEntity
  8
0
100
AcDbLine
 10
266.2055910893
 20
124.2068607595
 30
0.0
 11
268.7055910893
 21
124.2068607595
 31
0.0
  0
LINE
  5
123
330
1F
100
AcDbEntity
  8
0
100
AcDbLine
 10
268.7055910893
 20
140.2068607595
 30
0.0
 11
266.2055910893
 21
140.2068607595
 31
0.0
  0
LINE
  5
124
330
1F
100
AcDbEntity
  8
0
100
AcDbLine
 10
266.2055910893
 20
164.2068607595
 30
0.0
 11
268.7055910893
 21
164.2068607595
 31
0.0
  0
LINE
  5
125
330
1F
100
AcDbEntity
  8
0
100
AcDbLine
 10
268.7055910893
 20
180.2068607595
 30
0.0
 11
266.2055910893
 21
180.2068607595
 31
0.0
  0
LINE
  5
126
330
1F
100
AcDbEntity
  8
0
100
AcDbLine
 10
176.2055910893
 20
160.2068607595
 30
0.0
 11
173.7055910893
 21
160.2068607595
 31
0.0
  0
LINE
  5
127
330
1F
100
AcDbEntity
  8
0
100
AcDbLine
 10
173.7055910893
 20
144.2068607595
 30
0.0
 11
176.2055910893
 21
144.2068607595
 31
0.0
  0
LINE
  5
128
330
1F
100
AcDbEntity
  8
0
100
AcDbLine
 10
236.2055910893
 20
104.7068607595
 30
0.0
 11
236.2055910893
 21
102.2068607595
 31
0.0
  0
LINE
  5
129
330
1F
100
AcDbEntity
  8
0
100
AcDbLine
 10
246.2055910893
 20
102.2068607595
 30
0.0
 11
246.2055910893
 21
104.7068607595
 31
0.0
  0
LINE
  5
12A
330
1F
100
AcDbEntity
  8
0
100
AcDbLine
 10
196.2055910893
 20
104.7068607595
 30
0.0
 11
196.2055910893
 21
102.2068607595
 31
0.0
  0
LINE
  5
12B
330
1F
100
AcDbEntity
  8
0
100
AcDbLine
 10
206.2055910893
 20
102.2068607595
 30
0.0
 11
206.2055910893
 21
104.7068607595
 31
0.0
  0
LINE
  5
12C
330
1F
100
AcDbEntity
  8
0
100
AcDbLine
 10
206.2055910893
 20
199.7068607595
 30
0.0
 11
206.2055910893
 21
202.2068607595
 31
0.0
  0
LINE
  5
12D
330
1F
100
AcDbEntity
  8
0
100
AcDbLine
 10
196.2055910893
 20
202.2068607595
 30
0.0
 11
196.2055910893
 21
199.7068607595
 31
0.0
  0
LINE
  5
12E
330
1F
100
AcDbEntity
  8
0
100
AcDbLine
 10
268.7055910893
 20
127.2068607595
 30
0.0
 11
271.2055910893
 21
127.2068607595
 31
0.0
  0
LINE
  5
12F
330
1F
100
AcDbEntity
  8
0
100
AcDbLine
 10
271.2055910893
 20
137.2068607595
 30
0.0
 11
268.7055910893
 21
137.2068607595
 31
0.0
  0
LINE
  5
130
330
1F
100
AcDbEntity
  8
0
100
AcDbLine
 10
268.7055910893
 20
167.2068607595
 30
0.0
 11
271.2055910893
 21
167.2068607595
 31
0.0
  0
LINE
  5
131
330
1F
100
AcDbEntity
  8
0
100
AcDbLine
 10
271.2055910893
 20
177.2068607595
 30
0.0
 11
268.7055910893
 21
177.2068607595
 31
0.0
  0
LINE
  5
132
330
1F
100
AcDbEntity
  8
0
100
AcDbLine
 10
246.2055910893
 20
199.7068607595
 30
0.0
 11
246.2055910893
 21
202.2068607595
 31
0.0
  0
LINE
  5
133
330
1F
100
AcDbEntity
  8
0
100
AcDbLine
 10
236.2055910893
 20
202.2068607595
 30
0.0
 11
236.2055910893
 21
199.7068607595
 31
0.0
  0
LINE
  5
134
330
1F
100
AcDbEntity
  8
0
100
AcDbLine
 10
173.7055910893
 20
157.2068607595
 30
0.0
 11
171.2055910893
 21
157.2068607595
 31
0.0
  0
LINE
  5
135
330
1F
100
AcDbEntity
  8
0
100
AcDbLine
 10
171.2055910893
 20
147.2068607595
 30
0.0
 11
173.7055910893
 21
147.2068607595
 31
0.0
  0
ARC
  5
136
330
1F
100
AcDbEntity
  8
0
100
AcDbCircle
 10
231.1844199866
 20
353.4068607595
 30
0.0
 40
0.2000000000000455
100
AcDbArc
 50
270.0
 51
0.0
  0
ARC
  5
137
330
1F
100
AcDbEntity
  8
0
100
AcDbCircle
 10
220.5844199866
 20
353.4068607595
 30
0.0
 40
0.2000000000000455
100
AcDbArc
 50
180.0
 51
270.0
  0
LINE
  5
138
330
1F
100
AcDbEntity
  8
0
100
AcDbLine
 10
231.3844199866
 20
353.4068607595
 30
0.0
 11
231.3844199866
 21
354.0068607595
 31
0.0
  0
LINE
  5
139
330
1F
100
AcDbEntity
  8
0
100
AcDbLine
 10
220.3844199866
 20
354.0068607595
 30
0.0
 11
220.3844199866
 21
353.4068607595
 31
0.0
  0
ARC
  5
13A
330
1F
100
AcDbEntity
  8
0
100
AcDbCircle
 10
231.1844199866
 20
354.0068607595
 30
0.0
 40
0.2000000000000171
100
AcDbArc
 50
0.0
 51
90.0000000001
  0
ARC
  5
13B
330
1F
100
AcDbEntity
  8
0
100
AcDbCircle
 10
220.5844199866
 20
354.0068607595
 30
0.0
 40
0.1999999999999886
100
AcDbArc
 50
89.9999999999
 51
180.0
  0
ARC
  5
13C
330
1F
100
AcDbEntity
  8
0
100
AcDbCircle
 10
226.2745575241
 20
347.2163793784
 30
0.0
 40
7.99999999999996
100
AcDbArc
 50
107.1467397277
 51
119.0955287963
  0
ARC
  5
13D
330
1F
100
AcDbEntity
  8
0
100
AcDbCircle
 10
225.4942824492
 20
347.2163793784
 30
0.0
 40
7.999999999999946
100
AcDbArc
 50
60.90447120369999
 51
72.8515803462
  0
LINE
  5
13E
330
1F
100
AcDbEntity
  8
0
100
AcDbLine
 10
220.3844199866
 20
-48.9931392405
 30
0.0
 11
220.3844199866
 21
-49.5931392405
 31
0.0
  0
LINE
  5
13F
330
1F
100
AcDbEntity
  8
0
100
AcDbLine
 10
231.3844199866
 20
-49.5931392405
 30
0.0
 11
231.3844199866
 21
-48.9931392405
 31
0.0
  0
ARC
  5
140
330
1F
100
AcDbEntity
  8
0
100
AcDbCircle
 10
220.5844199866
 20
-49.5931392405
 30
0.0
 40
0.2000000000000099
100
AcDbArc
 50
180.0
 51
270.0000000001
  0
ARC
  5
141
330
1F
100
AcDbEntity
  8
0
100
AcDbCircle
 10
231.1844199866
 20
-49.5931392405
 30
0.0
 40
0.2000000000000171
100
AcDbArc
 50
269.9999999999
 51
0.0
  0
ARC
  5
142
330
1F
100
AcDbEntity
  8
0
100
AcDbCircle
 10
220.5844199866
 20
-48.9931392405
 30
0.0
 40
0.2000000000000099
100
AcDbArc
 50
90.0
 51
180.0
  0
ARC
  5
143
330
1F
100
AcDbEntity
  8
0
100
AcDbCircle
 10
231.1844199866
 20
-48.9931392405
 30
0.0
 40
0.2000000000000171
100
AcDbArc
 50
0.0
 51
90.0
  0
ARC
  5
144
330
1F
100
AcDbEntity
  8
0
100
AcDbCircle
 10
225.4942824492
 20
-42.8026578594
 30
0.0
 40
8.0
100
AcDbArc
 50
287.1467397277
 51
299.0955287963
  0
ARC
  5
145
330
1F
100
AcDbEntity
  8
0
100
AcDbCircle
 10
226.2745575241
 20
-42.8026578594
 30
0.0
 40
7.999999999999978
100
AcDbArc
 50
240.9044712037
 51
252.8515803462
  0
LINE
  5
146
330
1F
100
AcDbEntity
  8
0
100
AcDbLine
 10
91.2055910893
 20
1.2068607595
 30
0.0
 11
91.2055910893
 21
303.2068607595
 31
0.0
  0
LINE
  5
147
330
1F
100
AcDbEntity
  8
0
100
AcDbLine
 10
217.8844199866
 20
194.2068607595
 30
0.0
 11
217.8844199866
 21
353.2068607595
 31
0.0
  0
LINE
  5
148
330
1F
100
AcDbEntity
  8
0
100
AcDbLine
 10
217.8844199866
 20
-48.7931392405
 30
0.0
 11
217.8844199866
 21
110.2068607595
 31
0.0
  0
LINE
  5
149
330
1F
100
AcDbEntity
  8
0
100
AcDbLine
 10
338.8844199866
 20
152.2068607595
 30
0.0
 11
338.8844199866
 21
309.2068607595
 31
0.0
  0
LINE
  5
14A
330
1F
100
AcDbEntity
  8
0
100
AcDbLine
 10
338.8844199866
 20
-4.7931392405
 30
0.0
 11
338.8844199866
 21
152.2068607595
 31
0.0
  0
ARC
  5
14B
330
1F
100
AcDbEntity
  8
0
100
AcDbCircle
 10
187.2055910893
 20
186.2068607595
 30
0.0
 40
6.000000000000028
100
AcDbArc
 50
90.0
 51
180.0
  0
LINE
  5
14C
330
1F
100
AcDbEntity
  8
0
100
AcDbLine
 10
255.2055910893
 20
192.2068607595
 30
0.0
 11
187.2055910893
 21
192.2068607595
 31
0.0
  0
ARC
  5
14D
330
1F
100
AcDbEntity
  8
0
100
AcDbCircle
 10
255.2055910893
 20
186.2068607595
 30
0.0
 40
6.000000000000028
100
AcDbArc
 50
0.0
 51
90.0
  0
LINE
  5
14E
330
1F
100
AcDbEntity
  8
0
100
AcDbLine
 10
187.2055910893
 20
112.2068607595
 30
0.0
 11
255.2055910893
 21
112.2068607595
 31
0.0
  0
ARC
  5
14F
330
1F
100
AcDbEntity
  8
0
100
AcDbCircle
 10
255.2055910893
 20
118.2068607595
 30
0.0
 40
6.000000000000014
100
AcDbArc
 50
270.0
 51
0.0
  0
LINE
  5
150
330
1F
100
AcDbEntity
  8
0
100
AcDbLine
 10
181.2055910893
 20
186.2068607595
 30
0.0
 11
181.2055910893
 21
118.2068607595
 31
0.0
  0
ARC
  5
151
330
1F
100
AcDbEntity
  8
0
100
AcDbCircle
 10
187.2055910893
 20
118.2068607595
 30
0.0
 40
6.0
100
AcDbArc
 50
180.0
 51
270.0
  0
LINE
  5
152
330
1F
100
AcDbEntity
  8
0
100
AcDbLine
 10
261.2055910893
 20
118.2068607595
 30
0.0
 11
261.2055910893
 21
186.2068607595
 31
0.0
  0
ARC
  5
153
330
1F
100
AcDbEntity
  8
0
100
AcDbCircle
 10
185.2055910893
 20
188.2068607595
 30
0.0
 40
6.0
100
AcDbArc
 50
90.0
 51
180.0
  0
LINE
  5
154
330
1F
100
AcDbEntity
  8
0
100
AcDbLine
 10
185.2055910893
 20
194.2068607595
 30
0.0
 11
257.2055910893
 21
194.2068607595
 31
0.0
  0
ARC
  5
155
330
1F
100
AcDbEntity
  8
0
100
AcDbCircle
 10
257.2055910893
 20
188.2068607595
 30
0.0
 40
6.0
100
AcDbArc
 50
0.0
 51
90.0
  0
LINE
  5
156
330
1F
100
AcDbEntity
  8
0
100
AcDbLine
 10
263.2055910893
 20
188.2068607595
 30
0.0
 11
263.2055910893
 21
116.2068607595
 31
0.0
  0
ARC
  5
157
330
1F
100
AcDbEntity
  8
0
100
AcDbCircle
 10
257.2055910893
 20
116.2068607595
 30
0.0
 40
5.999999999999986
100
AcDbArc
 50
270.0
 51
0.0
  0
LINE
  5
158
330
1F
100
AcDbEntity
  8
0
100
AcDbLine
 10
257.2055910893
 20
110.2068607595
 30
0.0
 11
185.2055910893
 21
110.2068607595
 31
0.0
  0
ARC
  5
159
330
1F
100
AcDbEntity
  8
0
100
AcDbCircle
 10
185.2055910893
 20
116.2068607595
 30
0.0
 40
6.0
100
AcDbArc
 50
180.0
 51
270.0
  0
LINE
  5
15A
330
1F
100
AcDbEntity
  8
0
100
AcDbLine
 10
179.2055910893
 20
116.2068607595
 30
0.0
 11
179.2055910893
 21
188.2068607595
 31
0.0
  0
LINE
  5
15B
330
1F
100
AcDbEntity
  8
0
100
AcDbLine
 10
228.7055910893
 20
194.7068607595
 30
0.0
 11
253.7055910893
 21
194.7068607595
 31
0.0
  0
LINE
  5
15C
330
1F
100
AcDbEntity
  8
0
100
AcDbLine
 10
228.7055910893
 20
109.7068607595
 30
0.0
 11
253.7055910893
 21
109.7068607595
 31
0.0
  0
LINE
  5
15D
330
1F
100
AcDbEntity
  8
0
100
AcDbLine
 10
188.7055910893
 20
194.7068607595
 30
0.0
 11
213.7055910893
 21
194.7068607595
 31
0.0
  0
LINE
  5
15E
330
1F
100
AcDbEntity
  8
0
100
AcDbLine
 10
188.7055910893
 20
109.7068607595
 30
0.0
 11
213.7055910893
 21
109.7068607595
 31
0.0
  0
LINE
  5
15F
330
1F
100
AcDbEntity
  8
0
100
AcDbLine
 10
178.7055910893
 20
139.7068607595
 30
0.0
 11
178.7055910893
 21
164.7068607595
 31
0.0
  0
LINE
  5
160
330
1F
100
AcDbEntity
  8
0
100
AcDbLine
 10
263.7055910893
 20
184.7068607595
 30
0.0
 11
263.7055910893
 21
159.7068607595
 31
0.0
  0
LINE
  5
161
330
1F
100
AcDbEntity
  8
0
100
AcDbLine
 10
263.7055910893
 20
144.7068607595
 30
0.0
 11
263.7055910893
 21
119.7068607595
 31
0.0
  0
LINE
  5
162
330
1F
100
AcDbEntity
  8
0
100
AcDbLine
 10
230.7055910893
 20
197.2068607595
 30
0.0
 11
251.7055910893
 21
197.2068607595
 31
0.0
  0
LINE
  5
163
330
1F
100
AcDbEntity
  8
0
100
AcDbLine
 10
230.7055910893
 20
107.2068607595
 30
0.0
 11
251.7055910893
 21
107.2068607595
 31
0.0
  0
LINE
  5
164
330
1F
100
AcDbEntity
  8
0
100
AcDbLine
 10
190.7055910893
 20
107.2068607595
 30
0.0
 11
211.7055910893
 21
107.2068607595
 31
0.0
  0
LINE
  5
165
330
1F
100
AcDbEntity
  8
0
100
AcDbLine
 10
266.2055910893
 20
182.7068607595
 30
0.0
 11
266.2055910893
 21
161.7068607595
 31
0.0
  0
LINE
  5
166
330
1F
100
AcDbEntity
  8
0
100
AcDbLine
 10
190.7055910893
 20
197.2068607595
 30
0.0
 11
211.7055910893
 21
197.2068607595
 31
0.0
  0
LINE
  5
167
330
1F
100
AcDbEntity
  8
0
100
AcDbLine
 10
266.2055910893
 20
142.7068607595
 30
0.0
 11
266.2055910893
 21
121.7068607595
 31
0.0
  0
LINE
  5
168
330
1F
100
AcDbEntity
  8
0
100
AcDbLine
 10
176.2055910893
 20
141.7068607595
 30
0.0
 11
176.2055910893
 21
162.7068607595
 31
0.0
  0
LINE
  5
169
330
1F
100
AcDbEntity
  8
0
100
AcDbLine
 10
193.2055910893
 20
104.7068607595
 30
0.0
 11
209.2055910893
 21
104.7068607595
 31
0.0
  0
LINE
  5
16A
330
1F
100
AcDbEntity
  8
0
100
AcDbLine
 10
233.2055910893
 20
104.7068607595
 30
0.0
 11
249.2055910893
 21
104.7068607595
 31
0.0
  0
LINE
  5
16B
330
1F
100
AcDbEntity
  8
0
100
AcDbLine
 10
193.2055910893
 20
199.7068607595
 30
0.0
 11
209.2055910893
 21
199.7068607595
 31
0.0
  0
LINE
  5
16C
330
1F
100
AcDbEntity
  8
0
100
AcDbLine
 10
233.2055910893
 20
199.7068607595
 30
0.0
 11
249.2055910893
 21
199.7068607595
 31
0.0
  0
LINE
  5
16D
330
1F
100
AcDbEntity
  8
0
100
AcDbLine
 10
268.7055910893
 20
140.2068607595
 30
0.0
 11
268.7055910893
 21
124.2068607595
 31
0.0
  0
LINE
  5
16E
330
1F
100
AcDbEntity
  8
0
100
AcDbLine
 10
268.7055910893
 20
180.2068607595
 30
0.0
 11
268.7055910893
 21
164.2068607595
 31
0.0
  0
LINE
  5
16F
330
1F
100
AcDbEntity
  8
0
100
AcDbLine
 10
173.7055910893
 20
144.2068607595
 30
0.0
 11
173.7055910893
 21
160.2068607595
 31
0.0
  0
LINE
  5
170
330
1F
100
AcDbEntity
  8
0
100
AcDbLine
 10
236.2055910893
 20
102.2068607595
 30
0.0
 11
246.2055910893
 21
102.2068607595
 31
0.0
  0
LINE
  5
171
330
1F
100
AcDbEntity
  8
0
100
AcDbLine
 10
196.2055910893
 20
102.2068607595
 30
0.0
 11
206.2055910893
 21
102.2068607595
 31
0.0
  0
LINE
  5
172
330
1F
100
AcDbEntity
  8
0
100
AcDbLine
 10
196.2055910893
 20
202.2068607595
 30
0.0
 11
206.2055910893
 21
202.2068607595
 31
0.0
  0
LINE
  5
173
330
1F
100
AcDbEntity
  8
0
100
AcDbLine
 10
271.2055910893
 20
137.2068607595
 30
0.0
 11
271.2055910893
 21
127.2068607595
 31
0.0
  0
LINE
  5
174
330
1F
100
AcDbEntity
  8
0
100
AcDbLine
 10
271.2055910893
 20
177.2068607595
 30
0.0
 11
271.2055910893
 21
167.2068607595
 31
0.0
  0
LINE
  5
175
330
1F
100
AcDbEntity
  8
0
100
AcDbLine
 10
236.2055910893
 20
202.2068607595
 30
0.0
 11
246.2055910893
 21
202.2068607595
 31
0.0
  0
LINE
  5
176
330
1F
100
AcDbEntity
  8
0
100
AcDbLine
 10
171.2055910893
 20
147.2068607595
 30
0.0
 11
171.2055910893
 21
157.2068607595
 31
0.0
  0
LINE
  5
177
330
1F
100
AcDbEntity
  8
0
100
AcDbLine
 10
231.1844199866
 20
353.2068607595
 30
0.0
 11
220.5844199866
 21
353.2068607595
 31
0.0
  0
LINE
  5
178
330
1F
100
AcDbEntity
  8
0
100
AcDbLine
 10
231.1844199866
 20
354.2068607595
 30
0.0
 11
220.5844199866
 21
354.2068607595
 31
0.0
  0
LINE
  5
179
330
1F
100
AcDbEntity
  8
0
100
AcDbLine
 10
224.8844199866
 20
355.0741138001
 30
0.0
 11
223.9223439573
 21
354.8460382807
 31
0.0
  0
SPLINE
  5
17A
330
1F
100
AcDbEntity
  8
0
100
AcDbSpline
210
0.0
220
0.0
230
1.0
 70
     8
 71
     3
 72
    12
 73
     8
 74
     0
 42
0.000000001
 43
0.00000001
 40
0.0
 40
0.0
 40
0.0
 40
0.0
 40
0.2174770912066961
 40
0.435370520825835
 40
0.649038872003352
 40
0.8610609605882167
 40
1.0
 40
1.0
 40
1.0
 40
1.0
 10
225.3983722542944
 20
355.0741138000744
 30
0.0
 10
225.3917636159229
 20
355.083091365685
 30
0.0
 10
225.3785336875944
 20
355.101063683569
 30
0.0
 10
225.287645699638
 20
355.1127323123483
 30
0.0
 10
225.1563078442889
 20
355.1097481649619
 30
0.0
 10
225.0140831801192
 20
355.0949392531018
 30
0.0
 10
224.9211933554769
 20
355.0800200410411
 30
0.0
 10
224.8844199866408
 20
355.0741138000728
 30
0.0
  0
LINE
  5
17B
330
1F
100
AcDbEntity
  8
0
100
AcDbLine
 10
225.4223439573
 20
354.8460382807
 30
0.0
 11
225.3983722543
 21
355.0741138001
 31
0.0
  0
LINE
  5
17C
330
1F
100
AcDbEntity
  8
0
100
AcDbLine
 10
226.3464960159
 20
354.8460382807
 30
0.0
 11
225.4223439573
 21
354.8460382807
 31
0.0
  0
LINE
  5
17D
330
1F
100
AcDbEntity
  8
0
100
AcDbLine
 10
226.370467719
 20
355.0741138001
 30
0.0
 11
226.3464960159
 21
354.8460382807
 31
0.0
  0
SPLINE
  5
17E
330
1F
100
AcDbEntity
  8
0
100
AcDbSpline
210
0.0
220
0.0
230
1.0
 70
     8
 71
     3
 72
    12
 73
     8
 74
     0
 42
0.000000001
 43
0.00000001
 40
0.0
 40
0.0
 40
0.0
 40
0.0
 40
0.2174770912063657
 40
0.4353705208256897
 40
0.6490388720029245
 40
0.8610609605877979
 40
1.0
 40
1.0
 40
1.0
 40
1.0
 10
226.8844199866408
 20
355.0741138000744
 30
0.0
 10
226.8266473464808
 20
355.0830913656852
 30
0.0
 10
226.710991466147
 20
355.1010636835695
 30
0.0
 10
226.5568866030946
 20
355.1127323123479
 30
0.0
 10
226.441634281435
 20
355.1097481649618
 30
0.0
 10
226.3809227365412
 20
355.0949392531022
 30
0.0
 10
226.3734328334994
 20
355.0800200410409
 30
0.0
 10
226.370467718987
 20
355.0741138000724
 30
0.0
  0
LINE
  5
17F
330
1F
100
AcDbEntity
  8
0
100
AcDbLine
 10
227.8464960159
 20
354.8460382807
 30
0.0
 11
226.8844199866
 21
355.0741138001
 31
0.0
  0
LINE
  5
180
330
1F
100
AcDbEntity
  8
0
100
AcDbLine
 10
220.584420625
 20
-49.7931392405
 30
0.0
 11
231.1844199866
 21
-49.7931392405
 31
0.0
  0
LINE
  5
181
330
1F
100
AcDbEntity
  8
0
100
AcDbLine
 10
220.584420625
 20
-48.7931392405
 30
0.0
 11
231.1844199866
 21
-48.7931392405
 31
0.0
  0
LINE
  5
182
330
1F
100
AcDbEntity
  8
0
100
AcDbLine
 10
226.3464960159
 20
-50.4323167617
 30
0.0
 11
226.370467719
 21
-50.6603922811
 31
0.0
  0
LINE
  5
183
330
1F
100
AcDbEntity
  8
0
100
AcDbLine
 10
225.4223439573
 20
-50.4323167617
 30
0.0
 11
226.3464960159
 21
-50.4323167617
 31
0.0
  0
LINE
  5
184
330
1F
100
AcDbEntity
  8
0
100
AcDbLine
 10
225.3983722543
 20
-50.6603922811
 30
0.0
 11
225.4223439573
 21
-50.4323167617
 31
0.0
  0
SPLINE
  5
185
330
1F
100
AcDbEntity
  8
0
100
AcDbSpline
210
0.0
220
0.0
230
1.0
 70
     8
 71
     3
 72
    12
 73
     8
 74
     0
 42
0.000000001
 43
0.00000001
 40
0.0
 40
0.0
 40
0.0
 40
0.0
 40
0.2174770912064687
 40
0.4353705208254987
 40
0.6490388720030137
 40
0.8610609605880136
 40
1.0
 40
1.0
 40
1.0
 40
1.0
 10
224.8844199866408
 20
-50.66039228108729
 30
0.0
 10
224.9421926268007
 20
-50.66936984669793
 30
0.0
 10
225.0578485071345
 20
-50.68734216458198
 30
0.0
 10
225.211953370187
 20
-50.69901079336015
 30
0.0
 10
225.3272056918465
 20
-50.69602664597514
 30
0.0
 10
225.3879172367403
 20
-50.68121773411477
 30
0.0
 10
225.3954071397821
 20
-50.66629852205379
 30
0.0
 10
225.3983722542945
 20
-50.66039228108524
 30
0.0
  0
LINE
  5
186
330
1F
100
AcDbEntity
  8
0
100
AcDbLine
 10
223.9223439573
 20
-50.4323167617
 30
0.0
 11
224.8844199866
 21
-50.6603922811
 31
0.0
  0
LINE
  5
187
330
1F
100
AcDbEntity
  8
0
100
AcDbLine
 10
226.8844199866
 20
-50.6603922811
 30
0.0
 11
227.8464960159
 21
-50.4323167617
 31
0.0
  0
SPLINE
  5
188
330
1F
100
AcDbEntity
  8
0
100
AcDbSpline
210
0.0
220
0.0
230
1.0
 70
     8
 71
     3
 72
    12
 73
     8
 74
     0
 42
0.000000001
 43
0.00000001
 40
0.0
 40
0.0
 40
0.0
 40
0.0
 40
0.2174770912068869
 40
0.4353705208260332
 40
0.6490388720036347
 40
0.8610609605884603
 40
1.0
 40
1.0
 40
1.0
 40
1.0
 10
226.3704677189872
 20
-50.66039228108707
 30
0.0
 10
226.3770763573588
 20
-50.66936984669793
 30
0.0
 10
226.3903062856874
 20
-50.68734216458232
 30
0.0
 10
226.4811942736434
 20
-50.69901079336056
 30
0.0
 10
226.6125321289926
 20
-50.69602664597556
 30
0.0
 10
226.754756793162
 20
-50.68121773411322
 30
0.0
 10
226.8476466178045
 20
-50.66629852205479
 30
0.0
 10
226.8844199866407
 20
-50.66039228108729
 30
0.0
  0
LINE
  5
193
330
1F
100
AcDbEntity
  8
0
 62
     8
370
    18
100
AcDbLine
 10
131.2055910893
 20
-4.7931392405
 30
0.0
 11
131.2055910893
 21
309.2068607595
 31
0.0
  0
LINE
  5
19D
330
1F
100
AcDbEntity
  8
0
  6
PHANTOM
 62
     8
370
    18
100
AcDbLine
 10
266.2022270315
 20
152.2068607595
 30
0.0
 11
266.2022270315
 21
161.7068607595
 31
0.0
  0
LINE
  5
1A0
330
1F
100
AcDbEntity
  8
0
  6
PHANTOM
 62
     8
370
    18
100
AcDbLine
 10
266.2022270315
 20
142.7068607595
 30
0.0
 11
266.2022270315
 21
152.2068607595
 31
0.0
  0
LINE
  5
1A3
330
1F
100
AcDbEntity
  8
0
 62
     8
370
    18
100
AcDbLine
 10
310.4820232677
 20
-4.793139240496771
 30
0.0
 11
310.4820232677
 21
309.2068607595
 31
0.0
  0
LINE
  5
1A5
330
1F
100
AcDbEntity
  8
0
  6
PHANTOM
 62
     8
370
    18
100
AcDbLine
 10
231.3844199866
 20
353.4068607595
 30
0.0
 11
220.3844199866
 21
353.4068607595
 31
0.0
  0
LINE
  5
1A6
330
1F
100
AcDbEntity
  8
0
  6
PHANTOM
 62
     8
370
    18
100
AcDbLine
 10
231.3844199866
 20
354.0068607595
 30
0.0
 11
220.3844199866
 21
354.0068607595
 31
0.0
  0
LINE
  5
1A7
330
1F
100
AcDbEntity
  8
0
  6
PHANTOM
 62
     8
370
    18
100
AcDbLine
 10
220.3844199866
 20
-48.9931392405
 30
0.0
 11
231.3844199866
 21
-48.9931392405
 31
0.0
  0
LINE
  5
1A8
330
1F
100
AcDbEntity
  8
0
  6
PHANTOM
 62
     8
370
    18
100
AcDbLine
 10
220.3844199866
 20
-49.5931392405
 30
0.0
 11
231.3844199866
 21
-49.5931392405
 31
0.0
  0
LINE
  5
1A9
330
1F
100
AcDbEntity
  8
0
100
AcDbLine
 10
838.239457699
 20
142.2068607595
 30
0.0
 11
839.1828058975
 21
142.2068607595
 31
0.0
  0
LINE
  5
1AA
330
1F
100
AcDbEntity
  8
0
100
AcDbLine
 10
839.1828058975
 20
162.2068607595
 30
0.0
 11
838.239457699
 21
162.2068607595
 31
0.0
  0
LINE
  5
1AB
330
1F
100
AcDbEntity
  8
0
100
AcDbLine
 10
867.6828058975
 20
192.2068607595
 30
0.0
 11
867.6828058975
 21
194.7068607595
 31
0.0
  0
LINE
  5
1AC
330
1F
100
AcDbEntity
  8
0
100
AcDbLine
 10
842.6828058975
 20
194.7068607595
 30
0.0
 11
842.6828058975
 21
192.2068607595
 31
0.0
  0
LINE
  5
1AD
330
1F
100
AcDbEntity
  8
0
100
AcDbLine
 10
842.6828058975
 20
112.2068607595
 30
0.0
 11
842.6828058975
 21
109.7068607595
 31
0.0
  0
LINE
  5
1AE
330
1F
100
AcDbEntity
  8
0
100
AcDbLine
 10
867.6828058975
 20
109.7068607595
 30
0.0
 11
867.6828058975
 21
112.2068607595
 31
0.0
  0
LINE
  5
1AF
330
1F
100
AcDbEntity
  8
0
100
AcDbLine
 10
865.6828058975
 20
194.7068607595
 30
0.0
 11
865.6828058975
 21
197.2068607595
 31
0.0
  0
LINE
  5
1B0
330
1F
100
AcDbEntity
  8
0
100
AcDbLine
 10
844.6828058975
 20
197.2068607595
 30
0.0
 11
844.6828058975
 21
194.7068607595
 31
0.0
  0
LINE
  5
1B1
330
1F
100
AcDbEntity
  8
0
100
AcDbLine
 10
844.6828058975
 20
109.7068607595
 30
0.0
 11
844.6828058975
 21
107.2068607595
 31
0.0
  0
LINE
  5
1B2
330
1F
100
AcDbEntity
  8
0
100
AcDbLine
 10
865.6828058975
 20
107.2068607595
 30
0.0
 11
865.6828058975
 21
109.7068607595
 31
0.0
  0
LINE
  5
1B3
330
1F
100
AcDbEntity
  8
0
100
AcDbLine
 10
863.1828058975
 20
197.2068607595
 30
0.0
 11
863.1828058975
 21
199.7068607595
 31
0.0
  0
LINE
  5
1B4
330
1F
100
AcDbEntity
  8
0
100
AcDbLine
 10
847.1828058975
 20
199.7068607595
 30
0.0
 11
847.1828058975
 21
197.2068607595
 31
0.0
  0
LINE
  5
1B5
330
1F
100
AcDbEntity
  8
0
100
AcDbLine
 10
847.1828058975
 20
107.2068607595
 30
0.0
 11
847.1828058975
 21
104.7068607595
 31
0.0
  0
LINE
  5
1B6
330
1F
100
AcDbEntity
  8
0
100
AcDbLine
 10
863.1828058975
 20
104.7068607595
 30
0.0
 11
863.1828058975
 21
107.2068607595
 31
0.0
  0
LINE
  5
1B7
330
1F
100
AcDbEntity
  8
0
100
AcDbLine
 10
860.1828058975
 20
199.7068607595
 30
0.0
 11
860.1828058975
 21
202.2068607595
 31
0.0
  0
LINE
  5
1B8
330
1F
100
AcDbEntity
  8
0
100
AcDbLine
 10
850.1828058975
 20
202.2068607595
 30
0.0
 11
850.1828058975
 21
199.7068607595
 31
0.0
  0
LINE
  5
1B9
330
1F
100
AcDbEntity
  8
0
100
AcDbLine
 10
850.1828058975
 20
104.7068607595
 30
0.0
 11
850.1828058975
 21
102.2068607595
 31
0.0
  0
LINE
  5
1BA
330
1F
100
AcDbEntity
  8
0
100
AcDbLine
 10
860.1828058975
 20
102.2068607595
 30
0.0
 11
860.1828058975
 21
104.7068607595
 31
0.0
  0
ARC
  5
1BB
330
1F
100
AcDbEntity
  8
0
100
AcDbCircle
 10
644.6828058975
 20
354.0068607595
 30
0.0
 40
0.1999999999999318
100
AcDbArc
 50
0.0
 51
90.0000000001
  0
ARC
  5
1BC
330
1F
100
AcDbEntity
  8
0
100
AcDbCircle
 10
634.0828058975
 20
354.0068607595
 30
0.0
 40
0.2000000000000455
100
AcDbArc
 50
89.9999999999
 51
180.0
  0
LINE
  5
1BD
330
1F
100
AcDbEntity
  8
0
100
AcDbLine
 10
644.8828058975
 20
353.4068607595
 30
0.0
 11
644.8828058975
 21
354.0068607595
 31
0.0
  0
LINE
  5
1BE
330
1F
100
AcDbEntity
  8
0
100
AcDbLine
 10
633.8828058975
 20
354.0068607595
 30
0.0
 11
633.8828058975
 21
353.4068607595
 31
0.0
  0
ARC
  5
1BF
330
1F
100
AcDbEntity
  8
0
100
AcDbCircle
 10
644.6828058975
 20
353.4068607595
 30
0.0
 40
0.2000000000000455
100
AcDbArc
 50
270.0
 51
0.0
  0
ARC
  5
1C0
330
1F
100
AcDbEntity
  8
0
100
AcDbCircle
 10
634.0828058975
 20
353.4068607595
 30
0.0
 40
0.2000000000000455
100
AcDbArc
 50
180.0
 51
270.0
  0
ARC
  5
1C1
330
1F
100
AcDbEntity
  8
0
100
AcDbCircle
 10
639.772943435
 20
347.2163793784
 30
0.0
 40
7.999999999999994
100
AcDbArc
 50
107.1467397277
 51
119.0955287963
  0
ARC
  5
1C2
330
1F
100
AcDbEntity
  8
0
100
AcDbCircle
 10
638.99266836
 20
347.2163793784
 30
0.0
 40
7.99999999999995
100
AcDbArc
 50
60.90447120369999
 51
72.8515803462
  0
LINE
  5
1C3
330
1F
100
AcDbEntity
  8
0
100
AcDbLine
 10
641.4828058975
 20
351.9958244186
 30
0.0
 11
641.4828058975
 21
352.1958354556
 31
0.0
  0
LINE
  5
1C4
330
1F
100
AcDbEntity
  8
0
100
AcDbLine
 10
641.4828058975
 20
353.1958903109
 30
0.0
 11
641.4828058975
 21
353.2068607595
 31
0.0
  0
LINE
  5
1C5
330
1F
100
AcDbEntity
  8
0
100
AcDbLine
 10
637.2828058975
 20
353.2068607595
 30
0.0
 11
637.2828058975
 21
353.1958903109
 31
0.0
  0
LINE
  5
1C6
330
1F
100
AcDbEntity
  8
0
100
AcDbLine
 10
637.2828058975
 20
352.1958354556
 30
0.0
 11
637.2828058975
 21
351.9958244186
 31
0.0
  0
LINE
  5
1C7
330
1F
100
AcDbEntity
  8
0
100
AcDbLine
 10
838.3793636567
 20
170.1068607595
 30
0.0
 11
838.5801703379
 21
170.1068607595
 31
0.0
  0
LINE
  5
1C8
330
1F
100
AcDbEntity
  8
0
100
AcDbLine
 10
839.1828058975
 20
174.3068607595
 30
0.0
 11
839.1641613839
 21
174.3068607595
 31
0.0
  0
LINE
  5
1C9
330
1F
100
AcDbEntity
  8
0
100
AcDbLine
 10
838.1580307119
 20
174.3068607595
 30
0.0
 11
837.9567971451
 21
174.3068607595
 31
0.0
  0
LINE
  5
1CA
330
1F
100
AcDbEntity
  8
0
100
AcDbLine
 10
837.9567971451
 20
130.1068607595
 30
0.0
 11
838.1580307119
 21
130.1068607595
 31
0.0
  0
LINE
  5
1CB
330
1F
100
AcDbEntity
  8
0
100
AcDbLine
 10
839.1641613839
 20
130.1068607595
 30
0.0
 11
839.1828058975
 21
130.1068607595
 31
0.0
  0
LINE
  5
1CC
330
1F
100
AcDbEntity
  8
0
100
AcDbLine
 10
838.5801703379
 20
134.3068607595
 30
0.0
 11
838.3793636567
 21
134.3068607595
 31
0.0
  0
ARC
  5
1CD
330
1F
100
AcDbEntity
  8
0
100
AcDbCircle
 10
438.5828058975
 20
177.5068607595
 30
0.0
 40
0.2000000000000455
100
AcDbArc
 50
90.0
 51
180.0000000001
  0
ARC
  5
1CE
330
1F
100
AcDbEntity
  8
0
100
AcDbCircle
 10
438.5828058975
 20
166.9068607595
 30
0.0
 40
0.2000000000000455
100
AcDbArc
 50
179.9999999999
 51
270.0
  0
LINE
  5
1CF
330
1F
100
AcDbEntity
  8
0
100
AcDbLine
 10
439.1828058975
 20
177.7068607595
 30
0.0
 11
438.5828058975
 21
177.7068607595
 31
0.0
  0
LINE
  5
1D0
330
1F
100
AcDbEntity
  8
0
100
AcDbLine
 10
438.5828058975
 20
166.7068607595
 30
0.0
 11
438.9064980704
 21
166.7068607595
 31
0.0
  0
ARC
  5
1D1
330
1F
100
AcDbEntity
  8
0
100
AcDbCircle
 10
439.1828058975
 20
177.5068607595
 30
0.0
 40
0.2000000000000455
100
AcDbArc
 50
360.0
 51
90.0
  0
ARC
  5
1D2
330
1F
100
AcDbEntity
  8
0
100
AcDbCircle
 10
445.3732872786
 20
172.596998297
 30
0.0
 40
7.999999999999985
100
AcDbArc
 50
197.1467397277
 51
209.0955287963
  0
ARC
  5
1D3
330
1F
100
AcDbEntity
  8
0
100
AcDbCircle
 10
445.3732872786
 20
171.816723222
 30
0.0
 40
8.0
100
AcDbArc
 50
150.9044712037
 51
162.8515803462
  0
LINE
  5
1D4
330
1F
100
AcDbEntity
  8
0
100
AcDbLine
 10
440.8088146499
 20
174.3068607595
 30
0.0
 11
440.6075810831
 21
174.3068607595
 31
0.0
  0
LINE
  5
1D5
330
1F
100
AcDbEntity
  8
0
100
AcDbLine
 10
439.6014504111
 20
174.3068607595
 30
0.0
 11
439.3828058975
 21
174.3068607595
 31
0.0
  0
LINE
  5
1D6
330
1F
100
AcDbEntity
  8
0
100
AcDbLine
 10
440.1854414571
 20
170.1068607595
 30
0.0
 11
440.3862481383
 21
170.1068607595
 31
0.0
  0
ARC
  5
1D7
330
1F
100
AcDbEntity
  8
0
100
AcDbCircle
 10
438.5828058975
 20
137.5068607595
 30
0.0
 40
0.2000000000000455
100
AcDbArc
 50
90.0
 51
180.0000000001
  0
ARC
  5
1D8
330
1F
100
AcDbEntity
  8
0
100
AcDbCircle
 10
438.5828058975
 20
126.9068607595
 30
0.0
 40
0.2000000000000455
100
AcDbArc
 50
179.9999999999
 51
270.0
  0
LINE
  5
1D9
330
1F
100
AcDbEntity
  8
0
100
AcDbLine
 10
438.9064980704
 20
137.7068607595
 30
0.0
 11
438.5828058975
 21
137.7068607595
 31
0.0
  0
LINE
  5
1DA
330
1F
100
AcDbEntity
  8
0
100
AcDbLine
 10
438.5828058975
 20
126.7068607595
 30
0.0
 11
439.1828058975
 21
126.7068607595
 31
0.0
  0
ARC
  5
1DB
330
1F
100
AcDbEntity
  8
0
100
AcDbCircle
 10
439.1828058975
 20
126.9068607595
 30
0.0
 40
0.2000000000000455
100
AcDbArc
 50
270.0
 51
0.0
  0
ARC
  5
1DC
330
1F
100
AcDbEntity
  8
0
100
AcDbCircle
 10
445.3732872786
 20
132.596998297
 30
0.0
 40
7.999999999999985
100
AcDbArc
 50
197.1467397277
 51
209.0955287963
  0
ARC
  5
1DD
330
1F
100
AcDbEntity
  8
0
100
AcDbCircle
 10
445.3732872786
 20
131.816723222
 30
0.0
 40
8.0
100
AcDbArc
 50
150.9044712037
 51
162.8515803462
  0
LINE
  5
1DE
330
1F
100
AcDbEntity
  8
0
100
AcDbLine
 10
440.3862481383
 20
134.3068607595
 30
0.0
 11
440.1854414571
 21
134.3068607595
 31
0.0
  0
LINE
  5
1DF
330
1F
100
AcDbEntity
  8
0
100
AcDbLine
 10
439.3828058975
 20
130.1068607595
 30
0.0
 11
439.6014504111
 21
130.1068607595
 31
0.0
  0
LINE
  5
1E0
330
1F
100
AcDbEntity
  8
0
100
AcDbLine
 10
440.6075810831
 20
130.1068607595
 30
0.0
 11
440.8088146499
 21
130.1068607595
 31
0.0
  0
LINE
  5
1E1
330
1F
100
AcDbEntity
  8
0
100
AcDbLine
 10
633.8828058975
 20
-48.9931392405
 30
0.0
 11
633.8828058975
 21
-49.5931392405
 31
0.0
  0
LINE
  5
1E2
330
1F
100
AcDbEntity
  8
0
100
AcDbLine
 10
644.8828058975
 20
-49.5931392405
 30
0.0
 11
644.8828058975
 21
-48.9931392405
 31
0.0
  0
ARC
  5
1E3
330
1F
100
AcDbEntity
  8
0
100
AcDbCircle
 10
634.0828058975
 20
-49.5931392405
 30
0.0
 40
0.2000000000000099
100
AcDbArc
 50
180.0
 51
270.0000000001
  0
ARC
  5
1E4
330
1F
100
AcDbEntity
  8
0
100
AcDbCircle
 10
644.6828058975
 20
-49.5931392405
 30
0.0
 40
0.2000000000000099
100
AcDbArc
 50
269.9999999999
 51
0.0
  0
ARC
  5
1E5
330
1F
100
AcDbEntity
  8
0
100
AcDbCircle
 10
634.0828058975
 20
-48.9931392405
 30
0.0
 40
0.2000000000000099
100
AcDbArc
 50
90.0
 51
180.0
  0
ARC
  5
1E6
330
1F
100
AcDbEntity
  8
0
100
AcDbCircle
 10
644.6828058975
 20
-48.9931392405
 30
0.0
 40
0.2000000000000099
100
AcDbArc
 50
0.0
 51
90.0
  0
ARC
  5
1E7
330
1F
100
AcDbEntity
  8
0
100
AcDbCircle
 10
638.99266836
 20
-42.8026578594
 30
0.0
 40
8.000000000000027
100
AcDbArc
 50
287.1467397277
 51
299.0955287963
  0
ARC
  5
1E8
330
1F
100
AcDbEntity
  8
0
100
AcDbCircle
 10
639.772943435
 20
-42.8026578594
 30
0.0
 40
7.999999999999996
100
AcDbArc
 50
240.9044712037
 51
252.8515803462
  0
LINE
  5
1E9
330
1F
100
AcDbEntity
  8
0
100
AcDbLine
 10
637.2828058975
 20
-47.5821028997
 30
0.0
 11
637.2828058975
 21
-47.7821139366
 31
0.0
  0
LINE
  5
1EA
330
1F
100
AcDbEntity
  8
0
100
AcDbLine
 10
637.2828058975
 20
-48.7821687919
 30
0.0
 11
637.2828058975
 21
-48.7931392405
 31
0.0
  0
LINE
  5
1EB
330
1F
100
AcDbEntity
  8
0
100
AcDbLine
 10
641.4828058975
 20
-48.7931392405
 30
0.0
 11
641.4828058975
 21
-48.7821687919
 31
0.0
  0
LINE
  5
1EC
330
1F
100
AcDbEntity
  8
0
100
AcDbLine
 10
641.4828058975
 20
-47.7821139366
 30
0.0
 11
641.4828058975
 21
-47.5821028997
 31
0.0
  0
CIRCLE
  5
1ED
330
1F
100
AcDbEntity
  8
0
100
AcDbCircle
 10
639.3828058975
 20
152.2068607595
 30
0.0
 40
157.0
  0
CIRCLE
  5
1EE
330
1F
100
AcDbEntity
  8
0
100
AcDbCircle
 10
639.3828058975
 20
152.2068607595
 30
0.0
 40
82.9999994037402
  0
SPLINE
  5
1F0
330
1F
100
AcDbEntity
  8
0
100
AcDbSpline
210
0.0
220
0.0
230
1.0
 70
     8
 71
     3
 72
     9
 73
     5
 74
     0
 42
0.000000001
 43
0.00000001
 40
0.0
 40
0.0
 40
0.0
 40
0.0
 40
0.463347510170394
 40
1.0
 40
1.0
 40
1.0
 40
1.0
 10
838.2387769313231
 20
162.2068607594937
 30
0.0
 10
838.2306374086224
 20
162.3710014159272
 30
0.0
 10
838.2130706309405
 20
162.7252509863484
 30
0.0
 10
838.2184228460147
 20
162.6187678391457
 30
0.0
 10
838.2212951255607
 20
162.5616233930745
 30
0.0
  0
SPLINE
  5
1F1
330
1F
100
AcDbEntity
  8
0
100
AcDbSpline
210
0.0
220
0.0
230
1.0
 70
     8
 71
     3
 72
     9
 73
     5
 74
     0
 42
0.000000001
 43
0.00000001
 40
0.0
 40
0.0
 40
0.0
 40
0.0
 40
0.3354392606340526
 40
1.0
 40
1.0
 40
1.0
 40
1.0
 10
838.2196496470431
 20
141.8212006359041
 30
0.0
 10
838.2175052487402
 20
141.7794894507281
 30
0.0
 10
838.2111124421887
 20
141.6551414984424
 30
0.0
 10
838.227839765215
 20
141.9865918612939
 30
0.0
 10
838.2389560873729
 20
142.2068607594936
 30
0.0
  0
ARC
  5
1F4
330
1F
100
AcDbEntity
  8
0
100
AcDbCircle
 10
639.3828058975
 20
152.2068607595
 30
0.0
 40
200.9999999999997
100
AcDbArc
 50
6.3124476372
 51
353.6875523628
  0
CIRCLE
  5
1F6
330
1F
100
AcDbEntity
  8
0
100
AcDbCircle
 10
855.1828058975
 20
152.2068607595
 30
0.0
 40
5.0
  0
CIRCLE
  5
1F7
330
1F
100
AcDbEntity
  8
0
100
AcDbCircle
 10
855.1828058975
 20
152.2068607595
 30
0.0
 40
8.0
  0
CIRCLE
  5
1F8
330
1F
100
AcDbEntity
  8
0
100
AcDbCircle
 10
855.1828058975
 20
152.2068607595
 30
0.0
 40
10.5
  0
CIRCLE
  5
1F9
330
1F
100
AcDbEntity
  8
0
100
AcDbCircle
 10
855.1828058975
 20
152.2068607595
 30
0.0
 40
12.5
  0
LINE
  5
1FA
330
1F
100
AcDbEntity
  8
0
100
AcDbLine
 10
880.0828058975
 20
194.2068607595
 30
0.0
 11
880.0828058975
 21
188.2068607595
 31
0.0
  0
LINE
  5
1FB
330
1F
100
AcDbEntity
  8
0
100
AcDbLine
 10
878.6828058975
 20
188.2068607595
 30
0.0
 11
878.6828058975
 21
192.8068607595
 31
0.0
  0
LINE
  5
1FC
330
1F
100
AcDbEntity
  8
0
100
AcDbLine
 10
880.0828058975
 20
194.2068607595
 30
0.0
 11
878.6828058975
 21
192.8068607595
 31
0.0
  0
LINE
  5
1FD
330
1F
100
AcDbEntity
  8
0
100
AcDbLine
 10
881.1828058975
 20
194.2068607595
 30
0.0
 11
881.1828058975
 21
188.2068607595
 31
0.0
  0
LINE
  5
1FE
330
1F
100
AcDbEntity
  8
0
100
AcDbLine
 10
880.0828058975
 20
194.2068607595
 30
0.0
 11
881.1828058975
 21
194.2068607595
 31
0.0
  0
LINE
  5
1FF
330
1F
100
AcDbEntity
  8
0
100
AcDbLine
 10
880.0828058975
 20
188.2068607595
 30
0.0
 11
880.0828058975
 21
116.2068607595
 31
0.0
  0
LINE
  5
200
330
1F
100
AcDbEntity
  8
0
100
AcDbLine
 10
878.6828058975
 20
116.2068607595
 30
0.0
 11
878.6828058975
 21
188.2068607595
 31
0.0
  0
LINE
  5
201
330
1F
100
AcDbEntity
  8
0
100
AcDbLine
 10
881.1828058975
 20
116.2068607595
 30
0.0
 11
881.1828058975
 21
188.2068607595
 31
0.0
  0
LINE
  5
202
330
1F
100
AcDbEntity
  8
0
100
AcDbLine
 10
880.0828058975
 20
116.2068607595
 30
0.0
 11
880.0828058975
 21
110.2068607595
 31
0.0
  0
LINE
  5
203
330
1F
100
AcDbEntity
  8
0
100
AcDbLine
 10
880.0828058975
 20
110.2068607595
 30
0.0
 11
878.6828058975
 21
111.6068607595
 31
0.0
  0
LINE
  5
204
330
1F
100
AcDbEntity
  8
0
100
AcDbLine
 10
878.6828058975
 20
111.6068607595
 30
0.0
 11
878.6828058975
 21
116.2068607595
 31
0.0
  0
LINE
  5
205
330
1F
100
AcDbEntity
  8
0
100
AcDbLine
 10
881.1828058975
 20
110.2068607595
 30
0.0
 11
880.0828058975
 21
110.2068607595
 31
0.0
  0
LINE
  5
206
330
1F
100
AcDbEntity
  8
0
100
AcDbLine
 10
881.1828058975
 20
116.2068607595
 30
0.0
 11
881.1828058975
 21
110.2068607595
 31
0.0
  0
LINE
  5
207
330
1F
100
AcDbEntity
  8
0
100
AcDbLine
 10
839.1828058975
 20
192.2068607595
 30
0.0
 11
878.6828058975
 21
192.2068607595
 31
0.0
  0
LINE
  5
208
330
1F
100
AcDbEntity
  8
0
100
AcDbLine
 10
839.1828058975
 20
186.2068607595
 30
0.0
 11
839.1828058975
 21
192.2068607595
 31
0.0
  0
LINE
  5
209
330
1F
100
AcDbEntity
  8
0
100
AcDbLine
 10
839.1828058975
 20
186.2068607595
 30
0.0
 11
839.1828058975
 21
118.2068607595
 31
0.0
  0
LINE
  5
20A
330
1F
100
AcDbEntity
  8
0
100
AcDbLine
 10
881.1828058975
 20
192.2068607595
 30
0.0
 11
884.1828058975
 21
192.2068607595
 31
0.0
  0
LINE
  5
20B
330
1F
100
AcDbEntity
  8
0
100
AcDbLine
 10
884.1828058975
 20
192.2068607595
 30
0.0
 11
884.1828058975
 21
186.2068607595
 31
0.0
  0
LINE
  5
20C
330
1F
100
AcDbEntity
  8
0
100
AcDbLine
 10
884.1828058975
 20
186.2068607595
 30
0.0
 11
884.1828058975
 21
118.2068607595
 31
0.0
  0
LINE
  5
20D
330
1F
100
AcDbEntity
  8
0
100
AcDbLine
 10
878.6828058975
 20
112.2068607595
 30
0.0
 11
839.1828058975
 21
112.2068607595
 31
0.0
  0
LINE
  5
20E
330
1F
100
AcDbEntity
  8
0
100
AcDbLine
 10
839.1828058975
 20
112.2068607595
 30
0.0
 11
839.1828058975
 21
118.2068607595
 31
0.0
  0
LINE
  5
20F
330
1F
100
AcDbEntity
  8
0
100
AcDbLine
 10
884.1828058975
 20
112.2068607595
 30
0.0
 11
881.1828058975
 21
112.2068607595
 31
0.0
  0
LINE
  5
210
330
1F
100
AcDbEntity
  8
0
100
AcDbLine
 10
884.1828058975
 20
118.2068607595
 30
0.0
 11
884.1828058975
 21
112.2068607595
 31
0.0
  0
LINE
  5
211
330
1F
100
AcDbEntity
  8
0
100
AcDbLine
 10
855.1828058975
 20
194.7068607595
 30
0.0
 11
867.6828058975
 21
194.7068607595
 31
0.0
  0
LINE
  5
212
330
1F
100
AcDbEntity
  8
0
100
AcDbLine
 10
842.6828058975
 20
194.7068607595
 30
0.0
 11
855.1828058975
 21
194.7068607595
 31
0.0
  0
LINE
  5
213
330
1F
100
AcDbEntity
  8
0
100
AcDbLine
 10
855.1828058975
 20
109.7068607595
 30
0.0
 11
867.6828058975
 21
109.7068607595
 31
0.0
  0
LINE
  5
214
330
1F
100
AcDbEntity
  8
0
100
AcDbLine
 10
842.6828058975
 20
109.7068607595
 30
0.0
 11
855.1828058975
 21
109.7068607595
 31
0.0
  0
LINE
  5
215
330
1F
100
AcDbEntity
  8
0
100
AcDbLine
 10
855.1828058975
 20
197.2068607595
 30
0.0
 11
865.6828058975
 21
197.2068607595
 31
0.0
  0
LINE
  5
216
330
1F
100
AcDbEntity
  8
0
100
AcDbLine
 10
844.6828058975
 20
197.2068607595
 30
0.0
 11
855.1828058975
 21
197.2068607595
 31
0.0
  0
LINE
  5
217
330
1F
100
AcDbEntity
  8
0
100
AcDbLine
 10
855.1828058975
 20
107.2068607595
 30
0.0
 11
865.6828058975
 21
107.2068607595
 31
0.0
  0
LINE
  5
218
330
1F
100
AcDbEntity
  8
0
100
AcDbLine
 10
844.6828058975
 20
107.2068607595
 30
0.0
 11
855.1828058975
 21
107.2068607595
 31
0.0
  0
LINE
  5
219
330
1F
100
AcDbEntity
  8
0
100
AcDbLine
 10
855.1828058975
 20
199.7068607595
 30
0.0
 11
863.1828058975
 21
199.7068607595
 31
0.0
  0
LINE
  5
21A
330
1F
100
AcDbEntity
  8
0
100
AcDbLine
 10
847.1828058975
 20
199.7068607595
 30
0.0
 11
855.1828058975
 21
199.7068607595
 31
0.0
  0
LINE
  5
21B
330
1F
100
AcDbEntity
  8
0
100
AcDbLine
 10
855.1828058975
 20
104.7068607595
 30
0.0
 11
863.1828058975
 21
104.7068607595
 31
0.0
  0
LINE
  5
21C
330
1F
100
AcDbEntity
  8
0
100
AcDbLine
 10
847.1828058975
 20
104.7068607595
 30
0.0
 11
855.1828058975
 21
104.7068607595
 31
0.0
  0
LINE
  5
21D
330
1F
100
AcDbEntity
  8
0
100
AcDbLine
 10
855.1828058975
 20
202.2068607595
 30
0.0
 11
860.1828058975
 21
202.2068607595
 31
0.0
  0
LINE
  5
21E
330
1F
100
AcDbEntity
  8
0
100
AcDbLine
 10
850.1828058975
 20
202.2068607595
 30
0.0
 11
855.1828058975
 21
202.2068607595
 31
0.0
  0
LINE
  5
21F
330
1F
100
AcDbEntity
  8
0
100
AcDbLine
 10
855.1828058975
 20
102.2068607595
 30
0.0
 11
860.1828058975
 21
102.2068607595
 31
0.0
  0
LINE
  5
220
330
1F
100
AcDbEntity
  8
0
100
AcDbLine
 10
850.1828058975
 20
102.2068607595
 30
0.0
 11
855.1828058975
 21
102.2068607595
 31
0.0
  0
LINE
  5
221
330
1F
100
AcDbEntity
  8
0
100
AcDbLine
 10
644.6828058975
 20
354.2068607595
 30
0.0
 11
634.0828058975
 21
354.2068607595
 31
0.0
  0
LINE
  5
222
330
1F
100
AcDbEntity
  8
0
100
AcDbLine
 10
644.6828058975
 20
353.2068607595
 30
0.0
 11
634.0828058975
 21
353.2068607595
 31
0.0
  0
LINE
  5
223
330
1F
100
AcDbEntity
  8
0
100
AcDbLine
 10
638.3828058975
 20
355.0741138001
 30
0.0
 11
637.4207298682
 21
354.8460382807
 31
0.0
  0
SPLINE
  5
224
330
1F
100
AcDbEntity
  8
0
100
AcDbSpline
210
0.0
220
0.0
230
1.0
 70
     8
 71
     3
 72
    12
 73
     8
 74
     0
 42
0.000000001
 43
0.00000001
 40
0.0
 40
0.0
 40
0.0
 40
0.0
 40
0.2174770912064688
 40
0.4353705208254988
 40
0.6490388720030138
 40
0.8610609605880136
 40
0.9999999999999999
 40
0.9999999999999999
 40
0.9999999999999999
 40
0.9999999999999999
 10
638.8967581651564
 20
355.0741138000745
 30
0.0
 10
638.8901495267847
 20
355.0830913656852
 30
0.0
 10
638.8769195984559
 20
355.1010636835691
 30
0.0
 10
638.7860316104998
 20
355.1127323123475
 30
0.0
 10
638.6546937551509
 20
355.1097481649622
 30
0.0
 10
638.512469090981
 20
355.094939253102
 30
0.0
 10
638.4195792663385
 20
355.080020041041
 30
0.0
 10
638.3828058975025
 20
355.0741138000725
 30
0.0
  0
LINE
  5
225
330
1F
100
AcDbEntity
  8
0
100
AcDbLine
 10
638.9207298682
 20
354.8460382807
 30
0.0
 11
638.8967581652
 21
355.0741138001
 31
0.0
  0
LINE
  5
226
330
1F
100
AcDbEntity
  8
0
100
AcDbLine
 10
639.8448819268
 20
354.8460382807
 30
0.0
 11
638.9207298682
 21
354.8460382807
 31
0.0
  0
LINE
  5
227
330
1F
100
AcDbEntity
  8
0
100
AcDbLine
 10
639.8688536298
 20
355.0741138001
 30
0.0
 11
639.8448819268
 21
354.8460382807
 31
0.0
  0
SPLINE
  5
228
330
1F
100
AcDbEntity
  8
0
100
AcDbSpline
210
0.0
220
0.0
230
1.0
 70
     8
 71
     3
 72
    12
 73
     8
 74
     0
 42
0.000000001
 43
0.00000001
 40
0.0
 40
0.0
 40
0.0
 40
0.0
 40
0.2174770912066961
 40
0.435370520825835
 40
0.649038872003352
 40
0.8610609605882167
 40
1.0
 40
1.0
 40
1.0
 40
1.0
 10
640.3828058975025
 20
355.0741138000744
 30
0.0
 10
640.3250332573425
 20
355.083091365685
 30
0.0
 10
640.2093773770085
 20
355.101063683569
 30
0.0
 10
640.0552725139561
 20
355.1127323123483
 30
0.0
 10
639.9400201922971
 20
355.1097481649619
 30
0.0
 10
639.8793086474029
 20
355.0949392531018
 30
0.0
 10
639.8718187443613
 20
355.0800200410411
 30
0.0
 10
639.868853629849
 20
355.0741138000728
 30
0.0
  0
LINE
  5
229
330
1F
100
AcDbEntity
  8
0
100
AcDbLine
 10
641.3448819268
 20
354.8460382807
 30
0.0
 11
640.3828058975
 21
355.0741138001
 31
0.0
  0
LINE
  5
22A
330
1F
100
AcDbEntity
  8
0
100
AcDbLine
 10
438.3828058975
 20
177.5068607595
 30
0.0
 11
438.3828058975
 21
166.9068607595
 31
0.0
  0
LINE
  5
22B
330
1F
100
AcDbEntity
  8
0
100
AcDbLine
 10
439.3828058975
 20
177.5068607595
 30
0.0
 11
439.3828058975
 21
172.231845154
 31
0.0
  0
LINE
  5
22C
330
1F
100
AcDbEntity
  8
0
100
AcDbLine
 10
437.5155528569
 20
171.2068607595
 30
0.0
 11
437.7436283763
 21
170.2447847302
 31
0.0
  0
SPLINE
  5
22D
330
1F
100
AcDbEntity
  8
0
100
AcDbSpline
210
0.0
220
0.0
230
1.0
 70
     8
 71
     3
 72
    12
 73
     8
 74
     0
 42
0.000000001
 43
0.00000001
 40
0.0
 40
0.0
 40
0.0
 40
0.0
 40
0.2174770912064687
 40
0.4353705208254987
 40
0.6490388720030137
 40
0.8610609605880136
 40
1.0
 40
1.0
 40
1.0
 40
1.0
 10
437.5155528569233
 20
171.7208130271473
 30
0.0
 10
437.5065752913125
 20
171.7142043887756
 30
0.0
 10
437.4886029734286
 20
171.7009744604468
 30
0.0
 10
437.4769343446502
 20
171.6100864724907
 30
0.0
 10
437.4799184920355
 20
171.4787486171419
 30
0.0
 10
437.4947274038957
 20
171.3365239529718
 30
0.0
 10
437.5096466159567
 20
171.2436341283295
 30
0.0
 10
437.5155528569252
 20
171.2068607594934
 30
0.0
  0
LINE
  5
22E
330
1F
100
AcDbEntity
  8
0
100
AcDbLine
 10
437.7436283763
 20
171.7447847302
 30
0.0
 11
437.5155528569
 21
171.7208130271
 31
0.0
  0
LINE
  5
22F
330
1F
100
AcDbEntity
  8
0
100
AcDbLine
 10
437.7436283763
 20
172.6689367888
 30
0.0
 11
437.7436283763
 21
171.7447847302
 31
0.0
  0
LINE
  5
230
330
1F
100
AcDbEntity
  8
0
100
AcDbLine
 10
437.5155528569
 20
172.6929084918
 30
0.0
 11
437.7436283763
 21
172.6689367888
 31
0.0
  0
SPLINE
  5
231
330
1F
100
AcDbEntity
  8
0
100
AcDbSpline
210
0.0
220
0.0
230
1.0
 70
     8
 71
     3
 72
    12
 73
     8
 74
     0
 42
0.000000001
 43
0.00000001
 40
0.0
 40
0.0
 40
0.0
 40
0.0
 40
0.2174770912066959
 40
0.4353705208258347
 40
0.6490388720033518
 40
0.8610609605882166
 40
0.9999999999999999
 40
0.9999999999999999
 40
0.9999999999999999
 40
0.9999999999999999
 10
437.5155528569233
 20
173.2068607594934
 30
0.0
 10
437.5065752913126
 20
173.1490881193334
 30
0.0
 10
437.4886029734287
 20
173.0334322389996
 30
0.0
 10
437.4769343446494
 20
172.8793273759471
 30
0.0
 10
437.479918492036
 20
172.7640750542881
 30
0.0
 10
437.4947274038959
 20
172.7033635093939
 30
0.0
 10
437.5096466159566
 20
172.6958736063523
 30
0.0
 10
437.515552856925
 20
172.69290849184
 30
0.0
  0
LINE
  5
232
330
1F
100
AcDbEntity
  8
0
100
AcDbLine
 10
437.7436283763
 20
174.1689367888
 30
0.0
 11
437.5155528569
 21
173.2068607595
 31
0.0
  0
LINE
  5
233
330
1F
100
AcDbEntity
  8
0
100
AcDbLine
 10
438.3828058975
 20
137.5068607595
 30
0.0
 11
438.3828058975
 21
126.9068607595
 31
0.0
  0
LINE
  5
234
330
1F
100
AcDbEntity
  8
0
100
AcDbLine
 10
439.3828058975
 20
132.181876365
 30
0.0
 11
439.3828058975
 21
126.9068607595
 31
0.0
  0
LINE
  5
235
330
1F
100
AcDbEntity
  8
0
100
AcDbLine
 10
437.5155528569
 20
131.2068607595
 30
0.0
 11
437.7436283763
 21
130.2447847302
 31
0.0
  0
SPLINE
  5
236
330
1F
100
AcDbEntity
  8
0
100
AcDbSpline
210
0.0
220
0.0
230
1.0
 70
     8
 71
     3
 72
    12
 73
     8
 74
     0
 42
0.000000001
 43
0.00000001
 40
0.0
 40
0.0
 40
0.0
 40
0.0
 40
0.2174770912064687
 40
0.4353705208254987
 40
0.6490388720030137
 40
0.8610609605880136
 40
1.0
 40
1.0
 40
1.0
 40
1.0
 10
437.5155528569233
 20
131.7208130271473
 30
0.0
 10
437.5065752913125
 20
131.7142043887756
 30
0.0
 10
437.4886029734286
 20
131.7009744604468
 30
0.0
 10
437.4769343446502
 20
131.6100864724907
 30
0.0
 10
437.4799184920355
 20
131.4787486171419
 30
0.0
 10
437.4947274038957
 20
131.3365239529718
 30
0.0
 10
437.5096466159567
 20
131.2436341283295
 30
0.0
 10
437.5155528569252
 20
131.2068607594934
 30
0.0
  0
LINE
  5
237
330
1F
100
AcDbEntity
  8
0
100
AcDbLine
 10
437.7436283763
 20
131.7447847302
 30
0.0
 11
437.5155528569
 21
131.7208130271
 31
0.0
  0
LINE
  5
238
330
1F
100
AcDbEntity
  8
0
100
AcDbLine
 10
437.7436283763
 20
132.6689367888
 30
0.0
 11
437.7436283763
 21
131.7447847302
 31
0.0
  0
LINE
  5
239
330
1F
100
AcDbEntity
  8
0
100
AcDbLine
 10
437.5155528569
 20
132.6929084918
 30
0.0
 11
437.7436283763
 21
132.6689367888
 31
0.0
  0
SPLINE
  5
23A
330
1F
100
AcDbEntity
  8
0
100
AcDbSpline
210
0.0
220
0.0
230
1.0
 70
     8
 71
     3
 72
    12
 73
     8
 74
     0
 42
0.000000001
 43
0.00000001
 40
0.0
 40
0.0
 40
0.0
 40
0.0
 40
0.2174770912066959
 40
0.4353705208258347
 40
0.6490388720033518
 40
0.8610609605882166
 40
0.9999999999999999
 40
0.9999999999999999
 40
0.9999999999999999
 40
0.9999999999999999
 10
437.5155528569233
 20
133.2068607594934
 30
0.0
 10
437.5065752913126
 20
133.1490881193334
 30
0.0
 10
437.4886029734287
 20
133.0334322389996
 30
0.0
 10
437.4769343446494
 20
132.8793273759471
 30
0.0
 10
437.479918492036
 20
132.7640750542881
 30
0.0
 10
437.4947274038959
 20
132.7033635093939
 30
0.0
 10
437.5096466159566
 20
132.6958736063523
 30
0.0
 10
437.515552856925
 20
132.69290849184
 30
0.0
  0
LINE
  5
23B
330
1F
100
AcDbEntity
  8
0
100
AcDbLine
 10
437.7436283763
 20
134.1689367888
 30
0.0
 11
437.5155528569
 21
133.2068607595
 31
0.0
  0
LINE
  5
23C
330
1F
100
AcDbEntity
  8
0
100
AcDbLine
 10
634.0828058975
 20
-49.7931392405
 30
0.0
 11
644.6828058975
 21
-49.7931392405
 31
0.0
  0
LINE
  5
23D
330
1F
100
AcDbEntity
  8
0
100
AcDbLine
 10
634.0828058975
 20
-48.7931392405
 30
0.0
 11
644.6828058975
 21
-48.7931392405
 31
0.0
  0
LINE
  5
23E
330
1F
100
AcDbEntity
  8
0
100
AcDbLine
 10
640.3828058975
 20
-50.6603922811
 30
0.0
 11
641.3448819268
 21
-50.4323167617
 31
0.0
  0
SPLINE
  5
23F
330
1F
100
AcDbEntity
  8
0
100
AcDbSpline
210
0.0
220
0.0
230
1.0
 70
     8
 71
     3
 72
    12
 73
     8
 74
     0
 42
0.000000001
 43
0.00000001
 40
0.0
 40
0.0
 40
0.0
 40
0.0
 40
0.2174770912064687
 40
0.4353705208254987
 40
0.6490388720030137
 40
0.8610609605880136
 40
1.0
 40
1.0
 40
1.0
 40
1.0
 10
639.8688536298505
 20
-50.66039228108729
 30
0.0
 10
639.8754622682221
 20
-50.66936984669793
 30
0.0
 10
639.888692196551
 20
-50.68734216458198
 30
0.0
 10
639.979580184507
 20
-50.69901079336015
 30
0.0
 10
640.1109180398557
 20
-50.69602664597514
 30
0.0
 10
640.2531427040259
 20
-50.68121773411477
 30
0.0
 10
640.3460325286683
 20
-50.66629852205379
 30
0.0
 10
640.3828058975043
 20
-50.66039228108524
 30
0.0
  0
LINE
  5
240
330
1F
100
AcDbEntity
  8
0
100
AcDbLine
 10
639.8448819268
 20
-50.4323167617
 30
0.0
 11
639.8688536299
 21
-50.6603922811
 31
0.0
  0
LINE
  5
241
330
1F
100
AcDbEntity
  8
0
100
AcDbLine
 10
638.9207298682
 20
-50.4323167617
 30
0.0
 11
639.8448819268
 21
-50.4323167617
 31
0.0
  0
LINE
  5
242
330
1F
100
AcDbEntity
  8
0
100
AcDbLine
 10
638.8967581652
 20
-50.6603922811
 30
0.0
 11
638.9207298682
 21
-50.4323167617
 31
0.0
  0
SPLINE
  5
243
330
1F
100
AcDbEntity
  8
0
100
AcDbSpline
210
0.0
220
0.0
230
1.0
 70
     8
 71
     3
 72
    12
 73
     8
 74
     0
 42
0.000000001
 43
0.00000001
 40
0.0
 40
0.0
 40
0.0
 40
0.0
 40
0.2174770912066959
 40
0.4353705208258347
 40
0.6490388720033518
 40
0.8610609605882166
 40
0.9999999999999999
 40
0.9999999999999999
 40
0.9999999999999999
 40
0.9999999999999999
 10
638.3828058975043
 20
-50.6603922810872
 30
0.0
 10
638.4405785376644
 20
-50.66936984669781
 30
0.0
 10
638.5562344179981
 20
-50.68734216458176
 30
0.0
 10
638.7103392810506
 20
-50.69901079336114
 30
0.0
 10
638.8255916027097
 20
-50.69602664597456
 30
0.0
 10
638.8863031476037
 20
-50.68121773411455
 30
0.0
 10
638.8937930506454
 20
-50.66629852205393
 30
0.0
 10
638.8967581651576
 20
-50.66039228108554
 30
0.0
  0
LINE
  5
244
330
1F
100
AcDbEntity
  8
0
100
AcDbLine
 10
637.4207298682
 20
-50.4323167617
 30
0.0
 11
638.3828058975
 21
-50.6603922811
 31
0.0
  0
LINE
  5
24C
330
1F
100
AcDbEntity
  8
0
  6
PHANTOM
 62
     8
370
    18
100
AcDbLine
 10
880.0828058975
 20
188.2068607595
 30
0.0
 11
878.6828058975
 21
188.2068607595
 31
0.0
  0
LINE
  5
24D
330
1F
100
AcDbEntity
  8
0
  6
PHANTOM
 62
     8
370
    18
100
AcDbLine
 10
881.1828058975
 20
188.2068607595
 30
0.0
 11
880.0828058975
 21
188.2068607595
 31
0.0
  0
LINE
  5
24E
330
1F
100
AcDbEntity
  8
0
  6
PHANTOM
 62
     8
370
    18
100
AcDbLine
 10
880.0828058975
 20
116.2068607595
 30
0.0
 11
878.6828058975
 21
116.2068607595
 31
0.0
  0
LINE
  5
24F
330
1F
100
AcDbEntity
  8
0
  6
PHANTOM
 62
     8
370
    18
100
AcDbLine
 10
880.0828058975
 20
116.2068607595
 30
0.0
 11
881.1828058975
 21
116.2068607595
 31
0.0
  0
LINE
  5
250
330
1F
100
AcDbEntity
  8
0
  6
PHANTOM
 62
     8
370
    18
100
AcDbLine
 10
878.6828058975
 20
186.2068607595
 30
0.0
 11
839.1828058975
 21
186.2068607595
 31
0.0
  0
LINE
  5
251
330
1F
100
AcDbEntity
  8
0
  6
PHANTOM
 62
     8
370
    18
100
AcDbLine
 10
839.1828058975
 20
118.2068607595
 30
0.0
 11
878.6828058975
 21
118.2068607595
 31
0.0
  0
LINE
  5
252
330
1F
100
AcDbEntity
  8
0
  6
PHANTOM
 62
     8
370
    18
100
AcDbLine
 10
884.1828058975
 20
186.2068607595
 30
0.0
 11
881.1828058975
 21
186.2068607595
 31
0.0
  0
LINE
  5
253
330
1F
100
AcDbEntity
  8
0
  6
PHANTOM
 62
     8
370
    18
100
AcDbLine
 10
881.1828058975
 20
118.2068607595
 30
0.0
 11
884.1828058975
 21
118.2068607595
 31
0.0
  0
LINE
  5
254
330
1F
100
AcDbEntity
  8
0
  6
PHANTOM
 62
     8
370
    18
100
AcDbLine
 10
644.8828058975
 20
354.0068607595
 30
0.0
 11
633.8828058975
 21
354.0068607595
 31
0.0
  0
LINE
  5
255
330
1F
100
AcDbEntity
  8
0
  6
PHANTOM
 62
     8
370
    18
100
AcDbLine
 10
644.8828058975
 20
353.4068607595
 30
0.0
 11
633.8828058975
 21
353.4068607595
 31
0.0
  0
LINE
  5
256
330
1F
100
AcDbEntity
  8
0
  6
PHANTOM
 62
     8
370
    18
100
AcDbLine
 10
438.5828058975
 20
177.7068607595
 30
0.0
 11
438.5828058975
 21
166.7068607595
 31
0.0
  0
LINE
  5
257
330
1F
100
AcDbEntity
  8
0
  6
PHANTOM
 62
     8
370
    18
100
AcDbLine
 10
439.1828058975
 20
177.7068607595
 30
0.0
 11
439.1828058975
 21
170.1222173007
 31
0.0
  0
LINE
  5
258
330
1F
100
AcDbEntity
  8
0
  6
PHANTOM
 62
     8
370
    18
100
AcDbLine
 10
438.5828058975
 20
137.7068607595
 30
0.0
 11
438.5828058975
 21
126.7068607595
 31
0.0
  0
LINE
  5
259
330
1F
100
AcDbEntity
  8
0
  6
PHANTOM
 62
     8
370
    18
100
AcDbLine
 10
439.1828058975
 20
134.2915042182
 30
0.0
 11
439.1828058975
 21
126.7068607595
 31
0.0
  0
LINE
  5
25A
330
1F
100
AcDbEntity
  8
0
  6
PHANTOM
 62
     8
370
    18
100
AcDbLine
 10
633.8828058975
 20
-48.9931392405
 30
0.0
 11
644.8828058975
 21
-48.9931392405
 31
0.0
  0
LINE
  5
25B
330
1F
100
AcDbEntity
  8
0
  6
PHANTOM
 62
     8
370
    18
100
AcDbLine
 10
633.8828058975
 20
-49.5931392405
 30
0.0
 11
644.8828058975
 21
-49.5931392405
 31
0.0
  0
LINE
  5
25C
330
1F
100
AcDbEntity
  8
0
100
AcDbLine
 10
-441.9309978798
 20
112.2068607595
 30
0.0
 11
-441.9309978798
 21
109.7068607595
 31
0.0
  0
LINE
  5
25D
330
1F
100
AcDbEntity
  8
0
100
AcDbLine
 10
-416.9309978798
 20
109.7068607595
 30
0.0
 11
-416.9309978798
 21
112.2068607595
 31
0.0
  0
LINE
  5
25E
330
1F
100
AcDbEntity
  8
0
100
AcDbLine
 10
-416.9309978798
 20
192.2068607595
 30
0.0
 11
-416.9309978798
 21
194.7068607595
 31
0.0
  0
LINE
  5
25F
330
1F
100
AcDbEntity
  8
0
100
AcDbLine
 10
-441.9309978798
 20
194.7068607595
 30
0.0
 11
-441.9309978798
 21
192.2068607595
 31
0.0
  0
LINE
  5
260
330
1F
100
AcDbEntity
  8
0
100
AcDbLine
 10
-439.9309978798
 20
109.7068607595
 30
0.0
 11
-439.9309978798
 21
107.2068607595
 31
0.0
  0
LINE
  5
261
330
1F
100
AcDbEntity
  8
0
100
AcDbLine
 10
-418.9309978798
 20
107.2068607595
 30
0.0
 11
-418.9309978798
 21
109.7068607595
 31
0.0
  0
LINE
  5
262
330
1F
100
AcDbEntity
  8
0
100
AcDbLine
 10
-418.9309978798
 20
194.7068607595
 30
0.0
 11
-418.9309978798
 21
197.2068607595
 31
0.0
  0
LINE
  5
263
330
1F
100
AcDbEntity
  8
0
100
AcDbLine
 10
-439.9309978798
 20
197.2068607595
 30
0.0
 11
-439.9309978798
 21
194.7068607595
 31
0.0
  0
LINE
  5
264
330
1F
100
AcDbEntity
  8
0
100
AcDbLine
 10
-437.4309978798
 20
107.2068607595
 30
0.0
 11
-437.4309978798
 21
104.7068607595
 31
0.0
  0
LINE
  5
265
330
1F
100
AcDbEntity
  8
0
100
AcDbLine
 10
-421.4309978798
 20
104.7068607595
 30
0.0
 11
-421.4309978798
 21
107.2068607595
 31
0.0
  0
LINE
  5
266
330
1F
100
AcDbEntity
  8
0
100
AcDbLine
 10
-421.4309978798
 20
197.2068607595
 30
0.0
 11
-421.4309978798
 21
199.7068607595
 31
0.0
  0
LINE
  5
267
330
1F
100
AcDbEntity
  8
0
100
AcDbLine
 10
-437.4309978798
 20
199.7068607595
 30
0.0
 11
-437.4309978798
 21
197.2068607595
 31
0.0
  0
LINE
  5
268
330
1F
100
AcDbEntity
  8
0
100
AcDbLine
 10
-434.4309978798
 20
104.7068607595
 30
0.0
 11
-434.4309978798
 21
102.2068607595
 31
0.0
  0
LINE
  5
269
330
1F
100
AcDbEntity
  8
0
100
AcDbLine
 10
-424.4309978798
 20
102.2068607595
 30
0.0
 11
-424.4309978798
 21
104.7068607595
 31
0.0
  0
LINE
  5
26A
330
1F
100
AcDbEntity
  8
0
100
AcDbLine
 10
-424.4309978798
 20
199.7068607595
 30
0.0
 11
-424.4309978798
 21
202.2068607595
 31
0.0
  0
LINE
  5
26B
330
1F
100
AcDbEntity
  8
0
100
AcDbLine
 10
-434.4309978798
 20
202.2068607595
 30
0.0
 11
-434.4309978798
 21
199.7068607595
 31
0.0
  0
LINE
  5
26C
330
1F
100
AcDbEntity
  8
0
100
AcDbLine
 10
-208.1309978798
 20
353.4068607595
 30
0.0
 11
-208.1309978798
 21
354.0068607595
 31
0.0
  0
LINE
  5
26D
330
1F
100
AcDbEntity
  8
0
100
AcDbLine
 10
-219.1309978798
 20
354.0068607595
 30
0.0
 11
-219.1309978798
 21
353.4068607595
 31
0.0
  0
ARC
  5
26E
330
1F
100
AcDbEntity
  8
0
100
AcDbCircle
 10
-208.3309978798
 20
353.4068607595
 30
0.0
 40
0.2000000000000171
100
AcDbArc
 50
270.0
 51
0.0
  0
ARC
  5
26F
330
1F
100
AcDbEntity
  8
0
100
AcDbCircle
 10
-218.9309978798
 20
353.4068607595
 30
0.0
 40
0.1999999999999886
100
AcDbArc
 50
180.0
 51
270.0
  0
ARC
  5
270
330
1F
100
AcDbEntity
  8
0
100
AcDbCircle
 10
-208.3309978798
 20
354.0068607595
 30
0.0
 40
0.2000000000000171
100
AcDbArc
 50
0.0
 51
90.0000000001
  0
ARC
  5
271
330
1F
100
AcDbEntity
  8
0
100
AcDbCircle
 10
-218.9309978798
 20
354.0068607595
 30
0.0
 40
0.1999999999999886
100
AcDbArc
 50
89.9999999999
 51
180.0
  0
ARC
  5
272
330
1F
100
AcDbEntity
  8
0
100
AcDbCircle
 10
-213.2408603423
 20
347.2163793784
 30
0.0
 40
8.000000000000018
100
AcDbArc
 50
107.1467397277
 51
119.0955287963
  0
ARC
  5
273
330
1F
100
AcDbEntity
  8
0
100
AcDbCircle
 10
-214.0211354172
 20
347.2163793784
 30
0.0
 40
8.000000000000021
100
AcDbArc
 50
60.90447120369999
 51
72.8515803462
  0
LINE
  5
274
330
1F
100
AcDbEntity
  8
0
100
AcDbLine
 10
-211.5309978798
 20
353.1958903109
 30
0.0
 11
-211.5309978798
 21
353.2068607595
 31
0.0
  0
LINE
  5
275
330
1F
100
AcDbEntity
  8
0
100
AcDbLine
 10
-215.7309978798
 20
353.2068607595
 30
0.0
 11
-215.7309978798
 21
353.1958903109
 31
0.0
  0
LINE
  5
276
330
1F
100
AcDbEntity
  8
0
100
AcDbLine
 10
-413.4123533662
 20
174.3068607595
 30
0.0
 11
-413.4309978798
 21
174.3068607595
 31
0.0
  0
LINE
  5
277
330
1F
100
AcDbEntity
  8
0
100
AcDbLine
 10
-413.4309978798
 20
130.1068607595
 30
0.0
 11
-413.4123533662
 21
130.1068607595
 31
0.0
  0
LINE
  5
278
330
1F
100
AcDbEntity
  8
0
100
AcDbLine
 10
-13.1546900526
 20
166.7068607595
 30
0.0
 11
-12.8309978798
 21
166.7068607595
 31
0.0
  0
LINE
  5
279
330
1F
100
AcDbEntity
  8
0
100
AcDbLine
 10
-12.8309978798
 20
177.7068607595
 30
0.0
 11
-13.4309978798
 21
177.7068607595
 31
0.0
  0
ARC
  5
27A
330
1F
100
AcDbEntity
  8
0
100
AcDbCircle
 10
-13.4309978798
 20
177.5068607595
 30
0.0
 40
0.2000000000000046
100
AcDbArc
 50
90.0
 51
180.0
  0
ARC
  5
27B
330
1F
100
AcDbEntity
  8
0
100
AcDbCircle
 10
-12.8309978798
 20
166.9068607595
 30
0.0
 40
0.2000000000000171
100
AcDbArc
 50
270.0
 51
0.0000000001
  0
ARC
  5
27C
330
1F
100
AcDbEntity
  8
0
100
AcDbCircle
 10
-12.8309978798
 20
177.5068607595
 30
0.0
 40
0.2000000000000046
100
AcDbArc
 50
359.9999999999
 51
90.0
  0
ARC
  5
27D
330
1F
100
AcDbEntity
  8
0
100
AcDbCircle
 10
-19.6214792609
 20
171.816723222
 30
0.0
 40
8.000000000000009
100
AcDbArc
 50
17.1467397277
 51
29.0955287963
  0
ARC
  5
27E
330
1F
100
AcDbEntity
  8
0
100
AcDbCircle
 10
-19.6214792609
 20
172.596998297
 30
0.0
 40
8.000000000000009
100
AcDbArc
 50
330.9044712037
 51
342.8515803462001
  0
LINE
  5
27F
330
1F
100
AcDbEntity
  8
0
100
AcDbLine
 10
-13.6309978798
 20
174.3068607595
 30
0.0
 11
-13.8496423933
 21
174.3068607595
 31
0.0
  0
LINE
  5
280
330
1F
100
AcDbEntity
  8
0
100
AcDbLine
 10
-13.4309978798
 20
126.7068607595
 30
0.0
 11
-12.8309978798
 21
126.7068607595
 31
0.0
  0
LINE
  5
281
330
1F
100
AcDbEntity
  8
0
100
AcDbLine
 10
-12.8309978798
 20
137.7068607595
 30
0.0
 11
-13.1546900526
 21
137.7068607595
 31
0.0
  0
ARC
  5
282
330
1F
100
AcDbEntity
  8
0
100
AcDbCircle
 10
-13.4309978798
 20
126.9068607595
 30
0.0
 40
0.2000000000000171
100
AcDbArc
 50
180.0
 51
270.0
  0
ARC
  5
283
330
1F
100
AcDbEntity
  8
0
100
AcDbCircle
 10
-12.8309978798
 20
126.9068607595
 30
0.0
 40
0.2000000000000046
100
AcDbArc
 50
270.0
 51
0.0000000001
  0
ARC
  5
284
330
1F
100
AcDbEntity
  8
0
100
AcDbCircle
 10
-12.8309978798
 20
137.5068607595
 30
0.0
 40
0.2000000000000171
100
AcDbArc
 50
359.9999999999
 51
90.0
  0
ARC
  5
285
330
1F
100
AcDbEntity
  8
0
100
AcDbCircle
 10
-19.6214792609
 20
131.816723222
 30
0.0
 40
8.0
100
AcDbArc
 50
17.1467397277
 51
29.0955287963
  0
ARC
  5
286
330
1F
100
AcDbEntity
  8
0
100
AcDbCircle
 10
-19.6214792609
 20
132.596998297
 30
0.0
 40
8.0
100
AcDbArc
 50
330.9044712037
 51
342.8515803462001
  0
LINE
  5
287
330
1F
100
AcDbEntity
  8
0
100
AcDbLine
 10
-13.8496423933
 20
130.1068607595
 30
0.0
 11
-13.6309978798
 21
130.1068607595
 31
0.0
  0
LINE
  5
288
330
1F
100
AcDbEntity
  8
0
100
AcDbLine
 10
-219.1309978798
 20
-48.9931392405
 30
0.0
 11
-219.1309978798
 21
-49.5931392405
 31
0.0
  0
LINE
  5
289
330
1F
100
AcDbEntity
  8
0
100
AcDbLine
 10
-208.1309978798
 20
-49.5931392405
 30
0.0
 11
-208.1309978798
 21
-48.9931392405
 31
0.0
  0
ARC
  5
28A
330
1F
100
AcDbEntity
  8
0
100
AcDbCircle
 10
-218.9309978798
 20
-48.9931392405
 30
0.0
 40
0.2000000000000171
100
AcDbArc
 50
90.0
 51
180.0
  0
ARC
  5
28B
330
1F
100
AcDbEntity
  8
0
100
AcDbCircle
 10
-208.3309978798
 20
-48.9931392405
 30
0.0
 40
0.2000000000000099
100
AcDbArc
 50
0.0
 51
90.0
  0
ARC
  5
28C
330
1F
100
AcDbEntity
  8
0
100
AcDbCircle
 10
-218.9309978798
 20
-49.5931392405
 30
0.0
 40
0.2000000000000171
100
AcDbArc
 50
180.0
 51
270.0000000001
  0
ARC
  5
28D
330
1F
100
AcDbEntity
  8
0
100
AcDbCircle
 10
-208.3309978798
 20
-49.5931392405
 30
0.0
 40
0.2000000000000099
100
AcDbArc
 50
269.9999999999
 51
0.0
  0
ARC
  5
28E
330
1F
100
AcDbEntity
  8
0
100
AcDbCircle
 10
-214.0211354172
 20
-42.8026578594
 30
0.0
 40
8.000000000000009
100
AcDbArc
 50
287.1467397277
 51
299.0955287963
  0
ARC
  5
28F
330
1F
100
AcDbEntity
  8
0
100
AcDbCircle
 10
-213.2408603423
 20
-42.8026578594
 30
0.0
 40
7.999999999999976
100
AcDbArc
 50
240.9044712037
 51
252.8515803462
  0
LINE
  5
290
330
1F
100
AcDbEntity
  8
0
100
AcDbLine
 10
-215.7309978798
 20
-48.7821687919
 30
0.0
 11
-215.7309978798
 21
-48.7931392405
 31
0.0
  0
LINE
  5
291
330
1F
100
AcDbEntity
  8
0
100
AcDbLine
 10
-211.5309978798
 20
-48.7931392405
 30
0.0
 11
-211.5309978798
 21
-48.7821687919
 31
0.0
  0
CIRCLE
  5
295
330
1F
100
AcDbEntity
  8
0
100
AcDbCircle
 10
-213.6309978798
 20
152.2068607595
 30
0.0
 40
157.0
  0
ARC
  5
297
330
1F
100
AcDbEntity
  8
0
100
AcDbCircle
 10
-213.6309978798
 20
152.2068607595
 30
0.0
 40
200.9999999999997
100
AcDbArc
 50
186.3124476372
 51
173.6875523628
  0
CIRCLE
  5
298
330
1F
100
AcDbEntity
  8
0
100
AcDbCircle
 10
-429.4309978798
 20
132.2068607595
 30
0.0
 40
5.0
  0
CIRCLE
  5
299
330
1F
100
AcDbEntity
  8
0
100
AcDbCircle
 10
-429.4309978798
 20
172.2068607595
 30
0.0
 40
5.0
  0
CIRCLE
  5
29A
330
1F
100
AcDbEntity
  8
0
100
AcDbCircle
 10
-429.4309978798
 20
132.2068607595
 30
0.0
 40
8.0
  0
CIRCLE
  5
29B
330
1F
100
AcDbEntity
  8
0
100
AcDbCircle
 10
-429.4309978798
 20
172.2068607595
 30
0.0
 40
8.0
  0
CIRCLE
  5
29C
330
1F
100
AcDbEntity
  8
0
100
AcDbCircle
 10
-429.4309978798
 20
132.2068607595
 30
0.0
 40
10.5
  0
CIRCLE
  5
29D
330
1F
100
AcDbEntity
  8
0
100
AcDbCircle
 10
-429.4309978798
 20
172.2068607595
 30
0.0
 40
10.5
  0
CIRCLE
  5
29E
330
1F
100
AcDbEntity
  8
0
100
AcDbCircle
 10
-429.4309978798
 20
132.2068607595
 30
0.0
 40
12.5
  0
CIRCLE
  5
29F
330
1F
100
AcDbEntity
  8
0
100
AcDbCircle
 10
-429.4309978798
 20
172.2068607595
 30
0.0
 40
12.5
  0
LINE
  5
2A0
330
1F
100
AcDbEntity
  8
0
100
AcDbLine
 10
-452.9309978798
 20
116.2068607595
 30
0.0
 11
-452.9309978798
 21
111.6068607595
 31
0.0
  0
LINE
  5
2A1
330
1F
100
AcDbEntity
  8
0
100
AcDbLine
 10
-452.9309978798
 20
111.6068607595
 30
0.0
 11
-454.3309978798
 21
110.2068607595
 31
0.0
  0
LINE
  5
2A2
330
1F
100
AcDbEntity
  8
0
100
AcDbLine
 10
-454.3309978798
 20
110.2068607595
 30
0.0
 11
-454.3309978798
 21
116.2068607595
 31
0.0
  0
LINE
  5
2A3
330
1F
100
AcDbEntity
  8
0
100
AcDbLine
 10
-455.4309978798
 20
110.2068607595
 30
0.0
 11
-455.4309978798
 21
116.2068607595
 31
0.0
  0
LINE
  5
2A4
330
1F
100
AcDbEntity
  8
0
100
AcDbLine
 10
-454.3309978798
 20
110.2068607595
 30
0.0
 11
-455.4309978798
 21
110.2068607595
 31
0.0
  0
LINE
  5
2A5
330
1F
100
AcDbEntity
  8
0
100
AcDbLine
 10
-452.9309978798
 20
188.2068607595
 30
0.0
 11
-452.9309978798
 21
116.2068607595
 31
0.0
  0
LINE
  5
2A6
330
1F
100
AcDbEntity
  8
0
100
AcDbLine
 10
-454.3309978798
 20
116.2068607595
 30
0.0
 11
-454.3309978798
 21
188.2068607595
 31
0.0
  0
LINE
  5
2A7
330
1F
100
AcDbEntity
  8
0
100
AcDbLine
 10
-455.4309978798
 20
188.2068607595
 30
0.0
 11
-455.4309978798
 21
116.2068607595
 31
0.0
  0
LINE
  5
2A8
330
1F
100
AcDbEntity
  8
0
100
AcDbLine
 10
-452.9309978798
 20
192.8068607595
 30
0.0
 11
-452.9309978798
 21
188.2068607595
 31
0.0
  0
LINE
  5
2A9
330
1F
100
AcDbEntity
  8
0
100
AcDbLine
 10
-454.3309978798
 20
188.2068607595
 30
0.0
 11
-454.3309978798
 21
194.2068607595
 31
0.0
  0
LINE
  5
2AA
330
1F
100
AcDbEntity
  8
0
100
AcDbLine
 10
-452.9309978798
 20
192.8068607595
 30
0.0
 11
-454.3309978798
 21
194.2068607595
 31
0.0
  0
LINE
  5
2AB
330
1F
100
AcDbEntity
  8
0
100
AcDbLine
 10
-455.4309978798
 20
194.2068607595
 30
0.0
 11
-454.3309978798
 21
194.2068607595
 31
0.0
  0
LINE
  5
2AC
330
1F
100
AcDbEntity
  8
0
100
AcDbLine
 10
-455.4309978798
 20
188.2068607595
 30
0.0
 11
-455.4309978798
 21
194.2068607595
 31
0.0
  0
LINE
  5
2AD
330
1F
100
AcDbEntity
  8
0
100
AcDbLine
 10
-413.4309978798
 20
112.2068607595
 30
0.0
 11
-452.9309978798
 21
112.2068607595
 31
0.0
  0
LINE
  5
2AE
330
1F
100
AcDbEntity
  8
0
100
AcDbLine
 10
-413.4309978798
 20
118.2068607595
 30
0.0
 11
-413.4309978798
 21
112.2068607595
 31
0.0
  0
LINE
  5
2AF
330
1F
100
AcDbEntity
  8
0
100
AcDbLine
 10
-413.4309978798
 20
118.2068607595
 30
0.0
 11
-413.4309978798
 21
186.2068607595
 31
0.0
  0
LINE
  5
2B0
330
1F
100
AcDbEntity
  8
0
100
AcDbLine
 10
-455.4309978798
 20
112.2068607595
 30
0.0
 11
-458.4309978798
 21
112.2068607595
 31
0.0
  0
LINE
  5
2B1
330
1F
100
AcDbEntity
  8
0
100
AcDbLine
 10
-458.4309978798
 20
112.2068607595
 30
0.0
 11
-458.4309978798
 21
118.2068607595
 31
0.0
  0
LINE
  5
2B2
330
1F
100
AcDbEntity
  8
0
100
AcDbLine
 10
-458.4309978798
 20
118.2068607595
 30
0.0
 11
-458.4309978798
 21
186.2068607595
 31
0.0
  0
LINE
  5
2B3
330
1F
100
AcDbEntity
  8
0
100
AcDbLine
 10
-452.9309978798
 20
192.2068607595
 30
0.0
 11
-413.4309978798
 21
192.2068607595
 31
0.0
  0
LINE
  5
2B4
330
1F
100
AcDbEntity
  8
0
100
AcDbLine
 10
-413.4309978798
 20
192.2068607595
 30
0.0
 11
-413.4309978798
 21
186.2068607595
 31
0.0
  0
LINE
  5
2B5
330
1F
100
AcDbEntity
  8
0
100
AcDbLine
 10
-458.4309978798
 20
192.2068607595
 30
0.0
 11
-455.4309978798
 21
192.2068607595
 31
0.0
  0
LINE
  5
2B6
330
1F
100
AcDbEntity
  8
0
100
AcDbLine
 10
-458.4309978798
 20
186.2068607595
 30
0.0
 11
-458.4309978798
 21
192.2068607595
 31
0.0
  0
LINE
  5
2B7
330
1F
100
AcDbEntity
  8
0
100
AcDbLine
 10
-441.9309978798
 20
109.7068607595
 30
0.0
 11
-416.9309978798
 21
109.7068607595
 31
0.0
  0
LINE
  5
2B8
330
1F
100
AcDbEntity
  8
0
100
AcDbLine
 10
-441.9309978798
 20
194.7068607595
 30
0.0
 11
-416.9309978798
 21
194.7068607595
 31
0.0
  0
LINE
  5
2B9
330
1F
100
AcDbEntity
  8
0
100
AcDbLine
 10
-439.9309978798
 20
107.2068607595
 30
0.0
 11
-418.9309978798
 21
107.2068607595
 31
0.0
  0
LINE
  5
2BA
330
1F
100
AcDbEntity
  8
0
100
AcDbLine
 10
-439.9309978798
 20
197.2068607595
 30
0.0
 11
-418.9309978798
 21
197.2068607595
 31
0.0
  0
LINE
  5
2BB
330
1F
100
AcDbEntity
  8
0
100
AcDbLine
 10
-437.4309978798
 20
104.7068607595
 30
0.0
 11
-421.4309978798
 21
104.7068607595
 31
0.0
  0
LINE
  5
2BC
330
1F
100
AcDbEntity
  8
0
100
AcDbLine
 10
-437.4309978798
 20
199.7068607595
 30
0.0
 11
-421.4309978798
 21
199.7068607595
 31
0.0
  0
LINE
  5
2BD
330
1F
100
AcDbEntity
  8
0
100
AcDbLine
 10
-434.4309978798
 20
102.2068607595
 30
0.0
 11
-424.4309978798
 21
102.2068607595
 31
0.0
  0
LINE
  5
2BE
330
1F
100
AcDbEntity
  8
0
100
AcDbLine
 10
-434.4309978798
 20
202.2068607595
 30
0.0
 11
-424.4309978798
 21
202.2068607595
 31
0.0
  0
LINE
  5
2BF
330
1F
100
AcDbEntity
  8
0
100
AcDbLine
 10
-213.6309978798
 20
353.2068607595
 30
0.0
 11
-218.9309978798
 21
353.2068607595
 31
0.0
  0
LINE
  5
2C0
330
1F
100
AcDbEntity
  8
0
100
AcDbLine
 10
-208.3309978798
 20
353.2068607595
 30
0.0
 11
-213.6309978798
 21
353.2068607595
 31
0.0
  0
LINE
  5
2C1
330
1F
100
AcDbEntity
  8
0
100
AcDbLine
 10
-213.6309978798
 20
354.2068607595
 30
0.0
 11
-218.9309978798
 21
354.2068607595
 31
0.0
  0
LINE
  5
2C2
330
1F
100
AcDbEntity
  8
0
100
AcDbLine
 10
-208.3309978798
 20
354.2068607595
 30
0.0
 11
-213.6309978798
 21
354.2068607595
 31
0.0
  0
LINE
  5
2C3
330
1F
100
AcDbEntity
  8
0
100
AcDbLine
 10
-211.6689218505
 20
354.8460382807
 30
0.0
 11
-212.6309978798
 21
355.0741138001
 31
0.0
  0
LINE
  5
2C4
330
1F
100
AcDbEntity
  8
0
100
AcDbLine
 10
-214.6309978798
 20
355.0741138001
 30
0.0
 11
-215.5930739091
 21
354.8460382807
 31
0.0
  0
SPLINE
  5
2C5
330
1F
100
AcDbEntity
  8
0
100
AcDbSpline
210
0.0
220
0.0
230
1.0
 70
     8
 71
     3
 72
    12
 73
     8
 74
     0
 42
0.000000001
 43
0.00000001
 40
0.0
 40
0.0
 40
0.0
 40
0.0
 40
0.2174770912063657
 40
0.4353705208256897
 40
0.6490388720029245
 40
0.8610609605877979
 40
1.0
 40
1.0
 40
1.0
 40
1.0
 10
-214.1170456121274
 20
355.0741138000744
 30
0.0
 10
-214.123654250499
 20
355.0830913656852
 30
0.0
 10
-214.1368841788276
 20
355.1010636835695
 30
0.0
 10
-214.2277721667839
 20
355.1127323123479
 30
0.0
 10
-214.3591100221325
 20
355.1097481649618
 30
0.0
 10
-214.5013346863027
 20
355.0949392531022
 30
0.0
 10
-214.594224510945
 20
355.0800200410409
 30
0.0
 10
-214.6309978797811
 20
355.0741138000724
 30
0.0
  0
LINE
  5
2C6
330
1F
100
AcDbEntity
  8
0
100
AcDbLine
 10
-214.0930739091
 20
354.8460382807
 30
0.0
 11
-214.1170456121
 21
355.0741138001
 31
0.0
  0
LINE
  5
2C7
330
1F
100
AcDbEntity
  8
0
100
AcDbLine
 10
-213.1689218505
 20
354.8460382807
 30
0.0
 11
-214.0930739091
 21
354.8460382807
 31
0.0
  0
LINE
  5
2C8
330
1F
100
AcDbEntity
  8
0
100
AcDbLine
 10
-213.1449501474
 20
355.0741138001
 30
0.0
 11
-213.1689218505
 21
354.8460382807
 31
0.0
  0
SPLINE
  5
2C9
330
1F
100
AcDbEntity
  8
0
100
AcDbSpline
210
0.0
220
0.0
230
1.0
 70
     8
 71
     3
 72
    12
 73
     8
 74
     0
 42
0.000000001
 43
0.00000001
 40
0.0
 40
0.0
 40
0.0
 40
0.0
 40
0.2174770912068867
 40
0.435370520826033
 40
0.6490388720036346
 40
0.8610609605884603
 40
1.0
 40
1.0
 40
1.0
 40
1.0
 10
-212.6309978797808
 20
355.0741138000743
 30
0.0
 10
-212.6887705199409
 20
355.083091365685
 30
0.0
 10
-212.8044264002747
 20
355.1010636835694
 30
0.0
 10
-212.9585312633275
 20
355.1127323123478
 30
0.0
 10
-213.0737835849865
 20
355.1097481649626
 30
0.0
 10
-213.1344951298807
 20
355.0949392531004
 30
0.0
 10
-213.1419850329222
 20
355.080020041042
 30
0.0
 10
-213.1449501474345
 20
355.0741138000745
 30
0.0
  0
LINE
  5
2CA
330
1F
100
AcDbEntity
  8
0
100
AcDbLine
 10
-13.6309978798
 20
172.2068607595
 30
0.0
 11
-13.6309978798
 21
177.5068607595
 31
0.0
  0
LINE
  5
2CB
330
1F
100
AcDbEntity
  8
0
100
AcDbLine
 10
-12.6309978798
 20
172.2068607595
 30
0.0
 11
-12.6309978798
 21
177.5068607595
 31
0.0
  0
LINE
  5
2CC
330
1F
100
AcDbEntity
  8
0
100
AcDbLine
 10
-12.6309978798
 20
166.9068607595
 30
0.0
 11
-12.6309978798
 21
172.2068607595
 31
0.0
  0
LINE
  5
2CD
330
1F
100
AcDbEntity
  8
0
100
AcDbLine
 10
-11.9918203586
 20
170.2447847302
 30
0.0
 11
-11.7637448392
 21
171.2068607595
 31
0.0
  0
LINE
  5
2CE
330
1F
100
AcDbEntity
  8
0
100
AcDbLine
 10
-11.7637448392
 20
173.2068607595
 30
0.0
 11
-11.9918203586
 21
174.1689367888
 31
0.0
  0
SPLINE
  5
2CF
330
1F
100
AcDbEntity
  8
0
100
AcDbSpline
210
0.0
220
0.0
230
1.0
 70
     8
 71
     3
 72
    12
 73
     8
 74
     0
 42
0.000000001
 43
0.00000001
 40
0.0
 40
0.0
 40
0.0
 40
0.0
 40
0.2174770912063657
 40
0.4353705208256897
 40
0.6490388720029245
 40
0.8610609605877977
 40
1.0
 40
1.0
 40
1.0
 40
1.0
 10
-11.76374483920178
 20
172.69290849184
 30
0.0
 10
-11.75476727359096
 20
172.6995171302115
 30
0.0
 10
-11.73679495570665
 20
172.7127470585401
 30
0.0
 10
-11.72512632692835
 20
172.8036350464964
 30
0.0
 10
-11.72811047431441
 20
172.934972901845
 30
0.0
 10
-11.742919386174
 20
173.0771975660152
 30
0.0
 10
-11.75783859823518
 20
173.1700873906575
 30
0.0
 10
-11.76374483920378
 20
173.2068607594937
 30
0.0
  0
LINE
  5
2D0
330
1F
100
AcDbEntity
  8
0
100
AcDbLine
 10
-11.9918203586
 20
172.6689367888
 30
0.0
 11
-11.7637448392
 21
172.6929084918
 31
0.0
  0
LINE
  5
2D1
330
1F
100
AcDbEntity
  8
0
100
AcDbLine
 10
-11.9918203586
 20
171.7447847302
 30
0.0
 11
-11.9918203586
 21
172.6689367888
 31
0.0
  0
LINE
  5
2D2
330
1F
100
AcDbEntity
  8
0
100
AcDbLine
 10
-11.7637448392
 20
171.7208130271
 30
0.0
 11
-11.9918203586
 21
171.7447847302
 31
0.0
  0
SPLINE
  5
2D3
330
1F
100
AcDbEntity
  8
0
100
AcDbSpline
210
0.0
220
0.0
230
1.0
 70
     8
 71
     3
 72
    12
 73
     8
 74
     0
 42
0.000000001
 43
0.00000001
 40
0.0
 40
0.0
 40
0.0
 40
0.0
 40
0.2174770912068871
 40
0.4353705208260334
 40
0.649038872003635
 40
0.8610609605884604
 40
1.0
 40
1.0
 40
1.0
 40
1.0
 10
-11.76374483920187
 20
171.2068607594934
 30
0.0
 10
-11.75476727359101
 20
171.2646333996534
 30
0.0
 10
-11.73679495570665
 20
171.3802892799872
 30
0.0
 10
-11.72512632692835
 20
171.53439414304
 30
0.0
 10
-11.72811047431341
 20
171.649646464699
 30
0.0
 10
-11.74291938617566
 20
171.7103580095932
 30
0.0
 10
-11.75783859823409
 20
171.7178479126347
 30
0.0
 10
-11.76374483920162
 20
171.720813027147
 30
0.0
  0
LINE
  5
2D4
330
1F
100
AcDbEntity
  8
0
100
AcDbLine
 10
-13.6309978798
 20
126.9068607595
 30
0.0
 11
-13.6309978798
 21
132.2068607595
 31
0.0
  0
LINE
  5
2D5
330
1F
100
AcDbEntity
  8
0
100
AcDbLine
 10
-12.6309978798
 20
132.2068607595
 30
0.0
 11
-12.6309978798
 21
137.5068607595
 31
0.0
  0
LINE
  5
2D6
330
1F
100
AcDbEntity
  8
0
100
AcDbLine
 10
-12.6309978798
 20
126.9068607595
 30
0.0
 11
-12.6309978798
 21
132.2068607595
 31
0.0
  0
LINE
  5
2D7
330
1F
100
AcDbEntity
  8
0
100
AcDbLine
 10
-11.9918203586
 20
130.2447847302
 30
0.0
 11
-11.7637448392
 21
131.2068607595
 31
0.0
  0
LINE
  5
2D8
330
1F
100
AcDbEntity
  8
0
100
AcDbLine
 10
-11.7637448392
 20
133.2068607595
 30
0.0
 11
-11.9918203586
 21
134.1689367888
 31
0.0
  0
SPLINE
  5
2D9
330
1F
100
AcDbEntity
  8
0
100
AcDbSpline
210
0.0
220
0.0
230
1.0
 70
     8
 71
     3
 72
    12
 73
     8
 74
     0
 42
0.000000001
 43
0.00000001
 40
0.0
 40
0.0
 40
0.0
 40
0.0
 40
0.2174770912063657
 40
0.4353705208256897
 40
0.6490388720029245
 40
0.8610609605877977
 40
1.0
 40
1.0
 40
1.0
 40
1.0
 10
-11.76374483920178
 20
132.6929084918399
 30
0.0
 10
-11.75476727359096
 20
132.6995171302115
 30
0.0
 10
-11.73679495570665
 20
132.7127470585401
 30
0.0
 10
-11.72512632692835
 20
132.8036350464964
 30
0.0
 10
-11.72811047431441
 20
132.934972901845
 30
0.0
 10
-11.742919386174
 20
133.0771975660152
 30
0.0
 10
-11.75783859823518
 20
133.1700873906575
 30
0.0
 10
-11.76374483920378
 20
133.2068607594937
 30
0.0
  0
LINE
  5
2DA
330
1F
100
AcDbEntity
  8
0
100
AcDbLine
 10
-11.9918203586
 20
132.6689367888
 30
0.0
 11
-11.7637448392
 21
132.6929084918
 31
0.0
  0
LINE
  5
2DB
330
1F
100
AcDbEntity
  8
0
100
AcDbLine
 10
-11.9918203586
 20
131.7447847302
 30
0.0
 11
-11.9918203586
 21
132.6689367888
 31
0.0
  0
LINE
  5
2DC
330
1F
100
AcDbEntity
  8
0
100
AcDbLine
 10
-11.7637448392
 20
131.7208130271
 30
0.0
 11
-11.9918203586
 21
131.7447847302
 31
0.0
  0
SPLINE
  5
2DD
330
1F
100
AcDbEntity
  8
0
100
AcDbSpline
210
0.0
220
0.0
230
1.0
 70
     8
 71
     3
 72
    12
 73
     8
 74
     0
 42
0.000000001
 43
0.00000001
 40
0.0
 40
0.0
 40
0.0
 40
0.0
 40
0.2174770912068871
 40
0.4353705208260334
 40
0.649038872003635
 40
0.8610609605884604
 40
1.0
 40
1.0
 40
1.0
 40
1.0
 10
-11.76374483920187
 20
131.2068607594934
 30
0.0
 10
-11.75476727359101
 20
131.2646333996534
 30
0.0
 10
-11.73679495570665
 20
131.3802892799872
 30
0.0
 10
-11.72512632692835
 20
131.53439414304
 30
0.0
 10
-11.72811047431341
 20
131.649646464699
 30
0.0
 10
-11.74291938617566
 20
131.7103580095932
 30
0.0
 10
-11.75783859823409
 20
131.7178479126347
 30
0.0
 10
-11.76374483920162
 20
131.7208130271469
 30
0.0
  0
LINE
  5
2DE
330
1F
100
AcDbEntity
  8
0
100
AcDbLine
 10
-213.6309978798
 20
-48.7931392405
 30
0.0
 11
-208.3309978798
 21
-48.7931392405
 31
0.0
  0
LINE
  5
2DF
330
1F
100
AcDbEntity
  8
0
100
AcDbLine
 10
-218.9309978798
 20
-48.7931392405
 30
0.0
 11
-213.6309978798
 21
-48.7931392405
 31
0.0
  0
LINE
  5
2E0
330
1F
100
AcDbEntity
  8
0
100
AcDbLine
 10
-213.6309978798
 20
-49.7931392405
 30
0.0
 11
-208.3309978798
 21
-49.7931392405
 31
0.0
  0
LINE
  5
2E1
330
1F
100
AcDbEntity
  8
0
100
AcDbLine
 10
-218.9309978798
 20
-49.7931392405
 30
0.0
 11
-213.6309978798
 21
-49.7931392405
 31
0.0
  0
LINE
  5
2E2
330
1F
100
AcDbEntity
  8
0
100
AcDbLine
 10
-215.5930739091
 20
-50.4323167617
 30
0.0
 11
-214.6309978798
 21
-50.6603922811
 31
0.0
  0
LINE
  5
2E3
330
1F
100
AcDbEntity
  8
0
100
AcDbLine
 10
-212.6309978798
 20
-50.6603922811
 30
0.0
 11
-211.6689218505
 21
-50.4323167617
 31
0.0
  0
SPLINE
  5
2E4
330
1F
100
AcDbEntity
  8
0
100
AcDbSpline
210
0.0
220
0.0
230
1.0
 70
     8
 71
     3
 72
    12
 73
     8
 74
     0
 42
0.000000001
 43
0.00000001
 40
0.0
 40
0.0
 40
0.0
 40
0.0
 40
0.2174770912063657
 40
0.4353705208256897
 40
0.6490388720029246
 40
0.8610609605877979
 40
0.9999999999999999
 40
0.9999999999999999
 40
0.9999999999999999
 40
0.9999999999999999
 10
-213.1449501474362
 20
-50.66039228108713
 30
0.0
 10
-213.1383415090646
 20
-50.66936984669793
 30
0.0
 10
-213.1251115807361
 20
-50.68734216458229
 30
0.0
 10
-213.0342235927798
 20
-50.69901079336067
 30
0.0
 10
-212.9028857374311
 20
-50.69602664597453
 30
0.0
 10
-212.760661073261
 20
-50.68121773411491
 30
0.0
 10
-212.6677712486186
 20
-50.66629852205376
 30
0.0
 10
-212.6309978797825
 20
-50.66039228108512
 30
0.0
  0
LINE
  5
2E5
330
1F
100
AcDbEntity
  8
0
100
AcDbLine
 10
-213.1689218505
 20
-50.4323167617
 30
0.0
 11
-213.1449501474
 21
-50.6603922811
 31
0.0
  0
LINE
  5
2E6
330
1F
100
AcDbEntity
  8
0
100
AcDbLine
 10
-214.0930739091
 20
-50.4323167617
 30
0.0
 11
-213.1689218505
 21
-50.4323167617
 31
0.0
  0
LINE
  5
2E7
330
1F
100
AcDbEntity
  8
0
100
AcDbLine
 10
-214.1170456121
 20
-50.6603922811
 30
0.0
 11
-214.0930739091
 21
-50.4323167617
 31
0.0
  0
SPLINE
  5
2E8
330
1F
100
AcDbEntity
  8
0
100
AcDbSpline
210
0.0
220
0.0
230
1.0
 70
     8
 71
     3
 72
    12
 73
     8
 74
     0
 42
0.000000001
 43
0.00000001
 40
0.0
 40
0.0
 40
0.0
 40
0.0
 40
0.2174770912068869
 40
0.4353705208260332
 40
0.6490388720036347
 40
0.8610609605884603
 40
1.0
 40
1.0
 40
1.0
 40
1.0
 10
-214.6309978797828
 20
-50.66039228108707
 30
0.0
 10
-214.5732252396228
 20
-50.66936984669793
 30
0.0
 10
-214.4575693592889
 20
-50.68734216458232
 30
0.0
 10
-214.3034644962361
 20
-50.69901079336056
 30
0.0
 10
-214.1882121745771
 20
-50.69602664597556
 30
0.0
 10
-214.1275006296829
 20
-50.68121773411322
 30
0.0
 10
-214.1200107266415
 20
-50.66629852205479
 30
0.0
 10
-214.1170456121292
 20
-50.66039228108729
 30
0.0
  0
LINE
  5
2F0
330
1F
100
AcDbEntity
  8
0
  6
PHANTOM
 62
     8
370
    18
100
AcDbLine
 10
-452.9309978798
 20
116.2068607595
 30
0.0
 11
-454.3309978798
 21
116.2068607595
 31
0.0
  0
LINE
  5
2F1
330
1F
100
AcDbEntity
  8
0
  6
PHANTOM
 62
     8
370
    18
100
AcDbLine
 10
-455.4309978798
 20
116.2068607595
 30
0.0
 11
-454.3309978798
 21
116.2068607595
 31
0.0
  0
LINE
  5
2F2
330
1F
100
AcDbEntity
  8
0
  6
PHANTOM
 62
     8
370
    18
100
AcDbLine
 10
-452.9309978798
 20
188.2068607595
 30
0.0
 11
-454.3309978798
 21
188.2068607595
 31
0.0
  0
LINE
  5
2F3
330
1F
100
AcDbEntity
  8
0
  6
PHANTOM
 62
     8
370
    18
100
AcDbLine
 10
-454.3309978798
 20
188.2068607595
 30
0.0
 11
-455.4309978798
 21
188.2068607595
 31
0.0
  0
LINE
  5
2F4
330
1F
100
AcDbEntity
  8
0
  6
PHANTOM
 62
     8
370
    18
100
AcDbLine
 10
-452.9309978798
 20
118.2068607595
 30
0.0
 11
-413.4309978798
 21
118.2068607595
 31
0.0
  0
LINE
  5
2F5
330
1F
100
AcDbEntity
  8
0
  6
PHANTOM
 62
     8
370
    18
100
AcDbLine
 10
-413.4309978798
 20
186.2068607595
 30
0.0
 11
-452.9309978798
 21
186.2068607595
 31
0.0
  0
LINE
  5
2F6
330
1F
100
AcDbEntity
  8
0
  6
PHANTOM
 62
     8
370
    18
100
AcDbLine
 10
-458.4309978798
 20
118.2068607595
 30
0.0
 11
-455.4309978798
 21
118.2068607595
 31
0.0
  0
LINE
  5
2F7
330
1F
100
AcDbEntity
  8
0
  6
PHANTOM
 62
     8
370
    18
100
AcDbLine
 10
-455.4309978798
 20
186.2068607595
 30
0.0
 11
-458.4309978798
 21
186.2068607595
 31
0.0
  0
LINE
  5
2F8
330
1F
100
AcDbEntity
  8
0
  6
PHANTOM
 62
     8
370
    18
100
AcDbLine
 10
-213.6309978798
 20
353.4068607595
 30
0.0
 11
-219.1309978798
 21
353.4068607595
 31
0.0
  0
LINE
  5
2F9
330
1F
100
AcDbEntity
  8
0
  6
PHANTOM
 62
     8
370
    18
100
AcDbLine
 10
-208.1309978798
 20
353.4068607595
 30
0.0
 11
-213.6309978798
 21
353.4068607595
 31
0.0
  0
LINE
  5
2FA
330
1F
100
AcDbEntity
  8
0
  6
PHANTOM
 62
     8
370
    18
100
AcDbLine
 10
-213.6309978798
 20
354.0068607595
 30
0.0
 11
-219.1309978798
 21
354.0068607595
 31
0.0
  0
LINE
  5
2FB
330
1F
100
AcDbEntity
  8
0
  6
PHANTOM
 62
     8
370
    18
100
AcDbLine
 10
-208.1309978798
 20
354.0068607595
 30
0.0
 11
-213.6309978798
 21
354.0068607595
 31
0.0
  0
LINE
  5
2FC
330
1F
100
AcDbEntity
  8
0
  6
PHANTOM
 62
     8
370
    18
100
AcDbLine
 10
-13.4309978798
 20
172.2068607595
 30
0.0
 11
-13.4309978798
 21
177.7068607595
 31
0.0
  0
LINE
  5
2FD
330
1F
100
AcDbEntity
  8
0
  6
PHANTOM
 62
     8
370
    18
100
AcDbLine
 10
-13.4309978798
 20
170.1222173007
 30
0.0
 11
-13.4309978798
 21
172.2068607595
 31
0.0
  0
LINE
  5
2FE
330
1F
100
AcDbEntity
  8
0
  6
PHANTOM
 62
     8
370
    18
100
AcDbLine
 10
-12.8309978798
 20
172.2068607595
 30
0.0
 11
-12.8309978798
 21
177.7068607595
 31
0.0
  0
LINE
  5
2FF
330
1F
100
AcDbEntity
  8
0
  6
PHANTOM
 62
     8
370
    18
100
AcDbLine
 10
-12.8309978798
 20
166.7068607595
 30
0.0
 11
-12.8309978798
 21
172.2068607595
 31
0.0
  0
LINE
  5
300
330
1F
100
AcDbEntity
  8
0
  6
PHANTOM
 62
     8
370
    18
100
AcDbLine
 10
-13.4309978798
 20
132.2068607595
 30
0.0
 11
-13.4309978798
 21
134.2915042183
 31
0.0
  0
LINE
  5
301
330
1F
100
AcDbEntity
  8
0
  6
PHANTOM
 62
     8
370
    18
100
AcDbLine
 10
-13.4309978798
 20
126.7068607595
 30
0.0
 11
-13.4309978798
 21
132.2068607595
 31
0.0
  0
LINE
  5
302
330
1F
100
AcDbEntity
  8
0
  6
PHANTOM
 62
     8
370
    18
100
AcDbLine
 10
-12.8309978798
 20
132.2068607595
 30
0.0
 11
-12.8309978798
 21
137.7068607595
 31
0.0
  0
LINE
  5
303
330
1F
100
AcDbEntity
  8
0
  6
PHANTOM
 62
     8
370
    18
100
AcDbLine
 10
-12.8309978798
 20
126.7068607595
 30
0.0
 11
-12.8309978798
 21
132.2068607595
 31
0.0
  0
LINE
  5
304
330
1F
100
AcDbEntity
  8
0
  6
PHANTOM
 62
     8
370
    18
100
AcDbLine
 10
-213.6309978798
 20
-48.9931392405
 30
0.0
 11
-208.1309978798
 21
-48.9931392405
 31
0.0
  0
LINE
  5
305
330
1F
100
AcDbEntity
  8
0
  6
PHANTOM
 62
     8
370
    18
100
AcDbLine
 10
-219.1309978798
 20
-48.9931392405
 30
0.0
 11
-213.6309978798
 21
-48.9931392405
 31
0.0
  0
LINE
  5
306
330
1F
100
AcDbEntity
  8
0
  6
PHANTOM
 62
     8
370
    18
100
AcDbLine
 10
-213.6309978798
 20
-49.5931392405
 30
0.0
 11
-208.1309978798
 21
-49.5931392405
 31
0.0
  0
LINE
  5
307
330
1F
100
AcDbEntity
  8
0
  6
PHANTOM
 62
     8
370
    18
100
AcDbLine
 10
-219.1309978798
 20
-49.5931392405
 30
0.0
 11
-213.6309978798
 21
-49.5931392405
 31
0.0
  0
LINE
  5
308
330
1F
100
AcDbEntity
  8
0
100
AcDbLine
 10
217.8844199866
 20
-168.8054324526
 30
0.0
 11
212.3242013356
 21
-168.8054324526
 31
0.0
  0
ARC
  5
309
330
1F
100
AcDbEntity
  8
0
100
AcDbCircle
 10
212.3242013356
 20
-565.4054324526
 30
0.0
 40
3.000000000002744
100
AcDbArc
 50
257.3805358299
 51
270.0
  0
ARC
  5
30A
330
1F
100
AcDbEntity
  8
0
100
AcDbCircle
 10
212.3242013356
 20
-171.8054324526
 30
0.0
 40
3.000000000002806
100
AcDbArc
 50
90.0
 51
112.6159229627
  0
ARC
  5
30B
330
1F
100
AcDbEntity
  8
0
100
AcDbCircle
 10
208.8632344567
 20
-163.4975020086
 30
0.0
 40
5.999999999998507
100
AcDbArc
 50
270.0
 51
292.6159229627
  0
LINE
  5
30C
330
1F
100
AcDbEntity
  8
0
100
AcDbLine
 10
184.2055910893
 20
-567.7133628966
 30
0.0
 11
190.7502735574
 21
-567.7133628966
 31
0.0
  0
LINE
  5
30D
330
1F
100
AcDbEntity
  8
0
100
AcDbLine
 10
208.8632344567
 20
-169.4975020086
 30
0.0
 11
184.2055910893
 21
-169.4975020086
 31
0.0
  0
ARC
  5
30E
330
1F
100
AcDbEntity
  8
0
100
AcDbCircle
 10
184.2055910893
 20
-542.7133628966
 30
0.0
 40
25.0
100
AcDbArc
 50
218.1408077233
 51
270.0
  0
ARC
  5
30F
330
1F
100
AcDbEntity
  8
0
100
AcDbCircle
 10
184.2055910893
 20
-194.4975020086
 30
0.0
 40
24.99999999999993
100
AcDbArc
 50
90.0
 51
141.8591922767
  0
LINE
  5
310
330
1F
100
AcDbEntity
  8
0
100
AcDbLine
 10
164.5432073023
 20
-179.0575970926
 30
0.0
 11
143.789516713
 21
-205.4869715988
 31
0.0
  0
LINE
  5
311
330
1F
100
AcDbEntity
  8
0
100
AcDbLine
 10
143.789516713
 20
-531.7238933064
 30
0.0
 11
164.5432073023
 21
-558.1532678126
 31
0.0
  0
ARC
  5
312
330
1F
100
AcDbEntity
  8
0
100
AcDbCircle
 10
131.2055910893
 20
-541.6054324526
 30
0.0
 40
15.99999999999866
100
AcDbArc
 50
38.1408077233
 51
90.0
  0
ARC
  5
313
330
1F
100
AcDbEntity
  8
0
100
AcDbCircle
 10
131.2055910893
 20
-195.6054324526
 30
0.0
 40
15.99999999999875
100
AcDbArc
 50
270.0
 51
321.8591922767
  0
LINE
  5
314
330
1F
100
AcDbEntity
  8
0
100
AcDbLine
 10
97.2055910893
 20
-525.6054324526
 30
0.0
 11
131.2055910893
 21
-525.6054324526
 31
0.0
  0
LINE
  5
315
330
1F
100
AcDbEntity
  8
0
100
AcDbLine
 10
131.2055910893
 20
-211.6054324526
 30
0.0
 11
97.2055910893
 21
-211.6054324526
 31
0.0
  0
ARC
  5
316
330
1F
100
AcDbEntity
  8
0
100
AcDbCircle
 10
97.2055910893
 20
-519.6054324526
 30
0.0
 40
6.000000000000227
100
AcDbArc
 50
180.0
 51
270.0
  0
ARC
  5
317
330
1F
100
AcDbEntity
  8
0
100
AcDbCircle
 10
97.2055910893
 20
-217.6054324526
 30
0.0
 40
6.000000000000227
100
AcDbArc
 50
90.0
 51
180.0
  0
LINE
  5
318
330
1F
100
AcDbEntity
  8
0
100
AcDbLine
 10
231.2055910893
 20
-167.6054324526
 30
0.0
 11
231.1844199866
 21
-167.6054324526
 31
0.0
  0
LINE
  5
319
330
1F
100
AcDbEntity
  8
0
100
AcDbLine
 10
220.5844199866
 20
-167.6054324526
 30
0.0
 11
217.8844199866
 21
-167.6054324526
 31
0.0
  0
LINE
  5
31A
330
1F
100
AcDbEntity
  8
0
100
AcDbLine
 10
233.6055910893
 20
-568.4054324526
 30
0.0
 11
233.6774325082
 21
-568.3054324526
 31
0.0
  0
ARC
  5
31B
330
1F
100
AcDbEntity
  8
0
100
AcDbCircle
 10
231.2055910893
 20
-170.6054324526
 30
0.0
 40
3.000000000000455
100
AcDbArc
 50
34.5181078411
 51
90.0
  0
ARC
  5
31C
330
1F
100
AcDbEntity
  8
0
100
AcDbCircle
 10
238.6211153459
 20
-571.7054324526
 30
0.0
 40
5.999999999999564
100
AcDbArc
 50
90.0
 51
145.4818921589
  0
ARC
  5
31D
330
1F
100
AcDbEntity
  8
0
100
AcDbCircle
 10
238.6211153459
 20
-165.5054324526
 30
0.0
 40
5.999999999999613
100
AcDbArc
 50
214.5181078411
 51
270.0
  0
ARC
  5
31E
330
1F
100
AcDbEntity
  8
0
100
AcDbCircle
 10
248.8661171964
 20
-540.7054324526
 30
0.0
 40
24.99999999999983
100
AcDbArc
 50
270.0
 51
313.9033847307001
  0
ARC
  5
31F
330
1F
100
AcDbEntity
  8
0
100
AcDbCircle
 10
248.8661171964
 20
-196.5054324526
 30
0.0
 40
24.9999999999998
100
AcDbArc
 50
46.0966152693
 51
90.0
  0
LINE
  5
320
330
1F
100
AcDbEntity
  8
0
100
AcDbLine
 10
238.6211153459
 20
-565.7054324526
 30
0.0
 11
248.8661171964
 21
-565.7054324526
 31
0.0
  0
LINE
  5
321
330
1F
100
AcDbEntity
  8
0
100
AcDbLine
 10
248.8661171964
 20
-171.5054324526
 30
0.0
 11
238.6211153459
 21
-171.5054324526
 31
0.0
  0
LINE
  5
322
330
1F
100
AcDbEntity
  8
0
100
AcDbLine
 10
266.2022270315
 20
-558.7181861506
 30
0.0
 11
293.4926356293
 21
-532.4529338285
 31
0.0
  0
LINE
  5
323
330
1F
100
AcDbEntity
  8
0
100
AcDbLine
 10
293.4926356293
 20
-204.7579310767
 30
0.0
 11
266.2022270315
 21
-178.4926787545
 31
0.0
  0
ARC
  5
324
330
1F
100
AcDbEntity
  8
0
100
AcDbCircle
 10
310.4820232677
 20
-550.1054324526
 30
0.0
 40
24.5000000000033
100
AcDbArc
 50
90.0
 51
133.9033847307
  0
ARC
  5
325
330
1F
100
AcDbEntity
  8
0
100
AcDbCircle
 10
310.4820232677
 20
-187.1054324526
 30
0.0
 40
24.50000000000324
100
AcDbArc
 50
226.0966152693
 51
270.0
  0
LINE
  5
326
330
1F
100
AcDbEntity
  8
0
100
AcDbLine
 10
310.4820232677
 20
-525.6054324526
 30
0.0
 11
338.8844199866
 21
-525.6054324526
 31
0.0
  0
LINE
  5
327
330
1F
100
AcDbEntity
  8
0
100
AcDbLine
 10
338.8844199866
 20
-211.6054324526
 30
0.0
 11
310.4820232677
 21
-211.6054324526
 31
0.0
  0
LINE
  5
328
330
1F
100
AcDbEntity
  8
0
100
AcDbLine
 10
191.2055910893
 20
-567.6878584673
 30
0.0
 11
191.2055910893
 21
-568.4054324526
 31
0.0
  0
LINE
  5
329
330
1F
100
AcDbEntity
  8
0
100
AcDbLine
 10
211.2055910893
 20
-568.4054324526
 30
0.0
 11
211.2055910893
 21
-568.1369610335
 31
0.0
  0
LINE
  5
32A
330
1F
100
AcDbEntity
  8
0
100
AcDbLine
 10
261.2055910893
 20
-596.9054324526
 30
0.0
 11
263.7055910893
 21
-596.9054324526
 31
0.0
  0
LINE
  5
32B
330
1F
100
AcDbEntity
  8
0
100
AcDbLine
 10
263.7055910893
 20
-571.9054324526
 30
0.0
 11
261.2055910893
 21
-571.9054324526
 31
0.0
  0
LINE
  5
32C
330
1F
100
AcDbEntity
  8
0
100
AcDbLine
 10
263.7055910893
 20
-594.9054324526
 30
0.0
 11
266.2055910893
 21
-594.9054324526
 31
0.0
  0
LINE
  5
32D
330
1F
100
AcDbEntity
  8
0
100
AcDbLine
 10
266.2055910893
 20
-573.9054324526
 30
0.0
 11
263.7055910893
 21
-573.9054324526
 31
0.0
  0
LINE
  5
32E
330
1F
100
AcDbEntity
  8
0
100
AcDbLine
 10
266.2055910893
 20
-592.4054324526
 30
0.0
 11
268.7055910893
 21
-592.4054324526
 31
0.0
  0
LINE
  5
32F
330
1F
100
AcDbEntity
  8
0
100
AcDbLine
 10
268.7055910893
 20
-576.4054324526
 30
0.0
 11
266.2055910893
 21
-576.4054324526
 31
0.0
  0
LINE
  5
330
330
1F
100
AcDbEntity
  8
0
100
AcDbLine
 10
268.7055910893
 20
-589.4054324526
 30
0.0
 11
271.2055910893
 21
-589.4054324526
 31
0.0
  0
LINE
  5
331
330
1F
100
AcDbEntity
  8
0
100
AcDbLine
 10
271.2055910893
 20
-579.4054324526
 30
0.0
 11
268.7055910893
 21
-579.4054324526
 31
0.0
  0
LINE
  5
332
330
1F
100
AcDbEntity
  8
0
100
AcDbLine
 10
181.2055910893
 20
-571.9054324526
 30
0.0
 11
178.7055910893
 21
-571.9054324526
 31
0.0
  0
LINE
  5
333
330
1F
100
AcDbEntity
  8
0
100
AcDbLine
 10
178.7055910893
 20
-596.9054324526
 30
0.0
 11
181.2055910893
 21
-596.9054324526
 31
0.0
  0
LINE
  5
334
330
1F
100
AcDbEntity
  8
0
100
AcDbLine
 10
178.7055910893
 20
-573.9054324526
 30
0.0
 11
176.2055910893
 21
-573.9054324526
 31
0.0
  0
LINE
  5
335
330
1F
100
AcDbEntity
  8
0
100
AcDbLine
 10
176.2055910893
 20
-594.9054324526
 30
0.0
 11
178.7055910893
 21
-594.9054324526
 31
0.0
  0
LINE
  5
336
330
1F
100
AcDbEntity
  8
0
100
AcDbLine
 10
176.2055910893
 20
-576.4054324526
 30
0.0
 11
173.7055910893
 21
-576.4054324526
 31
0.0
  0
LINE
  5
337
330
1F
100
AcDbEntity
  8
0
100
AcDbLine
 10
173.7055910893
 20
-592.4054324526
 30
0.0
 11
176.2055910893
 21
-592.4054324526
 31
0.0
  0
LINE
  5
338
330
1F
100
AcDbEntity
  8
0
100
AcDbLine
 10
173.7055910893
 20
-579.4054324526
 30
0.0
 11
171.2055910893
 21
-579.4054324526
 31
0.0
  0
LINE
  5
339
330
1F
100
AcDbEntity
  8
0
100
AcDbLine
 10
171.2055910893
 20
-589.4054324526
 30
0.0
 11
173.7055910893
 21
-589.4054324526
 31
0.0
  0
LINE
  5
33A
330
1F
100
AcDbEntity
  8
0
100
AcDbLine
 10
231.3844199866
 20
-168.4054324526
 30
0.0
 11
231.3844199866
 21
-167.8054324526
 31
0.0
  0
LINE
  5
33B
330
1F
100
AcDbEntity
  8
0
100
AcDbLine
 10
220.3844199866
 20
-167.8054324526
 30
0.0
 11
220.3844199866
 21
-168.4054324526
 31
0.0
  0
ARC
  5
33C
330
1F
100
AcDbEntity
  8
0
100
AcDbCircle
 10
231.1844199866
 20
-168.4054324526
 30
0.0
 40
0.2000000000000171
100
AcDbArc
 50
279.0367003158
 51
0.0
  0
ARC
  5
33D
330
1F
100
AcDbEntity
  8
0
100
AcDbCircle
 10
220.5844199866
 20
-168.4054324526
 30
0.0
 40
0.200000000000007
100
AcDbArc
 50
180.0
 51
260.9313068533
  0
ARC
  5
33E
330
1F
100
AcDbEntity
  8
0
100
AcDbCircle
 10
231.1844199866
 20
-167.8054324526
 30
0.0
 40
0.2000000000000171
100
AcDbArc
 50
0.0
 51
90.0000000001
  0
ARC
  5
33F
330
1F
100
AcDbEntity
  8
0
100
AcDbCircle
 10
220.5844199866
 20
-167.8054324526
 30
0.0
 40
0.2000000000000171
100
AcDbArc
 50
89.9999999999
 51
180.0
  0
ARC
  5
340
330
1F
100
AcDbEntity
  8
0
100
AcDbCircle
 10
226.2745575241
 20
-174.5959138337
 30
0.0
 40
7.999999999999996
100
AcDbArc
 50
107.1467397277
 51
119.0955287963
  0
ARC
  5
341
330
1F
100
AcDbEntity
  8
0
100
AcDbCircle
 10
225.4942824492
 20
-174.5959138337
 30
0.0
 40
8.000000000000009
100
AcDbArc
 50
60.90447120369999
 51
72.8515803462
  0
SPLINE
  5
342
330
1F
100
AcDbEntity
  8
0
100
AcDbSpline
210
0.0
220
0.0
230
1.0
 70
     8
 71
     3
 72
    10
 73
     6
 74
     0
 42
0.000000001
 43
0.00000001
 40
0.0
 40
0.0
 40
0.0
 40
0.0
 40
0.0029218430831779
 40
0.925244503596738
 40
0.9999999999999999
 40
0.9999999999999999
 40
0.9999999999999999
 40
0.9999999999999999
 10
211.1705457092924
 20
-568.1473074400863
 30
0.0
 10
211.1715660599157
 20
-568.1477830887969
 30
0.0
 10
211.4946750630379
 20
-568.2984042353238
 30
0.0
 10
211.8380058079419
 20
-568.3852382359544
 30
0.0
 10
211.6820799914906
 20
-568.3331565019296
 30
0.0
 10
211.6703895219622
 20
-568.3292516968213
 30
0.0
  0
SPLINE
  5
343
330
1F
100
AcDbEntity
  8
0
100
AcDbSpline
210
0.0
220
0.0
230
1.0
 70
     8
 71
     3
 72
     9
 73
     5
 74
     0
 42
0.000000001
 43
0.00000001
 40
0.0
 40
0.0
 40
0.0
 40
0.0
 40
0.6627925483118209
 40
1.0
 40
1.0
 40
1.0
 40
1.0
 10
211.1705457092924
 20
-568.1473074400863
 30
0.0
 10
210.785472999313
 20
-567.9751550949128
 30
0.0
 10
210.2044877257756
 20
-567.7154171940992
 30
0.0
 10
209.2014621537762
 20
-567.6169277400784
 30
0.0
 10
208.8632344566642
 20
-567.5837163622699
 30
0.0
  0
SPLINE
  5
344
330
1F
100
AcDbEntity
  8
0
100
AcDbSpline
210
0.0
220
0.0
230
1.0
 70
     8
 71
     3
 72
    15
 73
    11
 74
     0
 42
0.000000001
 43
0.00000001
 40
0.0
 40
0.0
 40
0.0
 40
0.0
 40
0.1412540510641167
 40
0.2825125355315449
 40
0.4236473424221059
 40
0.5646825497741746
 40
0.7058364141981506
 40
0.8471420780570658
 40
0.9883959243461763
 40
1.0
 40
1.0
 40
1.0
 40
1.0
 10
208.8632344566642
 20
-567.5837163622699
 30
0.0
 10
207.9708442248057
 20
-567.5522616281646
 30
0.0
 10
206.1860357525056
 20
-567.489351172715
 30
0.0
 10
202.7168004279845
 20
-567.4313635751208
 30
0.0
 10
199.1382093413073
 20
-567.4366789807247
 30
0.0
 10
195.7863828671263
 20
-567.5019500362002
 30
0.0
 10
193.0146764275838
 20
-567.6007577817237
 30
0.0
 10
191.2877028587312
 20
-567.6821831811092
 30
0.0
 10
190.5418670021848
 20
-567.7218034189482
 30
0.0
 10
190.7355688507201
 20
-567.7118161679518
 30
0.0
 10
190.7502735573923
 20
-567.7110579945142
 30
0.0
  0
LINE
  5
345
330
1F
100
AcDbEntity
  8
0
100
AcDbLine
 10
91.2055910893
 20
-519.6054324526
 30
0.0
 11
91.2055910893
 21
-217.6054324526
 31
0.0
  0
LINE
  5
346
330
1F
100
AcDbEntity
  8
0
100
AcDbLine
 10
217.8844199866
 20
-568.4054324526
 30
0.0
 11
217.8844199866
 21
-167.6054324526
 31
0.0
  0
LINE
  5
347
330
1F
100
AcDbEntity
  8
0
100
AcDbLine
 10
338.8844199866
 20
-525.6054324526
 30
0.0
 11
338.8844199866
 21
-211.6054324526
 31
0.0
  0
CIRCLE
  5
348
330
1F
100
AcDbEntity
  8
0
100
AcDbCircle
 10
241.2055910893
 20
-584.4054324526
 30
0.0
 40
5.000000000000028
  0
CIRCLE
  5
349
330
1F
100
AcDbEntity
  8
0
100
AcDbCircle
 10
201.2055910893
 20
-584.4054324526
 30
0.0
 40
5.0
  0
CIRCLE
  5
34A
330
1F
100
AcDbEntity
  8
0
100
AcDbCircle
 10
241.2055910893
 20
-584.4054324526
 30
0.0
 40
8.000000000000028
  0
CIRCLE
  5
34B
330
1F
100
AcDbEntity
  8
0
100
AcDbCircle
 10
201.2055910893
 20
-584.4054324526
 30
0.0
 40
8.0
  0
CIRCLE
  5
34C
330
1F
100
AcDbEntity
  8
0
100
AcDbCircle
 10
241.2055910893
 20
-584.4054324526
 30
0.0
 40
10.50000000000003
  0
CIRCLE
  5
34D
330
1F
100
AcDbEntity
  8
0
100
AcDbCircle
 10
201.2055910893
 20
-584.4054324526
 30
0.0
 40
10.5
  0
CIRCLE
  5
34E
330
1F
100
AcDbEntity
  8
0
100
AcDbCircle
 10
241.2055910893
 20
-584.4054324526
 30
0.0
 40
12.50000000000003
  0
CIRCLE
  5
34F
330
1F
100
AcDbEntity
  8
0
100
AcDbCircle
 10
201.2055910893
 20
-584.4054324526
 30
0.0
 40
12.5
  0
LINE
  5
350
330
1F
100
AcDbEntity
  8
0
100
AcDbLine
 10
257.2055910893
 20
-607.9054324526
 30
0.0
 11
261.8055910893
 21
-607.9054324526
 31
0.0
  0
LINE
  5
351
330
1F
100
AcDbEntity
  8
0
100
AcDbLine
 10
261.8055910893
 20
-607.9054324526
 30
0.0
 11
263.2055910893
 21
-609.3054324526
 31
0.0
  0
LINE
  5
352
330
1F
100
AcDbEntity
  8
0
100
AcDbLine
 10
263.2055910893
 20
-609.3054324526
 30
0.0
 11
257.2055910893
 21
-609.3054324526
 31
0.0
  0
LINE
  5
353
330
1F
100
AcDbEntity
  8
0
100
AcDbLine
 10
263.2055910893
 20
-610.4054324526
 30
0.0
 11
257.2055910893
 21
-610.4054324526
 31
0.0
  0
LINE
  5
354
330
1F
100
AcDbEntity
  8
0
100
AcDbLine
 10
263.2055910893
 20
-609.3054324526
 30
0.0
 11
263.2055910893
 21
-610.4054324526
 31
0.0
  0
LINE
  5
355
330
1F
100
AcDbEntity
  8
0
100
AcDbLine
 10
257.2055910893
 20
-609.3054324526
 30
0.0
 11
185.2055910893
 21
-609.3054324526
 31
0.0
  0
LINE
  5
356
330
1F
100
AcDbEntity
  8
0
100
AcDbLine
 10
185.2055910893
 20
-607.9054324526
 30
0.0
 11
257.2055910893
 21
-607.9054324526
 31
0.0
  0
LINE
  5
357
330
1F
100
AcDbEntity
  8
0
100
AcDbLine
 10
185.2055910893
 20
-610.4054324526
 30
0.0
 11
257.2055910893
 21
-610.4054324526
 31
0.0
  0
LINE
  5
358
330
1F
100
AcDbEntity
  8
0
100
AcDbLine
 10
185.2055910893
 20
-609.3054324526
 30
0.0
 11
179.2055910893
 21
-609.3054324526
 31
0.0
  0
LINE
  5
359
330
1F
100
AcDbEntity
  8
0
100
AcDbLine
 10
179.2055910893
 20
-609.3054324526
 30
0.0
 11
180.6055910893
 21
-607.9054324526
 31
0.0
  0
LINE
  5
35A
330
1F
100
AcDbEntity
  8
0
100
AcDbLine
 10
180.6055910893
 20
-607.9054324526
 30
0.0
 11
185.2055910893
 21
-607.9054324526
 31
0.0
  0
LINE
  5
35B
330
1F
100
AcDbEntity
  8
0
100
AcDbLine
 10
179.2055910893
 20
-610.4054324526
 30
0.0
 11
179.2055910893
 21
-609.3054324526
 31
0.0
  0
LINE
  5
35C
330
1F
100
AcDbEntity
  8
0
100
AcDbLine
 10
185.2055910893
 20
-610.4054324526
 30
0.0
 11
179.2055910893
 21
-610.4054324526
 31
0.0
  0
LINE
  5
35D
330
1F
100
AcDbEntity
  8
0
100
AcDbLine
 10
255.2055910893
 20
-568.4054324526
 30
0.0
 11
261.2055910893
 21
-568.4054324526
 31
0.0
  0
LINE
  5
35E
330
1F
100
AcDbEntity
  8
0
100
AcDbLine
 10
261.2055910893
 20
-568.4054324526
 30
0.0
 11
261.2055910893
 21
-607.9054324526
 31
0.0
  0
LINE
  5
35F
330
1F
100
AcDbEntity
  8
0
100
AcDbLine
 10
255.2055910893
 20
-568.4054324526
 30
0.0
 11
187.2055910893
 21
-568.4054324526
 31
0.0
  0
LINE
  5
360
330
1F
100
AcDbEntity
  8
0
100
AcDbLine
 10
261.2055910893
 20
-610.4054324526
 30
0.0
 11
261.2055910893
 21
-613.4054324526
 31
0.0
  0
LINE
  5
361
330
1F
100
AcDbEntity
  8
0
100
AcDbLine
 10
261.2055910893
 20
-613.4054324526
 30
0.0
 11
255.2055910893
 21
-613.4054324526
 31
0.0
  0
LINE
  5
362
330
1F
100
AcDbEntity
  8
0
100
AcDbLine
 10
255.2055910893
 20
-613.4054324526
 30
0.0
 11
187.2055910893
 21
-613.4054324526
 31
0.0
  0
LINE
  5
363
330
1F
100
AcDbEntity
  8
0
100
AcDbLine
 10
181.2055910893
 20
-607.9054324526
 30
0.0
 11
181.2055910893
 21
-568.4054324526
 31
0.0
  0
LINE
  5
364
330
1F
100
AcDbEntity
  8
0
100
AcDbLine
 10
181.2055910893
 20
-568.4054324526
 30
0.0
 11
187.2055910893
 21
-568.4054324526
 31
0.0
  0
LINE
  5
365
330
1F
100
AcDbEntity
  8
0
100
AcDbLine
 10
181.2055910893
 20
-613.4054324526
 30
0.0
 11
181.2055910893
 21
-610.4054324526
 31
0.0
  0
LINE
  5
366
330
1F
100
AcDbEntity
  8
0
100
AcDbLine
 10
187.2055910893
 20
-613.4054324526
 30
0.0
 11
181.2055910893
 21
-613.4054324526
 31
0.0
  0
LINE
  5
367
330
1F
100
AcDbEntity
  8
0
100
AcDbLine
 10
263.7055910893
 20
-584.4054324526
 30
0.0
 11
263.7055910893
 21
-596.9054324526
 31
0.0
  0
LINE
  5
368
330
1F
100
AcDbEntity
  8
0
100
AcDbLine
 10
263.7055910893
 20
-571.9054324526
 30
0.0
 11
263.7055910893
 21
-584.4054324526
 31
0.0
  0
LINE
  5
369
330
1F
100
AcDbEntity
  8
0
100
AcDbLine
 10
266.2055910893
 20
-584.4054324526
 30
0.0
 11
266.2055910893
 21
-594.9054324526
 31
0.0
  0
LINE
  5
36A
330
1F
100
AcDbEntity
  8
0
100
AcDbLine
 10
266.2055910893
 20
-573.9054324526
 30
0.0
 11
266.2055910893
 21
-584.4054324526
 31
0.0
  0
LINE
  5
36B
330
1F
100
AcDbEntity
  8
0
100
AcDbLine
 10
268.7055910893
 20
-584.4054324526
 30
0.0
 11
268.7055910893
 21
-592.4054324526
 31
0.0
  0
LINE
  5
36C
330
1F
100
AcDbEntity
  8
0
100
AcDbLine
 10
268.7055910893
 20
-576.4054324526
 30
0.0
 11
268.7055910893
 21
-584.4054324526
 31
0.0
  0
LINE
  5
36D
330
1F
100
AcDbEntity
  8
0
100
AcDbLine
 10
271.2055910893
 20
-584.4054324526
 30
0.0
 11
271.2055910893
 21
-589.4054324526
 31
0.0
  0
LINE
  5
36E
330
1F
100
AcDbEntity
  8
0
100
AcDbLine
 10
271.2055910893
 20
-579.4054324526
 30
0.0
 11
271.2055910893
 21
-584.4054324526
 31
0.0
  0
LINE
  5
36F
330
1F
100
AcDbEntity
  8
0
100
AcDbLine
 10
178.7055910893
 20
-596.9054324526
 30
0.0
 11
178.7055910893
 21
-571.9054324526
 31
0.0
  0
LINE
  5
370
330
1F
100
AcDbEntity
  8
0
100
AcDbLine
 10
176.2055910893
 20
-594.9054324526
 30
0.0
 11
176.2055910893
 21
-573.9054324526
 31
0.0
  0
LINE
  5
371
330
1F
100
AcDbEntity
  8
0
100
AcDbLine
 10
173.7055910893
 20
-592.4054324526
 30
0.0
 11
173.7055910893
 21
-576.4054324526
 31
0.0
  0
LINE
  5
372
330
1F
100
AcDbEntity
  8
0
100
AcDbLine
 10
171.2055910893
 20
-589.4054324526
 30
0.0
 11
171.2055910893
 21
-579.4054324526
 31
0.0
  0
LINE
  5
373
330
1F
100
AcDbEntity
  8
0
100
AcDbLine
 10
226.3464960159
 20
-366.6433564233
 30
0.0
 11
226.370467719
 21
-367.6054324526
 31
0.0
  0
LINE
  5
374
330
1F
100
AcDbEntity
  8
0
100
AcDbLine
 10
225.4223439573
 20
-366.6433564233
 30
0.0
 11
226.3464960159
 21
-366.6433564233
 31
0.0
  0
LINE
  5
375
330
1F
100
AcDbEntity
  8
0
100
AcDbLine
 10
225.3983722543
 20
-367.6054324526
 30
0.0
 11
225.4223439573
 21
-366.6433564233
 31
0.0
  0
SPLINE
  5
376
330
1F
100
AcDbEntity
  8
0
100
AcDbSpline
210
0.0
220
0.0
230
1.0
 70
     8
 71
     3
 72
    12
 73
     8
 74
     0
 42
0.000000001
 43
0.00000001
 40
0.0
 40
0.0
 40
0.0
 40
0.0
 40
0.2174770912064688
 40
0.4353705208254988
 40
0.6490388720030138
 40
0.8610609605880136
 40
0.9999999999999999
 40
0.9999999999999999
 40
0.9999999999999999
 40
0.9999999999999999
 10
224.8844199866408
 20
-368.1193847202326
 30
0.0
 10
224.9421926268007
 20
-368.112776081861
 30
0.0
 10
225.0578485071345
 20
-368.0995461535321
 30
0.0
 10
225.211953370187
 20
-368.0086581655761
 30
0.0
 10
225.3272056918465
 20
-367.8773203102273
 30
0.0
 10
225.3879172367403
 20
-367.7350956460572
 30
0.0
 10
225.3954071397821
 20
-367.6422058214148
 30
0.0
 10
225.3983722542945
 20
-367.6054324525788
 30
0.0
  0
LINE
  5
377
330
1F
100
AcDbEntity
  8
0
100
AcDbLine
 10
223.9223439573
 20
-368.1433564233
 30
0.0
 11
224.8844199866
 21
-368.1193847202
 31
0.0
  0
LINE
  5
378
330
1F
100
AcDbEntity
  8
0
100
AcDbLine
 10
223.9223439573
 20
-369.0675084819
 30
0.0
 11
223.9223439573
 21
-368.1433564233
 31
0.0
  0
LINE
  5
379
330
1F
100
AcDbEntity
  8
0
100
AcDbLine
 10
224.8844199866
 20
-369.0914801849
 30
0.0
 11
223.9223439573
 21
-369.0675084819
 31
0.0
  0
SPLINE
  5
37A
330
1F
100
AcDbEntity
  8
0
100
AcDbSpline
210
0.0
220
0.0
230
1.0
 70
     8
 71
     3
 72
    12
 73
     8
 74
     0
 42
0.000000001
 43
0.00000001
 40
0.0
 40
0.0
 40
0.0
 40
0.0
 40
0.2174770912066961
 40
0.435370520825835
 40
0.649038872003352
 40
0.8610609605882167
 40
1.0
 40
1.0
 40
1.0
 40
1.0
 10
225.3983722542944
 20
-369.6054324525788
 30
0.0
 10
225.3917636159229
 20
-369.5476598124188
 30
0.0
 10
225.3785336875944
 20
-369.4320039320849
 30
0.0
 10
225.287645699638
 20
-369.2778990690324
 30
0.0
 10
225.1563078442889
 20
-369.1626467473734
 30
0.0
 10
225.0140831801192
 20
-369.1019352024793
 30
0.0
 10
224.9211933554769
 20
-369.0944452994377
 30
0.0
 10
224.8844199866408
 20
-369.0914801849254
 30
0.0
  0
LINE
  5
37B
330
1F
100
AcDbEntity
  8
0
100
AcDbLine
 10
225.4223439573
 20
-370.5675084819
 30
0.0
 11
225.3983722543
 21
-369.6054324526
 31
0.0
  0
LINE
  5
37C
330
1F
100
AcDbEntity
  8
0
100
AcDbLine
 10
226.3464960159
 20
-370.5675084819
 30
0.0
 11
225.4223439573
 21
-370.5675084819
 31
0.0
  0
LINE
  5
37D
330
1F
100
AcDbEntity
  8
0
100
AcDbLine
 10
226.370467719
 20
-369.6054324526
 30
0.0
 11
226.3464960159
 21
-370.5675084819
 31
0.0
  0
SPLINE
  5
37E
330
1F
100
AcDbEntity
  8
0
100
AcDbSpline
210
0.0
220
0.0
230
1.0
 70
     8
 71
     3
 72
    12
 73
     8
 74
     0
 42
0.000000001
 43
0.00000001
 40
0.0
 40
0.0
 40
0.0
 40
0.0
 40
0.2174770912063657
 40
0.4353705208256897
 40
0.6490388720029245
 40
0.8610609605877979
 40
1.0
 40
1.0
 40
1.0
 40
1.0
 10
226.8844199866408
 20
-369.0914801849253
 30
0.0
 10
226.8266473464808
 20
-369.0980888232968
 30
0.0
 10
226.710991466147
 20
-369.1113187516254
 30
0.0
 10
226.5568866030946
 20
-369.2022067395818
 30
0.0
 10
226.441634281435
 20
-369.3335445949304
 30
0.0
 10
226.3809227365412
 20
-369.4757692591005
 30
0.0
 10
226.3734328334994
 20
-369.5686590837429
 30
0.0
 10
226.370467718987
 20
-369.6054324525791
 30
0.0
  0
LINE
  5
37F
330
1F
100
AcDbEntity
  8
0
100
AcDbLine
 10
227.8464960159
 20
-369.0675084819
 30
0.0
 11
226.8844199866
 21
-369.0914801849
 31
0.0
  0
LINE
  5
380
330
1F
100
AcDbEntity
  8
0
100
AcDbLine
 10
227.8464960159
 20
-368.1433564233
 30
0.0
 11
227.8464960159
 21
-369.0675084819
 31
0.0
  0
LINE
  5
381
330
1F
100
AcDbEntity
  8
0
100
AcDbLine
 10
226.8844199866
 20
-368.1193847202
 30
0.0
 11
227.8464960159
 21
-368.1433564233
 31
0.0
  0
SPLINE
  5
382
330
1F
100
AcDbEntity
  8
0
100
AcDbSpline
210
0.0
220
0.0
230
1.0
 70
     8
 71
     3
 72
    12
 73
     8
 74
     0
 42
0.000000001
 43
0.00000001
 40
0.0
 40
0.0
 40
0.0
 40
0.0
 40
0.2174770912068867
 40
0.435370520826033
 40
0.6490388720036346
 40
0.8610609605884603
 40
1.0
 40
1.0
 40
1.0
 40
1.0
 10
226.3704677189872
 20
-367.6054324525787
 30
0.0
 10
226.3770763573588
 20
-367.6632050927387
 30
0.0
 10
226.3903062856874
 20
-367.7788609730726
 30
0.0
 10
226.4811942736434
 20
-367.9329658361254
 30
0.0
 10
226.6125321289926
 20
-368.0482181577844
 30
0.0
 10
226.754756793162
 20
-368.1089297026786
 30
0.0
 10
226.8476466178045
 20
-368.1164196057201
 30
0.0
 10
226.8844199866407
 20
-368.1193847202323
 30
0.0
  0
CIRCLE
  5
383
330
1F
100
AcDbEntity
  8
0
100
AcDbCircle
 10
225.8844199866
 20
-368.6054324526
 30
0.0
 40
3.499999999999972
  0
ARC
  5
384
330
1F
100
AcDbEntity
  8
0
100
AcDbCircle
 10
226.8844199866
 20
-367.6054324526
 30
0.0
 40
0.7102084705312564
100
AcDbArc
 50
180.0
 51
270.0
  0
ARC
  5
385
330
1F
100
AcDbEntity
  8
0
100
AcDbCircle
 10
224.8844199866
 20
-369.6054324526
 30
0.0
 40
0.71020847053137
100
AcDbArc
 50
360.0
 51
90.0
  0
ARC
  5
386
330
1F
100
AcDbEntity
  8
0
100
AcDbCircle
 10
226.8844199866
 20
-369.6054324526
 30
0.0
 40
0.7102084705314269
100
AcDbArc
 50
90.0
 51
180.0
  0
ARC
  5
387
330
1F
100
AcDbEntity
  8
0
100
AcDbCircle
 10
224.8844199866
 20
-367.6054324526
 30
0.0
 40
0.7102084705313985
100
AcDbArc
 50
270.0
 51
0.0
  0
LINE
  5
388
330
1F
100
AcDbEntity
  8
0
100
AcDbLine
 10
224.0946284572
 20
-368.3156409231
 30
0.0
 11
224.8844199866
 21
-368.3156409231
 31
0.0
  0
LINE
  5
389
330
1F
100
AcDbEntity
  8
0
100
AcDbLine
 10
224.0946284572
 20
-368.3156409231
 30
0.0
 11
223.9223439573
 21
-368.1433564233
 31
0.0
  0
LINE
  5
38A
330
1F
100
AcDbEntity
  8
0
100
AcDbLine
 10
227.6742115161
 20
-368.3156409231
 30
0.0
 11
227.8464960159
 21
-368.1433564233
 31
0.0
  0
LINE
  5
38B
330
1F
100
AcDbEntity
  8
0
100
AcDbLine
 10
226.8844199866
 20
-368.3156409231
 30
0.0
 11
227.6742115161
 21
-368.3156409231
 31
0.0
  0
LINE
  5
38C
330
1F
100
AcDbEntity
  8
0
100
AcDbLine
 10
225.5946284572
 20
-370.395223982
 30
0.0
 11
225.5946284572
 21
-369.6054324526
 31
0.0
  0
LINE
  5
38D
330
1F
100
AcDbEntity
  8
0
100
AcDbLine
 10
225.5946284572
 20
-370.395223982
 30
0.0
 11
225.4223439573
 21
-370.5675084819
 31
0.0
  0
LINE
  5
38E
330
1F
100
AcDbEntity
  8
0
100
AcDbLine
 10
227.6742115161
 20
-368.895223982
 30
0.0
 11
226.8844199866
 21
-368.895223982
 31
0.0
  0
LINE
  5
38F
330
1F
100
AcDbEntity
  8
0
100
AcDbLine
 10
227.6742115161
 20
-368.895223982
 30
0.0
 11
227.8464960159
 21
-369.0675084819
 31
0.0
  0
LINE
  5
390
330
1F
100
AcDbEntity
  8
0
100
AcDbLine
 10
226.1742115161
 20
-366.8156409231
 30
0.0
 11
226.1742115161
 21
-367.6054324526
 31
0.0
  0
LINE
  5
391
330
1F
100
AcDbEntity
  8
0
100
AcDbLine
 10
226.1742115161
 20
-366.8156409231
 30
0.0
 11
226.3464960159
 21
-366.6433564233
 31
0.0
  0
LINE
  5
392
330
1F
100
AcDbEntity
  8
0
100
AcDbLine
 10
224.0946284572
 20
-368.895223982
 30
0.0
 11
223.9223439573
 21
-369.0675084819
 31
0.0
  0
LINE
  5
393
330
1F
100
AcDbEntity
  8
0
100
AcDbLine
 10
224.8844199866
 20
-368.895223982
 30
0.0
 11
224.0946284572
 21
-368.895223982
 31
0.0
  0
LINE
  5
394
330
1F
100
AcDbEntity
  8
0
100
AcDbLine
 10
225.5946284572
 20
-366.8156409231
 30
0.0
 11
225.4223439573
 21
-366.6433564233
 31
0.0
  0
LINE
  5
395
330
1F
100
AcDbEntity
  8
0
100
AcDbLine
 10
225.5946284572
 20
-367.6054324526
 30
0.0
 11
225.5946284572
 21
-366.8156409231
 31
0.0
  0
LINE
  5
396
330
1F
100
AcDbEntity
  8
0
100
AcDbLine
 10
226.1742115161
 20
-370.395223982
 30
0.0
 11
226.3464960159
 21
-370.5675084819
 31
0.0
  0
LINE
  5
397
330
1F
100
AcDbEntity
  8
0
100
AcDbLine
 10
226.1742115161
 20
-369.6054324526
 30
0.0
 11
226.1742115161
 21
-370.395223982
 31
0.0
  0
LINE
  5
398
330
1F
100
AcDbEntity
  8
0
100
AcDbLine
 10
226.1742115161
 20
-370.395223982
 30
0.0
 11
225.5946284572
 21
-370.395223982
 31
0.0
  0
LINE
  5
399
330
1F
100
AcDbEntity
  8
0
100
AcDbLine
 10
227.6742115161
 20
-368.3156409231
 30
0.0
 11
227.6742115161
 21
-368.895223982
 31
0.0
  0
LINE
  5
39A
330
1F
100
AcDbEntity
  8
0
100
AcDbLine
 10
224.0946284572
 20
-368.895223982
 30
0.0
 11
224.0946284572
 21
-368.3156409231
 31
0.0
  0
LINE
  5
39B
330
1F
100
AcDbEntity
  8
0
100
AcDbLine
 10
225.5946284572
 20
-366.8156409231
 30
0.0
 11
226.1742115161
 21
-366.8156409231
 31
0.0
  0
CIRCLE
  5
39C
330
1F
100
AcDbEntity
  8
0
100
AcDbCircle
 10
225.8844199866
 20
-368.6054324526
 30
0.0
 40
5.499999999999972
  0
LINE
  5
39D
330
1F
100
AcDbEntity
  8
0
100
AcDbLine
 10
231.1844199866
 20
-168.6054324526
 30
0.0
 11
220.5844199866
 21
-168.6054324526
 31
0.0
  0
LINE
  5
39E
330
1F
100
AcDbEntity
  8
0
100
AcDbLine
 10
231.1844199866
 20
-167.6054324526
 30
0.0
 11
220.5844199866
 21
-167.6054324526
 31
0.0
  0
LINE
  5
39F
330
1F
100
AcDbEntity
  8
0
100
AcDbLine
 10
224.8844199866
 20
-166.738179412
 30
0.0
 11
223.9223439573
 21
-166.9662549314
 31
0.0
  0
SPLINE
  5
3A0
330
1F
100
AcDbEntity
  8
0
100
AcDbSpline
210
0.0
220
0.0
230
1.0
 70
     8
 71
     3
 72
    12
 73
     8
 74
     0
 42
0.000000001
 43
0.00000001
 40
0.0
 40
0.0
 40
0.0
 40
0.0
 40
0.2174770912066959
 40
0.4353705208258347
 40
0.6490388720033518
 40
0.8610609605882166
 40
0.9999999999999999
 40
0.9999999999999999
 40
0.9999999999999999
 40
0.9999999999999999
 10
225.3983722542945
 20
-166.7381794119996
 30
0.0
 10
225.3917636159229
 20
-166.7292018463889
 30
0.0
 10
225.3785336875944
 20
-166.711229528505
 30
0.0
 10
225.2876456996381
 20
-166.6995608997256
 30
0.0
 10
225.1563078442889
 20
-166.7025450471123
 30
0.0
 10
225.0140831801192
 20
-166.7173539589722
 30
0.0
 10
224.9211933554769
 20
-166.7322731710329
 30
0.0
 10
224.8844199866408
 20
-166.7381794120012
 30
0.0
  0
LINE
  5
3A1
330
1F
100
AcDbEntity
  8
0
100
AcDbLine
 10
225.4223439573
 20
-166.9662549314
 30
0.0
 11
225.3983722543
 21
-166.738179412
 31
0.0
  0
LINE
  5
3A2
330
1F
100
AcDbEntity
  8
0
100
AcDbLine
 10
226.3464960159
 20
-166.9662549314
 30
0.0
 11
225.4223439573
 21
-166.9662549314
 31
0.0
  0
LINE
  5
3A3
330
1F
100
AcDbEntity
  8
0
100
AcDbLine
 10
226.370467719
 20
-166.738179412
 30
0.0
 11
226.3464960159
 21
-166.9662549314
 31
0.0
  0
SPLINE
  5
3A4
330
1F
100
AcDbEntity
  8
0
100
AcDbSpline
210
0.0
220
0.0
230
1.0
 70
     8
 71
     3
 72
    12
 73
     8
 74
     0
 42
0.000000001
 43
0.00000001
 40
0.0
 40
0.0
 40
0.0
 40
0.0
 40
0.2174770912063657
 40
0.4353705208256897
 40
0.6490388720029245
 40
0.8610609605877977
 40
1.0
 40
1.0
 40
1.0
 40
1.0
 10
226.8844199866408
 20
-166.7381794119997
 30
0.0
 10
226.8266473464809
 20
-166.7292018463888
 30
0.0
 10
226.710991466147
 20
-166.7112295285045
 30
0.0
 10
226.5568866030946
 20
-166.6995608997262
 30
0.0
 10
226.441634281435
 20
-166.7025450471123
 30
0.0
 10
226.3809227365412
 20
-166.7173539589719
 30
0.0
 10
226.3734328334994
 20
-166.7322731710331
 30
0.0
 10
226.370467718987
 20
-166.7381794120017
 30
0.0
  0
LINE
  5
3A5
330
1F
100
AcDbEntity
  8
0
100
AcDbLine
 10
227.8464960159
 20
-166.9662549314
 30
0.0
 11
226.8844199866
 21
-166.738179412
 31
0.0
  0
LINE
  5
3AC
330
1F
100
AcDbEntity
  8
0
 62
     8
370
    18
100
AcDbLine
 10
131.2055910893
 20
-525.6054324526
 30
0.0
 11
131.2055910893
 21
-211.6054324526
 31
0.0
  0
LINE
  5
3B0
330
1F
100
AcDbEntity
  8
0
  6
PHANTOM
 62
     8
370
    18
100
AcDbLine
 10
231.2055910893
 20
-167.6065561483
 30
0.0
 11
231.2055910893
 21
-167.6054324526
 31
0.0
  0
LINE
  5
3B6
330
1F
100
AcDbEntity
  8
0
 62
     8
370
    18
100
AcDbLine
 10
310.4820232677
 20
-525.6054324526
 30
0.0
 11
310.4820232677
 21
-211.6054324526
 31
0.0
  0
LINE
  5
3B7
330
1F
100
AcDbEntity
  8
0
  6
PHANTOM
 62
     8
370
    18
100
AcDbLine
 10
257.2055910893
 20
-607.9054324526
 30
0.0
 11
257.2055910893
 21
-609.3054324526
 31
0.0
  0
LINE
  5
3B8
330
1F
100
AcDbEntity
  8
0
  6
PHANTOM
 62
     8
370
    18
100
AcDbLine
 10
257.2055910893
 20
-610.4054324526
 30
0.0
 11
257.2055910893
 21
-609.3054324526
 31
0.0
  0
LINE
  5
3B9
330
1F
100
AcDbEntity
  8
0
  6
PHANTOM
 62
     8
370
    18
100
AcDbLine
 10
185.2055910893
 20
-609.3054324526
 30
0.0
 11
185.2055910893
 21
-607.9054324526
 31
0.0
  0
LINE
  5
3BA
330
1F
100
AcDbEntity
  8
0
  6
PHANTOM
 62
     8
370
    18
100
AcDbLine
 10
185.2055910893
 20
-609.3054324526
 30
0.0
 11
185.2055910893
 21
-610.4054324526
 31
0.0
  0
LINE
  5
3BB
330
1F
100
AcDbEntity
  8
0
  6
PHANTOM
 62
     8
370
    18
100
AcDbLine
 10
255.2055910893
 20
-607.9054324526
 30
0.0
 11
255.2055910893
 21
-568.4054324526
 31
0.0
  0
LINE
  5
3BC
330
1F
100
AcDbEntity
  8
0
  6
PHANTOM
 62
     8
370
    18
100
AcDbLine
 10
187.2055910893
 20
-568.4054324526
 30
0.0
 11
187.2055910893
 21
-607.9054324526
 31
0.0
  0
LINE
  5
3BD
330
1F
100
AcDbEntity
  8
0
  6
PHANTOM
 62
     8
370
    18
100
AcDbLine
 10
255.2055910893
 20
-613.4054324526
 30
0.0
 11
255.2055910893
 21
-610.4054324526
 31
0.0
  0
LINE
  5
3BE
330
1F
100
AcDbEntity
  8
0
  6
PHANTOM
 62
     8
370
    18
100
AcDbLine
 10
187.2055910893
 20
-610.4054324526
 30
0.0
 11
187.2055910893
 21
-613.4054324526
 31
0.0
  0
LINE
  5
3BF
330
1F
100
AcDbEntity
  8
0
  6
PHANTOM
 62
     8
370
    18
100
AcDbLine
 10
226.8844199866
 20
-368.3156409231
 30
0.0
 11
226.8844199866
 21
-368.1193847202
 31
0.0
  0
LINE
  5
3C0
330
1F
100
AcDbEntity
  8
0
  6
PHANTOM
 62
     8
370
    18
100
AcDbLine
 10
226.1742115161
 20
-367.6054324526
 30
0.0
 11
226.370467719
 21
-367.6054324526
 31
0.0
  0
LINE
  5
3C1
330
1F
100
AcDbEntity
  8
0
  6
PHANTOM
 62
     8
370
    18
100
AcDbLine
 10
224.8844199866
 20
-368.895223982
 30
0.0
 11
224.8844199866
 21
-369.0914801849
 31
0.0
  0
LINE
  5
3C2
330
1F
100
AcDbEntity
  8
0
  6
PHANTOM
 62
     8
370
    18
100
AcDbLine
 10
225.5946284572
 20
-369.6054324526
 30
0.0
 11
225.3983722543
 21
-369.6054324526
 31
0.0
  0
LINE
  5
3C3
330
1F
100
AcDbEntity
  8
0
  6
PHANTOM
 62
     8
370
    18
100
AcDbLine
 10
226.1742115161
 20
-369.6054324526
 30
0.0
 11
226.370467719
 21
-369.6054324526
 31
0.0
  0
LINE
  5
3C4
330
1F
100
AcDbEntity
  8
0
  6
PHANTOM
 62
     8
370
    18
100
AcDbLine
 10
226.8844199866
 20
-368.895223982
 30
0.0
 11
226.8844199866
 21
-369.0914801849
 31
0.0
  0
LINE
  5
3C5
330
1F
100
AcDbEntity
  8
0
  6
PHANTOM
 62
     8
370
    18
100
AcDbLine
 10
225.5946284572
 20
-367.6054324526
 30
0.0
 11
225.3983722543
 21
-367.6054324526
 31
0.0
  0
LINE
  5
3C6
330
1F
100
AcDbEntity
  8
0
  6
PHANTOM
 62
     8
370
    18
100
AcDbLine
 10
224.8844199866
 20
-368.3156409231
 30
0.0
 11
224.8844199866
 21
-368.1193847202
 31
0.0
  0
CIRCLE
  5
3C7
330
1F
100
AcDbEntity
  8
0
  6
PHANTOM
 62
     8
370
    18
100
AcDbCircle
 10
225.8844199866
 20
-368.6054324526
 30
0.0
 40
5.299999999999955
  0
LINE
  5
3C8
330
1F
100
AcDbEntity
  8
0
  6
PHANTOM
 62
     8
370
    18
100
AcDbLine
 10
231.3844199866
 20
-168.4054324526
 30
0.0
 11
220.3844199866
 21
-168.4054324526
 31
0.0
  0
LINE
  5
3C9
330
1F
100
AcDbEntity
  8
0
  6
PHANTOM
 62
     8
370
    18
100
AcDbLine
 10
231.3844199866
 20
-167.8054324526
 30
0.0
 11
220.3844199866
 21
-167.8054324526
 31
0.0
  0
LINE
  5
425
330
1F
100
AcDbEntity
  8
0
100
AcDbLine
 10
398.0159638246532
 20
-357.6400109495668
 30
0.0
 11
398.0159638246532
 21
-388.8400109495666
 31
0.0
  0
LINE
  5
426
330
1F
100
AcDbEntity
  8
0
100
AcDbLine
 10
476.0159638246532
 20
-373.2400109495667
 30
0.0
 11
437.0159638246532
 21
-404.4400109495667
 31
0.0
  0
INSERT
  5
427
330
1F
100
AcDbEntity
  8
LENKIMO
  6
CENTERX2
100
AcDbBlockReference
  2
*U3
 10
43.66991957730511
 20
-823.3424258742772
 30
0.0
 41
0.39
 42
0.39
 43
0.39
  0
MTEXT
  5
428
330
1F
100
AcDbEntity
  8
0
100
AcDbMText
 10
404.380120243557
 20
-366.9814670943598
 30
0.0
 40
13.65
 41
8.176792514679505
 71
     1
 72
     5
  1
{SUP}
 73
     1
 44
1.0
1001
ACAD
1000
ACAD_MTEXT_DEFINED_HEIGHT_BEGIN
1070
    46
1040
35.595
1000
ACAD_MTEXT_DEFINED_HEIGHT_END
  0
LINE
  5
429
330
1F
100
AcDbEntity
  8
0
100
AcDbLine
 10
437.0159638246532
 20
-388.8400109495666
 30
0.0
 11
437.0159638246532
 21
-404.4400109495667
 31
0.0
  0
LINE
  5
42A
330
1F
100
AcDbEntity
  8
0
100
AcDbLine
 10
437.0159638246532
 20
-388.8400109495666
 30
0.0
 11
398.0159638246532
 21
-388.8400109495666
 31
0.0
  0
LINE
  5
42B
330
1F
100
AcDbEntity
  8
0
100
AcDbLine
 10
476.0159638246532
 20
-373.2400109495667
 30
0.0
 11
437.0159638246532
 21
-342.0400109495666
 31
0.0
  0
LINE
  5
42C
330
1F
100
AcDbEntity
  8
0
100
AcDbLine
 10
437.0159638246532
 20
-357.6400109495668
 30
0.0
 11
398.0159638246532
 21
-357.6400109495668
 31
0.0
  0
LINE
  5
42D
330
1F
100
AcDbEntity
  8
0
100
AcDbLine
 10
437.0159638246532
 20
-342.0400109495666
 30
0.0
 11
437.0159638246532
 21
-357.6400109495668
 31
0.0
  0
LINE
  5
42E
330
1F
100
AcDbEntity
  8
0
100
AcDbLine
 10
-45.86391344128231
 20
-359.2867625308032
 30
0.0
 11
-45.86391344128231
 21
-390.486762530803
 31
0.0
  0
INSERT
  5
42F
330
1F
100
AcDbEntity
  8
LENKIMO
  6
CENTERX2
100
AcDbBlockReference
  2
*U4
 10
-269.6441000508172
 20
-942.8065685098817
 30
0.0
 41
0.39
 42
0.39
 43
0.39
  0
LINE
  5
430
330
1F
100
AcDbEntity
  8
0
100
AcDbLine
 10
32.13608655871678
 20
-374.8867625308031
 30
0.0
 11
-6.863913441282307
 21
-406.0867625308032
 31
0.0
  0
MTEXT
  5
431
330
1F
100
AcDbEntity
  8
0
100
AcDbMText
 10
-37.15632787372931
 20
-366.7952238423492
 30
0.0
 40
13.65
 41
8.176792514679505
 71
     1
 72
     5
  1
{ODA}
 73
     1
 44
1.0
1001
ACAD
1000
ACAD_MTEXT_DEFINED_HEIGHT_BEGIN
1070
    46
1040
35.595
1000
ACAD_MTEXT_DEFINED_HEIGHT_END
  0
LINE
  5
432
330
1F
100
AcDbEntity
  8
0
100
AcDbLine
 10
-6.863913441282307
 20
-390.486762530803
 30
0.0
 11
-6.863913441282307
 21
-406.0867625308032
 31
0.0
  0
LINE
  5
433
330
1F
100
AcDbEntity
  8
0
100
AcDbLine
 10
-6.863913441282307
 20
-390.486762530803
 30
0.0
 11
-45.86391344128231
 21
-390.486762530803
 31
0.0
  0
LINE
  5
434
330
1F
100
AcDbEntity
  8
0
100
AcDbLine
 10
32.13608655871678
 20
-374.8867625308031
 30
0.0
 11
-6.863913441282307
 21
-343.6867625308031
 31
0.0
  0
LINE
  5
435
330
1F
100
AcDbEntity
  8
0
100
AcDbLine
 10
-6.863913441282307
 20
-359.2867625308032
 30
0.0
 11
-45.86391344128231
 21
-359.2867625308032
 31
0.0
  0
LINE
  5
436
330
1F
100
AcDbEntity
  8
0
100
AcDbLine
 10
-6.863913441282307
 20
-343.6867625308031
 30
0.0
 11
-6.863913441282307
 21
-359.2867625308032
 31
0.0
  0
INSERT
  5
437
330
1F
100
AcDbEntity
  8
LENKIMO
  6
CENTERX2
100
AcDbBlockReference
  2
*U5
 10
-539.9388408128654
 20
-295.3369369510225
 30
0.0
 41
0.39
 42
0.39
 43
0.39
  0
INSERT
  5
438
330
1F
100
AcDbEntity
  8
LENKIMO
  6
CENTERX2
100
AcDbBlockReference
  2
*U6
 10
312.0757763540847
 20
-423.085210897157
 30
0.0
 41
0.39
 42
0.39
 43
0.39
  0
ENDSEC
  0
SECTION
  2
OBJECTS
  0
DICTIONARY
  5
C
330
0
100
AcDbDictionary
281
     1
  3
ACAD_GROUP
350
D
  3
ACAD_LAYOUT
350
1A
  3
ACAD_MLINESTYLE
350
17
  3
ACAD_PLOTSETTINGS
350
19
  3
ACAD_PLOTSTYLENAME
350
E
  3
ACAD_SCALELIST
350
47
  3
APPDATA
350
3EC
  3
DWGPROPS
350
43B
  0
DICTIONARY
  5
439
330
1F
100
AcDbDictionary
280
     1
281
     1
  3
DIM_BOUNDING_BOXES_V1
360
43A
  0
DICTIONARY
  5
D
102
{ACAD_REACTORS
330
C
102
}
330
C
100
AcDbDictionary
281
     1
  0
DICTIONARY
  5
1A
102
{ACAD_REACTORS
330
C
102
}
330
C
100
AcDbDictionary
281
     1
  3
Layout1
350
1E
  3
Layout2
350
26
  3
Model
350
22
  0
DICTIONARY
  5
17
102
{ACAD_REACTORS
330
C
102
}
330
C
100
AcDbDictionary
281
     1
  3
Standard
350
18
  0
DICTIONARY
  5
19
102
{ACAD_REACTORS
330
C
102
}
330
C
100
AcDbDictionary
281
     1
  0
ACDBDICTIONARYWDFLT
  5
E
102
{ACAD_REACTORS
330
C
102
}
330
C
100
AcDbDictionary
281
     1
  3
Normal
350
F
100
AcDbDictionaryWithDefault
340
F
  0
DICTIONARY
  5
47
102
{ACAD_REACTORS
330
C
102
}
330
C
100
AcDbDictionary
281
     1
  3
A0
350
48
  3
A1
350
49
  3
A2
350
4A
  3
A3
350
4B
  3
A4
350
4C
  3
A5
350
4D
  3
A6
350
4E
  3
A7
350
4F
  3
A8
350
50
  3
A9
350
51
  3
B0
350
52
  3
B1
350
53
  3
B2
350
54
  3
B3
350
55
  3
B4
350
56
  3
B5
350
57
  3
B6
350
58
  3
B7
350
59
  3
B8
350
5A
  3
B9
350
5B
  3
C0
350
5C
  3
C1
350
5D
  3
C2
350
5E
  3
C3
350
5F
  3
C4
350
60
  3
C5
350
61
  3
C6
350
62
  3
C7
350
63
  3
C8
350
64
  3
C9
350
65
  3
D0
350
66
  3
D1
350
67
  3
D2
350
68
  0
DICTIONARY
  5
3EC
102
{ACAD_REACTORS
330
C
102
}
330
C
100
AcDbDictionary
281
     1
  0
XRECORD
  5
43B
102
{ACAD_REACTORS
330
C
102
}
330
C
100
AcDbXrecord
280
     1
  1
DWGPROPS COOKIE
  2

  3

  4

  6

  7

  8
mantvydas.surka
  9

300
=
301
=
302
=
303
=
304
=
305
=
306
=
307
=
308
=
309
=
 40
0.0
 41
2459178.577236296
 42
2459178.580523148
  1

 90
        0
  0
DICTIONARY
  5
43A
102
{ACAD_REACTORS
330
439
102
}
330
439
100
AcDbDictionary
281
     1
  0
LAYOUT
  5
1E
102
{ACAD_REACTORS
330
1A
102
}
330
1A
100
AcDbPlotSettings
  1

  2
none_device
  4

  6

 40
0.0
 41
0.0
 42
0.0
 43
0.0
 44
0.0
 45
0.0
 46
0.0
 47
0.0
 48
0.0
 49
0.0
140
0.0
141
0.0
142
1.0
143
1.0
 70
   688
 72
     1
 73
     0
 74
     5
  7

 75
    16
147
1.0
148
0.0
149
0.0
100
AcDbLayout
  1
Layout1
 70
     1
 71
     1
 10
0.0
 20
0.0
 11
420.0
 21
297.0
 12
0.0
 22
0.0
 32
0.0
 14
1.000000000000000E+20
 24
1.000000000000000E+20
 34
1.000000000000000E+20
 15
-1.000000000000000E+20
 25
-1.000000000000000E+20
 35
-1.000000000000000E+20
146
0.0
 13
0.0
 23
0.0
 33
0.0
 16
1.0
 26
0.0
 36
0.0
 17
0.0
 27
1.0
 37
0.0
 76
     0
330
1B
  0
LAYOUT
  5
26
102
{ACAD_REACTORS
330
1A
102
}
330
1A
100
AcDbPlotSettings
  1

  2
none_device
  4

  6

 40
0.0
 41
0.0
 42
0.0
 43
0.0
 44
0.0
 45
0.0
 46
0.0
 47
0.0
 48
0.0
 49
0.0
140
0.0
141
0.0
142
1.0
143
1.0
 70
   688
 72
     1
 73
     0
 74
     5
  7

 75
    16
147
1.0
148
0.0
149
0.0
100
AcDbLayout
  1
Layout2
 70
     1
 71
     2
 10
0.0
 20
0.0
 11
0.0
 21
0.0
 12
0.0
 22
0.0
 32
0.0
 14
0.0
 24
0.0
 34
0.0
 15
0.0
 25
0.0
 35
0.0
146
0.0
 13
0.0
 23
0.0
 33
0.0
 16
1.0
 26
0.0
 36
0.0
 17
0.0
 27
1.0
 37
0.0
 76
     0
330
23
  0
LAYOUT
  5
22
102
{ACAD_REACTORS
330
1A
102
}
330
1A
100
AcDbPlotSettings
  1

  2
none_device
  4
Letter_(8.50_x_11.00_Inches)
  6

 40
6.35
 41
6.35
 42
6.35000508
 43
6.35000508
 44
215.9
 45
279.4
 46
0.0
 47
0.0
 48
0.0
 49
0.0
140
0.0
141
0.0
142
1.0
143
1.0
 70
  1712
 72
     1
 73
     0
 74
     0
  7

 75
     0
147
1.0
148
0.0
149
0.0
100
AcDbLayout
  1
Model
 70
     1
 71
     0
 10
0.0
 20
0.0
 11
420.0
 21
297.0
 12
0.0
 22
0.0
 32
0.0
 14
-458.4309978798
 24
-613.4054324526
 34
0.0
 15
884.1828058974999
 25
355.1109377046521
 35
0.0
146
0.0
 13
0.0
 23
0.0
 33
0.0
 16
1.0
 26
0.0
 36
0.0
 17
0.0
 27
1.0
 37
0.0
 76
     0
330
1F
331
29
  0
MLINESTYLE
  5
18
102
{ACAD_REACTORS
330
17
102
}
330
17
100
AcDbMlineStyle
  2
Standard
 70
     0
  3

 62
   256
 51
90.0
 52
90.0
 71
     2
 49
0.5
 62
   256
  6
BYLAYER
 49
-0.5
 62
   256
  6
BYLAYER
  0
ACDBPLACEHOLDER
  5
F
102
{ACAD_REACTORS
330
E
102
}
330
E
  0
SCALE
  5
48
102
{ACAD_REACTORS
330
47
102
}
330
47
100
AcDbScale
 70
     0
300
1:1
140
1.0
141
1.0
290
     1
  0
SCALE
  5
49
102
{ACAD_REACTORS
330
47
102
}
330
47
100
AcDbScale
 70
     0
300
1:2
140
1.0
141
2.0
290
     0
  0
SCALE
  5
4A
102
{ACAD_REACTORS
330
47
102
}
330
47
100
AcDbScale
 70
     0
300
1:4
140
1.0
141
4.0
290
     0
  0
SCALE
  5
4B
102
{ACAD_REACTORS
330
47
102
}
330
47
100
AcDbScale
 70
     0
300
1:5
140
1.0
141
5.0
290
     0
  0
SCALE
  5
4C
102
{ACAD_REACTORS
330
47
102
}
330
47
100
AcDbScale
 70
     0
300
1:8
140
1.0
141
8.0
290
     0
  0
SCALE
  5
4D
102
{ACAD_REACTORS
330
47
102
}
330
47
100
AcDbScale
 70
     0
300
1:10
140
1.0
141
10.0
290
     0
  0
SCALE
  5
4E
102
{ACAD_REACTORS
330
47
102
}
330
47
100
AcDbScale
 70
     0
300
1:16
140
1.0
141
16.0
290
     0
  0
SCALE
  5
4F
102
{ACAD_REACTORS
330
47
102
}
330
47
100
AcDbScale
 70
     0
300
1:20
140
1.0
141
20.0
290
     0
  0
SCALE
  5
50
102
{ACAD_REACTORS
330
47
102
}
330
47
100
AcDbScale
 70
     0
300
1:30
140
1.0
141
30.0
290
     0
  0
SCALE
  5
51
102
{ACAD_REACTORS
330
47
102
}
330
47
100
AcDbScale
 70
     0
300
1:40
140
1.0
141
40.0
290
     0
  0
SCALE
  5
52
102
{ACAD_REACTORS
330
47
102
}
330
47
100
AcDbScale
 70
     0
300
1:50
140
1.0
141
50.0
290
     0
  0
SCALE
  5
53
102
{ACAD_REACTORS
330
47
102
}
330
47
100
AcDbScale
 70
     0
300
1:100
140
1.0
141
100.0
290
     0
  0
SCALE
  5
54
102
{ACAD_REACTORS
330
47
102
}
330
47
100
AcDbScale
 70
     0
300
2:1
140
2.0
141
1.0
290
     0
  0
SCALE
  5
55
102
{ACAD_REACTORS
330
47
102
}
330
47
100
AcDbScale
 70
     0
300
4:1
140
4.0
141
1.0
290
     0
  0
SCALE
  5
56
102
{ACAD_REACTORS
330
47
102
}
330
47
100
AcDbScale
 70
     0
300
8:1
140
8.0
141
1.0
290
     0
  0
SCALE
  5
57
102
{ACAD_REACTORS
330
47
102
}
330
47
100
AcDbScale
 70
     0
300
10:1
140
10.0
141
1.0
290
     0
  0
SCALE
  5
58
102
{ACAD_REACTORS
330
47
102
}
330
47
100
AcDbScale
 70
     0
300
100:1
140
100.0
141
1.0
290
     0
  0
SCALE
  5
59
102
{ACAD_REACTORS
330
47
102
}
330
47
100
AcDbScale
 70
     0
300
1/128" = 1'-0"
140
0.0078125
141
12.0
290
     0
  0
SCALE
  5
5A
102
{ACAD_REACTORS
330
47
102
}
330
47
100
AcDbScale
 70
     0
300
1/64" = 1'-0"
140
0.015625
141
12.0
290
     0
  0
SCALE
  5
5B
102
{ACAD_REACTORS
330
47
102
}
330
47
100
AcDbScale
 70
     0
300
1/32" = 1'-0"
140
0.03125
141
12.0
290
     0
  0
SCALE
  5
5C
102
{ACAD_REACTORS
330
47
102
}
330
47
100
AcDbScale
 70
     0
300
1/16" = 1'-0"
140
0.0625
141
12.0
290
     0
  0
SCALE
  5
5D
102
{ACAD_REACTORS
330
47
102
}
330
47
100
AcDbScale
 70
     0
300
3/32" = 1'-0"
140
0.09375
141
12.0
290
     0
  0
SCALE
  5
5E
102
{ACAD_REACTORS
330
47
102
}
330
47
100
AcDbScale
 70
     0
300
1/8" = 1'-0"
140
0.125
141
12.0
290
     0
  0
SCALE
  5
5F
102
{ACAD_REACTORS
330
47
102
}
330
47
100
AcDbScale
 70
     0
300
3/16" = 1'-0"
140
0.1875
141
12.0
290
     0
  0
SCALE
  5
60
102
{ACAD_REACTORS
330
47
102
}
330
47
100
AcDbScale
 70
     0
300
1/4" = 1'-0"
140
0.25
141
12.0
290
     0
  0
SCALE
  5
61
102
{ACAD_REACTORS
330
47
102
}
330
47
100
AcDbScale
 70
     0
300
3/8" = 1'-0"
140
0.375
141
12.0
290
     0
  0
SCALE
  5
62
102
{ACAD_REACTORS
330
47
102
}
330
47
100
AcDbScale
 70
     0
300
1/2" = 1'-0"
140
0.5
141
12.0
290
     0
  0
SCALE
  5
63
102
{ACAD_REACTORS
330
47
102
}
330
47
100
AcDbScale
 70
     0
300
3/4" = 1'-0"
140
0.75
141
12.0
290
     0
  0
SCALE
  5
64
102
{ACAD_REACTORS
330
47
102
}
330
47
100
AcDbScale
 70
     0
300
1" = 1'-0"
140
1.0
141
12.0
290
     0
  0
SCALE
  5
65
102
{ACAD_REACTORS
330
47
102
}
330
47
100
AcDbScale
 70
     0
300
1-1/2" = 1'-0"
140
1.5
141
12.0
290
     0
  0
SCALE
  5
66
102
{ACAD_REACTORS
330
47
102
}
330
47
100
AcDbScale
 70
     0
300
3" = 1'-0"
140
3.0
141
12.0
290
     0
  0
SCALE
  5
67
102
{ACAD_REACTORS
330
47
102
}
330
47
100
AcDbScale
 70
     0
300
6" = 1'-0"
140
6.0
141
12.0
290
     0
  0
SCALE
  5
68
102
{ACAD_REACTORS
330
47
102
}
330
47
100
AcDbScale
 70
     0
300
1'-0" = 1'-0"
140
12.0
141
12.0
290
     0
  0
ENDSEC
  0
EOF
