  0
SECTION
  2
HEADER
  9
$ACADVER
  1
AC1015
  9
$ACADMAINTVER
 70
     6
  9
$DWGCODEPAGE
  3
ANSI_1257
  9
$INSBASE
 10
0.0
 20
0.0
 30
0.0
  9
$EXTMIN
 10
-151.2353069780866
 20
166.957844772321
 30
0.0
  9
$EXTMAX
 10
2032.902859605245
 20
1368.960004014606
 30
0.0
  9
$LIMMIN
 10
0.0
 20
0.0
  9
$LIMMAX
 10
420.0
 20
297.0
  9
$ORTHOMODE
 70
     0
  9
$REGENMODE
 70
     1
  9
$FILLMODE
 70
     1
  9
$QTEXTMODE
 70
     0
  9
$MIRRTEXT
 70
     1
  9
$LTSCALE
 40
1.0
  9
$ATTMODE
 70
     1
  9
$TEXTSIZE
 40
2.5
  9
$TRACEWID
 40
1.0
  9
$TEXTSTYLE
  7
STANDARD
  9
$CLAYER
  8
0
  9
$CELTYPE
  6
ByLayer
  9
$CECOLOR
 62
   256
  9
$CELTSCALE
 40
1.0
  9
$DISPSILH
 70
     0
  9
$DIMSCALE
 40
1.0
  9
$DIMASZ
 40
4.0
  9
$DIMEXO
 40
1.0
  9
$DIMDLI
 40
3.75
  9
$DIMRND
 40
0.0
  9
$DIMDLE
 40
0.0
  9
$DIMEXE
 40
1.0
  9
$DIMTP
 40
0.0
  9
$DIMTM
 40
0.0
  9
$DIMTXT
 40
3.527777777777776
  9
$DIMCEN
 40
2.5
  9
$DIMTSZ
 40
0.0
  9
$DIMTOL
 70
     0
  9
$DIMLIM
 70
     0
  9
$DIMTIH
 70
     1
  9
$DIMTOH
 70
     1
  9
$DIMSE1
 70
     0
  9
$DIMSE2
 70
     0
  9
$DIMTAD
 70
     1
  9
$DIMZIN
 70
     0
  9
$DIMBLK
  1

  9
$DIMASO
 70
     1
  9
$DIMSHO
 70
     1
  9
$DIMPOST
  1

  9
$DIMAPOST
  1

  9
$DIMALT
 70
     0
  9
$DIMALTD
 70
     3
  9
$DIMALTF
 40
0.0393700787401575
  9
$DIMLFAC
 40
1.0
  9
$DIMTOFL
 70
     1
  9
$DIMTVP
 40
0.0
  9
$DIMTIX
 70
     0
  9
$DIMSOXD
 70
     0
  9
$DIMSAH
 70
     0
  9
$DIMBLK1
  1

  9
$DIMBLK2
  1

  9
$DIMSTYLE
  2
ISO-25
  9
$DIMCLRD
 70
     0
  9
$DIMCLRE
 70
     0
  9
$DIMCLRT
 70
     0
  9
$DIMTFAC
 40
1.0
  9
$DIMGAP
 40
1.524
  9
$DIMJUST
 70
     0
  9
$DIMSD1
 70
     0
  9
$DIMSD2
 70
     0
  9
$DIMTOLJ
 70
     1
  9
$DIMTZIN
 70
     0
  9
$DIMALTZ
 70
     0
  9
$DIMALTTZ
 70
     0
  9
$DIMUPT
 70
     0
  9
$DIMDEC
 70
     2
  9
$DIMTDEC
 70
     2
  9
$DIMALTU
 70
     2
  9
$DIMALTTD
 70
     2
  9
$DIMTXSTY
  7
STANDARD
  9
$DIMAUNIT
 70
     0
  9
$DIMADEC
 70
     0
  9
$DIMALTRND
 40
0.0
  9
$DIMAZIN
 70
     0
  9
$DIMDSEP
 70
    46
  9
$DIMATFIT
 70
     3
  9
$DIMFRAC
 70
     0
  9
$DIMLDRBLK
  1

  9
$DIMLUNIT
 70
     2
  9
$DIMLWD
 70
    -2
  9
$DIMLWE
 70
    -2
  9
$DIMTMOVE
 70
     2
  9
$LUNITS
 70
     2
  9
$LUPREC
 70
     2
  9
$SKETCHINC
 40
1.0
  9
$FILLETRAD
 40
10.0
  9
$AUNITS
 70
     0
  9
$AUPREC
 70
     2
  9
$MENU
  1
.
  9
$ELEVATION
 40
0.0
  9
$PELEVATION
 40
0.0
  9
$THICKNESS
 40
0.0
  9
$LIMCHECK
 70
     0
  9
$CHAMFERA
 40
10.0
  9
$CHAMFERB
 40
10.0
  9
$CHAMFERC
 40
0.0
  9
$CHAMFERD
 40
0.0
  9
$SKPOLY
 70
     0
  9
$TDCREATE
 40
2455660.598963646
  9
$TDUCREATE
 40
2455660.515630313
  9
$TDUPDATE
 40
2459177.592821794
  9
$TDUUPDATE
 40
2459177.509488461
  9
$TDINDWG
 40
0.0134188079
  9
$TDUSRTIMER
 40
0.0008046296
  9
$USRTIMER
 70
     1
  9
$ANGBASE
 50
0.0
  9
$ANGDIR
 70
     0
  9
$PDMODE
 70
     0
  9
$PDSIZE
 40
-1.0
  9
$PLINEWID
 40
0.0
  9
$SPLFRAME
 70
     0
  9
$SPLINETYPE
 70
     6
  9
$SPLINESEGS
 70
     8
  9
$HANDSEED
  5
22B2
  9
$SURFTAB1
 70
     6
  9
$SURFTAB2
 70
     6
  9
$SURFTYPE
 70
     6
  9
$SURFU
 70
     6
  9
$SURFV
 70
     6
  9
$UCSBASE
  2

  9
$UCSNAME
  2

  9
$UCSORG
 10
0.0
 20
0.0
 30
0.0
  9
$UCSXDIR
 10
1.0
 20
0.0
 30
0.0
  9
$UCSYDIR
 10
0.0
 20
1.0
 30
0.0
  9
$UCSORTHOREF
  2

  9
$UCSORTHOVIEW
 70
     0
  9
$UCSORGTOP
 10
0.0
 20
0.0
 30
0.0
  9
$UCSORGBOTTOM
 10
0.0
 20
0.0
 30
0.0
  9
$UCSORGLEFT
 10
0.0
 20
0.0
 30
0.0
  9
$UCSORGRIGHT
 10
0.0
 20
0.0
 30
0.0
  9
$UCSORGFRONT
 10
0.0
 20
0.0
 30
0.0
  9
$UCSORGBACK
 10
0.0
 20
0.0
 30
0.0
  9
$PUCSBASE
  2

  9
$PUCSNAME
  2

  9
$PUCSORG
 10
0.0
 20
0.0
 30
0.0
  9
$PUCSXDIR
 10
1.0
 20
0.0
 30
0.0
  9
$PUCSYDIR
 10
0.0
 20
1.0
 30
0.0
  9
$PUCSORTHOREF
  2

  9
$PUCSORTHOVIEW
 70
     0
  9
$PUCSORGTOP
 10
0.0
 20
0.0
 30
0.0
  9
$PUCSORGBOTTOM
 10
0.0
 20
0.0
 30
0.0
  9
$PUCSORGLEFT
 10
0.0
 20
0.0
 30
0.0
  9
$PUCSORGRIGHT
 10
0.0
 20
0.0
 30
0.0
  9
$PUCSORGFRONT
 10
0.0
 20
0.0
 30
0.0
  9
$PUCSORGBACK
 10
0.0
 20
0.0
 30
0.0
  9
$USERI1
 70
     0
  9
$USERI2
 70
     0
  9
$USERI3
 70
     0
  9
$USERI4
 70
     0
  9
$USERI5
 70
     0
  9
$USERR1
 40
0.0
  9
$USERR2
 40
0.0
  9
$USERR3
 40
0.0
  9
$USERR4
 40
0.0
  9
$USERR5
 40
0.0
  9
$WORLDVIEW
 70
     1
  9
$SHADEDGE
 70
     3
  9
$SHADEDIF
 70
    70
  9
$TILEMODE
 70
     1
  9
$MAXACTVP
 70
    64
  9
$PINSBASE
 10
0.0
 20
0.0
 30
0.0
  9
$PLIMCHECK
 70
     0
  9
$PEXTMIN
 10
-191.1426104476283
 20
-993.9422597285799
 30
0.0
  9
$PEXTMAX
 10
1180.926476134536
 20
207.05990277044
 30
0.0
  9
$PLIMMIN
 10
0.0
 20
0.0
  9
$PLIMMAX
 10
0.0
 20
0.0
  9
$UNITMODE
 70
     0
  9
$VISRETAIN
 70
     1
  9
$PLINEGEN
 70
     0
  9
$PSLTSCALE
 70
     1
  9
$TREEDEPTH
 70
  3020
  9
$CMLSTYLE
  2
Standard
  9
$CMLJUST
 70
     0
  9
$CMLSCALE
 40
1.0
  9
$PROXYGRAPHICS
 70
     1
  9
$MEASUREMENT
 70
     0
  9
$CELWEIGHT
370
    -1
  9
$ENDCAPS
280
     0
  9
$JOINSTYLE
280
     0
  9
$LWDISPLAY
290
     0
  9
$INSUNITS
 70
     0
  9
$HYPERLINKBASE
  1

  9
$STYLESHEET
  1

  9
$XEDIT
290
     1
  9
$CEPSNTYPE
380
     0
  9
$PSTYLEMODE
290
     1
  9
$FINGERPRINTGUID
  2
{47476518-8d7a-49a9-be0e-958dd2a5d6e2}
  9
$VERSIONGUID
  2
{FAEB1C32-E019-11D5-929B-00C0DF256EC4}
  9
$EXTNAMES
290
     1
  9
$PSVPSCALE
 40
0.0
  9
$OLESTARTUP
290
     0
  0
ENDSEC
  0
SECTION
  2
CLASSES
  0
CLASS
  1
ACDBDICTIONARYWDFLT
  2
AcDbDictionaryWithDefault
  3
ObjectDBX Classes
 90
        0
280
     0
281
     0
  0
CLASS
  1
MATERIAL
  2
AcDbMaterial
  3
ObjectDBX Classes
 90
     1153
280
     0
281
     0
  0
CLASS
  1
SCALE
  2
AcDbScale
  3
ObjectDBX Classes
 90
     1153
280
     0
281
     0
  0
CLASS
  1
VISUALSTYLE
  2
AcDbVisualStyle
  3
ObjectDBX Classes
 90
     4095
280
     0
281
     0
  0
CLASS
  1
TABLESTYLE
  2
AcDbTableStyle
  3
ObjectDBX Classes
 90
     4095
280
     0
281
     0
  0
CLASS
  1
MLEADERSTYLE
  2
AcDbMLeaderStyle
  3
ACDB_MLEADERSTYLE_CLASS
 90
     4095
280
     0
281
     0
  0
CLASS
  1
ACDBPLACEHOLDER
  2
AcDbPlaceHolder
  3
ObjectDBX Classes
 90
        0
280
     0
281
     0
  0
CLASS
  1
LAYOUT
  2
AcDbLayout
  3
ObjectDBX Classes
 90
        0
280
     0
281
     0
  0
ENDSEC
  0
SECTION
  2
TABLES
  0
TABLE
  2
VPORT
  5
1F03
330
0
100
AcDbSymbolTable
 70
     1
  0
VPORT
  5
1F1A
330
1F03
100
AcDbSymbolTableRecord
100
AcDbViewportTableRecord
  2
*ACTIVE
 70
     0
 10
0.0
 20
0.0
 11
1.0
 21
1.0
 12
1025.409335145391
 22
749.6691337244891
 13
0.0
 23
0.0
 14
10.0
 24
10.0
 15
10.0
 25
10.0
 16
0.0
 26
0.0
 36
1.0
 17
0.0
 27
0.0
 37
0.0
 40
2035.647316992255
 41
1.992395437262357
 42
50.0
 43
0.0
 44
0.0
 50
0.0
 51
0.0
 71
    16
 72
  2000
 73
     1
 74
     3
 75
     0
 76
     0
 77
     0
 78
     0
281
     0
 65
     0
110
0.0
120
0.0
130
0.0
111
1.0
121
0.0
131
0.0
112
0.0
122
1.0
132
0.0
 79
     0
146
0.0
  0
ENDTAB
  0
TABLE
  2
LTYPE
  5
1F00
330
0
100
AcDbSymbolTable
 70
     6
  0
LTYPE
  5
1F0E
330
1F00
100
AcDbSymbolTableRecord
100
AcDbLinetypeTableRecord
  2
ByBlock
 70
     0
  3

 72
    65
 73
     0
 40
0.0
  0
LTYPE
  5
1F0F
330
1F00
100
AcDbSymbolTableRecord
100
AcDbLinetypeTableRecord
  2
ByLayer
 70
     0
  3

 72
    65
 73
     0
 40
0.0
  0
LTYPE
  5
1F10
330
1F00
100
AcDbSymbolTableRecord
100
AcDbLinetypeTableRecord
  2
CONTINUOUS
 70
     0
  3
Solid line
 72
    65
 73
     0
 40
0.0
  0
LTYPE
  5
1F1C
330
1F00
100
AcDbSymbolTableRecord
100
AcDbLinetypeTableRecord
  2
HIDDEN
 70
     0
  3
Hidden __ __ __ __ __ __ __ __ __ __ __ __ __ __
 72
    65
 73
     2
 40
1.905
 49
1.27
 74
     0
 49
-0.635
 74
     0
  0
LTYPE
  5
1F1D
330
1F00
100
AcDbSymbolTableRecord
100
AcDbLinetypeTableRecord
  2
PHANTOM
 70
     0
  3
Phantom ______  __  __  ______  __  __  ______
 72
    65
 73
     6
 40
12.7
 49
6.349999999999998
 74
     0
 49
-1.27
 74
     0
 49
1.27
 74
     0
 49
-1.27
 74
     0
 49
1.27
 74
     0
 49
-1.27
 74
     0
  0
LTYPE
  5
1F1E
330
1F00
100
AcDbSymbolTableRecord
100
AcDbLinetypeTableRecord
  2
CENTER
 70
     0
  3
Center ____ _ ____ _ ____ _ ____ _ ____ _ ____
 72
    65
 73
     4
 40
10.16
 49
6.349999999999998
 74
     0
 49
-1.27
 74
     0
 49
1.27
 74
     0
 49
-1.27
 74
     0
  0
LTYPE
  5
1F1F
330
1F00
100
AcDbSymbolTableRecord
100
AcDbLinetypeTableRecord
  2
CENTERX2
 70
     0
  3
Center (2x) ________  __  ________  __  _____
 72
    65
 73
     4
 40
20.32
 49
12.7
 74
     0
 49
-2.54
 74
     0
 49
2.54
 74
     0
 49
-2.54
 74
     0
  0
LTYPE
  5
1F20
330
1F00
100
AcDbSymbolTableRecord
100
AcDbLinetypeTableRecord
  2
DOT2
 70
     0
  3
Dot (.5x) ........................................
 72
    65
 73
     2
 40
0.635
 49
0.0
 74
     0
 49
-0.635
 74
     0
  0
ENDTAB
  0
TABLE
  2
LAYER
  5
1EFE
330
0
100
AcDbSymbolTable
 70
     3
  0
LAYER
  5
1F0B
330
1EFE
100
AcDbSymbolTableRecord
100
AcDbLayerTableRecord
  2
0
 70
     0
 62
     7
  6
CONTINUOUS
370
    -3
390
1F0A
  0
LAYER
  5
1F26
330
1EFE
100
AcDbSymbolTableRecord
100
AcDbLayerTableRecord
  2
SLD-DEFPOINTS
 70
     0
 62
     7
  6
CONTINUOUS
370
    -3
390
1F0A
  0
LAYER
  5
1F27
330
1EFE
100
AcDbSymbolTableRecord
100
AcDbLayerTableRecord
  2
LENKIMO
 70
     0
 62
     1
  6
HIDDEN
370
    -3
390
1F0A
  0
ENDTAB
  0
TABLE
  2
STYLE
  5
1EFF
330
0
100
AcDbSymbolTable
 70
     6
  0
STYLE
  5
1F0C
330
1EFF
100
AcDbSymbolTableRecord
100
AcDbTextStyleTableRecord
  2
STANDARD
 70
     0
 40
0.0
 41
1.0
 50
0.0
 71
     0
 42
2.5
  3
txt
  4

  0
STYLE
  5
1F29
330
1EFF
100
AcDbSymbolTableRecord
100
AcDbTextStyleTableRecord
  2
SLDTEXTSTYLE0
 70
     0
 40
0.0
 41
0.75
 50
0.0
 71
     0
 42
0.2
  3
TXT
  4

  0
STYLE
  5
1F2A
330
1EFF
100
AcDbSymbolTableRecord
100
AcDbTextStyleTableRecord
  2
SLDTEXTSTYLE1
 70
     0
 40
0.0
 41
0.6875
 50
0.0
 71
     0
 42
0.2
  3
TXT
  4

  0
STYLE
  5
1F2B
330
1EFF
100
AcDbSymbolTableRecord
100
AcDbTextStyleTableRecord
  2
SLDTEXTSTYLE2
 70
     0
 40
0.0
 41
0.75
 50
0.0
 71
     0
 42
0.2
  3
TXT
  4
bigfont
  0
STYLE
  5
1F2C
330
1EFF
100
AcDbSymbolTableRecord
100
AcDbTextStyleTableRecord
  2
SLDTEXTSTYLE3
 70
     0
 40
0.0
 41
0.6630000000000001
 50
0.0
 71
     0
 42
0.2
  3
TXT
  4

  0
STYLE
  5
1F2D
330
1EFF
100
AcDbSymbolTableRecord
100
AcDbTextStyleTableRecord
  2
SLDTEXTSTYLE4
 70
     0
 40
0.0
 41
0.6630000000000001
 50
0.0
 71
     0
 42
0.2
  3
TXT
  4
bigfont
  0
ENDTAB
  0
TABLE
  2
VIEW
  5
1F01
330
0
100
AcDbSymbolTable
 70
     0
  0
ENDTAB
  0
TABLE
  2
UCS
  5
1F02
330
0
100
AcDbSymbolTable
 70
     0
  0
ENDTAB
  0
TABLE
  2
APPID
  5
1F04
330
0
100
AcDbSymbolTable
 70
     1
  0
APPID
  5
1F0D
330
1F04
100
AcDbSymbolTableRecord
100
AcDbRegAppTableRecord
  2
ACAD
 70
     0
  0
ENDTAB
  0
TABLE
  2
DIMSTYLE
  5
1F05
330
0
100
AcDbSymbolTable
 70
     6
100
AcDbDimStyleTable
  0
DIMSTYLE
105
1F2F
330
1F05
100
AcDbSymbolTableRecord
100
AcDbDimStyleTableRecord
  2
ISO-25
 70
     0
 41
2.5
 42
0.625
 43
3.75
 44
1.25
 73
     0
 74
     0
 77
     1
 78
     8
140
2.5
141
2.5
143
0.03937007874016
147
0.625
171
     3
172
     1
178
     0
340
1F0C
  0
DIMSTYLE
105
1F30
330
1F05
100
AcDbSymbolTableRecord
100
AcDbDimStyleTableRecord
  2
SLDDIMSTYLE0
 70
     0
 41
4.0
 44
0.0
 45
0.000000001
 73
     0
 77
     1
 78
    12
140
2.645833333333333
144
7.0
147
0.6614583333333334
173
     1
178
     0
340
1F0C
  0
DIMSTYLE
105
1F31
330
1F05
100
AcDbSymbolTableRecord
100
AcDbDimStyleTableRecord
  2
SLDDIMSTYLE1
 70
     0
 41
4.0
 44
0.0
 45
0.000000001
 73
     0
 77
     1
 78
     4
140
2.645833333333333
144
7.0
147
0.6614583333333334
173
     1
178
     0
340
1F0C
  0
DIMSTYLE
105
1F32
330
1F05
100
AcDbSymbolTableRecord
100
AcDbDimStyleTableRecord
  2
SLDDIMSTYLE2
 70
     0
 41
4.0
 44
0.0
 45
0.000000001
146
4.0
147
0.0
173
     1
178
     0
340
1F0C
  0
DIMSTYLE
105
211E
330
1F05
100
AcDbSymbolTableRecord
100
AcDbDimStyleTableRecord
  2
SLDDIMSTYLE3
 70
     0
 41
4.0
 44
0.0
 45
0.000000001
 73
     0
 77
     1
 78
     4
140
2.645833333333333
144
5.0
147
0.6614583333333334
173
     1
178
     0
340
1F0C
  0
DIMSTYLE
105
211F
330
1F05
100
AcDbSymbolTableRecord
100
AcDbDimStyleTableRecord
  2
SLDDIMSTYLE4
 70
     0
 41
4.0
 44
0.0
 73
     0
 77
     1
 78
    12
140
2.6458333333
144
7.5
147
0.6614583333000001
173
     1
178
     0
340
1F0C
  0
ENDTAB
  0
TABLE
  2
BLOCK_RECORD
  5
1EFD
330
0
100
AcDbSymbolTable
 70
   161
  0
BLOCK_RECORD
  5
1F17
102
{ACAD_XDICTIONARY
360
22AE
102
}
330
1EFD
100
AcDbSymbolTableRecord
100
AcDbBlockTableRecord
  2
*Model_Space
340
1F18
  0
BLOCK_RECORD
  5
1F15
330
1EFD
100
AcDbSymbolTableRecord
100
AcDbBlockTableRecord
  2
*Paper_Space
340
1F16
  0
BLOCK_RECORD
  5
1F36
330
1EFD
100
AcDbSymbolTableRecord
100
AcDbBlockTableRecord
  2
BLOCK1
340
0
  0
BLOCK_RECORD
  5
1F38
330
1EFD
100
AcDbSymbolTableRecord
100
AcDbBlockTableRecord
  2
SW_NOTE_0
340
0
  0
BLOCK_RECORD
  5
1F3A
330
1EFD
100
AcDbSymbolTableRecord
100
AcDbBlockTableRecord
  2
*U2
340
0
102
{BLKREFS
331
196
102
}
  0
BLOCK_RECORD
  5
1F3C
330
1EFD
100
AcDbSymbolTableRecord
100
AcDbBlockTableRecord
  2
*U3
340
0
102
{BLKREFS
331
197
102
}
  0
BLOCK_RECORD
  5
1F3E
330
1EFD
100
AcDbSymbolTableRecord
100
AcDbBlockTableRecord
  2
SW_NOTE_1
340
0
  0
BLOCK_RECORD
  5
1F40
330
1EFD
100
AcDbSymbolTableRecord
100
AcDbBlockTableRecord
  2
*U5
340
0
102
{BLKREFS
331
19C
102
}
  0
BLOCK_RECORD
  5
1F42
330
1EFD
100
AcDbSymbolTableRecord
100
AcDbBlockTableRecord
  2
*U6
340
0
102
{BLKREFS
331
19D
102
}
  0
BLOCK_RECORD
  5
1F44
330
1EFD
100
AcDbSymbolTableRecord
100
AcDbBlockTableRecord
  2
SW_TABLEANNOTATION_0
340
0
  0
BLOCK_RECORD
  5
1F46
330
1EFD
100
AcDbSymbolTableRecord
100
AcDbBlockTableRecord
  2
*U8
340
0
102
{BLKREFS
331
1D3
102
}
  0
BLOCK_RECORD
  5
1F48
330
1EFD
100
AcDbSymbolTableRecord
100
AcDbBlockTableRecord
  2
*U9
340
0
102
{BLKREFS
331
1D4
102
}
  0
BLOCK_RECORD
  5
1F4A
330
1EFD
100
AcDbSymbolTableRecord
100
AcDbBlockTableRecord
  2
*U10
340
0
102
{BLKREFS
331
1D5
102
}
  0
BLOCK_RECORD
  5
1F4C
330
1EFD
100
AcDbSymbolTableRecord
100
AcDbBlockTableRecord
  2
*U11
340
0
102
{BLKREFS
331
1D6
102
}
  0
BLOCK_RECORD
  5
1F4E
330
1EFD
100
AcDbSymbolTableRecord
100
AcDbBlockTableRecord
  2
*U12
340
0
102
{BLKREFS
331
1D7
102
}
  0
BLOCK_RECORD
  5
1F50
330
1EFD
100
AcDbSymbolTableRecord
100
AcDbBlockTableRecord
  2
*U13
340
0
102
{BLKREFS
331
1D8
102
}
  0
BLOCK_RECORD
  5
1F52
330
1EFD
100
AcDbSymbolTableRecord
100
AcDbBlockTableRecord
  2
*U14
340
0
102
{BLKREFS
331
1D9
102
}
  0
BLOCK_RECORD
  5
1F54
330
1EFD
100
AcDbSymbolTableRecord
100
AcDbBlockTableRecord
  2
*U15
340
0
102
{BLKREFS
331
1DA
102
}
  0
BLOCK_RECORD
  5
1F56
330
1EFD
100
AcDbSymbolTableRecord
100
AcDbBlockTableRecord
  2
*U16
340
0
102
{BLKREFS
331
1DB
102
}
  0
BLOCK_RECORD
  5
1F58
330
1EFD
100
AcDbSymbolTableRecord
100
AcDbBlockTableRecord
  2
*U17
340
0
102
{BLKREFS
331
1DC
102
}
  0
BLOCK_RECORD
  5
1F5A
330
1EFD
100
AcDbSymbolTableRecord
100
AcDbBlockTableRecord
  2
*U18
340
0
102
{BLKREFS
331
1DD
102
}
  0
BLOCK_RECORD
  5
1F5C
330
1EFD
100
AcDbSymbolTableRecord
100
AcDbBlockTableRecord
  2
*U19
340
0
102
{BLKREFS
331
1DE
102
}
  0
BLOCK_RECORD
  5
1F5E
330
1EFD
100
AcDbSymbolTableRecord
100
AcDbBlockTableRecord
  2
*U20
340
0
102
{BLKREFS
331
1DF
102
}
  0
BLOCK_RECORD
  5
1F60
330
1EFD
100
AcDbSymbolTableRecord
100
AcDbBlockTableRecord
  2
*U21
340
0
102
{BLKREFS
331
1E0
102
}
  0
BLOCK_RECORD
  5
1F62
330
1EFD
100
AcDbSymbolTableRecord
100
AcDbBlockTableRecord
  2
*U22
340
0
102
{BLKREFS
331
1E1
102
}
  0
BLOCK_RECORD
  5
1F64
330
1EFD
100
AcDbSymbolTableRecord
100
AcDbBlockTableRecord
  2
*U23
340
0
102
{BLKREFS
331
1E2
102
}
  0
BLOCK_RECORD
  5
1F66
330
1EFD
100
AcDbSymbolTableRecord
100
AcDbBlockTableRecord
  2
*U24
340
0
102
{BLKREFS
331
1E3
102
}
  0
BLOCK_RECORD
  5
1F68
330
1EFD
100
AcDbSymbolTableRecord
100
AcDbBlockTableRecord
  2
*U25
340
0
102
{BLKREFS
331
1E4
102
}
  0
BLOCK_RECORD
  5
1F6A
330
1EFD
100
AcDbSymbolTableRecord
100
AcDbBlockTableRecord
  2
*U26
340
0
102
{BLKREFS
331
1E5
102
}
  0
BLOCK_RECORD
  5
1F6C
330
1EFD
100
AcDbSymbolTableRecord
100
AcDbBlockTableRecord
  2
*U27
340
0
102
{BLKREFS
331
1E6
102
}
  0
BLOCK_RECORD
  5
1F6E
330
1EFD
100
AcDbSymbolTableRecord
100
AcDbBlockTableRecord
  2
*U28
340
0
102
{BLKREFS
331
1E7
102
}
  0
BLOCK_RECORD
  5
1F70
330
1EFD
100
AcDbSymbolTableRecord
100
AcDbBlockTableRecord
  2
*U29
340
0
102
{BLKREFS
331
1E8
102
}
  0
BLOCK_RECORD
  5
1F72
330
1EFD
100
AcDbSymbolTableRecord
100
AcDbBlockTableRecord
  2
*U30
340
0
102
{BLKREFS
331
1E9
102
}
  0
BLOCK_RECORD
  5
1F74
330
1EFD
100
AcDbSymbolTableRecord
100
AcDbBlockTableRecord
  2
*U31
340
0
102
{BLKREFS
331
1EA
102
}
  0
BLOCK_RECORD
  5
1F76
330
1EFD
100
AcDbSymbolTableRecord
100
AcDbBlockTableRecord
  2
*U32
340
0
102
{BLKREFS
331
1EB
102
}
  0
BLOCK_RECORD
  5
1F78
330
1EFD
100
AcDbSymbolTableRecord
100
AcDbBlockTableRecord
  2
*U33
340
0
102
{BLKREFS
331
1EC
102
}
  0
BLOCK_RECORD
  5
1F7A
330
1EFD
100
AcDbSymbolTableRecord
100
AcDbBlockTableRecord
  2
*U34
340
0
102
{BLKREFS
331
1ED
102
}
  0
BLOCK_RECORD
  5
1F7C
330
1EFD
100
AcDbSymbolTableRecord
100
AcDbBlockTableRecord
  2
*U35
340
0
102
{BLKREFS
331
1EE
102
}
  0
BLOCK_RECORD
  5
1F7E
330
1EFD
100
AcDbSymbolTableRecord
100
AcDbBlockTableRecord
  2
*U36
340
0
102
{BLKREFS
331
1EF
102
}
  0
BLOCK_RECORD
  5
1F80
330
1EFD
100
AcDbSymbolTableRecord
100
AcDbBlockTableRecord
  2
*U37
340
0
102
{BLKREFS
331
1F0
102
}
  0
BLOCK_RECORD
  5
1F82
330
1EFD
100
AcDbSymbolTableRecord
100
AcDbBlockTableRecord
  2
*U38
340
0
102
{BLKREFS
331
1F1
102
}
  0
BLOCK_RECORD
  5
1F84
330
1EFD
100
AcDbSymbolTableRecord
100
AcDbBlockTableRecord
  2
*U39
340
0
102
{BLKREFS
331
1F2
102
}
  0
BLOCK_RECORD
  5
1F86
330
1EFD
100
AcDbSymbolTableRecord
100
AcDbBlockTableRecord
  2
*U40
340
0
102
{BLKREFS
331
1F3
102
}
  0
BLOCK_RECORD
  5
1F88
330
1EFD
100
AcDbSymbolTableRecord
100
AcDbBlockTableRecord
  2
*U41
340
0
102
{BLKREFS
331
1F4
102
}
  0
BLOCK_RECORD
  5
1F8A
330
1EFD
100
AcDbSymbolTableRecord
100
AcDbBlockTableRecord
  2
*U42
340
0
102
{BLKREFS
331
1F5
102
}
  0
BLOCK_RECORD
  5
1F8C
330
1EFD
100
AcDbSymbolTableRecord
100
AcDbBlockTableRecord
  2
*U43
340
0
102
{BLKREFS
331
1F6
102
}
  0
BLOCK_RECORD
  5
1F8E
330
1EFD
100
AcDbSymbolTableRecord
100
AcDbBlockTableRecord
  2
*U44
340
0
102
{BLKREFS
331
1F7
102
}
  0
BLOCK_RECORD
  5
1F90
330
1EFD
100
AcDbSymbolTableRecord
100
AcDbBlockTableRecord
  2
*U45
340
0
102
{BLKREFS
331
1F8
102
}
  0
BLOCK_RECORD
  5
1F92
330
1EFD
100
AcDbSymbolTableRecord
100
AcDbBlockTableRecord
  2
*U46
340
0
102
{BLKREFS
331
1F9
102
}
  0
BLOCK_RECORD
  5
1F94
330
1EFD
100
AcDbSymbolTableRecord
100
AcDbBlockTableRecord
  2
*U47
340
0
102
{BLKREFS
331
1FA
102
}
  0
BLOCK_RECORD
  5
1F96
330
1EFD
100
AcDbSymbolTableRecord
100
AcDbBlockTableRecord
  2
*U48
340
0
102
{BLKREFS
331
1FB
102
}
  0
BLOCK_RECORD
  5
1F98
330
1EFD
100
AcDbSymbolTableRecord
100
AcDbBlockTableRecord
  2
*U49
340
0
102
{BLKREFS
331
1FC
102
}
  0
BLOCK_RECORD
  5
1F9A
330
1EFD
100
AcDbSymbolTableRecord
100
AcDbBlockTableRecord
  2
*U50
340
0
102
{BLKREFS
331
1FD
102
}
  0
BLOCK_RECORD
  5
1F9C
330
1EFD
100
AcDbSymbolTableRecord
100
AcDbBlockTableRecord
  2
*U51
340
0
102
{BLKREFS
331
1FE
102
}
  0
BLOCK_RECORD
  5
1F9E
330
1EFD
100
AcDbSymbolTableRecord
100
AcDbBlockTableRecord
  2
*U52
340
0
102
{BLKREFS
331
1FF
102
}
  0
BLOCK_RECORD
  5
1FA0
330
1EFD
100
AcDbSymbolTableRecord
100
AcDbBlockTableRecord
  2
*U53
340
0
102
{BLKREFS
331
200
102
}
  0
BLOCK_RECORD
  5
1FA2
330
1EFD
100
AcDbSymbolTableRecord
100
AcDbBlockTableRecord
  2
*U54
340
0
102
{BLKREFS
331
201
102
}
  0
BLOCK_RECORD
  5
1FA4
330
1EFD
100
AcDbSymbolTableRecord
100
AcDbBlockTableRecord
  2
*U55
340
0
102
{BLKREFS
331
202
102
}
  0
BLOCK_RECORD
  5
1FA6
330
1EFD
100
AcDbSymbolTableRecord
100
AcDbBlockTableRecord
  2
*U56
340
0
102
{BLKREFS
331
203
102
}
  0
BLOCK_RECORD
  5
1FA8
330
1EFD
100
AcDbSymbolTableRecord
100
AcDbBlockTableRecord
  2
*U57
340
0
102
{BLKREFS
331
204
102
}
  0
BLOCK_RECORD
  5
1FAA
330
1EFD
100
AcDbSymbolTableRecord
100
AcDbBlockTableRecord
  2
*U58
340
0
102
{BLKREFS
331
205
102
}
  0
BLOCK_RECORD
  5
1FAC
330
1EFD
100
AcDbSymbolTableRecord
100
AcDbBlockTableRecord
  2
*U59
340
0
102
{BLKREFS
331
206
102
}
  0
BLOCK_RECORD
  5
1FAE
330
1EFD
100
AcDbSymbolTableRecord
100
AcDbBlockTableRecord
  2
*U60
340
0
102
{BLKREFS
331
207
102
}
  0
BLOCK_RECORD
  5
1FB0
330
1EFD
100
AcDbSymbolTableRecord
100
AcDbBlockTableRecord
  2
*U61
340
0
102
{BLKREFS
331
208
102
}
  0
BLOCK_RECORD
  5
1FB2
330
1EFD
100
AcDbSymbolTableRecord
100
AcDbBlockTableRecord
  2
*U62
340
0
102
{BLKREFS
331
209
102
}
  0
BLOCK_RECORD
  5
1FB4
330
1EFD
100
AcDbSymbolTableRecord
100
AcDbBlockTableRecord
  2
*U63
340
0
102
{BLKREFS
331
20A
102
}
  0
BLOCK_RECORD
  5
1FB6
330
1EFD
100
AcDbSymbolTableRecord
100
AcDbBlockTableRecord
  2
*U64
340
0
102
{BLKREFS
331
20B
102
}
  0
BLOCK_RECORD
  5
1FB8
330
1EFD
100
AcDbSymbolTableRecord
100
AcDbBlockTableRecord
  2
*U65
340
0
102
{BLKREFS
331
20C
102
}
  0
BLOCK_RECORD
  5
1FBA
330
1EFD
100
AcDbSymbolTableRecord
100
AcDbBlockTableRecord
  2
*U66
340
0
102
{BLKREFS
331
20D
102
}
  0
BLOCK_RECORD
  5
1FBC
330
1EFD
100
AcDbSymbolTableRecord
100
AcDbBlockTableRecord
  2
*U67
340
0
102
{BLKREFS
331
20E
102
}
  0
BLOCK_RECORD
  5
1FBE
330
1EFD
100
AcDbSymbolTableRecord
100
AcDbBlockTableRecord
  2
*U68
340
0
102
{BLKREFS
331
20F
102
}
  0
BLOCK_RECORD
  5
1FC0
330
1EFD
100
AcDbSymbolTableRecord
100
AcDbBlockTableRecord
  2
*U69
340
0
102
{BLKREFS
331
210
102
}
  0
BLOCK_RECORD
  5
1FC2
330
1EFD
100
AcDbSymbolTableRecord
100
AcDbBlockTableRecord
  2
*U70
340
0
102
{BLKREFS
331
211
102
}
  0
BLOCK_RECORD
  5
1FC4
330
1EFD
100
AcDbSymbolTableRecord
100
AcDbBlockTableRecord
  2
*U71
340
0
102
{BLKREFS
331
212
102
}
  0
BLOCK_RECORD
  5
1FC6
330
1EFD
100
AcDbSymbolTableRecord
100
AcDbBlockTableRecord
  2
*U72
340
0
102
{BLKREFS
331
213
102
}
  0
BLOCK_RECORD
  5
1FC8
330
1EFD
100
AcDbSymbolTableRecord
100
AcDbBlockTableRecord
  2
*U73
340
0
102
{BLKREFS
331
214
102
}
  0
BLOCK_RECORD
  5
1FCA
330
1EFD
100
AcDbSymbolTableRecord
100
AcDbBlockTableRecord
  2
*U74
340
0
102
{BLKREFS
331
215
102
}
  0
BLOCK_RECORD
  5
1FCC
330
1EFD
100
AcDbSymbolTableRecord
100
AcDbBlockTableRecord
  2
*U75
340
0
102
{BLKREFS
331
216
102
}
  0
BLOCK_RECORD
  5
1FCE
330
1EFD
100
AcDbSymbolTableRecord
100
AcDbBlockTableRecord
  2
*U76
340
0
102
{BLKREFS
331
217
102
}
  0
BLOCK_RECORD
  5
1FD0
330
1EFD
100
AcDbSymbolTableRecord
100
AcDbBlockTableRecord
  2
*U77
340
0
102
{BLKREFS
331
218
102
}
  0
BLOCK_RECORD
  5
1FD2
330
1EFD
100
AcDbSymbolTableRecord
100
AcDbBlockTableRecord
  2
*U78
340
0
102
{BLKREFS
331
219
102
}
  0
BLOCK_RECORD
  5
1FD4
330
1EFD
100
AcDbSymbolTableRecord
100
AcDbBlockTableRecord
  2
*U79
340
0
102
{BLKREFS
331
21A
102
}
  0
BLOCK_RECORD
  5
1FD6
330
1EFD
100
AcDbSymbolTableRecord
100
AcDbBlockTableRecord
  2
*U80
340
0
102
{BLKREFS
331
21B
102
}
  0
BLOCK_RECORD
  5
1FD8
330
1EFD
100
AcDbSymbolTableRecord
100
AcDbBlockTableRecord
  2
*U81
340
0
102
{BLKREFS
331
21C
102
}
  0
BLOCK_RECORD
  5
1FDA
330
1EFD
100
AcDbSymbolTableRecord
100
AcDbBlockTableRecord
  2
*U82
340
0
102
{BLKREFS
331
21D
102
}
  0
BLOCK_RECORD
  5
1FDC
330
1EFD
100
AcDbSymbolTableRecord
100
AcDbBlockTableRecord
  2
*U83
340
0
102
{BLKREFS
331
21E
102
}
  0
BLOCK_RECORD
  5
1FDE
330
1EFD
100
AcDbSymbolTableRecord
100
AcDbBlockTableRecord
  2
*U84
340
0
102
{BLKREFS
331
21F
102
}
  0
BLOCK_RECORD
  5
1FE0
330
1EFD
100
AcDbSymbolTableRecord
100
AcDbBlockTableRecord
  2
*U85
340
0
102
{BLKREFS
331
220
102
}
  0
BLOCK_RECORD
  5
1FE2
330
1EFD
100
AcDbSymbolTableRecord
100
AcDbBlockTableRecord
  2
*U86
340
0
102
{BLKREFS
331
221
102
}
  0
BLOCK_RECORD
  5
1FE4
330
1EFD
100
AcDbSymbolTableRecord
100
AcDbBlockTableRecord
  2
*U87
340
0
102
{BLKREFS
331
222
102
}
  0
BLOCK_RECORD
  5
1FE6
330
1EFD
100
AcDbSymbolTableRecord
100
AcDbBlockTableRecord
  2
*U88
340
0
102
{BLKREFS
331
223
102
}
  0
BLOCK_RECORD
  5
1FE8
330
1EFD
100
AcDbSymbolTableRecord
100
AcDbBlockTableRecord
  2
*U89
340
0
102
{BLKREFS
331
224
102
}
  0
BLOCK_RECORD
  5
1FEA
330
1EFD
100
AcDbSymbolTableRecord
100
AcDbBlockTableRecord
  2
*U90
340
0
102
{BLKREFS
331
225
102
}
  0
BLOCK_RECORD
  5
1FEC
330
1EFD
100
AcDbSymbolTableRecord
100
AcDbBlockTableRecord
  2
*U91
340
0
102
{BLKREFS
331
226
102
}
  0
BLOCK_RECORD
  5
1FEE
330
1EFD
100
AcDbSymbolTableRecord
100
AcDbBlockTableRecord
  2
*U92
340
0
102
{BLKREFS
331
227
102
}
  0
BLOCK_RECORD
  5
1FF0
330
1EFD
100
AcDbSymbolTableRecord
100
AcDbBlockTableRecord
  2
*U93
340
0
102
{BLKREFS
331
228
102
}
  0
BLOCK_RECORD
  5
1FF2
330
1EFD
100
AcDbSymbolTableRecord
100
AcDbBlockTableRecord
  2
*U94
340
0
102
{BLKREFS
331
229
102
}
  0
BLOCK_RECORD
  5
1FF4
330
1EFD
100
AcDbSymbolTableRecord
100
AcDbBlockTableRecord
  2
*U95
340
0
102
{BLKREFS
331
22A
102
}
  0
BLOCK_RECORD
  5
1FF6
330
1EFD
100
AcDbSymbolTableRecord
100
AcDbBlockTableRecord
  2
*U96
340
0
102
{BLKREFS
331
22B
102
}
  0
BLOCK_RECORD
  5
1FF8
330
1EFD
100
AcDbSymbolTableRecord
100
AcDbBlockTableRecord
  2
*U97
340
0
102
{BLKREFS
331
22C
102
}
  0
BLOCK_RECORD
  5
1FFA
330
1EFD
100
AcDbSymbolTableRecord
100
AcDbBlockTableRecord
  2
*U98
340
0
102
{BLKREFS
331
22D
102
}
  0
BLOCK_RECORD
  5
1FFC
330
1EFD
100
AcDbSymbolTableRecord
100
AcDbBlockTableRecord
  2
*U99
340
0
102
{BLKREFS
331
22E
102
}
  0
BLOCK_RECORD
  5
1FFE
330
1EFD
100
AcDbSymbolTableRecord
100
AcDbBlockTableRecord
  2
*U100
340
0
102
{BLKREFS
331
22F
102
}
  0
BLOCK_RECORD
  5
2000
330
1EFD
100
AcDbSymbolTableRecord
100
AcDbBlockTableRecord
  2
*U101
340
0
102
{BLKREFS
331
230
102
}
  0
BLOCK_RECORD
  5
2002
330
1EFD
100
AcDbSymbolTableRecord
100
AcDbBlockTableRecord
  2
*U102
340
0
102
{BLKREFS
331
231
102
}
  0
BLOCK_RECORD
  5
2004
330
1EFD
100
AcDbSymbolTableRecord
100
AcDbBlockTableRecord
  2
*U103
340
0
102
{BLKREFS
331
232
102
}
  0
BLOCK_RECORD
  5
2006
330
1EFD
100
AcDbSymbolTableRecord
100
AcDbBlockTableRecord
  2
*U104
340
0
102
{BLKREFS
331
233
102
}
  0
BLOCK_RECORD
  5
2008
330
1EFD
100
AcDbSymbolTableRecord
100
AcDbBlockTableRecord
  2
*D105
340
0
  0
BLOCK_RECORD
  5
200A
330
1EFD
100
AcDbSymbolTableRecord
100
AcDbBlockTableRecord
  2
*U106
340
0
102
{BLKREFS
331
498
102
}
  0
BLOCK_RECORD
  5
200C
330
1EFD
100
AcDbSymbolTableRecord
100
AcDbBlockTableRecord
  2
*D107
340
0
  0
BLOCK_RECORD
  5
200E
330
1EFD
100
AcDbSymbolTableRecord
100
AcDbBlockTableRecord
  2
*U108
340
0
102
{BLKREFS
331
4A2
102
}
  0
BLOCK_RECORD
  5
2010
330
1EFD
100
AcDbSymbolTableRecord
100
AcDbBlockTableRecord
  2
*D109
340
0
  0
BLOCK_RECORD
  5
2012
330
1EFD
100
AcDbSymbolTableRecord
100
AcDbBlockTableRecord
  2
*U110
340
0
102
{BLKREFS
331
4AC
102
}
  0
BLOCK_RECORD
  5
2014
330
1EFD
100
AcDbSymbolTableRecord
100
AcDbBlockTableRecord
  2
*D111
340
0
  0
BLOCK_RECORD
  5
2016
330
1EFD
100
AcDbSymbolTableRecord
100
AcDbBlockTableRecord
  2
*U112
340
0
102
{BLKREFS
331
4B6
102
}
  0
BLOCK_RECORD
  5
2018
330
1EFD
100
AcDbSymbolTableRecord
100
AcDbBlockTableRecord
  2
*D113
340
0
  0
BLOCK_RECORD
  5
201A
330
1EFD
100
AcDbSymbolTableRecord
100
AcDbBlockTableRecord
  2
*U114
340
0
102
{BLKREFS
331
4C3
102
}
  0
BLOCK_RECORD
  5
201C
330
1EFD
100
AcDbSymbolTableRecord
100
AcDbBlockTableRecord
  2
SW_NOTE_2
340
0
  0
BLOCK_RECORD
  5
201E
330
1EFD
100
AcDbSymbolTableRecord
100
AcDbBlockTableRecord
  2
*U116
340
0
102
{BLKREFS
331
4CD
102
}
  0
BLOCK_RECORD
  5
2020
330
1EFD
100
AcDbSymbolTableRecord
100
AcDbBlockTableRecord
  2
SW_NOTE_3
340
0
  0
BLOCK_RECORD
  5
2022
330
1EFD
100
AcDbSymbolTableRecord
100
AcDbBlockTableRecord
  2
*U118
340
0
102
{BLKREFS
331
4DA
102
}
  0
BLOCK_RECORD
  5
2024
330
1EFD
100
AcDbSymbolTableRecord
100
AcDbBlockTableRecord
  2
SW_NOTE_4
340
0
  0
BLOCK_RECORD
  5
2026
330
1EFD
100
AcDbSymbolTableRecord
100
AcDbBlockTableRecord
  2
*U120
340
0
102
{BLKREFS
331
4E6
102
}
  0
BLOCK_RECORD
  5
2028
330
1EFD
100
AcDbSymbolTableRecord
100
AcDbBlockTableRecord
  2
SW_NOTE_5
340
0
  0
BLOCK_RECORD
  5
202A
330
1EFD
100
AcDbSymbolTableRecord
100
AcDbBlockTableRecord
  2
*U122
340
0
102
{BLKREFS
331
4F2
102
}
  0
BLOCK_RECORD
  5
202C
330
1EFD
100
AcDbSymbolTableRecord
100
AcDbBlockTableRecord
  2
SW_NOTE_6
340
0
  0
BLOCK_RECORD
  5
202E
330
1EFD
100
AcDbSymbolTableRecord
100
AcDbBlockTableRecord
  2
*U124
340
0
102
{BLKREFS
331
4FE
102
}
  0
BLOCK_RECORD
  5
2030
330
1EFD
100
AcDbSymbolTableRecord
100
AcDbBlockTableRecord
  2
SW_NOTE_7
340
0
  0
BLOCK_RECORD
  5
2032
330
1EFD
100
AcDbSymbolTableRecord
100
AcDbBlockTableRecord
  2
*U126
340
0
102
{BLKREFS
331
50A
102
}
  0
BLOCK_RECORD
  5
2034
330
1EFD
100
AcDbSymbolTableRecord
100
AcDbBlockTableRecord
  2
SW_NOTE_8
340
0
  0
BLOCK_RECORD
  5
2036
330
1EFD
100
AcDbSymbolTableRecord
100
AcDbBlockTableRecord
  2
*U128
340
0
102
{BLKREFS
331
83D
102
}
  0
BLOCK_RECORD
  5
2038
330
1EFD
100
AcDbSymbolTableRecord
100
AcDbBlockTableRecord
  2
*D129
340
0
  0
BLOCK_RECORD
  5
203A
330
1EFD
100
AcDbSymbolTableRecord
100
AcDbBlockTableRecord
  2
*U130
340
0
102
{BLKREFS
331
A33
102
}
  0
BLOCK_RECORD
  5
203C
330
1EFD
100
AcDbSymbolTableRecord
100
AcDbBlockTableRecord
  2
SW_NOTE_9
340
0
  0
BLOCK_RECORD
  5
203E
330
1EFD
100
AcDbSymbolTableRecord
100
AcDbBlockTableRecord
  2
*U132
340
0
102
{BLKREFS
331
A3D
102
}
  0
BLOCK_RECORD
  5
2040
330
1EFD
100
AcDbSymbolTableRecord
100
AcDbBlockTableRecord
  2
SW_NOTE_10
340
0
  0
BLOCK_RECORD
  5
2042
330
1EFD
100
AcDbSymbolTableRecord
100
AcDbBlockTableRecord
  2
*U134
340
0
102
{BLKREFS
331
A49
102
}
  0
BLOCK_RECORD
  5
2044
330
1EFD
100
AcDbSymbolTableRecord
100
AcDbBlockTableRecord
  2
SW_NOTE_11
340
0
  0
BLOCK_RECORD
  5
2046
330
1EFD
100
AcDbSymbolTableRecord
100
AcDbBlockTableRecord
  2
*U136
340
0
102
{BLKREFS
331
A55
102
}
  0
BLOCK_RECORD
  5
2048
330
1EFD
100
AcDbSymbolTableRecord
100
AcDbBlockTableRecord
  2
SW_NOTE_12
340
0
  0
BLOCK_RECORD
  5
204A
330
1EFD
100
AcDbSymbolTableRecord
100
AcDbBlockTableRecord
  2
*U138
340
0
102
{BLKREFS
331
EDA
102
}
  0
BLOCK_RECORD
  5
204C
330
1EFD
100
AcDbSymbolTableRecord
100
AcDbBlockTableRecord
  2
SW_NOTE_13
340
0
  0
BLOCK_RECORD
  5
204E
330
1EFD
100
AcDbSymbolTableRecord
100
AcDbBlockTableRecord
  2
*U140
340
0
102
{BLKREFS
331
EE6
102
}
  0
BLOCK_RECORD
  5
2050
330
1EFD
100
AcDbSymbolTableRecord
100
AcDbBlockTableRecord
  2
SW_NOTE_14
340
0
  0
BLOCK_RECORD
  5
2052
330
1EFD
100
AcDbSymbolTableRecord
100
AcDbBlockTableRecord
  2
*U142
340
0
102
{BLKREFS
331
EF2
102
}
  0
BLOCK_RECORD
  5
2054
330
1EFD
100
AcDbSymbolTableRecord
100
AcDbBlockTableRecord
  2
SW_NOTE_15
340
0
  0
BLOCK_RECORD
  5
2056
330
1EFD
100
AcDbSymbolTableRecord
100
AcDbBlockTableRecord
  2
*U144
340
0
102
{BLKREFS
331
EFE
102
}
  0
BLOCK_RECORD
  5
2058
330
1EFD
100
AcDbSymbolTableRecord
100
AcDbBlockTableRecord
  2
SW_NOTE_16
340
0
  0
BLOCK_RECORD
  5
205A
330
1EFD
100
AcDbSymbolTableRecord
100
AcDbBlockTableRecord
  2
*U146
340
0
102
{BLKREFS
331
F0A
102
}
  0
BLOCK_RECORD
  5
205C
330
1EFD
100
AcDbSymbolTableRecord
100
AcDbBlockTableRecord
  2
SW_NOTE_17
340
0
  0
BLOCK_RECORD
  5
205E
330
1EFD
100
AcDbSymbolTableRecord
100
AcDbBlockTableRecord
  2
*U148
340
0
102
{BLKREFS
331
F15
102
}
  0
BLOCK_RECORD
  5
2060
330
1EFD
100
AcDbSymbolTableRecord
100
AcDbBlockTableRecord
  2
SW_NOTE_18
340
0
  0
BLOCK_RECORD
  5
2062
330
1EFD
100
AcDbSymbolTableRecord
100
AcDbBlockTableRecord
  2
*U150
340
0
102
{BLKREFS
331
F20
102
}
  0
BLOCK_RECORD
  5
2064
330
1EFD
100
AcDbSymbolTableRecord
100
AcDbBlockTableRecord
  2
SW_NOTE_19
340
0
  0
BLOCK_RECORD
  5
2066
330
1EFD
100
AcDbSymbolTableRecord
100
AcDbBlockTableRecord
  2
*U152
340
0
102
{BLKREFS
331
F2C
102
}
  0
BLOCK_RECORD
  5
2068
330
1EFD
100
AcDbSymbolTableRecord
100
AcDbBlockTableRecord
  2
SW_NOTE_20
340
0
  0
BLOCK_RECORD
  5
206A
330
1EFD
100
AcDbSymbolTableRecord
100
AcDbBlockTableRecord
  2
*U154
340
0
102
{BLKREFS
331
F37
102
}
  0
BLOCK_RECORD
  5
206C
330
1EFD
100
AcDbSymbolTableRecord
100
AcDbBlockTableRecord
  2
*U155
340
0
  0
BLOCK_RECORD
  5
206E
330
1EFD
100
AcDbSymbolTableRecord
100
AcDbBlockTableRecord
  2
*U156
340
0
  0
BLOCK_RECORD
  5
2070
330
1EFD
100
AcDbSymbolTableRecord
100
AcDbBlockTableRecord
  2
*U157
340
0
102
{BLKREFS
331
0
102
}
  0
BLOCK_RECORD
  5
2072
330
1EFD
100
AcDbSymbolTableRecord
100
AcDbBlockTableRecord
  2
*U158
340
0
  0
BLOCK_RECORD
  5
21D2
330
1EFD
100
AcDbSymbolTableRecord
100
AcDbBlockTableRecord
  2
*U160
340
0
102
{BLKREFS
331
21D1
331
21E3
331
229A
331
22A4
102
}
  0
BLOCK_RECORD
  5
21D7
330
1EFD
100
AcDbSymbolTableRecord
100
AcDbBlockTableRecord
  2
*U161
340
0
102
{BLKREFS
331
21D6
331
21EC
331
229B
331
22AD
102
}
  0
ENDTAB
  0
ENDSEC
  0
SECTION
  2
BLOCKS
  0
BLOCK
  5
1F33
330
1F17
100
AcDbEntity
  8
0
100
AcDbBlockBegin
  2
*Model_Space
 70
     0
 10
0.0
 20
0.0
 30
0.0
  3
*Model_Space
  1

  0
ENDBLK
  5
1D94
330
1F17
100
AcDbEntity
  8
0
100
AcDbBlockEnd
  0
BLOCK
  5
1F34
330
1F15
100
AcDbEntity
 67
     1
  8
0
100
AcDbBlockBegin
  2
*Paper_Space
 70
     0
 10
0.0
 20
0.0
 30
0.0
  3
*Paper_Space
  1

  0
ENDBLK
  5
1D90
330
1F15
100
AcDbEntity
 67
     1
  8
0
100
AcDbBlockEnd
  0
BLOCK
  5
1F35
330
1F36
100
AcDbEntity
  8
0
100
AcDbBlockBegin
  2
BLOCK1
 70
     0
 10
0.0
 20
0.0
 30
0.0
  3
BLOCK1
  1

  0
ARC
  5
49
330
1F36
100
AcDbEntity
  8
0
  6
Continuous
 62
   179
100
AcDbCircle
 10
7867.664902963501
 20
2430.135541908654
 30
0.0
 40
931.6078627493893
100
AcDbArc
 50
232.1189098068908
 51
101.3462704492064
  0
ARC
  5
4A
330
1F36
100
AcDbEntity
  8
0
  6
Continuous
 62
   179
100
AcDbCircle
 10
7943.551446226947
 20
2435.961394653731
 30
0.0
 40
1140.079096555486
100
AcDbArc
 50
297.434182934993
 51
62.17203318893132
  0
ARC
  5
4B
330
1F36
100
AcDbEntity
  8
0
  6
Continuous
 62
   179
100
AcDbCircle
 10
20001.41030668536
 20
6936.258348176314
 30
0.0
 40
1270.831290716854
100
AcDbArc
 50
3.439111269857873
 51
76.41975789224402
  0
ARC
  5
4C
330
1F36
100
AcDbEntity
  8
0
  6
Continuous
 62
   179
100
AcDbCircle
 10
19239.48229494224
 20
3782.066700072844
 30
0.0
 40
4515.74411667143
100
AcDbArc
 50
76.419757892252
 51
91.67546443389824
  0
ARC
  5
4D
330
1F36
100
AcDbEntity
  8
0
  6
Continuous
 62
   179
100
AcDbCircle
 10
18683.9539720184
 20
2160.191162249722
 30
0.0
 40
2139.476369555804
100
AcDbArc
 50
270.3210228953653
 51
307.7127911616917
  0
ARC
  5
4E
330
1F36
100
AcDbEntity
  8
0
  6
Continuous
 62
   179
100
AcDbCircle
 10
18746.04220617016
 20
1962.821611746757
 30
0.0
 40
1946.678009873842
100
AcDbArc
 50
309.8210667380517
 51
331.7017265911961
  0
ARC
  5
4F
330
1F36
100
AcDbEntity
  8
0
  6
Continuous
 62
   179
100
AcDbCircle
 10
17863.19174695229
 20
2438.153289465792
 30
0.0
 40
2949.35698999881
100
AcDbArc
 50
331.7017265911659
 51
356.0927915539009
  0
ARC
  5
50
330
1F36
100
AcDbEntity
  8
0
  6
Continuous
 62
   179
100
AcDbCircle
 10
16755.78562458259
 20
6709.22649734301
 30
0.0
 40
4524.342739831097
100
AcDbArc
 50
353.5830630920615
 51
3.843411559056905
  0
ARC
  5
51
330
1F36
100
AcDbEntity
  8
0
  6
Continuous
 62
   179
100
AcDbCircle
 10
19039.32136930348
 20
6348.992835766654
 30
0.0
 40
506.1072723730909
100
AcDbArc
 50
52.45518083770011
 51
82.27169607789942
  0
ARC
  5
52
330
1F36
100
AcDbEntity
  8
0
  6
Continuous
 62
   179
100
AcDbCircle
 10
19108.05285528783
 20
6495.627081242486
 30
0.0
 40
349.7025539282703
100
AcDbArc
 50
10.40128742632347
 51
46.73406036112627
  0
ARC
  5
53
330
1F36
100
AcDbEntity
  8
0
  6
Continuous
 62
   179
100
AcDbCircle
 10
17417.00704206978
 20
6262.249610551689
 30
0.0
 40
2056.490362340239
100
AcDbArc
 50
355.475249592001
 51
8.290034904036377
  0
ARC
  5
54
330
1F36
100
AcDbEntity
  8
0
  6
Continuous
 62
   179
100
AcDbCircle
 10
16921.0810184775
 20
2478.884057325912
 30
0.0
 40
2122.330793892779
100
AcDbArc
 50
339.2065439429009
 51
352.3366543812865
  0
ARC
  5
55
330
1F36
100
AcDbEntity
  8
0
  6
Continuous
 62
   179
100
AcDbCircle
 10
18500.14374748802
 20
1898.858911590281
 30
0.0
 40
440.5904503964751
100
AcDbArc
 50
293.8382702170105
 51
336.8232513295847
  0
ARC
  5
56
330
1F36
100
AcDbEntity
  8
0
  6
Continuous
 62
   179
100
AcDbCircle
 10
18201.14775323861
 20
2813.313832481288
 30
0.0
 40
1401.173285533761
100
AcDbArc
 50
267.1686990926993
 51
289.9057704418869
  0
ARC
  5
57
330
1F36
100
AcDbEntity
  8
0
  6
Continuous
 62
   179
100
AcDbCircle
 10
18751.27011695406
 20
4514.99709270663
 30
0.0
 40
2362.499275286643
100
AcDbArc
 50
81.33049979549516
 51
90.0
  0
ARC
  5
58
330
1F36
100
AcDbEntity
  8
0
  6
Continuous
 62
   179
100
AcDbCircle
 10
6720.604437529605
 20
9296.057965315804
 30
0.0
 40
7520.148763137155
100
AcDbArc
 50
220.0176677389884
 51
227.0143029097024
  0
ARC
  5
59
330
1F36
100
AcDbEntity
  8
0
  6
Continuous
 62
   179
100
AcDbCircle
 10
2021.389253593488
 20
2163.67555645214
 30
0.0
 40
795.0570373035339
100
AcDbArc
 50
316.8708555891025
 51
354.9781479006052
  0
ARC
  5
5A
330
1F36
100
AcDbEntity
  8
0
  6
Continuous
 62
   179
100
AcDbCircle
 10
2182.912417046811
 20
2011.988948632246
 30
0.0
 40
573.4753329004775
100
AcDbArc
 50
268.8486412909027
 51
316.898689090132
  0
ARC
  5
5B
330
1F36
100
AcDbEntity
  8
0
  6
Continuous
 62
   179
100
AcDbCircle
 10
10525.69607263296
 20
12531.6259047731
 30
0.0
 40
10618.65239809051
100
AcDbArc
 50
220.6325257885988
 51
226.7030345034366
  0
ARC
  5
5C
330
1F36
100
AcDbEntity
  8
0
  6
Continuous
 62
   179
100
AcDbCircle
 10
2962.700769445968
 20
6223.586779952877
 30
0.0
 40
723.1072200381735
100
AcDbArc
 50
137.8203941730991
 51
175.3475443105016
  0
ARC
  5
5D
330
1F36
100
AcDbEntity
  8
0
  6
Continuous
 62
   179
100
AcDbCircle
 10
2808.323935568477
 20
6360.286424350834
 30
0.0
 40
516.9247077280751
100
AcDbArc
 50
89.43798520159726
 51
137.5591461503917
  0
ARC
  5
5E
330
1F36
100
AcDbEntity
  8
0
  6
Continuous
 62
   179
100
AcDbCircle
 10
24439.2811878643
 20
2435.96139465394
 30
0.0
 40
1140.079096554877
100
AcDbArc
 50
297.4341829349403
 51
62.17203318890007
  0
ARC
  5
5F
330
1F36
100
AcDbEntity
  8
0
  6
Continuous
 62
   179
100
AcDbCircle
 10
24363.39464460095
 20
2430.135541908909
 30
0.0
 40
931.6078627500976
100
AcDbArc
 50
232.118909807001
 51
101.3462704492597
  0
LINE
  5
60
330
1F36
100
AcDbEntity
  8
0
  6
Continuous
 62
   179
100
AcDbLine
 10
10088.03217840744
 20
0.0000125144457019
 30
0.0
 11
9858.221794955722
 21
8289.655292111545
 31
0.0
  0
LINE
  5
61
330
1F36
100
AcDbEntity
  8
0
  6
Continuous
 62
   179
100
AcDbLine
 10
9858.221794955722
 20
8289.655292111545
 30
0.0
 11
7491.02652935572
 21
8289.655292111545
 31
0.0
  0
LINE
  5
62
330
1F36
100
AcDbEntity
  8
0
  6
Continuous
 62
   179
100
AcDbLine
 10
7491.02652935572
 20
8289.655292111545
 30
0.0
 11
5122.81316775534
 21
0.0000125144457019
 31
0.0
  0
LINE
  5
63
330
1F36
100
AcDbEntity
  8
0
  6
Continuous
 62
   179
100
AcDbLine
 10
5122.81316775534
 20
0.0000125144457019
 30
0.0
 11
6903.41605815534
 21
0.0000125144457019
 31
0.0
  0
LINE
  5
64
330
1F36
100
AcDbEntity
  8
0
  6
Continuous
 62
   179
100
AcDbLine
 10
6903.41605815534
 20
0.0000125144457019
 30
0.0
 11
7295.63462855534
 21
1694.829772111546
 31
0.0
  0
LINE
  5
65
330
1F36
100
AcDbEntity
  8
0
  6
Continuous
 62
   179
100
AcDbLine
 10
7684.382238156125
 20
3343.536152110767
 30
0.0
 11
8520.883790955342
 21
7008.870756911545
 31
0.0
  0
LINE
  5
66
330
1F36
100
AcDbEntity
  8
0
  6
Continuous
 62
   179
100
AcDbLine
 10
8520.883790955342
 20
7008.870756911545
 30
0.0
 11
8475.76130055534
 21
3444.194015311545
 31
0.0
  0
LINE
  5
67
330
1F36
100
AcDbEntity
  8
0
  6
Continuous
 62
   179
100
AcDbLine
 10
8468.819378956492
 20
1424.094829711189
 30
0.0
 11
8468.819378956492
 21
0.0000125144457019
 31
0.0
  0
LINE
  5
68
330
1F36
100
AcDbEntity
  8
0
  6
Continuous
 62
   179
100
AcDbLine
 10
8468.819378956492
 20
0.0000125144457019
 30
0.0
 11
10088.03217840744
 21
0.0000125144457019
 31
0.0
  0
LINE
  5
69
330
1F36
100
AcDbEntity
  8
0
  6
Continuous
 62
   179
100
AcDbLine
 10
19107.45004975194
 20
8295.88021122753
 30
0.0
 11
16935.78987695406
 21
8295.88021122753
 31
0.0
  0
LINE
  5
6A
330
1F36
100
AcDbEntity
  8
0
  6
Continuous
 62
   179
100
AcDbLine
 10
16935.78987695406
 20
8295.88021122753
 30
0.0
 11
15991.74015215406
 21
0.000028827531473
 31
0.0
  0
LINE
  5
6B
330
1F36
100
AcDbEntity
  8
0
  6
Continuous
 62
   179
100
AcDbLine
 10
15991.74015215406
 20
0.000028827531473
 30
0.0
 11
17855.63319855406
 21
0.000028827531473
 31
0.0
  0
LINE
  5
6C
330
1F36
100
AcDbEntity
  8
0
  6
Continuous
 62
   179
100
AcDbLine
 10
17855.63319855406
 20
0.000028827531473
 30
0.0
 11
18695.94119535405
 21
20.74837442753169
 31
0.0
  0
LINE
  5
6D
330
1F36
100
AcDbEntity
  8
0
  6
Continuous
 62
   179
100
AcDbLine
 10
20805.69358737719
 20
2237.181715478457
 30
0.0
 11
21251.78301777719
 21
6203.573782676331
 31
0.0
  0
LINE
  5
6E
330
1F36
100
AcDbEntity
  8
0
  6
Continuous
 62
   179
100
AcDbLine
 10
19024.45666735406
 20
2195.866604827532
 30
0.0
 11
19467.0880401544
 21
6100.013635223698
 31
0.0
  0
LINE
  5
6F
330
1F36
100
AcDbEntity
  8
0
  6
Continuous
 62
   179
100
AcDbLine
 10
17907.50406255406
 20
1417.803644827531
 30
0.0
 11
18131.93621849201
 21
1413.850957106775
 31
0.0
  0
LINE
  5
70
330
1F36
100
AcDbEntity
  8
0
  6
Continuous
 62
   179
100
AcDbLine
 10
18529.95443055404
 20
6877.496367993273
 30
0.0
 11
17907.50406255406
 21
1417.803644827531
 31
0.0
  0
LINE
  5
71
330
1F36
100
AcDbEntity
  8
0
  6
Continuous
 62
   179
100
AcDbLine
 10
18751.27011695406
 20
6877.496367993273
 30
0.0
 11
18529.95443055404
 21
6877.496367993273
 31
0.0
  0
LINE
  5
72
330
1F36
100
AcDbEntity
  8
0
  6
Continuous
 62
   179
100
AcDbLine
 10
11134.64467410532
 20
0.0000000000007772
 30
0.0
 11
14807.10184530532
 21
0.0000000000007772
 31
0.0
  0
LINE
  5
73
330
1F36
100
AcDbEntity
  8
0
  6
Continuous
 62
   179
100
AcDbLine
 10
14807.10184530532
 20
0.0000000000007772
 30
0.0
 11
14990.37889810532
 21
1625.287072000001
 31
0.0
  0
LINE
  5
74
330
1F36
100
AcDbEntity
  8
0
  6
Continuous
 62
   179
100
AcDbLine
 10
14990.37889810532
 20
1625.287072000001
 30
0.0
 11
13071.15693010532
 21
1625.287072000001
 31
0.0
  0
LINE
  5
75
330
1F36
100
AcDbEntity
  8
0
  6
Continuous
 62
   179
100
AcDbLine
 10
13071.15693010532
 20
1625.287072000001
 30
0.0
 11
13828.47154450532
 21
8295.880182400004
 31
0.0
  0
LINE
  5
76
330
1F36
100
AcDbEntity
  8
0
  6
Continuous
 62
   179
100
AcDbLine
 10
13828.47154450532
 20
8295.880182400004
 30
0.0
 11
12075.23634130532
 21
8295.880182400004
 31
0.0
  0
LINE
  5
77
330
1F36
100
AcDbEntity
  8
0
  6
Continuous
 62
   179
100
AcDbLine
 10
12075.23634130532
 20
8295.880182400004
 30
0.0
 11
11134.64467410532
 21
0.0000000000007772
 31
0.0
  0
LINE
  5
78
330
1F36
100
AcDbEntity
  8
0
  6
Continuous
 62
   179
100
AcDbLine
 10
4907.474056000466
 20
6857.018562294655
 30
0.0
 11
4882.739185627777
 21
7041.149751364577
 31
0.0
  0
LINE
  5
79
330
1F36
100
AcDbEntity
  8
0
  6
Continuous
 62
   179
100
AcDbLine
 10
4882.739185627777
 20
7041.149751364577
 30
0.0
 11
4840.840978040045
 21
7222.127928907172
 31
0.0
  0
LINE
  5
7A
330
1F36
100
AcDbEntity
  8
0
  6
Continuous
 62
   179
100
AcDbLine
 10
4840.840978040045
 20
7222.127928907172
 30
0.0
 11
4779.230404759005
 21
7397.351638662306
 31
0.0
  0
LINE
  5
7B
330
1F36
100
AcDbEntity
  8
0
  6
Continuous
 62
   179
100
AcDbLine
 10
4779.230404759005
 20
7397.351638662306
 30
0.0
 11
4695.875384646897
 21
7563.306056288046
 31
0.0
  0
LINE
  5
7C
330
1F36
100
AcDbEntity
  8
0
  6
Continuous
 62
   179
100
AcDbLine
 10
4695.875384646897
 20
7563.306056288046
 30
0.0
 11
4590.009476013333
 21
7715.862266709748
 31
0.0
  0
LINE
  5
7D
330
1F36
100
AcDbEntity
  8
0
  6
Continuous
 62
   179
100
AcDbLine
 10
4590.009476013333
 20
7715.862266709748
 30
0.0
 11
4462.775884148745
 21
7851.104996035838
 31
0.0
  0
LINE
  5
7E
330
1F36
100
AcDbEntity
  8
0
  6
Continuous
 62
   179
100
AcDbLine
 10
4462.775884148745
 20
7851.104996035838
 30
0.0
 11
4317.197793690012
 21
7966.391816437139
 31
0.0
  0
LINE
  5
7F
330
1F36
100
AcDbEntity
  8
0
  6
Continuous
 62
   179
100
AcDbLine
 10
4317.197793690012
 20
7966.391816437139
 30
0.0
 11
4157.354947066913
 21
8060.96369931741
 31
0.0
  0
LINE
  5
80
330
1F36
100
AcDbEntity
  8
0
  6
Continuous
 62
   179
100
AcDbLine
 10
4157.354947066913
 20
8060.96369931741
 30
0.0
 11
3942.383243480519
 21
8152.000134559418
 31
0.0
  0
LINE
  5
81
330
1F36
100
AcDbEntity
  8
0
  6
Continuous
 62
   179
100
AcDbLine
 10
3942.383243480519
 20
8152.000134559418
 30
0.0
 11
3717.73798795857
 21
8215.730615990771
 31
0.0
  0
LINE
  5
82
330
1F36
100
AcDbEntity
  8
0
  6
Continuous
 62
   179
100
AcDbLine
 10
3717.73798795857
 20
8215.730615990771
 30
0.0
 11
3487.801041605248
 21
8256.641537955918
 31
0.0
  0
LINE
  5
83
330
1F36
100
AcDbEntity
  8
0
  6
Continuous
 62
   179
100
AcDbLine
 10
3487.801041605248
 20
8256.641537955918
 30
0.0
 11
3255.282664659154
 21
8278.797175912781
 31
0.0
  0
LINE
  5
84
330
1F36
100
AcDbEntity
  8
0
  6
Continuous
 62
   179
100
AcDbLine
 10
3255.282664659154
 20
8278.797175912781
 30
0.0
 11
3021.793956399985
 21
8285.564092295102
 31
0.0
  0
LINE
  5
85
330
1F36
100
AcDbEntity
  8
0
  6
Continuous
 62
   179
100
AcDbLine
 10
3021.793956399985
 20
8285.564092295102
 30
0.0
 11
2764.728665662366
 21
8276.816734455842
 31
0.0
  0
LINE
  5
86
330
1F36
100
AcDbEntity
  8
0
  6
Continuous
 62
   179
100
AcDbLine
 10
2764.728665662366
 20
8276.816734455842
 30
0.0
 11
2509.05662312122
 21
8248.844873041277
 31
0.0
  0
LINE
  5
87
330
1F36
100
AcDbEntity
  8
0
  6
Continuous
 62
   179
100
AcDbLine
 10
2509.05662312122
 20
8248.844873041277
 30
0.0
 11
2256.762474169712
 21
8198.969363254766
 31
0.0
  0
LINE
  5
88
330
1F36
100
AcDbEntity
  8
0
  6
Continuous
 62
   179
100
AcDbLine
 10
2256.762474169712
 20
8198.969363254766
 30
0.0
 11
2010.586254910185
 21
8124.640160958412
 31
0.0
  0
LINE
  5
89
330
1F36
100
AcDbEntity
  8
0
  6
Continuous
 62
   179
100
AcDbLine
 10
2010.586254910185
 20
8124.640160958412
 30
0.0
 11
1823.704290714439
 21
8047.771817014414
 31
0.0
  0
LINE
  5
8A
330
1F36
100
AcDbEntity
  8
0
  6
Continuous
 62
   179
100
AcDbLine
 10
1823.704290714439
 20
8047.771817014414
 30
0.0
 11
1644.660542762473
 21
7954.102205278552
 31
0.0
  0
LINE
  5
8B
330
1F36
100
AcDbEntity
  8
0
  6
Continuous
 62
   179
100
AcDbLine
 10
1644.660542762473
 20
7954.102205278552
 30
0.0
 11
1475.390327490991
 21
7843.754570442103
 31
0.0
  0
LINE
  5
8C
330
1F36
100
AcDbEntity
  8
0
  6
Continuous
 62
   179
100
AcDbLine
 10
1475.390327490991
 20
7843.754570442103
 30
0.0
 11
1317.62317119963
 21
7717.507163894966
 31
0.0
  0
LINE
  5
8D
330
1F36
100
AcDbEntity
  8
0
  6
Continuous
 62
   179
100
AcDbLine
 10
1317.62317119963
 20
7717.507163894966
 30
0.0
 11
1139.538084004962
 21
7540.958362997805
 31
0.0
  0
LINE
  5
8E
330
1F36
100
AcDbEntity
  8
0
  6
Continuous
 62
   179
100
AcDbLine
 10
1139.538084004962
 20
7540.958362997805
 30
0.0
 11
983.4661868122847
 21
7344.686540327555
 31
0.0
  0
LINE
  5
8F
330
1F36
100
AcDbEntity
  8
0
  6
Continuous
 62
   179
100
AcDbLine
 10
983.4661868122847
 20
7344.686540327555
 30
0.0
 11
851.5325681984331
 21
7131.431508806925
 31
0.0
  0
LINE
  5
90
330
1F36
100
AcDbEntity
  8
0
  6
Continuous
 62
   179
100
AcDbLine
 10
851.5325681984331
 20
7131.431508806925
 30
0.0
 11
744.4774564035504
 21
6904.647070364972
 31
0.0
  0
LINE
  5
91
330
1F36
100
AcDbEntity
  8
0
  6
Continuous
 62
   179
100
AcDbLine
 10
744.4774564035504
 20
6904.647070364972
 30
0.0
 11
658.3392621499113
 21
6656.43274224034
 31
0.0
  0
LINE
  5
92
330
1F36
100
AcDbEntity
  8
0
  6
Continuous
 62
   179
100
AcDbLine
 10
658.3392621499113
 20
6656.43274224034
 30
0.0
 11
596.9943576212592
 21
6400.933532546314
 31
0.0
  0
LINE
  5
93
330
1F36
100
AcDbEntity
  8
0
  6
Continuous
 62
   179
100
AcDbLine
 10
596.9943576212592
 20
6400.933532546314
 30
0.0
 11
557.9730775994542
 21
6141.065155494636
 31
0.0
  0
LINE
  5
94
330
1F36
100
AcDbEntity
  8
0
  6
Continuous
 62
   179
100
AcDbLine
 10
557.9730775994542
 20
6141.065155494636
 30
0.0
 11
538.0293793385905
 21
5893.080713935894
 31
0.0
  0
LINE
  5
95
330
1F36
100
AcDbEntity
  8
0
  6
Continuous
 62
   179
100
AcDbLine
 10
538.0293793385905
 20
5893.080713935894
 30
0.0
 11
537.9155556825718
 21
5644.316103439642
 31
0.0
  0
LINE
  5
96
330
1F36
100
AcDbEntity
  8
0
  6
Continuous
 62
   179
100
AcDbLine
 10
537.9155556825718
 20
5644.316103439642
 30
0.0
 11
561.0465619985758
 21
5396.656504175062
 31
0.0
  0
LINE
  5
97
330
1F36
100
AcDbEntity
  8
0
  6
Continuous
 62
   179
100
AcDbLine
 10
561.0465619985758
 20
5396.656504175062
 30
0.0
 11
610.8365836731095
 21
5152.986228349144
 31
0.0
  0
LINE
  5
98
330
1F36
100
AcDbEntity
  8
0
  6
Continuous
 62
   179
100
AcDbLine
 10
610.8365836731095
 20
5152.986228349144
 30
0.0
 11
670.4957765389067
 21
4966.875201595508
 31
0.0
  0
LINE
  5
99
330
1F36
100
AcDbEntity
  8
0
  6
Continuous
 62
   179
100
AcDbLine
 10
670.4957765389067
 20
4966.875201595508
 30
0.0
 11
749.0385092575698
 21
4787.922755337993
 31
0.0
  0
LINE
  5
9A
330
1F36
100
AcDbEntity
  8
0
  6
Continuous
 62
   179
100
AcDbLine
 10
749.0385092575698
 20
4787.922755337993
 30
0.0
 11
846.3298658911609
 21
4618.4358151253
 31
0.0
  0
LINE
  5
9B
330
1F36
100
AcDbEntity
  8
0
  6
Continuous
 62
   179
100
AcDbLine
 10
846.3298658911609
 20
4618.4358151253
 30
0.0
 11
961.3271095995639
 21
4460.423355494227
 31
0.0
  0
LINE
  5
9C
330
1F36
100
AcDbEntity
  8
0
  6
Continuous
 62
   179
100
AcDbLine
 10
1593.248426399736
 20
3794.889202694205
 30
0.0
 11
2342.8146692
 21
3099.103497494595
 31
0.0
  0
LINE
  5
9D
330
1F36
100
AcDbEntity
  8
0
  6
Continuous
 62
   179
100
AcDbLine
 10
2342.8146692
 20
3099.103497494595
 30
0.0
 11
2457.41508644016
 21
2985.480496534295
 31
0.0
  0
LINE
  5
9E
330
1F36
100
AcDbEntity
  8
0
  6
Continuous
 62
   179
100
AcDbLine
 10
2457.41508644016
 20
2985.480496534295
 30
0.0
 11
2562.477793078361
 21
2863.006224607534
 31
0.0
  0
LINE
  5
9F
330
1F36
100
AcDbEntity
  8
0
  6
Continuous
 62
   179
100
AcDbLine
 10
2562.477793078361
 20
2863.006224607534
 30
0.0
 11
2654.96282441476
 21
2730.807770803294
 31
0.0
  0
LINE
  5
A0
330
1F36
100
AcDbEntity
  8
0
  6
Continuous
 62
   179
100
AcDbLine
 10
2654.96282441476
 20
2730.807770803294
 30
0.0
 11
2730.907010872539
 21
2588.502832259053
 31
0.0
  0
LINE
  5
A1
330
1F36
100
AcDbEntity
  8
0
  6
Continuous
 62
   179
100
AcDbLine
 10
2730.907010872539
 20
2588.502832259053
 30
0.0
 11
2787.63927673722
 21
2429.395941682513
 31
0.0
  0
LINE
  5
A2
330
1F36
100
AcDbEntity
  8
0
  6
Continuous
 62
   179
100
AcDbLine
 10
2787.63927673722
 20
2429.395941682513
 30
0.0
 11
2816.041280448719
 21
2262.926576788534
 31
0.0
  0
LINE
  5
A3
330
1F36
100
AcDbEntity
  8
0
  6
Continuous
 62
   179
100
AcDbLine
 10
2816.041280448719
 20
2262.926576788534
 30
0.0
 11
2813.394373199999
 21
2094.079701094594
 31
0.0
  0
LINE
  5
A4
330
1F36
100
AcDbEntity
  8
0
  6
Continuous
 62
   179
100
AcDbLine
 10
2171.389205600197
 20
1438.62939909699
 30
0.0
 11
2081.327164815121
 21
1444.522028523433
 31
0.0
  0
LINE
  5
A5
330
1F36
100
AcDbEntity
  8
0
  6
Continuous
 62
   179
100
AcDbLine
 10
2081.327164815121
 20
1444.522028523433
 30
0.0
 11
1993.367737841259
 21
1464.526010636294
 31
0.0
  0
LINE
  5
A6
330
1F36
100
AcDbEntity
  8
0
  6
Continuous
 62
   179
100
AcDbLine
 10
1993.367737841259
 20
1464.526010636294
 30
0.0
 11
1911.343580335418
 21
1501.911515204734
 31
0.0
  0
LINE
  5
A7
330
1F36
100
AcDbEntity
  8
0
  6
Continuous
 62
   179
100
AcDbLine
 10
1911.343580335418
 20
1501.911515204734
 30
0.0
 11
1840.545099273279
 21
1557.649425118072
 31
0.0
  0
LINE
  5
A8
330
1F36
100
AcDbEntity
  8
0
  6
Continuous
 62
   179
100
AcDbLine
 10
1840.545099273279
 20
1557.649425118072
 30
0.0
 11
1785.04451687106
 21
1628.675104478674
 31
0.0
  0
LINE
  5
A9
330
1F36
100
AcDbEntity
  8
0
  6
Continuous
 62
   179
100
AcDbLine
 10
1785.04451687106
 20
1628.675104478674
 30
0.0
 11
1745.281768286479
 21
1709.640546969614
 31
0.0
  0
LINE
  5
AA
330
1F36
100
AcDbEntity
  8
0
  6
Continuous
 62
   179
100
AcDbLine
 10
1745.281768286479
 20
1709.640546969614
 30
0.0
 11
1710.035312701299
 21
1840.238656514553
 31
0.0
  0
LINE
  5
AB
330
1F36
100
AcDbEntity
  8
0
  6
Continuous
 62
   179
100
AcDbLine
 10
1710.035312701299
 20
1840.238656514553
 30
0.0
 11
1696.021668805858
 21
1974.897753718552
 31
0.0
  0
LINE
  5
AC
330
1F36
100
AcDbEntity
  8
0
  6
Continuous
 62
   179
100
AcDbLine
 10
1696.021668805858
 20
1974.897753718552
 30
0.0
 11
1696.59248405488
 21
2110.328397581133
 31
0.0
  0
LINE
  5
AD
330
1F36
100
AcDbEntity
  8
0
  6
Continuous
 62
   179
100
AcDbLine
 10
1696.59248405488
 20
2110.328397581133
 30
0.0
 11
1707.5320688
 21
2245.337463094594
 31
0.0
  0
LINE
  5
AE
330
1F36
100
AcDbEntity
  8
0
  6
Continuous
 62
   179
100
AcDbLine
 10
1707.5320688
 20
2245.337463094594
 30
0.0
 11
1781.480308
 21
2897.426481494593
 31
0.0
  0
LINE
  5
AF
330
1F36
100
AcDbEntity
  8
0
  6
Continuous
 62
   179
100
AcDbLine
 10
1781.480308
 20
2897.426481494593
 30
0.0
 11
94.11594080000098
 21
2897.426481494593
 31
0.0
  0
LINE
  5
B0
330
1F36
100
AcDbEntity
  8
0
  6
Continuous
 62
   179
100
AcDbLine
 10
94.11594080000098
 20
2897.426481494593
 30
0.0
 11
26.89026879999989
 21
2295.756717094594
 31
0.0
  0
LINE
  5
B1
330
1F36
100
AcDbEntity
  8
0
  6
Continuous
 62
   179
100
AcDbLine
 10
26.89026879999989
 20
2295.756717094594
 30
0.0
 11
5.820122611701172
 21
2068.368970560353
 31
0.0
  0
LINE
  5
B2
330
1F36
100
AcDbEntity
  8
0
  6
Continuous
 62
   179
100
AcDbLine
 10
5.820122611701172
 20
2068.368970560353
 30
0.0
 11
0.0
 21
1889.041401494594
 31
0.0
  0
LINE
  5
B3
330
1F36
100
AcDbEntity
  8
0
  6
Continuous
 62
   179
100
AcDbLine
 10
0.0
 20
1889.041401494594
 30
0.0
 11
0.0
 21
1788.202893494593
 31
0.0
  0
LINE
  5
B4
330
1F36
100
AcDbEntity
  8
0
  6
Continuous
 62
   179
100
AcDbLine
 10
0.0
 20
1788.202893494593
 30
0.0
 11
8.474118185080926
 21
1597.599261085654
 31
0.0
  0
LINE
  5
B5
330
1F36
100
AcDbEntity
  8
0
  6
Continuous
 62
   179
100
AcDbLine
 10
8.474118185080926
 20
1597.599261085654
 30
0.0
 11
29.94753216984058
 21
1408.025551519073
 31
0.0
  0
LINE
  5
B6
330
1F36
100
AcDbEntity
  8
0
  6
Continuous
 62
   179
100
AcDbLine
 10
29.94753216984058
 20
1408.025551519073
 30
0.0
 11
66.51961774536196
 21
1220.793677591393
 31
0.0
  0
LINE
  5
B7
330
1F36
100
AcDbEntity
  8
0
  6
Continuous
 62
   179
100
AcDbLine
 10
66.51961774536196
 20
1220.793677591393
 30
0.0
 11
120.5660601196214
 21
1037.859231324873
 31
0.0
  0
LINE
  5
B8
330
1F36
100
AcDbEntity
  8
0
  6
Continuous
 62
   179
100
AcDbLine
 10
120.5660601196214
 20
1037.859231324873
 30
0.0
 11
194.3311383854613
 21
861.9730900701735
 31
0.0
  0
LINE
  5
B9
330
1F36
100
AcDbEntity
  8
0
  6
Continuous
 62
   179
100
AcDbLine
 10
194.3311383854613
 20
861.9730900701735
 30
0.0
 11
287.5295606572816
 21
699.5021482410534
 31
0.0
  0
LINE
  5
BA
330
1F36
100
AcDbEntity
  8
0
  6
Continuous
 62
   179
100
AcDbLine
 10
287.5295606572816
 20
699.5021482410534
 30
0.0
 11
401.5974373648614
 21
550.9580491855736
 31
0.0
  0
LINE
  5
BB
330
1F36
100
AcDbEntity
  8
0
  6
Continuous
 62
   179
100
AcDbLine
 10
401.5974373648614
 20
550.9580491855736
 30
0.0
 11
535.1901037299207
 21
419.6995230366536
 31
0.0
  0
LINE
  5
BC
330
1F36
100
AcDbEntity
  8
0
  6
Continuous
 62
   179
100
AcDbLine
 10
535.1901037299207
 20
419.6995230366536
 30
0.0
 11
685.452551975061
 21
307.8901613370537
 31
0.0
  0
LINE
  5
BD
330
1F36
100
AcDbEntity
  8
0
  6
Continuous
 62
   179
100
AcDbLine
 10
685.452551975061
 20
307.8901613370537
 30
0.0
 11
880.9909831935801
 21
200.7980430706135
 31
0.0
  0
LINE
  5
BE
330
1F36
100
AcDbEntity
  8
0
  6
Continuous
 62
   179
100
AcDbLine
 10
880.9909831935801
 20
200.7980430706135
 30
0.0
 11
1088.964854496721
 21
120.3523112471338
 31
0.0
  0
LINE
  5
BF
330
1F36
100
AcDbEntity
  8
0
  6
Continuous
 62
   179
100
AcDbLine
 10
1088.964854496721
 20
120.3523112471338
 30
0.0
 11
1304.5983771836
 21
63.40275116375353
 31
0.0
  0
LINE
  5
C0
330
1F36
100
AcDbEntity
  8
0
  6
Continuous
 62
   179
100
AcDbLine
 10
1304.5983771836
 20
63.40275116375353
 30
0.0
 11
1524.56671132784
 21
26.43531137513372
 31
0.0
  0
LINE
  5
C1
330
1F36
100
AcDbEntity
  8
0
  6
Continuous
 62
   179
100
AcDbLine
 10
1524.56671132784
 20
26.43531137513372
 30
0.0
 11
1746.71819079844
 21
6.202131110053797
 31
0.0
  0
LINE
  5
C2
330
1F36
100
AcDbEntity
  8
0
  6
Continuous
 62
   179
100
AcDbLine
 10
1746.71819079844
 20
6.202131110053797
 30
0.0
 11
1969.7121896
 21
0.0000182945937288
 31
0.0
  0
LINE
  5
C3
330
1F36
100
AcDbEntity
  8
0
  6
Continuous
 62
   179
100
AcDbLine
 10
1969.7121896
 20
0.0000182945937288
 30
0.0
 11
2235.41631079674
 21
9.04749415185396
 31
0.0
  0
LINE
  5
C4
330
1F36
100
AcDbEntity
  8
0
  6
Continuous
 62
   179
100
AcDbLine
 10
2235.41631079674
 20
9.04749415185396
 30
0.0
 11
2499.687465075322
 21
37.90336058021383
 31
0.0
  0
LINE
  5
C5
330
1F36
100
AcDbEntity
  8
0
  6
Continuous
 62
   179
100
AcDbLine
 10
2499.687465075322
 20
37.90336058021383
 30
0.0
 11
2760.51170427924
 21
89.20461575499391
 31
0.0
  0
LINE
  5
C6
330
1F36
100
AcDbEntity
  8
0
  6
Continuous
 62
   179
100
AcDbLine
 10
2760.51170427924
 20
89.20461575499391
 30
0.0
 11
3015.141527731303
 21
165.4438899665139
 31
0.0
  0
LINE
  5
C7
330
1F36
100
AcDbEntity
  8
0
  6
Continuous
 62
   179
100
AcDbLine
 10
3015.141527731303
 20
165.4438899665139
 30
0.0
 11
3208.623602308161
 21
244.1201341123137
 31
0.0
  0
LINE
  5
C8
330
1F36
100
AcDbEntity
  8
0
  6
Continuous
 62
   179
100
AcDbLine
 10
3208.623602308161
 20
244.1201341123137
 30
0.0
 11
3394.24679092896
 21
339.8610540042337
 31
0.0
  0
LINE
  5
C9
330
1F36
100
AcDbEntity
  8
0
  6
Continuous
 62
   179
100
AcDbLine
 10
3394.24679092896
 20
339.8610540042337
 30
0.0
 11
3570.082879030024
 21
452.5651803684535
 31
0.0
  0
LINE
  5
CA
330
1F36
100
AcDbEntity
  8
0
  6
Continuous
 62
   179
100
AcDbLine
 10
3570.082879030024
 20
452.5651803684535
 30
0.0
 11
3734.386079600002
 21
581.5020810945936
 31
0.0
  0
LINE
  5
CB
330
1F36
100
AcDbEntity
  8
0
  6
Continuous
 62
   179
100
AcDbLine
 10
3734.386079600002
 20
581.5020810945936
 30
0.0
 11
3918.961961318719
 21
762.6068684982135
 31
0.0
  0
LINE
  5
CC
330
1F36
100
AcDbEntity
  8
0
  6
Continuous
 62
   179
100
AcDbLine
 10
3918.961961318719
 20
762.6068684982135
 30
0.0
 11
4080.611503416498
 21
964.4332031657937
 31
0.0
  0
LINE
  5
CD
330
1F36
100
AcDbEntity
  8
0
  6
Continuous
 62
   179
100
AcDbLine
 10
4080.611503416498
 20
964.4332031657937
 30
0.0
 11
4217.129324296998
 21
1184.049159043493
 31
0.0
  0
LINE
  5
CE
330
1F36
100
AcDbEntity
  8
0
  6
Continuous
 62
   179
100
AcDbLine
 10
4217.129324296998
 20
1184.049159043493
 30
0.0
 11
4327.807798901
 21
1417.774486123273
 31
0.0
  0
LINE
  5
CF
330
1F36
100
AcDbEntity
  8
0
  6
Continuous
 62
   179
100
AcDbLine
 10
4327.807798901
 20
1417.774486123273
 30
0.0
 11
4416.840352257941
 21
1673.661636085314
 31
0.0
  0
LINE
  5
D0
330
1F36
100
AcDbEntity
  8
0
  6
Continuous
 62
   179
100
AcDbLine
 10
4416.840352257941
 20
1673.661636085314
 30
0.0
 11
4480.332478423042
 21
1937.077635038393
 31
0.0
  0
LINE
  5
D1
330
1F36
100
AcDbEntity
  8
0
  6
Continuous
 62
   179
100
AcDbLine
 10
4480.332478423042
 20
1937.077635038393
 30
0.0
 11
4520.926442
 21
2205.002059894594
 31
0.0
  0
LINE
  5
D2
330
1F36
100
AcDbEntity
  8
0
  6
Continuous
 62
   179
100
AcDbLine
 10
4520.926442
 20
2205.002059894594
 30
0.0
 11
4539.8604791128
 21
2434.751251136973
 31
0.0
  0
LINE
  5
D3
330
1F36
100
AcDbEntity
  8
0
  6
Continuous
 62
   179
100
AcDbLine
 10
4539.8604791128
 20
2434.751251136973
 30
0.0
 11
4542.013617163639
 21
2665.255576350413
 31
0.0
  0
LINE
  5
D4
330
1F36
100
AcDbEntity
  8
0
  6
Continuous
 62
   179
100
AcDbLine
 10
4542.013617163639
 20
2665.255576350413
 30
0.0
 11
4524.987493222559
 21
2895.123449740493
 31
0.0
  0
LINE
  5
D5
330
1F36
100
AcDbEntity
  8
0
  6
Continuous
 62
   179
100
AcDbLine
 10
4524.987493222559
 20
2895.123449740493
 30
0.0
 11
4496.6310776622
 21
3074.009802170273
 31
0.0
  0
LINE
  5
D6
330
1F36
100
AcDbEntity
  8
0
  6
Continuous
 62
   179
100
AcDbLine
 10
4496.6310776622
 20
3074.009802170273
 30
0.0
 11
4454.037998185081
 21
3250.043048505413
 31
0.0
  0
LINE
  5
D7
330
1F36
100
AcDbEntity
  8
0
  6
Continuous
 62
   179
100
AcDbLine
 10
4454.037998185081
 20
3250.043048505413
 30
0.0
 11
4396.558948800001
 21
3421.786723094593
 31
0.0
  0
LINE
  5
D8
330
1F36
100
AcDbEntity
  8
0
  6
Continuous
 62
   179
100
AcDbLine
 10
4396.558948800001
 20
3421.786723094593
 30
0.0
 11
4335.077579852899
 21
3551.359110741273
 31
0.0
  0
LINE
  5
D9
330
1F36
100
AcDbEntity
  8
0
  6
Continuous
 62
   179
100
AcDbLine
 10
4335.077579852899
 20
3551.359110741273
 30
0.0
 11
4262.20020577558
 21
3674.918854771914
 31
0.0
  0
LINE
  5
DA
330
1F36
100
AcDbEntity
  8
0
  6
Continuous
 62
   179
100
AcDbLine
 10
4262.20020577558
 20
3674.918854771914
 30
0.0
 11
4181.318389436921
 21
3793.411308937154
 31
0.0
  0
LINE
  5
DB
330
1F36
100
AcDbEntity
  8
0
  6
Continuous
 62
   179
100
AcDbLine
 10
4181.318389436921
 20
3793.411308937154
 30
0.0
 11
4078.522747157141
 21
3927.664362884153
 31
0.0
  0
LINE
  5
DC
330
1F36
100
AcDbEntity
  8
0
  6
Continuous
 62
   179
100
AcDbLine
 10
4078.522747157141
 20
3927.664362884153
 30
0.0
 11
3969.675931600001
 21
4057.069323494594
 31
0.0
  0
LINE
  5
DD
330
1F36
100
AcDbEntity
  8
0
  6
Continuous
 62
   179
100
AcDbLine
 10
3969.675931600001
 20
4057.069323494594
 30
0.0
 11
3243.638674
 21
4803.274282694593
 31
0.0
  0
LINE
  5
DE
330
1F36
100
AcDbEntity
  8
0
  6
Continuous
 62
   179
100
AcDbLine
 10
2467.182162398092
 20
5616.704913899501
 30
0.0
 11
2391.57591341214
 21
5727.703944128753
 31
0.0
  0
LINE
  5
DF
330
1F36
100
AcDbEntity
  8
0
  6
Continuous
 62
   179
100
AcDbLine
 10
2391.57591341214
 20
5727.703944128753
 30
0.0
 11
2326.902387232402
 21
5845.382881749834
 31
0.0
  0
LINE
  5
E0
330
1F36
100
AcDbEntity
  8
0
  6
Continuous
 62
   179
100
AcDbLine
 10
2326.902387232402
 20
5845.382881749834
 30
0.0
 11
2276.785532117061
 21
5969.920654929314
 31
0.0
  0
LINE
  5
E1
330
1F36
100
AcDbEntity
  8
0
  6
Continuous
 62
   179
100
AcDbLine
 10
2276.785532117061
 20
5969.920654929314
 30
0.0
 11
2250.543256542281
 21
6072.090477188194
 31
0.0
  0
LINE
  5
E2
330
1F36
100
AcDbEntity
  8
0
  6
Continuous
 62
   179
100
AcDbLine
 10
2250.543256542281
 20
6072.090477188194
 30
0.0
 11
2238.35324987586
 21
6176.849657953893
 31
0.0
  0
LINE
  5
E3
330
1F36
100
AcDbEntity
  8
0
  6
Continuous
 62
   179
100
AcDbLine
 10
2238.35324987586
 20
6176.849657953893
 30
0.0
 11
2241.976161200001
 21
6282.239066694592
 31
0.0
  0
LINE
  5
E4
330
1F36
100
AcDbEntity
  8
0
  6
Continuous
 62
   179
100
AcDbLine
 10
2813.394373200967
 20
6877.186263896148
 30
0.0
 11
2899.145033072479
 21
6871.915988478852
 31
0.0
  0
LINE
  5
E5
330
1F36
100
AcDbEntity
  8
0
  6
Continuous
 62
   179
100
AcDbLine
 10
2899.145033072479
 20
6871.915988478852
 30
0.0
 11
2983.145870252079
 21
6854.084627982132
 31
0.0
  0
LINE
  5
E6
330
1F36
100
AcDbEntity
  8
0
  6
Continuous
 62
   179
100
AcDbLine
 10
2983.145870252079
 20
6854.084627982132
 30
0.0
 11
3062.202014936021
 21
6820.693112019553
 31
0.0
  0
LINE
  5
E7
330
1F36
100
AcDbEntity
  8
0
  6
Continuous
 62
   179
100
AcDbLine
 10
3062.202014936021
 20
6820.693112019553
 30
0.0
 11
3131.662363480119
 21
6770.362935621432
 31
0.0
  0
LINE
  5
E8
330
1F36
100
AcDbEntity
  8
0
  6
Continuous
 62
   179
100
AcDbLine
 10
3131.662363480119
 20
6770.362935621432
 30
0.0
 11
3187.371247960019
 21
6705.118469623453
 31
0.0
  0
LINE
  5
E9
330
1F36
100
AcDbEntity
  8
0
  6
Continuous
 62
   179
100
AcDbLine
 10
3187.371247960019
 20
6705.118469623453
 30
0.0
 11
3228.127477679299
 21
6629.56460680717
 31
0.0
  0
LINE
  5
EA
330
1F36
100
AcDbEntity
  8
0
  6
Continuous
 62
   179
100
AcDbLine
 10
3228.127477679299
 20
6629.56460680717
 30
0.0
 11
3265.033418004941
 21
6506.244136135932
 31
0.0
  0
LINE
  5
EB
330
1F36
100
AcDbEntity
  8
0
  6
Continuous
 62
   179
100
AcDbLine
 10
3265.033418004941
 20
6506.244136135932
 30
0.0
 11
3280.36021042724
 21
6378.310474282153
 31
0.0
  0
LINE
  5
EC
330
1F36
100
AcDbEntity
  8
0
  6
Continuous
 62
   179
100
AcDbLine
 10
3280.36021042724
 20
6378.310474282153
 30
0.0
 11
3280.752024162281
 21
6249.412203473673
 31
0.0
  0
LINE
  5
ED
330
1F36
100
AcDbEntity
  8
0
  6
Continuous
 62
   179
100
AcDbLine
 10
3280.752024162281
 20
6249.412203473673
 30
0.0
 11
3270.5289428
 21
6120.897453894593
 31
0.0
  0
LINE
  5
EE
330
1F36
100
AcDbEntity
  8
0
  6
Continuous
 62
   179
100
AcDbLine
 10
3270.5289428
 20
6120.897453894593
 30
0.0
 11
3206.664554400002
 21
5566.285659894593
 31
0.0
  0
LINE
  5
EF
330
1F36
100
AcDbEntity
  8
0
  6
Continuous
 62
   179
100
AcDbLine
 10
3206.664554400002
 20
5566.285659894593
 30
0.0
 11
4820.080682400462
 21
5566.285659894544
 31
0.0
  0
LINE
  5
F0
330
1F36
100
AcDbEntity
  8
0
  6
Continuous
 62
   179
100
AcDbLine
 10
4820.080682400462
 20
5566.285659894544
 30
0.0
 11
4894.028921600462
 21
6231.819812694547
 31
0.0
  0
LINE
  5
F1
330
1F36
100
AcDbEntity
  8
0
  6
Continuous
 62
   179
100
AcDbLine
 10
4894.028921600462
 20
6231.819812694547
 30
0.0
 11
4907.474056000466
 21
6366.271156694573
 31
0.0
  0
LINE
  5
F2
330
1F36
100
AcDbEntity
  8
0
  6
Continuous
 62
   179
100
AcDbLine
 10
4907.474056000466
 20
6366.271156694573
 30
0.0
 11
4917.486162374487
 21
6641.137716561613
 31
0.0
  0
LINE
  5
F3
330
1F36
100
AcDbEntity
  8
0
  6
Continuous
 62
   179
100
AcDbLine
 10
4917.486162374487
 20
6641.137716561613
 30
0.0
 11
4907.474056000466
 21
6857.018562294655
 31
0.0
  0
LINE
  5
F4
330
1F36
100
AcDbEntity
  8
0
  6
Continuous
 62
   179
100
AcDbLine
 10
24964.54912059258
 20
0.0000125144457019
 30
0.0
 11
26583.76192004468
 21
0.0000125144457019
 31
0.0
  0
LINE
  5
F5
330
1F36
100
AcDbEntity
  8
0
  6
Continuous
 62
   179
100
AcDbLine
 10
24964.54912059258
 20
1424.094829711545
 30
0.0
 11
24964.54912059258
 21
0.0000125144457019
 31
0.0
  0
LINE
  5
F6
330
1F36
100
AcDbEntity
  8
0
  6
Continuous
 62
   179
100
AcDbLine
 10
25016.61353259258
 20
7008.870756911545
 30
0.0
 11
24971.49104219296
 21
3444.194015310926
 31
0.0
  0
LINE
  5
F7
330
1F36
100
AcDbEntity
  8
0
  6
Continuous
 62
   179
100
AcDbLine
 10
24180.11197979258
 20
3343.536152111546
 30
0.0
 11
25016.61353259258
 21
7008.870756911545
 31
0.0
  0
LINE
  5
F8
330
1F36
100
AcDbEntity
  8
0
  6
Continuous
 62
   179
100
AcDbLine
 10
23399.14579979258
 20
0.0000125144449803
 30
0.0
 11
23791.36437019384
 21
1694.829772110233
 31
0.0
  0
LINE
  5
F9
330
1F36
100
AcDbEntity
  8
0
  6
Continuous
 62
   179
100
AcDbLine
 10
21618.54290939258
 20
0.0000125144449803
 30
0.0
 11
23399.14579979258
 21
0.0000125144449803
 31
0.0
  0
LINE
  5
FA
330
1F36
100
AcDbEntity
  8
0
  6
Continuous
 62
   179
100
AcDbLine
 10
23986.75627099296
 20
8289.655292111545
 30
0.0
 11
21618.54290939258
 21
0.0000125144449803
 31
0.0
  0
LINE
  5
FB
330
1F36
100
AcDbEntity
  8
0
  6
Continuous
 62
   179
100
AcDbLine
 10
26353.95153659296
 20
8289.655292111545
 30
0.0
 11
23986.75627099296
 21
8289.655292111545
 31
0.0
  0
LINE
  5
FC
330
1F36
100
AcDbEntity
  8
0
  6
Continuous
 62
   179
100
AcDbLine
 10
26583.76192004468
 20
0.0000125144457019
 30
0.0
 11
26353.95153659296
 21
8289.655292111545
 31
0.0
  0
ENDBLK
  5
48
330
1F36
100
AcDbEntity
  8
0
100
AcDbBlockEnd
  0
BLOCK
  5
1F37
330
1F38
100
AcDbEntity
  8
0
100
AcDbBlockBegin
  2
SW_NOTE_0
 70
     0
 10
0.0
 20
0.0
 30
0.0
  3
SW_NOTE_0
  1

  0
INSERT
  5
196
330
1F38
100
AcDbEntity
  8
0
100
AcDbBlockReference
  2
*U2
 10
0.0
 20
0.0
 30
0.0
  0
INSERT
  5
197
330
1F38
100
AcDbEntity
  8
0
100
AcDbBlockReference
  2
*U3
 10
0.0
 20
0.0
 30
0.0
  0
ENDBLK
  5
195
330
1F38
100
AcDbEntity
  8
0
100
AcDbBlockEnd
  0
BLOCK
  5
1F39
330
1F3A
100
AcDbEntity
  8
0
100
AcDbBlockBegin
  2
*U2
 70
     1
 10
0.0
 20
0.0
 30
0.0
  3
*U2
  1

  0
TEXT
  5
1B65
330
1F3A
100
AcDbEntity
  8
0
 62
     0
100
AcDbText
 10
0.0
 20
0.4588950368879992
 30
0.0
 40
1.587499999999999
  1
1000-
 41
0.75
  7
SLDTEXTSTYLE0
100
AcDbText
  0
ENDBLK
  5
1B67
330
1F3A
100
AcDbEntity
  8
0
100
AcDbBlockEnd
  0
BLOCK
  5
1F3B
330
1F3C
100
AcDbEntity
  8
0
100
AcDbBlockBegin
  2
*U3
 70
     1
 10
0.0
 20
0.0
 30
0.0
  3
*U3
  1

  0
TEXT
  5
1B69
330
1F3C
100
AcDbEntity
  8
0
 62
     0
100
AcDbText
 10
0.0
 20
-1.657771604198346
 30
0.0
 40
1.587499999999999
  1
2000
 41
0.75
  7
SLDTEXTSTYLE0
100
AcDbText
  0
ENDBLK
  5
1B6B
330
1F3C
100
AcDbEntity
  8
0
100
AcDbBlockEnd
  0
BLOCK
  5
1F3D
330
1F3E
100
AcDbEntity
  8
0
100
AcDbBlockBegin
  2
SW_NOTE_1
 70
     0
 10
0.0
 20
0.0
 30
0.0
  3
SW_NOTE_1
  1

  0
INSERT
  5
19C
330
1F3E
100
AcDbEntity
  8
0
100
AcDbBlockReference
  2
*U5
 10
0.0
 20
0.0
 30
0.0
  0
INSERT
  5
19D
330
1F3E
100
AcDbEntity
  8
0
100
AcDbBlockReference
  2
*U6
 10
0.0
 20
0.0
 30
0.0
  0
ENDBLK
  5
19B
330
1F3E
100
AcDbEntity
  8
0
100
AcDbBlockEnd
  0
BLOCK
  5
1F3F
330
1F40
100
AcDbEntity
  8
0
100
AcDbBlockBegin
  2
*U5
 70
     1
 10
0.0
 20
0.0
 30
0.0
  3
*U5
  1

  0
TEXT
  5
1B6D
330
1F40
100
AcDbEntity
  8
0
 62
     0
100
AcDbText
 10
0.0
 20
0.4588950368879992
 30
0.0
 40
1.587499999999999
  1
2000-
 41
0.75
  7
SLDTEXTSTYLE0
100
AcDbText
  0
ENDBLK
  5
1B6F
330
1F40
100
AcDbEntity
  8
0
100
AcDbBlockEnd
  0
BLOCK
  5
1F41
330
1F42
100
AcDbEntity
  8
0
100
AcDbBlockBegin
  2
*U6
 70
     1
 10
0.0
 20
0.0
 30
0.0
  3
*U6
  1

  0
TEXT
  5
1B71
330
1F42
100
AcDbEntity
  8
0
 62
     0
100
AcDbText
 10
0.0
 20
-1.657771604198346
 30
0.0
 40
1.587499999999999
  1
4000
 41
0.75
  7
SLDTEXTSTYLE0
100
AcDbText
  0
ENDBLK
  5
1B73
330
1F42
100
AcDbEntity
  8
0
100
AcDbBlockEnd
  0
BLOCK
  5
1F43
330
1F44
100
AcDbEntity
  8
0
100
AcDbBlockBegin
  2
SW_TABLEANNOTATION_0
 70
     0
 10
0.0
 20
0.0
 30
0.0
  3
SW_TABLEANNOTATION_0
  1

  0
LINE
  5
1B0
330
1F44
100
AcDbEntity
  8
0
  6
Continuous
 62
     0
100
AcDbLine
 10
0.0
 20
0.0
 30
0.0
 11
0.0
 21
-105.1488841684851
 31
0.0
  0
LINE
  5
1B1
330
1F44
100
AcDbEntity
  8
0
  6
Continuous
 62
     0
100
AcDbLine
 10
0.0
 20
-105.1488841684851
 30
0.0
 11
156.6717400790887
 21
-105.1488841684851
 31
0.0
  0
LINE
  5
1B2
330
1F44
100
AcDbEntity
  8
0
  6
Continuous
 62
     0
100
AcDbLine
 10
156.6717400790887
 20
-105.1488841684851
 30
0.0
 11
156.6717400790887
 21
0.0
 31
0.0
  0
LINE
  5
1B3
330
1F44
100
AcDbEntity
  8
0
  6
Continuous
 62
     0
100
AcDbLine
 10
156.6717400790887
 20
0.0
 30
0.0
 11
0.0
 21
0.0
 31
0.0
  0
LINE
  5
1B4
330
1F44
100
AcDbEntity
  8
0
  6
Continuous
 62
     0
100
AcDbLine
 10
18.83487759530544
 20
-3.587777735143876
 30
0.0
 11
18.83487759530544
 21
-10.70333320543168
 31
0.0
  0
LINE
  5
1B5
330
1F44
100
AcDbEntity
  8
0
  6
Continuous
 62
     0
100
AcDbLine
 10
55.82851753707374
 20
-3.587777735143876
 30
0.0
 11
55.82851753707374
 21
-10.70333320543168
 31
0.0
  0
LINE
  5
1B6
330
1F44
100
AcDbEntity
  8
0
  6
Continuous
 62
     0
100
AcDbLine
 10
89.23355148009519
 20
-3.587777735143876
 30
0.0
 11
89.23355148009519
 21
-10.70333320543168
 31
0.0
  0
LINE
  5
1B7
330
1F44
100
AcDbEntity
  8
0
  6
Continuous
 62
     0
100
AcDbLine
 10
112.1815342432159
 20
-3.587777735143876
 30
0.0
 11
112.1815342432159
 21
-10.70333320543168
 31
0.0
  0
LINE
  5
1B8
330
1F44
100
AcDbEntity
  8
0
  6
Continuous
 62
     0
100
AcDbLine
 10
121.803949529555
 20
-3.587777735143876
 30
0.0
 11
121.803949529555
 21
-10.70333320543168
 31
0.0
  0
LINE
  5
1B9
330
1F44
100
AcDbEntity
  8
0
  6
Continuous
 62
     0
100
AcDbLine
 10
132.0753696111108
 20
-3.587777735143876
 30
0.0
 11
132.0753696111108
 21
-10.70333320543168
 31
0.0
  0
LINE
  5
1BA
330
1F44
100
AcDbEntity
  8
0
  6
Continuous
 62
     0
100
AcDbLine
 10
0.0
 20
-3.587777735143876
 30
0.0
 11
156.6717400790887
 21
-3.587777735143876
 31
0.0
  0
LINE
  5
1BB
330
1F44
100
AcDbEntity
  8
0
  6
Continuous
 62
     0
100
AcDbLine
 10
18.83487759530544
 20
-10.70333320543171
 30
0.0
 11
18.83487759530544
 21
-105.1488841684852
 31
0.0
  0
LINE
  5
1BC
330
1F44
100
AcDbEntity
  8
0
  6
Continuous
 62
     0
100
AcDbLine
 10
55.82851753707374
 20
-10.70333320543171
 30
0.0
 11
55.82851753707374
 21
-105.1488841684852
 31
0.0
  0
LINE
  5
1BD
330
1F44
100
AcDbEntity
  8
0
  6
Continuous
 62
     0
100
AcDbLine
 10
89.23355148009519
 20
-10.70333320543171
 30
0.0
 11
89.23355148009519
 21
-105.1488841684852
 31
0.0
  0
LINE
  5
1BE
330
1F44
100
AcDbEntity
  8
0
  6
Continuous
 62
     0
100
AcDbLine
 10
112.1815342432159
 20
-10.70333320543171
 30
0.0
 11
112.1815342432159
 21
-105.1488841684852
 31
0.0
  0
LINE
  5
1BF
330
1F44
100
AcDbEntity
  8
0
  6
Continuous
 62
     0
100
AcDbLine
 10
121.803949529555
 20
-10.70333320543171
 30
0.0
 11
121.803949529555
 21
-105.1488841684852
 31
0.0
  0
LINE
  5
1C0
330
1F44
100
AcDbEntity
  8
0
  6
Continuous
 62
     0
100
AcDbLine
 10
132.0753696111108
 20
-10.70333320543171
 30
0.0
 11
132.0753696111108
 21
-105.1488841684852
 31
0.0
  0
LINE
  5
1C1
330
1F44
100
AcDbEntity
  8
0
  6
Continuous
 62
     0
100
AcDbLine
 10
0.0
 20
-15.32860000855218
 30
0.0
 11
156.6717400790887
 21
-15.32860000855218
 31
0.0
  0
LINE
  5
1C2
330
1F44
100
AcDbEntity
  8
0
  6
Continuous
 62
     0
100
AcDbLine
 10
0.0
 20
-19.95386681167266
 30
0.0
 11
156.6717400790887
 21
-19.95386681167266
 31
0.0
  0
LINE
  5
1C3
330
1F44
100
AcDbEntity
  8
0
  6
Continuous
 62
     0
100
AcDbLine
 10
0.0
 20
-24.57913361479314
 30
0.0
 11
156.6717400790887
 21
-24.57913361479314
 31
0.0
  0
LINE
  5
1C4
330
1F44
100
AcDbEntity
  8
0
  6
Continuous
 62
     0
100
AcDbLine
 10
0.0
 20
-29.20440041791361
 30
0.0
 11
156.6717400790887
 21
-29.20440041791361
 31
0.0
  0
LINE
  5
1C5
330
1F44
100
AcDbEntity
  8
0
  6
Continuous
 62
     0
100
AcDbLine
 10
0.0
 20
-33.82966722103409
 30
0.0
 11
156.6717400790887
 21
-33.82966722103409
 31
0.0
  0
LINE
  5
1C6
330
1F44
100
AcDbEntity
  8
0
  6
Continuous
 62
     0
100
AcDbLine
 10
0.0
 20
-38.45493402415456
 30
0.0
 11
156.6717400790887
 21
-38.45493402415456
 31
0.0
  0
LINE
  5
1C7
330
1F44
100
AcDbEntity
  8
0
  6
Continuous
 62
     0
100
AcDbLine
 10
0.0
 20
-43.08020082727503
 30
0.0
 11
156.6717400790887
 21
-43.08020082727503
 31
0.0
  0
LINE
  5
1C8
330
1F44
100
AcDbEntity
  8
0
  6
Continuous
 62
     0
100
AcDbLine
 10
0.0
 20
-50.19575629756285
 30
0.0
 11
156.6717400790887
 21
-50.19575629756285
 31
0.0
  0
LINE
  5
1C9
330
1F44
100
AcDbEntity
  8
0
  6
Continuous
 62
     0
100
AcDbLine
 10
0.0
 20
-54.82102310068332
 30
0.0
 11
156.6717400790887
 21
-54.82102310068332
 31
0.0
  0
LINE
  5
1CA
330
1F44
100
AcDbEntity
  8
0
  6
Continuous
 62
     0
100
AcDbLine
 10
0.0
 20
-61.93657857097111
 30
0.0
 11
156.6717400790887
 21
-61.93657857097111
 31
0.0
  0
LINE
  5
1CB
330
1F44
100
AcDbEntity
  8
0
  6
Continuous
 62
     0
100
AcDbLine
 10
0.0
 20
-68.38169783624257
 30
0.0
 11
156.6717400790887
 21
-68.38169783624257
 31
0.0
  0
LINE
  5
1CC
330
1F44
100
AcDbEntity
  8
0
  6
Continuous
 62
     0
100
AcDbLine
 10
0.0
 20
-75.49725330653034
 30
0.0
 11
156.6717400790887
 21
-75.49725330653034
 31
0.0
  0
LINE
  5
1CD
330
1F44
100
AcDbEntity
  8
0
  6
Continuous
 62
     0
100
AcDbLine
 10
0.0
 20
-80.12252010965084
 30
0.0
 11
156.6717400790887
 21
-80.12252010965084
 31
0.0
  0
LINE
  5
1CE
330
1F44
100
AcDbEntity
  8
0
  6
Continuous
 62
     0
100
AcDbLine
 10
0.0
 20
-87.23807557993867
 30
0.0
 11
156.6717400790887
 21
-87.23807557993867
 31
0.0
  0
LINE
  5
1CF
330
1F44
100
AcDbEntity
  8
0
  6
Continuous
 62
     0
100
AcDbLine
 10
0.0
 20
-93.88084647265165
 30
0.0
 11
156.6717400790887
 21
-93.88084647265165
 31
0.0
  0
LINE
  5
1D0
330
1F44
100
AcDbEntity
  8
0
  6
Continuous
 62
     0
100
AcDbLine
 10
0.0
 20
-100.5236173653647
 30
0.0
 11
156.6717400790887
 21
-100.5236173653647
 31
0.0
  0
LINE
  5
1D1
330
1F44
100
AcDbEntity
  8
0
  6
Continuous
 62
     0
100
AcDbLine
 10
0.0
 20
-10.70333320543171
 30
0.0
 11
156.6717400790887
 21
-10.70333320543171
 31
0.0
  0
INSERT
  5
1D3
330
1F44
100
AcDbEntity
  8
0
100
AcDbBlockReference
  2
*U8
 10
0.0
 20
0.0
 30
0.0
  0
INSERT
  5
1D4
330
1F44
100
AcDbEntity
  8
0
100
AcDbBlockReference
  2
*U9
 10
0.0
 20
0.0
 30
0.0
  0
INSERT
  5
1D5
330
1F44
100
AcDbEntity
  8
0
100
AcDbBlockReference
  2
*U10
 10
0.0
 20
0.0
 30
0.0
  0
INSERT
  5
1D6
330
1F44
100
AcDbEntity
  8
0
100
AcDbBlockReference
  2
*U11
 10
0.0
 20
0.0
 30
0.0
  0
INSERT
  5
1D7
330
1F44
100
AcDbEntity
  8
0
100
AcDbBlockReference
  2
*U12
 10
0.0
 20
0.0
 30
0.0
  0
INSERT
  5
1D8
330
1F44
100
AcDbEntity
  8
0
100
AcDbBlockReference
  2
*U13
 10
0.0
 20
0.0
 30
0.0
  0
INSERT
  5
1D9
330
1F44
100
AcDbEntity
  8
0
100
AcDbBlockReference
  2
*U14
 10
0.0
 20
0.0
 30
0.0
  0
INSERT
  5
1DA
330
1F44
100
AcDbEntity
  8
0
100
AcDbBlockReference
  2
*U15
 10
0.0
 20
0.0
 30
0.0
  0
INSERT
  5
1DB
330
1F44
100
AcDbEntity
  8
0
100
AcDbBlockReference
  2
*U16
 10
0.0
 20
0.0
 30
0.0
  0
INSERT
  5
1DC
330
1F44
100
AcDbEntity
  8
0
100
AcDbBlockReference
  2
*U17
 10
0.0
 20
0.0
 30
0.0
  0
INSERT
  5
1DD
330
1F44
100
AcDbEntity
  8
0
100
AcDbBlockReference
  2
*U18
 10
0.0
 20
0.0
 30
0.0
  0
INSERT
  5
1DE
330
1F44
100
AcDbEntity
  8
0
100
AcDbBlockReference
  2
*U19
 10
0.0
 20
0.0
 30
0.0
  0
INSERT
  5
1DF
330
1F44
100
AcDbEntity
  8
0
100
AcDbBlockReference
  2
*U20
 10
0.0
 20
0.0
 30
0.0
  0
INSERT
  5
1E0
330
1F44
100
AcDbEntity
  8
0
100
AcDbBlockReference
  2
*U21
 10
0.0
 20
0.0
 30
0.0
  0
INSERT
  5
1E1
330
1F44
100
AcDbEntity
  8
0
100
AcDbBlockReference
  2
*U22
 10
0.0
 20
0.0
 30
0.0
  0
INSERT
  5
1E2
330
1F44
100
AcDbEntity
  8
0
100
AcDbBlockReference
  2
*U23
 10
0.0
 20
0.0
 30
0.0
  0
INSERT
  5
1E3
330
1F44
100
AcDbEntity
  8
0
100
AcDbBlockReference
  2
*U24
 10
0.0
 20
0.0
 30
0.0
  0
INSERT
  5
1E4
330
1F44
100
AcDbEntity
  8
0
100
AcDbBlockReference
  2
*U25
 10
0.0
 20
0.0
 30
0.0
  0
INSERT
  5
1E5
330
1F44
100
AcDbEntity
  8
0
100
AcDbBlockReference
  2
*U26
 10
0.0
 20
0.0
 30
0.0
  0
INSERT
  5
1E6
330
1F44
100
AcDbEntity
  8
0
100
AcDbBlockReference
  2
*U27
 10
0.0
 20
0.0
 30
0.0
  0
INSERT
  5
1E7
330
1F44
100
AcDbEntity
  8
0
100
AcDbBlockReference
  2
*U28
 10
0.0
 20
0.0
 30
0.0
  0
INSERT
  5
1E8
330
1F44
100
AcDbEntity
  8
0
100
AcDbBlockReference
  2
*U29
 10
0.0
 20
0.0
 30
0.0
  0
INSERT
  5
1E9
330
1F44
100
AcDbEntity
  8
0
100
AcDbBlockReference
  2
*U30
 10
0.0
 20
0.0
 30
0.0
  0
INSERT
  5
1EA
330
1F44
100
AcDbEntity
  8
0
100
AcDbBlockReference
  2
*U31
 10
0.0
 20
0.0
 30
0.0
  0
INSERT
  5
1EB
330
1F44
100
AcDbEntity
  8
0
100
AcDbBlockReference
  2
*U32
 10
0.0
 20
0.0
 30
0.0
  0
INSERT
  5
1EC
330
1F44
100
AcDbEntity
  8
0
100
AcDbBlockReference
  2
*U33
 10
0.0
 20
0.0
 30
0.0
  0
INSERT
  5
1ED
330
1F44
100
AcDbEntity
  8
0
100
AcDbBlockReference
  2
*U34
 10
0.0
 20
0.0
 30
0.0
  0
INSERT
  5
1EE
330
1F44
100
AcDbEntity
  8
0
100
AcDbBlockReference
  2
*U35
 10
0.0
 20
0.0
 30
0.0
  0
INSERT
  5
1EF
330
1F44
100
AcDbEntity
  8
0
100
AcDbBlockReference
  2
*U36
 10
0.0
 20
0.0
 30
0.0
  0
INSERT
  5
1F0
330
1F44
100
AcDbEntity
  8
0
100
AcDbBlockReference
  2
*U37
 10
0.0
 20
0.0
 30
0.0
  0
INSERT
  5
1F1
330
1F44
100
AcDbEntity
  8
0
100
AcDbBlockReference
  2
*U38
 10
0.0
 20
0.0
 30
0.0
  0
INSERT
  5
1F2
330
1F44
100
AcDbEntity
  8
0
100
AcDbBlockReference
  2
*U39
 10
0.0
 20
0.0
 30
0.0
  0
INSERT
  5
1F3
330
1F44
100
AcDbEntity
  8
0
100
AcDbBlockReference
  2
*U40
 10
0.0
 20
0.0
 30
0.0
  0
INSERT
  5
1F4
330
1F44
100
AcDbEntity
  8
0
100
AcDbBlockReference
  2
*U41
 10
0.0
 20
0.0
 30
0.0
  0
INSERT
  5
1F5
330
1F44
100
AcDbEntity
  8
0
100
AcDbBlockReference
  2
*U42
 10
0.0
 20
0.0
 30
0.0
  0
INSERT
  5
1F6
330
1F44
100
AcDbEntity
  8
0
100
AcDbBlockReference
  2
*U43
 10
0.0
 20
0.0
 30
0.0
  0
INSERT
  5
1F7
330
1F44
100
AcDbEntity
  8
0
100
AcDbBlockReference
  2
*U44
 10
0.0
 20
0.0
 30
0.0
  0
INSERT
  5
1F8
330
1F44
100
AcDbEntity
  8
0
100
AcDbBlockReference
  2
*U45
 10
0.0
 20
0.0
 30
0.0
  0
INSERT
  5
1F9
330
1F44
100
AcDbEntity
  8
0
100
AcDbBlockReference
  2
*U46
 10
0.0
 20
0.0
 30
0.0
  0
INSERT
  5
1FA
330
1F44
100
AcDbEntity
  8
0
100
AcDbBlockReference
  2
*U47
 10
0.0
 20
0.0
 30
0.0
  0
INSERT
  5
1FB
330
1F44
100
AcDbEntity
  8
0
100
AcDbBlockReference
  2
*U48
 10
0.0
 20
0.0
 30
0.0
  0
INSERT
  5
1FC
330
1F44
100
AcDbEntity
  8
0
100
AcDbBlockReference
  2
*U49
 10
0.0
 20
0.0
 30
0.0
  0
INSERT
  5
1FD
330
1F44
100
AcDbEntity
  8
0
100
AcDbBlockReference
  2
*U50
 10
0.0
 20
0.0
 30
0.0
  0
INSERT
  5
1FE
330
1F44
100
AcDbEntity
  8
0
100
AcDbBlockReference
  2
*U51
 10
0.0
 20
0.0
 30
0.0
  0
INSERT
  5
1FF
330
1F44
100
AcDbEntity
  8
0
100
AcDbBlockReference
  2
*U52
 10
0.0
 20
0.0
 30
0.0
  0
INSERT
  5
200
330
1F44
100
AcDbEntity
  8
0
100
AcDbBlockReference
  2
*U53
 10
0.0
 20
0.0
 30
0.0
  0
INSERT
  5
201
330
1F44
100
AcDbEntity
  8
0
100
AcDbBlockReference
  2
*U54
 10
0.0
 20
0.0
 30
0.0
  0
INSERT
  5
202
330
1F44
100
AcDbEntity
  8
0
100
AcDbBlockReference
  2
*U55
 10
0.0
 20
0.0
 30
0.0
  0
INSERT
  5
203
330
1F44
100
AcDbEntity
  8
0
100
AcDbBlockReference
  2
*U56
 10
0.0
 20
0.0
 30
0.0
  0
INSERT
  5
204
330
1F44
100
AcDbEntity
  8
0
100
AcDbBlockReference
  2
*U57
 10
0.0
 20
0.0
 30
0.0
  0
INSERT
  5
205
330
1F44
100
AcDbEntity
  8
0
100
AcDbBlockReference
  2
*U58
 10
0.0
 20
0.0
 30
0.0
  0
INSERT
  5
206
330
1F44
100
AcDbEntity
  8
0
100
AcDbBlockReference
  2
*U59
 10
0.0
 20
0.0
 30
0.0
  0
INSERT
  5
207
330
1F44
100
AcDbEntity
  8
0
100
AcDbBlockReference
  2
*U60
 10
0.0
 20
0.0
 30
0.0
  0
INSERT
  5
208
330
1F44
100
AcDbEntity
  8
0
100
AcDbBlockReference
  2
*U61
 10
0.0
 20
0.0
 30
0.0
  0
INSERT
  5
209
330
1F44
100
AcDbEntity
  8
0
100
AcDbBlockReference
  2
*U62
 10
0.0
 20
0.0
 30
0.0
  0
INSERT
  5
20A
330
1F44
100
AcDbEntity
  8
0
100
AcDbBlockReference
  2
*U63
 10
0.0
 20
0.0
 30
0.0
  0
INSERT
  5
20B
330
1F44
100
AcDbEntity
  8
0
100
AcDbBlockReference
  2
*U64
 10
0.0
 20
0.0
 30
0.0
  0
INSERT
  5
20C
330
1F44
100
AcDbEntity
  8
0
100
AcDbBlockReference
  2
*U65
 10
0.0
 20
0.0
 30
0.0
  0
INSERT
  5
20D
330
1F44
100
AcDbEntity
  8
0
100
AcDbBlockReference
  2
*U66
 10
0.0
 20
0.0
 30
0.0
  0
INSERT
  5
20E
330
1F44
100
AcDbEntity
  8
0
100
AcDbBlockReference
  2
*U67
 10
0.0
 20
0.0
 30
0.0
  0
INSERT
  5
20F
330
1F44
100
AcDbEntity
  8
0
100
AcDbBlockReference
  2
*U68
 10
0.0
 20
0.0
 30
0.0
  0
INSERT
  5
210
330
1F44
100
AcDbEntity
  8
0
100
AcDbBlockReference
  2
*U69
 10
0.0
 20
0.0
 30
0.0
  0
INSERT
  5
211
330
1F44
100
AcDbEntity
  8
0
100
AcDbBlockReference
  2
*U70
 10
0.0
 20
0.0
 30
0.0
  0
INSERT
  5
212
330
1F44
100
AcDbEntity
  8
0
100
AcDbBlockReference
  2
*U71
 10
0.0
 20
0.0
 30
0.0
  0
INSERT
  5
213
330
1F44
100
AcDbEntity
  8
0
100
AcDbBlockReference
  2
*U72
 10
0.0
 20
0.0
 30
0.0
  0
INSERT
  5
214
330
1F44
100
AcDbEntity
  8
0
100
AcDbBlockReference
  2
*U73
 10
0.0
 20
0.0
 30
0.0
  0
INSERT
  5
215
330
1F44
100
AcDbEntity
  8
0
100
AcDbBlockReference
  2
*U74
 10
0.0
 20
0.0
 30
0.0
  0
INSERT
  5
216
330
1F44
100
AcDbEntity
  8
0
100
AcDbBlockReference
  2
*U75
 10
0.0
 20
0.0
 30
0.0
  0
INSERT
  5
217
330
1F44
100
AcDbEntity
  8
0
100
AcDbBlockReference
  2
*U76
 10
0.0
 20
0.0
 30
0.0
  0
INSERT
  5
218
330
1F44
100
AcDbEntity
  8
0
100
AcDbBlockReference
  2
*U77
 10
0.0
 20
0.0
 30
0.0
  0
INSERT
  5
219
330
1F44
100
AcDbEntity
  8
0
100
AcDbBlockReference
  2
*U78
 10
0.0
 20
0.0
 30
0.0
  0
INSERT
  5
21A
330
1F44
100
AcDbEntity
  8
0
100
AcDbBlockReference
  2
*U79
 10
0.0
 20
0.0
 30
0.0
  0
INSERT
  5
21B
330
1F44
100
AcDbEntity
  8
0
100
AcDbBlockReference
  2
*U80
 10
0.0
 20
0.0
 30
0.0
  0
INSERT
  5
21C
330
1F44
100
AcDbEntity
  8
0
100
AcDbBlockReference
  2
*U81
 10
0.0
 20
0.0
 30
0.0
  0
INSERT
  5
21D
330
1F44
100
AcDbEntity
  8
0
100
AcDbBlockReference
  2
*U82
 10
0.0
 20
0.0
 30
0.0
  0
INSERT
  5
21E
330
1F44
100
AcDbEntity
  8
0
100
AcDbBlockReference
  2
*U83
 10
0.0
 20
0.0
 30
0.0
  0
INSERT
  5
21F
330
1F44
100
AcDbEntity
  8
0
100
AcDbBlockReference
  2
*U84
 10
0.0
 20
0.0
 30
0.0
  0
INSERT
  5
220
330
1F44
100
AcDbEntity
  8
0
100
AcDbBlockReference
  2
*U85
 10
0.0
 20
0.0
 30
0.0
  0
INSERT
  5
221
330
1F44
100
AcDbEntity
  8
0
100
AcDbBlockReference
  2
*U86
 10
0.0
 20
0.0
 30
0.0
  0
INSERT
  5
222
330
1F44
100
AcDbEntity
  8
0
100
AcDbBlockReference
  2
*U87
 10
0.0
 20
0.0
 30
0.0
  0
INSERT
  5
223
330
1F44
100
AcDbEntity
  8
0
100
AcDbBlockReference
  2
*U88
 10
0.0
 20
0.0
 30
0.0
  0
INSERT
  5
224
330
1F44
100
AcDbEntity
  8
0
100
AcDbBlockReference
  2
*U89
 10
0.0
 20
0.0
 30
0.0
  0
INSERT
  5
225
330
1F44
100
AcDbEntity
  8
0
100
AcDbBlockReference
  2
*U90
 10
0.0
 20
0.0
 30
0.0
  0
INSERT
  5
226
330
1F44
100
AcDbEntity
  8
0
100
AcDbBlockReference
  2
*U91
 10
0.0
 20
0.0
 30
0.0
  0
INSERT
  5
227
330
1F44
100
AcDbEntity
  8
0
100
AcDbBlockReference
  2
*U92
 10
0.0
 20
0.0
 30
0.0
  0
INSERT
  5
228
330
1F44
100
AcDbEntity
  8
0
100
AcDbBlockReference
  2
*U93
 10
0.0
 20
0.0
 30
0.0
  0
INSERT
  5
229
330
1F44
100
AcDbEntity
  8
0
100
AcDbBlockReference
  2
*U94
 10
0.0
 20
0.0
 30
0.0
  0
INSERT
  5
22A
330
1F44
100
AcDbEntity
  8
0
100
AcDbBlockReference
  2
*U95
 10
0.0
 20
0.0
 30
0.0
  0
INSERT
  5
22B
330
1F44
100
AcDbEntity
  8
0
100
AcDbBlockReference
  2
*U96
 10
0.0
 20
0.0
 30
0.0
  0
INSERT
  5
22C
330
1F44
100
AcDbEntity
  8
0
100
AcDbBlockReference
  2
*U97
 10
0.0
 20
0.0
 30
0.0
  0
INSERT
  5
22D
330
1F44
100
AcDbEntity
  8
0
100
AcDbBlockReference
  2
*U98
 10
0.0
 20
0.0
 30
0.0
  0
INSERT
  5
22E
330
1F44
100
AcDbEntity
  8
0
100
AcDbBlockReference
  2
*U99
 10
0.0
 20
0.0
 30
0.0
  0
INSERT
  5
22F
330
1F44
100
AcDbEntity
  8
0
100
AcDbBlockReference
  2
*U100
 10
0.0
 20
0.0
 30
0.0
  0
INSERT
  5
230
330
1F44
100
AcDbEntity
  8
0
100
AcDbBlockReference
  2
*U101
 10
0.0
 20
0.0
 30
0.0
  0
INSERT
  5
231
330
1F44
100
AcDbEntity
  8
0
100
AcDbBlockReference
  2
*U102
 10
0.0
 20
0.0
 30
0.0
  0
INSERT
  5
232
330
1F44
100
AcDbEntity
  8
0
100
AcDbBlockReference
  2
*U103
 10
0.0
 20
0.0
 30
0.0
  0
INSERT
  5
233
330
1F44
100
AcDbEntity
  8
0
100
AcDbBlockReference
  2
*U104
 10
0.0
 20
0.0
 30
0.0
  0
ENDBLK
  5
1AF
330
1F44
100
AcDbEntity
  8
0
100
AcDbBlockEnd
  0
BLOCK
  5
1F45
330
1F46
100
AcDbEntity
  8
0
100
AcDbBlockBegin
  2
*U8
 70
     1
 10
0.0
 20
0.0
 30
0.0
  3
*U8
  1

  0
TEXT
  5
1B75
330
1F46
100
AcDbEntity
  8
0
 62
     0
100
AcDbText
 10
61.92190384574914
 20
-2.792952731871563
 30
-0.0000000000012222
 40
2.645833333333333
  1
Medžiagø specifikacija
 41
0.6630000000000001
  7
SLDTEXTSTYLE4
100
AcDbText
  0
ENDBLK
  5
1B77
330
1F46
100
AcDbEntity
  8
0
100
AcDbBlockEnd
  0
BLOCK
  5
1F47
330
1F48
100
AcDbEntity
  8
0
100
AcDbBlockBegin
  2
*U9
 70
     1
 10
0.0
 20
0.0
 30
0.0
  3
*U9
  1

  0
TEXT
  5
1B79
330
1F48
100
AcDbEntity
  8
0
 62
     0
100
AcDbText
 10
4.615741234272718
 20
-8.14461933458742
 30
-0.0000000000012222
 40
2.645833333333333
  1
Eil.Nr.
 41
0.6630000000000001
  7
SLDTEXTSTYLE3
100
AcDbText
  0
ENDBLK
  5
1B7B
330
1F48
100
AcDbEntity
  8
0
100
AcDbBlockEnd
  0
BLOCK
  5
1F49
330
1F4A
100
AcDbEntity
  8
0
100
AcDbBlockBegin
  2
*U10
 70
     1
 10
0.0
 20
0.0
 30
0.0
  3
*U10
  1

  0
TEXT
  5
1B7D
330
1F4A
100
AcDbEntity
  8
0
 62
     0
100
AcDbText
 10
28.31626593855841
 20
-8.14461933458742
 30
-0.0000000000012222
 40
2.645833333333333
  1
Pavadinimas
 41
0.6630000000000001
  7
SLDTEXTSTYLE3
100
AcDbText
  0
ENDBLK
  5
1B7F
330
1F4A
100
AcDbEntity
  8
0
100
AcDbBlockEnd
  0
BLOCK
  5
1F4B
330
1F4C
100
AcDbEntity
  8
0
100
AcDbBlockBegin
  2
*U11
 70
     1
 10
0.0
 20
0.0
 30
0.0
  3
*U11
  1

  0
TEXT
  5
1B81
330
1F4C
100
AcDbEntity
  8
0
 62
     0
100
AcDbText
 10
59.39986118101924
 20
-8.14461933458742
 30
-0.0000000000012222
 40
2.645833333333333
  1
Kodas/Gamintojas
 41
0.6630000000000001
  7
SLDTEXTSTYLE3
100
AcDbText
  0
ENDBLK
  5
1B83
330
1F4C
100
AcDbEntity
  8
0
100
AcDbBlockEnd
  0
BLOCK
  5
1F4D
330
1F4E
100
AcDbEntity
  8
0
100
AcDbBlockBegin
  2
*U12
 70
     1
 10
0.0
 20
0.0
 30
0.0
  3
*U12
  1

  0
TEXT
  5
1B85
330
1F4E
100
AcDbEntity
  8
0
 62
     0
100
AcDbText
 10
93.74998115266881
 20
-8.14461933458742
 30
-0.0000000000012222
 40
2.645833333333333
  1
Medžiaga
 41
0.6630000000000001
  7
SLDTEXTSTYLE4
100
AcDbText
  0
ENDBLK
  5
1B87
330
1F4E
100
AcDbEntity
  8
0
100
AcDbBlockEnd
  0
BLOCK
  5
1F4F
330
1F50
100
AcDbEntity
  8
0
100
AcDbBlockBegin
  2
*U13
 70
     1
 10
0.0
 20
0.0
 30
0.0
  3
*U13
  1

  0
TEXT
  5
1B89
330
1F50
100
AcDbEntity
  8
0
 62
     0
100
AcDbText
 10
112.877001117774
 20
-6.380730467015468
 30
-0.0000000000012222
 40
2.645833333333333
  1
Storis 
 41
0.6630000000000001
  7
SLDTEXTSTYLE3
100
AcDbText
  0
ENDBLK
  5
1B8B
330
1F50
100
AcDbEntity
  8
0
100
AcDbBlockEnd
  0
BLOCK
  5
1F51
330
1F52
100
AcDbEntity
  8
0
100
AcDbBlockBegin
  2
*U14
 70
     1
 10
0.0
 20
0.0
 30
0.0
  3
*U14
  1

  0
TEXT
  5
1B8D
330
1F52
100
AcDbEntity
  8
0
 62
     0
100
AcDbText
 10
113.0729886403761
 20
-9.908508202159368
 30
-0.0000000000012222
 40
2.645833333333333
  1
(mm)
 41
0.6630000000000001
  7
SLDTEXTSTYLE3
100
AcDbText
  0
ENDBLK
  5
1B8F
330
1F52
100
AcDbEntity
  8
0
100
AcDbBlockEnd
  0
BLOCK
  5
1F53
330
1F54
100
AcDbEntity
  8
0
100
AcDbBlockBegin
  2
*U15
 70
     1
 10
0.0
 20
0.0
 30
0.0
  3
*U15
  1

  0
TEXT
  5
1B91
330
1F54
100
AcDbEntity
  8
0
 62
     0
100
AcDbText
 10
122.3339495295549
 20
-6.380730467015468
 30
-0.0000000000012222
 40
2.645833333333333
  1
Kiekis 
 41
0.6630000000000001
  7
SLDTEXTSTYLE3
100
AcDbText
  0
ENDBLK
  5
1B93
330
1F54
100
AcDbEntity
  8
0
100
AcDbBlockEnd
  0
BLOCK
  5
1F55
330
1F56
100
AcDbEntity
  8
0
100
AcDbBlockBegin
  2
*U16
 70
     1
 10
0.0
 20
0.0
 30
0.0
  3
*U16
  1

  0
TEXT
  5
1B95
330
1F56
100
AcDbEntity
  8
0
 62
     0
100
AcDbText
 10
123.50987559649
 20
-9.908508202159368
 30
-0.0000000000012222
 40
2.645833333333333
  1
(vnt)
 41
0.6630000000000001
  7
SLDTEXTSTYLE3
100
AcDbText
  0
ENDBLK
  5
1B97
330
1F56
100
AcDbEntity
  8
0
100
AcDbBlockEnd
  0
BLOCK
  5
1F57
330
1F58
100
AcDbEntity
  8
0
100
AcDbBlockBegin
  2
*U17
 70
     1
 10
0.0
 20
0.0
 30
0.0
  3
*U17
  1

  0
TEXT
  5
1B99
330
1F58
100
AcDbEntity
  8
0
 62
     0
100
AcDbText
 10
133.9372118159583
 20
-6.380730467015468
 30
-0.0000000000012222
 40
2.645833333333333
  1
Bendras plotas 
 41
0.6630000000000001
  7
SLDTEXTSTYLE3
100
AcDbText
  0
ENDBLK
  5
1B9B
330
1F58
100
AcDbEntity
  8
0
100
AcDbBlockEnd
  0
BLOCK
  5
1F59
330
1F5A
100
AcDbEntity
  8
0
100
AcDbBlockBegin
  2
*U18
 70
     1
 10
0.0
 20
0.0
 30
0.0
  3
*U18
  1

  0
TEXT
  5
1B9D
330
1F5A
100
AcDbEntity
  8
0
 62
     0
100
AcDbText
 10
140.1157231226018
 20
-9.908508202159368
 30
-0.0000000000012222
 40
2.645833333333333
  1
(m^ 2)
 41
0.6630000000000001
  7
SLDTEXTSTYLE3
100
AcDbText
  0
ENDBLK
  5
1B9F
330
1F5A
100
AcDbEntity
  8
0
100
AcDbBlockEnd
  0
BLOCK
  5
1F5B
330
1F5C
100
AcDbEntity
  8
0
100
AcDbBlockBegin
  2
*U19
 70
     1
 10
0.0
 20
0.0
 30
0.0
  3
*U19
  1

  0
TEXT
  5
1BA1
330
1F5C
100
AcDbEntity
  8
0
 62
     0
100
AcDbText
 10
8.535494305659086
 20
-14.01503047129156
 30
-0.0000000000012222
 40
2.645833333333333
  1
1
 41
0.6630000000000001
  7
SLDTEXTSTYLE3
100
AcDbText
  0
ENDBLK
  5
1BA3
330
1F5C
100
AcDbEntity
  8
0
100
AcDbBlockEnd
  0
BLOCK
  5
1F5D
330
1F5E
100
AcDbEntity
  8
0
100
AcDbBlockBegin
  2
*U20
 70
     1
 10
0.0
 20
0.0
 30
0.0
  3
*U20
  1

  0
TEXT
  5
1BA5
330
1F5E
100
AcDbEntity
  8
0
 62
     0
100
AcDbText
 10
31.94203696934206
 20
-14.01503047129156
 30
-0.0000000000012222
 40
2.645833333333333
  1
Dugnas
 41
0.6630000000000001
  7
SLDTEXTSTYLE3
100
AcDbText
  0
ENDBLK
  5
1BA7
330
1F5E
100
AcDbEntity
  8
0
100
AcDbBlockEnd
  0
BLOCK
  5
1F5F
330
1F60
100
AcDbEntity
  8
0
100
AcDbBlockBegin
  2
*U21
 70
     1
 10
0.0
 20
0.0
 30
0.0
  3
*U21
  1

  0
TEXT
  5
1BA9
330
1F60
100
AcDbEntity
  8
0
 62
     0
100
AcDbText
 10
64.5935342552647
 20
-14.01503047129156
 30
-0.0000000000012222
 40
2.645833333333333
  1
26.64.0.0.1
 41
0.6630000000000001
  7
SLDTEXTSTYLE3
100
AcDbText
  0
ENDBLK
  5
1BAB
330
1F60
100
AcDbEntity
  8
0
100
AcDbBlockEnd
  0
BLOCK
  5
1F61
330
1F62
100
AcDbEntity
  8
0
100
AcDbBlockBegin
  2
*U22
 70
     1
 10
0.0
 20
0.0
 30
0.0
  3
*U22
  1

  0
TEXT
  5
1BAD
330
1F62
100
AcDbEntity
  8
0
 62
     0
100
AcDbText
 10
89.9625176217707
 20
-14.01503047129156
 30
-0.0000000000012222
 40
2.645833333333333
  1
DX51 D+Z275
 41
0.6630000000000001
  7
SLDTEXTSTYLE3
100
AcDbText
  0
ENDBLK
  5
1BAF
330
1F62
100
AcDbEntity
  8
0
100
AcDbBlockEnd
  0
BLOCK
  5
1F63
330
1F64
100
AcDbEntity
  8
0
100
AcDbBlockBegin
  2
*U23
 70
     1
 10
0.0
 20
0.0
 30
0.0
  3
*U23
  1

  0
TEXT
  5
1BB1
330
1F64
100
AcDbEntity
  8
0
 62
     0
100
AcDbText
 10
116.1107973943918
 20
-14.01503047129156
 30
-0.0000000000012222
 40
2.645833333333333
  1
1
 41
0.6630000000000001
  7
SLDTEXTSTYLE3
100
AcDbText
  0
ENDBLK
  5
1BB3
330
1F64
100
AcDbEntity
  8
0
100
AcDbBlockEnd
  0
BLOCK
  5
1F65
330
1F66
100
AcDbEntity
  8
0
100
AcDbBlockBegin
  2
*U24
 70
     1
 10
0.0
 20
0.0
 30
0.0
  3
*U24
  1

  0
TEXT
  5
1BB5
330
1F66
100
AcDbEntity
  8
0
 62
     0
100
AcDbText
 10
126.0577150783392
 20
-14.01503047129156
 30
-0.0000000000012222
 40
2.645833333333333
  1
1
 41
0.6630000000000001
  7
SLDTEXTSTYLE3
100
AcDbText
  0
ENDBLK
  5
1BB7
330
1F66
100
AcDbEntity
  8
0
100
AcDbBlockEnd
  0
BLOCK
  5
1F67
330
1F68
100
AcDbEntity
  8
0
100
AcDbBlockBegin
  2
*U25
 70
     1
 10
0.0
 20
0.0
 30
0.0
  3
*U25
  1

  0
TEXT
  5
1BB9
330
1F68
100
AcDbEntity
  8
0
 62
     0
100
AcDbText
 10
141.2867490358104
 20
-14.01503047129156
 30
-0.0000000000012222
 40
2.645833333333333
  1
0,32
 41
0.6630000000000001
  7
SLDTEXTSTYLE3
100
AcDbText
  0
ENDBLK
  5
1BBB
330
1F68
100
AcDbEntity
  8
0
100
AcDbBlockEnd
  0
BLOCK
  5
1F69
330
1F6A
100
AcDbEntity
  8
0
100
AcDbBlockBegin
  2
*U26
 70
     1
 10
0.0
 20
0.0
 30
0.0
  3
*U26
  1

  0
TEXT
  5
1BBD
330
1F6A
100
AcDbEntity
  8
0
 62
     0
100
AcDbText
 10
8.535494305659086
 20
-18.64029727441203
 30
-0.0000000000012222
 40
2.645833333333333
  1
2
 41
0.6630000000000001
  7
SLDTEXTSTYLE3
100
AcDbText
  0
ENDBLK
  5
1BBF
330
1F6A
100
AcDbEntity
  8
0
100
AcDbBlockEnd
  0
BLOCK
  5
1F6B
330
1F6C
100
AcDbEntity
  8
0
100
AcDbBlockBegin
  2
*U27
 70
     1
 10
0.0
 20
0.0
 30
0.0
  3
*U27
  1

  0
TEXT
  5
1BC1
330
1F6C
100
AcDbEntity
  8
0
 62
     0
100
AcDbText
 10
23.1225910016678
 20
-18.64029727441203
 30
-0.0000000000012222
 40
2.645833333333333
  1
Šonas dešinës puses
 41
0.6630000000000001
  7
SLDTEXTSTYLE4
100
AcDbText
  0
ENDBLK
  5
1BC3
330
1F6C
100
AcDbEntity
  8
0
100
AcDbBlockEnd
  0
BLOCK
  5
1F6D
330
1F6E
100
AcDbEntity
  8
0
100
AcDbBlockBegin
  2
*U28
 70
     1
 10
0.0
 20
0.0
 30
0.0
  3
*U28
  1

  0
TEXT
  5
1BC5
330
1F6E
100
AcDbEntity
  8
0
 62
     0
100
AcDbText
 10
62.24168212139457
 20
-18.64029727441203
 30
-0.0000000000012222
 40
2.645833333333333
  1
26.64.0.0.2-1k
 41
0.6630000000000001
  7
SLDTEXTSTYLE3
100
AcDbText
  0
ENDBLK
  5
1BC7
330
1F6E
100
AcDbEntity
  8
0
100
AcDbBlockEnd
  0
BLOCK
  5
1F6F
330
1F70
100
AcDbEntity
  8
0
100
AcDbBlockBegin
  2
*U29
 70
     1
 10
0.0
 20
0.0
 30
0.0
  3
*U29
  1

  0
TEXT
  5
1BC9
330
1F70
100
AcDbEntity
  8
0
 62
     0
100
AcDbText
 10
89.9625176217707
 20
-18.64029727441203
 30
-0.0000000000012222
 40
2.645833333333333
  1
DX51 D+Z275
 41
0.6630000000000001
  7
SLDTEXTSTYLE3
100
AcDbText
  0
ENDBLK
  5
1BCB
330
1F70
100
AcDbEntity
  8
0
100
AcDbBlockEnd
  0
BLOCK
  5
1F71
330
1F72
100
AcDbEntity
  8
0
100
AcDbBlockBegin
  2
*U30
 70
     1
 10
0.0
 20
0.0
 30
0.0
  3
*U30
  1

  0
TEXT
  5
1BCD
330
1F72
100
AcDbEntity
  8
0
 62
     0
100
AcDbText
 10
116.1107973943918
 20
-18.64029727441203
 30
-0.0000000000012222
 40
2.645833333333333
  1
1
 41
0.6630000000000001
  7
SLDTEXTSTYLE3
100
AcDbText
  0
ENDBLK
  5
1BCF
330
1F72
100
AcDbEntity
  8
0
100
AcDbBlockEnd
  0
BLOCK
  5
1F73
330
1F74
100
AcDbEntity
  8
0
100
AcDbBlockBegin
  2
*U31
 70
     1
 10
0.0
 20
0.0
 30
0.0
  3
*U31
  1

  0
TEXT
  5
1BD1
330
1F74
100
AcDbEntity
  8
0
 62
     0
100
AcDbText
 10
126.0577150783392
 20
-18.64029727441203
 30
-0.0000000000012222
 40
2.645833333333333
  1
1
 41
0.6630000000000001
  7
SLDTEXTSTYLE3
100
AcDbText
  0
ENDBLK
  5
1BD3
330
1F74
100
AcDbEntity
  8
0
100
AcDbBlockEnd
  0
BLOCK
  5
1F75
330
1F76
100
AcDbEntity
  8
0
100
AcDbBlockBegin
  2
*U32
 70
     1
 10
0.0
 20
0.0
 30
0.0
  3
*U32
  1

  0
TEXT
  5
1BD5
330
1F76
100
AcDbEntity
  8
0
 62
     0
100
AcDbText
 10
140.4048047184399
 20
-18.64029727441203
 30
-0.0000000000012222
 40
2.645833333333333
  1
0,198
 41
0.6630000000000001
  7
SLDTEXTSTYLE3
100
AcDbText
  0
ENDBLK
  5
1BD7
330
1F76
100
AcDbEntity
  8
0
100
AcDbBlockEnd
  0
BLOCK
  5
1F77
330
1F78
100
AcDbEntity
  8
0
100
AcDbBlockBegin
  2
*U33
 70
     1
 10
0.0
 20
0.0
 30
0.0
  3
*U33
  1

  0
TEXT
  5
1BD9
330
1F78
100
AcDbEntity
  8
0
 62
     0
100
AcDbText
 10
8.535494305659086
 20
-23.26556407753251
 30
-0.0000000000012222
 40
2.645833333333333
  1
3
 41
0.6630000000000001
  7
SLDTEXTSTYLE3
100
AcDbText
  0
ENDBLK
  5
1BDB
330
1F78
100
AcDbEntity
  8
0
100
AcDbBlockEnd
  0
BLOCK
  5
1F79
330
1F7A
100
AcDbEntity
  8
0
100
AcDbBlockBegin
  2
*U34
 70
     1
 10
0.0
 20
0.0
 30
0.0
  3
*U34
  1

  0
TEXT
  5
1BDD
330
1F7A
100
AcDbEntity
  8
0
 62
     0
100
AcDbText
 10
24.10253047732336
 20
-23.26556407753251
 30
-0.0000000000012222
 40
2.645833333333333
  1
Šonas kairës puses
 41
0.6630000000000001
  7
SLDTEXTSTYLE4
100
AcDbText
  0
ENDBLK
  5
1BDF
330
1F7A
100
AcDbEntity
  8
0
100
AcDbBlockEnd
  0
BLOCK
  5
1F7B
330
1F7C
100
AcDbEntity
  8
0
100
AcDbBlockBegin
  2
*U35
 70
     1
 10
0.0
 20
0.0
 30
0.0
  3
*U35
  1

  0
TEXT
  5
1BE1
330
1F7C
100
AcDbEntity
  8
0
 62
     0
100
AcDbText
 10
62.24168212139457
 20
-23.26556407753251
 30
-0.0000000000012222
 40
2.645833333333333
  1
26.64.0.0.3-1k
 41
0.6630000000000001
  7
SLDTEXTSTYLE3
100
AcDbText
  0
ENDBLK
  5
1BE3
330
1F7C
100
AcDbEntity
  8
0
100
AcDbBlockEnd
  0
BLOCK
  5
1F7D
330
1F7E
100
AcDbEntity
  8
0
100
AcDbBlockBegin
  2
*U36
 70
     1
 10
0.0
 20
0.0
 30
0.0
  3
*U36
  1

  0
TEXT
  5
1BE5
330
1F7E
100
AcDbEntity
  8
0
 62
     0
100
AcDbText
 10
89.9625176217707
 20
-23.26556407753251
 30
-0.0000000000012222
 40
2.645833333333333
  1
DX51 D+Z275
 41
0.6630000000000001
  7
SLDTEXTSTYLE3
100
AcDbText
  0
ENDBLK
  5
1BE7
330
1F7E
100
AcDbEntity
  8
0
100
AcDbBlockEnd
  0
BLOCK
  5
1F7F
330
1F80
100
AcDbEntity
  8
0
100
AcDbBlockBegin
  2
*U37
 70
     1
 10
0.0
 20
0.0
 30
0.0
  3
*U37
  1

  0
TEXT
  5
1BE9
330
1F80
100
AcDbEntity
  8
0
 62
     0
100
AcDbText
 10
116.1107973943918
 20
-23.26556407753251
 30
-0.0000000000012222
 40
2.645833333333333
  1
1
 41
0.6630000000000001
  7
SLDTEXTSTYLE3
100
AcDbText
  0
ENDBLK
  5
1BEB
330
1F80
100
AcDbEntity
  8
0
100
AcDbBlockEnd
  0
BLOCK
  5
1F81
330
1F82
100
AcDbEntity
  8
0
100
AcDbBlockBegin
  2
*U38
 70
     1
 10
0.0
 20
0.0
 30
0.0
  3
*U38
  1

  0
TEXT
  5
1BED
330
1F82
100
AcDbEntity
  8
0
 62
     0
100
AcDbText
 10
126.0577150783392
 20
-23.26556407753251
 30
-0.0000000000012222
 40
2.645833333333333
  1
1
 41
0.6630000000000001
  7
SLDTEXTSTYLE3
100
AcDbText
  0
ENDBLK
  5
1BEF
330
1F82
100
AcDbEntity
  8
0
100
AcDbBlockEnd
  0
BLOCK
  5
1F83
330
1F84
100
AcDbEntity
  8
0
100
AcDbBlockBegin
  2
*U39
 70
     1
 10
0.0
 20
0.0
 30
0.0
  3
*U39
  1

  0
TEXT
  5
1BF1
330
1F84
100
AcDbEntity
  8
0
 62
     0
100
AcDbText
 10
140.4048047184399
 20
-23.26556407753251
 30
-0.0000000000012222
 40
2.645833333333333
  1
0,198
 41
0.6630000000000001
  7
SLDTEXTSTYLE3
100
AcDbText
  0
ENDBLK
  5
1BF3
330
1F84
100
AcDbEntity
  8
0
100
AcDbBlockEnd
  0
BLOCK
  5
1F85
330
1F86
100
AcDbEntity
  8
0
100
AcDbBlockBegin
  2
*U40
 70
     1
 10
0.0
 20
0.0
 30
0.0
  3
*U40
  1

  0
TEXT
  5
1BF5
330
1F86
100
AcDbEntity
  8
0
 62
     0
100
AcDbText
 10
8.535494305659086
 20
-28.22604898316118
 30
-0.0000000000012222
 40
2.645833333333333
  1
4
 41
0.6630000000000001
  7
SLDTEXTSTYLE3
100
AcDbText
  0
ENDBLK
  5
1BF7
330
1F86
100
AcDbEntity
  8
0
100
AcDbBlockEnd
  0
BLOCK
  5
1F87
330
1F88
100
AcDbEntity
  8
0
100
AcDbBlockBegin
  2
*U41
 70
     1
 10
0.0
 20
0.0
 30
0.0
  3
*U41
  1

  0
TEXT
  5
1BF9
330
1F88
100
AcDbEntity
  8
0
 62
     0
100
AcDbText
 10
31.45206769717557
 20
-28.22604898316118
 30
-0.0000000000012222
 40
2.645833333333333
  1
Pertvara
 41
0.6630000000000001
  7
SLDTEXTSTYLE3
100
AcDbText
  0
ENDBLK
  5
1BFB
330
1F88
100
AcDbEntity
  8
0
100
AcDbBlockEnd
  0
BLOCK
  5
1F89
330
1F8A
100
AcDbEntity
  8
0
100
AcDbBlockBegin
  2
*U42
 70
     1
 10
0.0
 20
0.0
 30
0.0
  3
*U42
  1

  0
TEXT
  5
1BFD
330
1F8A
100
AcDbEntity
  8
0
 62
     0
100
AcDbText
 10
62.24168212139457
 20
-28.22604898316118
 30
-0.0000000000012222
 40
2.645833333333333
  1
26.64.0.0.4-1k
 41
0.6630000000000001
  7
SLDTEXTSTYLE3
100
AcDbText
  0
ENDBLK
  5
1BFF
330
1F8A
100
AcDbEntity
  8
0
100
AcDbBlockEnd
  0
BLOCK
  5
1F8B
330
1F8C
100
AcDbEntity
  8
0
100
AcDbBlockBegin
  2
*U43
 70
     1
 10
0.0
 20
0.0
 30
0.0
  3
*U43
  1

  0
TEXT
  5
1C01
330
1F8C
100
AcDbEntity
  8
0
 62
     0
100
AcDbText
 10
89.9625176217707
 20
-28.22604898316118
 30
-0.0000000000012222
 40
2.645833333333333
  1
DX54 D+Z275
 41
0.6630000000000001
  7
SLDTEXTSTYLE3
100
AcDbText
  0
ENDBLK
  5
1C03
330
1F8C
100
AcDbEntity
  8
0
100
AcDbBlockEnd
  0
BLOCK
  5
1F8D
330
1F8E
100
AcDbEntity
  8
0
100
AcDbBlockBegin
  2
*U44
 70
     1
 10
0.0
 20
0.0
 30
0.0
  3
*U44
  1

  0
TEXT
  5
1C05
330
1F8E
100
AcDbEntity
  8
0
 62
     0
100
AcDbText
 10
116.1107973943918
 20
-28.22604898316118
 30
-0.0000000000012222
 40
2.645833333333333
  1
1
 41
0.6630000000000001
  7
SLDTEXTSTYLE3
100
AcDbText
  0
ENDBLK
  5
1C07
330
1F8E
100
AcDbEntity
  8
0
100
AcDbBlockEnd
  0
BLOCK
  5
1F8F
330
1F90
100
AcDbEntity
  8
0
100
AcDbBlockBegin
  2
*U45
 70
     1
 10
0.0
 20
0.0
 30
0.0
  3
*U45
  1

  0
TEXT
  5
1C09
330
1F90
100
AcDbEntity
  8
0
 62
     0
100
AcDbText
 10
126.0577150783392
 20
-28.22604898316118
 30
-0.0000000000012222
 40
2.645833333333333
  1
1
 41
0.6630000000000001
  7
SLDTEXTSTYLE3
100
AcDbText
  0
ENDBLK
  5
1C0B
330
1F90
100
AcDbEntity
  8
0
100
AcDbBlockEnd
  0
BLOCK
  5
1F91
330
1F92
100
AcDbEntity
  8
0
100
AcDbBlockBegin
  2
*U46
 70
     1
 10
0.0
 20
0.0
 30
0.0
  3
*U46
  1

  0
TEXT
  5
1C0D
330
1F92
100
AcDbEntity
  8
0
 62
     0
100
AcDbText
 10
142.1686935860118
 20
-28.22604898316118
 30
-0.0000000000012222
 40
2.645833333333333
  1
0,4
 41
0.6630000000000001
  7
SLDTEXTSTYLE3
100
AcDbText
  0
ENDBLK
  5
1C0F
330
1F92
100
AcDbEntity
  8
0
100
AcDbBlockEnd
  0
BLOCK
  5
1F93
330
1F94
100
AcDbEntity
  8
0
100
AcDbBlockBegin
  2
*U47
 70
     1
 10
0.0
 20
0.0
 30
0.0
  3
*U47
  1

  0
TEXT
  5
1C11
330
1F94
100
AcDbEntity
  8
0
 62
     0
100
AcDbText
 10
8.535494305659086
 20
-32.51609768377345
 30
-0.0000000000012222
 40
2.645833333333333
  1
5
 41
0.6630000000000001
  7
SLDTEXTSTYLE3
100
AcDbText
  0
ENDBLK
  5
1C13
330
1F94
100
AcDbEntity
  8
0
100
AcDbBlockEnd
  0
BLOCK
  5
1F95
330
1F96
100
AcDbEntity
  8
0
100
AcDbBlockBegin
  2
*U48
 70
     1
 10
0.0
 20
0.0
 30
0.0
  3
*U48
  1

  0
TEXT
  5
1C15
330
1F96
100
AcDbEntity
  8
0
 62
     0
100
AcDbText
 10
32.82398128671272
 20
-32.51609768377345
 30
-0.0000000000012222
 40
2.645833333333333
  1
Sraigë
 41
0.6630000000000001
  7
SLDTEXTSTYLE4
100
AcDbText
  0
ENDBLK
  5
1C17
330
1F96
100
AcDbEntity
  8
0
100
AcDbBlockEnd
  0
BLOCK
  5
1F97
330
1F98
100
AcDbEntity
  8
0
100
AcDbBlockBegin
  2
*U49
 70
     1
 10
0.0
 20
0.0
 30
0.0
  3
*U49
  1

  0
TEXT
  5
1C19
330
1F98
100
AcDbEntity
  8
0
 62
     0
100
AcDbText
 10
62.24168212139457
 20
-32.51609768377345
 30
-0.0000000000012222
 40
2.645833333333333
  1
26.64.0.0.5-2k
 41
0.6630000000000001
  7
SLDTEXTSTYLE3
100
AcDbText
  0
ENDBLK
  5
1C1B
330
1F98
100
AcDbEntity
  8
0
100
AcDbBlockEnd
  0
BLOCK
  5
1F99
330
1F9A
100
AcDbEntity
  8
0
100
AcDbBlockBegin
  2
*U50
 70
     1
 10
0.0
 20
0.0
 30
0.0
  3
*U50
  1

  0
TEXT
  5
1C1D
330
1F9A
100
AcDbEntity
  8
0
 62
     0
100
AcDbText
 10
89.9625176217707
 20
-32.51609768377345
 30
-0.0000000000012222
 40
2.645833333333333
  1
DX51 D+Z275
 41
0.6630000000000001
  7
SLDTEXTSTYLE3
100
AcDbText
  0
ENDBLK
  5
1C1F
330
1F9A
100
AcDbEntity
  8
0
100
AcDbBlockEnd
  0
BLOCK
  5
1F9B
330
1F9C
100
AcDbEntity
  8
0
100
AcDbBlockBegin
  2
*U51
 70
     1
 10
0.0
 20
0.0
 30
0.0
  3
*U51
  1

  0
TEXT
  5
1C21
330
1F9C
100
AcDbEntity
  8
0
 62
     0
100
AcDbText
 10
114.7878806272975
 20
-32.51609768377345
 30
-0.0000000000012222
 40
2.645833333333333
  1
0,7
 41
0.6630000000000001
  7
SLDTEXTSTYLE3
100
AcDbText
  0
ENDBLK
  5
1C23
330
1F9C
100
AcDbEntity
  8
0
100
AcDbBlockEnd
  0
BLOCK
  5
1F9D
330
1F9E
100
AcDbEntity
  8
0
100
AcDbBlockBegin
  2
*U52
 70
     1
 10
0.0
 20
0.0
 30
0.0
  3
*U52
  1

  0
TEXT
  5
1C25
330
1F9E
100
AcDbEntity
  8
0
 62
     0
100
AcDbText
 10
126.0577150783392
 20
-32.51609768377345
 30
-0.0000000000012222
 40
2.645833333333333
  1
1
 41
0.6630000000000001
  7
SLDTEXTSTYLE3
100
AcDbText
  0
ENDBLK
  5
1C27
330
1F9E
100
AcDbEntity
  8
0
100
AcDbBlockEnd
  0
BLOCK
  5
1F9F
330
1FA0
100
AcDbEntity
  8
0
100
AcDbBlockBegin
  2
*U53
 70
     1
 10
0.0
 20
0.0
 30
0.0
  3
*U53
  1

  0
TEXT
  5
1C29
330
1FA0
100
AcDbEntity
  8
0
 62
     0
100
AcDbText
 10
142.1686935860118
 20
-32.51609768377345
 30
-0.0000000000012222
 40
2.645833333333333
  1
0,2
 41
0.6630000000000001
  7
SLDTEXTSTYLE3
100
AcDbText
  0
ENDBLK
  5
1C2B
330
1FA0
100
AcDbEntity
  8
0
100
AcDbBlockEnd
  0
BLOCK
  5
1FA1
330
1FA2
100
AcDbEntity
  8
0
100
AcDbBlockBegin
  2
*U54
 70
     1
 10
0.0
 20
0.0
 30
0.0
  3
*U54
  1

  0
TEXT
  5
1C2D
330
1FA2
100
AcDbEntity
  8
0
 62
     0
100
AcDbText
 10
8.535494305659086
 20
-37.47658258940215
 30
-0.0000000000012222
 40
2.645833333333333
  1
6
 41
0.6630000000000001
  7
SLDTEXTSTYLE3
100
AcDbText
  0
ENDBLK
  5
1C2F
330
1FA2
100
AcDbEntity
  8
0
100
AcDbBlockEnd
  0
BLOCK
  5
1FA3
330
1FA4
100
AcDbEntity
  8
0
100
AcDbBlockBegin
  2
*U55
 70
     1
 10
0.0
 20
0.0
 30
0.0
  3
*U55
  1

  0
TEXT
  5
1C31
330
1FA4
100
AcDbEntity
  8
0
 62
     0
100
AcDbText
 10
32.72598752541167
 20
-37.47658258940215
 30
-0.0000000000012222
 40
2.645833333333333
  1
Viršus
 41
0.6630000000000001
  7
SLDTEXTSTYLE4
100
AcDbText
  0
ENDBLK
  5
1C33
330
1FA4
100
AcDbEntity
  8
0
100
AcDbBlockEnd
  0
BLOCK
  5
1FA5
330
1FA6
100
AcDbEntity
  8
0
100
AcDbBlockBegin
  2
*U56
 70
     1
 10
0.0
 20
0.0
 30
0.0
  3
*U56
  1

  0
TEXT
  5
1C35
330
1FA6
100
AcDbEntity
  8
0
 62
     0
100
AcDbText
 10
62.24168212139457
 20
-37.47658258940215
 30
-0.0000000000012222
 40
2.645833333333333
  1
26.64.0.0.6-1k
 41
0.6630000000000001
  7
SLDTEXTSTYLE3
100
AcDbText
  0
ENDBLK
  5
1C37
330
1FA6
100
AcDbEntity
  8
0
100
AcDbBlockEnd
  0
BLOCK
  5
1FA7
330
1FA8
100
AcDbEntity
  8
0
100
AcDbBlockBegin
  2
*U57
 70
     1
 10
0.0
 20
0.0
 30
0.0
  3
*U57
  1

  0
TEXT
  5
1C39
330
1FA8
100
AcDbEntity
  8
0
 62
     0
100
AcDbText
 10
89.9625176217707
 20
-37.47658258940215
 30
-0.0000000000012222
 40
2.645833333333333
  1
DX51 D+Z275
 41
0.6630000000000001
  7
SLDTEXTSTYLE3
100
AcDbText
  0
ENDBLK
  5
1C3B
330
1FA8
100
AcDbEntity
  8
0
100
AcDbBlockEnd
  0
BLOCK
  5
1FA9
330
1FAA
100
AcDbEntity
  8
0
100
AcDbBlockBegin
  2
*U58
 70
     1
 10
0.0
 20
0.0
 30
0.0
  3
*U58
  1

  0
TEXT
  5
1C3D
330
1FAA
100
AcDbEntity
  8
0
 62
     0
100
AcDbText
 10
116.1107973943918
 20
-37.47658258940215
 30
-0.0000000000012222
 40
2.645833333333333
  1
1
 41
0.6630000000000001
  7
SLDTEXTSTYLE3
100
AcDbText
  0
ENDBLK
  5
1C3F
330
1FAA
100
AcDbEntity
  8
0
100
AcDbBlockEnd
  0
BLOCK
  5
1FAB
330
1FAC
100
AcDbEntity
  8
0
100
AcDbBlockBegin
  2
*U59
 70
     1
 10
0.0
 20
0.0
 30
0.0
  3
*U59
  1

  0
TEXT
  5
1C41
330
1FAC
100
AcDbEntity
  8
0
 62
     0
100
AcDbText
 10
126.0577150783392
 20
-37.47658258940215
 30
-0.0000000000012222
 40
2.645833333333333
  1
1
 41
0.6630000000000001
  7
SLDTEXTSTYLE3
100
AcDbText
  0
ENDBLK
  5
1C43
330
1FAC
100
AcDbEntity
  8
0
100
AcDbBlockEnd
  0
BLOCK
  5
1FAD
330
1FAE
100
AcDbEntity
  8
0
100
AcDbBlockBegin
  2
*U60
 70
     1
 10
0.0
 20
0.0
 30
0.0
  3
*U60
  1

  0
TEXT
  5
1C45
330
1FAE
100
AcDbEntity
  8
0
 62
     0
100
AcDbText
 10
141.2867490358104
 20
-37.47658258940215
 30
-0.0000000000012222
 40
2.645833333333333
  1
0,32
 41
0.6630000000000001
  7
SLDTEXTSTYLE3
100
AcDbText
  0
ENDBLK
  5
1C47
330
1FAE
100
AcDbEntity
  8
0
100
AcDbBlockEnd
  0
BLOCK
  5
1FAF
330
1FB0
100
AcDbEntity
  8
0
100
AcDbBlockBegin
  2
*U61
 70
     1
 10
0.0
 20
0.0
 30
0.0
  3
*U61
  1

  0
TEXT
  5
1C49
330
1FB0
100
AcDbEntity
  8
0
 62
     0
100
AcDbText
 10
8.535494305659086
 20
-41.7666312900144
 30
-0.0000000000012222
 40
2.645833333333333
  1
7
 41
0.6630000000000001
  7
SLDTEXTSTYLE3
100
AcDbText
  0
ENDBLK
  5
1C4B
330
1FB0
100
AcDbEntity
  8
0
100
AcDbBlockEnd
  0
BLOCK
  5
1FB1
330
1FB2
100
AcDbEntity
  8
0
100
AcDbBlockBegin
  2
*U62
 70
     1
 10
0.0
 20
0.0
 30
0.0
  3
*U62
  1

  0
TEXT
  5
1C4D
330
1FB2
100
AcDbEntity
  8
0
 62
     0
100
AcDbText
 10
28.51225346116049
 20
-41.7666312900144
 30
-0.0000000000012222
 40
2.645833333333333
  1
Kreipenèioji
 41
0.6630000000000001
  7
SLDTEXTSTYLE4
100
AcDbText
  0
ENDBLK
  5
1C4F
330
1FB2
100
AcDbEntity
  8
0
100
AcDbBlockEnd
  0
BLOCK
  5
1FB3
330
1FB4
100
AcDbEntity
  8
0
100
AcDbBlockBegin
  2
*U63
 70
     1
 10
0.0
 20
0.0
 30
0.0
  3
*U63
  1

  0
TEXT
  5
1C51
330
1FB4
100
AcDbEntity
  8
0
 62
     0
100
AcDbText
 10
64.5935342552647
 20
-41.7666312900144
 30
-0.0000000000012222
 40
2.645833333333333
  1
26.64.0.0.7
 41
0.6630000000000001
  7
SLDTEXTSTYLE3
100
AcDbText
  0
ENDBLK
  5
1C53
330
1FB4
100
AcDbEntity
  8
0
100
AcDbBlockEnd
  0
BLOCK
  5
1FB5
330
1FB6
100
AcDbEntity
  8
0
100
AcDbBlockBegin
  2
*U64
 70
     1
 10
0.0
 20
0.0
 30
0.0
  3
*U64
  1

  0
TEXT
  5
1C55
330
1FB6
100
AcDbEntity
  8
0
 62
     0
100
AcDbText
 10
89.9625176217707
 20
-41.7666312900144
 30
-0.0000000000012222
 40
2.645833333333333
  1
DX51 D+Z275
 41
0.6630000000000001
  7
SLDTEXTSTYLE3
100
AcDbText
  0
ENDBLK
  5
1C57
330
1FB6
100
AcDbEntity
  8
0
100
AcDbBlockEnd
  0
BLOCK
  5
1FB7
330
1FB8
100
AcDbEntity
  8
0
100
AcDbBlockBegin
  2
*U65
 70
     1
 10
0.0
 20
0.0
 30
0.0
  3
*U65
  1

  0
TEXT
  5
1C59
330
1FB8
100
AcDbEntity
  8
0
 62
     0
100
AcDbText
 10
116.1107973943918
 20
-41.7666312900144
 30
-0.0000000000012222
 40
2.645833333333333
  1
1
 41
0.6630000000000001
  7
SLDTEXTSTYLE3
100
AcDbText
  0
ENDBLK
  5
1C5B
330
1FB8
100
AcDbEntity
  8
0
100
AcDbBlockEnd
  0
BLOCK
  5
1FB9
330
1FBA
100
AcDbEntity
  8
0
100
AcDbBlockBegin
  2
*U66
 70
     1
 10
0.0
 20
0.0
 30
0.0
  3
*U66
  1

  0
TEXT
  5
1C5D
330
1FBA
100
AcDbEntity
  8
0
 62
     0
100
AcDbText
 10
126.0577150783392
 20
-41.7666312900144
 30
-0.0000000000012222
 40
2.645833333333333
  1
1
 41
0.6630000000000001
  7
SLDTEXTSTYLE3
100
AcDbText
  0
ENDBLK
  5
1C5F
330
1FBA
100
AcDbEntity
  8
0
100
AcDbBlockEnd
  0
BLOCK
  5
1FBB
330
1FBC
100
AcDbEntity
  8
0
100
AcDbBlockBegin
  2
*U67
 70
     1
 10
0.0
 20
0.0
 30
0.0
  3
*U67
  1

  0
TEXT
  5
1C61
330
1FBC
100
AcDbEntity
  8
0
 62
     0
100
AcDbText
 10
141.2867490358104
 20
-41.7666312900144
 30
-0.0000000000012222
 40
2.645833333333333
  1
0,03
 41
0.6630000000000001
  7
SLDTEXTSTYLE3
100
AcDbText
  0
ENDBLK
  5
1C63
330
1FBC
100
AcDbEntity
  8
0
100
AcDbBlockEnd
  0
BLOCK
  5
1FBD
330
1FBE
100
AcDbEntity
  8
0
100
AcDbBlockBegin
  2
*U68
 70
     1
 10
0.0
 20
0.0
 30
0.0
  3
*U68
  1

  0
TEXT
  5
1C65
330
1FBE
100
AcDbEntity
  8
0
 62
     0
100
AcDbText
 10
8.535494305659086
 20
-47.63704242671855
 30
-0.0000000000012222
 40
2.645833333333333
  1
8
 41
0.6630000000000001
  7
SLDTEXTSTYLE3
100
AcDbText
  0
ENDBLK
  5
1C67
330
1FBE
100
AcDbEntity
  8
0
100
AcDbBlockEnd
  0
BLOCK
  5
1FBF
330
1FC0
100
AcDbEntity
  8
0
100
AcDbBlockBegin
  2
*U69
 70
     1
 10
0.0
 20
0.0
 30
0.0
  3
*U69
  1

  0
TEXT
  5
1C69
330
1FC0
100
AcDbEntity
  8
0
 62
     0
100
AcDbText
 10
23.66155762014611
 20
-45.8731535591466
 30
-0.0000000000012222
 40
2.645833333333333
  1
Sandarinimo juosta 
 41
0.6630000000000001
  7
SLDTEXTSTYLE3
100
AcDbText
  0
ENDBLK
  5
1C6B
330
1FC0
100
AcDbEntity
  8
0
100
AcDbBlockEnd
  0
BLOCK
  5
1FC1
330
1FC2
100
AcDbEntity
  8
0
100
AcDbBlockBegin
  2
*U70
 70
     1
 10
0.0
 20
0.0
 30
0.0
  3
*U70
  1

  0
TEXT
  5
1C6D
330
1FC2
100
AcDbEntity
  8
0
 62
     0
100
AcDbText
 10
27.58130993483288
 20
-49.4009312942905
 30
-0.0000000000012222
 40
2.645833333333333
  1
Kronlist 15x8
 41
0.6630000000000001
  7
SLDTEXTSTYLE3
100
AcDbText
  0
ENDBLK
  5
1C6F
330
1FC2
100
AcDbEntity
  8
0
100
AcDbBlockEnd
  0
BLOCK
  5
1FC3
330
1FC4
100
AcDbEntity
  8
0
100
AcDbBlockBegin
  2
*U71
 70
     1
 10
0.0
 20
0.0
 30
0.0
  3
*U71
  1

  0
TEXT
  5
1C71
330
1FC4
100
AcDbEntity
  8
0
 62
     0
100
AcDbText
 10
126.0577150783392
 20
-47.63704242671855
 30
-0.0000000000012222
 40
2.645833333333333
  1
1
 41
0.6630000000000001
  7
SLDTEXTSTYLE3
100
AcDbText
  0
ENDBLK
  5
1C73
330
1FC4
100
AcDbEntity
  8
0
100
AcDbBlockEnd
  0
BLOCK
  5
1FC5
330
1FC6
100
AcDbEntity
  8
0
100
AcDbBlockBegin
  2
*U72
 70
     1
 10
0.0
 20
0.0
 30
0.0
  3
*U72
  1

  0
TEXT
  5
1C75
330
1FC6
100
AcDbEntity
  8
0
 62
     0
100
AcDbText
 10
8.535494305659086
 20
-53.84267166593089
 30
-0.0000000000012222
 40
2.645833333333333
  1
9
 41
0.6630000000000001
  7
SLDTEXTSTYLE3
100
AcDbText
  0
ENDBLK
  5
1C77
330
1FC6
100
AcDbEntity
  8
0
100
AcDbBlockEnd
  0
BLOCK
  5
1FC7
330
1FC8
100
AcDbEntity
  8
0
100
AcDbBlockBegin
  2
*U73
 70
     1
 10
0.0
 20
0.0
 30
0.0
  3
*U73
  1

  0
TEXT
  5
1C79
330
1FC8
100
AcDbEntity
  8
0
 62
     0
100
AcDbText
 10
27.14033894030077
 20
-53.84267166593089
 30
-0.0000000000012222
 40
2.645833333333333
  1
Flanšas RE 25
 41
0.6630000000000001
  7
SLDTEXTSTYLE4
100
AcDbText
  0
ENDBLK
  5
1C7B
330
1FC8
100
AcDbEntity
  8
0
100
AcDbBlockEnd
  0
BLOCK
  5
1FC9
330
1FCA
100
AcDbEntity
  8
0
100
AcDbBlockBegin
  2
*U74
 70
     1
 10
0.0
 20
0.0
 30
0.0
  3
*U74
  1

  0
TEXT
  5
1C7D
330
1FCA
100
AcDbEntity
  8
0
 62
     0
100
AcDbText
 10
126.0577150783392
 20
-53.84267166593089
 30
-0.0000000000012222
 40
2.645833333333333
  1
1
 41
0.6630000000000001
  7
SLDTEXTSTYLE3
100
AcDbText
  0
ENDBLK
  5
1C7F
330
1FCA
100
AcDbEntity
  8
0
100
AcDbBlockEnd
  0
BLOCK
  5
1FCB
330
1FCC
100
AcDbEntity
  8
0
100
AcDbBlockBegin
  2
*U75
 70
     1
 10
0.0
 20
0.0
 30
0.0
  3
*U75
  1

  0
TEXT
  5
1C81
330
1FCC
100
AcDbEntity
  8
0
 62
     0
100
AcDbText
 10
7.653549813665447
 20
-59.37786470012685
 30
-0.0000000000012222
 40
2.645833333333333
  1
10
 41
0.6630000000000001
  7
SLDTEXTSTYLE3
100
AcDbText
  0
ENDBLK
  5
1C83
330
1FCC
100
AcDbEntity
  8
0
100
AcDbBlockEnd
  0
BLOCK
  5
1FCD
330
1FCE
100
AcDbEntity
  8
0
100
AcDbBlockBegin
  2
*U76
 70
     1
 10
0.0
 20
0.0
 30
0.0
  3
*U76
  1

  0
TEXT
  5
1C85
330
1FCE
100
AcDbEntity
  8
0
 62
     0
100
AcDbText
 10
24.15152735797388
 20
-57.6139758325549
 30
-0.0000000000012222
 40
2.645833333333333
  1
Sparnuote RE25P-
 41
0.6630000000000001
  7
SLDTEXTSTYLE3
100
AcDbText
  0
ENDBLK
  5
1C87
330
1FCE
100
AcDbEntity
  8
0
100
AcDbBlockEnd
  0
BLOCK
  5
1FCF
330
1FD0
100
AcDbEntity
  8
0
100
AcDbBlockBegin
  2
*U77
 70
     1
 10
0.0
 20
0.0
 30
0.0
  3
*U77
  1

  0
TEXT
  5
1C89
330
1FD0
100
AcDbEntity
  8
0
 62
     0
100
AcDbText
 10
29.10021602896673
 20
-61.14175356769879
 30
-0.0000000000012222
 40
2.645833333333333
  1
6EK.4C.1R
 41
0.6630000000000001
  7
SLDTEXTSTYLE3
100
AcDbText
  0
ENDBLK
  5
1C8B
330
1FD0
100
AcDbEntity
  8
0
100
AcDbBlockEnd
  0
BLOCK
  5
1FD1
330
1FD2
100
AcDbEntity
  8
0
100
AcDbBlockBegin
  2
*U78
 70
     1
 10
0.0
 20
0.0
 30
0.0
  3
*U78
  1

  0
TEXT
  5
1C8D
330
1FD2
100
AcDbEntity
  8
0
 62
     0
100
AcDbText
 10
126.0577150783392
 20
-59.37786470012685
 30
-0.0000000000012222
 40
2.645833333333333
  1
1
 41
0.6630000000000001
  7
SLDTEXTSTYLE3
100
AcDbText
  0
ENDBLK
  5
1C8F
330
1FD2
100
AcDbEntity
  8
0
100
AcDbBlockEnd
  0
BLOCK
  5
1FD3
330
1FD4
100
AcDbEntity
  8
0
100
AcDbBlockBegin
  2
*U79
 70
     1
 10
0.0
 20
0.0
 30
0.0
  3
*U79
  1

  0
TEXT
  5
1C91
330
1FD4
100
AcDbEntity
  8
0
 62
     0
100
AcDbText
 10
7.653549813665447
 20
-66.49342017041465
 30
-0.0000000000012222
 40
2.645833333333333
  1
11
 41
0.6630000000000001
  7
SLDTEXTSTYLE3
100
AcDbText
  0
ENDBLK
  5
1C93
330
1FD4
100
AcDbEntity
  8
0
100
AcDbBlockEnd
  0
BLOCK
  5
1FD5
330
1FD6
100
AcDbEntity
  8
0
100
AcDbBlockBegin
  2
*U80
 70
     1
 10
0.0
 20
0.0
 30
0.0
  3
*U80
  1

  0
TEXT
  5
1C95
330
1FD6
100
AcDbEntity
  8
0
 62
     0
100
AcDbText
 10
22.53462843386156
 20
-64.7295313028427
 30
-0.0000000000012222
 40
2.645833333333333
  1
Kniede aliumine 4x8 
 41
0.6630000000000001
  7
SLDTEXTSTYLE3
100
AcDbText
  0
ENDBLK
  5
1C97
330
1FD6
100
AcDbEntity
  8
0
100
AcDbBlockEnd
  0
BLOCK
  5
1FD7
330
1FD8
100
AcDbEntity
  8
0
100
AcDbBlockBegin
  2
*U81
 70
     1
 10
0.0
 20
0.0
 30
0.0
  3
*U81
  1

  0
TEXT
  5
1C99
330
1FD8
100
AcDbEntity
  8
0
 62
     0
100
AcDbText
 10
30.22714521525128
 20
-68.2573090379866
 30
-0.0000000000012222
 40
2.645833333333333
  1
DIN 7337
 41
0.6630000000000001
  7
SLDTEXTSTYLE3
100
AcDbText
  0
ENDBLK
  5
1C9B
330
1FD8
100
AcDbEntity
  8
0
100
AcDbBlockEnd
  0
BLOCK
  5
1FD9
330
1FDA
100
AcDbEntity
  8
0
100
AcDbBlockBegin
  2
*U82
 70
     1
 10
0.0
 20
0.0
 30
0.0
  3
*U82
  1

  0
TEXT
  5
1C9D
330
1FDA
100
AcDbEntity
  8
0
 62
     0
100
AcDbText
 10
125.1757705863456
 20
-66.49342017041465
 30
-0.0000000000012222
 40
2.645833333333333
  1
72
 41
0.6630000000000001
  7
SLDTEXTSTYLE3
100
AcDbText
  0
ENDBLK
  5
1C9F
330
1FDA
100
AcDbEntity
  8
0
100
AcDbBlockEnd
  0
BLOCK
  5
1FDB
330
1FDC
100
AcDbEntity
  8
0
100
AcDbBlockBegin
  2
*U83
 70
     1
 10
0.0
 20
0.0
 30
0.0
  3
*U83
  1

  0
TEXT
  5
1CA1
330
1FDC
100
AcDbEntity
  8
0
 62
     0
100
AcDbText
 10
7.653549813665447
 20
-72.9385394356861
 30
-0.0000000000012222
 40
2.645833333333333
  1
12
 41
0.6630000000000001
  7
SLDTEXTSTYLE3
100
AcDbText
  0
ENDBLK
  5
1CA3
330
1FDC
100
AcDbEntity
  8
0
100
AcDbBlockEnd
  0
BLOCK
  5
1FDD
330
1FDE
100
AcDbEntity
  8
0
100
AcDbBlockBegin
  2
*U84
 70
     1
 10
0.0
 20
0.0
 30
0.0
  3
*U84
  1

  0
TEXT
  5
1CA5
330
1FDE
100
AcDbEntity
  8
0
 62
     0
100
AcDbText
 10
26.20939727661831
 20
-71.17465056811416
 30
-0.0000000000012222
 40
2.645833333333333
  1
Kniede sriegine 
 41
0.6630000000000001
  7
SLDTEXTSTYLE3
100
AcDbText
  0
ENDBLK
  5
1CA7
330
1FDE
100
AcDbEntity
  8
0
100
AcDbBlockEnd
  0
BLOCK
  5
1FDF
330
1FE0
100
AcDbEntity
  8
0
100
AcDbBlockBegin
  2
*U85
 70
     1
 10
0.0
 20
0.0
 30
0.0
  3
*U85
  1

  0
TEXT
  5
1CA9
330
1FE0
100
AcDbEntity
  8
0
 62
     0
100
AcDbText
 10
30.42313273785336
 20
-74.70242830325805
 30
-0.0000000000012222
 40
2.645833333333333
  1
6(9x14.5)
 41
0.6630000000000001
  7
SLDTEXTSTYLE3
100
AcDbText
  0
ENDBLK
  5
1CAB
330
1FE0
100
AcDbEntity
  8
0
100
AcDbBlockEnd
  0
BLOCK
  5
1FE1
330
1FE2
100
AcDbEntity
  8
0
100
AcDbBlockBegin
  2
*U86
 70
     1
 10
0.0
 20
0.0
 30
0.0
  3
*U86
  1

  0
TEXT
  5
1CAD
330
1FE2
100
AcDbEntity
  8
0
 62
     0
100
AcDbText
 10
126.0577150783392
 20
-72.9385394356861
 30
-0.0000000000012222
 40
2.645833333333333
  1
6
 41
0.6630000000000001
  7
SLDTEXTSTYLE3
100
AcDbText
  0
ENDBLK
  5
1CAF
330
1FE2
100
AcDbEntity
  8
0
100
AcDbBlockEnd
  0
BLOCK
  5
1FE3
330
1FE4
100
AcDbEntity
  8
0
100
AcDbBlockBegin
  2
*U87
 70
     1
 10
0.0
 20
0.0
 30
0.0
  3
*U87
  1

  0
TEXT
  5
1CB1
330
1FE4
100
AcDbEntity
  8
0
 62
     0
100
AcDbText
 10
7.653549813665447
 20
-79.14416867489838
 30
-0.0000000000012222
 40
2.645833333333333
  1
13
 41
0.6630000000000001
  7
SLDTEXTSTYLE3
100
AcDbText
  0
ENDBLK
  5
1CB3
330
1FE4
100
AcDbEntity
  8
0
100
AcDbBlockEnd
  0
BLOCK
  5
1FE5
330
1FE6
100
AcDbEntity
  8
0
100
AcDbBlockBegin
  2
*U88
 70
     1
 10
0.0
 20
0.0
 30
0.0
  3
*U88
  1

  0
TEXT
  5
1CB5
330
1FE6
100
AcDbEntity
  8
0
 62
     0
100
AcDbText
 10
23.1715888136409
 20
-79.14416867489838
 30
-0.0000000000012222
 40
2.645833333333333
  1
Poverzle 6 DIN 125
 41
0.6630000000000001
  7
SLDTEXTSTYLE3
100
AcDbText
  0
ENDBLK
  5
1CB7
330
1FE6
100
AcDbEntity
  8
0
100
AcDbBlockEnd
  0
BLOCK
  5
1FE7
330
1FE8
100
AcDbEntity
  8
0
100
AcDbBlockBegin
  2
*U89
 70
     1
 10
0.0
 20
0.0
 30
0.0
  3
*U89
  1

  0
TEXT
  5
1CB9
330
1FE8
100
AcDbEntity
  8
0
 62
     0
100
AcDbText
 10
125.1757705863456
 20
-79.14416867489838
 30
-0.0000000000012222
 40
2.645833333333333
  1
10
 41
0.6630000000000001
  7
SLDTEXTSTYLE3
100
AcDbText
  0
ENDBLK
  5
1CBB
330
1FE8
100
AcDbEntity
  8
0
100
AcDbBlockEnd
  0
BLOCK
  5
1FE9
330
1FEA
100
AcDbEntity
  8
0
100
AcDbBlockBegin
  2
*U90
 70
     1
 10
0.0
 20
0.0
 30
0.0
  3
*U90
  1

  0
TEXT
  5
1CBD
330
1FEA
100
AcDbEntity
  8
0
 62
     0
100
AcDbText
 10
7.653549813665447
 20
-84.67936170909437
 30
-0.0000000000012222
 40
2.645833333333333
  1
14
 41
0.6630000000000001
  7
SLDTEXTSTYLE3
100
AcDbText
  0
ENDBLK
  5
1CBF
330
1FEA
100
AcDbEntity
  8
0
100
AcDbBlockEnd
  0
BLOCK
  5
1FEB
330
1FEC
100
AcDbEntity
  8
0
100
AcDbBlockBegin
  2
*U91
 70
     1
 10
0.0
 20
0.0
 30
0.0
  3
*U91
  1

  0
TEXT
  5
1CC1
330
1FEC
100
AcDbEntity
  8
0
 62
     0
100
AcDbText
 10
20.86873262909872
 20
-82.91547284152242
 30
-0.0000000000012222
 40
2.645833333333333
  1
Spyruoklinë poveržlë 6 
 41
0.6630000000000001
  7
SLDTEXTSTYLE4
100
AcDbText
  0
ENDBLK
  5
1CC3
330
1FEC
100
AcDbEntity
  8
0
100
AcDbBlockEnd
  0
BLOCK
  5
1FED
330
1FEE
100
AcDbEntity
  8
0
100
AcDbBlockBegin
  2
*U92
 70
     1
 10
0.0
 20
0.0
 30
0.0
  3
*U92
  1

  0
TEXT
  5
1CC5
330
1FEE
100
AcDbEntity
  8
0
 62
     0
100
AcDbText
 10
31.10908953262193
 20
-86.4432505766663
 30
-0.0000000000012222
 40
2.645833333333333
  1
DIN 127
 41
0.6630000000000001
  7
SLDTEXTSTYLE3
100
AcDbText
  0
ENDBLK
  5
1CC7
330
1FEE
100
AcDbEntity
  8
0
100
AcDbBlockEnd
  0
BLOCK
  5
1FEF
330
1FF0
100
AcDbEntity
  8
0
100
AcDbBlockBegin
  2
*U93
 70
     1
 10
0.0
 20
0.0
 30
0.0
  3
*U93
  1

  0
TEXT
  5
1CC9
330
1FF0
100
AcDbEntity
  8
0
 62
     0
100
AcDbText
 10
125.1757705863456
 20
-84.67936170909437
 30
-0.0000000000012222
 40
2.645833333333333
  1
10
 41
0.6630000000000001
  7
SLDTEXTSTYLE3
100
AcDbText
  0
ENDBLK
  5
1CCB
330
1FF0
100
AcDbEntity
  8
0
100
AcDbBlockEnd
  0
BLOCK
  5
1FF1
330
1FF2
100
AcDbEntity
  8
0
100
AcDbBlockBegin
  2
*U94
 70
     1
 10
0.0
 20
0.0
 30
0.0
  3
*U94
  1

  0
TEXT
  5
1CCD
330
1FF2
100
AcDbEntity
  8
0
 62
     0
100
AcDbText
 10
7.653549813665447
 20
-91.89374299310295
 30
-0.0000000000012222
 40
2.645833333333333
  1
15
 41
0.6630000000000001
  7
SLDTEXTSTYLE3
100
AcDbText
  0
ENDBLK
  5
1CCF
330
1FF2
100
AcDbEntity
  8
0
100
AcDbBlockEnd
  0
BLOCK
  5
1FF3
330
1FF4
100
AcDbEntity
  8
0
100
AcDbBlockBegin
  2
*U95
 70
     1
 10
0.0
 20
0.0
 30
0.0
  3
*U95
  1

  0
TEXT
  5
1CD1
330
1FF4
100
AcDbEntity
  8
0
 62
     0
100
AcDbText
 10
20.72174384979232
 20
-90.12985412553103
 30
-0.0000000000012222
 40
2.645833333333333
  1
Varžtas 6x20 DIN 933-
 41
0.6630000000000001
  7
SLDTEXTSTYLE4
100
AcDbText
  0
ENDBLK
  5
1CD3
330
1FF4
100
AcDbEntity
  8
0
100
AcDbBlockEnd
  0
BLOCK
  5
1FF5
330
1FF6
100
AcDbEntity
  8
0
100
AcDbBlockBegin
  2
*U96
 70
     1
 10
0.0
 20
0.0
 30
0.0
  3
*U96
  1

  0
TEXT
  5
1CD5
330
1FF6
100
AcDbEntity
  8
0
 62
     0
100
AcDbText
 10
35.12683630710168
 20
-93.65763186067491
 30
-0.0000000000012222
 40
2.645833333333333
  1
8.8
 41
0.6630000000000001
  7
SLDTEXTSTYLE3
100
AcDbText
  0
ENDBLK
  5
1CD7
330
1FF6
100
AcDbEntity
  8
0
100
AcDbBlockEnd
  0
BLOCK
  5
1FF7
330
1FF8
100
AcDbEntity
  8
0
100
AcDbBlockBegin
  2
*U97
 70
     1
 10
0.0
 20
0.0
 30
0.0
  3
*U97
  1

  0
TEXT
  5
1CD9
330
1FF8
100
AcDbEntity
  8
0
 62
     0
100
AcDbText
 10
126.0577150783392
 20
-91.89374299310295
 30
-0.0000000000012222
 40
2.645833333333333
  1
6
 41
0.6630000000000001
  7
SLDTEXTSTYLE3
100
AcDbText
  0
ENDBLK
  5
1CDB
330
1FF8
100
AcDbEntity
  8
0
100
AcDbBlockEnd
  0
BLOCK
  5
1FF9
330
1FFA
100
AcDbEntity
  8
0
100
AcDbBlockBegin
  2
*U98
 70
     1
 10
0.0
 20
0.0
 30
0.0
  3
*U98
  1

  0
TEXT
  5
1CDD
330
1FFA
100
AcDbEntity
  8
0
 62
     0
100
AcDbText
 10
7.653549813665447
 20
-98.536513885816
 30
-0.0000000000012222
 40
2.645833333333333
  1
16
 41
0.6630000000000001
  7
SLDTEXTSTYLE3
100
AcDbText
  0
ENDBLK
  5
1CDF
330
1FFA
100
AcDbEntity
  8
0
100
AcDbBlockEnd
  0
BLOCK
  5
1FFB
330
1FFC
100
AcDbEntity
  8
0
100
AcDbBlockBegin
  2
*U99
 70
     1
 10
0.0
 20
0.0
 30
0.0
  3
*U99
  1

  0
TEXT
  5
1CE1
330
1FFC
100
AcDbEntity
  8
0
 62
     0
100
AcDbText
 10
22.82861064908725
 20
-96.77262501824404
 30
-0.0000000000012222
 40
2.645833333333333
  1
Varztas M6x16 DIN 
 41
0.6630000000000001
  7
SLDTEXTSTYLE3
100
AcDbText
  0
ENDBLK
  5
1CE3
330
1FFC
100
AcDbEntity
  8
0
100
AcDbBlockEnd
  0
BLOCK
  5
1FFD
330
1FFE
100
AcDbEntity
  8
0
100
AcDbBlockBegin
  2
*U100
 70
     1
 10
0.0
 20
0.0
 30
0.0
  3
*U100
  1

  0
TEXT
  5
1CE5
330
1FFE
100
AcDbEntity
  8
0
 62
     0
100
AcDbText
 10
31.89304008869154
 20
-100.3004027533879
 30
-0.0000000000012222
 40
2.645833333333333
  1
933-8.8
 41
0.6630000000000001
  7
SLDTEXTSTYLE3
100
AcDbText
  0
ENDBLK
  5
1CE7
330
1FFE
100
AcDbEntity
  8
0
100
AcDbBlockEnd
  0
BLOCK
  5
1FFF
330
2000
100
AcDbEntity
  8
0
100
AcDbBlockBegin
  2
*U101
 70
     1
 10
0.0
 20
0.0
 30
0.0
  3
*U101
  1

  0
TEXT
  5
1CE9
330
2000
100
AcDbEntity
  8
0
 62
     0
100
AcDbText
 10
126.0577150783392
 20
-98.536513885816
 30
-0.0000000000012222
 40
2.645833333333333
  1
4
 41
0.6630000000000001
  7
SLDTEXTSTYLE3
100
AcDbText
  0
ENDBLK
  5
1CEB
330
2000
100
AcDbEntity
  8
0
100
AcDbBlockEnd
  0
BLOCK
  5
2001
330
2002
100
AcDbEntity
  8
0
100
AcDbBlockBegin
  2
*U102
 70
     1
 10
0.0
 20
0.0
 30
0.0
  3
*U102
  1

  0
TEXT
  5
1CED
330
2002
100
AcDbEntity
  8
0
 62
     0
100
AcDbText
 10
7.653549813665447
 20
-104.1705327337327
 30
-0.0000000000012222
 40
2.645833333333333
  1
17
 41
0.6630000000000001
  7
SLDTEXTSTYLE3
100
AcDbText
  0
ENDBLK
  5
1CEF
330
2002
100
AcDbEntity
  8
0
100
AcDbBlockEnd
  0
BLOCK
  5
2003
330
2004
100
AcDbEntity
  8
0
100
AcDbBlockBegin
  2
*U103
 70
     1
 10
0.0
 20
0.0
 30
0.0
  3
*U103
  1

  0
TEXT
  5
1CF1
330
2004
100
AcDbEntity
  8
0
 62
     0
100
AcDbText
 10
24.54350240317805
 20
-104.1705327337327
 30
-0.0000000000012222
 40
2.645833333333333
  1
Riebokslis DG-11
 41
0.6630000000000001
  7
SLDTEXTSTYLE3
100
AcDbText
  0
ENDBLK
  5
1CF3
330
2004
100
AcDbEntity
  8
0
100
AcDbBlockEnd
  0
BLOCK
  5
2005
330
2006
100
AcDbEntity
  8
0
100
AcDbBlockBegin
  2
*U104
 70
     1
 10
0.0
 20
0.0
 30
0.0
  3
*U104
  1

  0
TEXT
  5
1CF5
330
2006
100
AcDbEntity
  8
0
 62
     0
100
AcDbText
 10
126.0577150783392
 20
-104.1705327337327
 30
-0.0000000000012222
 40
2.645833333333333
  1
1
 41
0.6630000000000001
  7
SLDTEXTSTYLE3
100
AcDbText
  0
ENDBLK
  5
1CF7
330
2006
100
AcDbEntity
  8
0
100
AcDbBlockEnd
  0
BLOCK
  5
2007
330
2008
100
AcDbEntity
  8
0
100
AcDbBlockBegin
  2
*D105
 70
     1
 10
0.0
 20
0.0
 30
0.0
  3
*D105
  1

  0
SOLID
  5
493
330
2008
100
AcDbEntity
  8
0
  6
Continuous
 62
     7
100
AcDbTrace
 10
35.72542058495028
 20
254.5331878458177
 30
0.0
 11
34.97542058495036
 21
250.5331878458177
 31
0.0
 12
36.47542058495036
 22
250.5331878458178
 32
0.0
 13
36.47542058495036
 23
250.5331878458178
 33
0.0
  0
SOLID
  5
494
330
2008
100
AcDbEntity
  8
0
  6
Continuous
 62
     7
100
AcDbTrace
 10
35.72542058495117
 20
208.8189021315322
 30
0.0
 11
36.4754205849511
 21
212.8189021315322
 31
0.0
 12
34.97542058495109
 22
212.8189021315322
 32
0.0
 13
34.97542058495109
 23
212.8189021315322
 33
0.0
  0
LINE
  5
495
330
2008
100
AcDbEntity
  8
0
  6
Continuous
 62
     7
100
AcDbLine
 10
43.2346042389906
 20
254.5331878458179
 30
0.0
 11
34.72542058495028
 21
254.5331878458177
 31
0.0
  0
LINE
  5
496
330
2008
100
AcDbEntity
  8
0
  6
Continuous
 62
     7
100
AcDbLine
 10
43.23460423899147
 20
208.8189021315324
 30
0.0
 11
34.72542058495117
 21
208.8189021315322
 31
0.0
  0
LINE
  5
497
330
2008
100
AcDbEntity
  8
0
  6
Continuous
 62
     7
100
AcDbLine
 10
35.72542058495028
 20
254.5331878458177
 30
0.0
 11
35.72542058495117
 21
208.8189021315322
 31
0.0
  0
INSERT
  5
498
330
2008
100
AcDbEntity
  8
0
100
AcDbBlockReference
  2
*U106
 10
0.0
 20
0.0
 30
0.0
  0
ENDBLK
  5
492
330
2008
100
AcDbEntity
  8
0
100
AcDbBlockEnd
  0
BLOCK
  5
2009
330
200A
100
AcDbEntity
  8
0
100
AcDbBlockBegin
  2
*U106
 70
     1
 10
0.0
 20
0.0
 30
0.0
  3
*U106
  1

  0
TEXT
  5
1CF9
330
200A
100
AcDbEntity
  8
0
 62
     7
100
AcDbText
 10
34.96059558167846
 20
230.8378035808277
 30
-0.0000000000019785
 40
2.645833333333333
  1
320
 50
90.00000000000152
 41
0.75
  7
SLDTEXTSTYLE0
100
AcDbText
  0
ENDBLK
  5
1CFB
330
200A
100
AcDbEntity
  8
0
100
AcDbBlockEnd
  0
BLOCK
  5
200B
330
200C
100
AcDbEntity
  8
0
100
AcDbBlockBegin
  2
*D107
 70
     1
 10
0.0
 20
0.0
 30
0.0
  3
*D107
  1

  0
SOLID
  5
49D
330
200C
100
AcDbEntity
  8
0
  6
Continuous
 62
     7
100
AcDbTrace
 10
44.23460423899053
 20
265.1923382216607
 30
0.0
 11
48.23460423899053
 21
264.4423382216607
 31
0.0
 12
48.23460423899049
 22
265.9423382216608
 32
0.0
 13
48.23460423899049
 23
265.9423382216608
 33
0.0
  0
SOLID
  5
49E
330
200C
100
AcDbEntity
  8
0
  6
Continuous
 62
     7
100
AcDbTrace
 10
118.520318524704
 20
265.1923382216613
 30
0.0
 11
114.520318524704
 21
265.9423382216612
 31
0.0
 12
114.520318524704
 22
264.4423382216613
 32
0.0
 13
114.520318524704
 23
264.4423382216613
 33
0.0
  0
LINE
  5
49F
330
200C
100
AcDbEntity
  8
0
  6
Continuous
 62
     7
100
AcDbLine
 10
44.23460423899061
 20
255.5331878458179
 30
0.0
 11
44.2346042389905
 21
266.1923382216607
 31
0.0
  0
LINE
  5
4A0
330
200C
100
AcDbEntity
  8
0
  6
Continuous
 62
     7
100
AcDbLine
 10
118.5203185247041
 20
255.5331878458185
 30
0.0
 11
118.520318524704
 21
266.1923382216613
 31
0.0
  0
LINE
  5
4A1
330
200C
100
AcDbEntity
  8
0
  6
Continuous
 62
     7
100
AcDbLine
 10
44.23460423899053
 20
265.1923382216607
 30
0.0
 11
118.520318524704
 21
265.1923382216613
 31
0.0
  0
INSERT
  5
4A2
330
200C
100
AcDbEntity
  8
0
100
AcDbBlockReference
  2
*U108
 10
0.0
 20
0.0
 30
0.0
  0
ENDBLK
  5
49C
330
200C
100
AcDbEntity
  8
0
100
AcDbBlockEnd
  0
BLOCK
  5
200D
330
200E
100
AcDbEntity
  8
0
100
AcDbBlockBegin
  2
*U108
 70
     1
 10
0.0
 20
0.0
 30
0.0
  3
*U108
  1

  0
TEXT
  5
1CFD
330
200E
100
AcDbEntity
  8
0
 62
     7
100
AcDbText
 10
79.30384688592595
 20
265.9571632249334
 30
-0.0000000000022184
 40
2.645833333333333
  1
520
 50
0.0000000000004465
 41
0.75
  7
SLDTEXTSTYLE0
100
AcDbText
  0
ENDBLK
  5
1CFF
330
200E
100
AcDbEntity
  8
0
100
AcDbBlockEnd
  0
BLOCK
  5
200F
330
2010
100
AcDbEntity
  8
0
100
AcDbBlockBegin
  2
*D109
 70
     1
 10
0.0
 20
0.0
 30
0.0
  3
*D109
  1

  0
SOLID
  5
4A7
330
2010
100
AcDbEntity
  8
0
  6
Continuous
 62
     7
100
AcDbTrace
 10
42.80603281041911
 20
273.1235930171266
 30
0.0
 11
46.80603281041912
 21
272.3735930171267
 31
0.0
 12
46.8060328104191
 22
273.8735930171267
 32
0.0
 13
46.8060328104191
 23
273.8735930171267
 33
0.0
  0
SOLID
  5
4A8
330
2010
100
AcDbEntity
  8
0
  6
Continuous
 62
     7
100
AcDbTrace
 10
119.9488899532758
 20
273.1235930171272
 30
0.0
 11
115.9488899532759
 21
273.8735930171273
 31
0.0
 12
115.9488899532759
 22
272.3735930171272
 32
0.0
 13
115.9488899532759
 23
272.3735930171272
 33
0.0
  0
LINE
  5
4A9
330
2010
100
AcDbEntity
  8
0
  6
Continuous
 62
     7
100
AcDbLine
 10
42.80603281041925
 20
254.1046164172466
 30
0.0
 11
42.80603281041909
 21
274.1235930171267
 31
0.0
  0
LINE
  5
4AA
330
2010
100
AcDbEntity
  8
0
  6
Continuous
 62
     7
100
AcDbLine
 10
119.948889953276
 20
255.9260449886757
 30
0.0
 11
119.9488899532758
 21
274.1235930171272
 31
0.0
  0
LINE
  5
4AB
330
2010
100
AcDbEntity
  8
0
  6
Continuous
 62
     7
100
AcDbLine
 10
42.80603281041911
 20
273.1235930171266
 30
0.0
 11
119.9488899532758
 21
273.1235930171272
 31
0.0
  0
INSERT
  5
4AC
330
2010
100
AcDbEntity
  8
0
100
AcDbBlockReference
  2
*U110
 10
0.0
 20
0.0
 30
0.0
  0
ENDBLK
  5
4A6
330
2010
100
AcDbEntity
  8
0
100
AcDbBlockEnd
  0
BLOCK
  5
2011
330
2012
100
AcDbEntity
  8
0
100
AcDbBlockBegin
  2
*U110
 70
     1
 10
0.0
 20
0.0
 30
0.0
  3
*U110
  1

  0
TEXT
  5
1D01
330
2012
100
AcDbEntity
  8
0
 62
     7
100
AcDbText
 10
79.30568542467631
 20
273.8884180203994
 30
-0.0000000000022738
 40
2.645833333333333
  1
540
 50
0.0000000000003899
 41
0.75
  7
SLDTEXTSTYLE0
100
AcDbText
  0
ENDBLK
  5
1D03
330
2012
100
AcDbEntity
  8
0
100
AcDbBlockEnd
  0
BLOCK
  5
2013
330
2014
100
AcDbEntity
  8
0
100
AcDbBlockBegin
  2
*D111
 70
     1
 10
0.0
 20
0.0
 30
0.0
  3
*D111
  1

  0
SOLID
  5
4B1
330
2014
100
AcDbEntity
  8
0
  6
Continuous
 62
     7
100
AcDbTrace
 10
26.87746138184734
 20
255.9617592743897
 30
0.0
 11
26.12746138184736
 21
251.9617592743898
 31
0.0
 12
27.62746138184736
 22
251.9617592743898
 32
0.0
 13
27.62746138184736
 23
251.9617592743898
 33
0.0
  0
SOLID
  5
4B2
330
2014
100
AcDbEntity
  8
0
  6
Continuous
 62
     7
100
AcDbTrace
 10
26.87746138184767
 20
207.3903307029606
 30
0.0
 11
27.62746138184765
 21
211.3903307029606
 31
0.0
 12
26.12746138184764
 22
211.3903307029606
 32
0.0
 13
26.12746138184764
 23
211.3903307029606
 33
0.0
  0
LINE
  5
4B3
330
2014
100
AcDbEntity
  8
0
  6
Continuous
 62
     7
100
AcDbLine
 10
42.84174709613344
 20
255.9617592743899
 30
0.0
 11
25.87746138184733
 21
255.9617592743897
 31
0.0
  0
LINE
  5
4B4
330
2014
100
AcDbEntity
  8
0
  6
Continuous
 62
     7
100
AcDbLine
 10
44.66317566756242
 20
207.3903307029608
 30
0.0
 11
25.87746138184768
 21
207.3903307029606
 31
0.0
  0
LINE
  5
4B5
330
2014
100
AcDbEntity
  8
0
  6
Continuous
 62
     7
100
AcDbLine
 10
26.87746138184734
 20
255.9617592743897
 30
0.0
 11
26.87746138184767
 21
207.3903307029606
 31
0.0
  0
INSERT
  5
4B6
330
2014
100
AcDbEntity
  8
0
100
AcDbBlockReference
  2
*U112
 10
0.0
 20
0.0
 30
0.0
  0
ENDBLK
  5
4B0
330
2014
100
AcDbEntity
  8
0
100
AcDbBlockEnd
  0
BLOCK
  5
2015
330
2016
100
AcDbEntity
  8
0
100
AcDbBlockBegin
  2
*U112
 70
     1
 10
0.0
 20
0.0
 30
0.0
  3
*U112
  1

  0
TEXT
  5
1D05
330
2016
100
AcDbEntity
  8
0
 62
     7
100
AcDbText
 10
26.11263637857524
 20
230.8397639762335
 30
-0.0000000000019786
 40
2.645833333333333
  1
340
 50
90.00000000000078
 41
0.75
  7
SLDTEXTSTYLE0
100
AcDbText
  0
ENDBLK
  5
1D07
330
2016
100
AcDbEntity
  8
0
100
AcDbBlockEnd
  0
BLOCK
  5
2017
330
2018
100
AcDbEntity
  8
0
100
AcDbBlockBegin
  2
*D113
 70
     1
 10
0.0
 20
0.0
 30
0.0
  3
*D113
  1

  0
SOLID
  5
4BC
330
2018
100
AcDbEntity
  8
0
  6
Continuous
 62
     7
100
AcDbTrace
 10
56.28272174152986
 20
237.8903307029613
 30
0.0
 11
55.53272174152993
 21
233.8903307029613
 31
0.0
 12
57.03272174152992
 22
233.8903307029613
 32
0.0
 13
57.03272174152992
 23
233.8903307029613
 33
0.0
  0
SOLID
  5
4BD
330
2018
100
AcDbEntity
  8
0
  6
Continuous
 62
     7
100
AcDbTrace
 10
56.28272174152986
 20
238.2474735601039
 30
0.0
 11
57.03272174152981
 21
242.2474735601039
 31
0.0
 12
55.5327217415298
 22
242.2474735601039
 32
0.0
 13
55.5327217415298
 23
242.2474735601039
 33
0.0
  0
LINE
  5
4BE
330
2018
100
AcDbEntity
  8
0
  6
Continuous
 62
     7
100
AcDbLine
 10
68.92031852470464
 20
237.8903307029614
 30
0.0
 11
55.28272174152985
 21
237.8903307029613
 31
0.0
  0
LINE
  5
4BF
330
2018
100
AcDbEntity
  8
0
  6
Continuous
 62
     7
100
AcDbLine
 10
65.49174709613318
 20
238.2474735601041
 30
0.0
 11
55.28272174152985
 21
238.2474735601039
 31
0.0
  0
LINE
  5
4C0
330
2018
100
AcDbEntity
  8
0
  6
Continuous
 62
     7
100
AcDbLine
 10
56.28272174152986
 20
237.8903307029613
 30
0.0
 11
56.28272174153003
 21
229.8903307029613
 31
0.0
  0
LINE
  5
4C1
330
2018
100
AcDbEntity
  8
0
  6
Continuous
 62
     7
100
AcDbLine
 10
56.28272174152986
 20
237.8903307029613
 30
0.0
 11
56.28272174152986
 21
238.2474735601039
 31
0.0
  0
LINE
  5
4C2
330
2018
100
AcDbEntity
  8
0
  6
Continuous
 62
     7
100
AcDbLine
 10
56.28272174152986
 20
238.2474735601039
 30
0.0
 11
56.28272174152974
 21
244.2951448814695
 31
0.0
  0
INSERT
  5
4C3
330
2018
100
AcDbEntity
  8
0
100
AcDbBlockReference
  2
*U114
 10
0.0
 20
0.0
 30
0.0
  0
ENDBLK
  5
4BB
330
2018
100
AcDbEntity
  8
0
100
AcDbBlockEnd
  0
BLOCK
  5
2019
330
201A
100
AcDbEntity
  8
0
100
AcDbBlockBegin
  2
*U114
 70
     1
 10
0.0
 20
0.0
 30
0.0
  3
*U114
  1

  0
TEXT
  5
1D09
330
201A
100
AcDbEntity
  8
0
 62
     7
100
AcDbText
 10
55.51789673825757
 20
236.0268281100661
 30
-0.0000000000020148
 40
2.645833333333333
  1
2.50
 50
90.00000000000074
 41
0.75
  7
SLDTEXTSTYLE0
100
AcDbText
  0
ENDBLK
  5
1D0B
330
201A
100
AcDbEntity
  8
0
100
AcDbBlockEnd
  0
BLOCK
  5
201B
330
201C
100
AcDbEntity
  8
0
100
AcDbBlockBegin
  2
SW_NOTE_2
 70
     0
 10
0.0
 20
0.0
 30
0.0
  3
SW_NOTE_2
  1

  0
LINE
  5
4C7
330
201C
100
AcDbEntity
  8
0
  6
Continuous
 62
     0
100
AcDbLine
 10
0.0
 20
-0.0000000000002776
 30
0.0
 11
6.680816771403364
 21
-0.0000000000002776
 31
0.0
  0
LINE
  5
4C8
330
201C
100
AcDbEntity
  8
0
  6
Continuous
 62
     0
100
AcDbLine
 10
6.680816771403364
 20
-0.0000000000002776
 30
0.0
 11
0.0
 21
-0.0000000000002776
 31
0.0
  0
LINE
  5
4C9
330
201C
100
AcDbEntity
  8
0
  6
Continuous
 62
     0
100
AcDbLine
 10
0.0
 20
-0.0000000000002776
 30
0.0
 11
6.680816771403364
 21
-0.0000000000002776
 31
0.0
  0
LINE
  5
4CA
330
201C
100
AcDbEntity
  8
0
  6
Continuous
 62
     0
100
AcDbLine
 10
6.680816771403364
 20
-0.0000000000002776
 30
0.0
 11
0.0
 21
-0.0000000000002776
 31
0.0
  0
LINE
  5
4CB
330
201C
100
AcDbEntity
  8
0
  6
Continuous
 62
     0
100
AcDbLine
 10
0.0
 20
-0.0000000000002776
 30
0.0
 11
6.680816771403364
 21
-0.0000000000002776
 31
0.0
  0
LINE
  5
4CC
330
201C
100
AcDbEntity
  8
0
  6
Continuous
 62
     0
100
AcDbLine
 10
6.680816771403364
 20
-0.0000000000002776
 30
0.0
 11
0.0
 21
-0.0000000000002776
 31
0.0
  0
INSERT
  5
4CD
330
201C
100
AcDbEntity
  8
0
100
AcDbBlockReference
  2
*U116
 10
0.0
 20
0.0
 30
0.0
  0
ENDBLK
  5
4C6
330
201C
100
AcDbEntity
  8
0
100
AcDbBlockEnd
  0
BLOCK
  5
201D
330
201E
100
AcDbEntity
  8
0
100
AcDbBlockBegin
  2
*U116
 70
     1
 10
0.0
 20
0.0
 30
0.0
  3
*U116
  1

  0
TEXT
  5
1D0D
330
201E
100
AcDbEntity
  8
0
 62
     0
100
AcDbText
 10
2.362919918231841
 20
0.2278580562062733
 30
0.0
 40
2.645833333333333
  1
2
 41
0.75
  7
SLDTEXTSTYLE0
100
AcDbText
  0
ENDBLK
  5
1D0F
330
201E
100
AcDbEntity
  8
0
100
AcDbBlockEnd
  0
BLOCK
  5
201F
330
2020
100
AcDbEntity
  8
0
100
AcDbBlockBegin
  2
SW_NOTE_3
 70
     0
 10
0.0
 20
0.0
 30
0.0
  3
SW_NOTE_3
  1

  0
LINE
  5
4D4
330
2020
100
AcDbEntity
  8
0
  6
Continuous
 62
     0
100
AcDbLine
 10
0.0
 20
-0.0000000000002776
 30
0.0
 11
6.680816771403308
 21
-0.0000000000002776
 31
0.0
  0
LINE
  5
4D5
330
2020
100
AcDbEntity
  8
0
  6
Continuous
 62
     0
100
AcDbLine
 10
6.680816771403308
 20
-0.0000000000002776
 30
0.0
 11
0.0
 21
-0.0000000000002776
 31
0.0
  0
LINE
  5
4D6
330
2020
100
AcDbEntity
  8
0
  6
Continuous
 62
     0
100
AcDbLine
 10
0.0
 20
-0.0000000000002776
 30
0.0
 11
6.680816771403308
 21
-0.0000000000002776
 31
0.0
  0
LINE
  5
4D7
330
2020
100
AcDbEntity
  8
0
  6
Continuous
 62
     0
100
AcDbLine
 10
6.680816771403308
 20
-0.0000000000002776
 30
0.0
 11
0.0
 21
-0.0000000000002776
 31
0.0
  0
LINE
  5
4D8
330
2020
100
AcDbEntity
  8
0
  6
Continuous
 62
     0
100
AcDbLine
 10
0.0
 20
-0.0000000000002776
 30
0.0
 11
6.680816771403308
 21
-0.0000000000002776
 31
0.0
  0
LINE
  5
4D9
330
2020
100
AcDbEntity
  8
0
  6
Continuous
 62
     0
100
AcDbLine
 10
6.680816771403308
 20
-0.0000000000002776
 30
0.0
 11
0.0
 21
-0.0000000000002776
 31
0.0
  0
INSERT
  5
4DA
330
2020
100
AcDbEntity
  8
0
100
AcDbBlockReference
  2
*U118
 10
0.0
 20
0.0
 30
0.0
  0
ENDBLK
  5
4D3
330
2020
100
AcDbEntity
  8
0
100
AcDbBlockEnd
  0
BLOCK
  5
2021
330
2022
100
AcDbEntity
  8
0
100
AcDbBlockBegin
  2
*U118
 70
     1
 10
0.0
 20
0.0
 30
0.0
  3
*U118
  1

  0
TEXT
  5
1D11
330
2022
100
AcDbEntity
  8
0
 62
     0
100
AcDbText
 10
2.362919918231841
 20
0.2278580562062453
 30
0.0
 40
2.645833333333333
  1
1
 41
0.75
  7
SLDTEXTSTYLE0
100
AcDbText
  0
ENDBLK
  5
1D13
330
2022
100
AcDbEntity
  8
0
100
AcDbBlockEnd
  0
BLOCK
  5
2023
330
2024
100
AcDbEntity
  8
0
100
AcDbBlockBegin
  2
SW_NOTE_4
 70
     0
 10
0.0
 20
0.0
 30
0.0
  3
SW_NOTE_4
  1

  0
LINE
  5
4E0
330
2024
100
AcDbEntity
  8
0
  6
Continuous
 62
     0
100
AcDbLine
 10
-6.680816771403335
 20
-0.0000000000002776
 30
0.0
 11
0.0
 21
-0.0000000000002776
 31
0.0
  0
LINE
  5
4E1
330
2024
100
AcDbEntity
  8
0
  6
Continuous
 62
     0
100
AcDbLine
 10
0.0
 20
-0.0000000000002776
 30
0.0
 11
-6.680816771403335
 21
-0.0000000000002776
 31
0.0
  0
LINE
  5
4E2
330
2024
100
AcDbEntity
  8
0
  6
Continuous
 62
     0
100
AcDbLine
 10
-6.680816771403335
 20
-0.0000000000002776
 30
0.0
 11
0.0
 21
-0.0000000000002776
 31
0.0
  0
LINE
  5
4E3
330
2024
100
AcDbEntity
  8
0
  6
Continuous
 62
     0
100
AcDbLine
 10
0.0
 20
-0.0000000000002776
 30
0.0
 11
-6.680816771403335
 21
-0.0000000000002776
 31
0.0
  0
LINE
  5
4E4
330
2024
100
AcDbEntity
  8
0
  6
Continuous
 62
     0
100
AcDbLine
 10
-6.680816771403335
 20
-0.0000000000002776
 30
0.0
 11
0.0
 21
-0.0000000000002776
 31
0.0
  0
LINE
  5
4E5
330
2024
100
AcDbEntity
  8
0
  6
Continuous
 62
     0
100
AcDbLine
 10
0.0
 20
-0.0000000000002776
 30
0.0
 11
-6.680816771403335
 21
-0.0000000000002776
 31
0.0
  0
INSERT
  5
4E6
330
2024
100
AcDbEntity
  8
0
100
AcDbBlockReference
  2
*U120
 10
0.0
 20
0.0
 30
0.0
  0
ENDBLK
  5
4DF
330
2024
100
AcDbEntity
  8
0
100
AcDbBlockEnd
  0
BLOCK
  5
2025
330
2026
100
AcDbEntity
  8
0
100
AcDbBlockBegin
  2
*U120
 70
     1
 10
0.0
 20
0.0
 30
0.0
  3
*U120
  1

  0
TEXT
  5
1D15
330
2026
100
AcDbEntity
  8
0
 62
     0
100
AcDbText
 10
-4.317896853171465
 20
0.2278580562062733
 30
0.0
 40
2.645833333333333
  1
3
 41
0.75
  7
SLDTEXTSTYLE0
100
AcDbText
  0
ENDBLK
  5
1D17
330
2026
100
AcDbEntity
  8
0
100
AcDbBlockEnd
  0
BLOCK
  5
2027
330
2028
100
AcDbEntity
  8
0
100
AcDbBlockBegin
  2
SW_NOTE_5
 70
     0
 10
0.0
 20
0.0
 30
0.0
  3
SW_NOTE_5
  1

  0
LINE
  5
4EC
330
2028
100
AcDbEntity
  8
0
  6
Continuous
 62
     0
100
AcDbLine
 10
0.0
 20
-0.0000000000002498
 30
0.0
 11
6.680816771403364
 21
-0.0000000000002498
 31
0.0
  0
LINE
  5
4ED
330
2028
100
AcDbEntity
  8
0
  6
Continuous
 62
     0
100
AcDbLine
 10
6.680816771403364
 20
-0.0000000000002498
 30
0.0
 11
0.0
 21
-0.0000000000002498
 31
0.0
  0
LINE
  5
4EE
330
2028
100
AcDbEntity
  8
0
  6
Continuous
 62
     0
100
AcDbLine
 10
0.0
 20
-0.0000000000002498
 30
0.0
 11
6.680816771403364
 21
-0.0000000000002498
 31
0.0
  0
LINE
  5
4EF
330
2028
100
AcDbEntity
  8
0
  6
Continuous
 62
     0
100
AcDbLine
 10
6.680816771403364
 20
-0.0000000000002498
 30
0.0
 11
0.0
 21
-0.0000000000002498
 31
0.0
  0
LINE
  5
4F0
330
2028
100
AcDbEntity
  8
0
  6
Continuous
 62
     0
100
AcDbLine
 10
0.0
 20
-0.0000000000002498
 30
0.0
 11
6.680816771403364
 21
-0.0000000000002498
 31
0.0
  0
LINE
  5
4F1
330
2028
100
AcDbEntity
  8
0
  6
Continuous
 62
     0
100
AcDbLine
 10
6.680816771403364
 20
-0.0000000000002498
 30
0.0
 11
0.0
 21
-0.0000000000002498
 31
0.0
  0
INSERT
  5
4F2
330
2028
100
AcDbEntity
  8
0
100
AcDbBlockReference
  2
*U122
 10
0.0
 20
0.0
 30
0.0
  0
ENDBLK
  5
4EB
330
2028
100
AcDbEntity
  8
0
100
AcDbBlockEnd
  0
BLOCK
  5
2029
330
202A
100
AcDbEntity
  8
0
100
AcDbBlockBegin
  2
*U122
 70
     1
 10
0.0
 20
0.0
 30
0.0
  3
*U122
  1

  0
TEXT
  5
1D19
330
202A
100
AcDbEntity
  8
0
 62
     0
100
AcDbText
 10
2.362919918231897
 20
0.2278580562062733
 30
0.0
 40
2.645833333333333
  1
4
 41
0.75
  7
SLDTEXTSTYLE0
100
AcDbText
  0
ENDBLK
  5
1D1B
330
202A
100
AcDbEntity
  8
0
100
AcDbBlockEnd
  0
BLOCK
  5
202B
330
202C
100
AcDbEntity
  8
0
100
AcDbBlockBegin
  2
SW_NOTE_6
 70
     0
 10
0.0
 20
0.0
 30
0.0
  3
SW_NOTE_6
  1

  0
LINE
  5
4F8
330
202C
100
AcDbEntity
  8
0
  6
Continuous
 62
     0
100
AcDbLine
 10
-6.680816771403308
 20
-0.0000000000001388
 30
0.0
 11
0.0
 21
-0.0000000000001388
 31
0.0
  0
LINE
  5
4F9
330
202C
100
AcDbEntity
  8
0
  6
Continuous
 62
     0
100
AcDbLine
 10
0.0
 20
-0.0000000000001388
 30
0.0
 11
-6.680816771403308
 21
-0.0000000000001388
 31
0.0
  0
LINE
  5
4FA
330
202C
100
AcDbEntity
  8
0
  6
Continuous
 62
     0
100
AcDbLine
 10
-6.680816771403308
 20
-0.0000000000001388
 30
0.0
 11
0.0
 21
-0.0000000000001388
 31
0.0
  0
LINE
  5
4FB
330
202C
100
AcDbEntity
  8
0
  6
Continuous
 62
     0
100
AcDbLine
 10
0.0
 20
-0.0000000000001388
 30
0.0
 11
-6.680816771403308
 21
-0.0000000000001388
 31
0.0
  0
LINE
  5
4FC
330
202C
100
AcDbEntity
  8
0
  6
Continuous
 62
     0
100
AcDbLine
 10
-6.680816771403308
 20
-0.0000000000001388
 30
0.0
 11
0.0
 21
-0.0000000000001388
 31
0.0
  0
LINE
  5
4FD
330
202C
100
AcDbEntity
  8
0
  6
Continuous
 62
     0
100
AcDbLine
 10
0.0
 20
-0.0000000000001388
 30
0.0
 11
-6.680816771403308
 21
-0.0000000000001388
 31
0.0
  0
INSERT
  5
4FE
330
202C
100
AcDbEntity
  8
0
100
AcDbBlockReference
  2
*U124
 10
0.0
 20
0.0
 30
0.0
  0
ENDBLK
  5
4F7
330
202C
100
AcDbEntity
  8
0
100
AcDbBlockEnd
  0
BLOCK
  5
202D
330
202E
100
AcDbEntity
  8
0
100
AcDbBlockBegin
  2
*U124
 70
     1
 10
0.0
 20
0.0
 30
0.0
  3
*U124
  1

  0
TEXT
  5
1D1D
330
202E
100
AcDbEntity
  8
0
 62
     0
100
AcDbText
 10
-5.295385320641275
 20
0.2278580562063843
 30
0.0
 40
2.645833333333333
  1
10
 41
0.75
  7
SLDTEXTSTYLE0
100
AcDbText
  0
ENDBLK
  5
1D1F
330
202E
100
AcDbEntity
  8
0
100
AcDbBlockEnd
  0
BLOCK
  5
202F
330
2030
100
AcDbEntity
  8
0
100
AcDbBlockBegin
  2
SW_NOTE_7
 70
     0
 10
0.0
 20
0.0
 30
0.0
  3
SW_NOTE_7
  1

  0
LINE
  5
504
330
2030
100
AcDbEntity
  8
0
  6
Continuous
 62
     0
100
AcDbLine
 10
-6.680816771403364
 20
-0.0000000000001388
 30
0.0
 11
0.0
 21
-0.0000000000001388
 31
0.0
  0
LINE
  5
505
330
2030
100
AcDbEntity
  8
0
  6
Continuous
 62
     0
100
AcDbLine
 10
0.0
 20
-0.0000000000001388
 30
0.0
 11
-6.680816771403364
 21
-0.0000000000001388
 31
0.0
  0
LINE
  5
506
330
2030
100
AcDbEntity
  8
0
  6
Continuous
 62
     0
100
AcDbLine
 10
-6.680816771403364
 20
-0.0000000000001388
 30
0.0
 11
0.0
 21
-0.0000000000001388
 31
0.0
  0
LINE
  5
507
330
2030
100
AcDbEntity
  8
0
  6
Continuous
 62
     0
100
AcDbLine
 10
0.0
 20
-0.0000000000001388
 30
0.0
 11
-6.680816771403364
 21
-0.0000000000001388
 31
0.0
  0
LINE
  5
508
330
2030
100
AcDbEntity
  8
0
  6
Continuous
 62
     0
100
AcDbLine
 10
-6.680816771403364
 20
-0.0000000000001388
 30
0.0
 11
0.0
 21
-0.0000000000001388
 31
0.0
  0
LINE
  5
509
330
2030
100
AcDbEntity
  8
0
  6
Continuous
 62
     0
100
AcDbLine
 10
0.0
 20
-0.0000000000001388
 30
0.0
 11
-6.680816771403364
 21
-0.0000000000001388
 31
0.0
  0
INSERT
  5
50A
330
2030
100
AcDbEntity
  8
0
100
AcDbBlockReference
  2
*U126
 10
0.0
 20
0.0
 30
0.0
  0
ENDBLK
  5
503
330
2030
100
AcDbEntity
  8
0
100
AcDbBlockEnd
  0
BLOCK
  5
2031
330
2032
100
AcDbEntity
  8
0
100
AcDbBlockBegin
  2
*U126
 70
     1
 10
0.0
 20
0.0
 30
0.0
  3
*U126
  1

  0
TEXT
  5
1D21
330
2032
100
AcDbEntity
  8
0
 62
     0
100
AcDbText
 10
-5.295385320641305
 20
0.2278580562063843
 30
0.0
 40
2.645833333333333
  1
12
 41
0.75
  7
SLDTEXTSTYLE0
100
AcDbText
  0
ENDBLK
  5
1D23
330
2032
100
AcDbEntity
  8
0
100
AcDbBlockEnd
  0
BLOCK
  5
2033
330
2034
100
AcDbEntity
  8
0
100
AcDbBlockBegin
  2
SW_NOTE_8
 70
     0
 10
0.0
 20
0.0
 30
0.0
  3
SW_NOTE_8
  1

  0
LINE
  5
837
330
2034
100
AcDbEntity
  8
0
  6
Continuous
 62
     0
100
AcDbLine
 10
0.0
 20
-0.0000000000000833
 30
0.0
 11
6.680816771403308
 21
-0.0000000000000833
 31
0.0
  0
LINE
  5
838
330
2034
100
AcDbEntity
  8
0
  6
Continuous
 62
     0
100
AcDbLine
 10
6.680816771403308
 20
-0.0000000000000833
 30
0.0
 11
0.0
 21
-0.0000000000000833
 31
0.0
  0
LINE
  5
839
330
2034
100
AcDbEntity
  8
0
  6
Continuous
 62
     0
100
AcDbLine
 10
0.0
 20
-0.0000000000000833
 30
0.0
 11
6.680816771403308
 21
-0.0000000000000833
 31
0.0
  0
LINE
  5
83A
330
2034
100
AcDbEntity
  8
0
  6
Continuous
 62
     0
100
AcDbLine
 10
6.680816771403308
 20
-0.0000000000000833
 30
0.0
 11
0.0
 21
-0.0000000000000833
 31
0.0
  0
LINE
  5
83B
330
2034
100
AcDbEntity
  8
0
  6
Continuous
 62
     0
100
AcDbLine
 10
0.0
 20
-0.0000000000000833
 30
0.0
 11
6.680816771403308
 21
-0.0000000000000833
 31
0.0
  0
LINE
  5
83C
330
2034
100
AcDbEntity
  8
0
  6
Continuous
 62
     0
100
AcDbLine
 10
6.680816771403308
 20
-0.0000000000000833
 30
0.0
 11
0.0
 21
-0.0000000000000833
 31
0.0
  0
INSERT
  5
83D
330
2034
100
AcDbEntity
  8
0
100
AcDbBlockReference
  2
*U128
 10
0.0
 20
0.0
 30
0.0
  0
ENDBLK
  5
836
330
2034
100
AcDbEntity
  8
0
100
AcDbBlockEnd
  0
BLOCK
  5
2035
330
2036
100
AcDbEntity
  8
0
100
AcDbBlockBegin
  2
*U128
 70
     1
 10
0.0
 20
0.0
 30
0.0
  3
*U128
  1

  0
TEXT
  5
1D25
330
2036
100
AcDbEntity
  8
0
 62
     0
100
AcDbText
 10
2.362919918231897
 20
0.2278580562064394
 30
0.0
 40
2.645833333333333
  1
7
 41
0.75
  7
SLDTEXTSTYLE0
100
AcDbText
  0
ENDBLK
  5
1D27
330
2036
100
AcDbEntity
  8
0
100
AcDbBlockEnd
  0
BLOCK
  5
2037
330
2038
100
AcDbEntity
  8
0
100
AcDbBlockBegin
  2
*D129
 70
     1
 10
0.0
 20
0.0
 30
0.0
  3
*D129
  1

  0
SOLID
  5
A2E
330
2038
100
AcDbEntity
  8
0
  6
Continuous
 62
     7
100
AcDbTrace
 10
156.0582530529496
 20
178.1334836411292
 30
0.0
 11
160.0582530529496
 21
177.3834836411292
 31
0.0
 12
160.0582530529496
 22
178.8834836411292
 32
0.0
 13
160.0582530529496
 23
178.8834836411292
 33
0.0
  0
SOLID
  5
A2F
330
2038
100
AcDbEntity
  8
0
  6
Continuous
 62
     7
100
AcDbTrace
 10
236.0582530529496
 20
178.1334836411298
 30
0.0
 11
232.0582530529496
 21
178.8834836411298
 31
0.0
 12
232.0582530529496
 22
177.3834836411298
 32
0.0
 13
232.0582530529496
 23
177.3834836411298
 33
0.0
  0
LINE
  5
A30
330
2038
100
AcDbEntity
  8
0
  6
Continuous
 62
     7
100
AcDbLine
 10
156.0582530529497
 20
160.2763407839862
 30
0.0
 11
156.0582530529496
 21
179.1334836411292
 31
0.0
  0
LINE
  5
A31
330
2038
100
AcDbEntity
  8
0
  6
Continuous
 62
     7
100
AcDbLine
 10
236.0582530529498
 20
160.2763407839868
 30
0.0
 11
236.0582530529496
 21
179.1334836411298
 31
0.0
  0
LINE
  5
A32
330
2038
100
AcDbEntity
  8
0
  6
Continuous
 62
     7
100
AcDbLine
 10
156.0582530529496
 20
178.1334836411292
 30
0.0
 11
236.0582530529496
 21
178.1334836411298
 31
0.0
  0
INSERT
  5
A33
330
2038
100
AcDbEntity
  8
0
100
AcDbBlockReference
  2
*U130
 10
0.0
 20
0.0
 30
0.0
  0
ENDBLK
  5
A2D
330
2038
100
AcDbEntity
  8
0
100
AcDbBlockEnd
  0
BLOCK
  5
2039
330
203A
100
AcDbEntity
  8
0
100
AcDbBlockBegin
  2
*U130
 70
     1
 10
0.0
 20
0.0
 30
0.0
  3
*U130
  1

  0
TEXT
  5
1D29
330
203A
100
AcDbEntity
  8
0
 62
     7
100
AcDbText
 10
194.1578012446506
 20
178.8983086444021
 30
-0.0000000000016105
 40
2.645833333333333
  1
560
 50
0.0000000000003817
 41
0.75
  7
SLDTEXTSTYLE0
100
AcDbText
  0
ENDBLK
  5
1D2B
330
203A
100
AcDbEntity
  8
0
100
AcDbBlockEnd
  0
BLOCK
  5
203B
330
203C
100
AcDbEntity
  8
0
100
AcDbBlockBegin
  2
SW_NOTE_9
 70
     0
 10
0.0
 20
0.0
 30
0.0
  3
SW_NOTE_9
  1

  0
LINE
  5
A37
330
203C
100
AcDbEntity
  8
0
  6
Continuous
 62
     0
100
AcDbLine
 10
-6.680816771403364
 20
-0.0000000000001388
 30
0.0
 11
0.0
 21
-0.0000000000001388
 31
0.0
  0
LINE
  5
A38
330
203C
100
AcDbEntity
  8
0
  6
Continuous
 62
     0
100
AcDbLine
 10
0.0
 20
-0.0000000000001388
 30
0.0
 11
-6.680816771403364
 21
-0.0000000000001388
 31
0.0
  0
LINE
  5
A39
330
203C
100
AcDbEntity
  8
0
  6
Continuous
 62
     0
100
AcDbLine
 10
-6.680816771403364
 20
-0.0000000000001388
 30
0.0
 11
0.0
 21
-0.0000000000001388
 31
0.0
  0
LINE
  5
A3A
330
203C
100
AcDbEntity
  8
0
  6
Continuous
 62
     0
100
AcDbLine
 10
0.0
 20
-0.0000000000001388
 30
0.0
 11
-6.680816771403364
 21
-0.0000000000001388
 31
0.0
  0
LINE
  5
A3B
330
203C
100
AcDbEntity
  8
0
  6
Continuous
 62
     0
100
AcDbLine
 10
-6.680816771403364
 20
-0.0000000000001388
 30
0.0
 11
0.0
 21
-0.0000000000001388
 31
0.0
  0
LINE
  5
A3C
330
203C
100
AcDbEntity
  8
0
  6
Continuous
 62
     0
100
AcDbLine
 10
0.0
 20
-0.0000000000001388
 30
0.0
 11
-6.680816771403364
 21
-0.0000000000001388
 31
0.0
  0
INSERT
  5
A3D
330
203C
100
AcDbEntity
  8
0
100
AcDbBlockReference
  2
*U132
 10
0.0
 20
0.0
 30
0.0
  0
ENDBLK
  5
A36
330
203C
100
AcDbEntity
  8
0
100
AcDbBlockEnd
  0
BLOCK
  5
203D
330
203E
100
AcDbEntity
  8
0
100
AcDbBlockBegin
  2
*U132
 70
     1
 10
0.0
 20
0.0
 30
0.0
  3
*U132
  1

  0
TEXT
  5
1D2D
330
203E
100
AcDbEntity
  8
0
 62
     0
100
AcDbText
 10
-4.317896853171465
 20
0.2278580562064119
 30
0.0
 40
2.645833333333333
  1
6
 41
0.75
  7
SLDTEXTSTYLE0
100
AcDbText
  0
ENDBLK
  5
1D2F
330
203E
100
AcDbEntity
  8
0
100
AcDbBlockEnd
  0
BLOCK
  5
203F
330
2040
100
AcDbEntity
  8
0
100
AcDbBlockBegin
  2
SW_NOTE_10
 70
     0
 10
0.0
 20
0.0
 30
0.0
  3
SW_NOTE_10
  1

  0
LINE
  5
A43
330
2040
100
AcDbEntity
  8
0
  6
Continuous
 62
     0
100
AcDbLine
 10
-6.680816771403364
 20
-0.0000000000001388
 30
0.0
 11
0.0
 21
-0.0000000000001388
 31
0.0
  0
LINE
  5
A44
330
2040
100
AcDbEntity
  8
0
  6
Continuous
 62
     0
100
AcDbLine
 10
0.0
 20
-0.0000000000001388
 30
0.0
 11
-6.680816771403364
 21
-0.0000000000001388
 31
0.0
  0
LINE
  5
A45
330
2040
100
AcDbEntity
  8
0
  6
Continuous
 62
     0
100
AcDbLine
 10
-6.680816771403364
 20
-0.0000000000001388
 30
0.0
 11
0.0
 21
-0.0000000000001388
 31
0.0
  0
LINE
  5
A46
330
2040
100
AcDbEntity
  8
0
  6
Continuous
 62
     0
100
AcDbLine
 10
0.0
 20
-0.0000000000001388
 30
0.0
 11
-6.680816771403364
 21
-0.0000000000001388
 31
0.0
  0
LINE
  5
A47
330
2040
100
AcDbEntity
  8
0
  6
Continuous
 62
     0
100
AcDbLine
 10
-6.680816771403364
 20
-0.0000000000001388
 30
0.0
 11
0.0
 21
-0.0000000000001388
 31
0.0
  0
LINE
  5
A48
330
2040
100
AcDbEntity
  8
0
  6
Continuous
 62
     0
100
AcDbLine
 10
0.0
 20
-0.0000000000001388
 30
0.0
 11
-6.680816771403364
 21
-0.0000000000001388
 31
0.0
  0
INSERT
  5
A49
330
2040
100
AcDbEntity
  8
0
100
AcDbBlockReference
  2
*U134
 10
0.0
 20
0.0
 30
0.0
  0
ENDBLK
  5
A42
330
2040
100
AcDbEntity
  8
0
100
AcDbBlockEnd
  0
BLOCK
  5
2041
330
2042
100
AcDbEntity
  8
0
100
AcDbBlockBegin
  2
*U134
 70
     1
 10
0.0
 20
0.0
 30
0.0
  3
*U134
  1

  0
TEXT
  5
1D31
330
2042
100
AcDbEntity
  8
0
 62
     0
100
AcDbText
 10
-5.295385320641331
 20
0.2278580562063843
 30
0.0
 40
2.645833333333333
  1
11
 41
0.75
  7
SLDTEXTSTYLE0
100
AcDbText
  0
ENDBLK
  5
1D33
330
2042
100
AcDbEntity
  8
0
100
AcDbBlockEnd
  0
BLOCK
  5
2043
330
2044
100
AcDbEntity
  8
0
100
AcDbBlockBegin
  2
SW_NOTE_11
 70
     0
 10
0.0
 20
0.0
 30
0.0
  3
SW_NOTE_11
  1

  0
LINE
  5
A4F
330
2044
100
AcDbEntity
  8
0
  6
Continuous
 62
     0
100
AcDbLine
 10
-6.680816771403364
 20
-0.0000000000001388
 30
0.0
 11
0.0
 21
-0.0000000000001388
 31
0.0
  0
LINE
  5
A50
330
2044
100
AcDbEntity
  8
0
  6
Continuous
 62
     0
100
AcDbLine
 10
0.0
 20
-0.0000000000001388
 30
0.0
 11
-6.680816771403364
 21
-0.0000000000001388
 31
0.0
  0
LINE
  5
A51
330
2044
100
AcDbEntity
  8
0
  6
Continuous
 62
     0
100
AcDbLine
 10
-6.680816771403364
 20
-0.0000000000001388
 30
0.0
 11
0.0
 21
-0.0000000000001388
 31
0.0
  0
LINE
  5
A52
330
2044
100
AcDbEntity
  8
0
  6
Continuous
 62
     0
100
AcDbLine
 10
0.0
 20
-0.0000000000001388
 30
0.0
 11
-6.680816771403364
 21
-0.0000000000001388
 31
0.0
  0
LINE
  5
A53
330
2044
100
AcDbEntity
  8
0
  6
Continuous
 62
     0
100
AcDbLine
 10
-6.680816771403364
 20
-0.0000000000001388
 30
0.0
 11
0.0
 21
-0.0000000000001388
 31
0.0
  0
LINE
  5
A54
330
2044
100
AcDbEntity
  8
0
  6
Continuous
 62
     0
100
AcDbLine
 10
0.0
 20
-0.0000000000001388
 30
0.0
 11
-6.680816771403364
 21
-0.0000000000001388
 31
0.0
  0
INSERT
  5
A55
330
2044
100
AcDbEntity
  8
0
100
AcDbBlockReference
  2
*U136
 10
0.0
 20
0.0
 30
0.0
  0
ENDBLK
  5
A4E
330
2044
100
AcDbEntity
  8
0
100
AcDbBlockEnd
  0
BLOCK
  5
2045
330
2046
100
AcDbEntity
  8
0
100
AcDbBlockBegin
  2
*U136
 70
     1
 10
0.0
 20
0.0
 30
0.0
  3
*U136
  1

  0
TEXT
  5
1D35
330
2046
100
AcDbEntity
  8
0
 62
     0
100
AcDbText
 10
-5.295385320641331
 20
0.2278580562063843
 30
0.0
 40
2.645833333333333
  1
17
 41
0.75
  7
SLDTEXTSTYLE0
100
AcDbText
  0
ENDBLK
  5
1D37
330
2046
100
AcDbEntity
  8
0
100
AcDbBlockEnd
  0
BLOCK
  5
2047
330
2048
100
AcDbEntity
  8
0
100
AcDbBlockBegin
  2
SW_NOTE_12
 70
     0
 10
0.0
 20
0.0
 30
0.0
  3
SW_NOTE_12
  1

  0
LINE
  5
ED4
330
2048
100
AcDbEntity
  8
0
  6
Continuous
 62
     0
100
AcDbLine
 10
-6.680816771403335
 20
-0.0000000000001665
 30
0.0
 11
0.0
 21
-0.0000000000001665
 31
0.0
  0
LINE
  5
ED5
330
2048
100
AcDbEntity
  8
0
  6
Continuous
 62
     0
100
AcDbLine
 10
0.0
 20
-0.0000000000001665
 30
0.0
 11
-6.680816771403335
 21
-0.0000000000001665
 31
0.0
  0
LINE
  5
ED6
330
2048
100
AcDbEntity
  8
0
  6
Continuous
 62
     0
100
AcDbLine
 10
-6.680816771403335
 20
-0.0000000000001665
 30
0.0
 11
0.0
 21
-0.0000000000001665
 31
0.0
  0
LINE
  5
ED7
330
2048
100
AcDbEntity
  8
0
  6
Continuous
 62
     0
100
AcDbLine
 10
0.0
 20
-0.0000000000001665
 30
0.0
 11
-6.680816771403335
 21
-0.0000000000001665
 31
0.0
  0
LINE
  5
ED8
330
2048
100
AcDbEntity
  8
0
  6
Continuous
 62
     0
100
AcDbLine
 10
-6.680816771403335
 20
-0.0000000000001665
 30
0.0
 11
0.0
 21
-0.0000000000001665
 31
0.0
  0
LINE
  5
ED9
330
2048
100
AcDbEntity
  8
0
  6
Continuous
 62
     0
100
AcDbLine
 10
0.0
 20
-0.0000000000001665
 30
0.0
 11
-6.680816771403335
 21
-0.0000000000001665
 31
0.0
  0
INSERT
  5
EDA
330
2048
100
AcDbEntity
  8
0
100
AcDbBlockReference
  2
*U138
 10
0.0
 20
0.0
 30
0.0
  0
ENDBLK
  5
ED3
330
2048
100
AcDbEntity
  8
0
100
AcDbBlockEnd
  0
BLOCK
  5
2049
330
204A
100
AcDbEntity
  8
0
100
AcDbBlockBegin
  2
*U138
 70
     1
 10
0.0
 20
0.0
 30
0.0
  3
*U138
  1

  0
TEXT
  5
1D39
330
204A
100
AcDbEntity
  8
0
 62
     0
100
AcDbText
 10
-4.317896853171465
 20
0.2278580562063217
 30
0.0
 40
2.645833333333333
  1
5
 41
0.75
  7
SLDTEXTSTYLE0
100
AcDbText
  0
ENDBLK
  5
1D3B
330
204A
100
AcDbEntity
  8
0
100
AcDbBlockEnd
  0
BLOCK
  5
204B
330
204C
100
AcDbEntity
  8
0
100
AcDbBlockBegin
  2
SW_NOTE_13
 70
     0
 10
0.0
 20
0.0
 30
0.0
  3
SW_NOTE_13
  1

  0
LINE
  5
EE0
330
204C
100
AcDbEntity
  8
0
  6
Continuous
 62
     0
100
AcDbLine
 10
-6.680816771403335
 20
-0.0000000000001943
 30
0.0
 11
0.0
 21
-0.0000000000001943
 31
0.0
  0
LINE
  5
EE1
330
204C
100
AcDbEntity
  8
0
  6
Continuous
 62
     0
100
AcDbLine
 10
0.0
 20
-0.0000000000001943
 30
0.0
 11
-6.680816771403335
 21
-0.0000000000001943
 31
0.0
  0
LINE
  5
EE2
330
204C
100
AcDbEntity
  8
0
  6
Continuous
 62
     0
100
AcDbLine
 10
-6.680816771403335
 20
-0.0000000000001943
 30
0.0
 11
0.0
 21
-0.0000000000001943
 31
0.0
  0
LINE
  5
EE3
330
204C
100
AcDbEntity
  8
0
  6
Continuous
 62
     0
100
AcDbLine
 10
0.0
 20
-0.0000000000001943
 30
0.0
 11
-6.680816771403335
 21
-0.0000000000001943
 31
0.0
  0
LINE
  5
EE4
330
204C
100
AcDbEntity
  8
0
  6
Continuous
 62
     0
100
AcDbLine
 10
-6.680816771403335
 20
-0.0000000000001943
 30
0.0
 11
0.0
 21
-0.0000000000001943
 31
0.0
  0
LINE
  5
EE5
330
204C
100
AcDbEntity
  8
0
  6
Continuous
 62
     0
100
AcDbLine
 10
0.0
 20
-0.0000000000001943
 30
0.0
 11
-6.680816771403335
 21
-0.0000000000001943
 31
0.0
  0
INSERT
  5
EE6
330
204C
100
AcDbEntity
  8
0
100
AcDbBlockReference
  2
*U140
 10
0.0
 20
0.0
 30
0.0
  0
ENDBLK
  5
EDF
330
204C
100
AcDbEntity
  8
0
100
AcDbBlockEnd
  0
BLOCK
  5
204D
330
204E
100
AcDbEntity
  8
0
100
AcDbBlockBegin
  2
*U140
 70
     1
 10
0.0
 20
0.0
 30
0.0
  3
*U140
  1

  0
TEXT
  5
1D3D
330
204E
100
AcDbEntity
  8
0
 62
     0
100
AcDbText
 10
-4.317896853171465
 20
0.2278580562062871
 30
0.0
 40
2.645833333333333
  1
9
 41
0.75
  7
SLDTEXTSTYLE0
100
AcDbText
  0
ENDBLK
  5
1D3F
330
204E
100
AcDbEntity
  8
0
100
AcDbBlockEnd
  0
BLOCK
  5
204F
330
2050
100
AcDbEntity
  8
0
100
AcDbBlockBegin
  2
SW_NOTE_14
 70
     0
 10
0.0
 20
0.0
 30
0.0
  3
SW_NOTE_14
  1

  0
LINE
  5
EEC
330
2050
100
AcDbEntity
  8
0
  6
Continuous
 62
     0
100
AcDbLine
 10
0.0
 20
-0.0000000000001318
 30
0.0
 11
6.680816771403364
 21
-0.0000000000001318
 31
0.0
  0
LINE
  5
EED
330
2050
100
AcDbEntity
  8
0
  6
Continuous
 62
     0
100
AcDbLine
 10
6.680816771403364
 20
-0.0000000000001318
 30
0.0
 11
0.0
 21
-0.0000000000001318
 31
0.0
  0
LINE
  5
EEE
330
2050
100
AcDbEntity
  8
0
  6
Continuous
 62
     0
100
AcDbLine
 10
0.0
 20
-0.0000000000001318
 30
0.0
 11
6.680816771403364
 21
-0.0000000000001318
 31
0.0
  0
LINE
  5
EEF
330
2050
100
AcDbEntity
  8
0
  6
Continuous
 62
     0
100
AcDbLine
 10
6.680816771403364
 20
-0.0000000000001318
 30
0.0
 11
0.0
 21
-0.0000000000001318
 31
0.0
  0
LINE
  5
EF0
330
2050
100
AcDbEntity
  8
0
  6
Continuous
 62
     0
100
AcDbLine
 10
0.0
 20
-0.0000000000001318
 30
0.0
 11
6.680816771403364
 21
-0.0000000000001318
 31
0.0
  0
LINE
  5
EF1
330
2050
100
AcDbEntity
  8
0
  6
Continuous
 62
     0
100
AcDbLine
 10
6.680816771403364
 20
-0.0000000000001318
 30
0.0
 11
0.0
 21
-0.0000000000001318
 31
0.0
  0
INSERT
  5
EF2
330
2050
100
AcDbEntity
  8
0
100
AcDbBlockReference
  2
*U142
 10
0.0
 20
0.0
 30
0.0
  0
ENDBLK
  5
EEB
330
2050
100
AcDbEntity
  8
0
100
AcDbBlockEnd
  0
BLOCK
  5
2051
330
2052
100
AcDbEntity
  8
0
100
AcDbBlockBegin
  2
*U142
 70
     1
 10
0.0
 20
0.0
 30
0.0
  3
*U142
  1

  0
TEXT
  5
1D41
330
2052
100
AcDbEntity
  8
0
 62
     0
100
AcDbText
 10
2.362919918231841
 20
0.2278580562063563
 30
0.0
 40
2.645833333333333
  1
8
 41
0.75
  7
SLDTEXTSTYLE0
100
AcDbText
  0
ENDBLK
  5
1D43
330
2052
100
AcDbEntity
  8
0
100
AcDbBlockEnd
  0
BLOCK
  5
2053
330
2054
100
AcDbEntity
  8
0
100
AcDbBlockBegin
  2
SW_NOTE_15
 70
     0
 10
0.0
 20
0.0
 30
0.0
  3
SW_NOTE_15
  1

  0
LINE
  5
EF8
330
2054
100
AcDbEntity
  8
0
  6
Continuous
 62
     0
100
AcDbLine
 10
0.0
 20
-0.0000000000001665
 30
0.0
 11
6.680816771403308
 21
-0.0000000000001665
 31
0.0
  0
LINE
  5
EF9
330
2054
100
AcDbEntity
  8
0
  6
Continuous
 62
     0
100
AcDbLine
 10
6.680816771403308
 20
-0.0000000000001665
 30
0.0
 11
0.0
 21
-0.0000000000001665
 31
0.0
  0
LINE
  5
EFA
330
2054
100
AcDbEntity
  8
0
  6
Continuous
 62
     0
100
AcDbLine
 10
0.0
 20
-0.0000000000001665
 30
0.0
 11
0.0
 21
-4.453877847602426
 31
0.0
  0
LINE
  5
EFB
330
2054
100
AcDbEntity
  8
0
  6
Continuous
 62
     0
100
AcDbLine
 10
0.0
 20
-4.453877847602426
 30
0.0
 11
0.0
 21
-0.0000000000001665
 31
0.0
  0
LINE
  5
EFC
330
2054
100
AcDbEntity
  8
0
  6
Continuous
 62
     0
100
AcDbLine
 10
0.0
 20
-0.0000000000001665
 30
0.0
 11
6.680816771403308
 21
-0.0000000000001665
 31
0.0
  0
LINE
  5
EFD
330
2054
100
AcDbEntity
  8
0
  6
Continuous
 62
     0
100
AcDbLine
 10
6.680816771403308
 20
-0.0000000000001665
 30
0.0
 11
0.0
 21
-0.0000000000001665
 31
0.0
  0
INSERT
  5
EFE
330
2054
100
AcDbEntity
  8
0
100
AcDbBlockReference
  2
*U144
 10
0.0
 20
0.0
 30
0.0
  0
ENDBLK
  5
EF7
330
2054
100
AcDbEntity
  8
0
100
AcDbBlockEnd
  0
BLOCK
  5
2055
330
2056
100
AcDbEntity
  8
0
100
AcDbBlockBegin
  2
*U144
 70
     1
 10
0.0
 20
0.0
 30
0.0
  3
*U144
  1

  0
TEXT
  5
1D45
330
2056
100
AcDbEntity
  8
0
 62
     0
100
AcDbText
 10
1.38543145076203
 20
0.2278580562063284
 30
0.0
 40
2.645833333333333
  1
15
 41
0.75
  7
SLDTEXTSTYLE0
100
AcDbText
  0
ENDBLK
  5
1D47
330
2056
100
AcDbEntity
  8
0
100
AcDbBlockEnd
  0
BLOCK
  5
2057
330
2058
100
AcDbEntity
  8
0
100
AcDbBlockBegin
  2
SW_NOTE_16
 70
     0
 10
0.0
 20
0.0
 30
0.0
  3
SW_NOTE_16
  1

  0
LINE
  5
F04
330
2058
100
AcDbEntity
  8
0
  6
Continuous
 62
     0
100
AcDbLine
 10
-1.38543145076203
 20
4.990844852875762
 30
0.0
 11
-1.38543145076203
 21
0.5369670052735032
 31
0.0
  0
LINE
  5
F05
330
2058
100
AcDbEntity
  8
0
  6
Continuous
 62
     0
100
AcDbLine
 10
-1.38543145076203
 20
0.5369670052735032
 30
0.0
 11
5.295385320641275
 21
0.5369670052735032
 31
0.0
  0
LINE
  5
F06
330
2058
100
AcDbEntity
  8
0
  6
Continuous
 62
     0
100
AcDbLine
 10
5.295385320641275
 20
0.5369670052735032
 30
0.0
 11
-1.38543145076203
 21
0.5369670052735032
 31
0.0
  0
LINE
  5
F07
330
2058
100
AcDbEntity
  8
0
  6
Continuous
 62
     0
100
AcDbLine
 10
-1.38543145076203
 20
0.5369670052735032
 30
0.0
 11
-1.38543145076203
 21
4.990844852875762
 31
0.0
  0
LINE
  5
F08
330
2058
100
AcDbEntity
  8
0
  6
Continuous
 62
     0
100
AcDbLine
 10
-1.38543145076203
 20
4.990844852875762
 30
0.0
 11
-1.38543145076203
 21
0.5369670052735032
 31
0.0
  0
LINE
  5
F09
330
2058
100
AcDbEntity
  8
0
  6
Continuous
 62
     0
100
AcDbLine
 10
-1.38543145076203
 20
0.5369670052735032
 30
0.0
 11
-1.38543145076203
 21
4.990844852875762
 31
0.0
  0
INSERT
  5
F0A
330
2058
100
AcDbEntity
  8
0
100
AcDbBlockReference
  2
*U146
 10
0.0
 20
0.0
 30
0.0
  0
ENDBLK
  5
F03
330
2058
100
AcDbEntity
  8
0
100
AcDbBlockEnd
  0
BLOCK
  5
2059
330
205A
100
AcDbEntity
  8
0
100
AcDbBlockBegin
  2
*U146
 70
     1
 10
0.0
 20
0.0
 30
0.0
  3
*U146
  1

  0
TEXT
  5
1D49
330
205A
100
AcDbEntity
  8
0
 62
     0
100
AcDbText
 10
0.0
 20
0.7648250614799986
 30
0.0
 40
2.645833333333333
  1
14
 41
0.75
  7
SLDTEXTSTYLE0
100
AcDbText
  0
ENDBLK
  5
1D4B
330
205A
100
AcDbEntity
  8
0
100
AcDbBlockEnd
  0
BLOCK
  5
205B
330
205C
100
AcDbEntity
  8
0
100
AcDbBlockBegin
  2
SW_NOTE_17
 70
     0
 10
0.0
 20
0.0
 30
0.0
  3
SW_NOTE_17
  1

  0
LINE
  5
F0F
330
205C
100
AcDbEntity
  8
0
  6
Continuous
 62
     0
100
AcDbLine
 10
-1.38543145076203
 20
4.990844852875762
 30
0.0
 11
-1.38543145076203
 21
0.5369670052735032
 31
0.0
  0
LINE
  5
F10
330
205C
100
AcDbEntity
  8
0
  6
Continuous
 62
     0
100
AcDbLine
 10
-1.38543145076203
 20
0.5369670052735032
 30
0.0
 11
5.295385320641275
 21
0.5369670052735032
 31
0.0
  0
LINE
  5
F11
330
205C
100
AcDbEntity
  8
0
  6
Continuous
 62
     0
100
AcDbLine
 10
5.295385320641275
 20
0.5369670052735032
 30
0.0
 11
-1.38543145076203
 21
0.5369670052735032
 31
0.0
  0
LINE
  5
F12
330
205C
100
AcDbEntity
  8
0
  6
Continuous
 62
     0
100
AcDbLine
 10
-1.38543145076203
 20
0.5369670052735032
 30
0.0
 11
-1.38543145076203
 21
4.990844852875762
 31
0.0
  0
LINE
  5
F13
330
205C
100
AcDbEntity
  8
0
  6
Continuous
 62
     0
100
AcDbLine
 10
-1.38543145076203
 20
4.990844852875762
 30
0.0
 11
-1.38543145076203
 21
0.5369670052735032
 31
0.0
  0
LINE
  5
F14
330
205C
100
AcDbEntity
  8
0
  6
Continuous
 62
     0
100
AcDbLine
 10
-1.38543145076203
 20
0.5369670052735032
 30
0.0
 11
-1.38543145076203
 21
4.990844852875762
 31
0.0
  0
INSERT
  5
F15
330
205C
100
AcDbEntity
  8
0
100
AcDbBlockReference
  2
*U148
 10
0.0
 20
0.0
 30
0.0
  0
ENDBLK
  5
F0E
330
205C
100
AcDbEntity
  8
0
100
AcDbBlockEnd
  0
BLOCK
  5
205D
330
205E
100
AcDbEntity
  8
0
100
AcDbBlockBegin
  2
*U148
 70
     1
 10
0.0
 20
0.0
 30
0.0
  3
*U148
  1

  0
TEXT
  5
1D4D
330
205E
100
AcDbEntity
  8
0
 62
     0
100
AcDbText
 10
0.0
 20
0.7648250614799843
 30
0.0
 40
2.645833333333333
  1
13
 41
0.75
  7
SLDTEXTSTYLE0
100
AcDbText
  0
ENDBLK
  5
1D4F
330
205E
100
AcDbEntity
  8
0
100
AcDbBlockEnd
  0
BLOCK
  5
205F
330
2060
100
AcDbEntity
  8
0
100
AcDbBlockBegin
  2
SW_NOTE_18
 70
     0
 10
0.0
 20
0.0
 30
0.0
  3
SW_NOTE_18
  1

  0
LINE
  5
F1A
330
2060
100
AcDbEntity
  8
0
  6
Continuous
 62
     0
100
AcDbLine
 10
0.0
 20
-0.0000000000001665
 30
0.0
 11
6.680816771403364
 21
-0.0000000000001665
 31
0.0
  0
LINE
  5
F1B
330
2060
100
AcDbEntity
  8
0
  6
Continuous
 62
     0
100
AcDbLine
 10
6.680816771403364
 20
-0.0000000000001665
 30
0.0
 11
0.0
 21
-0.0000000000001665
 31
0.0
  0
LINE
  5
F1C
330
2060
100
AcDbEntity
  8
0
  6
Continuous
 62
     0
100
AcDbLine
 10
0.0
 20
-0.0000000000001665
 30
0.0
 11
0.0
 21
-4.4538778476024
 31
0.0
  0
LINE
  5
F1D
330
2060
100
AcDbEntity
  8
0
  6
Continuous
 62
     0
100
AcDbLine
 10
0.0
 20
-4.4538778476024
 30
0.0
 11
0.0
 21
-0.0000000000001665
 31
0.0
  0
LINE
  5
F1E
330
2060
100
AcDbEntity
  8
0
  6
Continuous
 62
     0
100
AcDbLine
 10
0.0
 20
-0.0000000000001665
 30
0.0
 11
6.680816771403364
 21
-0.0000000000001665
 31
0.0
  0
LINE
  5
F1F
330
2060
100
AcDbEntity
  8
0
  6
Continuous
 62
     0
100
AcDbLine
 10
6.680816771403364
 20
-0.0000000000001665
 30
0.0
 11
0.0
 21
-0.0000000000001665
 31
0.0
  0
INSERT
  5
F20
330
2060
100
AcDbEntity
  8
0
100
AcDbBlockReference
  2
*U150
 10
0.0
 20
0.0
 30
0.0
  0
ENDBLK
  5
F19
330
2060
100
AcDbEntity
  8
0
100
AcDbBlockEnd
  0
BLOCK
  5
2061
330
2062
100
AcDbEntity
  8
0
100
AcDbBlockBegin
  2
*U150
 70
     1
 10
0.0
 20
0.0
 30
0.0
  3
*U150
  1

  0
TEXT
  5
1D51
330
2062
100
AcDbEntity
  8
0
 62
     0
100
AcDbText
 10
1.385431450762085
 20
0.2278580562063563
 30
0.0
 40
2.645833333333333
  1
16
 41
0.75
  7
SLDTEXTSTYLE0
100
AcDbText
  0
ENDBLK
  5
1D53
330
2062
100
AcDbEntity
  8
0
100
AcDbBlockEnd
  0
BLOCK
  5
2063
330
2064
100
AcDbEntity
  8
0
100
AcDbBlockBegin
  2
SW_NOTE_19
 70
     0
 10
0.0
 20
0.0
 30
0.0
  3
SW_NOTE_19
  1

  0
LINE
  5
F26
330
2064
100
AcDbEntity
  8
0
  6
Continuous
 62
     0
100
AcDbLine
 10
-1.385431450762085
 20
4.99084485287568
 30
0.0
 11
-1.385431450762085
 21
0.5369670052734756
 31
0.0
  0
LINE
  5
F27
330
2064
100
AcDbEntity
  8
0
  6
Continuous
 62
     0
100
AcDbLine
 10
-1.385431450762085
 20
0.5369670052734756
 30
0.0
 11
5.295385320641275
 21
0.5369670052734756
 31
0.0
  0
LINE
  5
F28
330
2064
100
AcDbEntity
  8
0
  6
Continuous
 62
     0
100
AcDbLine
 10
5.295385320641275
 20
0.5369670052734756
 30
0.0
 11
-1.385431450762085
 21
0.5369670052734756
 31
0.0
  0
LINE
  5
F29
330
2064
100
AcDbEntity
  8
0
  6
Continuous
 62
     0
100
AcDbLine
 10
-1.385431450762085
 20
0.5369670052734756
 30
0.0
 11
-1.385431450762085
 21
4.99084485287568
 31
0.0
  0
LINE
  5
F2A
330
2064
100
AcDbEntity
  8
0
  6
Continuous
 62
     0
100
AcDbLine
 10
-1.385431450762085
 20
4.99084485287568
 30
0.0
 11
-1.385431450762085
 21
0.5369670052734756
 31
0.0
  0
LINE
  5
F2B
330
2064
100
AcDbEntity
  8
0
  6
Continuous
 62
     0
100
AcDbLine
 10
-1.385431450762085
 20
0.5369670052734756
 30
0.0
 11
-1.385431450762085
 21
4.99084485287568
 31
0.0
  0
INSERT
  5
F2C
330
2064
100
AcDbEntity
  8
0
100
AcDbBlockReference
  2
*U152
 10
0.0
 20
0.0
 30
0.0
  0
ENDBLK
  5
F25
330
2064
100
AcDbEntity
  8
0
100
AcDbBlockEnd
  0
BLOCK
  5
2065
330
2066
100
AcDbEntity
  8
0
100
AcDbBlockBegin
  2
*U152
 70
     1
 10
0.0
 20
0.0
 30
0.0
  3
*U152
  1

  0
TEXT
  5
1D55
330
2066
100
AcDbEntity
  8
0
 62
     0
100
AcDbText
 10
0.0
 20
0.7648250614799986
 30
0.0
 40
2.645833333333333
  1
14
 41
0.75
  7
SLDTEXTSTYLE0
100
AcDbText
  0
ENDBLK
  5
1D57
330
2066
100
AcDbEntity
  8
0
100
AcDbBlockEnd
  0
BLOCK
  5
2067
330
2068
100
AcDbEntity
  8
0
100
AcDbBlockBegin
  2
SW_NOTE_20
 70
     0
 10
0.0
 20
0.0
 30
0.0
  3
SW_NOTE_20
  1

  0
LINE
  5
F31
330
2068
100
AcDbEntity
  8
0
  6
Continuous
 62
     0
100
AcDbLine
 10
-1.385431450762085
 20
4.990844852875736
 30
0.0
 11
-1.385431450762085
 21
0.5369670052735309
 31
0.0
  0
LINE
  5
F32
330
2068
100
AcDbEntity
  8
0
  6
Continuous
 62
     0
100
AcDbLine
 10
-1.385431450762085
 20
0.5369670052735309
 30
0.0
 11
5.295385320641275
 21
0.5369670052735309
 31
0.0
  0
LINE
  5
F33
330
2068
100
AcDbEntity
  8
0
  6
Continuous
 62
     0
100
AcDbLine
 10
5.295385320641275
 20
0.5369670052735309
 30
0.0
 11
-1.385431450762085
 21
0.5369670052735309
 31
0.0
  0
LINE
  5
F34
330
2068
100
AcDbEntity
  8
0
  6
Continuous
 62
     0
100
AcDbLine
 10
-1.385431450762085
 20
0.5369670052735309
 30
0.0
 11
-1.385431450762085
 21
4.990844852875736
 31
0.0
  0
LINE
  5
F35
330
2068
100
AcDbEntity
  8
0
  6
Continuous
 62
     0
100
AcDbLine
 10
-1.385431450762085
 20
4.990844852875736
 30
0.0
 11
-1.385431450762085
 21
0.5369670052735309
 31
0.0
  0
LINE
  5
F36
330
2068
100
AcDbEntity
  8
0
  6
Continuous
 62
     0
100
AcDbLine
 10
-1.385431450762085
 20
0.5369670052735309
 30
0.0
 11
-1.385431450762085
 21
4.990844852875736
 31
0.0
  0
INSERT
  5
F37
330
2068
100
AcDbEntity
  8
0
100
AcDbBlockReference
  2
*U154
 10
0.0
 20
0.0
 30
0.0
  0
ENDBLK
  5
F30
330
2068
100
AcDbEntity
  8
0
100
AcDbBlockEnd
  0
BLOCK
  5
2069
330
206A
100
AcDbEntity
  8
0
100
AcDbBlockBegin
  2
*U154
 70
     1
 10
0.0
 20
0.0
 30
0.0
  3
*U154
  1

  0
TEXT
  5
1D59
330
206A
100
AcDbEntity
  8
0
 62
     0
100
AcDbText
 10
0.0
 20
0.7648250614799986
 30
0.0
 40
2.645833333333333
  1
13
 41
0.75
  7
SLDTEXTSTYLE0
100
AcDbText
  0
ENDBLK
  5
1D5B
330
206A
100
AcDbEntity
  8
0
100
AcDbBlockEnd
  0
BLOCK
  5
206B
330
206C
100
AcDbEntity
  8
0
100
AcDbBlockBegin
  2
*U155
 70
     1
 10
0.0
 20
0.0
 30
0.0
  3
*U155
  1

  0
TEXT
  5
1B32
330
206C
100
AcDbEntity
  8
0
100
AcDbText
 10
573.4894381263599
 20
1004.729567408507
 30
0.0
 40
50.0
  1
VKS 500x250
100
AcDbText
  0
ENDBLK
  5
1B33
330
206C
100
AcDbEntity
  8
0
100
AcDbBlockEnd
  0
BLOCK
  5
206D
330
206E
100
AcDbEntity
  8
0
100
AcDbBlockBegin
  2
*U156
 70
     1
 10
0.0
 20
0.0
 30
0.0
  3
*U156
  1

  0
TEXT
  5
1D68
330
206E
100
AcDbEntity
  8
0
100
AcDbText
 10
676.6436861875408
 20
1422.538476661148
 30
0.0
 40
50.0
  1
VKS 500x300
100
AcDbText
  0
ENDBLK
  5
1D6A
330
206E
100
AcDbEntity
  8
0
100
AcDbBlockEnd
  0
BLOCK
  5
206F
330
2070
100
AcDbEntity
  8
0
100
AcDbBlockBegin
  2
*U157
 70
     1
 10
0.0
 20
0.0
 30
0.0
  3
*U157
  1

  0
TEXT
  5
1D6C
330
2070
100
AcDbEntity
  8
0
100
AcDbText
 10
1494.921279567359
 20
1422.538476661148
 30
0.0
 40
50.0
  1
VKS 500x300
100
AcDbText
  0
ENDBLK
  5
1D6E
330
2070
100
AcDbEntity
  8
0
100
AcDbBlockEnd
  0
BLOCK
  5
2071
330
2072
100
AcDbEntity
  8
0
100
AcDbBlockBegin
  2
*U158
 70
     1
 10
0.0
 20
0.0
 30
0.0
  3
*U158
  1

  0
TEXT
  5
1D70
330
2072
100
AcDbEntity
  8
0
100
AcDbText
 10
676.6436861875408
 20
750.2552242522833
 30
0.0
 40
50.0
  1
VKS 500x300
100
AcDbText
  0
ENDBLK
  5
1D72
330
2072
100
AcDbEntity
  8
0
100
AcDbBlockEnd
  0
BLOCK
  5
21D3
330
21D2
100
AcDbEntity
  8
0
100
AcDbBlockBegin
  2
*U160
 70
     1
 10
0.0
 20
0.0
 30
0.0
  3
*U160
  1

  0
TEXT
  5
21D4
330
21D2
100
AcDbEntity
  8
LENKIMO
  6
CENTERX2
100
AcDbText
 10
801.2712978691851
 20
1410.897389739665
 30
0.0
 40
100.0
  1
B
100
AcDbText
  0
ENDBLK
  5
21D5
330
21D2
100
AcDbEntity
  8
0
100
AcDbBlockEnd
  0
BLOCK
  5
21D8
330
21D7
100
AcDbEntity
  8
0
100
AcDbBlockBegin
  2
*U161
 70
     1
 10
0.0
 20
0.0
 30
0.0
  3
*U161
  1

  0
TEXT
  5
21D9
330
21D7
100
AcDbEntity
  8
LENKIMO
  6
CENTERX2
100
AcDbText
 10
799.0717146298566
 20
1100.336970457902
 30
0.0
 40
100.0
  1
A
100
AcDbText
  0
ENDBLK
  5
21DA
330
21D7
100
AcDbEntity
  8
0
100
AcDbBlockEnd
  0
ENDSEC
  0
SECTION
  2
ENTITIES
  0
LINE
  5
1724
330
1F17
100
AcDbEntity
  8
0
  6
Continuous
 62
     7
100
AcDbLine
 10
1512.902845619684
 20
1348.26000425377
 30
0.0
 11
1512.902845619684
 21
1339.960003452087
 31
0.0
  0
LINE
  5
1729
330
1F17
100
AcDbEntity
  8
0
  6
Continuous
 62
     7
100
AcDbLine
 10
2012.902860520846
 20
1348.96000306465
 30
0.0
 11
1514.602859495645
 21
1348.960003064657
 31
0.0
  0
LINE
  5
172B
330
1F17
100
AcDbEntity
  8
0
  6
Continuous
 62
     7
100
AcDbLine
 10
1512.902845619684
 20
1348.960003064657
 30
0.0
 11
1512.902845619684
 21
1350.660003902103
 31
0.0
  0
LINE
  5
172C
330
1F17
100
AcDbEntity
  8
0
  6
Continuous
 62
     7
100
AcDbLine
 10
1513.053675173288
 20
1348.960003064657
 30
0.0
 11
1512.902845619684
 21
1348.960003064657
 31
0.0
  0
LINE
  5
172D
330
1F17
100
AcDbEntity
  8
0
  6
Continuous
 62
     7
100
AcDbLine
 10
1514.602859495645
 20
1348.960003064657
 30
0.0
 11
1513.053675173288
 21
1348.960003064657
 31
0.0
  0
LINE
  5
172E
330
1F17
100
AcDbEntity
  8
0
  6
Continuous
 62
     7
100
AcDbLine
 10
2025.652860282427
 20
1368.960004014599
 30
0.0
 11
1512.902845619684
 21
1368.960004014606
 31
0.0
  0
LINE
  5
172F
330
1F17
100
AcDbEntity
  8
0
  6
Continuous
 62
     7
100
AcDbLine
 10
1512.902845619684
 20
1367.260003875653
 30
0.0
 11
1512.902845619684
 21
1368.960004014606
 31
0.0
  0
ARC
  5
1730
330
1F17
100
AcDbEntity
  8
0
  6
Continuous
 62
     7
100
AcDbCircle
 10
2025.652859605252
 20
1363.960003988362
 30
0.0
 40
5.000000000000227
100
AcDbArc
 50
0.0
 51
90.0
  0
LINE
  5
1731
330
1F17
100
AcDbEntity
  8
0
  6
Continuous
 62
     7
100
AcDbLine
 10
2030.652855514055
 20
1348.96000306465
 30
0.0
 11
2030.652855514055
 21
1363.960004009942
 31
0.0
  0
CIRCLE
  5
1732
330
1F17
100
AcDbEntity
  8
0
  6
Continuous
 62
     7
100
AcDbCircle
 10
2022.902859605252
 20
1358.960003988362
 30
0.0
 40
5.249999999999943
  0
LINE
  5
1734
330
1F17
100
AcDbEntity
  8
0
  6
Continuous
 62
     7
100
AcDbLine
 10
1512.902845619684
 20
1367.260003875653
 30
0.0
 11
1512.902845619684
 21
1350.660003902103
 31
0.0
  0
LINE
  5
173B
330
1F17
100
AcDbEntity
  8
0
  6
Continuous
 62
     7
100
AcDbLine
 10
1521.90284895754
 20
1048.960011632825
 30
0.0
 11
1513.602872370244
 21
1048.960011632825
 31
0.0
  0
LINE
  5
173D
330
1F17
100
AcDbEntity
  8
0
  6
Continuous
 62
     7
100
AcDbLine
 10
1494.602848766805
 20
1048.960011632825
 30
0.0
 11
1492.902864693166
 21
1048.960011632825
 31
0.0
  0
LINE
  5
173E
330
1F17
100
AcDbEntity
  8
0
  6
Continuous
 62
     7
100
AcDbLine
 10
1492.902864693166
 20
1048.960011632825
 30
0.0
 11
1492.902864693171
 21
1361.710003990392
 31
0.0
  0
LINE
  5
173F
330
1F17
100
AcDbEntity
  8
0
  6
Continuous
 62
     7
100
AcDbLine
 10
1512.90284561968
 20
1048.960011632825
 30
0.0
 11
1511.202861546041
 21
1048.960011632825
 31
0.0
  0
LINE
  5
1740
330
1F17
100
AcDbEntity
  8
0
  6
Continuous
 62
     7
100
AcDbLine
 10
1512.902845619684
 20
1348.960003064657
 30
0.0
 11
1512.90284561968
 21
1050.659995706464
 31
0.0
  0
LINE
  5
1742
330
1F17
100
AcDbEntity
  8
0
  6
Continuous
 62
     7
100
AcDbLine
 10
1512.90284561968
 20
1049.110811384107
 30
0.0
 11
1512.90284561968
 21
1048.960011632825
 31
0.0
  0
LINE
  5
1743
330
1F17
100
AcDbEntity
  8
0
  6
Continuous
 62
     7
100
AcDbLine
 10
1512.90284561968
 20
1050.659995706464
 30
0.0
 11
1512.90284561968
 21
1049.110811384107
 31
0.0
  0
LINE
  5
1744
330
1F17
100
AcDbEntity
  8
0
  6
Continuous
 62
     7
100
AcDbLine
 10
1494.602848766805
 20
1048.960011632825
 30
0.0
 11
1511.202861546041
 21
1048.960011632825
 31
0.0
  0
CIRCLE
  5
1745
330
1F17
100
AcDbEntity
  8
0
  6
Continuous
 62
     7
100
AcDbCircle
 10
1502.902859605252
 20
1358.960003988368
 30
0.0
 40
5.25
  0
LINE
  5
174A
330
1F17
100
AcDbEntity
  8
0
  6
Continuous
 62
     7
100
AcDbLine
 10
1512.902845619684
 20
1366.710003878633
 30
0.0
 11
1497.902859924798
 21
1366.710003878634
 31
0.0
  0
ARC
  5
174B
330
1F17
100
AcDbEntity
  8
0
  6
Continuous
 62
     7
100
AcDbCircle
 10
1497.902859605251
 20
1361.710003988368
 30
0.0
 40
5.0
100
AcDbArc
 50
89.99999999999348
 51
180.0
  0
LINE
  5
174D
330
1F17
100
AcDbEntity
  8
0
  6
Continuous
 62
     7
100
AcDbLine
 10
2003.902857182985
 20
1348.96000306465
 30
0.0
 11
2012.202856122023
 21
1348.96000306465
 31
0.0
  0
LINE
  5
1751
330
1F17
100
AcDbEntity
  8
0
  6
Continuous
 62
     7
100
AcDbLine
 10
2012.902860520841
 20
1048.960011632818
 30
0.0
 11
2012.902860520846
 21
1347.26000408985
 31
0.0
  0
LINE
  5
1753
330
1F17
100
AcDbEntity
  8
0
  6
Continuous
 62
     7
100
AcDbLine
 10
2012.902860520846
 20
1348.96000306465
 30
0.0
 11
2014.602859495646
 21
1348.96000306465
 31
0.0
  0
LINE
  5
1754
330
1F17
100
AcDbEntity
  8
0
  6
Continuous
 62
     7
100
AcDbLine
 10
2012.902860520846
 20
1348.809197725433
 30
0.0
 11
2012.902860520846
 21
1348.96000306465
 31
0.0
  0
LINE
  5
1755
330
1F17
100
AcDbEntity
  8
0
  6
Continuous
 62
     7
100
AcDbLine
 10
2012.902860520846
 20
1347.26000408985
 30
0.0
 11
2012.902860520846
 21
1348.809197725433
 31
0.0
  0
LINE
  5
1757
330
1F17
100
AcDbEntity
  8
0
  6
Continuous
 62
     7
100
AcDbLine
 10
2031.20285737372
 20
1348.96000306465
 30
0.0
 11
2014.602859495646
 21
1348.96000306465
 31
0.0
  0
LINE
  5
175C
330
1F17
100
AcDbEntity
  8
0
  6
Continuous
 62
     7
100
AcDbLine
 10
2012.902860520841
 20
1031.210016639608
 30
0.0
 11
2027.902861116888
 21
1031.210016639608
 31
0.0
  0
ARC
  5
175D
330
1F17
100
AcDbEntity
  8
0
  6
Continuous
 62
     7
100
AcDbCircle
 10
2027.902859605245
 20
1036.210003988361
 30
0.0
 40
5.000000000000227
100
AcDbArc
 50
270.0
 51
0.0
  0
LINE
  5
175E
330
1F17
100
AcDbEntity
  8
0
  6
Continuous
 62
     7
100
AcDbLine
 10
2032.90285634852
 20
1348.96000306465
 30
0.0
 11
2032.902856348516
 21
1036.210011871236
 31
0.0
  0
LINE
  5
175F
330
1F17
100
AcDbEntity
  8
0
  6
Continuous
 62
     7
100
AcDbLine
 10
2031.20285737372
 20
1348.96000306465
 30
0.0
 11
2032.90285634852
 21
1348.96000306465
 31
0.0
  0
LINE
  5
1761
330
1F17
100
AcDbEntity
  8
0
  6
Continuous
 62
     7
100
AcDbLine
 10
2012.902860520841
 20
1049.66000858106
 30
0.0
 11
2012.902860520841
 21
1057.960014970678
 31
0.0
  0
LINE
  5
1765
330
1F17
100
AcDbEntity
  8
0
  6
Continuous
 62
     7
100
AcDbLine
 10
1512.90284561968
 20
1048.960011632825
 30
0.0
 11
2011.202861546041
 21
1048.960011632818
 31
0.0
  0
LINE
  5
1767
330
1F17
100
AcDbEntity
  8
0
  6
Continuous
 62
     7
100
AcDbLine
 10
2012.902860520841
 20
1048.960011632818
 30
0.0
 11
2012.902860520841
 21
1047.259997756857
 31
0.0
  0
LINE
  5
1768
330
1F17
100
AcDbEntity
  8
0
  6
Continuous
 62
     7
100
AcDbLine
 10
2012.752053318979
 20
1048.960011632818
 30
0.0
 11
2012.902860520841
 21
1048.960011632818
 31
0.0
  0
LINE
  5
1769
330
1F17
100
AcDbEntity
  8
0
  6
Continuous
 62
     7
100
AcDbLine
 10
2011.202861546041
 20
1048.960011632818
 30
0.0
 11
2012.752053318979
 21
1048.960011632818
 31
0.0
  0
LINE
  5
176A
330
1F17
100
AcDbEntity
  8
0
  6
Continuous
 62
     7
100
AcDbLine
 10
2012.902860520841
 20
1030.660014779942
 30
0.0
 11
2012.902860520841
 21
1047.259997756857
 31
0.0
  0
CIRCLE
  5
176B
330
1F17
100
AcDbEntity
  8
0
  6
Continuous
 62
     7
100
AcDbCircle
 10
1502.902859605247
 20
1038.960003988366
 30
0.0
 40
5.249999999999913
  0
ARC
  5
176C
330
1F17
100
AcDbEntity
  8
0
  6
Continuous
 62
     7
100
AcDbCircle
 10
1500.152859605246
 20
1033.960003988366
 30
0.0
 40
5.000000000000112
100
AcDbArc
 50
180.0
 51
270.0
  0
LINE
  5
1771
330
1F17
100
AcDbEntity
  8
0
  6
Continuous
 62
     7
100
AcDbLine
 10
1495.15285062647
 20
1048.960011632825
 30
0.0
 11
1495.15285062647
 21
1033.959996135618
 31
0.0
  0
LINE
  5
1772
330
1F17
100
AcDbEntity
  8
0
  6
Continuous
 62
     7
100
AcDbLine
 10
1500.152845858098
 20
1028.960000903989
 30
0.0
 11
2012.902860520841
 21
1028.960000903982
 31
0.0
  0
LINE
  5
1773
330
1F17
100
AcDbEntity
  8
0
  6
Continuous
 62
     7
100
AcDbLine
 10
2012.902860520841
 20
1030.660014779942
 30
0.0
 11
2012.902860520841
 21
1028.960000903982
 31
0.0
  0
LINE
  5
17A1
330
1F17
100
AcDbEntity
  8
0
  6
Continuous
 62
     7
100
AcDbLine
 10
1966.202226458551
 20
1048.99160209455
 30
0.0
 11
1966.202226458551
 21
1048.960011632819
 31
0.0
  0
LINE
  5
17A2
330
1F17
100
AcDbEntity
  8
0
  6
Continuous
 62
     7
100
AcDbLine
 10
1966.888678251268
 20
1048.99160209455
 30
0.0
 11
1966.888678251268
 21
1048.960011632819
 31
0.0
  0
ARC
  5
17A3
330
1F17
100
AcDbEntity
  8
0
  6
Continuous
 62
     7
100
AcDbCircle
 10
1965.516099374876
 20
1050.304187751682
 30
0.0
 40
1.344176156303251
100
AcDbArc
 50
269.9864767939574
 51
282.4463504820693
  0
LINE
  5
17A4
330
1F17
100
AcDbEntity
  8
0
  6
Continuous
 62
     7
100
AcDbLine
 10
1964.542952357293
 20
1048.99160209455
 30
0.0
 11
1964.542952357293
 21
1048.960011632819
 31
0.0
  0
LINE
  5
17A7
330
1F17
100
AcDbEntity
  8
0
  6
Continuous
 62
     7
100
AcDbLine
 10
1522.462476967336
 20
1048.991602094556
 30
0.0
 11
1522.462476967336
 21
1048.960011632825
 31
0.0
  0
LINE
  5
17A8
330
1F17
100
AcDbEntity
  8
0
  6
Continuous
 62
     7
100
AcDbLine
 10
1531.105865715504
 20
1048.960011632825
 30
0.0
 11
1531.105865715504
 21
1048.991602094556
 31
0.0
  0
LINE
  5
17A9
330
1F17
100
AcDbEntity
  8
0
  6
Continuous
 62
     7
100
AcDbLine
 10
1530.461330889226
 20
1048.991602094556
 30
0.0
 11
1530.461330889226
 21
1048.960011632825
 31
0.0
  0
ARC
  5
17AA
330
1F17
100
AcDbEntity
  8
0
  6
Continuous
 62
     7
100
AcDbCircle
 10
1531.750278158323
 20
1050.148612605423
 30
0.0
 40
1.188600976203477
100
AcDbArc
 50
256.7607248924718
 51
270.0044628168733
  0
LINE
  5
17AB
330
1F17
100
AcDbEntity
  8
0
  6
Continuous
 62
     7
100
AcDbLine
 10
1535.13674902773
 20
1048.991602094556
 30
0.0
 11
1535.13674902773
 21
1048.960011632825
 31
0.0
  0
LINE
  5
17AC
330
1F17
100
AcDbEntity
  8
0
  6
Continuous
 62
     7
100
AcDbLine
 10
1931.10849428034
 20
1048.99160209455
 30
0.0
 11
1931.10849428034
 21
1048.960011632819
 31
0.0
  0
LINE
  5
17AD
330
1F17
100
AcDbEntity
  8
0
  6
Continuous
 62
     7
100
AcDbLine
 10
1931.667369781495
 20
1048.99160209455
 30
0.0
 11
1931.667369781495
 21
1048.960011632819
 31
0.0
  0
ARC
  5
17AE
330
1F17
100
AcDbEntity
  8
0
  6
Continuous
 62
     7
100
AcDbCircle
 10
1930.549140326134
 20
1049.861867989934
 30
0.0
 40
0.9018564840295121
100
AcDbArc
 50
270.0303965677325
 51
285.2098073803882
  0
LINE
  5
17AF
330
1F17
100
AcDbEntity
  8
0
  6
Continuous
 62
     7
100
AcDbLine
 10
1924.454000769616
 20
1048.991602094551
 30
0.0
 11
1924.454000769616
 21
1048.96001163282
 31
0.0
  0
LINE
  5
17B0
330
1F17
100
AcDbEntity
  8
0
  6
Continuous
 62
     7
100
AcDbLine
 10
1583.506842134954
 20
1048.960011632824
 30
0.0
 11
1583.506842134954
 21
1048.991602094555
 31
0.0
  0
LINE
  5
17B1
330
1F17
100
AcDbEntity
  8
0
  6
Continuous
 62
     7
100
AcDbLine
 10
1583.01477599001
 20
1048.991602094555
 30
0.0
 11
1583.01477599001
 21
1048.960011632824
 31
0.0
  0
ARC
  5
17B2
330
1F17
100
AcDbEntity
  8
0
  6
Continuous
 62
     7
100
AcDbCircle
 10
1583.999785965797
 20
1049.665695003542
 30
0.0
 40
0.7056839165239533
100
AcDbArc
 50
252.791307407735
 51
269.9287390436634
  0
LINE
  5
17B3
330
1F17
100
AcDbEntity
  8
0
  6
Continuous
 62
     7
100
AcDbLine
 10
1591.537703751088
 20
1048.991602094555
 30
0.0
 11
1591.537703751088
 21
1048.960011632824
 31
0.0
  0
LINE
  5
17B4
330
1F17
100
AcDbEntity
  8
0
  6
Continuous
 62
     7
100
AcDbLine
 10
1862.696313290359
 20
1048.991602094551
 30
0.0
 11
1862.696313290359
 21
1048.96001163282
 31
0.0
  0
LINE
  5
17B5
330
1F17
100
AcDbEntity
  8
0
  6
Continuous
 62
     7
100
AcDbLine
 10
1863.016777662993
 20
1048.991602094551
 30
0.0
 11
1863.016777662993
 21
1048.96001163282
 31
0.0
  0
LINE
  5
17B6
330
1F17
100
AcDbEntity
  8
0
  6
Continuous
 62
     7
100
AcDbLine
 10
1662.941594599248
 20
1048.960011632822
 30
0.0
 11
1662.941594599248
 21
1048.991602094554
 31
0.0
  0
LINE
  5
17B7
330
1F17
100
AcDbEntity
  8
0
  6
Continuous
 62
     7
100
AcDbLine
 10
1662.676055906774
 20
1048.991602094554
 30
0.0
 11
1662.676055906774
 21
1048.960011632822
 31
0.0
  0
ARC
  5
17B8
330
1F17
100
AcDbEntity
  8
0
  6
Continuous
 62
     7
100
AcDbCircle
 10
1862.37299965849
 20
1049.278169392826
 30
0.0
 40
0.3181705180088493
100
AcDbArc
 50
270.5130981710689
 51
295.7534513921374
  0
LINE
  5
17B9
330
1F17
100
AcDbEntity
  8
0
  6
Continuous
 62
     7
100
AcDbLine
 10
1852.366303084852
 20
1048.991602094552
 30
0.0
 11
1852.366303084852
 21
1048.960011632821
 31
0.0
  0
ARC
  5
17BA
330
1F17
100
AcDbEntity
  8
0
  6
Continuous
 62
     7
100
AcDbCircle
 10
1663.210956551715
 20
1049.188602972916
 30
0.0
 40
0.2286233104525015
100
AcDbArc
 50
239.5061072839082
 51
269.0417999259785
  0
LINE
  5
17BB
330
1F17
100
AcDbEntity
  8
0
  6
Continuous
 62
     7
100
AcDbLine
 10
1673.76356291628
 20
1048.991602094554
 30
0.0
 11
1673.76356291628
 21
1048.960011632822
 31
0.0
  0
LINE
  5
17BC
330
1F17
100
AcDbEntity
  8
0
  6
Continuous
 62
     7
100
AcDbLine
 10
1769.434888838292
 20
1048.991602094552
 30
0.0
 11
1769.434888838292
 21
1048.960011632821
 31
0.0
  0
LINE
  5
17BD
330
1F17
100
AcDbEntity
  8
0
  6
Continuous
 62
     7
100
AcDbLine
 10
1769.436840890409
 20
1048.991602094552
 30
0.0
 11
1769.436840890409
 21
1048.960011632821
 31
0.0
  0
ARC
  5
17BE
330
1F17
100
AcDbEntity
  8
0
  6
Continuous
 62
     7
100
AcDbCircle
 10
1768.722612751434
 20
1048.994581161313
 30
0.0
 40
0.711164739446587
100
AcDbArc
 50
357.2137694221944
 51
359.759987465666
  0
LINE
  5
17BF
330
1F17
100
AcDbEntity
  8
0
  6
Continuous
 62
     7
100
AcDbLine
 10
1757.45562183714
 20
1048.991602094552
 30
0.0
 11
1757.45562183714
 21
1048.960011632822
 31
0.0
  0
LINE
  5
17C3
330
1F17
100
AcDbEntity
  8
0
  6
Continuous
 62
     7
100
AcDbLine
 10
1700.531859873295
 20
1012.959998281382
 30
0.0
 11
1867.873852132321
 21
1012.95999828138
 31
0.0
  0
LINE
  5
1858
330
1F17
100
AcDbEntity
  8
0
  6
Continuous
 62
     7
100
AcDbLine
 10
1969.802861093046
 20
1048.960011632819
 30
0.0
 11
1969.802861093046
 21
1048.99160209455
 31
0.0
  0
LINE
  5
1859
330
1F17
100
AcDbEntity
  8
0
  6
Continuous
 62
     7
100
AcDbLine
 10
1867.873852132321
 20
1012.95999828138
 30
0.0
 11
1889.035142949284
 21
1028.960000903984
 31
0.0
  0
LINE
  5
185A
330
1F17
100
AcDbEntity
  8
0
  6
Continuous
 62
     7
100
AcDbLine
 10
1679.370571850301
 20
1028.960000903987
 30
0.0
 11
1700.531859873295
 21
1012.959998281382
 31
0.0
  0
LINE
  5
1883
330
1F17
100
AcDbEntity
  8
0
  6
Continuous
 62
     7
100
AcDbLine
 10
1541.702856300832
 20
1048.960011632825
 30
0.0
 11
1541.702856300832
 21
1048.991602094556
 31
0.0
  0
LINE
  5
1884
330
1F17
100
AcDbEntity
  8
0
  6
Continuous
 62
     7
100
AcDbLine
 10
1537.502844809056
 20
1048.991602094556
 30
0.0
 11
1537.502844809056
 21
1048.960011632825
 31
0.0
  0
LINE
  5
1885
330
1F17
100
AcDbEntity
  8
0
  6
Continuous
 62
     7
100
AcDbLine
 10
1692.302857516767
 20
1048.960011632822
 30
0.0
 11
1692.302857516767
 21
1048.991602094554
 31
0.0
  0
LINE
  5
1886
330
1F17
100
AcDbEntity
  8
0
  6
Continuous
 62
     7
100
AcDbLine
 10
1688.102860926153
 20
1048.991602094554
 30
0.0
 11
1688.102860926153
 21
1048.960011632822
 31
0.0
  0
LINE
  5
1887
330
1F17
100
AcDbEntity
  8
0
  6
Continuous
 62
     7
100
AcDbLine
 10
1840.302859424116
 20
1048.960011632821
 30
0.0
 11
1840.302859424116
 21
1048.991602094552
 31
0.0
  0
LINE
  5
1888
330
1F17
100
AcDbEntity
  8
0
  6
Continuous
 62
     7
100
AcDbLine
 10
1836.102859108211
 20
1048.991602094552
 30
0.0
 11
1836.102859108211
 21
1048.960011632821
 31
0.0
  0
LINE
  5
188D
330
1F17
100
AcDbEntity
  8
0
  6
Continuous
 62
     7
100
AcDbLine
 10
1988.302861331464
 20
1048.960011632819
 30
0.0
 11
1988.302861331464
 21
1048.99160209455
 31
0.0
  0
LINE
  5
188E
330
1F17
100
AcDbEntity
  8
0
  6
Continuous
 62
     7
100
AcDbLine
 10
1984.102857290269
 20
1048.99160209455
 30
0.0
 11
1984.102857290269
 21
1048.960011632819
 31
0.0
  0
LINE
  5
18A5
330
1F17
100
AcDbEntity
  8
0
  6
Continuous
 62
     7
100
AcDbLine
 10
660.8337751214841
 20
186.9578385734324
 30
0.0
 11
1220.83377750567
 21
186.9578385734324
 31
0.0
  0
LINE
  5
18A7
330
1F17
100
AcDbEntity
  8
0
  6
Continuous
 62
     7
100
AcDbLine
 10
1220.83377750567
 20
175.2078408384085
 30
0.0
 11
1220.83377750567
 21
170.2078456067803
 31
0.0
  0
LINE
  5
18AB
330
1F17
100
AcDbEntity
  8
0
  6
Continuous
 62
     7
100
AcDbLine
 10
660.8337751214841
 20
170.2078456067803
 30
0.0
 11
660.8337751214841
 21
175.2078408384085
 31
0.0
  0
LINE
  5
18AE
330
1F17
100
AcDbEntity
  8
0
  6
Continuous
 62
     7
100
AcDbLine
 10
660.8337751214841
 20
175.2078408384085
 30
0.0
 11
660.8337751214841
 21
687.9578555011512
 31
0.0
  0
LINE
  5
18B0
330
1F17
100
AcDbEntity
  8
0
  6
Continuous
 62
     7
100
AcDbLine
 10
660.8337751214841
 20
687.9578555011512
 30
0.0
 11
662.5337740962844
 21
687.9578555011512
 31
0.0
  0
LINE
  5
18B1
330
1F17
100
AcDbEntity
  8
0
  6
Continuous
 62
     7
100
AcDbLine
 10
1219.133763629709
 20
687.9578555011512
 30
0.0
 11
1220.83377750567
 21
687.9578555011512
 31
0.0
  0
LINE
  5
18B2
330
1F17
100
AcDbEntity
  8
0
  6
Continuous
 62
     7
100
AcDbLine
 10
1220.83377750567
 20
687.9578555011512
 30
0.0
 11
1220.83377750567
 21
175.2078408384085
 31
0.0
  0
LINE
  5
18B6
330
1F17
100
AcDbEntity
  8
0
  6
Continuous
 62
     7
100
AcDbLine
 10
670.833765584741
 20
687.9578555011512
 30
0.0
 11
662.5337740962844
 21
687.9578555011512
 31
0.0
  0
LINE
  5
18B8
330
1F17
100
AcDbEntity
  8
0
  6
Continuous
 62
     7
100
AcDbLine
 10
1219.133763629709
 20
687.9578555011512
 30
0.0
 11
1210.833787042413
 21
687.9578555011512
 31
0.0
  0
LINE
  5
18BD
330
1F17
100
AcDbEntity
  8
0
  6
Continuous
 62
     7
100
AcDbLine
 10
670.833765584741
 20
687.9578555011516
 30
0.0
 11
1210.833787042413
 21
687.9578555011516
 31
0.0
  0
LINE
  5
18CB
330
1F17
100
AcDbEntity
  8
0
  6
Continuous
 62
     7
100
AcDbLine
 10
660.8337751214841
 20
688.6578524493935
 30
0.0
 11
660.8337751214841
 21
702.9578411960367
 31
0.0
  0
LINE
  5
18CE
330
1F17
100
AcDbEntity
  8
0
  6
Continuous
 62
     7
100
AcDbLine
 10
1220.83377750567
 20
702.9578411960367
 30
0.0
 11
1220.83377750567
 21
688.6578524493935
 31
0.0
  0
LINE
  5
18D2
330
1F17
100
AcDbEntity
  8
0
  6
Continuous
 62
     7
100
AcDbLine
 10
660.8337751214841
 20
702.9578411960367
 30
0.0
 11
660.8337751214841
 21
707.9578364276649
 31
0.0
  0
LINE
  5
18D4
330
1F17
100
AcDbEntity
  8
0
  6
Continuous
 62
     7
100
AcDbLine
 10
1220.83377750567
 20
707.9578364276649
 30
0.0
 11
1220.83377750567
 21
702.9578411960367
 31
0.0
  0
LINE
  5
18D7
330
1F17
100
AcDbEntity
  8
0
  6
Continuous
 62
     7
100
AcDbLine
 10
1220.83377750567
 20
166.957844772321
 30
0.0
 11
1220.83377750567
 21
169.6578437471211
 31
0.0
  0
LINE
  5
18D9
330
1F17
100
AcDbEntity
  8
0
  6
Continuous
 62
     7
100
AcDbLine
 10
660.8337751214841
 20
169.6578437471211
 30
0.0
 11
660.8337751214841
 21
166.957844772321
 31
0.0
  0
LINE
  5
18E7
330
1F17
100
AcDbEntity
  8
0
  6
Continuous
 62
     7
100
AcDbLine
 10
1220.83377750567
 20
170.2078456067805
 30
0.0
 11
1220.83377750567
 21
169.6578437471156
 31
0.0
  0
LINE
  5
18E8
330
1F17
100
AcDbEntity
  8
0
  6
Continuous
 62
     7
100
AcDbLine
 10
660.8337751214841
 20
169.6578437471156
 30
0.0
 11
660.8337751214841
 21
170.2078456067805
 31
0.0
  0
LINE
  5
18F0
330
1F17
100
AcDbEntity
  8
0
  6
Continuous
 62
     7
100
AcDbLine
 10
1220.83377750567
 20
687.9578555011569
 30
0.0
 11
1220.83377750567
 21
688.6578524493991
 31
0.0
  0
LINE
  5
18F1
330
1F17
100
AcDbEntity
  8
0
  6
Continuous
 62
     7
100
AcDbLine
 10
660.8337751214841
 20
687.9578555011569
 30
0.0
 11
660.8337751214841
 21
688.6578524493991
 31
0.0
  0
LINE
  5
195D
330
1F17
100
AcDbEntity
  8
0
  6
Continuous
 62
     7
100
AcDbLine
 10
670.833765584741
 20
1348.96000306465
 30
0.0
 11
1210.833787042413
 21
1348.96000306465
 31
0.0
  0
LINE
  5
1969
330
1F17
100
AcDbEntity
  8
0
  6
Continuous
 62
     7
100
AcDbLine
 10
660.8337751214841
 20
1349.660003738182
 30
0.0
 11
660.8337751214841
 21
1363.960004009942
 31
0.0
  0
LINE
  5
196C
330
1F17
100
AcDbEntity
  8
0
  6
Continuous
 62
     7
100
AcDbLine
 10
660.8337751214841
 20
1363.960004009942
 30
0.0
 11
660.8337751214841
 21
1368.960004014599
 31
0.0
  0
LINE
  5
196F
330
1F17
100
AcDbEntity
  8
0
  6
Continuous
 62
     7
100
AcDbLine
 10
1220.83377750567
 20
1363.960004009942
 30
0.0
 11
1220.83377750567
 21
1349.660003738182
 31
0.0
  0
LINE
  5
1972
330
1F17
100
AcDbEntity
  8
0
  6
Continuous
 62
     7
100
AcDbLine
 10
1220.83377750567
 20
1368.960004014599
 30
0.0
 11
1220.83377750567
 21
1363.960004009942
 31
0.0
  0
LINE
  5
197A
330
1F17
100
AcDbEntity
  8
0
  6
Continuous
 62
     7
100
AcDbLine
 10
660.8337751214841
 20
1349.66000373819
 30
0.0
 11
660.8337751214841
 21
1348.960003064657
 31
0.0
  0
LINE
  5
197B
330
1F17
100
AcDbEntity
  8
0
  6
Continuous
 62
     7
100
AcDbLine
 10
1220.83377750567
 20
1348.960003064657
 30
0.0
 11
1220.83377750567
 21
1349.66000373819
 31
0.0
  0
LINE
  5
197C
330
1F17
100
AcDbEntity
  8
0
  6
Continuous
 62
     7
100
AcDbLine
 10
660.8337751214841
 20
1047.959994705099
 30
0.0
 11
1220.83377750567
 21
1047.959994705099
 31
0.0
  0
LINE
  5
197E
330
1F17
100
AcDbEntity
  8
0
  6
Continuous
 62
     7
100
AcDbLine
 10
660.8337751214841
 20
1031.210016639608
 30
0.0
 11
660.8337751214841
 21
1036.210011871236
 31
0.0
  0
LINE
  5
1982
330
1F17
100
AcDbEntity
  8
0
  6
Continuous
 62
     7
100
AcDbLine
 10
1220.83377750567
 20
1036.210011871236
 30
0.0
 11
1220.83377750567
 21
1031.210016639608
 31
0.0
  0
LINE
  5
1985
330
1F17
100
AcDbEntity
  8
0
  6
Continuous
 62
     7
100
AcDbLine
 10
660.8337751214841
 20
1348.96000306465
 30
0.0
 11
662.5337740962844
 21
1348.96000306465
 31
0.0
  0
LINE
  5
1986
330
1F17
100
AcDbEntity
  8
0
  6
Continuous
 62
     7
100
AcDbLine
 10
660.8337751214841
 20
1036.210011871236
 30
0.0
 11
660.8337751214841
 21
1348.96000306465
 31
0.0
  0
LINE
  5
1988
330
1F17
100
AcDbEntity
  8
0
  6
Continuous
 62
     7
100
AcDbLine
 10
662.5337740962844
 20
1348.96000306465
 30
0.0
 11
670.833765584741
 21
1348.96000306465
 31
0.0
  0
LINE
  5
198B
330
1F17
100
AcDbEntity
  8
0
  6
Continuous
 62
     7
100
AcDbLine
 10
1220.83377750567
 20
1348.96000306465
 30
0.0
 11
1220.83377750567
 21
1036.210011871236
 31
0.0
  0
LINE
  5
198C
330
1F17
100
AcDbEntity
  8
0
  6
Continuous
 62
     7
100
AcDbLine
 10
1219.133763629709
 20
1348.96000306465
 30
0.0
 11
1220.83377750567
 21
1348.96000306465
 31
0.0
  0
LINE
  5
198E
330
1F17
100
AcDbEntity
  8
0
  6
Continuous
 62
     7
100
AcDbLine
 10
1210.833787042413
 20
1348.96000306465
 30
0.0
 11
1219.133763629709
 21
1348.96000306465
 31
0.0
  0
LINE
  5
1991
330
1F17
100
AcDbEntity
  8
0
  6
Continuous
 62
     7
100
AcDbLine
 10
660.8337751214841
 20
1027.960000903989
 30
0.0
 11
660.8337751214841
 21
1030.66001477995
 31
0.0
  0
LINE
  5
1994
330
1F17
100
AcDbEntity
  8
0
  6
Continuous
 62
     7
100
AcDbLine
 10
1220.83377750567
 20
1027.960000903989
 30
0.0
 11
1220.83377750567
 21
1030.66001477995
 31
0.0
  0
LINE
  5
199C
330
1F17
100
AcDbEntity
  8
0
  6
Continuous
 62
     7
100
AcDbLine
 10
660.8337751214841
 20
1030.660014779942
 30
0.0
 11
660.8337751214841
 21
1031.210016639608
 31
0.0
  0
LINE
  5
19A3
330
1F17
100
AcDbEntity
  8
0
  6
Continuous
 62
     7
100
AcDbLine
 10
1220.83377750567
 20
1031.210016639608
 30
0.0
 11
1220.83377750567
 21
1030.660014779942
 31
0.0
  0
LINE
  5
19A5
330
1F17
100
AcDbEntity
  8
0
  6
Continuous
 62
     7
100
AcDbLine
 10
920.1627811973434
 20
1012.959998281381
 30
0.0
 11
1045.669271666322
 21
1012.95999828138
 31
0.0
  0
LINE
  5
19A6
330
1F17
100
AcDbEntity
  8
0
  6
Continuous
 62
     7
100
AcDbLine
 10
1045.669271666322
 20
1012.95999828138
 30
0.0
 11
1087.504773456369
 21
1012.959998281381
 31
0.0
  0
LINE
  5
1ACA
330
1F17
100
AcDbEntity
  8
0
  6
Continuous
 62
     7
100
AcDbLine
 10
1087.504773456369
 20
1012.959998281381
 30
0.0
 11
1133.795040292747
 21
1047.959994705099
 31
0.0
  0
LINE
  5
1ACB
330
1F17
100
AcDbEntity
  8
0
  6
Continuous
 62
     7
100
AcDbLine
 10
873.8724891251456
 20
1047.959994705099
 30
0.0
 11
920.1627811973434
 21
1012.959998281381
 31
0.0
  0
CIRCLE
  5
1B14
330
1F17
100
AcDbEntity
  8
0
  6
Continuous
 62
     7
100
AcDbCircle
 10
2022.902859605252
 20
1038.960003988366
 30
0.0
 40
5.249999999999913
  0
LINE
  5
1B19
330
1F17
100
AcDbEntity
  8
0
100
AcDbLine
 10
1509.902859605252
 20
1358.960003988368
 30
0.0
 11
1495.902859605252
 21
1358.960003988368
 31
0.0
  0
LINE
  5
1B1A
330
1F17
100
AcDbEntity
  8
0
100
AcDbLine
 10
1502.902859605252
 20
1365.960003988368
 30
0.0
 11
1502.902859605252
 21
1351.960003988368
 31
0.0
  0
LINE
  5
1B1D
330
1F17
100
AcDbEntity
  8
0
100
AcDbLine
 10
2022.902859605252
 20
1365.960003988362
 30
0.0
 11
2022.902859605252
 21
1351.960003988362
 31
0.0
  0
LINE
  5
1B1E
330
1F17
100
AcDbEntity
  8
0
100
AcDbLine
 10
2029.902859605252
 20
1358.960003988362
 30
0.0
 11
2015.902859605252
 21
1358.960003988362
 31
0.0
  0
LINE
  5
1B1F
330
1F17
100
AcDbEntity
  8
0
100
AcDbLine
 10
2029.902859605252
 20
1038.960003988366
 30
0.0
 11
2015.902859605252
 21
1038.960003988366
 31
0.0
  0
LINE
  5
1B20
330
1F17
100
AcDbEntity
  8
0
100
AcDbLine
 10
2022.902859605252
 20
1045.960003988366
 30
0.0
 11
2022.902859605252
 21
1031.960003988366
 31
0.0
  0
LINE
  5
1B21
330
1F17
100
AcDbEntity
  8
0
100
AcDbLine
 10
1502.902859605247
 20
1045.960003988366
 30
0.0
 11
1502.902859605247
 21
1031.960003988366
 31
0.0
  0
LINE
  5
1B22
330
1F17
100
AcDbEntity
  8
0
100
AcDbLine
 10
1509.902859605247
 20
1038.960003988366
 30
0.0
 11
1495.902859605247
 21
1038.960003988366
 31
0.0
  0
LINE
  5
1B23
330
1F17
100
AcDbEntity
  8
0
100
AcDbLine
 10
660.8337751214841
 20
1348.96000306465
 30
0.0
 11
660.8337751214841
 21
1358.96000306465
 31
0.0
  0
LINE
  5
1B24
330
1F17
100
AcDbEntity
  8
0
100
AcDbLine
 10
660.8337751214841
 20
1358.96000306465
 30
0.0
 11
655.8337751214841
 21
1358.96000306465
 31
0.0
  0
LINE
  5
1B25
330
1F17
100
AcDbEntity
  8
0
100
AcDbLine
 10
655.8337751214841
 20
1358.96000306465
 30
0.0
 11
665.833775121484
 21
1358.96000306465
 31
0.0
  0
LINE
  5
1B27
330
1F17
100
AcDbEntity
  8
0
100
AcDbLine
 10
1220.83377750567
 20
1348.96000306465
 30
0.0
 11
1220.83377750567
 21
1358.96000306465
 31
0.0
  0
LINE
  5
1B28
330
1F17
100
AcDbEntity
  8
0
100
AcDbLine
 10
1220.83377750567
 20
1358.96000306465
 30
0.0
 11
1215.83377750567
 21
1358.96000306465
 31
0.0
  0
LINE
  5
1B29
330
1F17
100
AcDbEntity
  8
0
100
AcDbLine
 10
1215.83377750567
 20
1358.96000306465
 30
0.0
 11
1225.83377750567
 21
1358.96000306465
 31
0.0
  0
LINE
  5
1B2A
330
1F17
100
AcDbEntity
  8
0
100
AcDbLine
 10
1220.83377750567
 20
1027.960000903989
 30
0.0
 11
1220.83377750567
 21
1037.960000903989
 31
0.0
  0
LINE
  5
1B2B
330
1F17
100
AcDbEntity
  8
0
100
AcDbLine
 10
1220.83377750567
 20
1037.960000903989
 30
0.0
 11
1225.83377750567
 21
1037.960000903989
 31
0.0
  0
LINE
  5
1B2C
330
1F17
100
AcDbEntity
  8
0
100
AcDbLine
 10
1225.83377750567
 20
1037.960000903989
 30
0.0
 11
1215.83377750567
 21
1037.960000903989
 31
0.0
  0
LINE
  5
1B2D
330
1F17
100
AcDbEntity
  8
0
100
AcDbLine
 10
660.8337751214841
 20
1047.959994705099
 30
0.0
 11
660.8337751214841
 21
1037.959994705099
 31
0.0
  0
LINE
  5
1B2E
330
1F17
100
AcDbEntity
  8
0
100
AcDbLine
 10
660.8337751214841
 20
1037.959994705099
 30
0.0
 11
665.833775121484
 21
1037.959994705099
 31
0.0
  0
LINE
  5
1B2F
330
1F17
100
AcDbEntity
  8
0
100
AcDbLine
 10
665.833775121484
 20
1037.959994705099
 30
0.0
 11
655.8337751214841
 21
1037.959994705099
 31
0.0
  0
LINE
  5
1B4D
330
1F17
100
AcDbEntity
  8
0
100
AcDbLine
 10
660.8337751214841
 20
166.957844772321
 30
0.0
 11
660.8337751214841
 21
176.957844772321
 31
0.0
  0
LINE
  5
1B4E
330
1F17
100
AcDbEntity
  8
0
100
AcDbLine
 10
660.8337751214841
 20
176.957844772321
 30
0.0
 11
655.8337751214841
 21
176.957844772321
 31
0.0
  0
LINE
  5
1B4F
330
1F17
100
AcDbEntity
  8
0
100
AcDbLine
 10
655.8337751214841
 20
176.957844772321
 30
0.0
 11
665.833775121484
 21
176.957844772321
 31
0.0
  0
LINE
  5
1B50
330
1F17
100
AcDbEntity
  8
0
100
AcDbLine
 10
1220.83377750567
 20
166.957844772321
 30
0.0
 11
1220.83377750567
 21
176.957844772321
 31
0.0
  0
LINE
  5
1B51
330
1F17
100
AcDbEntity
  8
0
100
AcDbLine
 10
1220.83377750567
 20
176.957844772321
 30
0.0
 11
1215.83377750567
 21
176.957844772321
 31
0.0
  0
LINE
  5
1B52
330
1F17
100
AcDbEntity
  8
0
100
AcDbLine
 10
1215.83377750567
 20
176.957844772321
 30
0.0
 11
1225.83377750567
 21
176.957844772321
 31
0.0
  0
LINE
  5
1B53
330
1F17
100
AcDbEntity
  8
0
100
AcDbLine
 10
1220.83377750567
 20
707.9578364276649
 30
0.0
 11
1220.83377750567
 21
697.9578364276648
 31
0.0
  0
LINE
  5
1B54
330
1F17
100
AcDbEntity
  8
0
100
AcDbLine
 10
1220.83377750567
 20
697.9578364276648
 30
0.0
 11
1225.83377750567
 21
697.9578364276648
 31
0.0
  0
LINE
  5
1B55
330
1F17
100
AcDbEntity
  8
0
100
AcDbLine
 10
1225.83377750567
 20
697.9578364276648
 30
0.0
 11
1215.83377750567
 21
697.9578364276648
 31
0.0
  0
LINE
  5
1B56
330
1F17
100
AcDbEntity
  8
0
100
AcDbLine
 10
660.8337751214841
 20
707.9578364276649
 30
0.0
 11
660.8337751214841
 21
697.9578364276648
 31
0.0
  0
LINE
  5
1B57
330
1F17
100
AcDbEntity
  8
0
100
AcDbLine
 10
660.8337751214841
 20
697.9578364276648
 30
0.0
 11
665.833775121484
 21
697.9578364276648
 31
0.0
  0
LINE
  5
1B58
330
1F17
100
AcDbEntity
  8
0
100
AcDbLine
 10
665.833775121484
 20
697.9578364276648
 30
0.0
 11
655.8337751214841
 21
697.9578364276648
 31
0.0
  0
LINE
  5
20B4
330
1F17
100
AcDbEntity
  8
0
  6
Continuous
 62
     7
100
AcDbLine
 10
368.7647070074697
 20
1348.260004253761
 30
0.0
 11
368.76470700747
 21
1339.960003452078
 31
0.0
  0
LINE
  5
20B5
330
1F17
100
AcDbEntity
  8
0
  6
Continuous
 62
     7
100
AcDbLine
 10
-131.2353078936922
 20
1348.960003064633
 30
0.0
 11
367.0646931315089
 21
1348.960003064648
 31
0.0
  0
LINE
  5
20B6
330
1F17
100
AcDbEntity
  8
0
  6
Continuous
 62
     7
100
AcDbLine
 10
368.7647070074697
 20
1348.960003064648
 30
0.0
 11
368.7647070074697
 21
1350.660003902094
 31
0.0
  0
LINE
  5
20B7
330
1F17
100
AcDbEntity
  8
0
  6
Continuous
 62
     7
100
AcDbLine
 10
368.6138774538658
 20
1348.960003064648
 30
0.0
 11
368.7647070074697
 21
1348.960003064648
 31
0.0
  0
LINE
  5
20B8
330
1F17
100
AcDbEntity
  8
0
  6
Continuous
 62
     7
100
AcDbLine
 10
367.0646931315089
 20
1348.960003064648
 30
0.0
 11
368.6138774538658
 21
1348.960003064648
 31
0.0
  0
LINE
  5
20B9
330
1F17
100
AcDbEntity
  8
0
  6
Continuous
 62
     7
100
AcDbLine
 10
-143.9853076552733
 20
1368.960004014582
 30
0.0
 11
368.7647070074695
 21
1368.960004014597
 31
0.0
  0
LINE
  5
20BA
330
1F17
100
AcDbEntity
  8
0
  6
Continuous
 62
     7
100
AcDbLine
 10
368.7647070074695
 20
1367.260003875644
 30
0.0
 11
368.7647070074695
 21
1368.960004014597
 31
0.0
  0
ARC
  5
20BB
330
1F17
100
AcDbEntity
  8
0
  6
Continuous
 62
     7
100
AcDbCircle
 10
-143.9853069780984
 20
1363.960003988345
 30
0.0
 40
5.000000000000227
100
AcDbArc
 50
90.0
 51
180.0000000000026
  0
LINE
  5
20BC
330
1F17
100
AcDbEntity
  8
0
  6
Continuous
 62
     7
100
AcDbLine
 10
-148.9853028869013
 20
1348.960003064633
 30
0.0
 11
-148.9853028869015
 21
1363.960004009925
 31
0.0
  0
CIRCLE
  5
20BD
330
1F17
100
AcDbEntity
  8
0
  6
Continuous
 62
     7
100
AcDbCircle
 10
-141.2353069780982
 20
1358.960003988345
 30
0.0
 40
5.249999999999943
  0
LINE
  5
20BE
330
1F17
100
AcDbEntity
  8
0
  6
Continuous
 62
     7
100
AcDbLine
 10
368.7647070074695
 20
1367.260003875644
 30
0.0
 11
368.7647070074697
 21
1350.660003902094
 31
0.0
  0
LINE
  5
20BF
330
1F17
100
AcDbEntity
  8
0
  6
Continuous
 62
     7
100
AcDbLine
 10
359.7647036696185
 20
1048.960011632816
 30
0.0
 11
368.0646802569145
 21
1048.960011632816
 31
0.0
  0
LINE
  5
20C0
330
1F17
100
AcDbEntity
  8
0
  6
Continuous
 62
     7
100
AcDbLine
 10
387.0647038603536
 20
1048.960011632816
 30
0.0
 11
388.7646879339925
 21
1048.960011632816
 31
0.0
  0
LINE
  5
20C1
330
1F17
100
AcDbEntity
  8
0
  6
Continuous
 62
     7
100
AcDbLine
 10
388.7646879339925
 20
1048.960011632816
 30
0.0
 11
388.7646879339825
 21
1361.710003990383
 31
0.0
  0
LINE
  5
20C2
330
1F17
100
AcDbEntity
  8
0
  6
Continuous
 62
     7
100
AcDbLine
 10
368.7647070074786
 20
1048.960011632816
 30
0.0
 11
370.4646910811175
 21
1048.960011632816
 31
0.0
  0
LINE
  5
20C3
330
1F17
100
AcDbEntity
  8
0
  6
Continuous
 62
     7
100
AcDbLine
 10
368.7647070074697
 20
1348.960003064648
 30
0.0
 11
368.7647070074786
 21
1050.659995706455
 31
0.0
  0
LINE
  5
20C4
330
1F17
100
AcDbEntity
  8
0
  6
Continuous
 62
     7
100
AcDbLine
 10
368.7647070074786
 20
1049.110811384098
 30
0.0
 11
368.7647070074786
 21
1048.960011632816
 31
0.0
  0
LINE
  5
20C5
330
1F17
100
AcDbEntity
  8
0
  6
Continuous
 62
     7
100
AcDbLine
 10
368.7647070074786
 20
1050.659995706455
 30
0.0
 11
368.7647070074786
 21
1049.110811384098
 31
0.0
  0
LINE
  5
20C6
330
1F17
100
AcDbEntity
  8
0
  6
Continuous
 62
     7
100
AcDbLine
 10
387.0647038603536
 20
1048.960011632816
 30
0.0
 11
370.4646910811175
 21
1048.960011632816
 31
0.0
  0
CIRCLE
  5
20C7
330
1F17
100
AcDbEntity
  8
0
  6
Continuous
 62
     7
100
AcDbCircle
 10
378.7646930219018
 20
1358.960003988359
 30
0.0
 40
5.25
  0
LINE
  5
20C8
330
1F17
100
AcDbEntity
  8
0
  6
Continuous
 62
     7
100
AcDbLine
 10
368.7647070074695
 20
1366.710003878624
 30
0.0
 11
383.7646927023557
 21
1366.710003878625
 31
0.0
  0
ARC
  5
20C9
330
1F17
100
AcDbEntity
  8
0
  6
Continuous
 62
     7
100
AcDbCircle
 10
383.7646930219025
 20
1361.710003988359
 30
0.0
 40
5.0
100
AcDbArc
 50
0.0
 51
90.00000000000783
  0
LINE
  5
20CA
330
1F17
100
AcDbEntity
  8
0
  6
Continuous
 62
     7
100
AcDbLine
 10
-122.2353045558311
 20
1348.960003064633
 30
0.0
 11
-130.5353034948691
 21
1348.960003064633
 31
0.0
  0
LINE
  5
20CB
330
1F17
100
AcDbEntity
  8
0
  6
Continuous
 62
     7
100
AcDbLine
 10
-131.2353078936824
 20
1048.960011632801
 30
0.0
 11
-131.2353078936922
 21
1347.260004089833
 31
0.0
  0
LINE
  5
20CC
330
1F17
100
AcDbEntity
  8
0
  6
Continuous
 62
     7
100
AcDbLine
 10
-131.2353078936922
 20
1348.960003064633
 30
0.0
 11
-132.9353068684923
 21
1348.960003064633
 31
0.0
  0
LINE
  5
20CD
330
1F17
100
AcDbEntity
  8
0
  6
Continuous
 62
     7
100
AcDbLine
 10
-131.2353078936922
 20
1348.809197725416
 30
0.0
 11
-131.2353078936922
 21
1348.960003064633
 31
0.0
  0
LINE
  5
20CE
330
1F17
100
AcDbEntity
  8
0
  6
Continuous
 62
     7
100
AcDbLine
 10
-131.2353078936922
 20
1347.260004089833
 30
0.0
 11
-131.2353078936922
 21
1348.809197725416
 31
0.0
  0
LINE
  5
20CF
330
1F17
100
AcDbEntity
  8
0
  6
Continuous
 62
     7
100
AcDbLine
 10
-149.5353047465662
 20
1348.960003064633
 30
0.0
 11
-132.9353068684923
 21
1348.960003064633
 31
0.0
  0
LINE
  5
20D0
330
1F17
100
AcDbEntity
  8
0
  6
Continuous
 62
     7
100
AcDbLine
 10
-131.2353078936821
 20
1031.210016639591
 30
0.0
 11
-146.2353084897293
 21
1031.210016639591
 31
0.0
  0
ARC
  5
20D1
330
1F17
100
AcDbEntity
  8
0
  6
Continuous
 62
     7
100
AcDbCircle
 10
-146.2353069780863
 20
1036.210003988344
 30
0.0
 40
5.000000000000227
100
AcDbArc
 50
180.0000000000026
 51
270.0
  0
LINE
  5
20D2
330
1F17
100
AcDbEntity
  8
0
  6
Continuous
 62
     7
100
AcDbLine
 10
-151.2353037213661
 20
1348.960003064633
 30
0.0
 11
-151.2353037213572
 21
1036.210011871219
 31
0.0
  0
LINE
  5
20D3
330
1F17
100
AcDbEntity
  8
0
  6
Continuous
 62
     7
100
AcDbLine
 10
-149.5353047465662
 20
1348.960003064633
 30
0.0
 11
-151.2353037213661
 21
1348.960003064633
 31
0.0
  0
LINE
  5
20D4
330
1F17
100
AcDbEntity
  8
0
  6
Continuous
 62
     7
100
AcDbLine
 10
-131.2353078936824
 20
1049.660008581043
 30
0.0
 11
-131.2353078936826
 21
1057.960014970661
 31
0.0
  0
LINE
  5
20D5
330
1F17
100
AcDbEntity
  8
0
  6
Continuous
 62
     7
100
AcDbLine
 10
368.7647070074786
 20
1048.960011632816
 30
0.0
 11
-129.5353089188825
 21
1048.960011632801
 31
0.0
  0
LINE
  5
20D6
330
1F17
100
AcDbEntity
  8
0
  6
Continuous
 62
     7
100
AcDbLine
 10
-131.2353078936824
 20
1048.960011632801
 30
0.0
 11
-131.2353078936824
 21
1047.25999775684
 31
0.0
  0
LINE
  5
20D7
330
1F17
100
AcDbEntity
  8
0
  6
Continuous
 62
     7
100
AcDbLine
 10
-131.0845006918205
 20
1048.960011632801
 30
0.0
 11
-131.2353078936824
 21
1048.960011632801
 31
0.0
  0
LINE
  5
20D8
330
1F17
100
AcDbEntity
  8
0
  6
Continuous
 62
     7
100
AcDbLine
 10
-129.5353089188825
 20
1048.960011632801
 30
0.0
 11
-131.0845006918205
 21
1048.960011632801
 31
0.0
  0
LINE
  5
20D9
330
1F17
100
AcDbEntity
  8
0
  6
Continuous
 62
     7
100
AcDbLine
 10
-131.2353078936821
 20
1030.660014779925
 30
0.0
 11
-131.2353078936824
 21
1047.25999775684
 31
0.0
  0
CIRCLE
  5
20DA
330
1F17
100
AcDbEntity
  8
0
  6
Continuous
 62
     7
100
AcDbCircle
 10
378.7646930219119
 20
1038.960003988357
 30
0.0
 40
5.249999999999913
  0
ARC
  5
20DB
330
1F17
100
AcDbEntity
  8
0
  6
Continuous
 62
     7
100
AcDbCircle
 10
381.5146930219128
 20
1033.960003988357
 30
0.0
 40
5.000000000000112
100
AcDbArc
 50
270.0
 51
0.0
  0
LINE
  5
20DC
330
1F17
100
AcDbEntity
  8
0
  6
Continuous
 62
     7
100
AcDbLine
 10
386.5147020006887
 20
1048.960011632816
 30
0.0
 11
386.5147020006889
 21
1033.959996135609
 31
0.0
  0
LINE
  5
20DD
330
1F17
100
AcDbEntity
  8
0
  6
Continuous
 62
     7
100
AcDbLine
 10
381.5147067690607
 20
1028.96000090398
 30
0.0
 11
-131.2353078936821
 21
1028.960000903965
 31
0.0
  0
LINE
  5
20DE
330
1F17
100
AcDbEntity
  8
0
  6
Continuous
 62
     7
100
AcDbLine
 10
-131.2353078936821
 20
1030.660014779925
 30
0.0
 11
-131.2353078936821
 21
1028.960000903965
 31
0.0
  0
LINE
  5
20DF
330
1F17
100
AcDbEntity
  8
0
  6
Continuous
 62
     7
100
AcDbLine
 10
-84.53467383139241
 20
1048.991602094534
 30
0.0
 11
-84.53467383139241
 21
1048.960011632803
 31
0.0
  0
LINE
  5
20E0
330
1F17
100
AcDbEntity
  8
0
  6
Continuous
 62
     7
100
AcDbLine
 10
-85.22112562410939
 20
1048.991602094534
 30
0.0
 11
-85.22112562410939
 21
1048.960011632803
 31
0.0
  0
ARC
  5
20E1
330
1F17
100
AcDbEntity
  8
0
  6
Continuous
 62
     7
100
AcDbCircle
 10
-83.84854674771736
 20
1050.304187751666
 30
0.0
 40
1.344176156303251
100
AcDbArc
 50
257.5536495179297
 51
270.0135232060449
  0
LINE
  5
20E2
330
1F17
100
AcDbEntity
  8
0
  6
Continuous
 62
     7
100
AcDbLine
 10
-82.8753997301344
 20
1048.991602094534
 30
0.0
 11
-82.8753997301344
 21
1048.960011632803
 31
0.0
  0
LINE
  5
20E3
330
1F17
100
AcDbEntity
  8
0
  6
Continuous
 62
     7
100
AcDbLine
 10
359.2050756598226
 20
1048.991602094547
 30
0.0
 11
359.2050756598226
 21
1048.960011632816
 31
0.0
  0
LINE
  5
20E4
330
1F17
100
AcDbEntity
  8
0
  6
Continuous
 62
     7
100
AcDbLine
 10
350.5616869116545
 20
1048.960011632816
 30
0.0
 11
350.5616869116545
 21
1048.991602094547
 31
0.0
  0
LINE
  5
20E5
330
1F17
100
AcDbEntity
  8
0
  6
Continuous
 62
     7
100
AcDbLine
 10
351.2062217379325
 20
1048.991602094547
 30
0.0
 11
351.2062217379325
 21
1048.960011632816
 31
0.0
  0
ARC
  5
20E6
330
1F17
100
AcDbEntity
  8
0
  6
Continuous
 62
     7
100
AcDbCircle
 10
349.9172744688356
 20
1050.148612605414
 30
0.0
 40
1.188600976203477
100
AcDbArc
 50
269.9955371831297
 51
283.2392751075319
  0
LINE
  5
20E7
330
1F17
100
AcDbEntity
  8
0
  6
Continuous
 62
     7
100
AcDbLine
 10
346.5308035994285
 20
1048.991602094546
 30
0.0
 11
346.5308035994285
 21
1048.960011632815
 31
0.0
  0
LINE
  5
20E8
330
1F17
100
AcDbEntity
  8
0
  6
Continuous
 62
     7
100
AcDbLine
 10
-49.44094165318143
 20
1048.991602094534
 30
0.0
 11
-49.44094165318143
 21
1048.960011632803
 31
0.0
  0
LINE
  5
20E9
330
1F17
100
AcDbEntity
  8
0
  6
Continuous
 62
     7
100
AcDbLine
 10
-49.99981715433637
 20
1048.991602094534
 30
0.0
 11
-49.99981715433637
 21
1048.960011632803
 31
0.0
  0
ARC
  5
20EA
330
1F17
100
AcDbEntity
  8
0
  6
Continuous
 62
     7
100
AcDbCircle
 10
-48.88158769897541
 20
1049.861867989918
 30
0.0
 40
0.9018564840295121
100
AcDbArc
 50
254.7901926196127
 51
269.9696034322657
  0
LINE
  5
20EB
330
1F17
100
AcDbEntity
  8
0
  6
Continuous
 62
     7
100
AcDbLine
 10
-42.7864481424574
 20
1048.991602094535
 30
0.0
 11
-42.7864481424574
 21
1048.960011632804
 31
0.0
  0
LINE
  5
20EC
330
1F17
100
AcDbEntity
  8
0
  6
Continuous
 62
     7
100
AcDbLine
 10
298.1607104922045
 20
1048.960011632814
 30
0.0
 11
298.1607104922045
 21
1048.991602094545
 31
0.0
  0
LINE
  5
20ED
330
1F17
100
AcDbEntity
  8
0
  6
Continuous
 62
     7
100
AcDbLine
 10
298.6527766371485
 20
1048.991602094545
 30
0.0
 11
298.6527766371485
 21
1048.960011632814
 31
0.0
  0
ARC
  5
20EE
330
1F17
100
AcDbEntity
  8
0
  6
Continuous
 62
     7
100
AcDbCircle
 10
297.6677666613616
 20
1049.665695003532
 30
0.0
 40
0.7056839165239533
100
AcDbArc
 50
270.0712609563447
 51
287.2086925922725
  0
LINE
  5
20EF
330
1F17
100
AcDbEntity
  8
0
  6
Continuous
 62
     7
100
AcDbLine
 10
290.1298488760706
 20
1048.991602094545
 30
0.0
 11
290.1298488760706
 21
1048.960011632814
 31
0.0
  0
LINE
  5
20F0
330
1F17
100
AcDbEntity
  8
0
  6
Continuous
 62
     7
100
AcDbLine
 10
18.9712393367995
 20
1048.991602094536
 30
0.0
 11
18.9712393367995
 21
1048.960011632805
 31
0.0
  0
LINE
  5
20F1
330
1F17
100
AcDbEntity
  8
0
  6
Continuous
 62
     7
100
AcDbLine
 10
18.65077496416552
 20
1048.991602094536
 30
0.0
 11
18.65077496416552
 21
1048.960011632805
 31
0.0
  0
LINE
  5
20F2
330
1F17
100
AcDbEntity
  8
0
  6
Continuous
 62
     7
100
AcDbLine
 10
218.7259580279106
 20
1048.960011632811
 30
0.0
 11
218.7259580279106
 21
1048.991602094543
 31
0.0
  0
LINE
  5
20F3
330
1F17
100
AcDbEntity
  8
0
  6
Continuous
 62
     7
100
AcDbLine
 10
218.9914967203845
 20
1048.991602094543
 30
0.0
 11
218.9914967203845
 21
1048.960011632811
 31
0.0
  0
ARC
  5
20F4
330
1F17
100
AcDbEntity
  8
0
  6
Continuous
 62
     7
100
AcDbCircle
 10
19.29455296866854
 20
1049.278169392811
 30
0.0
 40
0.3181705180088493
100
AcDbArc
 50
244.2465486078492
 51
269.4869018289119
  0
LINE
  5
20F5
330
1F17
100
AcDbEntity
  8
0
  6
Continuous
 62
     7
100
AcDbLine
 10
29.30124954230655
 20
1048.991602094538
 30
0.0
 11
29.30124954230655
 21
1048.960011632807
 31
0.0
  0
ARC
  5
20F6
330
1F17
100
AcDbEntity
  8
0
  6
Continuous
 62
     7
100
AcDbCircle
 10
218.4565960754435
 20
1049.188602972905
 30
0.0
 40
0.2286233104525015
100
AcDbArc
 50
270.9582000739961
 51
300.493892716097
  0
LINE
  5
20F7
330
1F17
100
AcDbEntity
  8
0
  6
Continuous
 62
     7
100
AcDbLine
 10
207.9039897108785
 20
1048.991602094542
 30
0.0
 11
207.9039897108785
 21
1048.96001163281
 31
0.0
  0
LINE
  5
20F8
330
1F17
100
AcDbEntity
  8
0
  6
Continuous
 62
     7
100
AcDbLine
 10
112.2326637888666
 20
1048.991602094539
 30
0.0
 11
112.2326637888666
 21
1048.960011632808
 31
0.0
  0
LINE
  5
20F9
330
1F17
100
AcDbEntity
  8
0
  6
Continuous
 62
     7
100
AcDbLine
 10
112.2307117367495
 20
1048.991602094539
 30
0.0
 11
112.2307117367495
 21
1048.960011632808
 31
0.0
  0
ARC
  5
20FA
330
1F17
100
AcDbEntity
  8
0
  6
Continuous
 62
     7
100
AcDbCircle
 10
112.9449398757245
 20
1048.9945811613
 30
0.0
 40
0.711164739446587
100
AcDbArc
 50
180.2400125343391
 51
182.7862305778065
  0
LINE
  5
20FB
330
1F17
100
AcDbEntity
  8
0
  6
Continuous
 62
     7
100
AcDbLine
 10
124.2119307900186
 20
1048.991602094539
 30
0.0
 11
124.2119307900186
 21
1048.960011632809
 31
0.0
  0
LINE
  5
20FC
330
1F17
100
AcDbEntity
  8
0
  6
Continuous
 62
     7
100
AcDbLine
 10
181.1356927538641
 20
1012.95999828137
 30
0.0
 11
13.79370049483805
 21
1012.959998281365
 31
0.0
  0
LINE
  5
20FD
330
1F17
100
AcDbEntity
  8
0
  6
Continuous
 62
     7
100
AcDbLine
 10
-88.13530846588742
 20
1048.960011632803
 30
0.0
 11
-88.13530846588742
 21
1048.991602094534
 31
0.0
  0
LINE
  5
20FE
330
1F17
100
AcDbEntity
  8
0
  6
Continuous
 62
     7
100
AcDbLine
 10
13.79370049483805
 20
1012.959998281365
 30
0.0
 11
-7.367590322125125
 21
1028.960000903969
 31
0.0
  0
LINE
  5
20FF
330
1F17
100
AcDbEntity
  8
0
  6
Continuous
 62
     7
100
AcDbLine
 10
202.2969807768577
 20
1028.960000903975
 30
0.0
 11
181.1356927538641
 21
1012.95999828137
 31
0.0
  0
LINE
  5
2100
330
1F17
100
AcDbEntity
  8
0
  6
Continuous
 62
     7
100
AcDbLine
 10
339.9646963263265
 20
1048.960011632815
 30
0.0
 11
339.9646963263265
 21
1048.991602094546
 31
0.0
  0
LINE
  5
2101
330
1F17
100
AcDbEntity
  8
0
  6
Continuous
 62
     7
100
AcDbLine
 10
344.1647078181027
 20
1048.991602094546
 30
0.0
 11
344.1647078181027
 21
1048.960011632815
 31
0.0
  0
LINE
  5
2102
330
1F17
100
AcDbEntity
  8
0
  6
Continuous
 62
     7
100
AcDbLine
 10
189.3646951103915
 20
1048.96001163281
 30
0.0
 11
189.3646951103915
 21
1048.991602094542
 31
0.0
  0
LINE
  5
2103
330
1F17
100
AcDbEntity
  8
0
  6
Continuous
 62
     7
100
AcDbLine
 10
193.5646917010056
 20
1048.991602094542
 30
0.0
 11
193.5646917010056
 21
1048.96001163281
 31
0.0
  0
LINE
  5
2104
330
1F17
100
AcDbEntity
  8
0
  6
Continuous
 62
     7
100
AcDbLine
 10
41.36469320304263
 20
1048.960011632807
 30
0.0
 11
41.36469320304263
 21
1048.991602094538
 31
0.0
  0
LINE
  5
2105
330
1F17
100
AcDbEntity
  8
0
  6
Continuous
 62
     7
100
AcDbLine
 10
45.56469351894748
 20
1048.991602094538
 30
0.0
 11
45.56469351894748
 21
1048.960011632807
 31
0.0
  0
LINE
  5
2106
330
1F17
100
AcDbEntity
  8
0
  6
Continuous
 62
     7
100
AcDbLine
 10
-106.6353087043055
 20
1048.960011632802
 30
0.0
 11
-106.6353087043055
 21
1048.991602094533
 31
0.0
  0
LINE
  5
2107
330
1F17
100
AcDbEntity
  8
0
  6
Continuous
 62
     7
100
AcDbLine
 10
-102.4353046631104
 20
1048.991602094534
 30
0.0
 11
-102.4353046631104
 21
1048.960011632803
 31
0.0
  0
CIRCLE
  5
2108
330
1F17
100
AcDbEntity
  8
0
  6
Continuous
 62
     7
100
AcDbCircle
 10
-141.2353069780931
 20
1038.960003988349
 30
0.0
 40
5.249999999999913
  0
LINE
  5
2109
330
1F17
100
AcDbEntity
  8
0
100
AcDbLine
 10
371.7646930219018
 20
1358.960003988359
 30
0.0
 11
385.7646930219018
 21
1358.960003988359
 31
0.0
  0
LINE
  5
210A
330
1F17
100
AcDbEntity
  8
0
100
AcDbLine
 10
378.7646930219016
 20
1365.960003988359
 30
0.0
 11
378.7646930219018
 21
1351.960003988359
 31
0.0
  0
LINE
  5
210B
330
1F17
100
AcDbEntity
  8
0
100
AcDbLine
 10
-141.2353069780984
 20
1365.960003988345
 30
0.0
 11
-141.2353069780982
 21
1351.960003988345
 31
0.0
  0
LINE
  5
210C
330
1F17
100
AcDbEntity
  8
0
100
AcDbLine
 10
-148.2353069780982
 20
1358.960003988345
 30
0.0
 11
-134.2353069780982
 21
1358.960003988345
 31
0.0
  0
LINE
  5
210D
330
1F17
100
AcDbEntity
  8
0
100
AcDbLine
 10
-148.2353069780931
 20
1038.960003988349
 30
0.0
 11
-134.2353069780931
 21
1038.960003988349
 31
0.0
  0
LINE
  5
210E
330
1F17
100
AcDbEntity
  8
0
100
AcDbLine
 10
-141.2353069780934
 20
1045.960003988349
 30
0.0
 11
-141.2353069780931
 21
1031.960003988349
 31
0.0
  0
LINE
  5
210F
330
1F17
100
AcDbEntity
  8
0
100
AcDbLine
 10
378.7646930219116
 20
1045.960003988357
 30
0.0
 11
378.7646930219119
 21
1031.960003988357
 31
0.0
  0
LINE
  5
2110
330
1F17
100
AcDbEntity
  8
0
100
AcDbLine
 10
371.7646930219119
 20
1038.960003988357
 30
0.0
 11
385.7646930219119
 21
1038.960003988357
 31
0.0
  0
LINE
  5
2111
330
1F17
100
AcDbEntity
  8
0
100
AcDbLine
 10
-131.2353078936873
 20
1198.110007861317
 30
0.0
 11
368.7647070074742
 21
1199.809999385551
 31
0.0
  0
LINE
  5
2113
330
1F17
100
AcDbEntity
  8
0
100
AcDbLine
 10
1512.902845619682
 20
1199.809999385561
 30
0.0
 11
2012.902860520843
 21
1199.809999385552
 31
0.0
  0
INSERT
  5
229A
330
1F17
100
AcDbEntity
  8
LENKIMO
  6
CENTERX2
100
AcDbBlockReference
  2
*U160
 10
1117.521955547213
 20
31.54003467059283
 30
0.0
 41
0.75
 42
0.75
 43
0.75
  0
INSERT
  5
229B
330
1F17
100
AcDbEntity
  8
LENKIMO
  6
CENTERX2
100
AcDbBlockReference
  2
*U161
 10
-510.1423801992498
 20
412.1872726646975
 30
0.0
 41
0.75
 42
0.75
 43
0.75
  0
LINE
  5
229C
330
1F17
100
AcDbEntity
  8
0
100
AcDbLine
 10
326.8173030904914
 20
577.0191323432318
 30
0.0
 11
326.8173030904914
 21
517.0191323432321
 31
0.0
  0
LINE
  5
229D
330
1F17
100
AcDbEntity
  8
0
100
AcDbLine
 10
476.8173030904895
 20
457.0191323432323
 30
0.0
 11
326.8173030904914
 21
337.0191323432321
 31
0.0
  0
LINE
  5
229E
330
1F17
100
AcDbEntity
  8
0
100
AcDbLine
 10
476.8173030904895
 20
457.0191323432323
 30
0.0
 11
326.8173030904914
 21
577.0191323432318
 31
0.0
  0
LINE
  5
229F
330
1F17
100
AcDbEntity
  8
0
100
AcDbLine
 10
326.8173030904914
 20
397.0191323432321
 30
0.0
 11
176.8173030904911
 21
397.0191323432321
 31
0.0
  0
LINE
  5
22A0
330
1F17
100
AcDbEntity
  8
0
100
AcDbLine
 10
326.8173030904914
 20
517.0191323432321
 30
0.0
 11
176.8173030904911
 21
517.0191323432321
 31
0.0
  0
LINE
  5
22A1
330
1F17
100
AcDbEntity
  8
0
100
AcDbLine
 10
326.8173030904914
 20
397.0191323432321
 30
0.0
 11
326.8173030904914
 21
337.0191323432321
 31
0.0
  0
LINE
  5
22A2
330
1F17
100
AcDbEntity
  8
0
100
AcDbLine
 10
176.8173030904911
 20
517.0191323432321
 30
0.0
 11
176.8173030904911
 21
397.0191323432321
 31
0.0
  0
MTEXT
  5
22A3
330
1F17
100
AcDbEntity
  8
0
100
AcDbMText
 10
201.2948277785811
 20
481.0904548632598
 30
0.0
 40
52.5
 41
31.44920197953655
 71
     1
 72
     5
  1
{ODA}
 73
     1
 44
1.0
1001
ACAD
1000
ACAD_MTEXT_DEFINED_HEIGHT_BEGIN
1070
    46
1040
35.595
1000
ACAD_MTEXT_DEFINED_HEIGHT_END
  0
INSERT
  5
22A4
330
1F17
100
AcDbEntity
  8
LENKIMO
  6
CENTERX2
100
AcDbBlockReference
  2
*U160
 10
-723.1853450893391
 20
-1732.444266750188
 30
0.0
 41
1.5
 42
1.5
 43
1.5
  0
LINE
  5
22A5
330
1F17
100
AcDbEntity
  8
0
100
AcDbLine
 10
1607.921450144094
 20
589.0433746943636
 30
0.0
 11
1607.921450144094
 21
529.0433746943631
 31
0.0
  0
LINE
  5
22A6
330
1F17
100
AcDbEntity
  8
0
100
AcDbLine
 10
1757.921450144094
 20
469.0433746943631
 30
0.0
 11
1607.921450144094
 21
349.0433746943636
 31
0.0
  0
LINE
  5
22A7
330
1F17
100
AcDbEntity
  8
0
100
AcDbLine
 10
1757.921450144094
 20
469.0433746943631
 30
0.0
 11
1607.921450144094
 21
589.0433746943636
 31
0.0
  0
LINE
  5
22A8
330
1F17
100
AcDbEntity
  8
0
100
AcDbLine
 10
1607.921450144094
 20
409.0433746943636
 30
0.0
 11
1457.921450144094
 21
409.0433746943636
 31
0.0
  0
LINE
  5
22A9
330
1F17
100
AcDbEntity
  8
0
100
AcDbLine
 10
1607.921450144094
 20
529.0433746943631
 30
0.0
 11
1457.921450144094
 21
529.0433746943631
 31
0.0
  0
LINE
  5
22AA
330
1F17
100
AcDbEntity
  8
0
100
AcDbLine
 10
1607.921450144094
 20
409.0433746943636
 30
0.0
 11
1607.921450144094
 21
349.0433746943636
 31
0.0
  0
LINE
  5
22AB
330
1F17
100
AcDbEntity
  8
0
100
AcDbLine
 10
1457.921450144094
 20
529.0433746943631
 30
0.0
 11
1457.921450144094
 21
409.0433746943636
 31
0.0
  0
MTEXT
  5
22AC
330
1F17
100
AcDbEntity
  8
0
100
AcDbMText
 10
1482.398974832186
 20
493.1146972143911
 30
0.0
 40
52.5
 41
31.44920197953655
 71
     1
 72
     5
  1
{SUP}
 73
     1
 44
1.0
1001
ACAD
1000
ACAD_MTEXT_DEFINED_HEIGHT_BEGIN
1070
    46
1040
35.595
1000
ACAD_MTEXT_DEFINED_HEIGHT_END
  0
INSERT
  5
22AD
330
1F17
100
AcDbEntity
  8
LENKIMO
  6
CENTERX2
100
AcDbBlockReference
  2
*U161
 10
112.0140085222731
 20
-1259.624906190587
 30
0.0
 41
1.5
 42
1.5
 43
1.5
  0
VIEWPORT
  5
F39
330
1F15
100
AcDbEntity
 67
     1
  8
0
100
AcDbViewport
 10
508.2420636408842
 20
-549.298639493596
 30
0.0
 40
9709.56095313162
 41
4381.399931721907
 68
     1
 69
     1
 12
508.2420636408842
 22
-549.298639493596
 13
0.0
 23
0.0
 14
10.0
 24
10.0
 15
10.0
 25
10.0
 16
0.0
 26
0.0
 36
1.0
 17
0.0
 27
0.0
 37
0.0
 42
50.0
 43
0.0
 44
0.0
 45
4381.399931721907
 50
0.0
 51
0.0
 72
   100
 90
   557280
  1

281
     0
 71
     0
 74
     0
110
0.0
120
0.0
130
0.0
111
1.0
121
0.0
131
0.0
112
0.0
122
1.0
132
0.0
 79
     0
146
0.0
  0
ENDSEC
  0
SECTION
  2
OBJECTS
  0
DICTIONARY
  5
1F07
330
0
100
AcDbDictionary
281
     1
  3
ACAD_GROUP
350
1F08
  3
ACAD_LAYOUT
350
1F14
  3
ACAD_MLINESTYLE
350
1F11
  3
ACAD_PLOTSETTINGS
350
1F13
  3
ACAD_PLOTSTYLENAME
350
1F09
  3
ACAD_SCALELIST
350
2073
  3
APPDATA
350
20B2
  3
DWGPROPS
350
22B1
  0
DICTIONARY
  5
22AE
330
1F17
100
AcDbDictionary
280
     1
281
     1
  3
DIM_BOUNDING_BOXES_V1
360
22AF
  0
DICTIONARY
  5
1F08
102
{ACAD_REACTORS
330
1F07
102
}
330
1F07
100
AcDbDictionary
281
     1
  0
DICTIONARY
  5
1F14
102
{ACAD_REACTORS
330
1F07
102
}
330
1F07
100
AcDbDictionary
281
     1
  3
Model
350
1F18
  3
Sheet 1
350
1F16
  0
DICTIONARY
  5
1F11
102
{ACAD_REACTORS
330
1F07
102
}
330
1F07
100
AcDbDictionary
281
     1
  3
Standard
350
1F12
  0
DICTIONARY
  5
1F13
102
{ACAD_REACTORS
330
1F07
102
}
330
1F07
100
AcDbDictionary
281
     1
  0
ACDBDICTIONARYWDFLT
  5
1F09
102
{ACAD_REACTORS
330
1F07
102
}
330
1F07
100
AcDbDictionary
281
     1
  3
Normal
350
1F0A
100
AcDbDictionaryWithDefault
340
1F0A
  0
DICTIONARY
  5
2073
102
{ACAD_REACTORS
330
1F07
102
}
330
1F07
100
AcDbDictionary
281
     1
  3
A0
350
2074
  3
A1
350
2075
  3
A2
350
2076
  3
A3
350
2077
  3
A4
350
2078
  3
A5
350
2079
  3
A6
350
207A
  3
A7
350
207B
  3
A8
350
207C
  3
A9
350
207D
  3
B0
350
207E
  3
B1
350
207F
  3
B2
350
2080
  3
B3
350
2081
  3
B4
350
2082
  3
B5
350
2083
  3
B6
350
2084
  3
B7
350
2085
  3
B8
350
2086
  3
B9
350
2087
  3
C0
350
2088
  3
C1
350
2089
  3
C2
350
208A
  3
C3
350
208B
  3
C4
350
208C
  3
C5
350
208D
  3
C6
350
208E
  3
C7
350
208F
  3
C8
350
2090
  3
C9
350
2091
  3
D0
350
2092
  3
D1
350
2093
  3
D2
350
2094
  0
DICTIONARY
  5
20B2
102
{ACAD_REACTORS
330
1F07
102
}
330
1F07
100
AcDbDictionary
281
     1
  0
XRECORD
  5
22B1
102
{ACAD_REACTORS
330
1F07
102
}
330
1F07
100
AcDbXrecord
280
     1
  1
DWGPROPS COOKIE
  2

  3

  4

  6

  7

  8
egidijustuzinas
  9

300
=
301
=
302
=
303
=
304
=
305
=
306
=
307
=
308
=
309
=
 40
0.0
 41
2455660.515630313
 42
2459177.509488461
  1

 90
        0
  0
DICTIONARY
  5
22AF
102
{ACAD_REACTORS
330
22AE
102
}
330
22AE
100
AcDbDictionary
281
     1
  0
LAYOUT
  5
1F18
102
{ACAD_REACTORS
330
1F14
102
}
330
1F14
100
AcDbPlotSettings
  1

  2
none_device
  4
Letter_(8.50_x_11.00_Inches)
  6

 40
6.35
 41
6.35
 42
6.35
 43
6.35
 44
215.9
 45
279.4
 46
0.0
 47
0.0
 48
0.0
 49
0.0
140
0.0
141
0.0
142
1.0
143
1.0
 70
  1712
 72
     0
 73
     0
 74
     0
  7

 75
     0
147
1.0
148
0.0
149
0.0
100
AcDbLayout
  1
Model
 70
     1
 71
     0
 10
0.0
 20
0.0
 11
12.0
 21
9.0
 12
0.0
 22
0.0
 32
0.0
 14
-151.2353069780866
 24
166.957844772321
 34
0.0
 15
2032.902859605245
 25
1368.960004014606
 35
0.0
146
0.0
 13
0.0
 23
0.0
 33
0.0
 16
1.0
 26
0.0
 36
0.0
 17
0.0
 27
1.0
 37
0.0
 76
     0
330
1F17
331
1F1A
  0
LAYOUT
  5
1F16
102
{ACAD_REACTORS
330
1F14
102
}
330
1F14
100
AcDbPlotSettings
  1

  2
none_device
  4

  6

 40
0.0
 41
0.0
 42
0.0
 43
0.0
 44
0.0
 45
0.0
 46
0.0
 47
0.0
 48
0.0
 49
0.0
140
0.0
141
0.0
142
1.0
143
1.0
 70
   688
 72
     0
 73
     0
 74
     5
  7

 75
    16
147
1.0
148
0.0
149
0.0
100
AcDbLayout
  1
Sheet 1
 70
     1
 71
     1
 10
0.0
 20
0.0
 11
0.0
 21
0.0
 12
0.0
 22
0.0
 32
0.0
 14
-191.1426104476283
 24
-993.9422597285799
 34
0.0
 15
1180.926476134536
 25
207.05990277044
 35
0.0
146
0.0
 13
0.0
 23
0.0
 33
0.0
 16
1.0
 26
0.0
 36
0.0
 17
0.0
 27
1.0
 37
0.0
 76
     0
330
1F15
331
F39
  0
MLINESTYLE
  5
1F12
102
{ACAD_REACTORS
330
1F11
102
}
330
1F11
100
AcDbMlineStyle
  2
Standard
 70
     0
  3

 62
   256
 51
90.0
 52
90.0
 71
     2
 49
0.5
 62
   256
  6
BYLAYER
 49
-0.5
 62
   256
  6
BYLAYER
  0
ACDBPLACEHOLDER
  5
1F0A
102
{ACAD_REACTORS
330
1F09
102
}
330
1F09
  0
SCALE
  5
2074
102
{ACAD_REACTORS
330
2073
102
}
330
2073
100
AcDbScale
 70
     0
300
1:1
140
1.0
141
1.0
290
     1
  0
SCALE
  5
2075
102
{ACAD_REACTORS
330
2073
102
}
330
2073
100
AcDbScale
 70
     0
300
1:2
140
1.0
141
2.0
290
     0
  0
SCALE
  5
2076
102
{ACAD_REACTORS
330
2073
102
}
330
2073
100
AcDbScale
 70
     0
300
1:4
140
1.0
141
4.0
290
     0
  0
SCALE
  5
2077
102
{ACAD_REACTORS
330
2073
102
}
330
2073
100
AcDbScale
 70
     0
300
1:5
140
1.0
141
5.0
290
     0
  0
SCALE
  5
2078
102
{ACAD_REACTORS
330
2073
102
}
330
2073
100
AcDbScale
 70
     0
300
1:8
140
1.0
141
8.0
290
     0
  0
SCALE
  5
2079
102
{ACAD_REACTORS
330
2073
102
}
330
2073
100
AcDbScale
 70
     0
300
1:10
140
1.0
141
10.0
290
     0
  0
SCALE
  5
207A
102
{ACAD_REACTORS
330
2073
102
}
330
2073
100
AcDbScale
 70
     0
300
1:16
140
1.0
141
16.0
290
     0
  0
SCALE
  5
207B
102
{ACAD_REACTORS
330
2073
102
}
330
2073
100
AcDbScale
 70
     0
300
1:20
140
1.0
141
20.0
290
     0
  0
SCALE
  5
207C
102
{ACAD_REACTORS
330
2073
102
}
330
2073
100
AcDbScale
 70
     0
300
1:30
140
1.0
141
30.0
290
     0
  0
SCALE
  5
207D
102
{ACAD_REACTORS
330
2073
102
}
330
2073
100
AcDbScale
 70
     0
300
1:40
140
1.0
141
40.0
290
     0
  0
SCALE
  5
207E
102
{ACAD_REACTORS
330
2073
102
}
330
2073
100
AcDbScale
 70
     0
300
1:50
140
1.0
141
50.0
290
     0
  0
SCALE
  5
207F
102
{ACAD_REACTORS
330
2073
102
}
330
2073
100
AcDbScale
 70
     0
300
1:100
140
1.0
141
100.0
290
     0
  0
SCALE
  5
2080
102
{ACAD_REACTORS
330
2073
102
}
330
2073
100
AcDbScale
 70
     0
300
2:1
140
2.0
141
1.0
290
     0
  0
SCALE
  5
2081
102
{ACAD_REACTORS
330
2073
102
}
330
2073
100
AcDbScale
 70
     0
300
4:1
140
4.0
141
1.0
290
     0
  0
SCALE
  5
2082
102
{ACAD_REACTORS
330
2073
102
}
330
2073
100
AcDbScale
 70
     0
300
8:1
140
8.0
141
1.0
290
     0
  0
SCALE
  5
2083
102
{ACAD_REACTORS
330
2073
102
}
330
2073
100
AcDbScale
 70
     0
300
10:1
140
10.0
141
1.0
290
     0
  0
SCALE
  5
2084
102
{ACAD_REACTORS
330
2073
102
}
330
2073
100
AcDbScale
 70
     0
300
100:1
140
100.0
141
1.0
290
     0
  0
SCALE
  5
2085
102
{ACAD_REACTORS
330
2073
102
}
330
2073
100
AcDbScale
 70
     0
300
1/128" = 1'-0"
140
0.0078125
141
12.0
290
     0
  0
SCALE
  5
2086
102
{ACAD_REACTORS
330
2073
102
}
330
2073
100
AcDbScale
 70
     0
300
1/64" = 1'-0"
140
0.015625
141
12.0
290
     0
  0
SCALE
  5
2087
102
{ACAD_REACTORS
330
2073
102
}
330
2073
100
AcDbScale
 70
     0
300
1/32" = 1'-0"
140
0.03125
141
12.0
290
     0
  0
SCALE
  5
2088
102
{ACAD_REACTORS
330
2073
102
}
330
2073
100
AcDbScale
 70
     0
300
1/16" = 1'-0"
140
0.0625
141
12.0
290
     0
  0
SCALE
  5
2089
102
{ACAD_REACTORS
330
2073
102
}
330
2073
100
AcDbScale
 70
     0
300
3/32" = 1'-0"
140
0.09375
141
12.0
290
     0
  0
SCALE
  5
208A
102
{ACAD_REACTORS
330
2073
102
}
330
2073
100
AcDbScale
 70
     0
300
1/8" = 1'-0"
140
0.125
141
12.0
290
     0
  0
SCALE
  5
208B
102
{ACAD_REACTORS
330
2073
102
}
330
2073
100
AcDbScale
 70
     0
300
3/16" = 1'-0"
140
0.1875
141
12.0
290
     0
  0
SCALE
  5
208C
102
{ACAD_REACTORS
330
2073
102
}
330
2073
100
AcDbScale
 70
     0
300
1/4" = 1'-0"
140
0.25
141
12.0
290
     0
  0
SCALE
  5
208D
102
{ACAD_REACTORS
330
2073
102
}
330
2073
100
AcDbScale
 70
     0
300
3/8" = 1'-0"
140
0.375
141
12.0
290
     0
  0
SCALE
  5
208E
102
{ACAD_REACTORS
330
2073
102
}
330
2073
100
AcDbScale
 70
     0
300
1/2" = 1'-0"
140
0.5
141
12.0
290
     0
  0
SCALE
  5
208F
102
{ACAD_REACTORS
330
2073
102
}
330
2073
100
AcDbScale
 70
     0
300
3/4" = 1'-0"
140
0.75
141
12.0
290
     0
  0
SCALE
  5
2090
102
{ACAD_REACTORS
330
2073
102
}
330
2073
100
AcDbScale
 70
     0
300
1" = 1'-0"
140
1.0
141
12.0
290
     0
  0
SCALE
  5
2091
102
{ACAD_REACTORS
330
2073
102
}
330
2073
100
AcDbScale
 70
     0
300
1-1/2" = 1'-0"
140
1.5
141
12.0
290
     0
  0
SCALE
  5
2092
102
{ACAD_REACTORS
330
2073
102
}
330
2073
100
AcDbScale
 70
     0
300
3" = 1'-0"
140
3.0
141
12.0
290
     0
  0
SCALE
  5
2093
102
{ACAD_REACTORS
330
2073
102
}
330
2073
100
AcDbScale
 70
     0
300
6" = 1'-0"
140
6.0
141
12.0
290
     0
  0
SCALE
  5
2094
102
{ACAD_REACTORS
330
2073
102
}
330
2073
100
AcDbScale
 70
     0
300
1'-0" = 1'-0"
140
12.0
141
12.0
290
     0
  0
ENDSEC
  0
EOF
