  0
SECTION
  2
HEADER
  9
$ACADVER
  1
AC1015
  9
$ACADMAINTVER
 70
     6
  9
$DWGCODEPAGE
  3
ANSI_1257
  9
$INSBASE
 10
0.0
 20
0.0
 30
0.0
  9
$EXTMIN
 10
-377.6804486786839
 20
220.4255158973215
 30
0.0
  9
$EXTMAX
 10
2357.024018065944
 20
1568.695793481494
 30
0.0
  9
$LIMMIN
 10
0.0
 20
0.0
  9
$LIMMAX
 10
420.0
 20
297.0
  9
$ORTHOMODE
 70
     0
  9
$REGENMODE
 70
     1
  9
$FILLMODE
 70
     1
  9
$QTEXTMODE
 70
     0
  9
$MIRRTEXT
 70
     1
  9
$LTSCALE
 40
1.0
  9
$ATTMODE
 70
     1
  9
$TEXTSIZE
 40
2.5
  9
$TRACEWID
 40
1.0
  9
$TEXTSTYLE
  7
STANDARD
  9
$CLAYER
  8
0
  9
$CELTYPE
  6
ByLayer
  9
$CECOLOR
 62
   256
  9
$CELTSCALE
 40
1.0
  9
$DISPSILH
 70
     0
  9
$DIMSCALE
 40
1.0
  9
$DIMASZ
 40
4.0
  9
$DIMEXO
 40
1.0
  9
$DIMDLI
 40
3.75
  9
$DIMRND
 40
0.0
  9
$DIMDLE
 40
0.0
  9
$DIMEXE
 40
1.0
  9
$DIMTP
 40
0.0
  9
$DIMTM
 40
0.0
  9
$DIMTXT
 40
3.527777777777776
  9
$DIMCEN
 40
2.5
  9
$DIMTSZ
 40
0.0
  9
$DIMTOL
 70
     0
  9
$DIMLIM
 70
     0
  9
$DIMTIH
 70
     1
  9
$DIMTOH
 70
     1
  9
$DIMSE1
 70
     0
  9
$DIMSE2
 70
     0
  9
$DIMTAD
 70
     1
  9
$DIMZIN
 70
     0
  9
$DIMBLK
  1

  9
$DIMASO
 70
     1
  9
$DIMSHO
 70
     1
  9
$DIMPOST
  1

  9
$DIMAPOST
  1

  9
$DIMALT
 70
     0
  9
$DIMALTD
 70
     3
  9
$DIMALTF
 40
0.0393700787401575
  9
$DIMLFAC
 40
1.0
  9
$DIMTOFL
 70
     1
  9
$DIMTVP
 40
0.0
  9
$DIMTIX
 70
     0
  9
$DIMSOXD
 70
     0
  9
$DIMSAH
 70
     0
  9
$DIMBLK1
  1

  9
$DIMBLK2
  1

  9
$DIMSTYLE
  2
ISO-25
  9
$DIMCLRD
 70
     0
  9
$DIMCLRE
 70
     0
  9
$DIMCLRT
 70
     0
  9
$DIMTFAC
 40
1.0
  9
$DIMGAP
 40
1.524
  9
$DIMJUST
 70
     0
  9
$DIMSD1
 70
     0
  9
$DIMSD2
 70
     0
  9
$DIMTOLJ
 70
     1
  9
$DIMTZIN
 70
     0
  9
$DIMALTZ
 70
     0
  9
$DIMALTTZ
 70
     0
  9
$DIMUPT
 70
     0
  9
$DIMDEC
 70
     2
  9
$DIMTDEC
 70
     2
  9
$DIMALTU
 70
     2
  9
$DIMALTTD
 70
     2
  9
$DIMTXSTY
  7
STANDARD
  9
$DIMAUNIT
 70
     0
  9
$DIMADEC
 70
     0
  9
$DIMALTRND
 40
0.0
  9
$DIMAZIN
 70
     0
  9
$DIMDSEP
 70
    46
  9
$DIMATFIT
 70
     3
  9
$DIMFRAC
 70
     0
  9
$DIMLDRBLK
  1

  9
$DIMLUNIT
 70
     2
  9
$DIMLWD
 70
    -2
  9
$DIMLWE
 70
    -2
  9
$DIMTMOVE
 70
     2
  9
$LUNITS
 70
     2
  9
$LUPREC
 70
     2
  9
$SKETCHINC
 40
1.0
  9
$FILLETRAD
 40
10.0
  9
$AUNITS
 70
     0
  9
$AUPREC
 70
     2
  9
$MENU
  1
.
  9
$ELEVATION
 40
0.0
  9
$PELEVATION
 40
0.0
  9
$THICKNESS
 40
0.0
  9
$LIMCHECK
 70
     0
  9
$CHAMFERA
 40
10.0
  9
$CHAMFERB
 40
10.0
  9
$CHAMFERC
 40
0.0
  9
$CHAMFERD
 40
0.0
  9
$SKPOLY
 70
     0
  9
$TDCREATE
 40
2455660.600757431
  9
$TDUCREATE
 40
2455660.517424097
  9
$TDUPDATE
 40
2459177.600345127
  9
$TDUUPDATE
 40
2459177.517011794
  9
$TDINDWG
 40
0.0099201852
  9
$TDUSRTIMER
 40
0.001134838
  9
$USRTIMER
 70
     1
  9
$ANGBASE
 50
0.0
  9
$ANGDIR
 70
     0
  9
$PDMODE
 70
     0
  9
$PDSIZE
 40
-1.0
  9
$PLINEWID
 40
0.0
  9
$SPLFRAME
 70
     0
  9
$SPLINETYPE
 70
     6
  9
$SPLINESEGS
 70
     8
  9
$HANDSEED
  5
2479
  9
$SURFTAB1
 70
     6
  9
$SURFTAB2
 70
     6
  9
$SURFTYPE
 70
     6
  9
$SURFU
 70
     6
  9
$SURFV
 70
     6
  9
$UCSBASE
  2

  9
$UCSNAME
  2

  9
$UCSORG
 10
0.0
 20
0.0
 30
0.0
  9
$UCSXDIR
 10
1.0
 20
0.0
 30
0.0
  9
$UCSYDIR
 10
0.0
 20
1.0
 30
0.0
  9
$UCSORTHOREF
  2

  9
$UCSORTHOVIEW
 70
     0
  9
$UCSORGTOP
 10
0.0
 20
0.0
 30
0.0
  9
$UCSORGBOTTOM
 10
0.0
 20
0.0
 30
0.0
  9
$UCSORGLEFT
 10
0.0
 20
0.0
 30
0.0
  9
$UCSORGRIGHT
 10
0.0
 20
0.0
 30
0.0
  9
$UCSORGFRONT
 10
0.0
 20
0.0
 30
0.0
  9
$UCSORGBACK
 10
0.0
 20
0.0
 30
0.0
  9
$PUCSBASE
  2

  9
$PUCSNAME
  2

  9
$PUCSORG
 10
0.0
 20
0.0
 30
0.0
  9
$PUCSXDIR
 10
1.0
 20
0.0
 30
0.0
  9
$PUCSYDIR
 10
0.0
 20
1.0
 30
0.0
  9
$PUCSORTHOREF
  2

  9
$PUCSORTHOVIEW
 70
     0
  9
$PUCSORGTOP
 10
0.0
 20
0.0
 30
0.0
  9
$PUCSORGBOTTOM
 10
0.0
 20
0.0
 30
0.0
  9
$PUCSORGLEFT
 10
0.0
 20
0.0
 30
0.0
  9
$PUCSORGRIGHT
 10
0.0
 20
0.0
 30
0.0
  9
$PUCSORGFRONT
 10
0.0
 20
0.0
 30
0.0
  9
$PUCSORGBACK
 10
0.0
 20
0.0
 30
0.0
  9
$USERI1
 70
     0
  9
$USERI2
 70
     0
  9
$USERI3
 70
     0
  9
$USERI4
 70
     0
  9
$USERI5
 70
     0
  9
$USERR1
 40
0.0
  9
$USERR2
 40
0.0
  9
$USERR3
 40
0.0
  9
$USERR4
 40
0.0
  9
$USERR5
 40
0.0
  9
$WORLDVIEW
 70
     1
  9
$SHADEDGE
 70
     3
  9
$SHADEDIF
 70
    70
  9
$TILEMODE
 70
     1
  9
$MAXACTVP
 70
    64
  9
$PINSBASE
 10
0.0
 20
0.0
 30
0.0
  9
$PLIMCHECK
 70
     0
  9
$PEXTMIN
 10
-241.4842471211493
 20
-1047.32335429006
 30
0.0
  9
$PEXTMAX
 10
1475.867993255181
 20
229.946931725868
 30
0.0
  9
$PLIMMIN
 10
0.0
 20
0.0
  9
$PLIMMAX
 10
0.0
 20
0.0
  9
$UNITMODE
 70
     0
  9
$VISRETAIN
 70
     1
  9
$PLINEGEN
 70
     0
  9
$PSLTSCALE
 70
     1
  9
$TREEDEPTH
 70
  3020
  9
$CMLSTYLE
  2
Standard
  9
$CMLJUST
 70
     0
  9
$CMLSCALE
 40
1.0
  9
$PROXYGRAPHICS
 70
     1
  9
$MEASUREMENT
 70
     0
  9
$CELWEIGHT
370
    -1
  9
$ENDCAPS
280
     0
  9
$JOINSTYLE
280
     0
  9
$LWDISPLAY
290
     0
  9
$INSUNITS
 70
     0
  9
$HYPERLINKBASE
  1

  9
$STYLESHEET
  1

  9
$XEDIT
290
     1
  9
$CEPSNTYPE
380
     0
  9
$PSTYLEMODE
290
     1
  9
$FINGERPRINTGUID
  2
{1dfdd0b5-1494-4226-833b-1483b0429973}
  9
$VERSIONGUID
  2
{FAEB1C32-E019-11D5-929B-00C0DF256EC4}
  9
$EXTNAMES
290
     1
  9
$PSVPSCALE
 40
0.0
  9
$OLESTARTUP
290
     0
  0
ENDSEC
  0
SECTION
  2
CLASSES
  0
CLASS
  1
ACDBDICTIONARYWDFLT
  2
AcDbDictionaryWithDefault
  3
ObjectDBX Classes
 90
        0
280
     0
281
     0
  0
CLASS
  1
MATERIAL
  2
AcDbMaterial
  3
ObjectDBX Classes
 90
     1153
280
     0
281
     0
  0
CLASS
  1
SCALE
  2
AcDbScale
  3
ObjectDBX Classes
 90
     1153
280
     0
281
     0
  0
CLASS
  1
VISUALSTYLE
  2
AcDbVisualStyle
  3
ObjectDBX Classes
 90
     4095
280
     0
281
     0
  0
CLASS
  1
TABLESTYLE
  2
AcDbTableStyle
  3
ObjectDBX Classes
 90
     4095
280
     0
281
     0
  0
CLASS
  1
MLEADERSTYLE
  2
AcDbMLeaderStyle
  3
ACDB_MLEADERSTYLE_CLASS
 90
     4095
280
     0
281
     0
  0
CLASS
  1
ACDBPLACEHOLDER
  2
AcDbPlaceHolder
  3
ObjectDBX Classes
 90
        0
280
     0
281
     0
  0
CLASS
  1
LAYOUT
  2
AcDbLayout
  3
ObjectDBX Classes
 90
        0
280
     0
281
     0
  0
ENDSEC
  0
SECTION
  2
TABLES
  0
TABLE
  2
VPORT
  5
2024
330
0
100
AcDbSymbolTable
 70
     1
  0
VPORT
  5
203B
330
2024
100
AcDbSymbolTableRecord
100
AcDbViewportTableRecord
  2
*ACTIVE
 70
     0
 10
0.0
 20
0.0
 11
1.0
 21
1.0
 12
1034.105409761904
 22
592.176329153642
 13
0.0
 23
0.0
 14
10.0
 24
10.0
 15
10.0
 25
10.0
 16
0.0
 26
0.0
 36
1.0
 17
0.0
 27
0.0
 37
0.0
 40
6068.221687022184
 41
1.992395437262357
 42
50.0
 43
0.0
 44
0.0
 50
0.0
 51
0.0
 71
    16
 72
  2000
 73
     1
 74
     3
 75
     0
 76
     0
 77
     0
 78
     0
281
     0
 65
     0
110
0.0
120
0.0
130
0.0
111
1.0
121
0.0
131
0.0
112
0.0
122
1.0
132
0.0
 79
     0
146
0.0
  0
ENDTAB
  0
TABLE
  2
LTYPE
  5
2021
330
0
100
AcDbSymbolTable
 70
     6
  0
LTYPE
  5
202F
330
2021
100
AcDbSymbolTableRecord
100
AcDbLinetypeTableRecord
  2
ByBlock
 70
     0
  3

 72
    65
 73
     0
 40
0.0
  0
LTYPE
  5
2030
330
2021
100
AcDbSymbolTableRecord
100
AcDbLinetypeTableRecord
  2
ByLayer
 70
     0
  3

 72
    65
 73
     0
 40
0.0
  0
LTYPE
  5
2031
330
2021
100
AcDbSymbolTableRecord
100
AcDbLinetypeTableRecord
  2
CONTINUOUS
 70
     0
  3
Solid line
 72
    65
 73
     0
 40
0.0
  0
LTYPE
  5
203D
330
2021
100
AcDbSymbolTableRecord
100
AcDbLinetypeTableRecord
  2
HIDDEN
 70
     0
  3
Hidden __ __ __ __ __ __ __ __ __ __ __ __ __ __
 72
    65
 73
     2
 40
1.905
 49
1.27
 74
     0
 49
-0.635
 74
     0
  0
LTYPE
  5
203E
330
2021
100
AcDbSymbolTableRecord
100
AcDbLinetypeTableRecord
  2
PHANTOM
 70
     0
  3
Phantom ______  __  __  ______  __  __  ______
 72
    65
 73
     6
 40
12.7
 49
6.349999999999998
 74
     0
 49
-1.27
 74
     0
 49
1.27
 74
     0
 49
-1.27
 74
     0
 49
1.27
 74
     0
 49
-1.27
 74
     0
  0
LTYPE
  5
203F
330
2021
100
AcDbSymbolTableRecord
100
AcDbLinetypeTableRecord
  2
CENTER
 70
     0
  3
Center ____ _ ____ _ ____ _ ____ _ ____ _ ____
 72
    65
 73
     4
 40
10.16
 49
6.349999999999998
 74
     0
 49
-1.27
 74
     0
 49
1.27
 74
     0
 49
-1.27
 74
     0
  0
LTYPE
  5
2040
330
2021
100
AcDbSymbolTableRecord
100
AcDbLinetypeTableRecord
  2
CENTERX2
 70
     0
  3
Center (2x) ________  __  ________  __  _____
 72
    65
 73
     4
 40
20.32
 49
12.7
 74
     0
 49
-2.54
 74
     0
 49
2.54
 74
     0
 49
-2.54
 74
     0
  0
LTYPE
  5
2041
330
2021
100
AcDbSymbolTableRecord
100
AcDbLinetypeTableRecord
  2
DOT2
 70
     0
  3
Dot (.5x) ........................................
 72
    65
 73
     2
 40
0.635
 49
0.0
 74
     0
 49
-0.635
 74
     0
  0
ENDTAB
  0
TABLE
  2
LAYER
  5
201F
330
0
100
AcDbSymbolTable
 70
     3
  0
LAYER
  5
202C
330
201F
100
AcDbSymbolTableRecord
100
AcDbLayerTableRecord
  2
0
 70
     0
 62
     7
  6
CONTINUOUS
370
    -3
390
202B
  0
LAYER
  5
2047
330
201F
100
AcDbSymbolTableRecord
100
AcDbLayerTableRecord
  2
SLD-DEFPOINTS
 70
     0
 62
     7
  6
CONTINUOUS
370
    -3
390
202B
  0
LAYER
  5
2048
330
201F
100
AcDbSymbolTableRecord
100
AcDbLayerTableRecord
  2
LENKIMO
 70
     0
 62
     1
  6
HIDDEN
370
    -3
390
202B
  0
ENDTAB
  0
TABLE
  2
STYLE
  5
2020
330
0
100
AcDbSymbolTable
 70
     6
  0
STYLE
  5
202D
330
2020
100
AcDbSymbolTableRecord
100
AcDbTextStyleTableRecord
  2
STANDARD
 70
     0
 40
0.0
 41
1.0
 50
0.0
 71
     0
 42
2.5
  3
txt
  4

  0
STYLE
  5
204A
330
2020
100
AcDbSymbolTableRecord
100
AcDbTextStyleTableRecord
  2
SLDTEXTSTYLE0
 70
     0
 40
0.0
 41
0.75
 50
0.0
 71
     0
 42
0.2
  3
TXT
  4

  0
STYLE
  5
204B
330
2020
100
AcDbSymbolTableRecord
100
AcDbTextStyleTableRecord
  2
SLDTEXTSTYLE1
 70
     0
 40
0.0
 41
0.6875
 50
0.0
 71
     0
 42
0.2
  3
TXT
  4

  0
STYLE
  5
204C
330
2020
100
AcDbSymbolTableRecord
100
AcDbTextStyleTableRecord
  2
SLDTEXTSTYLE2
 70
     0
 40
0.0
 41
0.75
 50
0.0
 71
     0
 42
0.2
  3
TXT
  4
bigfont
  0
STYLE
  5
204D
330
2020
100
AcDbSymbolTableRecord
100
AcDbTextStyleTableRecord
  2
SLDTEXTSTYLE3
 70
     0
 40
0.0
 41
0.6630000000000001
 50
0.0
 71
     0
 42
0.2
  3
TXT
  4

  0
STYLE
  5
204E
330
2020
100
AcDbSymbolTableRecord
100
AcDbTextStyleTableRecord
  2
SLDTEXTSTYLE4
 70
     0
 40
0.0
 41
0.6630000000000001
 50
0.0
 71
     0
 42
0.2
  3
TXT
  4
bigfont
  0
ENDTAB
  0
TABLE
  2
VIEW
  5
2022
330
0
100
AcDbSymbolTable
 70
     0
  0
ENDTAB
  0
TABLE
  2
UCS
  5
2023
330
0
100
AcDbSymbolTable
 70
     0
  0
ENDTAB
  0
TABLE
  2
APPID
  5
2025
330
0
100
AcDbSymbolTable
 70
     1
  0
APPID
  5
202E
330
2025
100
AcDbSymbolTableRecord
100
AcDbRegAppTableRecord
  2
ACAD
 70
     0
  0
ENDTAB
  0
TABLE
  2
DIMSTYLE
  5
2026
330
0
100
AcDbSymbolTable
 70
     6
100
AcDbDimStyleTable
  0
DIMSTYLE
105
2050
330
2026
100
AcDbSymbolTableRecord
100
AcDbDimStyleTableRecord
  2
ISO-25
 70
     0
 41
2.5
 42
0.625
 43
3.75
 44
1.25
 73
     0
 74
     0
 77
     1
 78
     8
140
2.5
141
2.5
143
0.03937007874016
147
0.625
171
     3
172
     1
178
     0
340
202D
  0
DIMSTYLE
105
2051
330
2026
100
AcDbSymbolTableRecord
100
AcDbDimStyleTableRecord
  2
SLDDIMSTYLE0
 70
     0
 41
4.0
 44
0.0
 45
0.000000001
 73
     0
 77
     1
 78
    12
140
2.645833333333333
144
7.0
147
0.6614583333333334
173
     1
178
     0
340
202D
  0
DIMSTYLE
105
2052
330
2026
100
AcDbSymbolTableRecord
100
AcDbDimStyleTableRecord
  2
SLDDIMSTYLE1
 70
     0
 41
4.0
 44
0.0
 45
0.000000001
 73
     0
 77
     1
 78
    12
140
2.645833333333333
144
7.0
147
0.6614583333333334
173
     1
178
     0
340
202D
  0
DIMSTYLE
105
2053
330
2026
100
AcDbSymbolTableRecord
100
AcDbDimStyleTableRecord
  2
SLDDIMSTYLE2
 70
     0
 41
4.0
 44
0.0
 45
0.000000001
146
4.0
147
0.0
173
     1
178
     0
340
202D
  0
DIMSTYLE
105
2054
330
2026
100
AcDbSymbolTableRecord
100
AcDbDimStyleTableRecord
  2
SLDDIMSTYLE3
 70
     0
 41
4.0
 44
0.0
 45
0.000000001
 73
     0
 77
     1
 78
     4
140
2.645833333333333
144
7.0
147
0.6614583333333334
173
     1
178
     0
340
202D
  0
DIMSTYLE
105
225B
330
2026
100
AcDbSymbolTableRecord
100
AcDbDimStyleTableRecord
  2
SLDDIMSTYLE4
 70
     0
 41
4.0
 44
0.0
 73
     0
 77
     1
 78
    12
140
2.6458333333
144
7.5
147
0.6614583333000001
173
     1
178
     0
340
202D
  0
ENDTAB
  0
TABLE
  2
BLOCK_RECORD
  5
201E
330
0
100
AcDbSymbolTable
 70
   175
  0
BLOCK_RECORD
  5
2038
102
{ACAD_XDICTIONARY
360
2476
102
}
330
201E
100
AcDbSymbolTableRecord
100
AcDbBlockTableRecord
  2
*Model_Space
340
2039
  0
BLOCK_RECORD
  5
2036
330
201E
100
AcDbSymbolTableRecord
100
AcDbBlockTableRecord
  2
*Paper_Space
340
2037
  0
BLOCK_RECORD
  5
2058
330
201E
100
AcDbSymbolTableRecord
100
AcDbBlockTableRecord
  2
BLOCK1
340
0
  0
BLOCK_RECORD
  5
205A
330
201E
100
AcDbSymbolTableRecord
100
AcDbBlockTableRecord
  2
SW_NOTE_0
340
0
  0
BLOCK_RECORD
  5
205C
330
201E
100
AcDbSymbolTableRecord
100
AcDbBlockTableRecord
  2
*U2
340
0
102
{BLKREFS
331
196
102
}
  0
BLOCK_RECORD
  5
205E
330
201E
100
AcDbSymbolTableRecord
100
AcDbBlockTableRecord
  2
*U3
340
0
102
{BLKREFS
331
197
102
}
  0
BLOCK_RECORD
  5
2060
330
201E
100
AcDbSymbolTableRecord
100
AcDbBlockTableRecord
  2
SW_NOTE_1
340
0
  0
BLOCK_RECORD
  5
2062
330
201E
100
AcDbSymbolTableRecord
100
AcDbBlockTableRecord
  2
*U5
340
0
102
{BLKREFS
331
19C
102
}
  0
BLOCK_RECORD
  5
2064
330
201E
100
AcDbSymbolTableRecord
100
AcDbBlockTableRecord
  2
*U6
340
0
102
{BLKREFS
331
19D
102
}
  0
BLOCK_RECORD
  5
2066
330
201E
100
AcDbSymbolTableRecord
100
AcDbBlockTableRecord
  2
SW_TABLEANNOTATION_0
340
0
  0
BLOCK_RECORD
  5
2068
330
201E
100
AcDbSymbolTableRecord
100
AcDbBlockTableRecord
  2
*U8
340
0
102
{BLKREFS
331
1D6
102
}
  0
BLOCK_RECORD
  5
206A
330
201E
100
AcDbSymbolTableRecord
100
AcDbBlockTableRecord
  2
*U9
340
0
102
{BLKREFS
331
1D7
102
}
  0
BLOCK_RECORD
  5
206C
330
201E
100
AcDbSymbolTableRecord
100
AcDbBlockTableRecord
  2
*U10
340
0
102
{BLKREFS
331
1D8
102
}
  0
BLOCK_RECORD
  5
206E
330
201E
100
AcDbSymbolTableRecord
100
AcDbBlockTableRecord
  2
*U11
340
0
102
{BLKREFS
331
1D9
102
}
  0
BLOCK_RECORD
  5
2070
330
201E
100
AcDbSymbolTableRecord
100
AcDbBlockTableRecord
  2
*U12
340
0
102
{BLKREFS
331
1DA
102
}
  0
BLOCK_RECORD
  5
2072
330
201E
100
AcDbSymbolTableRecord
100
AcDbBlockTableRecord
  2
*U13
340
0
102
{BLKREFS
331
1DB
102
}
  0
BLOCK_RECORD
  5
2074
330
201E
100
AcDbSymbolTableRecord
100
AcDbBlockTableRecord
  2
*U14
340
0
102
{BLKREFS
331
1DC
102
}
  0
BLOCK_RECORD
  5
2076
330
201E
100
AcDbSymbolTableRecord
100
AcDbBlockTableRecord
  2
*U15
340
0
102
{BLKREFS
331
1DD
102
}
  0
BLOCK_RECORD
  5
2078
330
201E
100
AcDbSymbolTableRecord
100
AcDbBlockTableRecord
  2
*U16
340
0
102
{BLKREFS
331
1DE
102
}
  0
BLOCK_RECORD
  5
207A
330
201E
100
AcDbSymbolTableRecord
100
AcDbBlockTableRecord
  2
*U17
340
0
102
{BLKREFS
331
1DF
102
}
  0
BLOCK_RECORD
  5
207C
330
201E
100
AcDbSymbolTableRecord
100
AcDbBlockTableRecord
  2
*U18
340
0
102
{BLKREFS
331
1E0
102
}
  0
BLOCK_RECORD
  5
207E
330
201E
100
AcDbSymbolTableRecord
100
AcDbBlockTableRecord
  2
*U19
340
0
102
{BLKREFS
331
1E1
102
}
  0
BLOCK_RECORD
  5
2080
330
201E
100
AcDbSymbolTableRecord
100
AcDbBlockTableRecord
  2
*U20
340
0
102
{BLKREFS
331
1E2
102
}
  0
BLOCK_RECORD
  5
2082
330
201E
100
AcDbSymbolTableRecord
100
AcDbBlockTableRecord
  2
*U21
340
0
102
{BLKREFS
331
1E3
102
}
  0
BLOCK_RECORD
  5
2084
330
201E
100
AcDbSymbolTableRecord
100
AcDbBlockTableRecord
  2
*U22
340
0
102
{BLKREFS
331
1E4
102
}
  0
BLOCK_RECORD
  5
2086
330
201E
100
AcDbSymbolTableRecord
100
AcDbBlockTableRecord
  2
*U23
340
0
102
{BLKREFS
331
1E5
102
}
  0
BLOCK_RECORD
  5
2088
330
201E
100
AcDbSymbolTableRecord
100
AcDbBlockTableRecord
  2
*U24
340
0
102
{BLKREFS
331
1E6
102
}
  0
BLOCK_RECORD
  5
208A
330
201E
100
AcDbSymbolTableRecord
100
AcDbBlockTableRecord
  2
*U25
340
0
102
{BLKREFS
331
1E7
102
}
  0
BLOCK_RECORD
  5
208C
330
201E
100
AcDbSymbolTableRecord
100
AcDbBlockTableRecord
  2
*U26
340
0
102
{BLKREFS
331
1E8
102
}
  0
BLOCK_RECORD
  5
208E
330
201E
100
AcDbSymbolTableRecord
100
AcDbBlockTableRecord
  2
*U27
340
0
102
{BLKREFS
331
1E9
102
}
  0
BLOCK_RECORD
  5
2090
330
201E
100
AcDbSymbolTableRecord
100
AcDbBlockTableRecord
  2
*U28
340
0
102
{BLKREFS
331
1EA
102
}
  0
BLOCK_RECORD
  5
2092
330
201E
100
AcDbSymbolTableRecord
100
AcDbBlockTableRecord
  2
*U29
340
0
102
{BLKREFS
331
1EB
102
}
  0
BLOCK_RECORD
  5
2094
330
201E
100
AcDbSymbolTableRecord
100
AcDbBlockTableRecord
  2
*U30
340
0
102
{BLKREFS
331
1EC
102
}
  0
BLOCK_RECORD
  5
2096
330
201E
100
AcDbSymbolTableRecord
100
AcDbBlockTableRecord
  2
*U31
340
0
102
{BLKREFS
331
1ED
102
}
  0
BLOCK_RECORD
  5
2098
330
201E
100
AcDbSymbolTableRecord
100
AcDbBlockTableRecord
  2
*U32
340
0
102
{BLKREFS
331
1EE
102
}
  0
BLOCK_RECORD
  5
209A
330
201E
100
AcDbSymbolTableRecord
100
AcDbBlockTableRecord
  2
*U33
340
0
102
{BLKREFS
331
1EF
102
}
  0
BLOCK_RECORD
  5
209C
330
201E
100
AcDbSymbolTableRecord
100
AcDbBlockTableRecord
  2
*U34
340
0
102
{BLKREFS
331
1F0
102
}
  0
BLOCK_RECORD
  5
209E
330
201E
100
AcDbSymbolTableRecord
100
AcDbBlockTableRecord
  2
*U35
340
0
102
{BLKREFS
331
1F1
102
}
  0
BLOCK_RECORD
  5
20A0
330
201E
100
AcDbSymbolTableRecord
100
AcDbBlockTableRecord
  2
*U36
340
0
102
{BLKREFS
331
1F2
102
}
  0
BLOCK_RECORD
  5
20A2
330
201E
100
AcDbSymbolTableRecord
100
AcDbBlockTableRecord
  2
*U37
340
0
102
{BLKREFS
331
1F3
102
}
  0
BLOCK_RECORD
  5
20A4
330
201E
100
AcDbSymbolTableRecord
100
AcDbBlockTableRecord
  2
*U38
340
0
102
{BLKREFS
331
1F4
102
}
  0
BLOCK_RECORD
  5
20A6
330
201E
100
AcDbSymbolTableRecord
100
AcDbBlockTableRecord
  2
*U39
340
0
102
{BLKREFS
331
1F5
102
}
  0
BLOCK_RECORD
  5
20A8
330
201E
100
AcDbSymbolTableRecord
100
AcDbBlockTableRecord
  2
*U40
340
0
102
{BLKREFS
331
1F6
102
}
  0
BLOCK_RECORD
  5
20AA
330
201E
100
AcDbSymbolTableRecord
100
AcDbBlockTableRecord
  2
*U41
340
0
102
{BLKREFS
331
1F7
102
}
  0
BLOCK_RECORD
  5
20AC
330
201E
100
AcDbSymbolTableRecord
100
AcDbBlockTableRecord
  2
*U42
340
0
102
{BLKREFS
331
1F8
102
}
  0
BLOCK_RECORD
  5
20AE
330
201E
100
AcDbSymbolTableRecord
100
AcDbBlockTableRecord
  2
*U43
340
0
102
{BLKREFS
331
1F9
102
}
  0
BLOCK_RECORD
  5
20B0
330
201E
100
AcDbSymbolTableRecord
100
AcDbBlockTableRecord
  2
*U44
340
0
102
{BLKREFS
331
1FA
102
}
  0
BLOCK_RECORD
  5
20B2
330
201E
100
AcDbSymbolTableRecord
100
AcDbBlockTableRecord
  2
*U45
340
0
102
{BLKREFS
331
1FB
102
}
  0
BLOCK_RECORD
  5
20B4
330
201E
100
AcDbSymbolTableRecord
100
AcDbBlockTableRecord
  2
*U46
340
0
102
{BLKREFS
331
1FC
102
}
  0
BLOCK_RECORD
  5
20B6
330
201E
100
AcDbSymbolTableRecord
100
AcDbBlockTableRecord
  2
*U47
340
0
102
{BLKREFS
331
1FD
102
}
  0
BLOCK_RECORD
  5
20B8
330
201E
100
AcDbSymbolTableRecord
100
AcDbBlockTableRecord
  2
*U48
340
0
102
{BLKREFS
331
1FE
102
}
  0
BLOCK_RECORD
  5
20BA
330
201E
100
AcDbSymbolTableRecord
100
AcDbBlockTableRecord
  2
*U49
340
0
102
{BLKREFS
331
1FF
102
}
  0
BLOCK_RECORD
  5
20BC
330
201E
100
AcDbSymbolTableRecord
100
AcDbBlockTableRecord
  2
*U50
340
0
102
{BLKREFS
331
200
102
}
  0
BLOCK_RECORD
  5
20BE
330
201E
100
AcDbSymbolTableRecord
100
AcDbBlockTableRecord
  2
*U51
340
0
102
{BLKREFS
331
201
102
}
  0
BLOCK_RECORD
  5
20C0
330
201E
100
AcDbSymbolTableRecord
100
AcDbBlockTableRecord
  2
*U52
340
0
102
{BLKREFS
331
202
102
}
  0
BLOCK_RECORD
  5
20C2
330
201E
100
AcDbSymbolTableRecord
100
AcDbBlockTableRecord
  2
*U53
340
0
102
{BLKREFS
331
203
102
}
  0
BLOCK_RECORD
  5
20C4
330
201E
100
AcDbSymbolTableRecord
100
AcDbBlockTableRecord
  2
*U54
340
0
102
{BLKREFS
331
204
102
}
  0
BLOCK_RECORD
  5
20C6
330
201E
100
AcDbSymbolTableRecord
100
AcDbBlockTableRecord
  2
*U55
340
0
102
{BLKREFS
331
205
102
}
  0
BLOCK_RECORD
  5
20C8
330
201E
100
AcDbSymbolTableRecord
100
AcDbBlockTableRecord
  2
*U56
340
0
102
{BLKREFS
331
206
102
}
  0
BLOCK_RECORD
  5
20CA
330
201E
100
AcDbSymbolTableRecord
100
AcDbBlockTableRecord
  2
*U57
340
0
102
{BLKREFS
331
207
102
}
  0
BLOCK_RECORD
  5
20CC
330
201E
100
AcDbSymbolTableRecord
100
AcDbBlockTableRecord
  2
*U58
340
0
102
{BLKREFS
331
208
102
}
  0
BLOCK_RECORD
  5
20CE
330
201E
100
AcDbSymbolTableRecord
100
AcDbBlockTableRecord
  2
*U59
340
0
102
{BLKREFS
331
209
102
}
  0
BLOCK_RECORD
  5
20D0
330
201E
100
AcDbSymbolTableRecord
100
AcDbBlockTableRecord
  2
*U60
340
0
102
{BLKREFS
331
20A
102
}
  0
BLOCK_RECORD
  5
20D2
330
201E
100
AcDbSymbolTableRecord
100
AcDbBlockTableRecord
  2
*U61
340
0
102
{BLKREFS
331
20B
102
}
  0
BLOCK_RECORD
  5
20D4
330
201E
100
AcDbSymbolTableRecord
100
AcDbBlockTableRecord
  2
*U62
340
0
102
{BLKREFS
331
20C
102
}
  0
BLOCK_RECORD
  5
20D6
330
201E
100
AcDbSymbolTableRecord
100
AcDbBlockTableRecord
  2
*U63
340
0
102
{BLKREFS
331
20D
102
}
  0
BLOCK_RECORD
  5
20D8
330
201E
100
AcDbSymbolTableRecord
100
AcDbBlockTableRecord
  2
*U64
340
0
102
{BLKREFS
331
20E
102
}
  0
BLOCK_RECORD
  5
20DA
330
201E
100
AcDbSymbolTableRecord
100
AcDbBlockTableRecord
  2
*U65
340
0
102
{BLKREFS
331
20F
102
}
  0
BLOCK_RECORD
  5
20DC
330
201E
100
AcDbSymbolTableRecord
100
AcDbBlockTableRecord
  2
*U66
340
0
102
{BLKREFS
331
210
102
}
  0
BLOCK_RECORD
  5
20DE
330
201E
100
AcDbSymbolTableRecord
100
AcDbBlockTableRecord
  2
*U67
340
0
102
{BLKREFS
331
211
102
}
  0
BLOCK_RECORD
  5
20E0
330
201E
100
AcDbSymbolTableRecord
100
AcDbBlockTableRecord
  2
*U68
340
0
102
{BLKREFS
331
212
102
}
  0
BLOCK_RECORD
  5
20E2
330
201E
100
AcDbSymbolTableRecord
100
AcDbBlockTableRecord
  2
*U69
340
0
102
{BLKREFS
331
213
102
}
  0
BLOCK_RECORD
  5
20E4
330
201E
100
AcDbSymbolTableRecord
100
AcDbBlockTableRecord
  2
*U70
340
0
102
{BLKREFS
331
214
102
}
  0
BLOCK_RECORD
  5
20E6
330
201E
100
AcDbSymbolTableRecord
100
AcDbBlockTableRecord
  2
*U71
340
0
102
{BLKREFS
331
215
102
}
  0
BLOCK_RECORD
  5
20E8
330
201E
100
AcDbSymbolTableRecord
100
AcDbBlockTableRecord
  2
*U72
340
0
102
{BLKREFS
331
216
102
}
  0
BLOCK_RECORD
  5
20EA
330
201E
100
AcDbSymbolTableRecord
100
AcDbBlockTableRecord
  2
*U73
340
0
102
{BLKREFS
331
217
102
}
  0
BLOCK_RECORD
  5
20EC
330
201E
100
AcDbSymbolTableRecord
100
AcDbBlockTableRecord
  2
*U74
340
0
102
{BLKREFS
331
218
102
}
  0
BLOCK_RECORD
  5
20EE
330
201E
100
AcDbSymbolTableRecord
100
AcDbBlockTableRecord
  2
*U75
340
0
102
{BLKREFS
331
219
102
}
  0
BLOCK_RECORD
  5
20F0
330
201E
100
AcDbSymbolTableRecord
100
AcDbBlockTableRecord
  2
*U76
340
0
102
{BLKREFS
331
21A
102
}
  0
BLOCK_RECORD
  5
20F2
330
201E
100
AcDbSymbolTableRecord
100
AcDbBlockTableRecord
  2
*U77
340
0
102
{BLKREFS
331
21B
102
}
  0
BLOCK_RECORD
  5
20F4
330
201E
100
AcDbSymbolTableRecord
100
AcDbBlockTableRecord
  2
*U78
340
0
102
{BLKREFS
331
21C
102
}
  0
BLOCK_RECORD
  5
20F6
330
201E
100
AcDbSymbolTableRecord
100
AcDbBlockTableRecord
  2
*U79
340
0
102
{BLKREFS
331
21D
102
}
  0
BLOCK_RECORD
  5
20F8
330
201E
100
AcDbSymbolTableRecord
100
AcDbBlockTableRecord
  2
*U80
340
0
102
{BLKREFS
331
21E
102
}
  0
BLOCK_RECORD
  5
20FA
330
201E
100
AcDbSymbolTableRecord
100
AcDbBlockTableRecord
  2
*U81
340
0
102
{BLKREFS
331
21F
102
}
  0
BLOCK_RECORD
  5
20FC
330
201E
100
AcDbSymbolTableRecord
100
AcDbBlockTableRecord
  2
*U82
340
0
102
{BLKREFS
331
220
102
}
  0
BLOCK_RECORD
  5
20FE
330
201E
100
AcDbSymbolTableRecord
100
AcDbBlockTableRecord
  2
*U83
340
0
102
{BLKREFS
331
221
102
}
  0
BLOCK_RECORD
  5
2100
330
201E
100
AcDbSymbolTableRecord
100
AcDbBlockTableRecord
  2
*U84
340
0
102
{BLKREFS
331
222
102
}
  0
BLOCK_RECORD
  5
2102
330
201E
100
AcDbSymbolTableRecord
100
AcDbBlockTableRecord
  2
*U85
340
0
102
{BLKREFS
331
223
102
}
  0
BLOCK_RECORD
  5
2104
330
201E
100
AcDbSymbolTableRecord
100
AcDbBlockTableRecord
  2
*U86
340
0
102
{BLKREFS
331
224
102
}
  0
BLOCK_RECORD
  5
2106
330
201E
100
AcDbSymbolTableRecord
100
AcDbBlockTableRecord
  2
*U87
340
0
102
{BLKREFS
331
225
102
}
  0
BLOCK_RECORD
  5
2108
330
201E
100
AcDbSymbolTableRecord
100
AcDbBlockTableRecord
  2
*U88
340
0
102
{BLKREFS
331
226
102
}
  0
BLOCK_RECORD
  5
210A
330
201E
100
AcDbSymbolTableRecord
100
AcDbBlockTableRecord
  2
*U89
340
0
102
{BLKREFS
331
227
102
}
  0
BLOCK_RECORD
  5
210C
330
201E
100
AcDbSymbolTableRecord
100
AcDbBlockTableRecord
  2
*U90
340
0
102
{BLKREFS
331
228
102
}
  0
BLOCK_RECORD
  5
210E
330
201E
100
AcDbSymbolTableRecord
100
AcDbBlockTableRecord
  2
*U91
340
0
102
{BLKREFS
331
229
102
}
  0
BLOCK_RECORD
  5
2110
330
201E
100
AcDbSymbolTableRecord
100
AcDbBlockTableRecord
  2
*U92
340
0
102
{BLKREFS
331
22A
102
}
  0
BLOCK_RECORD
  5
2112
330
201E
100
AcDbSymbolTableRecord
100
AcDbBlockTableRecord
  2
*U93
340
0
102
{BLKREFS
331
22B
102
}
  0
BLOCK_RECORD
  5
2114
330
201E
100
AcDbSymbolTableRecord
100
AcDbBlockTableRecord
  2
*U94
340
0
102
{BLKREFS
331
22C
102
}
  0
BLOCK_RECORD
  5
2116
330
201E
100
AcDbSymbolTableRecord
100
AcDbBlockTableRecord
  2
*U95
340
0
102
{BLKREFS
331
22D
102
}
  0
BLOCK_RECORD
  5
2118
330
201E
100
AcDbSymbolTableRecord
100
AcDbBlockTableRecord
  2
*U96
340
0
102
{BLKREFS
331
22E
102
}
  0
BLOCK_RECORD
  5
211A
330
201E
100
AcDbSymbolTableRecord
100
AcDbBlockTableRecord
  2
*U97
340
0
102
{BLKREFS
331
22F
102
}
  0
BLOCK_RECORD
  5
211C
330
201E
100
AcDbSymbolTableRecord
100
AcDbBlockTableRecord
  2
*U98
340
0
102
{BLKREFS
331
230
102
}
  0
BLOCK_RECORD
  5
211E
330
201E
100
AcDbSymbolTableRecord
100
AcDbBlockTableRecord
  2
*U99
340
0
102
{BLKREFS
331
231
102
}
  0
BLOCK_RECORD
  5
2120
330
201E
100
AcDbSymbolTableRecord
100
AcDbBlockTableRecord
  2
*U100
340
0
102
{BLKREFS
331
232
102
}
  0
BLOCK_RECORD
  5
2122
330
201E
100
AcDbSymbolTableRecord
100
AcDbBlockTableRecord
  2
*U101
340
0
102
{BLKREFS
331
233
102
}
  0
BLOCK_RECORD
  5
2124
330
201E
100
AcDbSymbolTableRecord
100
AcDbBlockTableRecord
  2
*U102
340
0
102
{BLKREFS
331
234
102
}
  0
BLOCK_RECORD
  5
2126
330
201E
100
AcDbSymbolTableRecord
100
AcDbBlockTableRecord
  2
*U103
340
0
102
{BLKREFS
331
235
102
}
  0
BLOCK_RECORD
  5
2128
330
201E
100
AcDbSymbolTableRecord
100
AcDbBlockTableRecord
  2
*U104
340
0
102
{BLKREFS
331
236
102
}
  0
BLOCK_RECORD
  5
212A
330
201E
100
AcDbSymbolTableRecord
100
AcDbBlockTableRecord
  2
*U105
340
0
102
{BLKREFS
331
237
102
}
  0
BLOCK_RECORD
  5
212C
330
201E
100
AcDbSymbolTableRecord
100
AcDbBlockTableRecord
  2
*U106
340
0
102
{BLKREFS
331
238
102
}
  0
BLOCK_RECORD
  5
212E
330
201E
100
AcDbSymbolTableRecord
100
AcDbBlockTableRecord
  2
*U107
340
0
102
{BLKREFS
331
239
102
}
  0
BLOCK_RECORD
  5
2130
330
201E
100
AcDbSymbolTableRecord
100
AcDbBlockTableRecord
  2
*U108
340
0
102
{BLKREFS
331
23A
102
}
  0
BLOCK_RECORD
  5
2132
330
201E
100
AcDbSymbolTableRecord
100
AcDbBlockTableRecord
  2
*U109
340
0
102
{BLKREFS
331
23B
102
}
  0
BLOCK_RECORD
  5
2134
330
201E
100
AcDbSymbolTableRecord
100
AcDbBlockTableRecord
  2
*U110
340
0
102
{BLKREFS
331
23C
102
}
  0
BLOCK_RECORD
  5
2136
330
201E
100
AcDbSymbolTableRecord
100
AcDbBlockTableRecord
  2
*U111
340
0
102
{BLKREFS
331
23D
102
}
  0
BLOCK_RECORD
  5
2138
330
201E
100
AcDbSymbolTableRecord
100
AcDbBlockTableRecord
  2
*U112
340
0
102
{BLKREFS
331
23E
102
}
  0
BLOCK_RECORD
  5
213A
330
201E
100
AcDbSymbolTableRecord
100
AcDbBlockTableRecord
  2
*U113
340
0
102
{BLKREFS
331
23F
102
}
  0
BLOCK_RECORD
  5
213C
330
201E
100
AcDbSymbolTableRecord
100
AcDbBlockTableRecord
  2
*U114
340
0
102
{BLKREFS
331
240
102
}
  0
BLOCK_RECORD
  5
213E
330
201E
100
AcDbSymbolTableRecord
100
AcDbBlockTableRecord
  2
*U115
340
0
102
{BLKREFS
331
241
102
}
  0
BLOCK_RECORD
  5
2140
330
201E
100
AcDbSymbolTableRecord
100
AcDbBlockTableRecord
  2
*D116
340
0
  0
BLOCK_RECORD
  5
2142
330
201E
100
AcDbSymbolTableRecord
100
AcDbBlockTableRecord
  2
*U117
340
0
102
{BLKREFS
331
4E2
102
}
  0
BLOCK_RECORD
  5
2144
330
201E
100
AcDbSymbolTableRecord
100
AcDbBlockTableRecord
  2
*D118
340
0
  0
BLOCK_RECORD
  5
2146
330
201E
100
AcDbSymbolTableRecord
100
AcDbBlockTableRecord
  2
*U119
340
0
102
{BLKREFS
331
4EC
102
}
  0
BLOCK_RECORD
  5
2148
330
201E
100
AcDbSymbolTableRecord
100
AcDbBlockTableRecord
  2
*D120
340
0
  0
BLOCK_RECORD
  5
214A
330
201E
100
AcDbSymbolTableRecord
100
AcDbBlockTableRecord
  2
*U121
340
0
102
{BLKREFS
331
4F6
102
}
  0
BLOCK_RECORD
  5
214C
330
201E
100
AcDbSymbolTableRecord
100
AcDbBlockTableRecord
  2
*D122
340
0
  0
BLOCK_RECORD
  5
214E
330
201E
100
AcDbSymbolTableRecord
100
AcDbBlockTableRecord
  2
*U123
340
0
102
{BLKREFS
331
500
102
}
  0
BLOCK_RECORD
  5
2150
330
201E
100
AcDbSymbolTableRecord
100
AcDbBlockTableRecord
  2
*D124
340
0
  0
BLOCK_RECORD
  5
2152
330
201E
100
AcDbSymbolTableRecord
100
AcDbBlockTableRecord
  2
*U125
340
0
102
{BLKREFS
331
50D
102
}
  0
BLOCK_RECORD
  5
2154
330
201E
100
AcDbSymbolTableRecord
100
AcDbBlockTableRecord
  2
SW_NOTE_2
340
0
  0
BLOCK_RECORD
  5
2156
330
201E
100
AcDbSymbolTableRecord
100
AcDbBlockTableRecord
  2
*U127
340
0
102
{BLKREFS
331
517
102
}
  0
BLOCK_RECORD
  5
2158
330
201E
100
AcDbSymbolTableRecord
100
AcDbBlockTableRecord
  2
SW_NOTE_3
340
0
  0
BLOCK_RECORD
  5
215A
330
201E
100
AcDbSymbolTableRecord
100
AcDbBlockTableRecord
  2
*U129
340
0
102
{BLKREFS
331
524
102
}
  0
BLOCK_RECORD
  5
215C
330
201E
100
AcDbSymbolTableRecord
100
AcDbBlockTableRecord
  2
SW_NOTE_4
340
0
  0
BLOCK_RECORD
  5
215E
330
201E
100
AcDbSymbolTableRecord
100
AcDbBlockTableRecord
  2
*U131
340
0
102
{BLKREFS
331
530
102
}
  0
BLOCK_RECORD
  5
2160
330
201E
100
AcDbSymbolTableRecord
100
AcDbBlockTableRecord
  2
SW_NOTE_5
340
0
  0
BLOCK_RECORD
  5
2162
330
201E
100
AcDbSymbolTableRecord
100
AcDbBlockTableRecord
  2
*U133
340
0
102
{BLKREFS
331
53C
102
}
  0
BLOCK_RECORD
  5
2164
330
201E
100
AcDbSymbolTableRecord
100
AcDbBlockTableRecord
  2
SW_NOTE_6
340
0
  0
BLOCK_RECORD
  5
2166
330
201E
100
AcDbSymbolTableRecord
100
AcDbBlockTableRecord
  2
*U135
340
0
102
{BLKREFS
331
548
102
}
  0
BLOCK_RECORD
  5
2168
330
201E
100
AcDbSymbolTableRecord
100
AcDbBlockTableRecord
  2
SW_NOTE_7
340
0
  0
BLOCK_RECORD
  5
216A
330
201E
100
AcDbSymbolTableRecord
100
AcDbBlockTableRecord
  2
*U137
340
0
102
{BLKREFS
331
554
102
}
  0
BLOCK_RECORD
  5
216C
330
201E
100
AcDbSymbolTableRecord
100
AcDbBlockTableRecord
  2
*D138
340
0
  0
BLOCK_RECORD
  5
216E
330
201E
100
AcDbSymbolTableRecord
100
AcDbBlockTableRecord
  2
*U139
340
0
102
{BLKREFS
331
73F
102
}
  0
BLOCK_RECORD
  5
2170
330
201E
100
AcDbSymbolTableRecord
100
AcDbBlockTableRecord
  2
SW_NOTE_8
340
0
  0
BLOCK_RECORD
  5
2172
330
201E
100
AcDbSymbolTableRecord
100
AcDbBlockTableRecord
  2
*U141
340
0
102
{BLKREFS
331
749
102
}
  0
BLOCK_RECORD
  5
2174
330
201E
100
AcDbSymbolTableRecord
100
AcDbBlockTableRecord
  2
*D142
340
0
  0
BLOCK_RECORD
  5
2176
330
201E
100
AcDbSymbolTableRecord
100
AcDbBlockTableRecord
  2
*U143
340
0
102
{BLKREFS
331
933
102
}
  0
BLOCK_RECORD
  5
2178
330
201E
100
AcDbSymbolTableRecord
100
AcDbBlockTableRecord
  2
SW_NOTE_9
340
0
  0
BLOCK_RECORD
  5
217A
330
201E
100
AcDbSymbolTableRecord
100
AcDbBlockTableRecord
  2
*U145
340
0
102
{BLKREFS
331
93D
102
}
  0
BLOCK_RECORD
  5
217C
330
201E
100
AcDbSymbolTableRecord
100
AcDbBlockTableRecord
  2
SW_NOTE_10
340
0
  0
BLOCK_RECORD
  5
217E
330
201E
100
AcDbSymbolTableRecord
100
AcDbBlockTableRecord
  2
*U147
340
0
102
{BLKREFS
331
949
102
}
  0
BLOCK_RECORD
  5
2180
330
201E
100
AcDbSymbolTableRecord
100
AcDbBlockTableRecord
  2
SW_NOTE_11
340
0
  0
BLOCK_RECORD
  5
2182
330
201E
100
AcDbSymbolTableRecord
100
AcDbBlockTableRecord
  2
*U149
340
0
102
{BLKREFS
331
955
102
}
  0
BLOCK_RECORD
  5
2184
330
201E
100
AcDbSymbolTableRecord
100
AcDbBlockTableRecord
  2
SW_NOTE_12
340
0
  0
BLOCK_RECORD
  5
2186
330
201E
100
AcDbSymbolTableRecord
100
AcDbBlockTableRecord
  2
*U151
340
0
102
{BLKREFS
331
AC5
102
}
  0
BLOCK_RECORD
  5
2188
330
201E
100
AcDbSymbolTableRecord
100
AcDbBlockTableRecord
  2
SW_NOTE_13
340
0
  0
BLOCK_RECORD
  5
218A
330
201E
100
AcDbSymbolTableRecord
100
AcDbBlockTableRecord
  2
*U153
340
0
102
{BLKREFS
331
F90
102
}
  0
BLOCK_RECORD
  5
218C
330
201E
100
AcDbSymbolTableRecord
100
AcDbBlockTableRecord
  2
SW_NOTE_14
340
0
  0
BLOCK_RECORD
  5
218E
330
201E
100
AcDbSymbolTableRecord
100
AcDbBlockTableRecord
  2
*U155
340
0
102
{BLKREFS
331
F9C
102
}
  0
BLOCK_RECORD
  5
2190
330
201E
100
AcDbSymbolTableRecord
100
AcDbBlockTableRecord
  2
SW_NOTE_15
340
0
  0
BLOCK_RECORD
  5
2192
330
201E
100
AcDbSymbolTableRecord
100
AcDbBlockTableRecord
  2
*U157
340
0
102
{BLKREFS
331
FA8
102
}
  0
BLOCK_RECORD
  5
2194
330
201E
100
AcDbSymbolTableRecord
100
AcDbBlockTableRecord
  2
SW_NOTE_16
340
0
  0
BLOCK_RECORD
  5
2196
330
201E
100
AcDbSymbolTableRecord
100
AcDbBlockTableRecord
  2
*U159
340
0
102
{BLKREFS
331
FB4
102
}
  0
BLOCK_RECORD
  5
2198
330
201E
100
AcDbSymbolTableRecord
100
AcDbBlockTableRecord
  2
SW_NOTE_17
340
0
  0
BLOCK_RECORD
  5
219A
330
201E
100
AcDbSymbolTableRecord
100
AcDbBlockTableRecord
  2
*U161
340
0
102
{BLKREFS
331
FC0
102
}
  0
BLOCK_RECORD
  5
219C
330
201E
100
AcDbSymbolTableRecord
100
AcDbBlockTableRecord
  2
SW_NOTE_18
340
0
  0
BLOCK_RECORD
  5
219E
330
201E
100
AcDbSymbolTableRecord
100
AcDbBlockTableRecord
  2
*U163
340
0
102
{BLKREFS
331
FCB
102
}
  0
BLOCK_RECORD
  5
21A0
330
201E
100
AcDbSymbolTableRecord
100
AcDbBlockTableRecord
  2
SW_NOTE_19
340
0
  0
BLOCK_RECORD
  5
21A2
330
201E
100
AcDbSymbolTableRecord
100
AcDbBlockTableRecord
  2
*U165
340
0
102
{BLKREFS
331
FD6
102
}
  0
BLOCK_RECORD
  5
21A4
330
201E
100
AcDbSymbolTableRecord
100
AcDbBlockTableRecord
  2
SW_NOTE_20
340
0
  0
BLOCK_RECORD
  5
21A6
330
201E
100
AcDbSymbolTableRecord
100
AcDbBlockTableRecord
  2
*U167
340
0
102
{BLKREFS
331
FE2
102
}
  0
BLOCK_RECORD
  5
21A8
330
201E
100
AcDbSymbolTableRecord
100
AcDbBlockTableRecord
  2
SW_NOTE_21
340
0
  0
BLOCK_RECORD
  5
21AA
330
201E
100
AcDbSymbolTableRecord
100
AcDbBlockTableRecord
  2
*U169
340
0
102
{BLKREFS
331
FED
102
}
  0
BLOCK_RECORD
  5
21AC
330
201E
100
AcDbSymbolTableRecord
100
AcDbBlockTableRecord
  2
*U170
340
0
  0
BLOCK_RECORD
  5
21AE
330
201E
100
AcDbSymbolTableRecord
100
AcDbBlockTableRecord
  2
*U171
340
0
102
{BLKREFS
331
0
102
}
  0
BLOCK_RECORD
  5
21B0
330
201E
100
AcDbSymbolTableRecord
100
AcDbBlockTableRecord
  2
*U172
340
0
  0
BLOCK_RECORD
  5
2352
330
201E
100
AcDbSymbolTableRecord
100
AcDbBlockTableRecord
  2
*U174
340
0
102
{BLKREFS
331
2351
331
2363
331
245F
331
2469
102
}
  0
BLOCK_RECORD
  5
2357
330
201E
100
AcDbSymbolTableRecord
100
AcDbBlockTableRecord
  2
*U175
340
0
102
{BLKREFS
331
2356
331
236C
331
2460
331
2472
102
}
  0
ENDTAB
  0
ENDSEC
  0
SECTION
  2
BLOCKS
  0
BLOCK
  5
2055
330
2038
100
AcDbEntity
  8
0
100
AcDbBlockBegin
  2
*Model_Space
 70
     0
 10
0.0
 20
0.0
 30
0.0
  3
*Model_Space
  1

  0
ENDBLK
  5
1E98
330
2038
100
AcDbEntity
  8
0
100
AcDbBlockEnd
  0
BLOCK
  5
2056
330
2036
100
AcDbEntity
 67
     1
  8
0
100
AcDbBlockBegin
  2
*Paper_Space
 70
     0
 10
0.0
 20
0.0
 30
0.0
  3
*Paper_Space
  1

  0
ENDBLK
  5
1E94
330
2036
100
AcDbEntity
 67
     1
  8
0
100
AcDbBlockEnd
  0
BLOCK
  5
2057
330
2058
100
AcDbEntity
  8
0
100
AcDbBlockBegin
  2
BLOCK1
 70
     0
 10
0.0
 20
0.0
 30
0.0
  3
BLOCK1
  1

  0
ARC
  5
49
330
2058
100
AcDbEntity
  8
0
  6
Continuous
 62
   179
100
AcDbCircle
 10
7867.664902963501
 20
2430.135541908654
 30
0.0
 40
931.6078627493893
100
AcDbArc
 50
232.1189098068908
 51
101.3462704492064
  0
ARC
  5
4A
330
2058
100
AcDbEntity
  8
0
  6
Continuous
 62
   179
100
AcDbCircle
 10
7943.551446226947
 20
2435.961394653731
 30
0.0
 40
1140.079096555486
100
AcDbArc
 50
297.434182934993
 51
62.17203318893132
  0
ARC
  5
4B
330
2058
100
AcDbEntity
  8
0
  6
Continuous
 62
   179
100
AcDbCircle
 10
20001.41030668536
 20
6936.258348176314
 30
0.0
 40
1270.831290716854
100
AcDbArc
 50
3.439111269857873
 51
76.41975789224402
  0
ARC
  5
4C
330
2058
100
AcDbEntity
  8
0
  6
Continuous
 62
   179
100
AcDbCircle
 10
19239.48229494224
 20
3782.066700072844
 30
0.0
 40
4515.74411667143
100
AcDbArc
 50
76.419757892252
 51
91.67546443389824
  0
ARC
  5
4D
330
2058
100
AcDbEntity
  8
0
  6
Continuous
 62
   179
100
AcDbCircle
 10
18683.9539720184
 20
2160.191162249722
 30
0.0
 40
2139.476369555804
100
AcDbArc
 50
270.3210228953653
 51
307.7127911616917
  0
ARC
  5
4E
330
2058
100
AcDbEntity
  8
0
  6
Continuous
 62
   179
100
AcDbCircle
 10
18746.04220617016
 20
1962.821611746757
 30
0.0
 40
1946.678009873842
100
AcDbArc
 50
309.8210667380517
 51
331.7017265911961
  0
ARC
  5
4F
330
2058
100
AcDbEntity
  8
0
  6
Continuous
 62
   179
100
AcDbCircle
 10
17863.19174695229
 20
2438.153289465792
 30
0.0
 40
2949.35698999881
100
AcDbArc
 50
331.7017265911659
 51
356.0927915539009
  0
ARC
  5
50
330
2058
100
AcDbEntity
  8
0
  6
Continuous
 62
   179
100
AcDbCircle
 10
16755.78562458259
 20
6709.22649734301
 30
0.0
 40
4524.342739831097
100
AcDbArc
 50
353.5830630920615
 51
3.843411559056905
  0
ARC
  5
51
330
2058
100
AcDbEntity
  8
0
  6
Continuous
 62
   179
100
AcDbCircle
 10
19039.32136930348
 20
6348.992835766654
 30
0.0
 40
506.1072723730909
100
AcDbArc
 50
52.45518083770011
 51
82.27169607789942
  0
ARC
  5
52
330
2058
100
AcDbEntity
  8
0
  6
Continuous
 62
   179
100
AcDbCircle
 10
19108.05285528783
 20
6495.627081242486
 30
0.0
 40
349.7025539282703
100
AcDbArc
 50
10.40128742632347
 51
46.73406036112627
  0
ARC
  5
53
330
2058
100
AcDbEntity
  8
0
  6
Continuous
 62
   179
100
AcDbCircle
 10
17417.00704206978
 20
6262.249610551689
 30
0.0
 40
2056.490362340239
100
AcDbArc
 50
355.475249592001
 51
8.290034904036377
  0
ARC
  5
54
330
2058
100
AcDbEntity
  8
0
  6
Continuous
 62
   179
100
AcDbCircle
 10
16921.0810184775
 20
2478.884057325912
 30
0.0
 40
2122.330793892779
100
AcDbArc
 50
339.2065439429009
 51
352.3366543812865
  0
ARC
  5
55
330
2058
100
AcDbEntity
  8
0
  6
Continuous
 62
   179
100
AcDbCircle
 10
18500.14374748802
 20
1898.858911590281
 30
0.0
 40
440.5904503964751
100
AcDbArc
 50
293.8382702170105
 51
336.8232513295847
  0
ARC
  5
56
330
2058
100
AcDbEntity
  8
0
  6
Continuous
 62
   179
100
AcDbCircle
 10
18201.14775323861
 20
2813.313832481288
 30
0.0
 40
1401.173285533761
100
AcDbArc
 50
267.1686990926993
 51
289.9057704418869
  0
ARC
  5
57
330
2058
100
AcDbEntity
  8
0
  6
Continuous
 62
   179
100
AcDbCircle
 10
18751.27011695406
 20
4514.99709270663
 30
0.0
 40
2362.499275286643
100
AcDbArc
 50
81.33049979549516
 51
90.0
  0
ARC
  5
58
330
2058
100
AcDbEntity
  8
0
  6
Continuous
 62
   179
100
AcDbCircle
 10
6720.604437529605
 20
9296.057965315804
 30
0.0
 40
7520.148763137155
100
AcDbArc
 50
220.0176677389884
 51
227.0143029097024
  0
ARC
  5
59
330
2058
100
AcDbEntity
  8
0
  6
Continuous
 62
   179
100
AcDbCircle
 10
2021.389253593488
 20
2163.67555645214
 30
0.0
 40
795.0570373035339
100
AcDbArc
 50
316.8708555891025
 51
354.9781479006052
  0
ARC
  5
5A
330
2058
100
AcDbEntity
  8
0
  6
Continuous
 62
   179
100
AcDbCircle
 10
2182.912417046811
 20
2011.988948632246
 30
0.0
 40
573.4753329004775
100
AcDbArc
 50
268.8486412909027
 51
316.898689090132
  0
ARC
  5
5B
330
2058
100
AcDbEntity
  8
0
  6
Continuous
 62
   179
100
AcDbCircle
 10
10525.69607263296
 20
12531.6259047731
 30
0.0
 40
10618.65239809051
100
AcDbArc
 50
220.6325257885988
 51
226.7030345034366
  0
ARC
  5
5C
330
2058
100
AcDbEntity
  8
0
  6
Continuous
 62
   179
100
AcDbCircle
 10
2962.700769445968
 20
6223.586779952877
 30
0.0
 40
723.1072200381735
100
AcDbArc
 50
137.8203941730991
 51
175.3475443105016
  0
ARC
  5
5D
330
2058
100
AcDbEntity
  8
0
  6
Continuous
 62
   179
100
AcDbCircle
 10
2808.323935568477
 20
6360.286424350834
 30
0.0
 40
516.9247077280751
100
AcDbArc
 50
89.43798520159726
 51
137.5591461503917
  0
ARC
  5
5E
330
2058
100
AcDbEntity
  8
0
  6
Continuous
 62
   179
100
AcDbCircle
 10
24439.2811878643
 20
2435.96139465394
 30
0.0
 40
1140.079096554877
100
AcDbArc
 50
297.4341829349403
 51
62.17203318890007
  0
ARC
  5
5F
330
2058
100
AcDbEntity
  8
0
  6
Continuous
 62
   179
100
AcDbCircle
 10
24363.39464460095
 20
2430.135541908909
 30
0.0
 40
931.6078627500976
100
AcDbArc
 50
232.118909807001
 51
101.3462704492597
  0
LINE
  5
60
330
2058
100
AcDbEntity
  8
0
  6
Continuous
 62
   179
100
AcDbLine
 10
10088.03217840744
 20
0.0000125144457019
 30
0.0
 11
9858.221794955722
 21
8289.655292111545
 31
0.0
  0
LINE
  5
61
330
2058
100
AcDbEntity
  8
0
  6
Continuous
 62
   179
100
AcDbLine
 10
9858.221794955722
 20
8289.655292111545
 30
0.0
 11
7491.02652935572
 21
8289.655292111545
 31
0.0
  0
LINE
  5
62
330
2058
100
AcDbEntity
  8
0
  6
Continuous
 62
   179
100
AcDbLine
 10
7491.02652935572
 20
8289.655292111545
 30
0.0
 11
5122.81316775534
 21
0.0000125144457019
 31
0.0
  0
LINE
  5
63
330
2058
100
AcDbEntity
  8
0
  6
Continuous
 62
   179
100
AcDbLine
 10
5122.81316775534
 20
0.0000125144457019
 30
0.0
 11
6903.41605815534
 21
0.0000125144457019
 31
0.0
  0
LINE
  5
64
330
2058
100
AcDbEntity
  8
0
  6
Continuous
 62
   179
100
AcDbLine
 10
6903.41605815534
 20
0.0000125144457019
 30
0.0
 11
7295.63462855534
 21
1694.829772111546
 31
0.0
  0
LINE
  5
65
330
2058
100
AcDbEntity
  8
0
  6
Continuous
 62
   179
100
AcDbLine
 10
7684.382238156125
 20
3343.536152110767
 30
0.0
 11
8520.883790955342
 21
7008.870756911545
 31
0.0
  0
LINE
  5
66
330
2058
100
AcDbEntity
  8
0
  6
Continuous
 62
   179
100
AcDbLine
 10
8520.883790955342
 20
7008.870756911545
 30
0.0
 11
8475.76130055534
 21
3444.194015311545
 31
0.0
  0
LINE
  5
67
330
2058
100
AcDbEntity
  8
0
  6
Continuous
 62
   179
100
AcDbLine
 10
8468.819378956492
 20
1424.094829711189
 30
0.0
 11
8468.819378956492
 21
0.0000125144457019
 31
0.0
  0
LINE
  5
68
330
2058
100
AcDbEntity
  8
0
  6
Continuous
 62
   179
100
AcDbLine
 10
8468.819378956492
 20
0.0000125144457019
 30
0.0
 11
10088.03217840744
 21
0.0000125144457019
 31
0.0
  0
LINE
  5
69
330
2058
100
AcDbEntity
  8
0
  6
Continuous
 62
   179
100
AcDbLine
 10
19107.45004975194
 20
8295.88021122753
 30
0.0
 11
16935.78987695406
 21
8295.88021122753
 31
0.0
  0
LINE
  5
6A
330
2058
100
AcDbEntity
  8
0
  6
Continuous
 62
   179
100
AcDbLine
 10
16935.78987695406
 20
8295.88021122753
 30
0.0
 11
15991.74015215406
 21
0.000028827531473
 31
0.0
  0
LINE
  5
6B
330
2058
100
AcDbEntity
  8
0
  6
Continuous
 62
   179
100
AcDbLine
 10
15991.74015215406
 20
0.000028827531473
 30
0.0
 11
17855.63319855406
 21
0.000028827531473
 31
0.0
  0
LINE
  5
6C
330
2058
100
AcDbEntity
  8
0
  6
Continuous
 62
   179
100
AcDbLine
 10
17855.63319855406
 20
0.000028827531473
 30
0.0
 11
18695.94119535405
 21
20.74837442753169
 31
0.0
  0
LINE
  5
6D
330
2058
100
AcDbEntity
  8
0
  6
Continuous
 62
   179
100
AcDbLine
 10
20805.69358737719
 20
2237.181715478457
 30
0.0
 11
21251.78301777719
 21
6203.573782676331
 31
0.0
  0
LINE
  5
6E
330
2058
100
AcDbEntity
  8
0
  6
Continuous
 62
   179
100
AcDbLine
 10
19024.45666735406
 20
2195.866604827532
 30
0.0
 11
19467.0880401544
 21
6100.013635223698
 31
0.0
  0
LINE
  5
6F
330
2058
100
AcDbEntity
  8
0
  6
Continuous
 62
   179
100
AcDbLine
 10
17907.50406255406
 20
1417.803644827531
 30
0.0
 11
18131.93621849201
 21
1413.850957106775
 31
0.0
  0
LINE
  5
70
330
2058
100
AcDbEntity
  8
0
  6
Continuous
 62
   179
100
AcDbLine
 10
18529.95443055404
 20
6877.496367993273
 30
0.0
 11
17907.50406255406
 21
1417.803644827531
 31
0.0
  0
LINE
  5
71
330
2058
100
AcDbEntity
  8
0
  6
Continuous
 62
   179
100
AcDbLine
 10
18751.27011695406
 20
6877.496367993273
 30
0.0
 11
18529.95443055404
 21
6877.496367993273
 31
0.0
  0
LINE
  5
72
330
2058
100
AcDbEntity
  8
0
  6
Continuous
 62
   179
100
AcDbLine
 10
11134.64467410532
 20
0.0000000000007772
 30
0.0
 11
14807.10184530532
 21
0.0000000000007772
 31
0.0
  0
LINE
  5
73
330
2058
100
AcDbEntity
  8
0
  6
Continuous
 62
   179
100
AcDbLine
 10
14807.10184530532
 20
0.0000000000007772
 30
0.0
 11
14990.37889810532
 21
1625.287072000001
 31
0.0
  0
LINE
  5
74
330
2058
100
AcDbEntity
  8
0
  6
Continuous
 62
   179
100
AcDbLine
 10
14990.37889810532
 20
1625.287072000001
 30
0.0
 11
13071.15693010532
 21
1625.287072000001
 31
0.0
  0
LINE
  5
75
330
2058
100
AcDbEntity
  8
0
  6
Continuous
 62
   179
100
AcDbLine
 10
13071.15693010532
 20
1625.287072000001
 30
0.0
 11
13828.47154450532
 21
8295.880182400004
 31
0.0
  0
LINE
  5
76
330
2058
100
AcDbEntity
  8
0
  6
Continuous
 62
   179
100
AcDbLine
 10
13828.47154450532
 20
8295.880182400004
 30
0.0
 11
12075.23634130532
 21
8295.880182400004
 31
0.0
  0
LINE
  5
77
330
2058
100
AcDbEntity
  8
0
  6
Continuous
 62
   179
100
AcDbLine
 10
12075.23634130532
 20
8295.880182400004
 30
0.0
 11
11134.64467410532
 21
0.0000000000007772
 31
0.0
  0
LINE
  5
78
330
2058
100
AcDbEntity
  8
0
  6
Continuous
 62
   179
100
AcDbLine
 10
4907.474056000466
 20
6857.018562294655
 30
0.0
 11
4882.739185627777
 21
7041.149751364577
 31
0.0
  0
LINE
  5
79
330
2058
100
AcDbEntity
  8
0
  6
Continuous
 62
   179
100
AcDbLine
 10
4882.739185627777
 20
7041.149751364577
 30
0.0
 11
4840.840978040045
 21
7222.127928907172
 31
0.0
  0
LINE
  5
7A
330
2058
100
AcDbEntity
  8
0
  6
Continuous
 62
   179
100
AcDbLine
 10
4840.840978040045
 20
7222.127928907172
 30
0.0
 11
4779.230404759005
 21
7397.351638662306
 31
0.0
  0
LINE
  5
7B
330
2058
100
AcDbEntity
  8
0
  6
Continuous
 62
   179
100
AcDbLine
 10
4779.230404759005
 20
7397.351638662306
 30
0.0
 11
4695.875384646897
 21
7563.306056288046
 31
0.0
  0
LINE
  5
7C
330
2058
100
AcDbEntity
  8
0
  6
Continuous
 62
   179
100
AcDbLine
 10
4695.875384646897
 20
7563.306056288046
 30
0.0
 11
4590.009476013333
 21
7715.862266709748
 31
0.0
  0
LINE
  5
7D
330
2058
100
AcDbEntity
  8
0
  6
Continuous
 62
   179
100
AcDbLine
 10
4590.009476013333
 20
7715.862266709748
 30
0.0
 11
4462.775884148745
 21
7851.104996035838
 31
0.0
  0
LINE
  5
7E
330
2058
100
AcDbEntity
  8
0
  6
Continuous
 62
   179
100
AcDbLine
 10
4462.775884148745
 20
7851.104996035838
 30
0.0
 11
4317.197793690012
 21
7966.391816437139
 31
0.0
  0
LINE
  5
7F
330
2058
100
AcDbEntity
  8
0
  6
Continuous
 62
   179
100
AcDbLine
 10
4317.197793690012
 20
7966.391816437139
 30
0.0
 11
4157.354947066913
 21
8060.96369931741
 31
0.0
  0
LINE
  5
80
330
2058
100
AcDbEntity
  8
0
  6
Continuous
 62
   179
100
AcDbLine
 10
4157.354947066913
 20
8060.96369931741
 30
0.0
 11
3942.383243480519
 21
8152.000134559418
 31
0.0
  0
LINE
  5
81
330
2058
100
AcDbEntity
  8
0
  6
Continuous
 62
   179
100
AcDbLine
 10
3942.383243480519
 20
8152.000134559418
 30
0.0
 11
3717.73798795857
 21
8215.730615990771
 31
0.0
  0
LINE
  5
82
330
2058
100
AcDbEntity
  8
0
  6
Continuous
 62
   179
100
AcDbLine
 10
3717.73798795857
 20
8215.730615990771
 30
0.0
 11
3487.801041605248
 21
8256.641537955918
 31
0.0
  0
LINE
  5
83
330
2058
100
AcDbEntity
  8
0
  6
Continuous
 62
   179
100
AcDbLine
 10
3487.801041605248
 20
8256.641537955918
 30
0.0
 11
3255.282664659154
 21
8278.797175912781
 31
0.0
  0
LINE
  5
84
330
2058
100
AcDbEntity
  8
0
  6
Continuous
 62
   179
100
AcDbLine
 10
3255.282664659154
 20
8278.797175912781
 30
0.0
 11
3021.793956399985
 21
8285.564092295102
 31
0.0
  0
LINE
  5
85
330
2058
100
AcDbEntity
  8
0
  6
Continuous
 62
   179
100
AcDbLine
 10
3021.793956399985
 20
8285.564092295102
 30
0.0
 11
2764.728665662366
 21
8276.816734455842
 31
0.0
  0
LINE
  5
86
330
2058
100
AcDbEntity
  8
0
  6
Continuous
 62
   179
100
AcDbLine
 10
2764.728665662366
 20
8276.816734455842
 30
0.0
 11
2509.05662312122
 21
8248.844873041277
 31
0.0
  0
LINE
  5
87
330
2058
100
AcDbEntity
  8
0
  6
Continuous
 62
   179
100
AcDbLine
 10
2509.05662312122
 20
8248.844873041277
 30
0.0
 11
2256.762474169712
 21
8198.969363254766
 31
0.0
  0
LINE
  5
88
330
2058
100
AcDbEntity
  8
0
  6
Continuous
 62
   179
100
AcDbLine
 10
2256.762474169712
 20
8198.969363254766
 30
0.0
 11
2010.586254910185
 21
8124.640160958412
 31
0.0
  0
LINE
  5
89
330
2058
100
AcDbEntity
  8
0
  6
Continuous
 62
   179
100
AcDbLine
 10
2010.586254910185
 20
8124.640160958412
 30
0.0
 11
1823.704290714439
 21
8047.771817014414
 31
0.0
  0
LINE
  5
8A
330
2058
100
AcDbEntity
  8
0
  6
Continuous
 62
   179
100
AcDbLine
 10
1823.704290714439
 20
8047.771817014414
 30
0.0
 11
1644.660542762473
 21
7954.102205278552
 31
0.0
  0
LINE
  5
8B
330
2058
100
AcDbEntity
  8
0
  6
Continuous
 62
   179
100
AcDbLine
 10
1644.660542762473
 20
7954.102205278552
 30
0.0
 11
1475.390327490991
 21
7843.754570442103
 31
0.0
  0
LINE
  5
8C
330
2058
100
AcDbEntity
  8
0
  6
Continuous
 62
   179
100
AcDbLine
 10
1475.390327490991
 20
7843.754570442103
 30
0.0
 11
1317.62317119963
 21
7717.507163894966
 31
0.0
  0
LINE
  5
8D
330
2058
100
AcDbEntity
  8
0
  6
Continuous
 62
   179
100
AcDbLine
 10
1317.62317119963
 20
7717.507163894966
 30
0.0
 11
1139.538084004962
 21
7540.958362997805
 31
0.0
  0
LINE
  5
8E
330
2058
100
AcDbEntity
  8
0
  6
Continuous
 62
   179
100
AcDbLine
 10
1139.538084004962
 20
7540.958362997805
 30
0.0
 11
983.4661868122847
 21
7344.686540327555
 31
0.0
  0
LINE
  5
8F
330
2058
100
AcDbEntity
  8
0
  6
Continuous
 62
   179
100
AcDbLine
 10
983.4661868122847
 20
7344.686540327555
 30
0.0
 11
851.5325681984331
 21
7131.431508806925
 31
0.0
  0
LINE
  5
90
330
2058
100
AcDbEntity
  8
0
  6
Continuous
 62
   179
100
AcDbLine
 10
851.5325681984331
 20
7131.431508806925
 30
0.0
 11
744.4774564035504
 21
6904.647070364972
 31
0.0
  0
LINE
  5
91
330
2058
100
AcDbEntity
  8
0
  6
Continuous
 62
   179
100
AcDbLine
 10
744.4774564035504
 20
6904.647070364972
 30
0.0
 11
658.3392621499113
 21
6656.43274224034
 31
0.0
  0
LINE
  5
92
330
2058
100
AcDbEntity
  8
0
  6
Continuous
 62
   179
100
AcDbLine
 10
658.3392621499113
 20
6656.43274224034
 30
0.0
 11
596.9943576212592
 21
6400.933532546314
 31
0.0
  0
LINE
  5
93
330
2058
100
AcDbEntity
  8
0
  6
Continuous
 62
   179
100
AcDbLine
 10
596.9943576212592
 20
6400.933532546314
 30
0.0
 11
557.9730775994542
 21
6141.065155494636
 31
0.0
  0
LINE
  5
94
330
2058
100
AcDbEntity
  8
0
  6
Continuous
 62
   179
100
AcDbLine
 10
557.9730775994542
 20
6141.065155494636
 30
0.0
 11
538.0293793385905
 21
5893.080713935894
 31
0.0
  0
LINE
  5
95
330
2058
100
AcDbEntity
  8
0
  6
Continuous
 62
   179
100
AcDbLine
 10
538.0293793385905
 20
5893.080713935894
 30
0.0
 11
537.9155556825718
 21
5644.316103439642
 31
0.0
  0
LINE
  5
96
330
2058
100
AcDbEntity
  8
0
  6
Continuous
 62
   179
100
AcDbLine
 10
537.9155556825718
 20
5644.316103439642
 30
0.0
 11
561.0465619985758
 21
5396.656504175062
 31
0.0
  0
LINE
  5
97
330
2058
100
AcDbEntity
  8
0
  6
Continuous
 62
   179
100
AcDbLine
 10
561.0465619985758
 20
5396.656504175062
 30
0.0
 11
610.8365836731095
 21
5152.986228349144
 31
0.0
  0
LINE
  5
98
330
2058
100
AcDbEntity
  8
0
  6
Continuous
 62
   179
100
AcDbLine
 10
610.8365836731095
 20
5152.986228349144
 30
0.0
 11
670.4957765389067
 21
4966.875201595508
 31
0.0
  0
LINE
  5
99
330
2058
100
AcDbEntity
  8
0
  6
Continuous
 62
   179
100
AcDbLine
 10
670.4957765389067
 20
4966.875201595508
 30
0.0
 11
749.0385092575698
 21
4787.922755337993
 31
0.0
  0
LINE
  5
9A
330
2058
100
AcDbEntity
  8
0
  6
Continuous
 62
   179
100
AcDbLine
 10
749.0385092575698
 20
4787.922755337993
 30
0.0
 11
846.3298658911609
 21
4618.4358151253
 31
0.0
  0
LINE
  5
9B
330
2058
100
AcDbEntity
  8
0
  6
Continuous
 62
   179
100
AcDbLine
 10
846.3298658911609
 20
4618.4358151253
 30
0.0
 11
961.3271095995639
 21
4460.423355494227
 31
0.0
  0
LINE
  5
9C
330
2058
100
AcDbEntity
  8
0
  6
Continuous
 62
   179
100
AcDbLine
 10
1593.248426399736
 20
3794.889202694205
 30
0.0
 11
2342.8146692
 21
3099.103497494595
 31
0.0
  0
LINE
  5
9D
330
2058
100
AcDbEntity
  8
0
  6
Continuous
 62
   179
100
AcDbLine
 10
2342.8146692
 20
3099.103497494595
 30
0.0
 11
2457.41508644016
 21
2985.480496534295
 31
0.0
  0
LINE
  5
9E
330
2058
100
AcDbEntity
  8
0
  6
Continuous
 62
   179
100
AcDbLine
 10
2457.41508644016
 20
2985.480496534295
 30
0.0
 11
2562.477793078361
 21
2863.006224607534
 31
0.0
  0
LINE
  5
9F
330
2058
100
AcDbEntity
  8
0
  6
Continuous
 62
   179
100
AcDbLine
 10
2562.477793078361
 20
2863.006224607534
 30
0.0
 11
2654.96282441476
 21
2730.807770803294
 31
0.0
  0
LINE
  5
A0
330
2058
100
AcDbEntity
  8
0
  6
Continuous
 62
   179
100
AcDbLine
 10
2654.96282441476
 20
2730.807770803294
 30
0.0
 11
2730.907010872539
 21
2588.502832259053
 31
0.0
  0
LINE
  5
A1
330
2058
100
AcDbEntity
  8
0
  6
Continuous
 62
   179
100
AcDbLine
 10
2730.907010872539
 20
2588.502832259053
 30
0.0
 11
2787.63927673722
 21
2429.395941682513
 31
0.0
  0
LINE
  5
A2
330
2058
100
AcDbEntity
  8
0
  6
Continuous
 62
   179
100
AcDbLine
 10
2787.63927673722
 20
2429.395941682513
 30
0.0
 11
2816.041280448719
 21
2262.926576788534
 31
0.0
  0
LINE
  5
A3
330
2058
100
AcDbEntity
  8
0
  6
Continuous
 62
   179
100
AcDbLine
 10
2816.041280448719
 20
2262.926576788534
 30
0.0
 11
2813.394373199999
 21
2094.079701094594
 31
0.0
  0
LINE
  5
A4
330
2058
100
AcDbEntity
  8
0
  6
Continuous
 62
   179
100
AcDbLine
 10
2171.389205600197
 20
1438.62939909699
 30
0.0
 11
2081.327164815121
 21
1444.522028523433
 31
0.0
  0
LINE
  5
A5
330
2058
100
AcDbEntity
  8
0
  6
Continuous
 62
   179
100
AcDbLine
 10
2081.327164815121
 20
1444.522028523433
 30
0.0
 11
1993.367737841259
 21
1464.526010636294
 31
0.0
  0
LINE
  5
A6
330
2058
100
AcDbEntity
  8
0
  6
Continuous
 62
   179
100
AcDbLine
 10
1993.367737841259
 20
1464.526010636294
 30
0.0
 11
1911.343580335418
 21
1501.911515204734
 31
0.0
  0
LINE
  5
A7
330
2058
100
AcDbEntity
  8
0
  6
Continuous
 62
   179
100
AcDbLine
 10
1911.343580335418
 20
1501.911515204734
 30
0.0
 11
1840.545099273279
 21
1557.649425118072
 31
0.0
  0
LINE
  5
A8
330
2058
100
AcDbEntity
  8
0
  6
Continuous
 62
   179
100
AcDbLine
 10
1840.545099273279
 20
1557.649425118072
 30
0.0
 11
1785.04451687106
 21
1628.675104478674
 31
0.0
  0
LINE
  5
A9
330
2058
100
AcDbEntity
  8
0
  6
Continuous
 62
   179
100
AcDbLine
 10
1785.04451687106
 20
1628.675104478674
 30
0.0
 11
1745.281768286479
 21
1709.640546969614
 31
0.0
  0
LINE
  5
AA
330
2058
100
AcDbEntity
  8
0
  6
Continuous
 62
   179
100
AcDbLine
 10
1745.281768286479
 20
1709.640546969614
 30
0.0
 11
1710.035312701299
 21
1840.238656514553
 31
0.0
  0
LINE
  5
AB
330
2058
100
AcDbEntity
  8
0
  6
Continuous
 62
   179
100
AcDbLine
 10
1710.035312701299
 20
1840.238656514553
 30
0.0
 11
1696.021668805858
 21
1974.897753718552
 31
0.0
  0
LINE
  5
AC
330
2058
100
AcDbEntity
  8
0
  6
Continuous
 62
   179
100
AcDbLine
 10
1696.021668805858
 20
1974.897753718552
 30
0.0
 11
1696.59248405488
 21
2110.328397581133
 31
0.0
  0
LINE
  5
AD
330
2058
100
AcDbEntity
  8
0
  6
Continuous
 62
   179
100
AcDbLine
 10
1696.59248405488
 20
2110.328397581133
 30
0.0
 11
1707.5320688
 21
2245.337463094594
 31
0.0
  0
LINE
  5
AE
330
2058
100
AcDbEntity
  8
0
  6
Continuous
 62
   179
100
AcDbLine
 10
1707.5320688
 20
2245.337463094594
 30
0.0
 11
1781.480308
 21
2897.426481494593
 31
0.0
  0
LINE
  5
AF
330
2058
100
AcDbEntity
  8
0
  6
Continuous
 62
   179
100
AcDbLine
 10
1781.480308
 20
2897.426481494593
 30
0.0
 11
94.11594080000098
 21
2897.426481494593
 31
0.0
  0
LINE
  5
B0
330
2058
100
AcDbEntity
  8
0
  6
Continuous
 62
   179
100
AcDbLine
 10
94.11594080000098
 20
2897.426481494593
 30
0.0
 11
26.89026879999989
 21
2295.756717094594
 31
0.0
  0
LINE
  5
B1
330
2058
100
AcDbEntity
  8
0
  6
Continuous
 62
   179
100
AcDbLine
 10
26.89026879999989
 20
2295.756717094594
 30
0.0
 11
5.820122611701172
 21
2068.368970560353
 31
0.0
  0
LINE
  5
B2
330
2058
100
AcDbEntity
  8
0
  6
Continuous
 62
   179
100
AcDbLine
 10
5.820122611701172
 20
2068.368970560353
 30
0.0
 11
0.0
 21
1889.041401494594
 31
0.0
  0
LINE
  5
B3
330
2058
100
AcDbEntity
  8
0
  6
Continuous
 62
   179
100
AcDbLine
 10
0.0
 20
1889.041401494594
 30
0.0
 11
0.0
 21
1788.202893494593
 31
0.0
  0
LINE
  5
B4
330
2058
100
AcDbEntity
  8
0
  6
Continuous
 62
   179
100
AcDbLine
 10
0.0
 20
1788.202893494593
 30
0.0
 11
8.474118185080926
 21
1597.599261085654
 31
0.0
  0
LINE
  5
B5
330
2058
100
AcDbEntity
  8
0
  6
Continuous
 62
   179
100
AcDbLine
 10
8.474118185080926
 20
1597.599261085654
 30
0.0
 11
29.94753216984058
 21
1408.025551519073
 31
0.0
  0
LINE
  5
B6
330
2058
100
AcDbEntity
  8
0
  6
Continuous
 62
   179
100
AcDbLine
 10
29.94753216984058
 20
1408.025551519073
 30
0.0
 11
66.51961774536196
 21
1220.793677591393
 31
0.0
  0
LINE
  5
B7
330
2058
100
AcDbEntity
  8
0
  6
Continuous
 62
   179
100
AcDbLine
 10
66.51961774536196
 20
1220.793677591393
 30
0.0
 11
120.5660601196214
 21
1037.859231324873
 31
0.0
  0
LINE
  5
B8
330
2058
100
AcDbEntity
  8
0
  6
Continuous
 62
   179
100
AcDbLine
 10
120.5660601196214
 20
1037.859231324873
 30
0.0
 11
194.3311383854613
 21
861.9730900701735
 31
0.0
  0
LINE
  5
B9
330
2058
100
AcDbEntity
  8
0
  6
Continuous
 62
   179
100
AcDbLine
 10
194.3311383854613
 20
861.9730900701735
 30
0.0
 11
287.5295606572816
 21
699.5021482410534
 31
0.0
  0
LINE
  5
BA
330
2058
100
AcDbEntity
  8
0
  6
Continuous
 62
   179
100
AcDbLine
 10
287.5295606572816
 20
699.5021482410534
 30
0.0
 11
401.5974373648614
 21
550.9580491855736
 31
0.0
  0
LINE
  5
BB
330
2058
100
AcDbEntity
  8
0
  6
Continuous
 62
   179
100
AcDbLine
 10
401.5974373648614
 20
550.9580491855736
 30
0.0
 11
535.1901037299207
 21
419.6995230366536
 31
0.0
  0
LINE
  5
BC
330
2058
100
AcDbEntity
  8
0
  6
Continuous
 62
   179
100
AcDbLine
 10
535.1901037299207
 20
419.6995230366536
 30
0.0
 11
685.452551975061
 21
307.8901613370537
 31
0.0
  0
LINE
  5
BD
330
2058
100
AcDbEntity
  8
0
  6
Continuous
 62
   179
100
AcDbLine
 10
685.452551975061
 20
307.8901613370537
 30
0.0
 11
880.9909831935801
 21
200.7980430706135
 31
0.0
  0
LINE
  5
BE
330
2058
100
AcDbEntity
  8
0
  6
Continuous
 62
   179
100
AcDbLine
 10
880.9909831935801
 20
200.7980430706135
 30
0.0
 11
1088.964854496721
 21
120.3523112471338
 31
0.0
  0
LINE
  5
BF
330
2058
100
AcDbEntity
  8
0
  6
Continuous
 62
   179
100
AcDbLine
 10
1088.964854496721
 20
120.3523112471338
 30
0.0
 11
1304.5983771836
 21
63.40275116375353
 31
0.0
  0
LINE
  5
C0
330
2058
100
AcDbEntity
  8
0
  6
Continuous
 62
   179
100
AcDbLine
 10
1304.5983771836
 20
63.40275116375353
 30
0.0
 11
1524.56671132784
 21
26.43531137513372
 31
0.0
  0
LINE
  5
C1
330
2058
100
AcDbEntity
  8
0
  6
Continuous
 62
   179
100
AcDbLine
 10
1524.56671132784
 20
26.43531137513372
 30
0.0
 11
1746.71819079844
 21
6.202131110053797
 31
0.0
  0
LINE
  5
C2
330
2058
100
AcDbEntity
  8
0
  6
Continuous
 62
   179
100
AcDbLine
 10
1746.71819079844
 20
6.202131110053797
 30
0.0
 11
1969.7121896
 21
0.0000182945937288
 31
0.0
  0
LINE
  5
C3
330
2058
100
AcDbEntity
  8
0
  6
Continuous
 62
   179
100
AcDbLine
 10
1969.7121896
 20
0.0000182945937288
 30
0.0
 11
2235.41631079674
 21
9.04749415185396
 31
0.0
  0
LINE
  5
C4
330
2058
100
AcDbEntity
  8
0
  6
Continuous
 62
   179
100
AcDbLine
 10
2235.41631079674
 20
9.04749415185396
 30
0.0
 11
2499.687465075322
 21
37.90336058021383
 31
0.0
  0
LINE
  5
C5
330
2058
100
AcDbEntity
  8
0
  6
Continuous
 62
   179
100
AcDbLine
 10
2499.687465075322
 20
37.90336058021383
 30
0.0
 11
2760.51170427924
 21
89.20461575499391
 31
0.0
  0
LINE
  5
C6
330
2058
100
AcDbEntity
  8
0
  6
Continuous
 62
   179
100
AcDbLine
 10
2760.51170427924
 20
89.20461575499391
 30
0.0
 11
3015.141527731303
 21
165.4438899665139
 31
0.0
  0
LINE
  5
C7
330
2058
100
AcDbEntity
  8
0
  6
Continuous
 62
   179
100
AcDbLine
 10
3015.141527731303
 20
165.4438899665139
 30
0.0
 11
3208.623602308161
 21
244.1201341123137
 31
0.0
  0
LINE
  5
C8
330
2058
100
AcDbEntity
  8
0
  6
Continuous
 62
   179
100
AcDbLine
 10
3208.623602308161
 20
244.1201341123137
 30
0.0
 11
3394.24679092896
 21
339.8610540042337
 31
0.0
  0
LINE
  5
C9
330
2058
100
AcDbEntity
  8
0
  6
Continuous
 62
   179
100
AcDbLine
 10
3394.24679092896
 20
339.8610540042337
 30
0.0
 11
3570.082879030024
 21
452.5651803684535
 31
0.0
  0
LINE
  5
CA
330
2058
100
AcDbEntity
  8
0
  6
Continuous
 62
   179
100
AcDbLine
 10
3570.082879030024
 20
452.5651803684535
 30
0.0
 11
3734.386079600002
 21
581.5020810945936
 31
0.0
  0
LINE
  5
CB
330
2058
100
AcDbEntity
  8
0
  6
Continuous
 62
   179
100
AcDbLine
 10
3734.386079600002
 20
581.5020810945936
 30
0.0
 11
3918.961961318719
 21
762.6068684982135
 31
0.0
  0
LINE
  5
CC
330
2058
100
AcDbEntity
  8
0
  6
Continuous
 62
   179
100
AcDbLine
 10
3918.961961318719
 20
762.6068684982135
 30
0.0
 11
4080.611503416498
 21
964.4332031657937
 31
0.0
  0
LINE
  5
CD
330
2058
100
AcDbEntity
  8
0
  6
Continuous
 62
   179
100
AcDbLine
 10
4080.611503416498
 20
964.4332031657937
 30
0.0
 11
4217.129324296998
 21
1184.049159043493
 31
0.0
  0
LINE
  5
CE
330
2058
100
AcDbEntity
  8
0
  6
Continuous
 62
   179
100
AcDbLine
 10
4217.129324296998
 20
1184.049159043493
 30
0.0
 11
4327.807798901
 21
1417.774486123273
 31
0.0
  0
LINE
  5
CF
330
2058
100
AcDbEntity
  8
0
  6
Continuous
 62
   179
100
AcDbLine
 10
4327.807798901
 20
1417.774486123273
 30
0.0
 11
4416.840352257941
 21
1673.661636085314
 31
0.0
  0
LINE
  5
D0
330
2058
100
AcDbEntity
  8
0
  6
Continuous
 62
   179
100
AcDbLine
 10
4416.840352257941
 20
1673.661636085314
 30
0.0
 11
4480.332478423042
 21
1937.077635038393
 31
0.0
  0
LINE
  5
D1
330
2058
100
AcDbEntity
  8
0
  6
Continuous
 62
   179
100
AcDbLine
 10
4480.332478423042
 20
1937.077635038393
 30
0.0
 11
4520.926442
 21
2205.002059894594
 31
0.0
  0
LINE
  5
D2
330
2058
100
AcDbEntity
  8
0
  6
Continuous
 62
   179
100
AcDbLine
 10
4520.926442
 20
2205.002059894594
 30
0.0
 11
4539.8604791128
 21
2434.751251136973
 31
0.0
  0
LINE
  5
D3
330
2058
100
AcDbEntity
  8
0
  6
Continuous
 62
   179
100
AcDbLine
 10
4539.8604791128
 20
2434.751251136973
 30
0.0
 11
4542.013617163639
 21
2665.255576350413
 31
0.0
  0
LINE
  5
D4
330
2058
100
AcDbEntity
  8
0
  6
Continuous
 62
   179
100
AcDbLine
 10
4542.013617163639
 20
2665.255576350413
 30
0.0
 11
4524.987493222559
 21
2895.123449740493
 31
0.0
  0
LINE
  5
D5
330
2058
100
AcDbEntity
  8
0
  6
Continuous
 62
   179
100
AcDbLine
 10
4524.987493222559
 20
2895.123449740493
 30
0.0
 11
4496.6310776622
 21
3074.009802170273
 31
0.0
  0
LINE
  5
D6
330
2058
100
AcDbEntity
  8
0
  6
Continuous
 62
   179
100
AcDbLine
 10
4496.6310776622
 20
3074.009802170273
 30
0.0
 11
4454.037998185081
 21
3250.043048505413
 31
0.0
  0
LINE
  5
D7
330
2058
100
AcDbEntity
  8
0
  6
Continuous
 62
   179
100
AcDbLine
 10
4454.037998185081
 20
3250.043048505413
 30
0.0
 11
4396.558948800001
 21
3421.786723094593
 31
0.0
  0
LINE
  5
D8
330
2058
100
AcDbEntity
  8
0
  6
Continuous
 62
   179
100
AcDbLine
 10
4396.558948800001
 20
3421.786723094593
 30
0.0
 11
4335.077579852899
 21
3551.359110741273
 31
0.0
  0
LINE
  5
D9
330
2058
100
AcDbEntity
  8
0
  6
Continuous
 62
   179
100
AcDbLine
 10
4335.077579852899
 20
3551.359110741273
 30
0.0
 11
4262.20020577558
 21
3674.918854771914
 31
0.0
  0
LINE
  5
DA
330
2058
100
AcDbEntity
  8
0
  6
Continuous
 62
   179
100
AcDbLine
 10
4262.20020577558
 20
3674.918854771914
 30
0.0
 11
4181.318389436921
 21
3793.411308937154
 31
0.0
  0
LINE
  5
DB
330
2058
100
AcDbEntity
  8
0
  6
Continuous
 62
   179
100
AcDbLine
 10
4181.318389436921
 20
3793.411308937154
 30
0.0
 11
4078.522747157141
 21
3927.664362884153
 31
0.0
  0
LINE
  5
DC
330
2058
100
AcDbEntity
  8
0
  6
Continuous
 62
   179
100
AcDbLine
 10
4078.522747157141
 20
3927.664362884153
 30
0.0
 11
3969.675931600001
 21
4057.069323494594
 31
0.0
  0
LINE
  5
DD
330
2058
100
AcDbEntity
  8
0
  6
Continuous
 62
   179
100
AcDbLine
 10
3969.675931600001
 20
4057.069323494594
 30
0.0
 11
3243.638674
 21
4803.274282694593
 31
0.0
  0
LINE
  5
DE
330
2058
100
AcDbEntity
  8
0
  6
Continuous
 62
   179
100
AcDbLine
 10
2467.182162398092
 20
5616.704913899501
 30
0.0
 11
2391.57591341214
 21
5727.703944128753
 31
0.0
  0
LINE
  5
DF
330
2058
100
AcDbEntity
  8
0
  6
Continuous
 62
   179
100
AcDbLine
 10
2391.57591341214
 20
5727.703944128753
 30
0.0
 11
2326.902387232402
 21
5845.382881749834
 31
0.0
  0
LINE
  5
E0
330
2058
100
AcDbEntity
  8
0
  6
Continuous
 62
   179
100
AcDbLine
 10
2326.902387232402
 20
5845.382881749834
 30
0.0
 11
2276.785532117061
 21
5969.920654929314
 31
0.0
  0
LINE
  5
E1
330
2058
100
AcDbEntity
  8
0
  6
Continuous
 62
   179
100
AcDbLine
 10
2276.785532117061
 20
5969.920654929314
 30
0.0
 11
2250.543256542281
 21
6072.090477188194
 31
0.0
  0
LINE
  5
E2
330
2058
100
AcDbEntity
  8
0
  6
Continuous
 62
   179
100
AcDbLine
 10
2250.543256542281
 20
6072.090477188194
 30
0.0
 11
2238.35324987586
 21
6176.849657953893
 31
0.0
  0
LINE
  5
E3
330
2058
100
AcDbEntity
  8
0
  6
Continuous
 62
   179
100
AcDbLine
 10
2238.35324987586
 20
6176.849657953893
 30
0.0
 11
2241.976161200001
 21
6282.239066694592
 31
0.0
  0
LINE
  5
E4
330
2058
100
AcDbEntity
  8
0
  6
Continuous
 62
   179
100
AcDbLine
 10
2813.394373200967
 20
6877.186263896148
 30
0.0
 11
2899.145033072479
 21
6871.915988478852
 31
0.0
  0
LINE
  5
E5
330
2058
100
AcDbEntity
  8
0
  6
Continuous
 62
   179
100
AcDbLine
 10
2899.145033072479
 20
6871.915988478852
 30
0.0
 11
2983.145870252079
 21
6854.084627982132
 31
0.0
  0
LINE
  5
E6
330
2058
100
AcDbEntity
  8
0
  6
Continuous
 62
   179
100
AcDbLine
 10
2983.145870252079
 20
6854.084627982132
 30
0.0
 11
3062.202014936021
 21
6820.693112019553
 31
0.0
  0
LINE
  5
E7
330
2058
100
AcDbEntity
  8
0
  6
Continuous
 62
   179
100
AcDbLine
 10
3062.202014936021
 20
6820.693112019553
 30
0.0
 11
3131.662363480119
 21
6770.362935621432
 31
0.0
  0
LINE
  5
E8
330
2058
100
AcDbEntity
  8
0
  6
Continuous
 62
   179
100
AcDbLine
 10
3131.662363480119
 20
6770.362935621432
 30
0.0
 11
3187.371247960019
 21
6705.118469623453
 31
0.0
  0
LINE
  5
E9
330
2058
100
AcDbEntity
  8
0
  6
Continuous
 62
   179
100
AcDbLine
 10
3187.371247960019
 20
6705.118469623453
 30
0.0
 11
3228.127477679299
 21
6629.56460680717
 31
0.0
  0
LINE
  5
EA
330
2058
100
AcDbEntity
  8
0
  6
Continuous
 62
   179
100
AcDbLine
 10
3228.127477679299
 20
6629.56460680717
 30
0.0
 11
3265.033418004941
 21
6506.244136135932
 31
0.0
  0
LINE
  5
EB
330
2058
100
AcDbEntity
  8
0
  6
Continuous
 62
   179
100
AcDbLine
 10
3265.033418004941
 20
6506.244136135932
 30
0.0
 11
3280.36021042724
 21
6378.310474282153
 31
0.0
  0
LINE
  5
EC
330
2058
100
AcDbEntity
  8
0
  6
Continuous
 62
   179
100
AcDbLine
 10
3280.36021042724
 20
6378.310474282153
 30
0.0
 11
3280.752024162281
 21
6249.412203473673
 31
0.0
  0
LINE
  5
ED
330
2058
100
AcDbEntity
  8
0
  6
Continuous
 62
   179
100
AcDbLine
 10
3280.752024162281
 20
6249.412203473673
 30
0.0
 11
3270.5289428
 21
6120.897453894593
 31
0.0
  0
LINE
  5
EE
330
2058
100
AcDbEntity
  8
0
  6
Continuous
 62
   179
100
AcDbLine
 10
3270.5289428
 20
6120.897453894593
 30
0.0
 11
3206.664554400002
 21
5566.285659894593
 31
0.0
  0
LINE
  5
EF
330
2058
100
AcDbEntity
  8
0
  6
Continuous
 62
   179
100
AcDbLine
 10
3206.664554400002
 20
5566.285659894593
 30
0.0
 11
4820.080682400462
 21
5566.285659894544
 31
0.0
  0
LINE
  5
F0
330
2058
100
AcDbEntity
  8
0
  6
Continuous
 62
   179
100
AcDbLine
 10
4820.080682400462
 20
5566.285659894544
 30
0.0
 11
4894.028921600462
 21
6231.819812694547
 31
0.0
  0
LINE
  5
F1
330
2058
100
AcDbEntity
  8
0
  6
Continuous
 62
   179
100
AcDbLine
 10
4894.028921600462
 20
6231.819812694547
 30
0.0
 11
4907.474056000466
 21
6366.271156694573
 31
0.0
  0
LINE
  5
F2
330
2058
100
AcDbEntity
  8
0
  6
Continuous
 62
   179
100
AcDbLine
 10
4907.474056000466
 20
6366.271156694573
 30
0.0
 11
4917.486162374487
 21
6641.137716561613
 31
0.0
  0
LINE
  5
F3
330
2058
100
AcDbEntity
  8
0
  6
Continuous
 62
   179
100
AcDbLine
 10
4917.486162374487
 20
6641.137716561613
 30
0.0
 11
4907.474056000466
 21
6857.018562294655
 31
0.0
  0
LINE
  5
F4
330
2058
100
AcDbEntity
  8
0
  6
Continuous
 62
   179
100
AcDbLine
 10
24964.54912059258
 20
0.0000125144457019
 30
0.0
 11
26583.76192004468
 21
0.0000125144457019
 31
0.0
  0
LINE
  5
F5
330
2058
100
AcDbEntity
  8
0
  6
Continuous
 62
   179
100
AcDbLine
 10
24964.54912059258
 20
1424.094829711545
 30
0.0
 11
24964.54912059258
 21
0.0000125144457019
 31
0.0
  0
LINE
  5
F6
330
2058
100
AcDbEntity
  8
0
  6
Continuous
 62
   179
100
AcDbLine
 10
25016.61353259258
 20
7008.870756911545
 30
0.0
 11
24971.49104219296
 21
3444.194015310926
 31
0.0
  0
LINE
  5
F7
330
2058
100
AcDbEntity
  8
0
  6
Continuous
 62
   179
100
AcDbLine
 10
24180.11197979258
 20
3343.536152111546
 30
0.0
 11
25016.61353259258
 21
7008.870756911545
 31
0.0
  0
LINE
  5
F8
330
2058
100
AcDbEntity
  8
0
  6
Continuous
 62
   179
100
AcDbLine
 10
23399.14579979258
 20
0.0000125144449803
 30
0.0
 11
23791.36437019384
 21
1694.829772110233
 31
0.0
  0
LINE
  5
F9
330
2058
100
AcDbEntity
  8
0
  6
Continuous
 62
   179
100
AcDbLine
 10
21618.54290939258
 20
0.0000125144449803
 30
0.0
 11
23399.14579979258
 21
0.0000125144449803
 31
0.0
  0
LINE
  5
FA
330
2058
100
AcDbEntity
  8
0
  6
Continuous
 62
   179
100
AcDbLine
 10
23986.75627099296
 20
8289.655292111545
 30
0.0
 11
21618.54290939258
 21
0.0000125144449803
 31
0.0
  0
LINE
  5
FB
330
2058
100
AcDbEntity
  8
0
  6
Continuous
 62
   179
100
AcDbLine
 10
26353.95153659296
 20
8289.655292111545
 30
0.0
 11
23986.75627099296
 21
8289.655292111545
 31
0.0
  0
LINE
  5
FC
330
2058
100
AcDbEntity
  8
0
  6
Continuous
 62
   179
100
AcDbLine
 10
26583.76192004468
 20
0.0000125144457019
 30
0.0
 11
26353.95153659296
 21
8289.655292111545
 31
0.0
  0
ENDBLK
  5
48
330
2058
100
AcDbEntity
  8
0
100
AcDbBlockEnd
  0
BLOCK
  5
2059
330
205A
100
AcDbEntity
  8
0
100
AcDbBlockBegin
  2
SW_NOTE_0
 70
     0
 10
0.0
 20
0.0
 30
0.0
  3
SW_NOTE_0
  1

  0
INSERT
  5
196
330
205A
100
AcDbEntity
  8
0
100
AcDbBlockReference
  2
*U2
 10
0.0
 20
0.0
 30
0.0
  0
INSERT
  5
197
330
205A
100
AcDbEntity
  8
0
100
AcDbBlockReference
  2
*U3
 10
0.0
 20
0.0
 30
0.0
  0
ENDBLK
  5
195
330
205A
100
AcDbEntity
  8
0
100
AcDbBlockEnd
  0
BLOCK
  5
205B
330
205C
100
AcDbEntity
  8
0
100
AcDbBlockBegin
  2
*U2
 70
     1
 10
0.0
 20
0.0
 30
0.0
  3
*U2
  1

  0
TEXT
  5
1C31
330
205C
100
AcDbEntity
  8
0
 62
     0
100
AcDbText
 10
0.0
 20
0.4588950368879992
 30
0.0
 40
1.587499999999999
  1
1000-
 41
0.75
  7
SLDTEXTSTYLE0
100
AcDbText
  0
ENDBLK
  5
1C33
330
205C
100
AcDbEntity
  8
0
100
AcDbBlockEnd
  0
BLOCK
  5
205D
330
205E
100
AcDbEntity
  8
0
100
AcDbBlockBegin
  2
*U3
 70
     1
 10
0.0
 20
0.0
 30
0.0
  3
*U3
  1

  0
TEXT
  5
1C35
330
205E
100
AcDbEntity
  8
0
 62
     0
100
AcDbText
 10
0.0
 20
-1.657771604198346
 30
0.0
 40
1.587499999999999
  1
2000
 41
0.75
  7
SLDTEXTSTYLE0
100
AcDbText
  0
ENDBLK
  5
1C37
330
205E
100
AcDbEntity
  8
0
100
AcDbBlockEnd
  0
BLOCK
  5
205F
330
2060
100
AcDbEntity
  8
0
100
AcDbBlockBegin
  2
SW_NOTE_1
 70
     0
 10
0.0
 20
0.0
 30
0.0
  3
SW_NOTE_1
  1

  0
INSERT
  5
19C
330
2060
100
AcDbEntity
  8
0
100
AcDbBlockReference
  2
*U5
 10
0.0
 20
0.0
 30
0.0
  0
INSERT
  5
19D
330
2060
100
AcDbEntity
  8
0
100
AcDbBlockReference
  2
*U6
 10
0.0
 20
0.0
 30
0.0
  0
ENDBLK
  5
19B
330
2060
100
AcDbEntity
  8
0
100
AcDbBlockEnd
  0
BLOCK
  5
2061
330
2062
100
AcDbEntity
  8
0
100
AcDbBlockBegin
  2
*U5
 70
     1
 10
0.0
 20
0.0
 30
0.0
  3
*U5
  1

  0
TEXT
  5
1C39
330
2062
100
AcDbEntity
  8
0
 62
     0
100
AcDbText
 10
0.0
 20
0.4588950368879992
 30
0.0
 40
1.587499999999999
  1
2000-
 41
0.75
  7
SLDTEXTSTYLE0
100
AcDbText
  0
ENDBLK
  5
1C3B
330
2062
100
AcDbEntity
  8
0
100
AcDbBlockEnd
  0
BLOCK
  5
2063
330
2064
100
AcDbEntity
  8
0
100
AcDbBlockBegin
  2
*U6
 70
     1
 10
0.0
 20
0.0
 30
0.0
  3
*U6
  1

  0
TEXT
  5
1C3D
330
2064
100
AcDbEntity
  8
0
 62
     0
100
AcDbText
 10
0.0
 20
-1.657771604198346
 30
0.0
 40
1.587499999999999
  1
4000
 41
0.75
  7
SLDTEXTSTYLE0
100
AcDbText
  0
ENDBLK
  5
1C3F
330
2064
100
AcDbEntity
  8
0
100
AcDbBlockEnd
  0
BLOCK
  5
2065
330
2066
100
AcDbEntity
  8
0
100
AcDbBlockBegin
  2
SW_TABLEANNOTATION_0
 70
     0
 10
0.0
 20
0.0
 30
0.0
  3
SW_TABLEANNOTATION_0
  1

  0
LINE
  5
1B0
330
2066
100
AcDbEntity
  8
0
  6
Continuous
 62
     0
100
AcDbLine
 10
0.0
 20
0.0
 30
0.0
 11
0.0
 21
-123.609958657298
 31
0.0
  0
LINE
  5
1B1
330
2066
100
AcDbEntity
  8
0
  6
Continuous
 62
     0
100
AcDbLine
 10
0.0
 20
-123.609958657298
 30
0.0
 11
156.6717400790887
 21
-123.609958657298
 31
0.0
  0
LINE
  5
1B2
330
2066
100
AcDbEntity
  8
0
  6
Continuous
 62
     0
100
AcDbLine
 10
156.6717400790887
 20
-123.609958657298
 30
0.0
 11
156.6717400790887
 21
0.0
 31
0.0
  0
LINE
  5
1B3
330
2066
100
AcDbEntity
  8
0
  6
Continuous
 62
     0
100
AcDbLine
 10
156.6717400790887
 20
0.0
 30
0.0
 11
0.0
 21
0.0
 31
0.0
  0
LINE
  5
1B4
330
2066
100
AcDbEntity
  8
0
  6
Continuous
 62
     0
100
AcDbLine
 10
18.83487759530544
 20
-3.587777735143903
 30
0.0
 11
18.83487759530544
 21
-10.70333320543171
 31
0.0
  0
LINE
  5
1B5
330
2066
100
AcDbEntity
  8
0
  6
Continuous
 62
     0
100
AcDbLine
 10
55.82851753707374
 20
-3.587777735143903
 30
0.0
 11
55.82851753707374
 21
-10.70333320543171
 31
0.0
  0
LINE
  5
1B6
330
2066
100
AcDbEntity
  8
0
  6
Continuous
 62
     0
100
AcDbLine
 10
89.23355148009519
 20
-3.587777735143903
 30
0.0
 11
89.23355148009519
 21
-10.70333320543171
 31
0.0
  0
LINE
  5
1B7
330
2066
100
AcDbEntity
  8
0
  6
Continuous
 62
     0
100
AcDbLine
 10
112.1815342432159
 20
-3.587777735143903
 30
0.0
 11
112.1815342432159
 21
-10.70333320543171
 31
0.0
  0
LINE
  5
1B8
330
2066
100
AcDbEntity
  8
0
  6
Continuous
 62
     0
100
AcDbLine
 10
121.803949529555
 20
-3.587777735143903
 30
0.0
 11
121.803949529555
 21
-10.70333320543171
 31
0.0
  0
LINE
  5
1B9
330
2066
100
AcDbEntity
  8
0
  6
Continuous
 62
     0
100
AcDbLine
 10
132.0753696111108
 20
-3.587777735143903
 30
0.0
 11
132.0753696111108
 21
-10.70333320543171
 31
0.0
  0
LINE
  5
1BA
330
2066
100
AcDbEntity
  8
0
  6
Continuous
 62
     0
100
AcDbLine
 10
0.0
 20
-3.587777735143903
 30
0.0
 11
156.6717400790887
 21
-3.587777735143903
 31
0.0
  0
LINE
  5
1BB
330
2066
100
AcDbEntity
  8
0
  6
Continuous
 62
     0
100
AcDbLine
 10
18.83487759530544
 20
-10.70333320543168
 30
0.0
 11
18.83487759530544
 21
-123.609958657298
 31
0.0
  0
LINE
  5
1BC
330
2066
100
AcDbEntity
  8
0
  6
Continuous
 62
     0
100
AcDbLine
 10
55.82851753707374
 20
-10.70333320543168
 30
0.0
 11
55.82851753707374
 21
-123.609958657298
 31
0.0
  0
LINE
  5
1BD
330
2066
100
AcDbEntity
  8
0
  6
Continuous
 62
     0
100
AcDbLine
 10
89.23355148009519
 20
-10.70333320543168
 30
0.0
 11
89.23355148009519
 21
-123.609958657298
 31
0.0
  0
LINE
  5
1BE
330
2066
100
AcDbEntity
  8
0
  6
Continuous
 62
     0
100
AcDbLine
 10
112.1815342432159
 20
-10.70333320543168
 30
0.0
 11
112.1815342432159
 21
-123.609958657298
 31
0.0
  0
LINE
  5
1BF
330
2066
100
AcDbEntity
  8
0
  6
Continuous
 62
     0
100
AcDbLine
 10
121.803949529555
 20
-10.70333320543168
 30
0.0
 11
121.803949529555
 21
-123.609958657298
 31
0.0
  0
LINE
  5
1C0
330
2066
100
AcDbEntity
  8
0
  6
Continuous
 62
     0
100
AcDbLine
 10
132.0753696111108
 20
-10.70333320543168
 30
0.0
 11
132.0753696111108
 21
-123.609958657298
 31
0.0
  0
LINE
  5
1C1
330
2066
100
AcDbEntity
  8
0
  6
Continuous
 62
     0
100
AcDbLine
 10
0.0
 20
-15.32860000855215
 30
0.0
 11
156.6717400790887
 21
-15.32860000855215
 31
0.0
  0
LINE
  5
1C2
330
2066
100
AcDbEntity
  8
0
  6
Continuous
 62
     0
100
AcDbLine
 10
0.0
 20
-19.95386681167263
 30
0.0
 11
156.6717400790887
 21
-19.95386681167263
 31
0.0
  0
LINE
  5
1C3
330
2066
100
AcDbEntity
  8
0
  6
Continuous
 62
     0
100
AcDbLine
 10
0.0
 20
-24.57913361479311
 30
0.0
 11
156.6717400790887
 21
-24.57913361479311
 31
0.0
  0
LINE
  5
1C4
330
2066
100
AcDbEntity
  8
0
  6
Continuous
 62
     0
100
AcDbLine
 10
0.0
 20
-29.20440041791358
 30
0.0
 11
156.6717400790887
 21
-29.20440041791358
 31
0.0
  0
LINE
  5
1C5
330
2066
100
AcDbEntity
  8
0
  6
Continuous
 62
     0
100
AcDbLine
 10
0.0
 20
-33.82966722103406
 30
0.0
 11
156.6717400790887
 21
-33.82966722103406
 31
0.0
  0
LINE
  5
1C6
330
2066
100
AcDbEntity
  8
0
  6
Continuous
 62
     0
100
AcDbLine
 10
0.0
 20
-38.45493402415453
 30
0.0
 11
156.6717400790887
 21
-38.45493402415453
 31
0.0
  0
LINE
  5
1C7
330
2066
100
AcDbEntity
  8
0
  6
Continuous
 62
     0
100
AcDbLine
 10
0.0
 20
-45.57048949444235
 30
0.0
 11
156.6717400790887
 21
-45.57048949444235
 31
0.0
  0
LINE
  5
1C8
330
2066
100
AcDbEntity
  8
0
  6
Continuous
 62
     0
100
AcDbLine
 10
0.0
 20
-52.68604496473013
 30
0.0
 11
156.6717400790887
 21
-52.68604496473013
 31
0.0
  0
LINE
  5
1C9
330
2066
100
AcDbEntity
  8
0
  6
Continuous
 62
     0
100
AcDbLine
 10
0.0
 20
-57.31131176785062
 30
0.0
 11
156.6717400790887
 21
-57.31131176785062
 31
0.0
  0
LINE
  5
1CA
330
2066
100
AcDbEntity
  8
0
  6
Continuous
 62
     0
100
AcDbLine
 10
0.0
 20
-64.42686723813841
 30
0.0
 11
156.6717400790887
 21
-64.42686723813841
 31
0.0
  0
LINE
  5
1CB
330
2066
100
AcDbEntity
  8
0
  6
Continuous
 62
     0
100
AcDbLine
 10
0.0
 20
-70.87198650340987
 30
0.0
 11
156.6717400790887
 21
-70.87198650340987
 31
0.0
  0
LINE
  5
1CC
330
2066
100
AcDbEntity
  8
0
  6
Continuous
 62
     0
100
AcDbLine
 10
0.0
 20
-77.98754197369766
 30
0.0
 11
156.6717400790887
 21
-77.98754197369766
 31
0.0
  0
LINE
  5
1CD
330
2066
100
AcDbEntity
  8
0
  6
Continuous
 62
     0
100
AcDbLine
 10
0.0
 20
-82.61280877681814
 30
0.0
 11
156.6717400790887
 21
-82.61280877681814
 31
0.0
  0
LINE
  5
1CE
330
2066
100
AcDbEntity
  8
0
  6
Continuous
 62
     0
100
AcDbLine
 10
0.0
 20
-89.05792804208957
 30
0.0
 11
156.6717400790887
 21
-89.05792804208957
 31
0.0
  0
LINE
  5
1CF
330
2066
100
AcDbEntity
  8
0
  6
Continuous
 62
     0
100
AcDbLine
 10
0.0
 20
-96.17348351237737
 30
0.0
 11
156.6717400790887
 21
-96.17348351237737
 31
0.0
  0
LINE
  5
1D0
330
2066
100
AcDbEntity
  8
0
  6
Continuous
 62
     0
100
AcDbLine
 10
0.0
 20
-102.6186027776488
 30
0.0
 11
156.6717400790887
 21
-102.6186027776488
 31
0.0
  0
LINE
  5
1D1
330
2066
100
AcDbEntity
  8
0
  6
Continuous
 62
     0
100
AcDbLine
 10
0.0
 20
-107.2438695807693
 30
0.0
 11
156.6717400790887
 21
-107.2438695807693
 31
0.0
  0
LINE
  5
1D2
330
2066
100
AcDbEntity
  8
0
  6
Continuous
 62
     0
100
AcDbLine
 10
0.0
 20
-111.8691363838898
 30
0.0
 11
156.6717400790887
 21
-111.8691363838898
 31
0.0
  0
LINE
  5
1D3
330
2066
100
AcDbEntity
  8
0
  6
Continuous
 62
     0
100
AcDbLine
 10
0.0
 20
-116.4944031870102
 30
0.0
 11
156.6717400790887
 21
-116.4944031870102
 31
0.0
  0
LINE
  5
1D4
330
2066
100
AcDbEntity
  8
0
  6
Continuous
 62
     0
100
AcDbLine
 10
0.0
 20
-10.70333320543171
 30
0.0
 11
156.6717400790887
 21
-10.70333320543171
 31
0.0
  0
INSERT
  5
1D6
330
2066
100
AcDbEntity
  8
0
100
AcDbBlockReference
  2
*U8
 10
0.0
 20
0.0
 30
0.0
  0
INSERT
  5
1D7
330
2066
100
AcDbEntity
  8
0
100
AcDbBlockReference
  2
*U9
 10
0.0
 20
0.0
 30
0.0
  0
INSERT
  5
1D8
330
2066
100
AcDbEntity
  8
0
100
AcDbBlockReference
  2
*U10
 10
0.0
 20
0.0
 30
0.0
  0
INSERT
  5
1D9
330
2066
100
AcDbEntity
  8
0
100
AcDbBlockReference
  2
*U11
 10
0.0
 20
0.0
 30
0.0
  0
INSERT
  5
1DA
330
2066
100
AcDbEntity
  8
0
100
AcDbBlockReference
  2
*U12
 10
0.0
 20
0.0
 30
0.0
  0
INSERT
  5
1DB
330
2066
100
AcDbEntity
  8
0
100
AcDbBlockReference
  2
*U13
 10
0.0
 20
0.0
 30
0.0
  0
INSERT
  5
1DC
330
2066
100
AcDbEntity
  8
0
100
AcDbBlockReference
  2
*U14
 10
0.0
 20
0.0
 30
0.0
  0
INSERT
  5
1DD
330
2066
100
AcDbEntity
  8
0
100
AcDbBlockReference
  2
*U15
 10
0.0
 20
0.0
 30
0.0
  0
INSERT
  5
1DE
330
2066
100
AcDbEntity
  8
0
100
AcDbBlockReference
  2
*U16
 10
0.0
 20
0.0
 30
0.0
  0
INSERT
  5
1DF
330
2066
100
AcDbEntity
  8
0
100
AcDbBlockReference
  2
*U17
 10
0.0
 20
0.0
 30
0.0
  0
INSERT
  5
1E0
330
2066
100
AcDbEntity
  8
0
100
AcDbBlockReference
  2
*U18
 10
0.0
 20
0.0
 30
0.0
  0
INSERT
  5
1E1
330
2066
100
AcDbEntity
  8
0
100
AcDbBlockReference
  2
*U19
 10
0.0
 20
0.0
 30
0.0
  0
INSERT
  5
1E2
330
2066
100
AcDbEntity
  8
0
100
AcDbBlockReference
  2
*U20
 10
0.0
 20
0.0
 30
0.0
  0
INSERT
  5
1E3
330
2066
100
AcDbEntity
  8
0
100
AcDbBlockReference
  2
*U21
 10
0.0
 20
0.0
 30
0.0
  0
INSERT
  5
1E4
330
2066
100
AcDbEntity
  8
0
100
AcDbBlockReference
  2
*U22
 10
0.0
 20
0.0
 30
0.0
  0
INSERT
  5
1E5
330
2066
100
AcDbEntity
  8
0
100
AcDbBlockReference
  2
*U23
 10
0.0
 20
0.0
 30
0.0
  0
INSERT
  5
1E6
330
2066
100
AcDbEntity
  8
0
100
AcDbBlockReference
  2
*U24
 10
0.0
 20
0.0
 30
0.0
  0
INSERT
  5
1E7
330
2066
100
AcDbEntity
  8
0
100
AcDbBlockReference
  2
*U25
 10
0.0
 20
0.0
 30
0.0
  0
INSERT
  5
1E8
330
2066
100
AcDbEntity
  8
0
100
AcDbBlockReference
  2
*U26
 10
0.0
 20
0.0
 30
0.0
  0
INSERT
  5
1E9
330
2066
100
AcDbEntity
  8
0
100
AcDbBlockReference
  2
*U27
 10
0.0
 20
0.0
 30
0.0
  0
INSERT
  5
1EA
330
2066
100
AcDbEntity
  8
0
100
AcDbBlockReference
  2
*U28
 10
0.0
 20
0.0
 30
0.0
  0
INSERT
  5
1EB
330
2066
100
AcDbEntity
  8
0
100
AcDbBlockReference
  2
*U29
 10
0.0
 20
0.0
 30
0.0
  0
INSERT
  5
1EC
330
2066
100
AcDbEntity
  8
0
100
AcDbBlockReference
  2
*U30
 10
0.0
 20
0.0
 30
0.0
  0
INSERT
  5
1ED
330
2066
100
AcDbEntity
  8
0
100
AcDbBlockReference
  2
*U31
 10
0.0
 20
0.0
 30
0.0
  0
INSERT
  5
1EE
330
2066
100
AcDbEntity
  8
0
100
AcDbBlockReference
  2
*U32
 10
0.0
 20
0.0
 30
0.0
  0
INSERT
  5
1EF
330
2066
100
AcDbEntity
  8
0
100
AcDbBlockReference
  2
*U33
 10
0.0
 20
0.0
 30
0.0
  0
INSERT
  5
1F0
330
2066
100
AcDbEntity
  8
0
100
AcDbBlockReference
  2
*U34
 10
0.0
 20
0.0
 30
0.0
  0
INSERT
  5
1F1
330
2066
100
AcDbEntity
  8
0
100
AcDbBlockReference
  2
*U35
 10
0.0
 20
0.0
 30
0.0
  0
INSERT
  5
1F2
330
2066
100
AcDbEntity
  8
0
100
AcDbBlockReference
  2
*U36
 10
0.0
 20
0.0
 30
0.0
  0
INSERT
  5
1F3
330
2066
100
AcDbEntity
  8
0
100
AcDbBlockReference
  2
*U37
 10
0.0
 20
0.0
 30
0.0
  0
INSERT
  5
1F4
330
2066
100
AcDbEntity
  8
0
100
AcDbBlockReference
  2
*U38
 10
0.0
 20
0.0
 30
0.0
  0
INSERT
  5
1F5
330
2066
100
AcDbEntity
  8
0
100
AcDbBlockReference
  2
*U39
 10
0.0
 20
0.0
 30
0.0
  0
INSERT
  5
1F6
330
2066
100
AcDbEntity
  8
0
100
AcDbBlockReference
  2
*U40
 10
0.0
 20
0.0
 30
0.0
  0
INSERT
  5
1F7
330
2066
100
AcDbEntity
  8
0
100
AcDbBlockReference
  2
*U41
 10
0.0
 20
0.0
 30
0.0
  0
INSERT
  5
1F8
330
2066
100
AcDbEntity
  8
0
100
AcDbBlockReference
  2
*U42
 10
0.0
 20
0.0
 30
0.0
  0
INSERT
  5
1F9
330
2066
100
AcDbEntity
  8
0
100
AcDbBlockReference
  2
*U43
 10
0.0
 20
0.0
 30
0.0
  0
INSERT
  5
1FA
330
2066
100
AcDbEntity
  8
0
100
AcDbBlockReference
  2
*U44
 10
0.0
 20
0.0
 30
0.0
  0
INSERT
  5
1FB
330
2066
100
AcDbEntity
  8
0
100
AcDbBlockReference
  2
*U45
 10
0.0
 20
0.0
 30
0.0
  0
INSERT
  5
1FC
330
2066
100
AcDbEntity
  8
0
100
AcDbBlockReference
  2
*U46
 10
0.0
 20
0.0
 30
0.0
  0
INSERT
  5
1FD
330
2066
100
AcDbEntity
  8
0
100
AcDbBlockReference
  2
*U47
 10
0.0
 20
0.0
 30
0.0
  0
INSERT
  5
1FE
330
2066
100
AcDbEntity
  8
0
100
AcDbBlockReference
  2
*U48
 10
0.0
 20
0.0
 30
0.0
  0
INSERT
  5
1FF
330
2066
100
AcDbEntity
  8
0
100
AcDbBlockReference
  2
*U49
 10
0.0
 20
0.0
 30
0.0
  0
INSERT
  5
200
330
2066
100
AcDbEntity
  8
0
100
AcDbBlockReference
  2
*U50
 10
0.0
 20
0.0
 30
0.0
  0
INSERT
  5
201
330
2066
100
AcDbEntity
  8
0
100
AcDbBlockReference
  2
*U51
 10
0.0
 20
0.0
 30
0.0
  0
INSERT
  5
202
330
2066
100
AcDbEntity
  8
0
100
AcDbBlockReference
  2
*U52
 10
0.0
 20
0.0
 30
0.0
  0
INSERT
  5
203
330
2066
100
AcDbEntity
  8
0
100
AcDbBlockReference
  2
*U53
 10
0.0
 20
0.0
 30
0.0
  0
INSERT
  5
204
330
2066
100
AcDbEntity
  8
0
100
AcDbBlockReference
  2
*U54
 10
0.0
 20
0.0
 30
0.0
  0
INSERT
  5
205
330
2066
100
AcDbEntity
  8
0
100
AcDbBlockReference
  2
*U55
 10
0.0
 20
0.0
 30
0.0
  0
INSERT
  5
206
330
2066
100
AcDbEntity
  8
0
100
AcDbBlockReference
  2
*U56
 10
0.0
 20
0.0
 30
0.0
  0
INSERT
  5
207
330
2066
100
AcDbEntity
  8
0
100
AcDbBlockReference
  2
*U57
 10
0.0
 20
0.0
 30
0.0
  0
INSERT
  5
208
330
2066
100
AcDbEntity
  8
0
100
AcDbBlockReference
  2
*U58
 10
0.0
 20
0.0
 30
0.0
  0
INSERT
  5
209
330
2066
100
AcDbEntity
  8
0
100
AcDbBlockReference
  2
*U59
 10
0.0
 20
0.0
 30
0.0
  0
INSERT
  5
20A
330
2066
100
AcDbEntity
  8
0
100
AcDbBlockReference
  2
*U60
 10
0.0
 20
0.0
 30
0.0
  0
INSERT
  5
20B
330
2066
100
AcDbEntity
  8
0
100
AcDbBlockReference
  2
*U61
 10
0.0
 20
0.0
 30
0.0
  0
INSERT
  5
20C
330
2066
100
AcDbEntity
  8
0
100
AcDbBlockReference
  2
*U62
 10
0.0
 20
0.0
 30
0.0
  0
INSERT
  5
20D
330
2066
100
AcDbEntity
  8
0
100
AcDbBlockReference
  2
*U63
 10
0.0
 20
0.0
 30
0.0
  0
INSERT
  5
20E
330
2066
100
AcDbEntity
  8
0
100
AcDbBlockReference
  2
*U64
 10
0.0
 20
0.0
 30
0.0
  0
INSERT
  5
20F
330
2066
100
AcDbEntity
  8
0
100
AcDbBlockReference
  2
*U65
 10
0.0
 20
0.0
 30
0.0
  0
INSERT
  5
210
330
2066
100
AcDbEntity
  8
0
100
AcDbBlockReference
  2
*U66
 10
0.0
 20
0.0
 30
0.0
  0
INSERT
  5
211
330
2066
100
AcDbEntity
  8
0
100
AcDbBlockReference
  2
*U67
 10
0.0
 20
0.0
 30
0.0
  0
INSERT
  5
212
330
2066
100
AcDbEntity
  8
0
100
AcDbBlockReference
  2
*U68
 10
0.0
 20
0.0
 30
0.0
  0
INSERT
  5
213
330
2066
100
AcDbEntity
  8
0
100
AcDbBlockReference
  2
*U69
 10
0.0
 20
0.0
 30
0.0
  0
INSERT
  5
214
330
2066
100
AcDbEntity
  8
0
100
AcDbBlockReference
  2
*U70
 10
0.0
 20
0.0
 30
0.0
  0
INSERT
  5
215
330
2066
100
AcDbEntity
  8
0
100
AcDbBlockReference
  2
*U71
 10
0.0
 20
0.0
 30
0.0
  0
INSERT
  5
216
330
2066
100
AcDbEntity
  8
0
100
AcDbBlockReference
  2
*U72
 10
0.0
 20
0.0
 30
0.0
  0
INSERT
  5
217
330
2066
100
AcDbEntity
  8
0
100
AcDbBlockReference
  2
*U73
 10
0.0
 20
0.0
 30
0.0
  0
INSERT
  5
218
330
2066
100
AcDbEntity
  8
0
100
AcDbBlockReference
  2
*U74
 10
0.0
 20
0.0
 30
0.0
  0
INSERT
  5
219
330
2066
100
AcDbEntity
  8
0
100
AcDbBlockReference
  2
*U75
 10
0.0
 20
0.0
 30
0.0
  0
INSERT
  5
21A
330
2066
100
AcDbEntity
  8
0
100
AcDbBlockReference
  2
*U76
 10
0.0
 20
0.0
 30
0.0
  0
INSERT
  5
21B
330
2066
100
AcDbEntity
  8
0
100
AcDbBlockReference
  2
*U77
 10
0.0
 20
0.0
 30
0.0
  0
INSERT
  5
21C
330
2066
100
AcDbEntity
  8
0
100
AcDbBlockReference
  2
*U78
 10
0.0
 20
0.0
 30
0.0
  0
INSERT
  5
21D
330
2066
100
AcDbEntity
  8
0
100
AcDbBlockReference
  2
*U79
 10
0.0
 20
0.0
 30
0.0
  0
INSERT
  5
21E
330
2066
100
AcDbEntity
  8
0
100
AcDbBlockReference
  2
*U80
 10
0.0
 20
0.0
 30
0.0
  0
INSERT
  5
21F
330
2066
100
AcDbEntity
  8
0
100
AcDbBlockReference
  2
*U81
 10
0.0
 20
0.0
 30
0.0
  0
INSERT
  5
220
330
2066
100
AcDbEntity
  8
0
100
AcDbBlockReference
  2
*U82
 10
0.0
 20
0.0
 30
0.0
  0
INSERT
  5
221
330
2066
100
AcDbEntity
  8
0
100
AcDbBlockReference
  2
*U83
 10
0.0
 20
0.0
 30
0.0
  0
INSERT
  5
222
330
2066
100
AcDbEntity
  8
0
100
AcDbBlockReference
  2
*U84
 10
0.0
 20
0.0
 30
0.0
  0
INSERT
  5
223
330
2066
100
AcDbEntity
  8
0
100
AcDbBlockReference
  2
*U85
 10
0.0
 20
0.0
 30
0.0
  0
INSERT
  5
224
330
2066
100
AcDbEntity
  8
0
100
AcDbBlockReference
  2
*U86
 10
0.0
 20
0.0
 30
0.0
  0
INSERT
  5
225
330
2066
100
AcDbEntity
  8
0
100
AcDbBlockReference
  2
*U87
 10
0.0
 20
0.0
 30
0.0
  0
INSERT
  5
226
330
2066
100
AcDbEntity
  8
0
100
AcDbBlockReference
  2
*U88
 10
0.0
 20
0.0
 30
0.0
  0
INSERT
  5
227
330
2066
100
AcDbEntity
  8
0
100
AcDbBlockReference
  2
*U89
 10
0.0
 20
0.0
 30
0.0
  0
INSERT
  5
228
330
2066
100
AcDbEntity
  8
0
100
AcDbBlockReference
  2
*U90
 10
0.0
 20
0.0
 30
0.0
  0
INSERT
  5
229
330
2066
100
AcDbEntity
  8
0
100
AcDbBlockReference
  2
*U91
 10
0.0
 20
0.0
 30
0.0
  0
INSERT
  5
22A
330
2066
100
AcDbEntity
  8
0
100
AcDbBlockReference
  2
*U92
 10
0.0
 20
0.0
 30
0.0
  0
INSERT
  5
22B
330
2066
100
AcDbEntity
  8
0
100
AcDbBlockReference
  2
*U93
 10
0.0
 20
0.0
 30
0.0
  0
INSERT
  5
22C
330
2066
100
AcDbEntity
  8
0
100
AcDbBlockReference
  2
*U94
 10
0.0
 20
0.0
 30
0.0
  0
INSERT
  5
22D
330
2066
100
AcDbEntity
  8
0
100
AcDbBlockReference
  2
*U95
 10
0.0
 20
0.0
 30
0.0
  0
INSERT
  5
22E
330
2066
100
AcDbEntity
  8
0
100
AcDbBlockReference
  2
*U96
 10
0.0
 20
0.0
 30
0.0
  0
INSERT
  5
22F
330
2066
100
AcDbEntity
  8
0
100
AcDbBlockReference
  2
*U97
 10
0.0
 20
0.0
 30
0.0
  0
INSERT
  5
230
330
2066
100
AcDbEntity
  8
0
100
AcDbBlockReference
  2
*U98
 10
0.0
 20
0.0
 30
0.0
  0
INSERT
  5
231
330
2066
100
AcDbEntity
  8
0
100
AcDbBlockReference
  2
*U99
 10
0.0
 20
0.0
 30
0.0
  0
INSERT
  5
232
330
2066
100
AcDbEntity
  8
0
100
AcDbBlockReference
  2
*U100
 10
0.0
 20
0.0
 30
0.0
  0
INSERT
  5
233
330
2066
100
AcDbEntity
  8
0
100
AcDbBlockReference
  2
*U101
 10
0.0
 20
0.0
 30
0.0
  0
INSERT
  5
234
330
2066
100
AcDbEntity
  8
0
100
AcDbBlockReference
  2
*U102
 10
0.0
 20
0.0
 30
0.0
  0
INSERT
  5
235
330
2066
100
AcDbEntity
  8
0
100
AcDbBlockReference
  2
*U103
 10
0.0
 20
0.0
 30
0.0
  0
INSERT
  5
236
330
2066
100
AcDbEntity
  8
0
100
AcDbBlockReference
  2
*U104
 10
0.0
 20
0.0
 30
0.0
  0
INSERT
  5
237
330
2066
100
AcDbEntity
  8
0
100
AcDbBlockReference
  2
*U105
 10
0.0
 20
0.0
 30
0.0
  0
INSERT
  5
238
330
2066
100
AcDbEntity
  8
0
100
AcDbBlockReference
  2
*U106
 10
0.0
 20
0.0
 30
0.0
  0
INSERT
  5
239
330
2066
100
AcDbEntity
  8
0
100
AcDbBlockReference
  2
*U107
 10
0.0
 20
0.0
 30
0.0
  0
INSERT
  5
23A
330
2066
100
AcDbEntity
  8
0
100
AcDbBlockReference
  2
*U108
 10
0.0
 20
0.0
 30
0.0
  0
INSERT
  5
23B
330
2066
100
AcDbEntity
  8
0
100
AcDbBlockReference
  2
*U109
 10
0.0
 20
0.0
 30
0.0
  0
INSERT
  5
23C
330
2066
100
AcDbEntity
  8
0
100
AcDbBlockReference
  2
*U110
 10
0.0
 20
0.0
 30
0.0
  0
INSERT
  5
23D
330
2066
100
AcDbEntity
  8
0
100
AcDbBlockReference
  2
*U111
 10
0.0
 20
0.0
 30
0.0
  0
INSERT
  5
23E
330
2066
100
AcDbEntity
  8
0
100
AcDbBlockReference
  2
*U112
 10
0.0
 20
0.0
 30
0.0
  0
INSERT
  5
23F
330
2066
100
AcDbEntity
  8
0
100
AcDbBlockReference
  2
*U113
 10
0.0
 20
0.0
 30
0.0
  0
INSERT
  5
240
330
2066
100
AcDbEntity
  8
0
100
AcDbBlockReference
  2
*U114
 10
0.0
 20
0.0
 30
0.0
  0
INSERT
  5
241
330
2066
100
AcDbEntity
  8
0
100
AcDbBlockReference
  2
*U115
 10
0.0
 20
0.0
 30
0.0
  0
ENDBLK
  5
1AF
330
2066
100
AcDbEntity
  8
0
100
AcDbBlockEnd
  0
BLOCK
  5
2067
330
2068
100
AcDbEntity
  8
0
100
AcDbBlockBegin
  2
*U8
 70
     1
 10
0.0
 20
0.0
 30
0.0
  3
*U8
  1

  0
TEXT
  5
1C41
330
2068
100
AcDbEntity
  8
0
 62
     0
100
AcDbText
 10
61.92190384574914
 20
-2.792952731871563
 30
-0.0000000000013579
 40
2.645833333333333
  1
Medžiagø specifikacija
 41
0.6630000000000001
  7
SLDTEXTSTYLE4
100
AcDbText
  0
ENDBLK
  5
1C43
330
2068
100
AcDbEntity
  8
0
100
AcDbBlockEnd
  0
BLOCK
  5
2069
330
206A
100
AcDbEntity
  8
0
100
AcDbBlockBegin
  2
*U9
 70
     1
 10
0.0
 20
0.0
 30
0.0
  3
*U9
  1

  0
TEXT
  5
1C45
330
206A
100
AcDbEntity
  8
0
 62
     0
100
AcDbText
 10
4.615741234272718
 20
-8.14461933458742
 30
-0.0000000000013579
 40
2.645833333333333
  1
Eil.Nr.
 41
0.6630000000000001
  7
SLDTEXTSTYLE3
100
AcDbText
  0
ENDBLK
  5
1C47
330
206A
100
AcDbEntity
  8
0
100
AcDbBlockEnd
  0
BLOCK
  5
206B
330
206C
100
AcDbEntity
  8
0
100
AcDbBlockBegin
  2
*U10
 70
     1
 10
0.0
 20
0.0
 30
0.0
  3
*U10
  1

  0
TEXT
  5
1C49
330
206C
100
AcDbEntity
  8
0
 62
     0
100
AcDbText
 10
28.31626593855841
 20
-8.14461933458742
 30
-0.0000000000013579
 40
2.645833333333333
  1
Pavadinimas
 41
0.6630000000000001
  7
SLDTEXTSTYLE3
100
AcDbText
  0
ENDBLK
  5
1C4B
330
206C
100
AcDbEntity
  8
0
100
AcDbBlockEnd
  0
BLOCK
  5
206D
330
206E
100
AcDbEntity
  8
0
100
AcDbBlockBegin
  2
*U11
 70
     1
 10
0.0
 20
0.0
 30
0.0
  3
*U11
  1

  0
TEXT
  5
1C4D
330
206E
100
AcDbEntity
  8
0
 62
     0
100
AcDbText
 10
59.39986118101924
 20
-8.14461933458742
 30
-0.0000000000013579
 40
2.645833333333333
  1
Kodas/Gamintojas
 41
0.6630000000000001
  7
SLDTEXTSTYLE3
100
AcDbText
  0
ENDBLK
  5
1C4F
330
206E
100
AcDbEntity
  8
0
100
AcDbBlockEnd
  0
BLOCK
  5
206F
330
2070
100
AcDbEntity
  8
0
100
AcDbBlockBegin
  2
*U12
 70
     1
 10
0.0
 20
0.0
 30
0.0
  3
*U12
  1

  0
TEXT
  5
1C51
330
2070
100
AcDbEntity
  8
0
 62
     0
100
AcDbText
 10
93.74998115266881
 20
-8.14461933458742
 30
-0.0000000000013579
 40
2.645833333333333
  1
Medžiaga
 41
0.6630000000000001
  7
SLDTEXTSTYLE4
100
AcDbText
  0
ENDBLK
  5
1C53
330
2070
100
AcDbEntity
  8
0
100
AcDbBlockEnd
  0
BLOCK
  5
2071
330
2072
100
AcDbEntity
  8
0
100
AcDbBlockBegin
  2
*U13
 70
     1
 10
0.0
 20
0.0
 30
0.0
  3
*U13
  1

  0
TEXT
  5
1C55
330
2072
100
AcDbEntity
  8
0
 62
     0
100
AcDbText
 10
112.877001117774
 20
-6.380730467015468
 30
-0.0000000000013579
 40
2.645833333333333
  1
Storis 
 41
0.6630000000000001
  7
SLDTEXTSTYLE3
100
AcDbText
  0
ENDBLK
  5
1C57
330
2072
100
AcDbEntity
  8
0
100
AcDbBlockEnd
  0
BLOCK
  5
2073
330
2074
100
AcDbEntity
  8
0
100
AcDbBlockBegin
  2
*U14
 70
     1
 10
0.0
 20
0.0
 30
0.0
  3
*U14
  1

  0
TEXT
  5
1C59
330
2074
100
AcDbEntity
  8
0
 62
     0
100
AcDbText
 10
113.0729886403761
 20
-9.908508202159368
 30
-0.0000000000013579
 40
2.645833333333333
  1
(mm)
 41
0.6630000000000001
  7
SLDTEXTSTYLE3
100
AcDbText
  0
ENDBLK
  5
1C5B
330
2074
100
AcDbEntity
  8
0
100
AcDbBlockEnd
  0
BLOCK
  5
2075
330
2076
100
AcDbEntity
  8
0
100
AcDbBlockBegin
  2
*U15
 70
     1
 10
0.0
 20
0.0
 30
0.0
  3
*U15
  1

  0
TEXT
  5
1C5D
330
2076
100
AcDbEntity
  8
0
 62
     0
100
AcDbText
 10
122.3339495295549
 20
-6.380730467015468
 30
-0.0000000000013579
 40
2.645833333333333
  1
Kiekis 
 41
0.6630000000000001
  7
SLDTEXTSTYLE3
100
AcDbText
  0
ENDBLK
  5
1C5F
330
2076
100
AcDbEntity
  8
0
100
AcDbBlockEnd
  0
BLOCK
  5
2077
330
2078
100
AcDbEntity
  8
0
100
AcDbBlockBegin
  2
*U16
 70
     1
 10
0.0
 20
0.0
 30
0.0
  3
*U16
  1

  0
TEXT
  5
1C61
330
2078
100
AcDbEntity
  8
0
 62
     0
100
AcDbText
 10
123.50987559649
 20
-9.908508202159368
 30
-0.0000000000013579
 40
2.645833333333333
  1
(vnt)
 41
0.6630000000000001
  7
SLDTEXTSTYLE3
100
AcDbText
  0
ENDBLK
  5
1C63
330
2078
100
AcDbEntity
  8
0
100
AcDbBlockEnd
  0
BLOCK
  5
2079
330
207A
100
AcDbEntity
  8
0
100
AcDbBlockBegin
  2
*U17
 70
     1
 10
0.0
 20
0.0
 30
0.0
  3
*U17
  1

  0
TEXT
  5
1C65
330
207A
100
AcDbEntity
  8
0
 62
     0
100
AcDbText
 10
133.9372118159583
 20
-6.380730467015468
 30
-0.0000000000013579
 40
2.645833333333333
  1
Bendras plotas 
 41
0.6630000000000001
  7
SLDTEXTSTYLE3
100
AcDbText
  0
ENDBLK
  5
1C67
330
207A
100
AcDbEntity
  8
0
100
AcDbBlockEnd
  0
BLOCK
  5
207B
330
207C
100
AcDbEntity
  8
0
100
AcDbBlockBegin
  2
*U18
 70
     1
 10
0.0
 20
0.0
 30
0.0
  3
*U18
  1

  0
TEXT
  5
1C69
330
207C
100
AcDbEntity
  8
0
 62
     0
100
AcDbText
 10
140.1157231226018
 20
-9.908508202159368
 30
-0.0000000000013579
 40
2.645833333333333
  1
(m^ 2)
 41
0.6630000000000001
  7
SLDTEXTSTYLE3
100
AcDbText
  0
ENDBLK
  5
1C6B
330
207C
100
AcDbEntity
  8
0
100
AcDbBlockEnd
  0
BLOCK
  5
207D
330
207E
100
AcDbEntity
  8
0
100
AcDbBlockBegin
  2
*U19
 70
     1
 10
0.0
 20
0.0
 30
0.0
  3
*U19
  1

  0
TEXT
  5
1C6D
330
207E
100
AcDbEntity
  8
0
 62
     0
100
AcDbText
 10
8.535494305659086
 20
-14.01503047129156
 30
-0.0000000000013579
 40
2.645833333333333
  1
1
 41
0.6630000000000001
  7
SLDTEXTSTYLE3
100
AcDbText
  0
ENDBLK
  5
1C6F
330
207E
100
AcDbEntity
  8
0
100
AcDbBlockEnd
  0
BLOCK
  5
207F
330
2080
100
AcDbEntity
  8
0
100
AcDbBlockBegin
  2
*U20
 70
     1
 10
0.0
 20
0.0
 30
0.0
  3
*U20
  1

  0
TEXT
  5
1C71
330
2080
100
AcDbEntity
  8
0
 62
     0
100
AcDbText
 10
31.94203696934206
 20
-14.01503047129156
 30
-0.0000000000013579
 40
2.645833333333333
  1
Dugnas
 41
0.6630000000000001
  7
SLDTEXTSTYLE3
100
AcDbText
  0
ENDBLK
  5
1C73
330
2080
100
AcDbEntity
  8
0
100
AcDbBlockEnd
  0
BLOCK
  5
2081
330
2082
100
AcDbEntity
  8
0
100
AcDbBlockBegin
  2
*U21
 70
     1
 10
0.0
 20
0.0
 30
0.0
  3
*U21
  1

  0
TEXT
  5
1C75
330
2082
100
AcDbEntity
  8
0
 62
     0
100
AcDbText
 10
64.5935342552647
 20
-14.01503047129156
 30
-0.0000000000013579
 40
2.645833333333333
  1
26.62.0.0.1
 41
0.6630000000000001
  7
SLDTEXTSTYLE3
100
AcDbText
  0
ENDBLK
  5
1C77
330
2082
100
AcDbEntity
  8
0
100
AcDbBlockEnd
  0
BLOCK
  5
2083
330
2084
100
AcDbEntity
  8
0
100
AcDbBlockBegin
  2
*U22
 70
     1
 10
0.0
 20
0.0
 30
0.0
  3
*U22
  1

  0
TEXT
  5
1C79
330
2084
100
AcDbEntity
  8
0
 62
     0
100
AcDbText
 10
89.9625176217707
 20
-14.01503047129156
 30
-0.0000000000013579
 40
2.645833333333333
  1
DX51 D+Z275
 41
0.6630000000000001
  7
SLDTEXTSTYLE3
100
AcDbText
  0
ENDBLK
  5
1C7B
330
2084
100
AcDbEntity
  8
0
100
AcDbBlockEnd
  0
BLOCK
  5
2085
330
2086
100
AcDbEntity
  8
0
100
AcDbBlockBegin
  2
*U23
 70
     1
 10
0.0
 20
0.0
 30
0.0
  3
*U23
  1

  0
TEXT
  5
1C7D
330
2086
100
AcDbEntity
  8
0
 62
     0
100
AcDbText
 10
116.1107973943918
 20
-14.01503047129156
 30
-0.0000000000013579
 40
2.645833333333333
  1
1
 41
0.6630000000000001
  7
SLDTEXTSTYLE3
100
AcDbText
  0
ENDBLK
  5
1C7F
330
2086
100
AcDbEntity
  8
0
100
AcDbBlockEnd
  0
BLOCK
  5
2087
330
2088
100
AcDbEntity
  8
0
100
AcDbBlockBegin
  2
*U24
 70
     1
 10
0.0
 20
0.0
 30
0.0
  3
*U24
  1

  0
TEXT
  5
1C81
330
2088
100
AcDbEntity
  8
0
 62
     0
100
AcDbText
 10
126.0577150783392
 20
-14.01503047129156
 30
-0.0000000000013579
 40
2.645833333333333
  1
1
 41
0.6630000000000001
  7
SLDTEXTSTYLE3
100
AcDbText
  0
ENDBLK
  5
1C83
330
2088
100
AcDbEntity
  8
0
100
AcDbBlockEnd
  0
BLOCK
  5
2089
330
208A
100
AcDbEntity
  8
0
100
AcDbBlockBegin
  2
*U25
 70
     1
 10
0.0
 20
0.0
 30
0.0
  3
*U25
  1

  0
TEXT
  5
1C85
330
208A
100
AcDbEntity
  8
0
 62
     0
100
AcDbText
 10
140.4048047184399
 20
-14.01503047129156
 30
-0.0000000000013579
 40
2.645833333333333
  1
0,467
 41
0.6630000000000001
  7
SLDTEXTSTYLE3
100
AcDbText
  0
ENDBLK
  5
1C87
330
208A
100
AcDbEntity
  8
0
100
AcDbBlockEnd
  0
BLOCK
  5
208B
330
208C
100
AcDbEntity
  8
0
100
AcDbBlockBegin
  2
*U26
 70
     1
 10
0.0
 20
0.0
 30
0.0
  3
*U26
  1

  0
TEXT
  5
1C89
330
208C
100
AcDbEntity
  8
0
 62
     0
100
AcDbText
 10
8.535494305659086
 20
-18.64029727441203
 30
-0.0000000000013579
 40
2.645833333333333
  1
2
 41
0.6630000000000001
  7
SLDTEXTSTYLE3
100
AcDbText
  0
ENDBLK
  5
1C8B
330
208C
100
AcDbEntity
  8
0
100
AcDbBlockEnd
  0
BLOCK
  5
208D
330
208E
100
AcDbEntity
  8
0
100
AcDbBlockBegin
  2
*U27
 70
     1
 10
0.0
 20
0.0
 30
0.0
  3
*U27
  1

  0
TEXT
  5
1C8D
330
208E
100
AcDbEntity
  8
0
 62
     0
100
AcDbText
 10
23.1225910016678
 20
-18.64029727441203
 30
-0.0000000000013579
 40
2.645833333333333
  1
Šonas dešinës pusës
 41
0.6630000000000001
  7
SLDTEXTSTYLE4
100
AcDbText
  0
ENDBLK
  5
1C8F
330
208E
100
AcDbEntity
  8
0
100
AcDbBlockEnd
  0
BLOCK
  5
208F
330
2090
100
AcDbEntity
  8
0
100
AcDbBlockBegin
  2
*U28
 70
     1
 10
0.0
 20
0.0
 30
0.0
  3
*U28
  1

  0
TEXT
  5
1C91
330
2090
100
AcDbEntity
  8
0
 62
     0
100
AcDbText
 10
62.24168212139457
 20
-18.64029727441203
 30
-0.0000000000013579
 40
2.645833333333333
  1
26.62.0.0.2-1k
 41
0.6630000000000001
  7
SLDTEXTSTYLE3
100
AcDbText
  0
ENDBLK
  5
1C93
330
2090
100
AcDbEntity
  8
0
100
AcDbBlockEnd
  0
BLOCK
  5
2091
330
2092
100
AcDbEntity
  8
0
100
AcDbBlockBegin
  2
*U29
 70
     1
 10
0.0
 20
0.0
 30
0.0
  3
*U29
  1

  0
TEXT
  5
1C95
330
2092
100
AcDbEntity
  8
0
 62
     0
100
AcDbText
 10
89.9625176217707
 20
-18.64029727441203
 30
-0.0000000000013579
 40
2.645833333333333
  1
DX51 D+Z275
 41
0.6630000000000001
  7
SLDTEXTSTYLE3
100
AcDbText
  0
ENDBLK
  5
1C97
330
2092
100
AcDbEntity
  8
0
100
AcDbBlockEnd
  0
BLOCK
  5
2093
330
2094
100
AcDbEntity
  8
0
100
AcDbBlockBegin
  2
*U30
 70
     1
 10
0.0
 20
0.0
 30
0.0
  3
*U30
  1

  0
TEXT
  5
1C99
330
2094
100
AcDbEntity
  8
0
 62
     0
100
AcDbText
 10
116.1107973943918
 20
-18.64029727441203
 30
-0.0000000000013579
 40
2.645833333333333
  1
1
 41
0.6630000000000001
  7
SLDTEXTSTYLE3
100
AcDbText
  0
ENDBLK
  5
1C9B
330
2094
100
AcDbEntity
  8
0
100
AcDbBlockEnd
  0
BLOCK
  5
2095
330
2096
100
AcDbEntity
  8
0
100
AcDbBlockBegin
  2
*U31
 70
     1
 10
0.0
 20
0.0
 30
0.0
  3
*U31
  1

  0
TEXT
  5
1C9D
330
2096
100
AcDbEntity
  8
0
 62
     0
100
AcDbText
 10
126.0577150783392
 20
-18.64029727441203
 30
-0.0000000000013579
 40
2.645833333333333
  1
1
 41
0.6630000000000001
  7
SLDTEXTSTYLE3
100
AcDbText
  0
ENDBLK
  5
1C9F
330
2096
100
AcDbEntity
  8
0
100
AcDbBlockEnd
  0
BLOCK
  5
2097
330
2098
100
AcDbEntity
  8
0
100
AcDbBlockBegin
  2
*U32
 70
     1
 10
0.0
 20
0.0
 30
0.0
  3
*U32
  1

  0
TEXT
  5
1CA1
330
2098
100
AcDbEntity
  8
0
 62
     0
100
AcDbText
 10
141.2867490358104
 20
-18.64029727441203
 30
-0.0000000000013579
 40
2.645833333333333
  1
0,28
 41
0.6630000000000001
  7
SLDTEXTSTYLE3
100
AcDbText
  0
ENDBLK
  5
1CA3
330
2098
100
AcDbEntity
  8
0
100
AcDbBlockEnd
  0
BLOCK
  5
2099
330
209A
100
AcDbEntity
  8
0
100
AcDbBlockBegin
  2
*U33
 70
     1
 10
0.0
 20
0.0
 30
0.0
  3
*U33
  1

  0
TEXT
  5
1CA5
330
209A
100
AcDbEntity
  8
0
 62
     0
100
AcDbText
 10
8.535494305659086
 20
-23.60078218004069
 30
-0.0000000000013579
 40
2.645833333333333
  1
3
 41
0.6630000000000001
  7
SLDTEXTSTYLE3
100
AcDbText
  0
ENDBLK
  5
1CA7
330
209A
100
AcDbEntity
  8
0
100
AcDbBlockEnd
  0
BLOCK
  5
209B
330
209C
100
AcDbEntity
  8
0
100
AcDbBlockBegin
  2
*U34
 70
     1
 10
0.0
 20
0.0
 30
0.0
  3
*U34
  1

  0
TEXT
  5
1CA9
330
209C
100
AcDbEntity
  8
0
 62
     0
100
AcDbText
 10
24.10253047732336
 20
-23.60078218004069
 30
-0.0000000000013579
 40
2.645833333333333
  1
Šonas kairës ousës
 41
0.6630000000000001
  7
SLDTEXTSTYLE4
100
AcDbText
  0
ENDBLK
  5
1CAB
330
209C
100
AcDbEntity
  8
0
100
AcDbBlockEnd
  0
BLOCK
  5
209D
330
209E
100
AcDbEntity
  8
0
100
AcDbBlockBegin
  2
*U35
 70
     1
 10
0.0
 20
0.0
 30
0.0
  3
*U35
  1

  0
TEXT
  5
1CAD
330
209E
100
AcDbEntity
  8
0
 62
     0
100
AcDbText
 10
62.24168212139457
 20
-23.60078218004071
 30
-0.0000000000013579
 40
2.645833333333333
  1
26.62.0.0.3-3k
 41
0.6630000000000001
  7
SLDTEXTSTYLE3
100
AcDbText
  0
ENDBLK
  5
1CAF
330
209E
100
AcDbEntity
  8
0
100
AcDbBlockEnd
  0
BLOCK
  5
209F
330
20A0
100
AcDbEntity
  8
0
100
AcDbBlockBegin
  2
*U36
 70
     1
 10
0.0
 20
0.0
 30
0.0
  3
*U36
  1

  0
TEXT
  5
1CB1
330
20A0
100
AcDbEntity
  8
0
 62
     0
100
AcDbText
 10
89.9625176217707
 20
-23.60078218004069
 30
-0.0000000000013579
 40
2.645833333333333
  1
DX51 D+Z275
 41
0.6630000000000001
  7
SLDTEXTSTYLE3
100
AcDbText
  0
ENDBLK
  5
1CB3
330
20A0
100
AcDbEntity
  8
0
100
AcDbBlockEnd
  0
BLOCK
  5
20A1
330
20A2
100
AcDbEntity
  8
0
100
AcDbBlockBegin
  2
*U37
 70
     1
 10
0.0
 20
0.0
 30
0.0
  3
*U37
  1

  0
TEXT
  5
1CB5
330
20A2
100
AcDbEntity
  8
0
 62
     0
100
AcDbText
 10
116.1107973943918
 20
-23.60078218004069
 30
-0.0000000000013579
 40
2.645833333333333
  1
1
 41
0.6630000000000001
  7
SLDTEXTSTYLE3
100
AcDbText
  0
ENDBLK
  5
1CB7
330
20A2
100
AcDbEntity
  8
0
100
AcDbBlockEnd
  0
BLOCK
  5
20A3
330
20A4
100
AcDbEntity
  8
0
100
AcDbBlockBegin
  2
*U38
 70
     1
 10
0.0
 20
0.0
 30
0.0
  3
*U38
  1

  0
TEXT
  5
1CB9
330
20A4
100
AcDbEntity
  8
0
 62
     0
100
AcDbText
 10
126.0577150783392
 20
-23.60078218004069
 30
-0.0000000000013579
 40
2.645833333333333
  1
1
 41
0.6630000000000001
  7
SLDTEXTSTYLE3
100
AcDbText
  0
ENDBLK
  5
1CBB
330
20A4
100
AcDbEntity
  8
0
100
AcDbBlockEnd
  0
BLOCK
  5
20A5
330
20A6
100
AcDbEntity
  8
0
100
AcDbBlockBegin
  2
*U39
 70
     1
 10
0.0
 20
0.0
 30
0.0
  3
*U39
  1

  0
TEXT
  5
1CBD
330
20A6
100
AcDbEntity
  8
0
 62
     0
100
AcDbText
 10
141.2867490358104
 20
-23.60078218004069
 30
-0.0000000000013579
 40
2.645833333333333
  1
0,28
 41
0.6630000000000001
  7
SLDTEXTSTYLE3
100
AcDbText
  0
ENDBLK
  5
1CBF
330
20A6
100
AcDbEntity
  8
0
100
AcDbBlockEnd
  0
BLOCK
  5
20A7
330
20A8
100
AcDbEntity
  8
0
100
AcDbBlockBegin
  2
*U40
 70
     1
 10
0.0
 20
0.0
 30
0.0
  3
*U40
  1

  0
TEXT
  5
1CC1
330
20A8
100
AcDbEntity
  8
0
 62
     0
100
AcDbText
 10
8.535494305659086
 20
-28.22604898316118
 30
-0.0000000000013579
 40
2.645833333333333
  1
4
 41
0.6630000000000001
  7
SLDTEXTSTYLE3
100
AcDbText
  0
ENDBLK
  5
1CC3
330
20A8
100
AcDbEntity
  8
0
100
AcDbBlockEnd
  0
BLOCK
  5
20A9
330
20AA
100
AcDbEntity
  8
0
100
AcDbBlockBegin
  2
*U41
 70
     1
 10
0.0
 20
0.0
 30
0.0
  3
*U41
  1

  0
TEXT
  5
1CC5
330
20AA
100
AcDbEntity
  8
0
 62
     0
100
AcDbText
 10
31.45206769717557
 20
-28.22604898316118
 30
-0.0000000000013579
 40
2.645833333333333
  1
Pertvara
 41
0.6630000000000001
  7
SLDTEXTSTYLE3
100
AcDbText
  0
ENDBLK
  5
1CC7
330
20AA
100
AcDbEntity
  8
0
100
AcDbBlockEnd
  0
BLOCK
  5
20AB
330
20AC
100
AcDbEntity
  8
0
100
AcDbBlockBegin
  2
*U42
 70
     1
 10
0.0
 20
0.0
 30
0.0
  3
*U42
  1

  0
TEXT
  5
1CC9
330
20AC
100
AcDbEntity
  8
0
 62
     0
100
AcDbText
 10
62.24168212139457
 20
-28.22604898316118
 30
-0.0000000000013579
 40
2.645833333333333
  1
26.62.0.0.4-1k
 41
0.6630000000000001
  7
SLDTEXTSTYLE3
100
AcDbText
  0
ENDBLK
  5
1CCB
330
20AC
100
AcDbEntity
  8
0
100
AcDbBlockEnd
  0
BLOCK
  5
20AD
330
20AE
100
AcDbEntity
  8
0
100
AcDbBlockBegin
  2
*U43
 70
     1
 10
0.0
 20
0.0
 30
0.0
  3
*U43
  1

  0
TEXT
  5
1CCD
330
20AE
100
AcDbEntity
  8
0
 62
     0
100
AcDbText
 10
89.9625176217707
 20
-28.22604898316118
 30
-0.0000000000013579
 40
2.645833333333333
  1
DX54 D+Z275
 41
0.6630000000000001
  7
SLDTEXTSTYLE3
100
AcDbText
  0
ENDBLK
  5
1CCF
330
20AE
100
AcDbEntity
  8
0
100
AcDbBlockEnd
  0
BLOCK
  5
20AF
330
20B0
100
AcDbEntity
  8
0
100
AcDbBlockBegin
  2
*U44
 70
     1
 10
0.0
 20
0.0
 30
0.0
  3
*U44
  1

  0
TEXT
  5
1CD1
330
20B0
100
AcDbEntity
  8
0
 62
     0
100
AcDbText
 10
116.1107973943918
 20
-28.22604898316118
 30
-0.0000000000013579
 40
2.645833333333333
  1
1
 41
0.6630000000000001
  7
SLDTEXTSTYLE3
100
AcDbText
  0
ENDBLK
  5
1CD3
330
20B0
100
AcDbEntity
  8
0
100
AcDbBlockEnd
  0
BLOCK
  5
20B1
330
20B2
100
AcDbEntity
  8
0
100
AcDbBlockBegin
  2
*U45
 70
     1
 10
0.0
 20
0.0
 30
0.0
  3
*U45
  1

  0
TEXT
  5
1CD5
330
20B2
100
AcDbEntity
  8
0
 62
     0
100
AcDbText
 10
126.0577150783392
 20
-28.22604898316118
 30
-0.0000000000013579
 40
2.645833333333333
  1
1
 41
0.6630000000000001
  7
SLDTEXTSTYLE3
100
AcDbText
  0
ENDBLK
  5
1CD7
330
20B2
100
AcDbEntity
  8
0
100
AcDbBlockEnd
  0
BLOCK
  5
20B3
330
20B4
100
AcDbEntity
  8
0
100
AcDbBlockBegin
  2
*U46
 70
     1
 10
0.0
 20
0.0
 30
0.0
  3
*U46
  1

  0
TEXT
  5
1CD9
330
20B4
100
AcDbEntity
  8
0
 62
     0
100
AcDbText
 10
140.4048047184399
 20
-28.22604898316118
 30
-0.0000000000013579
 40
2.645833333333333
  1
0,583
 41
0.6630000000000001
  7
SLDTEXTSTYLE3
100
AcDbText
  0
ENDBLK
  5
1CDB
330
20B4
100
AcDbEntity
  8
0
100
AcDbBlockEnd
  0
BLOCK
  5
20B5
330
20B6
100
AcDbEntity
  8
0
100
AcDbBlockBegin
  2
*U47
 70
     1
 10
0.0
 20
0.0
 30
0.0
  3
*U47
  1

  0
TEXT
  5
1CDD
330
20B6
100
AcDbEntity
  8
0
 62
     0
100
AcDbText
 10
8.535494305659086
 20
-32.51609768377345
 30
-0.0000000000013579
 40
2.645833333333333
  1
5
 41
0.6630000000000001
  7
SLDTEXTSTYLE3
100
AcDbText
  0
ENDBLK
  5
1CDF
330
20B6
100
AcDbEntity
  8
0
100
AcDbBlockEnd
  0
BLOCK
  5
20B7
330
20B8
100
AcDbEntity
  8
0
100
AcDbBlockBegin
  2
*U48
 70
     1
 10
0.0
 20
0.0
 30
0.0
  3
*U48
  1

  0
TEXT
  5
1CE1
330
20B8
100
AcDbEntity
  8
0
 62
     0
100
AcDbText
 10
32.82398128671272
 20
-32.51609768377345
 30
-0.0000000000013579
 40
2.645833333333333
  1
Sraigë
 41
0.6630000000000001
  7
SLDTEXTSTYLE4
100
AcDbText
  0
ENDBLK
  5
1CE3
330
20B8
100
AcDbEntity
  8
0
100
AcDbBlockEnd
  0
BLOCK
  5
20B9
330
20BA
100
AcDbEntity
  8
0
100
AcDbBlockBegin
  2
*U49
 70
     1
 10
0.0
 20
0.0
 30
0.0
  3
*U49
  1

  0
TEXT
  5
1CE5
330
20BA
100
AcDbEntity
  8
0
 62
     0
100
AcDbText
 10
62.24168212139457
 20
-32.51609768377345
 30
-0.0000000000013579
 40
2.645833333333333
  1
26.62.0.0.5-2k
 41
0.6630000000000001
  7
SLDTEXTSTYLE3
100
AcDbText
  0
ENDBLK
  5
1CE7
330
20BA
100
AcDbEntity
  8
0
100
AcDbBlockEnd
  0
BLOCK
  5
20BB
330
20BC
100
AcDbEntity
  8
0
100
AcDbBlockBegin
  2
*U50
 70
     1
 10
0.0
 20
0.0
 30
0.0
  3
*U50
  1

  0
TEXT
  5
1CE9
330
20BC
100
AcDbEntity
  8
0
 62
     0
100
AcDbText
 10
89.9625176217707
 20
-32.51609768377345
 30
-0.0000000000013579
 40
2.645833333333333
  1
DX51 D+Z275
 41
0.6630000000000001
  7
SLDTEXTSTYLE3
100
AcDbText
  0
ENDBLK
  5
1CEB
330
20BC
100
AcDbEntity
  8
0
100
AcDbBlockEnd
  0
BLOCK
  5
20BD
330
20BE
100
AcDbEntity
  8
0
100
AcDbBlockBegin
  2
*U51
 70
     1
 10
0.0
 20
0.0
 30
0.0
  3
*U51
  1

  0
TEXT
  5
1CED
330
20BE
100
AcDbEntity
  8
0
 62
     0
100
AcDbText
 10
114.7878806272975
 20
-32.51609768377345
 30
-0.0000000000013579
 40
2.645833333333333
  1
0.7
 41
0.6630000000000001
  7
SLDTEXTSTYLE3
100
AcDbText
  0
ENDBLK
  5
1CEF
330
20BE
100
AcDbEntity
  8
0
100
AcDbBlockEnd
  0
BLOCK
  5
20BF
330
20C0
100
AcDbEntity
  8
0
100
AcDbBlockBegin
  2
*U52
 70
     1
 10
0.0
 20
0.0
 30
0.0
  3
*U52
  1

  0
TEXT
  5
1CF1
330
20C0
100
AcDbEntity
  8
0
 62
     0
100
AcDbText
 10
126.0577150783392
 20
-32.51609768377345
 30
-0.0000000000013579
 40
2.645833333333333
  1
1
 41
0.6630000000000001
  7
SLDTEXTSTYLE3
100
AcDbText
  0
ENDBLK
  5
1CF3
330
20C0
100
AcDbEntity
  8
0
100
AcDbBlockEnd
  0
BLOCK
  5
20C1
330
20C2
100
AcDbEntity
  8
0
100
AcDbBlockBegin
  2
*U53
 70
     1
 10
0.0
 20
0.0
 30
0.0
  3
*U53
  1

  0
TEXT
  5
1CF5
330
20C2
100
AcDbEntity
  8
0
 62
     0
100
AcDbText
 10
140.4048047184399
 20
-32.51609768377345
 30
-0.0000000000013579
 40
2.645833333333333
  1
0,315
 41
0.6630000000000001
  7
SLDTEXTSTYLE3
100
AcDbText
  0
ENDBLK
  5
1CF7
330
20C2
100
AcDbEntity
  8
0
100
AcDbBlockEnd
  0
BLOCK
  5
20C3
330
20C4
100
AcDbEntity
  8
0
100
AcDbBlockBegin
  2
*U54
 70
     1
 10
0.0
 20
0.0
 30
0.0
  3
*U54
  1

  0
TEXT
  5
1CF9
330
20C4
100
AcDbEntity
  8
0
 62
     0
100
AcDbText
 10
8.535494305659086
 20
-37.47658258940215
 30
-0.0000000000013579
 40
2.645833333333333
  1
6
 41
0.6630000000000001
  7
SLDTEXTSTYLE3
100
AcDbText
  0
ENDBLK
  5
1CFB
330
20C4
100
AcDbEntity
  8
0
100
AcDbBlockEnd
  0
BLOCK
  5
20C5
330
20C6
100
AcDbEntity
  8
0
100
AcDbBlockBegin
  2
*U55
 70
     1
 10
0.0
 20
0.0
 30
0.0
  3
*U55
  1

  0
TEXT
  5
1CFD
330
20C6
100
AcDbEntity
  8
0
 62
     0
100
AcDbText
 10
32.72598752541167
 20
-37.47658258940215
 30
-0.0000000000013579
 40
2.645833333333333
  1
Viršus
 41
0.6630000000000001
  7
SLDTEXTSTYLE4
100
AcDbText
  0
ENDBLK
  5
1CFF
330
20C6
100
AcDbEntity
  8
0
100
AcDbBlockEnd
  0
BLOCK
  5
20C7
330
20C8
100
AcDbEntity
  8
0
100
AcDbBlockBegin
  2
*U56
 70
     1
 10
0.0
 20
0.0
 30
0.0
  3
*U56
  1

  0
TEXT
  5
1D01
330
20C8
100
AcDbEntity
  8
0
 62
     0
100
AcDbText
 10
62.24168212139457
 20
-37.47658258940215
 30
-0.0000000000013579
 40
2.645833333333333
  1
26.62.0.0.6-1k
 41
0.6630000000000001
  7
SLDTEXTSTYLE3
100
AcDbText
  0
ENDBLK
  5
1D03
330
20C8
100
AcDbEntity
  8
0
100
AcDbBlockEnd
  0
BLOCK
  5
20C9
330
20CA
100
AcDbEntity
  8
0
100
AcDbBlockBegin
  2
*U57
 70
     1
 10
0.0
 20
0.0
 30
0.0
  3
*U57
  1

  0
TEXT
  5
1D05
330
20CA
100
AcDbEntity
  8
0
 62
     0
100
AcDbText
 10
89.9625176217707
 20
-37.47658258940215
 30
-0.0000000000013579
 40
2.645833333333333
  1
DX51 D+Z275
 41
0.6630000000000001
  7
SLDTEXTSTYLE3
100
AcDbText
  0
ENDBLK
  5
1D07
330
20CA
100
AcDbEntity
  8
0
100
AcDbBlockEnd
  0
BLOCK
  5
20CB
330
20CC
100
AcDbEntity
  8
0
100
AcDbBlockBegin
  2
*U58
 70
     1
 10
0.0
 20
0.0
 30
0.0
  3
*U58
  1

  0
TEXT
  5
1D09
330
20CC
100
AcDbEntity
  8
0
 62
     0
100
AcDbText
 10
116.1107973943918
 20
-37.47658258940215
 30
-0.0000000000013579
 40
2.645833333333333
  1
1
 41
0.6630000000000001
  7
SLDTEXTSTYLE3
100
AcDbText
  0
ENDBLK
  5
1D0B
330
20CC
100
AcDbEntity
  8
0
100
AcDbBlockEnd
  0
BLOCK
  5
20CD
330
20CE
100
AcDbEntity
  8
0
100
AcDbBlockBegin
  2
*U59
 70
     1
 10
0.0
 20
0.0
 30
0.0
  3
*U59
  1

  0
TEXT
  5
1D0D
330
20CE
100
AcDbEntity
  8
0
 62
     0
100
AcDbText
 10
126.0577150783392
 20
-37.47658258940215
 30
-0.0000000000013579
 40
2.645833333333333
  1
1
 41
0.6630000000000001
  7
SLDTEXTSTYLE3
100
AcDbText
  0
ENDBLK
  5
1D0F
330
20CE
100
AcDbEntity
  8
0
100
AcDbBlockEnd
  0
BLOCK
  5
20CF
330
20D0
100
AcDbEntity
  8
0
100
AcDbBlockBegin
  2
*U60
 70
     1
 10
0.0
 20
0.0
 30
0.0
  3
*U60
  1

  0
TEXT
  5
1D11
330
20D0
100
AcDbEntity
  8
0
 62
     0
100
AcDbText
 10
140.4048047184399
 20
-37.47658258940215
 30
-0.0000000000013579
 40
2.645833333333333
  1
0,467
 41
0.6630000000000001
  7
SLDTEXTSTYLE3
100
AcDbText
  0
ENDBLK
  5
1D13
330
20D0
100
AcDbEntity
  8
0
100
AcDbBlockEnd
  0
BLOCK
  5
20D1
330
20D2
100
AcDbEntity
  8
0
100
AcDbBlockBegin
  2
*U61
 70
     1
 10
0.0
 20
0.0
 30
0.0
  3
*U61
  1

  0
TEXT
  5
1D15
330
20D2
100
AcDbEntity
  8
0
 62
     0
100
AcDbText
 10
8.535494305659086
 20
-43.01177562359807
 30
-0.0000000000013579
 40
2.645833333333333
  1
7
 41
0.6630000000000001
  7
SLDTEXTSTYLE3
100
AcDbText
  0
ENDBLK
  5
1D17
330
20D2
100
AcDbEntity
  8
0
100
AcDbBlockEnd
  0
BLOCK
  5
20D3
330
20D4
100
AcDbEntity
  8
0
100
AcDbBlockBegin
  2
*U62
 70
     1
 10
0.0
 20
0.0
 30
0.0
  3
*U62
  1

  0
TEXT
  5
1D19
330
20D4
100
AcDbEntity
  8
0
 62
     0
100
AcDbText
 10
28.51225346116049
 20
-43.01177562359807
 30
-0.0000000000013579
 40
2.645833333333333
  1
Kreipenèioji
 41
0.6630000000000001
  7
SLDTEXTSTYLE4
100
AcDbText
  0
ENDBLK
  5
1D1B
330
20D4
100
AcDbEntity
  8
0
100
AcDbBlockEnd
  0
BLOCK
  5
20D5
330
20D6
100
AcDbEntity
  8
0
100
AcDbBlockBegin
  2
*U63
 70
     1
 10
0.0
 20
0.0
 30
0.0
  3
*U63
  1

  0
TEXT
  5
1D1D
330
20D6
100
AcDbEntity
  8
0
 62
     0
100
AcDbText
 10
64.5935342552647
 20
-43.01177562359807
 30
-0.0000000000013579
 40
2.645833333333333
  1
26.62.0.0.7
 41
0.6630000000000001
  7
SLDTEXTSTYLE3
100
AcDbText
  0
ENDBLK
  5
1D1F
330
20D6
100
AcDbEntity
  8
0
100
AcDbBlockEnd
  0
BLOCK
  5
20D7
330
20D8
100
AcDbEntity
  8
0
100
AcDbBlockBegin
  2
*U64
 70
     1
 10
0.0
 20
0.0
 30
0.0
  3
*U64
  1

  0
TEXT
  5
1D21
330
20D8
100
AcDbEntity
  8
0
 62
     0
100
AcDbText
 10
89.9625176217707
 20
-43.01177562359807
 30
-0.0000000000013579
 40
2.645833333333333
  1
DX51 D+Z275
 41
0.6630000000000001
  7
SLDTEXTSTYLE3
100
AcDbText
  0
ENDBLK
  5
1D23
330
20D8
100
AcDbEntity
  8
0
100
AcDbBlockEnd
  0
BLOCK
  5
20D9
330
20DA
100
AcDbEntity
  8
0
100
AcDbBlockBegin
  2
*U65
 70
     1
 10
0.0
 20
0.0
 30
0.0
  3
*U65
  1

  0
TEXT
  5
1D25
330
20DA
100
AcDbEntity
  8
0
 62
     0
100
AcDbText
 10
116.1107973943918
 20
-43.01177562359807
 30
-0.0000000000013579
 40
2.645833333333333
  1
1
 41
0.6630000000000001
  7
SLDTEXTSTYLE3
100
AcDbText
  0
ENDBLK
  5
1D27
330
20DA
100
AcDbEntity
  8
0
100
AcDbBlockEnd
  0
BLOCK
  5
20DB
330
20DC
100
AcDbEntity
  8
0
100
AcDbBlockBegin
  2
*U66
 70
     1
 10
0.0
 20
0.0
 30
0.0
  3
*U66
  1

  0
TEXT
  5
1D29
330
20DC
100
AcDbEntity
  8
0
 62
     0
100
AcDbText
 10
126.0577150783392
 20
-43.01177562359807
 30
-0.0000000000013579
 40
2.645833333333333
  1
1
 41
0.6630000000000001
  7
SLDTEXTSTYLE3
100
AcDbText
  0
ENDBLK
  5
1D2B
330
20DC
100
AcDbEntity
  8
0
100
AcDbBlockEnd
  0
BLOCK
  5
20DD
330
20DE
100
AcDbEntity
  8
0
100
AcDbBlockBegin
  2
*U67
 70
     1
 10
0.0
 20
0.0
 30
0.0
  3
*U67
  1

  0
TEXT
  5
1D2D
330
20DE
100
AcDbEntity
  8
0
 62
     0
100
AcDbText
 10
140.4048047184399
 20
-43.01177562359807
 30
-0.0000000000013579
 40
2.645833333333333
  1
0,047
 41
0.6630000000000001
  7
SLDTEXTSTYLE3
100
AcDbText
  0
ENDBLK
  5
1D2F
330
20DE
100
AcDbEntity
  8
0
100
AcDbBlockEnd
  0
BLOCK
  5
20DF
330
20E0
100
AcDbEntity
  8
0
100
AcDbBlockBegin
  2
*U68
 70
     1
 10
0.0
 20
0.0
 30
0.0
  3
*U68
  1

  0
TEXT
  5
1D31
330
20E0
100
AcDbEntity
  8
0
 62
     0
100
AcDbText
 10
8.535494305659086
 20
-50.12733109388587
 30
-0.0000000000013579
 40
2.645833333333333
  1
8
 41
0.6630000000000001
  7
SLDTEXTSTYLE3
100
AcDbText
  0
ENDBLK
  5
1D33
330
20E0
100
AcDbEntity
  8
0
100
AcDbBlockEnd
  0
BLOCK
  5
20E1
330
20E2
100
AcDbEntity
  8
0
100
AcDbBlockBegin
  2
*U69
 70
     1
 10
0.0
 20
0.0
 30
0.0
  3
*U69
  1

  0
TEXT
  5
1D35
330
20E2
100
AcDbEntity
  8
0
 62
     0
100
AcDbText
 10
23.66155762014611
 20
-48.36344222631393
 30
-0.0000000000013579
 40
2.645833333333333
  1
Sandarinimo juosta 
 41
0.6630000000000001
  7
SLDTEXTSTYLE3
100
AcDbText
  0
ENDBLK
  5
1D37
330
20E2
100
AcDbEntity
  8
0
100
AcDbBlockEnd
  0
BLOCK
  5
20E3
330
20E4
100
AcDbEntity
  8
0
100
AcDbBlockBegin
  2
*U70
 70
     1
 10
0.0
 20
0.0
 30
0.0
  3
*U70
  1

  0
TEXT
  5
1D39
330
20E4
100
AcDbEntity
  8
0
 62
     0
100
AcDbText
 10
27.58130993483288
 20
-51.89121996145782
 30
-0.0000000000013579
 40
2.645833333333333
  1
Kronlist 15x8
 41
0.6630000000000001
  7
SLDTEXTSTYLE3
100
AcDbText
  0
ENDBLK
  5
1D3B
330
20E4
100
AcDbEntity
  8
0
100
AcDbBlockEnd
  0
BLOCK
  5
20E5
330
20E6
100
AcDbEntity
  8
0
100
AcDbBlockBegin
  2
*U71
 70
     1
 10
0.0
 20
0.0
 30
0.0
  3
*U71
  1

  0
TEXT
  5
1D3D
330
20E6
100
AcDbEntity
  8
0
 62
     0
100
AcDbText
 10
126.0577150783392
 20
-50.12733109388587
 30
-0.0000000000013579
 40
2.645833333333333
  1
1
 41
0.6630000000000001
  7
SLDTEXTSTYLE3
100
AcDbText
  0
ENDBLK
  5
1D3F
330
20E6
100
AcDbEntity
  8
0
100
AcDbBlockEnd
  0
BLOCK
  5
20E7
330
20E8
100
AcDbEntity
  8
0
100
AcDbBlockBegin
  2
*U72
 70
     1
 10
0.0
 20
0.0
 30
0.0
  3
*U72
  1

  0
TEXT
  5
1D41
330
20E8
100
AcDbEntity
  8
0
 62
     0
100
AcDbText
 10
8.535494305659086
 20
-56.33296033309822
 30
-0.0000000000013579
 40
2.645833333333333
  1
9
 41
0.6630000000000001
  7
SLDTEXTSTYLE3
100
AcDbText
  0
ENDBLK
  5
1D43
330
20E8
100
AcDbEntity
  8
0
100
AcDbBlockEnd
  0
BLOCK
  5
20E9
330
20EA
100
AcDbEntity
  8
0
100
AcDbBlockBegin
  2
*U73
 70
     1
 10
0.0
 20
0.0
 30
0.0
  3
*U73
  1

  0
TEXT
  5
1D45
330
20EA
100
AcDbEntity
  8
0
 62
     0
100
AcDbText
 10
126.0577150783392
 20
-56.33296033309822
 30
-0.0000000000013579
 40
2.645833333333333
  1
1
 41
0.6630000000000001
  7
SLDTEXTSTYLE3
100
AcDbText
  0
ENDBLK
  5
1D47
330
20EA
100
AcDbEntity
  8
0
100
AcDbBlockEnd
  0
BLOCK
  5
20EB
330
20EC
100
AcDbEntity
  8
0
100
AcDbBlockBegin
  2
*U74
 70
     1
 10
0.0
 20
0.0
 30
0.0
  3
*U74
  1

  0
TEXT
  5
1D49
330
20EC
100
AcDbEntity
  8
0
 62
     0
100
AcDbText
 10
7.653549813665447
 20
-61.86815336729416
 30
-0.0000000000013579
 40
2.645833333333333
  1
10
 41
0.6630000000000001
  7
SLDTEXTSTYLE3
100
AcDbText
  0
ENDBLK
  5
1D4B
330
20EC
100
AcDbEntity
  8
0
100
AcDbBlockEnd
  0
BLOCK
  5
20ED
330
20EE
100
AcDbEntity
  8
0
100
AcDbBlockBegin
  2
*U75
 70
     1
 10
0.0
 20
0.0
 30
0.0
  3
*U75
  1

  0
TEXT
  5
1D4D
330
20EE
100
AcDbEntity
  8
0
 62
     0
100
AcDbText
 10
24.15152735797388
 20
-60.10426449972221
 30
-0.0000000000013579
 40
2.645833333333333
  1
Sparnuote RE31P-
 41
0.6630000000000001
  7
SLDTEXTSTYLE3
100
AcDbText
  0
ENDBLK
  5
1D4F
330
20EE
100
AcDbEntity
  8
0
100
AcDbBlockEnd
  0
BLOCK
  5
20EF
330
20F0
100
AcDbEntity
  8
0
100
AcDbBlockBegin
  2
*U76
 70
     1
 10
0.0
 20
0.0
 30
0.0
  3
*U76
  1

  0
TEXT
  5
1D51
330
20F0
100
AcDbEntity
  8
0
 62
     0
100
AcDbText
 10
28.90422850636465
 20
-63.63204223486611
 30
-0.0000000000013579
 40
2.645833333333333
  1
6DK.6C.1R
 41
0.6630000000000001
  7
SLDTEXTSTYLE3
100
AcDbText
  0
ENDBLK
  5
1D53
330
20F0
100
AcDbEntity
  8
0
100
AcDbBlockEnd
  0
BLOCK
  5
20F1
330
20F2
100
AcDbEntity
  8
0
100
AcDbBlockBegin
  2
*U77
 70
     1
 10
0.0
 20
0.0
 30
0.0
  3
*U77
  1

  0
TEXT
  5
1D55
330
20F2
100
AcDbEntity
  8
0
 62
     0
100
AcDbText
 10
126.0577150783392
 20
-61.86815336729416
 30
-0.0000000000013579
 40
2.645833333333333
  1
1
 41
0.6630000000000001
  7
SLDTEXTSTYLE3
100
AcDbText
  0
ENDBLK
  5
1D57
330
20F2
100
AcDbEntity
  8
0
100
AcDbBlockEnd
  0
BLOCK
  5
20F3
330
20F4
100
AcDbEntity
  8
0
100
AcDbBlockBegin
  2
*U78
 70
     1
 10
0.0
 20
0.0
 30
0.0
  3
*U78
  1

  0
TEXT
  5
1D59
330
20F4
100
AcDbEntity
  8
0
 62
     0
100
AcDbText
 10
7.653549813665447
 20
-68.98370883758196
 30
-0.0000000000013579
 40
2.645833333333333
  1
10
 41
0.6630000000000001
  7
SLDTEXTSTYLE3
100
AcDbText
  0
ENDBLK
  5
1D5B
330
20F4
100
AcDbEntity
  8
0
100
AcDbBlockEnd
  0
BLOCK
  5
20F5
330
20F6
100
AcDbEntity
  8
0
100
AcDbBlockBegin
  2
*U79
 70
     1
 10
0.0
 20
0.0
 30
0.0
  3
*U79
  1

  0
TEXT
  5
1D5D
330
20F6
100
AcDbEntity
  8
0
 62
     0
100
AcDbText
 10
22.53462843386156
 20
-67.21981997001001
 30
-0.0000000000013579
 40
2.645833333333333
  1
Kniede aliumine 4x8 
 41
0.6630000000000001
  7
SLDTEXTSTYLE3
100
AcDbText
  0
ENDBLK
  5
1D5F
330
20F6
100
AcDbEntity
  8
0
100
AcDbBlockEnd
  0
BLOCK
  5
20F7
330
20F8
100
AcDbEntity
  8
0
100
AcDbBlockBegin
  2
*U80
 70
     1
 10
0.0
 20
0.0
 30
0.0
  3
*U80
  1

  0
TEXT
  5
1D61
330
20F8
100
AcDbEntity
  8
0
 62
     0
100
AcDbText
 10
30.22714521525128
 20
-70.74759770515392
 30
-0.0000000000013579
 40
2.645833333333333
  1
DIN 7337
 41
0.6630000000000001
  7
SLDTEXTSTYLE3
100
AcDbText
  0
ENDBLK
  5
1D63
330
20F8
100
AcDbEntity
  8
0
100
AcDbBlockEnd
  0
BLOCK
  5
20F9
330
20FA
100
AcDbEntity
  8
0
100
AcDbBlockBegin
  2
*U81
 70
     1
 10
0.0
 20
0.0
 30
0.0
  3
*U81
  1

  0
TEXT
  5
1D65
330
20FA
100
AcDbEntity
  8
0
 62
     0
100
AcDbText
 10
125.1757705863456
 20
-68.98370883758196
 30
-0.0000000000013579
 40
2.645833333333333
  1
86
 41
0.6630000000000001
  7
SLDTEXTSTYLE3
100
AcDbText
  0
ENDBLK
  5
1D67
330
20FA
100
AcDbEntity
  8
0
100
AcDbBlockEnd
  0
BLOCK
  5
20FB
330
20FC
100
AcDbEntity
  8
0
100
AcDbBlockBegin
  2
*U82
 70
     1
 10
0.0
 20
0.0
 30
0.0
  3
*U82
  1

  0
TEXT
  5
1D69
330
20FC
100
AcDbEntity
  8
0
 62
     0
100
AcDbText
 10
7.653549813665447
 20
-75.4288281028534
 30
-0.0000000000013579
 40
2.645833333333333
  1
12
 41
0.6630000000000001
  7
SLDTEXTSTYLE3
100
AcDbText
  0
ENDBLK
  5
1D6B
330
20FC
100
AcDbEntity
  8
0
100
AcDbBlockEnd
  0
BLOCK
  5
20FD
330
20FE
100
AcDbEntity
  8
0
100
AcDbBlockBegin
  2
*U83
 70
     1
 10
0.0
 20
0.0
 30
0.0
  3
*U83
  1

  0
TEXT
  5
1D6D
330
20FE
100
AcDbEntity
  8
0
 62
     0
100
AcDbText
 10
26.20939727661831
 20
-73.66493923528145
 30
-0.0000000000013579
 40
2.645833333333333
  1
Kniede sriegine 
 41
0.6630000000000001
  7
SLDTEXTSTYLE3
100
AcDbText
  0
ENDBLK
  5
1D6F
330
20FE
100
AcDbEntity
  8
0
100
AcDbBlockEnd
  0
BLOCK
  5
20FF
330
2100
100
AcDbEntity
  8
0
100
AcDbBlockBegin
  2
*U84
 70
     1
 10
0.0
 20
0.0
 30
0.0
  3
*U84
  1

  0
TEXT
  5
1D71
330
2100
100
AcDbEntity
  8
0
 62
     0
100
AcDbText
 10
29.5411884204827
 20
-77.19271697042535
 30
-0.0000000000013579
 40
2.645833333333333
  1
8(11x16,5)
 41
0.6630000000000001
  7
SLDTEXTSTYLE3
100
AcDbText
  0
ENDBLK
  5
1D73
330
2100
100
AcDbEntity
  8
0
100
AcDbBlockEnd
  0
BLOCK
  5
2101
330
2102
100
AcDbEntity
  8
0
100
AcDbBlockBegin
  2
*U85
 70
     1
 10
0.0
 20
0.0
 30
0.0
  3
*U85
  1

  0
TEXT
  5
1D75
330
2102
100
AcDbEntity
  8
0
 62
     0
100
AcDbText
 10
126.0577150783392
 20
-75.4288281028534
 30
-0.0000000000013579
 40
2.645833333333333
  1
6
 41
0.6630000000000001
  7
SLDTEXTSTYLE3
100
AcDbText
  0
ENDBLK
  5
1D77
330
2102
100
AcDbEntity
  8
0
100
AcDbBlockEnd
  0
BLOCK
  5
2103
330
2104
100
AcDbEntity
  8
0
100
AcDbBlockBegin
  2
*U86
 70
     1
 10
0.0
 20
0.0
 30
0.0
  3
*U86
  1

  0
TEXT
  5
1D79
330
2104
100
AcDbEntity
  8
0
 62
     0
100
AcDbText
 10
7.653549813665447
 20
-81.63445734206574
 30
-0.0000000000013579
 40
2.645833333333333
  1
13
 41
0.6630000000000001
  7
SLDTEXTSTYLE3
100
AcDbText
  0
ENDBLK
  5
1D7B
330
2104
100
AcDbEntity
  8
0
100
AcDbBlockEnd
  0
BLOCK
  5
2105
330
2106
100
AcDbEntity
  8
0
100
AcDbBlockBegin
  2
*U87
 70
     1
 10
0.0
 20
0.0
 30
0.0
  3
*U87
  1

  0
TEXT
  5
1D7D
330
2106
100
AcDbEntity
  8
0
 62
     0
100
AcDbText
 10
23.1715888136409
 20
-81.63445734206574
 30
-0.0000000000013579
 40
2.645833333333333
  1
Poveržle 8 DIN 125
 41
0.6630000000000001
  7
SLDTEXTSTYLE4
100
AcDbText
  0
ENDBLK
  5
1D7F
330
2106
100
AcDbEntity
  8
0
100
AcDbBlockEnd
  0
BLOCK
  5
2107
330
2108
100
AcDbEntity
  8
0
100
AcDbBlockBegin
  2
*U88
 70
     1
 10
0.0
 20
0.0
 30
0.0
  3
*U88
  1

  0
TEXT
  5
1D81
330
2108
100
AcDbEntity
  8
0
 62
     0
100
AcDbText
 10
126.0577150783392
 20
-81.63445734206574
 30
-0.0000000000013579
 40
2.645833333333333
  1
6
 41
0.6630000000000001
  7
SLDTEXTSTYLE3
100
AcDbText
  0
ENDBLK
  5
1D83
330
2108
100
AcDbEntity
  8
0
100
AcDbBlockEnd
  0
BLOCK
  5
2109
330
210A
100
AcDbEntity
  8
0
100
AcDbBlockBegin
  2
*U89
 70
     1
 10
0.0
 20
0.0
 30
0.0
  3
*U89
  1

  0
TEXT
  5
1D85
330
210A
100
AcDbEntity
  8
0
 62
     0
100
AcDbText
 10
7.653549813665447
 20
-87.16965037626171
 30
-0.0000000000013579
 40
2.645833333333333
  1
14
 41
0.6630000000000001
  7
SLDTEXTSTYLE3
100
AcDbText
  0
ENDBLK
  5
1D87
330
210A
100
AcDbEntity
  8
0
100
AcDbBlockEnd
  0
BLOCK
  5
210B
330
210C
100
AcDbEntity
  8
0
100
AcDbBlockBegin
  2
*U90
 70
     1
 10
0.0
 20
0.0
 30
0.0
  3
*U90
  1

  0
TEXT
  5
1D89
330
210C
100
AcDbEntity
  8
0
 62
     0
100
AcDbText
 10
20.72174384979232
 20
-85.40576150868975
 30
-0.0000000000013579
 40
2.645833333333333
  1
Varztas 8x20 DIN 933-
 41
0.6630000000000001
  7
SLDTEXTSTYLE3
100
AcDbText
  0
ENDBLK
  5
1D8B
330
210C
100
AcDbEntity
  8
0
100
AcDbBlockEnd
  0
BLOCK
  5
210D
330
210E
100
AcDbEntity
  8
0
100
AcDbBlockBegin
  2
*U91
 70
     1
 10
0.0
 20
0.0
 30
0.0
  3
*U91
  1

  0
TEXT
  5
1D8D
330
210E
100
AcDbEntity
  8
0
 62
     0
100
AcDbText
 10
35.12683630710168
 20
-88.93353924383365
 30
-0.0000000000013579
 40
2.645833333333333
  1
8,8
 41
0.6630000000000001
  7
SLDTEXTSTYLE3
100
AcDbText
  0
ENDBLK
  5
1D8F
330
210E
100
AcDbEntity
  8
0
100
AcDbBlockEnd
  0
BLOCK
  5
210F
330
2110
100
AcDbEntity
  8
0
100
AcDbBlockBegin
  2
*U92
 70
     1
 10
0.0
 20
0.0
 30
0.0
  3
*U92
  1

  0
TEXT
  5
1D91
330
2110
100
AcDbEntity
  8
0
 62
     0
100
AcDbText
 10
126.0577150783392
 20
-87.16965037626171
 30
-0.0000000000013579
 40
2.645833333333333
  1
6
 41
0.6630000000000001
  7
SLDTEXTSTYLE3
100
AcDbText
  0
ENDBLK
  5
1D93
330
2110
100
AcDbEntity
  8
0
100
AcDbBlockEnd
  0
BLOCK
  5
2111
330
2112
100
AcDbEntity
  8
0
100
AcDbBlockBegin
  2
*U93
 70
     1
 10
0.0
 20
0.0
 30
0.0
  3
*U93
  1

  0
TEXT
  5
1D95
330
2112
100
AcDbEntity
  8
0
 62
     0
100
AcDbText
 10
7.653549813665447
 20
-93.61476964153314
 30
-0.0000000000013579
 40
2.645833333333333
  1
15
 41
0.6630000000000001
  7
SLDTEXTSTYLE3
100
AcDbText
  0
ENDBLK
  5
1D97
330
2112
100
AcDbEntity
  8
0
100
AcDbBlockEnd
  0
BLOCK
  5
2113
330
2114
100
AcDbEntity
  8
0
100
AcDbBlockBegin
  2
*U94
 70
     1
 10
0.0
 20
0.0
 30
0.0
  3
*U94
  1

  0
TEXT
  5
1D99
330
2114
100
AcDbEntity
  8
0
 62
     0
100
AcDbText
 10
19.98678877738935
 20
-91.8508807739612
 30
-0.0000000000013579
 40
2.645833333333333
  1
Spyruokline poverzle 10 
 41
0.6630000000000001
  7
SLDTEXTSTYLE3
100
AcDbText
  0
ENDBLK
  5
1D9B
330
2114
100
AcDbEntity
  8
0
100
AcDbBlockEnd
  0
BLOCK
  5
2115
330
2116
100
AcDbEntity
  8
0
100
AcDbBlockBegin
  2
*U95
 70
     1
 10
0.0
 20
0.0
 30
0.0
  3
*U95
  1

  0
TEXT
  5
1D9D
330
2116
100
AcDbEntity
  8
0
 62
     0
100
AcDbText
 10
31.10908953262193
 20
-95.37865850910507
 30
-0.0000000000013579
 40
2.645833333333333
  1
DIN 127
 41
0.6630000000000001
  7
SLDTEXTSTYLE3
100
AcDbText
  0
ENDBLK
  5
1D9F
330
2116
100
AcDbEntity
  8
0
100
AcDbBlockEnd
  0
BLOCK
  5
2117
330
2118
100
AcDbEntity
  8
0
100
AcDbBlockBegin
  2
*U96
 70
     1
 10
0.0
 20
0.0
 30
0.0
  3
*U96
  1

  0
TEXT
  5
1DA1
330
2118
100
AcDbEntity
  8
0
 62
     0
100
AcDbText
 10
126.0577150783392
 20
-93.61476964153314
 30
-0.0000000000013579
 40
2.645833333333333
  1
4
 41
0.6630000000000001
  7
SLDTEXTSTYLE3
100
AcDbText
  0
ENDBLK
  5
1DA3
330
2118
100
AcDbEntity
  8
0
100
AcDbBlockEnd
  0
BLOCK
  5
2119
330
211A
100
AcDbEntity
  8
0
100
AcDbBlockBegin
  2
*U97
 70
     1
 10
0.0
 20
0.0
 30
0.0
  3
*U97
  1

  0
TEXT
  5
1DA5
330
211A
100
AcDbEntity
  8
0
 62
     0
100
AcDbText
 10
7.653549813665447
 20
-100.7303251118209
 30
-0.0000000000013579
 40
2.645833333333333
  1
16
 41
0.6630000000000001
  7
SLDTEXTSTYLE3
100
AcDbText
  0
ENDBLK
  5
1DA7
330
211A
100
AcDbEntity
  8
0
100
AcDbBlockEnd
  0
BLOCK
  5
211B
330
211C
100
AcDbEntity
  8
0
100
AcDbBlockBegin
  2
*U98
 70
     1
 10
0.0
 20
0.0
 30
0.0
  3
*U98
  1

  0
TEXT
  5
1DA9
330
211C
100
AcDbEntity
  8
0
 62
     0
100
AcDbText
 10
21.94666586605531
 20
-98.966436244249
 30
-0.0000000000013579
 40
2.645833333333333
  1
Varztas M10x20 DIN 
 41
0.6630000000000001
  7
SLDTEXTSTYLE3
100
AcDbText
  0
ENDBLK
  5
1DAB
330
211C
100
AcDbEntity
  8
0
100
AcDbBlockEnd
  0
BLOCK
  5
211D
330
211E
100
AcDbEntity
  8
0
100
AcDbBlockBegin
  2
*U99
 70
     1
 10
0.0
 20
0.0
 30
0.0
  3
*U99
  1

  0
TEXT
  5
1DAD
330
211E
100
AcDbEntity
  8
0
 62
     0
100
AcDbText
 10
34.68586414841634
 20
-102.4942139793929
 30
-0.0000000000013579
 40
2.645833333333333
  1
933
 41
0.6630000000000001
  7
SLDTEXTSTYLE3
100
AcDbText
  0
ENDBLK
  5
1DAF
330
211E
100
AcDbEntity
  8
0
100
AcDbBlockEnd
  0
BLOCK
  5
211F
330
2120
100
AcDbEntity
  8
0
100
AcDbBlockBegin
  2
*U100
 70
     1
 10
0.0
 20
0.0
 30
0.0
  3
*U100
  1

  0
TEXT
  5
1DB1
330
2120
100
AcDbEntity
  8
0
 62
     0
100
AcDbText
 10
126.0577150783392
 20
-100.7303251118209
 30
-0.0000000000013579
 40
2.645833333333333
  1
4
 41
0.6630000000000001
  7
SLDTEXTSTYLE3
100
AcDbText
  0
ENDBLK
  5
1DB3
330
2120
100
AcDbEntity
  8
0
100
AcDbBlockEnd
  0
BLOCK
  5
2121
330
2122
100
AcDbEntity
  8
0
100
AcDbBlockBegin
  2
*U101
 70
     1
 10
0.0
 20
0.0
 30
0.0
  3
*U101
  1

  0
TEXT
  5
1DB5
330
2122
100
AcDbEntity
  8
0
 62
     0
100
AcDbText
 10
7.653549813665447
 20
-106.2655181460169
 30
-0.0000000000013579
 40
2.645833333333333
  1
17
 41
0.6630000000000001
  7
SLDTEXTSTYLE3
100
AcDbText
  0
ENDBLK
  5
1DB7
330
2122
100
AcDbEntity
  8
0
100
AcDbBlockEnd
  0
BLOCK
  5
2123
330
2124
100
AcDbEntity
  8
0
100
AcDbBlockBegin
  2
*U102
 70
     1
 10
0.0
 20
0.0
 30
0.0
  3
*U102
  1

  0
TEXT
  5
1DB9
330
2124
100
AcDbEntity
  8
0
 62
     0
100
AcDbText
 10
24.49450552252752
 20
-106.2655181460169
 30
-0.0000000000013579
 40
2.645833333333333
  1
Membrana DG 11
 41
0.6630000000000001
  7
SLDTEXTSTYLE3
100
AcDbText
  0
ENDBLK
  5
1DBB
330
2124
100
AcDbEntity
  8
0
100
AcDbBlockEnd
  0
BLOCK
  5
2125
330
2126
100
AcDbEntity
  8
0
100
AcDbBlockBegin
  2
*U103
 70
     1
 10
0.0
 20
0.0
 30
0.0
  3
*U103
  1

  0
TEXT
  5
1DBD
330
2126
100
AcDbEntity
  8
0
 62
     0
100
AcDbText
 10
126.0577150783392
 20
-106.2655181460169
 30
-0.0000000000013579
 40
2.645833333333333
  1
1
 41
0.6630000000000001
  7
SLDTEXTSTYLE3
100
AcDbText
  0
ENDBLK
  5
1DBF
330
2126
100
AcDbEntity
  8
0
100
AcDbBlockEnd
  0
BLOCK
  5
2127
330
2128
100
AcDbEntity
  8
0
100
AcDbBlockBegin
  2
*U104
 70
     1
 10
0.0
 20
0.0
 30
0.0
  3
*U104
  1

  0
TEXT
  5
1DC1
330
2128
100
AcDbEntity
  8
0
 62
     0
100
AcDbText
 10
7.653549813665447
 20
-110.8907849491373
 30
-0.0000000000013579
 40
2.645833333333333
  1
18
 41
0.6630000000000001
  7
SLDTEXTSTYLE3
100
AcDbText
  0
ENDBLK
  5
1DC3
330
2128
100
AcDbEntity
  8
0
100
AcDbBlockEnd
  0
BLOCK
  5
2129
330
212A
100
AcDbEntity
  8
0
100
AcDbBlockBegin
  2
*U105
 70
     1
 10
0.0
 20
0.0
 30
0.0
  3
*U105
  1

  0
TEXT
  5
1DC5
330
212A
100
AcDbEntity
  8
0
 62
     0
100
AcDbText
 10
28.95322538701517
 20
-110.8907849491373
 30
-0.0000000000013579
 40
2.645833333333333
  1
Poveržlë 12
 41
0.6630000000000001
  7
SLDTEXTSTYLE4
100
AcDbText
  0
ENDBLK
  5
1DC7
330
212A
100
AcDbEntity
  8
0
100
AcDbBlockEnd
  0
BLOCK
  5
212B
330
212C
100
AcDbEntity
  8
0
100
AcDbBlockBegin
  2
*U106
 70
     1
 10
0.0
 20
0.0
 30
0.0
  3
*U106
  1

  0
TEXT
  5
1DC9
330
212C
100
AcDbEntity
  8
0
 62
     0
100
AcDbText
 10
65.86745454916209
 20
-110.8907849491373
 30
-0.0000000000013579
 40
2.645833333333333
  1
 DIN 125
 41
0.6630000000000001
  7
SLDTEXTSTYLE3
100
AcDbText
  0
ENDBLK
  5
1DCB
330
212C
100
AcDbEntity
  8
0
100
AcDbBlockEnd
  0
BLOCK
  5
212D
330
212E
100
AcDbEntity
  8
0
100
AcDbBlockBegin
  2
*U107
 70
     1
 10
0.0
 20
0.0
 30
0.0
  3
*U107
  1

  0
TEXT
  5
1DCD
330
212E
100
AcDbEntity
  8
0
 62
     0
100
AcDbText
 10
126.0577150783392
 20
-110.8907849491373
 30
-0.0000000000013579
 40
2.645833333333333
  1
4
 41
0.6630000000000001
  7
SLDTEXTSTYLE3
100
AcDbText
  0
ENDBLK
  5
1DCF
330
212E
100
AcDbEntity
  8
0
100
AcDbBlockEnd
  0
BLOCK
  5
212F
330
2130
100
AcDbEntity
  8
0
100
AcDbBlockBegin
  2
*U108
 70
     1
 10
0.0
 20
0.0
 30
0.0
  3
*U108
  1

  0
TEXT
  5
1DD1
330
2130
100
AcDbEntity
  8
0
 62
     0
100
AcDbText
 10
7.653549813665447
 20
-115.5160517522578
 30
-0.0000000000013579
 40
2.645833333333333
  1
19
 41
0.6630000000000001
  7
SLDTEXTSTYLE3
100
AcDbText
  0
ENDBLK
  5
1DD3
330
2130
100
AcDbEntity
  8
0
100
AcDbBlockEnd
  0
BLOCK
  5
2131
330
2132
100
AcDbEntity
  8
0
100
AcDbBlockBegin
  2
*U109
 70
     1
 10
0.0
 20
0.0
 30
0.0
  3
*U109
  1

  0
TEXT
  5
1DD5
330
2132
100
AcDbEntity
  8
0
 62
     0
100
AcDbText
 10
27.09134205965025
 20
-115.5160517522578
 30
-0.0000000000013579
 40
2.645833333333333
  1
Elektrine dalis
 41
0.6630000000000001
  7
SLDTEXTSTYLE3
100
AcDbText
  0
ENDBLK
  5
1DD7
330
2132
100
AcDbEntity
  8
0
100
AcDbBlockEnd
  0
BLOCK
  5
2133
330
2134
100
AcDbEntity
  8
0
100
AcDbBlockBegin
  2
*U110
 70
     1
 10
0.0
 20
0.0
 30
0.0
  3
*U110
  1

  0
TEXT
  5
1DD9
330
2134
100
AcDbEntity
  8
0
 62
     0
100
AcDbText
 10
62.82964562052339
 20
-115.5160517522578
 30
-0.0000000000013579
 40
2.645833333333333
  1
26.78.200.0.0
 41
0.6630000000000001
  7
SLDTEXTSTYLE3
100
AcDbText
  0
ENDBLK
  5
1DDB
330
2134
100
AcDbEntity
  8
0
100
AcDbBlockEnd
  0
BLOCK
  5
2135
330
2136
100
AcDbEntity
  8
0
100
AcDbBlockBegin
  2
*U111
 70
     1
 10
0.0
 20
0.0
 30
0.0
  3
*U111
  1

  0
TEXT
  5
1DDD
330
2136
100
AcDbEntity
  8
0
 62
     0
100
AcDbText
 10
126.0577150783392
 20
-115.5160517522578
 30
-0.0000000000013579
 40
2.645833333333333
  1
1
 41
0.6630000000000001
  7
SLDTEXTSTYLE3
100
AcDbText
  0
ENDBLK
  5
1DDF
330
2136
100
AcDbEntity
  8
0
100
AcDbBlockEnd
  0
BLOCK
  5
2137
330
2138
100
AcDbEntity
  8
0
100
AcDbBlockBegin
  2
*U112
 70
     1
 10
0.0
 20
0.0
 30
0.0
  3
*U112
  1

  0
TEXT
  5
1DE1
330
2138
100
AcDbEntity
  8
0
 62
     0
100
AcDbText
 10
7.653549813665447
 20
-121.0512447864538
 30
-0.0000000000013579
 40
2.645833333333333
  1
20
 41
0.6630000000000001
  7
SLDTEXTSTYLE3
100
AcDbText
  0
ENDBLK
  5
1DE3
330
2138
100
AcDbEntity
  8
0
100
AcDbBlockEnd
  0
BLOCK
  5
2139
330
213A
100
AcDbEntity
  8
0
100
AcDbBlockBegin
  2
*U113
 70
     1
 10
0.0
 20
0.0
 30
0.0
  3
*U113
  1

  0
TEXT
  5
1DE5
330
213A
100
AcDbEntity
  8
0
 62
     0
100
AcDbText
 10
20.86873262909872
 20
-119.2873559188818
 30
-0.0000000000013579
 40
2.645833333333333
  1
Spyruoklinë poveržlë 8 
 41
0.6630000000000001
  7
SLDTEXTSTYLE4
100
AcDbText
  0
ENDBLK
  5
1DE7
330
213A
100
AcDbEntity
  8
0
100
AcDbBlockEnd
  0
BLOCK
  5
213B
330
213C
100
AcDbEntity
  8
0
100
AcDbBlockBegin
  2
*U114
 70
     1
 10
0.0
 20
0.0
 30
0.0
  3
*U114
  1

  0
TEXT
  5
1DE9
330
213C
100
AcDbEntity
  8
0
 62
     0
100
AcDbText
 10
31.10908953262193
 20
-122.8151336540257
 30
-0.0000000000013579
 40
2.645833333333333
  1
DIN 127
 41
0.6630000000000001
  7
SLDTEXTSTYLE3
100
AcDbText
  0
ENDBLK
  5
1DEB
330
213C
100
AcDbEntity
  8
0
100
AcDbBlockEnd
  0
BLOCK
  5
213D
330
213E
100
AcDbEntity
  8
0
100
AcDbBlockBegin
  2
*U115
 70
     1
 10
0.0
 20
0.0
 30
0.0
  3
*U115
  1

  0
TEXT
  5
1DED
330
213E
100
AcDbEntity
  8
0
 62
     0
100
AcDbText
 10
126.0577150783392
 20
-121.0512447864538
 30
-0.0000000000013579
 40
2.645833333333333
  1
6
 41
0.6630000000000001
  7
SLDTEXTSTYLE3
100
AcDbText
  0
ENDBLK
  5
1DEF
330
213E
100
AcDbEntity
  8
0
100
AcDbBlockEnd
  0
BLOCK
  5
213F
330
2140
100
AcDbEntity
  8
0
100
AcDbBlockBegin
  2
*D116
 70
     1
 10
0.0
 20
0.0
 30
0.0
  3
*D116
  1

  0
SOLID
  5
4DD
330
2140
100
AcDbEntity
  8
0
  6
Continuous
 62
     7
100
AcDbTrace
 10
21.64531363427657
 20
266.5937068653303
 30
0.0
 11
20.89531363427661
 21
262.5937068653303
 31
0.0
 12
22.39531363427661
 22
262.5937068653303
 32
0.0
 13
22.39531363427661
 23
262.5937068653303
 33
0.0
  0
SOLID
  5
4DE
330
2140
100
AcDbEntity
  8
0
  6
Continuous
 62
     7
100
AcDbTrace
 10
21.64531363427695
 20
210.8794211510448
 30
0.0
 11
22.39531363427692
 21
214.8794211510448
 31
0.0
 12
20.89531363427692
 22
214.8794211510448
 32
0.0
 13
20.89531363427692
 23
214.8794211510448
 33
0.0
  0
LINE
  5
4DF
330
2140
100
AcDbEntity
  8
0
  6
Continuous
 62
     7
100
AcDbLine
 10
37.60959934856208
 20
266.5937068653304
 30
0.0
 11
20.64531363427658
 21
266.5937068653303
 31
0.0
  0
LINE
  5
4E0
330
2140
100
AcDbEntity
  8
0
  6
Continuous
 62
     7
100
AcDbLine
 10
39.43102791999055
 20
210.879421151045
 30
0.0
 11
20.64531363427695
 21
210.8794211510448
 31
0.0
  0
LINE
  5
4E1
330
2140
100
AcDbEntity
  8
0
  6
Continuous
 62
     7
100
AcDbLine
 10
21.64531363427657
 20
266.5937068653303
 30
0.0
 11
21.64531363427695
 21
210.8794211510448
 31
0.0
  0
INSERT
  5
4E2
330
2140
100
AcDbEntity
  8
0
100
AcDbBlockReference
  2
*U117
 10
0.0
 20
0.0
 30
0.0
  0
ENDBLK
  5
4DC
330
2140
100
AcDbEntity
  8
0
100
AcDbBlockEnd
  0
BLOCK
  5
2141
330
2142
100
AcDbEntity
  8
0
100
AcDbBlockBegin
  2
*U117
 70
     1
 10
0.0
 20
0.0
 30
0.0
  3
*U117
  1

  0
TEXT
  5
1DF1
330
2142
100
AcDbEntity
  8
0
 62
     7
100
AcDbText
 10
20.88048863100446
 20
235.3056205516562
 30
-0.0000000000029524
 40
2.645833333333333
  1
390
 50
90.00000000000078
 41
0.75
  7
SLDTEXTSTYLE0
100
AcDbText
  0
ENDBLK
  5
1DF3
330
2142
100
AcDbEntity
  8
0
100
AcDbBlockEnd
  0
BLOCK
  5
2143
330
2144
100
AcDbEntity
  8
0
100
AcDbBlockBegin
  2
*D118
 70
     1
 10
0.0
 20
0.0
 30
0.0
  3
*D118
  1

  0
SOLID
  5
4E7
330
2144
100
AcDbEntity
  8
0
  6
Continuous
 62
     7
100
AcDbTrace
 10
27.57391530035054
 20
265.1651354367594
 30
0.0
 11
26.8239153003505
 21
261.1651354367594
 31
0.0
 12
28.32391530035049
 22
261.1651354367594
 32
0.0
 13
28.32391530035049
 23
261.1651354367594
 33
0.0
  0
SOLID
  5
4E8
330
2144
100
AcDbEntity
  8
0
  6
Continuous
 62
     7
100
AcDbTrace
 10
27.57391530034997
 20
212.3079925796163
 30
0.0
 11
28.32391530035002
 21
216.3079925796163
 31
0.0
 12
26.82391530035002
 22
216.3079925796163
 32
0.0
 13
26.82391530035002
 23
216.3079925796163
 33
0.0
  0
LINE
  5
4E9
330
2144
100
AcDbEntity
  8
0
  6
Continuous
 62
     7
100
AcDbLine
 10
38.00245649141924
 20
265.1651354367593
 30
0.0
 11
26.57391530035053
 21
265.1651354367594
 31
0.0
  0
LINE
  5
4EA
330
2144
100
AcDbEntity
  8
0
  6
Continuous
 62
     7
100
AcDbLine
 10
38.00245649141869
 20
212.3079925796161
 30
0.0
 11
26.57391530034998
 21
212.3079925796163
 31
0.0
  0
LINE
  5
4EB
330
2144
100
AcDbEntity
  8
0
  6
Continuous
 62
     7
100
AcDbLine
 10
27.57391530035054
 20
265.1651354367594
 30
0.0
 11
27.57391530034997
 21
212.3079925796163
 31
0.0
  0
INSERT
  5
4EC
330
2144
100
AcDbEntity
  8
0
100
AcDbBlockReference
  2
*U119
 10
0.0
 20
0.0
 30
0.0
  0
ENDBLK
  5
4E6
330
2144
100
AcDbEntity
  8
0
100
AcDbBlockEnd
  0
BLOCK
  5
2145
330
2146
100
AcDbEntity
  8
0
100
AcDbBlockBegin
  2
*U119
 70
     1
 10
0.0
 20
0.0
 30
0.0
  3
*U119
  1

  0
TEXT
  5
1DF5
330
2146
100
AcDbEntity
  8
0
 62
     7
100
AcDbText
 10
26.80909029707789
 20
235.3035742212454
 30
-0.0000000000029523
 40
2.645833333333333
  1
370
 50
89.99999999999982
 41
0.75
  7
SLDTEXTSTYLE0
100
AcDbText
  0
ENDBLK
  5
1DF7
330
2146
100
AcDbEntity
  8
0
100
AcDbBlockEnd
  0
BLOCK
  5
2147
330
2148
100
AcDbEntity
  8
0
100
AcDbBlockBegin
  2
*D120
 70
     1
 10
0.0
 20
0.0
 30
0.0
  3
*D120
  1

  0
SOLID
  5
4F1
330
2148
100
AcDbEntity
  8
0
  6
Continuous
 62
     7
100
AcDbTrace
 10
39.00245649141925
 20
276.6639442166071
 30
0.0
 11
43.00245649141924
 21
275.9139442166071
 31
0.0
 12
43.00245649141924
 22
277.4139442166072
 32
0.0
 13
43.00245649141924
 23
277.4139442166072
 33
0.0
  0
SOLID
  5
4F2
330
2148
100
AcDbEntity
  8
0
  6
Continuous
 62
     7
100
AcDbTrace
 10
127.5738850628478
 20
276.663944216607
 30
0.0
 11
123.5738850628478
 21
277.413944216607
 31
0.0
 12
123.5738850628478
 22
275.913944216607
 32
0.0
 13
123.5738850628478
 23
275.913944216607
 33
0.0
  0
LINE
  5
4F3
330
2148
100
AcDbEntity
  8
0
  6
Continuous
 62
     7
100
AcDbLine
 10
39.00245649141925
 20
266.1651354367593
 30
0.0
 11
39.00245649141925
 21
277.6639442166072
 31
0.0
  0
LINE
  5
4F4
330
2148
100
AcDbEntity
  8
0
  6
Continuous
 62
     7
100
AcDbLine
 10
127.5738850628478
 20
266.1651354367592
 30
0.0
 11
127.5738850628478
 21
277.663944216607
 31
0.0
  0
LINE
  5
4F5
330
2148
100
AcDbEntity
  8
0
  6
Continuous
 62
     7
100
AcDbLine
 10
39.00245649141925
 20
276.6639442166071
 30
0.0
 11
127.5738850628478
 21
276.663944216607
 31
0.0
  0
INSERT
  5
4F6
330
2148
100
AcDbEntity
  8
0
100
AcDbBlockReference
  2
*U121
 10
0.0
 20
0.0
 30
0.0
  0
ENDBLK
  5
4F0
330
2148
100
AcDbEntity
  8
0
100
AcDbBlockEnd
  0
BLOCK
  5
2149
330
214A
100
AcDbEntity
  8
0
100
AcDbBlockBegin
  2
*U121
 70
     1
 10
0.0
 20
0.0
 30
0.0
  3
*U121
  1

  0
TEXT
  5
1DF9
330
214A
100
AcDbEntity
  8
0
 62
     7
100
AcDbText
 10
78.09293948342778
 20
277.4287692198793
 30
-0.0000000000032412
 40
2.645833333333333
  1
620
 50
0.0000000000007493
 41
0.75
  7
SLDTEXTSTYLE0
100
AcDbText
  0
ENDBLK
  5
1DFB
330
214A
100
AcDbEntity
  8
0
100
AcDbBlockEnd
  0
BLOCK
  5
214B
330
214C
100
AcDbEntity
  8
0
100
AcDbBlockBegin
  2
*D122
 70
     1
 10
0.0
 20
0.0
 30
0.0
  3
*D122
  1

  0
SOLID
  5
4FB
330
214C
100
AcDbEntity
  8
0
  6
Continuous
 62
     7
100
AcDbTrace
 10
37.57388506284785
 20
282.4508497224731
 30
0.0
 11
41.57388506284784
 21
281.7008497224732
 31
0.0
 12
41.57388506284784
 22
283.2008497224732
 32
0.0
 13
41.57388506284784
 23
283.2008497224732
 33
0.0
  0
SOLID
  5
4FC
330
214C
100
AcDbEntity
  8
0
  6
Continuous
 62
     7
100
AcDbTrace
 10
129.0024564914192
 20
282.4508497224731
 30
0.0
 11
125.0024564914192
 21
283.2008497224732
 31
0.0
 12
125.0024564914192
 22
281.7008497224732
 32
0.0
 13
125.0024564914192
 23
281.7008497224732
 33
0.0
  0
LINE
  5
4FD
330
214C
100
AcDbEntity
  8
0
  6
Continuous
 62
     7
100
AcDbLine
 10
37.57388506284785
 20
264.7365640081876
 30
0.0
 11
37.57388506284785
 21
283.4508497224732
 31
0.0
  0
LINE
  5
4FE
330
214C
100
AcDbEntity
  8
0
  6
Continuous
 62
     7
100
AcDbLine
 10
129.0024564914192
 20
266.5579925796164
 30
0.0
 11
129.0024564914192
 21
283.4508497224732
 31
0.0
  0
LINE
  5
4FF
330
214C
100
AcDbEntity
  8
0
  6
Continuous
 62
     7
100
AcDbLine
 10
37.57388506284785
 20
282.4508497224731
 30
0.0
 11
129.0024564914192
 21
282.4508497224731
 31
0.0
  0
INSERT
  5
500
330
214C
100
AcDbEntity
  8
0
100
AcDbBlockReference
  2
*U123
 10
0.0
 20
0.0
 30
0.0
  0
ENDBLK
  5
4FA
330
214C
100
AcDbEntity
  8
0
100
AcDbBlockEnd
  0
BLOCK
  5
214D
330
214E
100
AcDbEntity
  8
0
100
AcDbBlockBegin
  2
*U123
 70
     1
 10
0.0
 20
0.0
 30
0.0
  3
*U123
  1

  0
TEXT
  5
1DFD
330
214E
100
AcDbEntity
  8
0
 62
     7
100
AcDbText
 10
78.09293948342852
 20
283.2156747257455
 30
-0.0000000000032816
 40
2.645833333333333
  1
640
 41
0.75
  7
SLDTEXTSTYLE0
100
AcDbText
  0
ENDBLK
  5
1DFF
330
214E
100
AcDbEntity
  8
0
100
AcDbBlockEnd
  0
BLOCK
  5
214F
330
2150
100
AcDbEntity
  8
0
100
AcDbBlockBegin
  2
*D124
 70
     1
 10
0.0
 20
0.0
 30
0.0
  3
*D124
  1

  0
SOLID
  5
506
330
2150
100
AcDbEntity
  8
0
  6
Continuous
 62
     7
100
AcDbTrace
 10
56.11927596850371
 20
244.5222782939025
 30
0.0
 11
55.36927596850372
 21
240.5222782939025
 31
0.0
 12
56.86927596850372
 22
240.5222782939025
 32
0.0
 13
56.86927596850372
 23
240.5222782939025
 33
0.0
  0
SOLID
  5
507
330
2150
100
AcDbEntity
  8
0
  6
Continuous
 62
     7
100
AcDbTrace
 10
56.11927596850368
 20
244.9508497224737
 30
0.0
 11
56.86927596850367
 21
248.9508497224737
 31
0.0
 12
55.36927596850365
 22
248.9508497224737
 32
0.0
 13
55.36927596850365
 23
248.9508497224737
 33
0.0
  0
LINE
  5
508
330
2150
100
AcDbEntity
  8
0
  6
Continuous
 62
     7
100
AcDbLine
 10
69.76402722903084
 20
244.5222782939026
 30
0.0
 11
55.1192759685037
 21
244.5222782939025
 31
0.0
  0
LINE
  5
509
330
2150
100
AcDbEntity
  8
0
  6
Continuous
 62
     7
100
AcDbLine
 10
65.54974151474562
 20
244.9508497224737
 30
0.0
 11
55.11927596850369
 21
244.9508497224737
 31
0.0
  0
LINE
  5
50A
330
2150
100
AcDbEntity
  8
0
  6
Continuous
 62
     7
100
AcDbLine
 10
56.11927596850371
 20
244.5222782939025
 30
0.0
 11
56.11927596850383
 21
236.5222782939025
 31
0.0
  0
LINE
  5
50B
330
2150
100
AcDbEntity
  8
0
  6
Continuous
 62
     7
100
AcDbLine
 10
56.11927596850371
 20
244.5222782939025
 30
0.0
 11
56.11927596850368
 21
244.9508497224737
 31
0.0
  0
LINE
  5
50C
330
2150
100
AcDbEntity
  8
0
  6
Continuous
 62
     7
100
AcDbLine
 10
56.11927596850368
 20
244.9508497224737
 30
0.0
 11
56.11927596850357
 21
252.1188003617598
 31
0.0
  0
INSERT
  5
50D
330
2150
100
AcDbEntity
  8
0
100
AcDbBlockReference
  2
*U125
 10
0.0
 20
0.0
 30
0.0
  0
ENDBLK
  5
505
330
2150
100
AcDbEntity
  8
0
100
AcDbBlockEnd
  0
BLOCK
  5
2151
330
2152
100
AcDbEntity
  8
0
100
AcDbBlockBegin
  2
*U125
 70
     1
 10
0.0
 20
0.0
 30
0.0
  3
*U125
  1

  0
TEXT
  5
1E01
330
2152
100
AcDbEntity
  8
0
 62
     7
100
AcDbText
 10
55.35445096523133
 20
248.8073280921288
 30
-0.0000000000030466
 40
2.645833333333333
  1
3
 50
90.00000000000034
 41
0.75
  7
SLDTEXTSTYLE0
100
AcDbText
  0
ENDBLK
  5
1E03
330
2152
100
AcDbEntity
  8
0
100
AcDbBlockEnd
  0
BLOCK
  5
2153
330
2154
100
AcDbEntity
  8
0
100
AcDbBlockBegin
  2
SW_NOTE_2
 70
     0
 10
0.0
 20
0.0
 30
0.0
  3
SW_NOTE_2
  1

  0
LINE
  5
511
330
2154
100
AcDbEntity
  8
0
  6
Continuous
 62
     0
100
AcDbLine
 10
0.0
 20
-0.0000000000003608
 30
0.0
 11
6.895889078523675
 21
-0.0000000000003608
 31
0.0
  0
LINE
  5
512
330
2154
100
AcDbEntity
  8
0
  6
Continuous
 62
     0
100
AcDbLine
 10
6.895889078523675
 20
-0.0000000000003608
 30
0.0
 11
0.0
 21
-0.0000000000003608
 31
0.0
  0
LINE
  5
513
330
2154
100
AcDbEntity
  8
0
  6
Continuous
 62
     0
100
AcDbLine
 10
0.0
 20
-0.0000000000003608
 30
0.0
 11
6.895889078523675
 21
-0.0000000000003608
 31
0.0
  0
LINE
  5
514
330
2154
100
AcDbEntity
  8
0
  6
Continuous
 62
     0
100
AcDbLine
 10
6.895889078523675
 20
-0.0000000000003608
 30
0.0
 11
0.0
 21
-0.0000000000003608
 31
0.0
  0
LINE
  5
515
330
2154
100
AcDbEntity
  8
0
  6
Continuous
 62
     0
100
AcDbLine
 10
0.0
 20
-0.0000000000003608
 30
0.0
 11
6.895889078523675
 21
-0.0000000000003608
 31
0.0
  0
LINE
  5
516
330
2154
100
AcDbEntity
  8
0
  6
Continuous
 62
     0
100
AcDbLine
 10
6.895889078523675
 20
-0.0000000000003608
 30
0.0
 11
0.0
 21
-0.0000000000003608
 31
0.0
  0
INSERT
  5
517
330
2154
100
AcDbEntity
  8
0
100
AcDbBlockReference
  2
*U127
 10
0.0
 20
0.0
 30
0.0
  0
ENDBLK
  5
510
330
2154
100
AcDbEntity
  8
0
100
AcDbBlockEnd
  0
BLOCK
  5
2155
330
2156
100
AcDbEntity
  8
0
100
AcDbBlockBegin
  2
*U127
 70
     1
 10
0.0
 20
0.0
 30
0.0
  3
*U127
  1

  0
TEXT
  5
1E05
330
2156
100
AcDbEntity
  8
0
 62
     0
100
AcDbText
 10
2.470456071792026
 20
0.4744947932679572
 30
0.0
 40
2.645833333333333
  1
1
 41
0.75
  7
SLDTEXTSTYLE0
100
AcDbText
  0
ENDBLK
  5
1E07
330
2156
100
AcDbEntity
  8
0
100
AcDbBlockEnd
  0
BLOCK
  5
2157
330
2158
100
AcDbEntity
  8
0
100
AcDbBlockBegin
  2
SW_NOTE_3
 70
     0
 10
0.0
 20
0.0
 30
0.0
  3
SW_NOTE_3
  1

  0
LINE
  5
51E
330
2158
100
AcDbEntity
  8
0
  6
Continuous
 62
     0
100
AcDbLine
 10
0.0
 20
-0.0000000000003608
 30
0.0
 11
6.895889078523619
 21
-0.0000000000003608
 31
0.0
  0
LINE
  5
51F
330
2158
100
AcDbEntity
  8
0
  6
Continuous
 62
     0
100
AcDbLine
 10
6.895889078523619
 20
-0.0000000000003608
 30
0.0
 11
0.0
 21
-0.0000000000003608
 31
0.0
  0
LINE
  5
520
330
2158
100
AcDbEntity
  8
0
  6
Continuous
 62
     0
100
AcDbLine
 10
0.0
 20
-0.0000000000003608
 30
0.0
 11
6.895889078523619
 21
-0.0000000000003608
 31
0.0
  0
LINE
  5
521
330
2158
100
AcDbEntity
  8
0
  6
Continuous
 62
     0
100
AcDbLine
 10
6.895889078523619
 20
-0.0000000000003608
 30
0.0
 11
0.0
 21
-0.0000000000003608
 31
0.0
  0
LINE
  5
522
330
2158
100
AcDbEntity
  8
0
  6
Continuous
 62
     0
100
AcDbLine
 10
0.0
 20
-0.0000000000003608
 30
0.0
 11
6.895889078523619
 21
-0.0000000000003608
 31
0.0
  0
LINE
  5
523
330
2158
100
AcDbEntity
  8
0
  6
Continuous
 62
     0
100
AcDbLine
 10
6.895889078523619
 20
-0.0000000000003608
 30
0.0
 11
0.0
 21
-0.0000000000003608
 31
0.0
  0
INSERT
  5
524
330
2158
100
AcDbEntity
  8
0
100
AcDbBlockReference
  2
*U129
 10
0.0
 20
0.0
 30
0.0
  0
ENDBLK
  5
51D
330
2158
100
AcDbEntity
  8
0
100
AcDbBlockEnd
  0
BLOCK
  5
2159
330
215A
100
AcDbEntity
  8
0
100
AcDbBlockBegin
  2
*U129
 70
     1
 10
0.0
 20
0.0
 30
0.0
  3
*U129
  1

  0
TEXT
  5
1E09
330
215A
100
AcDbEntity
  8
0
 62
     0
100
AcDbText
 10
2.470456071792026
 20
0.4744947932679572
 30
0.0
 40
2.645833333333333
  1
2
 41
0.75
  7
SLDTEXTSTYLE0
100
AcDbText
  0
ENDBLK
  5
1E0B
330
215A
100
AcDbEntity
  8
0
100
AcDbBlockEnd
  0
BLOCK
  5
215B
330
215C
100
AcDbEntity
  8
0
100
AcDbBlockBegin
  2
SW_NOTE_4
 70
     0
 10
0.0
 20
0.0
 30
0.0
  3
SW_NOTE_4
  1

  0
LINE
  5
52A
330
215C
100
AcDbEntity
  8
0
  6
Continuous
 62
     0
100
AcDbLine
 10
-6.895889078523619
 20
-0.0000000000003608
 30
0.0
 11
0.0
 21
-0.0000000000003608
 31
0.0
  0
LINE
  5
52B
330
215C
100
AcDbEntity
  8
0
  6
Continuous
 62
     0
100
AcDbLine
 10
0.0
 20
-0.0000000000003608
 30
0.0
 11
-6.895889078523619
 21
-0.0000000000003608
 31
0.0
  0
LINE
  5
52C
330
215C
100
AcDbEntity
  8
0
  6
Continuous
 62
     0
100
AcDbLine
 10
-6.895889078523619
 20
-0.0000000000003608
 30
0.0
 11
0.0
 21
-0.0000000000003608
 31
0.0
  0
LINE
  5
52D
330
215C
100
AcDbEntity
  8
0
  6
Continuous
 62
     0
100
AcDbLine
 10
0.0
 20
-0.0000000000003608
 30
0.0
 11
-6.895889078523619
 21
-0.0000000000003608
 31
0.0
  0
LINE
  5
52E
330
215C
100
AcDbEntity
  8
0
  6
Continuous
 62
     0
100
AcDbLine
 10
-6.895889078523619
 20
-0.0000000000003608
 30
0.0
 11
0.0
 21
-0.0000000000003608
 31
0.0
  0
LINE
  5
52F
330
215C
100
AcDbEntity
  8
0
  6
Continuous
 62
     0
100
AcDbLine
 10
0.0
 20
-0.0000000000003608
 30
0.0
 11
-6.895889078523619
 21
-0.0000000000003608
 31
0.0
  0
INSERT
  5
530
330
215C
100
AcDbEntity
  8
0
100
AcDbBlockReference
  2
*U131
 10
0.0
 20
0.0
 30
0.0
  0
ENDBLK
  5
529
330
215C
100
AcDbEntity
  8
0
100
AcDbBlockEnd
  0
BLOCK
  5
215D
330
215E
100
AcDbEntity
  8
0
100
AcDbBlockBegin
  2
*U131
 70
     1
 10
0.0
 20
0.0
 30
0.0
  3
*U131
  1

  0
TEXT
  5
1E0D
330
215E
100
AcDbEntity
  8
0
 62
     0
100
AcDbText
 10
-4.42543300673162
 20
0.4744947932679291
 30
0.0
 40
2.645833333333333
  1
3
 41
0.75
  7
SLDTEXTSTYLE0
100
AcDbText
  0
ENDBLK
  5
1E0F
330
215E
100
AcDbEntity
  8
0
100
AcDbBlockEnd
  0
BLOCK
  5
215F
330
2160
100
AcDbEntity
  8
0
100
AcDbBlockBegin
  2
SW_NOTE_5
 70
     0
 10
0.0
 20
0.0
 30
0.0
  3
SW_NOTE_5
  1

  0
LINE
  5
536
330
2160
100
AcDbEntity
  8
0
  6
Continuous
 62
     0
100
AcDbLine
 10
-6.895889078523619
 20
-0.0000000000003053
 30
0.0
 11
0.0
 21
-0.0000000000003053
 31
0.0
  0
LINE
  5
537
330
2160
100
AcDbEntity
  8
0
  6
Continuous
 62
     0
100
AcDbLine
 10
0.0
 20
-0.0000000000003053
 30
0.0
 11
-6.895889078523619
 21
-0.0000000000003053
 31
0.0
  0
LINE
  5
538
330
2160
100
AcDbEntity
  8
0
  6
Continuous
 62
     0
100
AcDbLine
 10
-6.895889078523619
 20
-0.0000000000003053
 30
0.0
 11
0.0
 21
-0.0000000000003053
 31
0.0
  0
LINE
  5
539
330
2160
100
AcDbEntity
  8
0
  6
Continuous
 62
     0
100
AcDbLine
 10
0.0
 20
-0.0000000000003053
 30
0.0
 11
-6.895889078523619
 21
-0.0000000000003053
 31
0.0
  0
LINE
  5
53A
330
2160
100
AcDbEntity
  8
0
  6
Continuous
 62
     0
100
AcDbLine
 10
-6.895889078523619
 20
-0.0000000000003053
 30
0.0
 11
0.0
 21
-0.0000000000003053
 31
0.0
  0
LINE
  5
53B
330
2160
100
AcDbEntity
  8
0
  6
Continuous
 62
     0
100
AcDbLine
 10
0.0
 20
-0.0000000000003053
 30
0.0
 11
-6.895889078523619
 21
-0.0000000000003053
 31
0.0
  0
INSERT
  5
53C
330
2160
100
AcDbEntity
  8
0
100
AcDbBlockReference
  2
*U133
 10
0.0
 20
0.0
 30
0.0
  0
ENDBLK
  5
535
330
2160
100
AcDbEntity
  8
0
100
AcDbBlockEnd
  0
BLOCK
  5
2161
330
2162
100
AcDbEntity
  8
0
100
AcDbBlockBegin
  2
*U133
 70
     1
 10
0.0
 20
0.0
 30
0.0
  3
*U133
  1

  0
TEXT
  5
1E11
330
2162
100
AcDbEntity
  8
0
 62
     0
100
AcDbText
 10
-4.425433006731593
 20
0.4744947932680126
 30
0.0
 40
2.645833333333333
  1
4
 41
0.75
  7
SLDTEXTSTYLE0
100
AcDbText
  0
ENDBLK
  5
1E13
330
2162
100
AcDbEntity
  8
0
100
AcDbBlockEnd
  0
BLOCK
  5
2163
330
2164
100
AcDbEntity
  8
0
100
AcDbBlockBegin
  2
SW_NOTE_6
 70
     0
 10
0.0
 20
0.0
 30
0.0
  3
SW_NOTE_6
  1

  0
LINE
  5
542
330
2164
100
AcDbEntity
  8
0
  6
Continuous
 62
     0
100
AcDbLine
 10
-6.895889078523619
 20
-0.0000000000001388
 30
0.0
 11
0.0
 21
-0.0000000000001388
 31
0.0
  0
LINE
  5
543
330
2164
100
AcDbEntity
  8
0
  6
Continuous
 62
     0
100
AcDbLine
 10
0.0
 20
-0.0000000000001388
 30
0.0
 11
-6.895889078523619
 21
-0.0000000000001388
 31
0.0
  0
LINE
  5
544
330
2164
100
AcDbEntity
  8
0
  6
Continuous
 62
     0
100
AcDbLine
 10
-6.895889078523619
 20
-0.0000000000001388
 30
0.0
 11
0.0
 21
-0.0000000000001388
 31
0.0
  0
LINE
  5
545
330
2164
100
AcDbEntity
  8
0
  6
Continuous
 62
     0
100
AcDbLine
 10
0.0
 20
-0.0000000000001388
 30
0.0
 11
-6.895889078523619
 21
-0.0000000000001388
 31
0.0
  0
LINE
  5
546
330
2164
100
AcDbEntity
  8
0
  6
Continuous
 62
     0
100
AcDbLine
 10
-6.895889078523619
 20
-0.0000000000001388
 30
0.0
 11
0.0
 21
-0.0000000000001388
 31
0.0
  0
LINE
  5
547
330
2164
100
AcDbEntity
  8
0
  6
Continuous
 62
     0
100
AcDbLine
 10
0.0
 20
-0.0000000000001388
 30
0.0
 11
-6.895889078523619
 21
-0.0000000000001388
 31
0.0
  0
INSERT
  5
548
330
2164
100
AcDbEntity
  8
0
100
AcDbBlockReference
  2
*U135
 10
0.0
 20
0.0
 30
0.0
  0
ENDBLK
  5
541
330
2164
100
AcDbEntity
  8
0
100
AcDbBlockEnd
  0
BLOCK
  5
2165
330
2166
100
AcDbEntity
  8
0
100
AcDbBlockBegin
  2
*U135
 70
     1
 10
0.0
 20
0.0
 30
0.0
  3
*U135
  1

  0
TEXT
  5
1E15
330
2166
100
AcDbEntity
  8
0
 62
     0
100
AcDbText
 10
-5.40292147420146
 20
0.4744947932681792
 30
0.0
 40
2.645833333333333
  1
10
 41
0.75
  7
SLDTEXTSTYLE0
100
AcDbText
  0
ENDBLK
  5
1E17
330
2166
100
AcDbEntity
  8
0
100
AcDbBlockEnd
  0
BLOCK
  5
2167
330
2168
100
AcDbEntity
  8
0
100
AcDbBlockBegin
  2
SW_NOTE_7
 70
     0
 10
0.0
 20
0.0
 30
0.0
  3
SW_NOTE_7
  1

  0
LINE
  5
54E
330
2168
100
AcDbEntity
  8
0
  6
Continuous
 62
     0
100
AcDbLine
 10
-6.895889078523619
 20
-0.0000000000001665
 30
0.0
 11
0.0
 21
-0.0000000000001665
 31
0.0
  0
LINE
  5
54F
330
2168
100
AcDbEntity
  8
0
  6
Continuous
 62
     0
100
AcDbLine
 10
0.0
 20
-0.0000000000001665
 30
0.0
 11
-6.895889078523619
 21
-0.0000000000001665
 31
0.0
  0
LINE
  5
550
330
2168
100
AcDbEntity
  8
0
  6
Continuous
 62
     0
100
AcDbLine
 10
-6.895889078523619
 20
-0.0000000000001665
 30
0.0
 11
0.0
 21
-0.0000000000001665
 31
0.0
  0
LINE
  5
551
330
2168
100
AcDbEntity
  8
0
  6
Continuous
 62
     0
100
AcDbLine
 10
0.0
 20
-0.0000000000001665
 30
0.0
 11
-6.895889078523619
 21
-0.0000000000001665
 31
0.0
  0
LINE
  5
552
330
2168
100
AcDbEntity
  8
0
  6
Continuous
 62
     0
100
AcDbLine
 10
-6.895889078523619
 20
-0.0000000000001665
 30
0.0
 11
0.0
 21
-0.0000000000001665
 31
0.0
  0
LINE
  5
553
330
2168
100
AcDbEntity
  8
0
  6
Continuous
 62
     0
100
AcDbLine
 10
0.0
 20
-0.0000000000001665
 30
0.0
 11
-6.895889078523619
 21
-0.0000000000001665
 31
0.0
  0
INSERT
  5
554
330
2168
100
AcDbEntity
  8
0
100
AcDbBlockReference
  2
*U137
 10
0.0
 20
0.0
 30
0.0
  0
ENDBLK
  5
54D
330
2168
100
AcDbEntity
  8
0
100
AcDbBlockEnd
  0
BLOCK
  5
2169
330
216A
100
AcDbEntity
  8
0
100
AcDbBlockBegin
  2
*U137
 70
     1
 10
0.0
 20
0.0
 30
0.0
  3
*U137
  1

  0
TEXT
  5
1E19
330
216A
100
AcDbEntity
  8
0
 62
     0
100
AcDbText
 10
-5.402921474201404
 20
0.4744947932681236
 30
0.0
 40
2.645833333333333
  1
12
 41
0.75
  7
SLDTEXTSTYLE0
100
AcDbText
  0
ENDBLK
  5
1E1B
330
216A
100
AcDbEntity
  8
0
100
AcDbBlockEnd
  0
BLOCK
  5
216B
330
216C
100
AcDbEntity
  8
0
100
AcDbBlockBegin
  2
*D138
 70
     1
 10
0.0
 20
0.0
 30
0.0
  3
*D138
  1

  0
SOLID
  5
73A
330
216C
100
AcDbEntity
  8
0
  6
Continuous
 62
     7
100
AcDbTrace
 10
261.23746541387
 20
271.9794211510449
 30
0.0
 11
260.48746541387
 21
267.9794211510449
 31
0.0
 12
261.98746541387
 22
267.9794211510449
 32
0.0
 13
261.98746541387
 23
267.9794211510449
 33
0.0
  0
SOLID
  5
73B
330
216C
100
AcDbEntity
  8
0
  6
Continuous
 62
     7
100
AcDbTrace
 10
261.2374654138695
 20
210.8794211510449
 30
0.0
 11
261.9874654138695
 21
214.8794211510449
 31
0.0
 12
260.4874654138695
 22
214.8794211510449
 32
0.0
 13
260.4874654138695
 23
214.8794211510449
 33
0.0
  0
LINE
  5
73C
330
216C
100
AcDbEntity
  8
0
  6
Continuous
 62
     7
100
AcDbLine
 10
224.0018855281892
 20
271.9794211510452
 30
0.0
 11
262.23746541387
 21
271.9794211510449
 31
0.0
  0
LINE
  5
73D
330
216C
100
AcDbEntity
  8
0
  6
Continuous
 62
     7
100
AcDbLine
 10
250.4564979823117
 20
210.879421151045
 30
0.0
 11
262.2374654138695
 21
210.8794211510449
 31
0.0
  0
LINE
  5
73E
330
216C
100
AcDbEntity
  8
0
  6
Continuous
 62
     7
100
AcDbLine
 10
261.23746541387
 20
271.9794211510449
 30
0.0
 11
261.2374654138695
 21
210.8794211510449
 31
0.0
  0
INSERT
  5
73F
330
216C
100
AcDbEntity
  8
0
100
AcDbBlockReference
  2
*U139
 10
0.0
 20
0.0
 30
0.0
  0
ENDBLK
  5
739
330
216C
100
AcDbEntity
  8
0
100
AcDbBlockEnd
  0
BLOCK
  5
216D
330
216E
100
AcDbEntity
  8
0
100
AcDbBlockBegin
  2
*U139
 70
     1
 10
0.0
 20
0.0
 30
0.0
  3
*U139
  1

  0
TEXT
  5
1E1D
330
216E
100
AcDbEntity
  8
0
 62
     7
100
AcDbText
 10
260.4726404105974
 20
233.2636259747147
 30
-0.0000000000029381
 40
2.645833333333333
  1
427.70
 50
90.0
 41
0.75
  7
SLDTEXTSTYLE0
100
AcDbText
  0
ENDBLK
  5
1E1F
330
216E
100
AcDbEntity
  8
0
100
AcDbBlockEnd
  0
BLOCK
  5
216F
330
2170
100
AcDbEntity
  8
0
100
AcDbBlockBegin
  2
SW_NOTE_8
 70
     0
 10
0.0
 20
0.0
 30
0.0
  3
SW_NOTE_8
  1

  0
LINE
  5
743
330
2170
100
AcDbEntity
  8
0
  6
Continuous
 62
     0
100
AcDbLine
 10
-6.895889078523619
 20
-0.0000000000003053
 30
0.0
 11
0.0
 21
-0.0000000000003053
 31
0.0
  0
LINE
  5
744
330
2170
100
AcDbEntity
  8
0
  6
Continuous
 62
     0
100
AcDbLine
 10
0.0
 20
-0.0000000000003053
 30
0.0
 11
-6.895889078523619
 21
-0.0000000000003053
 31
0.0
  0
LINE
  5
745
330
2170
100
AcDbEntity
  8
0
  6
Continuous
 62
     0
100
AcDbLine
 10
-6.895889078523619
 20
-0.0000000000003053
 30
0.0
 11
0.0
 21
-0.0000000000003053
 31
0.0
  0
LINE
  5
746
330
2170
100
AcDbEntity
  8
0
  6
Continuous
 62
     0
100
AcDbLine
 10
0.0
 20
-0.0000000000003053
 30
0.0
 11
-6.895889078523619
 21
-0.0000000000003053
 31
0.0
  0
LINE
  5
747
330
2170
100
AcDbEntity
  8
0
  6
Continuous
 62
     0
100
AcDbLine
 10
-6.895889078523619
 20
-0.0000000000003053
 30
0.0
 11
0.0
 21
-0.0000000000003053
 31
0.0
  0
LINE
  5
748
330
2170
100
AcDbEntity
  8
0
  6
Continuous
 62
     0
100
AcDbLine
 10
0.0
 20
-0.0000000000003053
 30
0.0
 11
-6.895889078523619
 21
-0.0000000000003053
 31
0.0
  0
INSERT
  5
749
330
2170
100
AcDbEntity
  8
0
100
AcDbBlockReference
  2
*U141
 10
0.0
 20
0.0
 30
0.0
  0
ENDBLK
  5
742
330
2170
100
AcDbEntity
  8
0
100
AcDbBlockEnd
  0
BLOCK
  5
2171
330
2172
100
AcDbEntity
  8
0
100
AcDbBlockBegin
  2
*U141
 70
     1
 10
0.0
 20
0.0
 30
0.0
  3
*U141
  1

  0
TEXT
  5
1E21
330
2172
100
AcDbEntity
  8
0
 62
     0
100
AcDbText
 10
-5.40292147420146
 20
0.4744947932680126
 30
0.0
 40
2.645833333333333
  1
10
 41
0.75
  7
SLDTEXTSTYLE0
100
AcDbText
  0
ENDBLK
  5
1E23
330
2172
100
AcDbEntity
  8
0
100
AcDbBlockEnd
  0
BLOCK
  5
2173
330
2174
100
AcDbEntity
  8
0
100
AcDbBlockBegin
  2
*D142
 70
     1
 10
0.0
 20
0.0
 30
0.0
  3
*D142
  1

  0
SOLID
  5
92E
330
2174
100
AcDbEntity
  8
0
  6
Continuous
 62
     7
100
AcDbTrace
 10
143.5589978252385
 20
196.2165495560817
 30
0.0
 11
142.8089978252385
 21
192.2165495560817
 31
0.0
 12
144.3089978252386
 22
192.2165495560817
 32
0.0
 13
144.3089978252386
 23
192.2165495560817
 33
0.0
  0
SOLID
  5
92F
330
2174
100
AcDbEntity
  8
0
  6
Continuous
 62
     7
100
AcDbTrace
 10
143.5589978252394
 20
104.7879781275104
 30
0.0
 11
144.3089978252394
 21
108.7879781275104
 31
0.0
 12
142.8089978252394
 22
108.7879781275104
 32
0.0
 13
142.8089978252394
 23
108.7879781275104
 33
0.0
  0
LINE
  5
930
330
2174
100
AcDbEntity
  8
0
  6
Continuous
 62
     7
100
AcDbLine
 10
148.9422122680263
 20
196.2165495560817
 30
0.0
 11
142.5589978252386
 21
196.2165495560817
 31
0.0
  0
LINE
  5
931
330
2174
100
AcDbEntity
  8
0
  6
Continuous
 62
     7
100
AcDbLine
 10
148.9422122680266
 20
104.7879781275105
 30
0.0
 11
142.5589978252394
 21
104.7879781275104
 31
0.0
  0
LINE
  5
932
330
2174
100
AcDbEntity
  8
0
  6
Continuous
 62
     7
100
AcDbLine
 10
143.5589978252385
 20
196.2165495560817
 30
0.0
 11
143.5589978252394
 21
104.7879781275104
 31
0.0
  0
INSERT
  5
933
330
2174
100
AcDbEntity
  8
0
100
AcDbBlockReference
  2
*U143
 10
0.0
 20
0.0
 30
0.0
  0
ENDBLK
  5
92D
330
2174
100
AcDbEntity
  8
0
100
AcDbBlockEnd
  0
BLOCK
  5
2175
330
2176
100
AcDbEntity
  8
0
100
AcDbBlockBegin
  2
*U143
 70
     1
 10
0.0
 20
0.0
 30
0.0
  3
*U143
  1

  0
TEXT
  5
1E25
330
2176
100
AcDbEntity
  8
0
 62
     7
100
AcDbText
 10
142.794172821967
 20
130.5693726007268
 30
-0.000000000002221
 40
2.645833333333333
  1
640
 50
90.00000000000102
 41
0.75
  7
SLDTEXTSTYLE0
100
AcDbText
  0
ENDBLK
  5
1E27
330
2176
100
AcDbEntity
  8
0
100
AcDbBlockEnd
  0
BLOCK
  5
2177
330
2178
100
AcDbEntity
  8
0
100
AcDbBlockBegin
  2
SW_NOTE_9
 70
     0
 10
0.0
 20
0.0
 30
0.0
  3
SW_NOTE_9
  1

  0
LINE
  5
937
330
2178
100
AcDbEntity
  8
0
  6
Continuous
 62
     0
100
AcDbLine
 10
-6.895889078523619
 20
-0.0000000000001665
 30
0.0
 11
0.0
 21
-0.0000000000001665
 31
0.0
  0
LINE
  5
938
330
2178
100
AcDbEntity
  8
0
  6
Continuous
 62
     0
100
AcDbLine
 10
0.0
 20
-0.0000000000001665
 30
0.0
 11
-6.895889078523619
 21
-0.0000000000001665
 31
0.0
  0
LINE
  5
939
330
2178
100
AcDbEntity
  8
0
  6
Continuous
 62
     0
100
AcDbLine
 10
-6.895889078523619
 20
-0.0000000000001665
 30
0.0
 11
0.0
 21
-0.0000000000001665
 31
0.0
  0
LINE
  5
93A
330
2178
100
AcDbEntity
  8
0
  6
Continuous
 62
     0
100
AcDbLine
 10
0.0
 20
-0.0000000000001665
 30
0.0
 11
-6.895889078523619
 21
-0.0000000000001665
 31
0.0
  0
LINE
  5
93B
330
2178
100
AcDbEntity
  8
0
  6
Continuous
 62
     0
100
AcDbLine
 10
-6.895889078523619
 20
-0.0000000000001665
 30
0.0
 11
0.0
 21
-0.0000000000001665
 31
0.0
  0
LINE
  5
93C
330
2178
100
AcDbEntity
  8
0
  6
Continuous
 62
     0
100
AcDbLine
 10
0.0
 20
-0.0000000000001665
 30
0.0
 11
-6.895889078523619
 21
-0.0000000000001665
 31
0.0
  0
INSERT
  5
93D
330
2178
100
AcDbEntity
  8
0
100
AcDbBlockReference
  2
*U145
 10
0.0
 20
0.0
 30
0.0
  0
ENDBLK
  5
936
330
2178
100
AcDbEntity
  8
0
100
AcDbBlockEnd
  0
BLOCK
  5
2179
330
217A
100
AcDbEntity
  8
0
100
AcDbBlockBegin
  2
*U145
 70
     1
 10
0.0
 20
0.0
 30
0.0
  3
*U145
  1

  0
TEXT
  5
1E29
330
217A
100
AcDbEntity
  8
0
 62
     0
100
AcDbText
 10
-4.425433006731648
 20
0.4744947932681513
 30
0.0
 40
2.645833333333333
  1
6
 41
0.75
  7
SLDTEXTSTYLE0
100
AcDbText
  0
ENDBLK
  5
1E2B
330
217A
100
AcDbEntity
  8
0
100
AcDbBlockEnd
  0
BLOCK
  5
217B
330
217C
100
AcDbEntity
  8
0
100
AcDbBlockBegin
  2
SW_NOTE_10
 70
     0
 10
0.0
 20
0.0
 30
0.0
  3
SW_NOTE_10
  1

  0
LINE
  5
943
330
217C
100
AcDbEntity
  8
0
  6
Continuous
 62
     0
100
AcDbLine
 10
-6.895889078523619
 20
-0.000000000000222
 30
0.0
 11
0.0
 21
-0.000000000000222
 31
0.0
  0
LINE
  5
944
330
217C
100
AcDbEntity
  8
0
  6
Continuous
 62
     0
100
AcDbLine
 10
0.0
 20
-0.000000000000222
 30
0.0
 11
-6.895889078523619
 21
-0.000000000000222
 31
0.0
  0
LINE
  5
945
330
217C
100
AcDbEntity
  8
0
  6
Continuous
 62
     0
100
AcDbLine
 10
-6.895889078523619
 20
-0.000000000000222
 30
0.0
 11
0.0
 21
-0.000000000000222
 31
0.0
  0
LINE
  5
946
330
217C
100
AcDbEntity
  8
0
  6
Continuous
 62
     0
100
AcDbLine
 10
0.0
 20
-0.000000000000222
 30
0.0
 11
-6.895889078523619
 21
-0.000000000000222
 31
0.0
  0
LINE
  5
947
330
217C
100
AcDbEntity
  8
0
  6
Continuous
 62
     0
100
AcDbLine
 10
-6.895889078523619
 20
-0.000000000000222
 30
0.0
 11
0.0
 21
-0.000000000000222
 31
0.0
  0
LINE
  5
948
330
217C
100
AcDbEntity
  8
0
  6
Continuous
 62
     0
100
AcDbLine
 10
0.0
 20
-0.000000000000222
 30
0.0
 11
-6.895889078523619
 21
-0.000000000000222
 31
0.0
  0
INSERT
  5
949
330
217C
100
AcDbEntity
  8
0
100
AcDbBlockReference
  2
*U147
 10
0.0
 20
0.0
 30
0.0
  0
ENDBLK
  5
942
330
217C
100
AcDbEntity
  8
0
100
AcDbBlockEnd
  0
BLOCK
  5
217D
330
217E
100
AcDbEntity
  8
0
100
AcDbBlockBegin
  2
*U147
 70
     1
 10
0.0
 20
0.0
 30
0.0
  3
*U147
  1

  0
TEXT
  5
1E2D
330
217E
100
AcDbEntity
  8
0
 62
     0
100
AcDbText
 10
-5.40292147420146
 20
0.4744947932680681
 30
0.0
 40
2.645833333333333
  1
19
 41
0.75
  7
SLDTEXTSTYLE0
100
AcDbText
  0
ENDBLK
  5
1E2F
330
217E
100
AcDbEntity
  8
0
100
AcDbBlockEnd
  0
BLOCK
  5
217F
330
2180
100
AcDbEntity
  8
0
100
AcDbBlockBegin
  2
SW_NOTE_11
 70
     0
 10
0.0
 20
0.0
 30
0.0
  3
SW_NOTE_11
  1

  0
LINE
  5
94F
330
2180
100
AcDbEntity
  8
0
  6
Continuous
 62
     0
100
AcDbLine
 10
-6.895889078523619
 20
-0.0000000000001943
 30
0.0
 11
0.0
 21
-0.0000000000001943
 31
0.0
  0
LINE
  5
950
330
2180
100
AcDbEntity
  8
0
  6
Continuous
 62
     0
100
AcDbLine
 10
0.0
 20
-0.0000000000001943
 30
0.0
 11
-6.895889078523619
 21
-0.0000000000001943
 31
0.0
  0
LINE
  5
951
330
2180
100
AcDbEntity
  8
0
  6
Continuous
 62
     0
100
AcDbLine
 10
-6.895889078523619
 20
-0.0000000000001943
 30
0.0
 11
0.0
 21
-0.0000000000001943
 31
0.0
  0
LINE
  5
952
330
2180
100
AcDbEntity
  8
0
  6
Continuous
 62
     0
100
AcDbLine
 10
0.0
 20
-0.0000000000001943
 30
0.0
 11
-6.895889078523619
 21
-0.0000000000001943
 31
0.0
  0
LINE
  5
953
330
2180
100
AcDbEntity
  8
0
  6
Continuous
 62
     0
100
AcDbLine
 10
-6.895889078523619
 20
-0.0000000000001943
 30
0.0
 11
0.0
 21
-0.0000000000001943
 31
0.0
  0
LINE
  5
954
330
2180
100
AcDbEntity
  8
0
  6
Continuous
 62
     0
100
AcDbLine
 10
0.0
 20
-0.0000000000001943
 30
0.0
 11
-6.895889078523619
 21
-0.0000000000001943
 31
0.0
  0
INSERT
  5
955
330
2180
100
AcDbEntity
  8
0
100
AcDbBlockReference
  2
*U149
 10
0.0
 20
0.0
 30
0.0
  0
ENDBLK
  5
94E
330
2180
100
AcDbEntity
  8
0
100
AcDbBlockEnd
  0
BLOCK
  5
2181
330
2182
100
AcDbEntity
  8
0
100
AcDbBlockBegin
  2
*U149
 70
     1
 10
0.0
 20
0.0
 30
0.0
  3
*U149
  1

  0
TEXT
  5
1E31
330
2182
100
AcDbEntity
  8
0
 62
     0
100
AcDbText
 10
-5.40292147420146
 20
0.4744947932680962
 30
0.0
 40
2.645833333333333
  1
17
 41
0.75
  7
SLDTEXTSTYLE0
100
AcDbText
  0
ENDBLK
  5
1E33
330
2182
100
AcDbEntity
  8
0
100
AcDbBlockEnd
  0
BLOCK
  5
2183
330
2184
100
AcDbEntity
  8
0
100
AcDbBlockBegin
  2
SW_NOTE_12
 70
     0
 10
0.0
 20
0.0
 30
0.0
  3
SW_NOTE_12
  1

  0
LINE
  5
ABF
330
2184
100
AcDbEntity
  8
0
  6
Continuous
 62
     0
100
AcDbLine
 10
0.0
 20
-0.000000000000111
 30
0.0
 11
6.895889078523675
 21
-0.000000000000111
 31
0.0
  0
LINE
  5
AC0
330
2184
100
AcDbEntity
  8
0
  6
Continuous
 62
     0
100
AcDbLine
 10
6.895889078523675
 20
-0.000000000000111
 30
0.0
 11
0.0
 21
-0.000000000000111
 31
0.0
  0
LINE
  5
AC1
330
2184
100
AcDbEntity
  8
0
  6
Continuous
 62
     0
100
AcDbLine
 10
0.0
 20
-0.000000000000111
 30
0.0
 11
6.895889078523675
 21
-0.000000000000111
 31
0.0
  0
LINE
  5
AC2
330
2184
100
AcDbEntity
  8
0
  6
Continuous
 62
     0
100
AcDbLine
 10
6.895889078523675
 20
-0.000000000000111
 30
0.0
 11
0.0
 21
-0.000000000000111
 31
0.0
  0
LINE
  5
AC3
330
2184
100
AcDbEntity
  8
0
  6
Continuous
 62
     0
100
AcDbLine
 10
0.0
 20
-0.000000000000111
 30
0.0
 11
6.895889078523675
 21
-0.000000000000111
 31
0.0
  0
LINE
  5
AC4
330
2184
100
AcDbEntity
  8
0
  6
Continuous
 62
     0
100
AcDbLine
 10
6.895889078523675
 20
-0.000000000000111
 30
0.0
 11
0.0
 21
-0.000000000000111
 31
0.0
  0
INSERT
  5
AC5
330
2184
100
AcDbEntity
  8
0
100
AcDbBlockReference
  2
*U151
 10
0.0
 20
0.0
 30
0.0
  0
ENDBLK
  5
ABE
330
2184
100
AcDbEntity
  8
0
100
AcDbBlockEnd
  0
BLOCK
  5
2185
330
2186
100
AcDbEntity
  8
0
100
AcDbBlockBegin
  2
*U151
 70
     1
 10
0.0
 20
0.0
 30
0.0
  3
*U151
  1

  0
TEXT
  5
1E35
330
2186
100
AcDbEntity
  8
0
 62
     0
100
AcDbText
 10
2.47045607179197
 20
0.4744947932682071
 30
0.0
 40
2.645833333333333
  1
7
 41
0.75
  7
SLDTEXTSTYLE0
100
AcDbText
  0
ENDBLK
  5
1E37
330
2186
100
AcDbEntity
  8
0
100
AcDbBlockEnd
  0
BLOCK
  5
2187
330
2188
100
AcDbEntity
  8
0
100
AcDbBlockBegin
  2
SW_NOTE_13
 70
     0
 10
0.0
 20
0.0
 30
0.0
  3
SW_NOTE_13
  1

  0
LINE
  5
F8A
330
2188
100
AcDbEntity
  8
0
  6
Continuous
 62
     0
100
AcDbLine
 10
-6.895889078523619
 20
-0.0000000000001943
 30
0.0
 11
0.0
 21
-0.0000000000001943
 31
0.0
  0
LINE
  5
F8B
330
2188
100
AcDbEntity
  8
0
  6
Continuous
 62
     0
100
AcDbLine
 10
0.0
 20
-0.0000000000001943
 30
0.0
 11
-6.895889078523619
 21
-0.0000000000001943
 31
0.0
  0
LINE
  5
F8C
330
2188
100
AcDbEntity
  8
0
  6
Continuous
 62
     0
100
AcDbLine
 10
-6.895889078523619
 20
-0.0000000000001943
 30
0.0
 11
0.0
 21
-0.0000000000001943
 31
0.0
  0
LINE
  5
F8D
330
2188
100
AcDbEntity
  8
0
  6
Continuous
 62
     0
100
AcDbLine
 10
0.0
 20
-0.0000000000001943
 30
0.0
 11
-6.895889078523619
 21
-0.0000000000001943
 31
0.0
  0
LINE
  5
F8E
330
2188
100
AcDbEntity
  8
0
  6
Continuous
 62
     0
100
AcDbLine
 10
-6.895889078523619
 20
-0.0000000000001943
 30
0.0
 11
0.0
 21
-0.0000000000001943
 31
0.0
  0
LINE
  5
F8F
330
2188
100
AcDbEntity
  8
0
  6
Continuous
 62
     0
100
AcDbLine
 10
0.0
 20
-0.0000000000001943
 30
0.0
 11
-6.895889078523619
 21
-0.0000000000001943
 31
0.0
  0
INSERT
  5
F90
330
2188
100
AcDbEntity
  8
0
100
AcDbBlockReference
  2
*U153
 10
0.0
 20
0.0
 30
0.0
  0
ENDBLK
  5
F89
330
2188
100
AcDbEntity
  8
0
100
AcDbBlockEnd
  0
BLOCK
  5
2189
330
218A
100
AcDbEntity
  8
0
100
AcDbBlockBegin
  2
*U153
 70
     1
 10
0.0
 20
0.0
 30
0.0
  3
*U153
  1

  0
TEXT
  5
1E39
330
218A
100
AcDbEntity
  8
0
 62
     0
100
AcDbText
 10
-4.425433006731593
 20
0.4744947932680962
 30
0.0
 40
2.645833333333333
  1
9
 41
0.75
  7
SLDTEXTSTYLE0
100
AcDbText
  0
ENDBLK
  5
1E3B
330
218A
100
AcDbEntity
  8
0
100
AcDbBlockEnd
  0
BLOCK
  5
218B
330
218C
100
AcDbEntity
  8
0
100
AcDbBlockBegin
  2
SW_NOTE_14
 70
     0
 10
0.0
 20
0.0
 30
0.0
  3
SW_NOTE_14
  1

  0
LINE
  5
F96
330
218C
100
AcDbEntity
  8
0
  6
Continuous
 62
     0
100
AcDbLine
 10
-6.895889078523619
 20
-0.0000000000001908
 30
0.0
 11
0.0
 21
-0.0000000000001908
 31
0.0
  0
LINE
  5
F97
330
218C
100
AcDbEntity
  8
0
  6
Continuous
 62
     0
100
AcDbLine
 10
0.0
 20
-0.0000000000001908
 30
0.0
 11
-6.895889078523619
 21
-0.0000000000001908
 31
0.0
  0
LINE
  5
F98
330
218C
100
AcDbEntity
  8
0
  6
Continuous
 62
     0
100
AcDbLine
 10
-6.895889078523619
 20
-0.0000000000001908
 30
0.0
 11
0.0
 21
-0.0000000000001908
 31
0.0
  0
LINE
  5
F99
330
218C
100
AcDbEntity
  8
0
  6
Continuous
 62
     0
100
AcDbLine
 10
0.0
 20
-0.0000000000001908
 30
0.0
 11
-6.895889078523619
 21
-0.0000000000001908
 31
0.0
  0
LINE
  5
F9A
330
218C
100
AcDbEntity
  8
0
  6
Continuous
 62
     0
100
AcDbLine
 10
-6.895889078523619
 20
-0.0000000000001908
 30
0.0
 11
0.0
 21
-0.0000000000001908
 31
0.0
  0
LINE
  5
F9B
330
218C
100
AcDbEntity
  8
0
  6
Continuous
 62
     0
100
AcDbLine
 10
0.0
 20
-0.0000000000001908
 30
0.0
 11
-6.895889078523619
 21
-0.0000000000001908
 31
0.0
  0
INSERT
  5
F9C
330
218C
100
AcDbEntity
  8
0
100
AcDbBlockReference
  2
*U155
 10
0.0
 20
0.0
 30
0.0
  0
ENDBLK
  5
F95
330
218C
100
AcDbEntity
  8
0
100
AcDbBlockEnd
  0
BLOCK
  5
218D
330
218E
100
AcDbEntity
  8
0
100
AcDbBlockBegin
  2
*U155
 70
     1
 10
0.0
 20
0.0
 30
0.0
  3
*U155
  1

  0
TEXT
  5
1E3D
330
218E
100
AcDbEntity
  8
0
 62
     0
100
AcDbText
 10
-4.42543300673162
 20
0.4744947932681202
 30
0.0
 40
2.645833333333333
  1
5
 41
0.75
  7
SLDTEXTSTYLE0
100
AcDbText
  0
ENDBLK
  5
1E3F
330
218E
100
AcDbEntity
  8
0
100
AcDbBlockEnd
  0
BLOCK
  5
218F
330
2190
100
AcDbEntity
  8
0
100
AcDbBlockBegin
  2
SW_NOTE_15
 70
     0
 10
0.0
 20
0.0
 30
0.0
  3
SW_NOTE_15
  1

  0
LINE
  5
FA2
330
2190
100
AcDbEntity
  8
0
  6
Continuous
 62
     0
100
AcDbLine
 10
0.0
 20
-0.000000000000288
 30
0.0
 11
6.895889078523619
 21
-0.000000000000288
 31
0.0
  0
LINE
  5
FA3
330
2190
100
AcDbEntity
  8
0
  6
Continuous
 62
     0
100
AcDbLine
 10
6.895889078523619
 20
-0.000000000000288
 30
0.0
 11
0.0
 21
-0.000000000000288
 31
0.0
  0
LINE
  5
FA4
330
2190
100
AcDbEntity
  8
0
  6
Continuous
 62
     0
100
AcDbLine
 10
0.0
 20
-0.000000000000288
 30
0.0
 11
6.895889078523619
 21
-0.000000000000288
 31
0.0
  0
LINE
  5
FA5
330
2190
100
AcDbEntity
  8
0
  6
Continuous
 62
     0
100
AcDbLine
 10
6.895889078523619
 20
-0.000000000000288
 30
0.0
 11
0.0
 21
-0.000000000000288
 31
0.0
  0
LINE
  5
FA6
330
2190
100
AcDbEntity
  8
0
  6
Continuous
 62
     0
100
AcDbLine
 10
0.0
 20
-0.000000000000288
 30
0.0
 11
6.895889078523619
 21
-0.000000000000288
 31
0.0
  0
LINE
  5
FA7
330
2190
100
AcDbEntity
  8
0
  6
Continuous
 62
     0
100
AcDbLine
 10
6.895889078523619
 20
-0.000000000000288
 30
0.0
 11
0.0
 21
-0.000000000000288
 31
0.0
  0
INSERT
  5
FA8
330
2190
100
AcDbEntity
  8
0
100
AcDbBlockReference
  2
*U157
 10
0.0
 20
0.0
 30
0.0
  0
ENDBLK
  5
FA1
330
2190
100
AcDbEntity
  8
0
100
AcDbBlockEnd
  0
BLOCK
  5
2191
330
2192
100
AcDbEntity
  8
0
100
AcDbBlockBegin
  2
*U157
 70
     1
 10
0.0
 20
0.0
 30
0.0
  3
*U157
  1

  0
TEXT
  5
1E41
330
2192
100
AcDbEntity
  8
0
 62
     0
100
AcDbText
 10
2.470456071792026
 20
0.4744947932680228
 30
0.0
 40
2.645833333333333
  1
8
 41
0.75
  7
SLDTEXTSTYLE0
100
AcDbText
  0
ENDBLK
  5
1E43
330
2192
100
AcDbEntity
  8
0
100
AcDbBlockEnd
  0
BLOCK
  5
2193
330
2194
100
AcDbEntity
  8
0
100
AcDbBlockBegin
  2
SW_NOTE_16
 70
     0
 10
0.0
 20
0.0
 30
0.0
  3
SW_NOTE_16
  1

  0
LINE
  5
FAE
330
2194
100
AcDbEntity
  8
0
  6
Continuous
 62
     0
100
AcDbLine
 10
0.0
 20
-0.0000000000002012
 30
0.0
 11
6.895889078523619
 21
-0.0000000000002012
 31
0.0
  0
LINE
  5
FAF
330
2194
100
AcDbEntity
  8
0
  6
Continuous
 62
     0
100
AcDbLine
 10
6.895889078523619
 20
-0.0000000000002012
 30
0.0
 11
0.0
 21
-0.0000000000002012
 31
0.0
  0
LINE
  5
FB0
330
2194
100
AcDbEntity
  8
0
  6
Continuous
 62
     0
100
AcDbLine
 10
0.0
 20
-0.0000000000002012
 30
0.0
 11
0.0
 21
-4.597259385682596
 31
0.0
  0
LINE
  5
FB1
330
2194
100
AcDbEntity
  8
0
  6
Continuous
 62
     0
100
AcDbLine
 10
0.0
 20
-4.597259385682596
 30
0.0
 11
0.0
 21
-0.0000000000002012
 31
0.0
  0
LINE
  5
FB2
330
2194
100
AcDbEntity
  8
0
  6
Continuous
 62
     0
100
AcDbLine
 10
0.0
 20
-0.0000000000002012
 30
0.0
 11
6.895889078523619
 21
-0.0000000000002012
 31
0.0
  0
LINE
  5
FB3
330
2194
100
AcDbEntity
  8
0
  6
Continuous
 62
     0
100
AcDbLine
 10
6.895889078523619
 20
-0.0000000000002012
 30
0.0
 11
0.0
 21
-0.0000000000002012
 31
0.0
  0
INSERT
  5
FB4
330
2194
100
AcDbEntity
  8
0
100
AcDbBlockReference
  2
*U159
 10
0.0
 20
0.0
 30
0.0
  0
ENDBLK
  5
FAD
330
2194
100
AcDbEntity
  8
0
100
AcDbBlockEnd
  0
BLOCK
  5
2195
330
2196
100
AcDbEntity
  8
0
100
AcDbBlockBegin
  2
*U159
 70
     1
 10
0.0
 20
0.0
 30
0.0
  3
*U159
  1

  0
TEXT
  5
1E45
330
2196
100
AcDbEntity
  8
0
 62
     0
100
AcDbText
 10
1.492967604322158
 20
0.47449479326811
 30
0.0
 40
2.645833333333333
  1
13
 41
0.75
  7
SLDTEXTSTYLE0
100
AcDbText
  0
ENDBLK
  5
1E47
330
2196
100
AcDbEntity
  8
0
100
AcDbBlockEnd
  0
BLOCK
  5
2197
330
2198
100
AcDbEntity
  8
0
100
AcDbBlockBegin
  2
SW_NOTE_17
 70
     0
 10
0.0
 20
0.0
 30
0.0
  3
SW_NOTE_17
  1

  0
LINE
  5
FBA
330
2198
100
AcDbEntity
  8
0
  6
Continuous
 62
     0
100
AcDbLine
 10
-1.492967604322158
 20
4.887589653894075
 30
0.0
 11
-1.492967604322158
 21
0.2903302682116804
 31
0.0
  0
LINE
  5
FBB
330
2198
100
AcDbEntity
  8
0
  6
Continuous
 62
     0
100
AcDbLine
 10
-1.492967604322158
 20
0.2903302682116804
 30
0.0
 11
5.40292147420146
 21
0.2903302682116804
 31
0.0
  0
LINE
  5
FBC
330
2198
100
AcDbEntity
  8
0
  6
Continuous
 62
     0
100
AcDbLine
 10
5.40292147420146
 20
0.2903302682116804
 30
0.0
 11
-1.492967604322158
 21
0.2903302682116804
 31
0.0
  0
LINE
  5
FBD
330
2198
100
AcDbEntity
  8
0
  6
Continuous
 62
     0
100
AcDbLine
 10
-1.492967604322158
 20
0.2903302682116804
 30
0.0
 11
-1.492967604322158
 21
4.887589653894075
 31
0.0
  0
LINE
  5
FBE
330
2198
100
AcDbEntity
  8
0
  6
Continuous
 62
     0
100
AcDbLine
 10
-1.492967604322158
 20
4.887589653894075
 30
0.0
 11
-1.492967604322158
 21
0.2903302682116804
 31
0.0
  0
LINE
  5
FBF
330
2198
100
AcDbEntity
  8
0
  6
Continuous
 62
     0
100
AcDbLine
 10
-1.492967604322158
 20
0.2903302682116804
 30
0.0
 11
-1.492967604322158
 21
4.887589653894075
 31
0.0
  0
INSERT
  5
FC0
330
2198
100
AcDbEntity
  8
0
100
AcDbBlockReference
  2
*U161
 10
0.0
 20
0.0
 30
0.0
  0
ENDBLK
  5
FB9
330
2198
100
AcDbEntity
  8
0
100
AcDbBlockEnd
  0
BLOCK
  5
2199
330
219A
100
AcDbEntity
  8
0
100
AcDbBlockBegin
  2
*U161
 70
     1
 10
0.0
 20
0.0
 30
0.0
  3
*U161
  1

  0
TEXT
  5
1E49
330
219A
100
AcDbEntity
  8
0
 62
     0
100
AcDbText
 10
0.0
 20
0.7648250614799914
 30
0.0
 40
2.645833333333333
  1
20
 41
0.75
  7
SLDTEXTSTYLE0
100
AcDbText
  0
ENDBLK
  5
1E4B
330
219A
100
AcDbEntity
  8
0
100
AcDbBlockEnd
  0
BLOCK
  5
219B
330
219C
100
AcDbEntity
  8
0
100
AcDbBlockBegin
  2
SW_NOTE_18
 70
     0
 10
0.0
 20
0.0
 30
0.0
  3
SW_NOTE_18
  1

  0
LINE
  5
FC5
330
219C
100
AcDbEntity
  8
0
  6
Continuous
 62
     0
100
AcDbLine
 10
-1.492967604322158
 20
4.887589653894131
 30
0.0
 11
-1.492967604322158
 21
0.2903302682117359
 31
0.0
  0
LINE
  5
FC6
330
219C
100
AcDbEntity
  8
0
  6
Continuous
 62
     0
100
AcDbLine
 10
-1.492967604322158
 20
0.2903302682117359
 30
0.0
 11
5.40292147420146
 21
0.2903302682117359
 31
0.0
  0
LINE
  5
FC7
330
219C
100
AcDbEntity
  8
0
  6
Continuous
 62
     0
100
AcDbLine
 10
5.40292147420146
 20
0.2903302682117359
 30
0.0
 11
-1.492967604322158
 21
0.2903302682117359
 31
0.0
  0
LINE
  5
FC8
330
219C
100
AcDbEntity
  8
0
  6
Continuous
 62
     0
100
AcDbLine
 10
-1.492967604322158
 20
0.2903302682117359
 30
0.0
 11
-1.492967604322158
 21
4.887589653894131
 31
0.0
  0
LINE
  5
FC9
330
219C
100
AcDbEntity
  8
0
  6
Continuous
 62
     0
100
AcDbLine
 10
-1.492967604322158
 20
4.887589653894131
 30
0.0
 11
-1.492967604322158
 21
0.2903302682117359
 31
0.0
  0
LINE
  5
FCA
330
219C
100
AcDbEntity
  8
0
  6
Continuous
 62
     0
100
AcDbLine
 10
-1.492967604322158
 20
0.2903302682117359
 30
0.0
 11
-1.492967604322158
 21
4.887589653894131
 31
0.0
  0
INSERT
  5
FCB
330
219C
100
AcDbEntity
  8
0
100
AcDbBlockReference
  2
*U163
 10
0.0
 20
0.0
 30
0.0
  0
ENDBLK
  5
FC4
330
219C
100
AcDbEntity
  8
0
100
AcDbBlockEnd
  0
BLOCK
  5
219D
330
219E
100
AcDbEntity
  8
0
100
AcDbBlockBegin
  2
*U163
 70
     1
 10
0.0
 20
0.0
 30
0.0
  3
*U163
  1

  0
TEXT
  5
1E4D
330
219E
100
AcDbEntity
  8
0
 62
     0
100
AcDbText
 10
0.0
 20
0.7648250614799914
 30
0.0
 40
2.645833333333333
  1
14
 41
0.75
  7
SLDTEXTSTYLE0
100
AcDbText
  0
ENDBLK
  5
1E4F
330
219E
100
AcDbEntity
  8
0
100
AcDbBlockEnd
  0
BLOCK
  5
219F
330
21A0
100
AcDbEntity
  8
0
100
AcDbBlockBegin
  2
SW_NOTE_19
 70
     0
 10
0.0
 20
0.0
 30
0.0
  3
SW_NOTE_19
  1

  0
LINE
  5
FD0
330
21A0
100
AcDbEntity
  8
0
  6
Continuous
 62
     0
100
AcDbLine
 10
0.0
 20
-0.0000000000001665
 30
0.0
 11
6.895889078523619
 21
-0.0000000000001665
 31
0.0
  0
LINE
  5
FD1
330
21A0
100
AcDbEntity
  8
0
  6
Continuous
 62
     0
100
AcDbLine
 10
6.895889078523619
 20
-0.0000000000001665
 30
0.0
 11
0.0
 21
-0.0000000000001665
 31
0.0
  0
LINE
  5
FD2
330
21A0
100
AcDbEntity
  8
0
  6
Continuous
 62
     0
100
AcDbLine
 10
0.0
 20
-0.0000000000001665
 30
0.0
 11
0.0
 21
-4.59725938568256
 31
0.0
  0
LINE
  5
FD3
330
21A0
100
AcDbEntity
  8
0
  6
Continuous
 62
     0
100
AcDbLine
 10
0.0
 20
-4.59725938568256
 30
0.0
 11
0.0
 21
-0.0000000000001665
 31
0.0
  0
LINE
  5
FD4
330
21A0
100
AcDbEntity
  8
0
  6
Continuous
 62
     0
100
AcDbLine
 10
0.0
 20
-0.0000000000001665
 30
0.0
 11
6.895889078523619
 21
-0.0000000000001665
 31
0.0
  0
LINE
  5
FD5
330
21A0
100
AcDbEntity
  8
0
  6
Continuous
 62
     0
100
AcDbLine
 10
6.895889078523619
 20
-0.0000000000001665
 30
0.0
 11
0.0
 21
-0.0000000000001665
 31
0.0
  0
INSERT
  5
FD6
330
21A0
100
AcDbEntity
  8
0
100
AcDbBlockReference
  2
*U165
 10
0.0
 20
0.0
 30
0.0
  0
ENDBLK
  5
FCF
330
21A0
100
AcDbEntity
  8
0
100
AcDbBlockEnd
  0
BLOCK
  5
21A1
330
21A2
100
AcDbEntity
  8
0
100
AcDbBlockBegin
  2
*U165
 70
     1
 10
0.0
 20
0.0
 30
0.0
  3
*U165
  1

  0
TEXT
  5
1E51
330
21A2
100
AcDbEntity
  8
0
 62
     0
100
AcDbText
 10
1.492967604322158
 20
0.4744947932681513
 30
0.0
 40
2.645833333333333
  1
18
 41
0.75
  7
SLDTEXTSTYLE0
100
AcDbText
  0
ENDBLK
  5
1E53
330
21A2
100
AcDbEntity
  8
0
100
AcDbBlockEnd
  0
BLOCK
  5
21A3
330
21A4
100
AcDbEntity
  8
0
100
AcDbBlockBegin
  2
SW_NOTE_20
 70
     0
 10
0.0
 20
0.0
 30
0.0
  3
SW_NOTE_20
  1

  0
LINE
  5
FDC
330
21A4
100
AcDbEntity
  8
0
  6
Continuous
 62
     0
100
AcDbLine
 10
-1.492967604322158
 20
4.887589653894103
 30
0.0
 11
-1.492967604322158
 21
0.2903302682117081
 31
0.0
  0
LINE
  5
FDD
330
21A4
100
AcDbEntity
  8
0
  6
Continuous
 62
     0
100
AcDbLine
 10
-1.492967604322158
 20
0.2903302682117081
 30
0.0
 11
5.40292147420146
 21
0.2903302682117081
 31
0.0
  0
LINE
  5
FDE
330
21A4
100
AcDbEntity
  8
0
  6
Continuous
 62
     0
100
AcDbLine
 10
5.40292147420146
 20
0.2903302682117081
 30
0.0
 11
-1.492967604322158
 21
0.2903302682117081
 31
0.0
  0
LINE
  5
FDF
330
21A4
100
AcDbEntity
  8
0
  6
Continuous
 62
     0
100
AcDbLine
 10
-1.492967604322158
 20
0.2903302682117081
 30
0.0
 11
-1.492967604322158
 21
4.887589653894103
 31
0.0
  0
LINE
  5
FE0
330
21A4
100
AcDbEntity
  8
0
  6
Continuous
 62
     0
100
AcDbLine
 10
-1.492967604322158
 20
4.887589653894103
 30
0.0
 11
-1.492967604322158
 21
0.2903302682117081
 31
0.0
  0
LINE
  5
FE1
330
21A4
100
AcDbEntity
  8
0
  6
Continuous
 62
     0
100
AcDbLine
 10
-1.492967604322158
 20
0.2903302682117081
 30
0.0
 11
-1.492967604322158
 21
4.887589653894103
 31
0.0
  0
INSERT
  5
FE2
330
21A4
100
AcDbEntity
  8
0
100
AcDbBlockReference
  2
*U167
 10
0.0
 20
0.0
 30
0.0
  0
ENDBLK
  5
FDB
330
21A4
100
AcDbEntity
  8
0
100
AcDbBlockEnd
  0
BLOCK
  5
21A5
330
21A6
100
AcDbEntity
  8
0
100
AcDbBlockBegin
  2
*U167
 70
     1
 10
0.0
 20
0.0
 30
0.0
  3
*U167
  1

  0
TEXT
  5
1E55
330
21A6
100
AcDbEntity
  8
0
 62
     0
100
AcDbText
 10
0.0
 20
0.7648250614799986
 30
0.0
 40
2.645833333333333
  1
15
 41
0.75
  7
SLDTEXTSTYLE0
100
AcDbText
  0
ENDBLK
  5
1E57
330
21A6
100
AcDbEntity
  8
0
100
AcDbBlockEnd
  0
BLOCK
  5
21A7
330
21A8
100
AcDbEntity
  8
0
100
AcDbBlockBegin
  2
SW_NOTE_21
 70
     0
 10
0.0
 20
0.0
 30
0.0
  3
SW_NOTE_21
  1

  0
LINE
  5
FE7
330
21A8
100
AcDbEntity
  8
0
  6
Continuous
 62
     0
100
AcDbLine
 10
-1.492967604322158
 20
4.887589653894131
 30
0.0
 11
-1.492967604322158
 21
0.2903302682117081
 31
0.0
  0
LINE
  5
FE8
330
21A8
100
AcDbEntity
  8
0
  6
Continuous
 62
     0
100
AcDbLine
 10
-1.492967604322158
 20
0.2903302682117081
 30
0.0
 11
5.40292147420146
 21
0.2903302682117081
 31
0.0
  0
LINE
  5
FE9
330
21A8
100
AcDbEntity
  8
0
  6
Continuous
 62
     0
100
AcDbLine
 10
5.40292147420146
 20
0.2903302682117081
 30
0.0
 11
-1.492967604322158
 21
0.2903302682117081
 31
0.0
  0
LINE
  5
FEA
330
21A8
100
AcDbEntity
  8
0
  6
Continuous
 62
     0
100
AcDbLine
 10
-1.492967604322158
 20
0.2903302682117081
 30
0.0
 11
-1.492967604322158
 21
4.887589653894131
 31
0.0
  0
LINE
  5
FEB
330
21A8
100
AcDbEntity
  8
0
  6
Continuous
 62
     0
100
AcDbLine
 10
-1.492967604322158
 20
4.887589653894131
 30
0.0
 11
-1.492967604322158
 21
0.2903302682117081
 31
0.0
  0
LINE
  5
FEC
330
21A8
100
AcDbEntity
  8
0
  6
Continuous
 62
     0
100
AcDbLine
 10
-1.492967604322158
 20
0.2903302682117081
 30
0.0
 11
-1.492967604322158
 21
4.887589653894131
 31
0.0
  0
INSERT
  5
FED
330
21A8
100
AcDbEntity
  8
0
100
AcDbBlockReference
  2
*U169
 10
0.0
 20
0.0
 30
0.0
  0
ENDBLK
  5
FE6
330
21A8
100
AcDbEntity
  8
0
100
AcDbBlockEnd
  0
BLOCK
  5
21A9
330
21AA
100
AcDbEntity
  8
0
100
AcDbBlockBegin
  2
*U169
 70
     1
 10
0.0
 20
0.0
 30
0.0
  3
*U169
  1

  0
TEXT
  5
1E59
330
21AA
100
AcDbEntity
  8
0
 62
     0
100
AcDbText
 10
0.0
 20
0.7648250614799986
 30
0.0
 40
2.645833333333333
  1
16
 41
0.75
  7
SLDTEXTSTYLE0
100
AcDbText
  0
ENDBLK
  5
1E5B
330
21AA
100
AcDbEntity
  8
0
100
AcDbBlockEnd
  0
BLOCK
  5
21AB
330
21AC
100
AcDbEntity
  8
0
100
AcDbBlockBegin
  2
*U170
 70
     1
 10
0.0
 20
0.0
 30
0.0
  3
*U170
  1

  0
TEXT
  5
1E6C
330
21AC
100
AcDbEntity
  8
0
100
AcDbText
 10
699.5220720144645
 20
1635.067454619116
 30
0.0
 40
55.0
  1
VKS 600x350
100
AcDbText
  0
ENDBLK
  5
1E6E
330
21AC
100
AcDbEntity
  8
0
100
AcDbBlockEnd
  0
BLOCK
  5
21AD
330
21AE
100
AcDbEntity
  8
0
100
AcDbBlockBegin
  2
*U171
 70
     1
 10
0.0
 20
0.0
 30
0.0
  3
*U171
  1

  0
TEXT
  5
1E70
330
21AE
100
AcDbEntity
  8
0
100
AcDbText
 10
1728.072937581584
 20
1635.067454619116
 30
0.0
 40
55.0
  1
VKS 600x350
100
AcDbText
  0
ENDBLK
  5
1E72
330
21AE
100
AcDbEntity
  8
0
100
AcDbBlockEnd
  0
BLOCK
  5
21AF
330
21B0
100
AcDbEntity
  8
0
100
AcDbBlockBegin
  2
*U172
 70
     1
 10
0.0
 20
0.0
 30
0.0
  3
*U172
  1

  0
TEXT
  5
1E74
330
21B0
100
AcDbEntity
  8
0
100
AcDbText
 10
699.5220720144645
 20
899.4959174908977
 30
0.0
 40
55.0
  1
VKS 600x350
100
AcDbText
  0
ENDBLK
  5
1E76
330
21B0
100
AcDbEntity
  8
0
100
AcDbBlockEnd
  0
BLOCK
  5
2353
330
2352
100
AcDbEntity
  8
0
100
AcDbBlockBegin
  2
*U174
 70
     1
 10
0.0
 20
0.0
 30
0.0
  3
*U174
  1

  0
TEXT
  5
2354
330
2352
100
AcDbEntity
  8
LENKIMO
  6
CENTERX2
100
AcDbText
 10
801.2712978691851
 20
1410.897389739665
 30
0.0
 40
100.0
  1
B
100
AcDbText
  0
ENDBLK
  5
2355
330
2352
100
AcDbEntity
  8
0
100
AcDbBlockEnd
  0
BLOCK
  5
2358
330
2357
100
AcDbEntity
  8
0
100
AcDbBlockBegin
  2
*U175
 70
     1
 10
0.0
 20
0.0
 30
0.0
  3
*U175
  1

  0
TEXT
  5
2359
330
2357
100
AcDbEntity
  8
LENKIMO
  6
CENTERX2
100
AcDbText
 10
799.0717146298566
 20
1100.336970457902
 30
0.0
 40
100.0
  1
A
100
AcDbText
  0
ENDBLK
  5
235A
330
2357
100
AcDbEntity
  8
0
100
AcDbBlockEnd
  0
ENDSEC
  0
SECTION
  2
ENTITIES
  0
LINE
  5
17F4
330
2038
100
AcDbEntity
  8
0
  6
Continuous
 62
     7
100
AcDbLine
 10
639.6717906540953
 20
240.4255096984349
 30
0.0
 11
1339.671778733166
 21
240.4255096984349
 31
0.0
  0
LINE
  5
17F6
330
2038
100
AcDbEntity
  8
0
  6
Continuous
 62
     7
100
AcDbLine
 10
639.6717906540953
 20
223.6755018306214
 30
0.0
 11
639.6717906540953
 21
228.6754970622496
 31
0.0
  0
LINE
  5
17F9
330
2038
100
AcDbEntity
  8
0
  6
Continuous
 62
     7
100
AcDbLine
 10
1339.671778733166
 20
228.6754970622496
 30
0.0
 11
1339.671778733166
 21
223.6755018306214
 31
0.0
  0
LINE
  5
17FD
330
2038
100
AcDbEntity
  8
0
  6
Continuous
 62
     7
100
AcDbLine
 10
639.6717906540953
 20
228.6754970622496
 30
0.0
 11
639.6717906540953
 21
841.4255206656889
 31
0.0
  0
LINE
  5
17FF
330
2038
100
AcDbEntity
  8
0
  6
Continuous
 62
     7
100
AcDbLine
 10
639.6717906540953
 20
841.4255206656889
 30
0.0
 11
641.3717747277342
 21
841.4255206656889
 31
0.0
  0
LINE
  5
1801
330
2038
100
AcDbEntity
  8
0
  6
Continuous
 62
     7
100
AcDbLine
 10
641.3717747277342
 20
841.4255206656889
 30
0.0
 11
649.6717811173521
 21
841.4255206656889
 31
0.0
  0
LINE
  5
1803
330
2038
100
AcDbEntity
  8
0
  6
Continuous
 62
     7
100
AcDbLine
 10
1339.671778733166
 20
841.4255206656889
 30
0.0
 11
1339.671778733166
 21
228.6754970622496
 31
0.0
  0
LINE
  5
1804
330
2038
100
AcDbEntity
  8
0
  6
Continuous
 62
     7
100
AcDbLine
 10
1337.971764857205
 20
841.4255206656889
 30
0.0
 11
1339.671778733166
 21
841.4255206656889
 31
0.0
  0
LINE
  5
1806
330
2038
100
AcDbEntity
  8
0
  6
Continuous
 62
     7
100
AcDbLine
 10
1329.671788269909
 20
841.4255206656889
 30
0.0
 11
1337.971764857205
 21
841.4255206656889
 31
0.0
  0
LINE
  5
180D
330
2038
100
AcDbEntity
  8
0
  6
Continuous
 62
     7
100
AcDbLine
 10
649.6717811173521
 20
841.4255206656894
 30
0.0
 11
1329.671788269909
 21
841.4255206656894
 31
0.0
  0
LINE
  5
181A
330
2038
100
AcDbEntity
  8
0
  6
Continuous
 62
     7
100
AcDbLine
 10
639.6717906540953
 20
842.1255176139313
 30
0.0
 11
639.6717906540953
 21
856.4255063605742
 31
0.0
  0
LINE
  5
181E
330
2038
100
AcDbEntity
  8
0
  6
Continuous
 62
     7
100
AcDbLine
 10
639.6717906540953
 20
856.4255063605742
 30
0.0
 11
639.6717906540953
 21
861.4255015922027
 31
0.0
  0
LINE
  5
181F
330
2038
100
AcDbEntity
  8
0
  6
Continuous
 62
     7
100
AcDbLine
 10
1339.671778733166
 20
856.4255063605742
 30
0.0
 11
1339.671778733166
 21
842.1255176139313
 31
0.0
  0
LINE
  5
1822
330
2038
100
AcDbEntity
  8
0
  6
Continuous
 62
     7
100
AcDbLine
 10
1339.671778733166
 20
861.4255015922027
 30
0.0
 11
1339.671778733166
 21
856.4255063605742
 31
0.0
  0
LINE
  5
1826
330
2038
100
AcDbEntity
  8
0
  6
Continuous
 62
     7
100
AcDbLine
 10
639.6717906540953
 20
223.1254999709604
 30
0.0
 11
639.6717906540953
 21
220.4255158973215
 31
0.0
  0
LINE
  5
1828
330
2038
100
AcDbEntity
  8
0
  6
Continuous
 62
     7
100
AcDbLine
 10
1339.674640932609
 20
220.4255199934227
 30
0.0
 11
1339.671778733166
 21
223.1254999709604
 31
0.0
  0
LINE
  5
1831
330
2038
100
AcDbEntity
  8
0
  6
Continuous
 62
     7
100
AcDbLine
 10
639.6717906540953
 20
223.1254999709567
 30
0.0
 11
639.6717906540953
 21
223.6755018306217
 31
0.0
  0
LINE
  5
1837
330
2038
100
AcDbEntity
  8
0
  6
Continuous
 62
     7
100
AcDbLine
 10
1339.671778733166
 20
223.6755018306217
 30
0.0
 11
1339.671778733166
 21
223.1254999709567
 31
0.0
  0
LINE
  5
183F
330
2038
100
AcDbEntity
  8
0
  6
Continuous
 62
     7
100
AcDbLine
 10
639.6717906540953
 20
842.1255176139352
 30
0.0
 11
639.6717906540953
 21
841.425520665693
 31
0.0
  0
LINE
  5
1840
330
2038
100
AcDbEntity
  8
0
  6
Continuous
 62
     7
100
AcDbLine
 10
1339.671778733166
 20
841.425520665693
 30
0.0
 11
1339.671778733166
 21
842.1255176139352
 31
0.0
  0
LINE
  5
18B0
330
2038
100
AcDbEntity
  8
0
  6
Continuous
 62
     7
100
AcDbLine
 10
1737.024004865815
 20
1539.695790099701
 30
0.0
 11
1737.024004865815
 21
1547.995796489318
 31
0.0
  0
LINE
  5
18B4
330
2038
100
AcDbEntity
  8
0
  6
Continuous
 62
     7
100
AcDbLine
 10
1737.024004865815
 20
1566.995794015726
 30
0.0
 11
1737.024004865815
 21
1568.695792990526
 31
0.0
  0
LINE
  5
18B5
330
2038
100
AcDbEntity
  8
0
  6
Continuous
 62
     7
100
AcDbLine
 10
1737.024004865815
 20
1568.695792990526
 30
0.0
 11
2349.774028469255
 21
1568.695792990526
 31
0.0
  0
LINE
  5
18B6
330
2038
100
AcDbEntity
  8
0
  6
Continuous
 62
     7
100
AcDbLine
 10
1737.024004865815
 20
1548.695793437561
 30
0.0
 11
1737.024004865815
 21
1550.395792412361
 31
0.0
  0
LINE
  5
18B8
330
2038
100
AcDbEntity
  8
0
  6
Continuous
 62
     7
100
AcDbLine
 10
2337.024028707674
 20
1548.695793437561
 30
0.0
 11
1738.724018741776
 21
1548.695793437561
 31
0.0
  0
LINE
  5
18B9
330
2038
100
AcDbEntity
  8
0
  6
Continuous
 62
     7
100
AcDbLine
 10
1737.174834419419
 20
1548.695793437561
 30
0.0
 11
1737.024004865815
 21
1548.695793437561
 31
0.0
  0
LINE
  5
18BA
330
2038
100
AcDbEntity
  8
0
  6
Continuous
 62
     7
100
AcDbLine
 10
1738.724018741776
 20
1548.695793437561
 30
0.0
 11
1737.174834419419
 21
1548.695793437561
 31
0.0
  0
CIRCLE
  5
18BC
330
2038
100
AcDbEntity
  8
0
  6
Continuous
 62
     7
100
AcDbCircle
 10
2347.024018065944
 20
1558.695793481494
 30
0.0
 40
5.25
  0
LINE
  5
18BE
330
2038
100
AcDbEntity
  8
0
  6
Continuous
 62
     7
100
AcDbLine
 10
1737.024004865815
 20
1566.995794015726
 30
0.0
 11
1737.024004865815
 21
1550.395792412361
 31
0.0
  0
LINE
  5
18C1
330
2038
100
AcDbEntity
  8
0
  6
Continuous
 62
     7
100
AcDbLine
 10
2354.774023700883
 20
1548.695793437561
 30
0.0
 11
2354.774023700883
 21
1563.695794033607
 31
0.0
  0
ARC
  5
18C2
330
2038
100
AcDbEntity
  8
0
  6
Continuous
 62
     7
100
AcDbCircle
 10
2349.774018065943
 20
1563.69579348149
 30
0.0
 40
5.0
100
AcDbArc
 50
0.0
 51
89.99999999999348
  0
LINE
  5
18C4
330
2038
100
AcDbEntity
  8
0
  6
Continuous
 62
     7
100
AcDbLine
 10
1746.024008203675
 20
1198.695806848606
 30
0.0
 11
1737.72403161638
 21
1198.695806848606
 31
0.0
  0
LINE
  5
18C8
330
2038
100
AcDbEntity
  8
0
  6
Continuous
 62
     7
100
AcDbLine
 10
1737.024004865815
 20
1198.695806848606
 30
0.0
 11
1735.324020792176
 21
1198.695806848606
 31
0.0
  0
LINE
  5
18C9
330
2038
100
AcDbEntity
  8
0
  6
Continuous
 62
     7
100
AcDbLine
 10
1737.024004865815
 20
1548.695793437561
 30
0.0
 11
1737.024004865815
 21
1200.395790922245
 31
0.0
  0
LINE
  5
18CB
330
2038
100
AcDbEntity
  8
0
  6
Continuous
 62
     7
100
AcDbLine
 10
1737.024004865815
 20
1198.846606599887
 30
0.0
 11
1737.024004865815
 21
1198.695806848606
 31
0.0
  0
LINE
  5
18CC
330
2038
100
AcDbEntity
  8
0
  6
Continuous
 62
     7
100
AcDbLine
 10
1737.024004865815
 20
1200.395790922245
 30
0.0
 11
1737.024004865815
 21
1198.846606599887
 31
0.0
  0
LINE
  5
18CD
330
2038
100
AcDbEntity
  8
0
  6
Continuous
 62
     7
100
AcDbLine
 10
1737.024004865815
 20
1566.445792156061
 30
0.0
 11
1722.02401917093
 21
1566.445792156061
 31
0.0
  0
CIRCLE
  5
18CE
330
2038
100
AcDbEntity
  8
0
  6
Continuous
 62
     7
100
AcDbCircle
 10
1727.024018065944
 20
1558.695793481492
 30
0.0
 40
5.25
  0
LINE
  5
18D0
330
2038
100
AcDbEntity
  8
0
  6
Continuous
 62
     7
100
AcDbLine
 10
1718.72400801294
 20
1198.695806848606
 30
0.0
 11
1735.324020792176
 21
1198.695806848606
 31
0.0
  0
ARC
  5
18D4
330
2038
100
AcDbEntity
  8
0
  6
Continuous
 62
     7
100
AcDbCircle
 10
1722.024018065944
 20
1561.445793481492
 30
0.0
 40
5.0
100
AcDbArc
 50
90.0
 51
180.0
  0
LINE
  5
18D5
330
2038
100
AcDbEntity
  8
0
  6
Continuous
 62
     7
100
AcDbLine
 10
1717.024023939301
 20
1198.695806848606
 30
0.0
 11
1717.024023939301
 21
1561.445793199142
 31
0.0
  0
LINE
  5
18D6
330
2038
100
AcDbEntity
  8
0
  6
Continuous
 62
     7
100
AcDbLine
 10
1718.72400801294
 20
1198.695806848606
 30
0.0
 11
1717.024023939301
 21
1198.695806848606
 31
0.0
  0
LINE
  5
18DA
330
2038
100
AcDbEntity
  8
0
  6
Continuous
 62
     7
100
AcDbLine
 10
2328.024025369813
 20
1548.695793437561
 30
0.0
 11
2336.324031759431
 21
1548.695793437561
 31
0.0
  0
LINE
  5
18DC
330
2038
100
AcDbEntity
  8
0
  6
Continuous
 62
     7
100
AcDbLine
 10
2355.324025560548
 20
1548.695793437561
 30
0.0
 11
2357.024009634187
 21
1548.695793437561
 31
0.0
  0
LINE
  5
18DD
330
2038
100
AcDbEntity
  8
0
  6
Continuous
 62
     7
100
AcDbLine
 10
2357.024009634187
 20
1548.695793437561
 30
0.0
 11
2357.024009634187
 21
1185.945807087024
 31
0.0
  0
LINE
  5
18DF
330
2038
100
AcDbEntity
  8
0
  6
Continuous
 62
     7
100
AcDbLine
 10
2337.024028707674
 20
1548.695793437561
 30
0.0
 11
2338.724012781312
 21
1548.695793437561
 31
0.0
  0
LINE
  5
18E0
330
2038
100
AcDbEntity
  8
0
  6
Continuous
 62
     7
100
AcDbLine
 10
2337.024028707674
 20
1198.695806848606
 30
0.0
 11
2337.024028707674
 21
1546.995794462761
 31
0.0
  0
LINE
  5
18E1
330
2038
100
AcDbEntity
  8
0
  6
Continuous
 62
     7
100
AcDbLine
 10
2337.024028707674
 20
1548.544986235698
 30
0.0
 11
2337.024028707674
 21
1548.695793437561
 31
0.0
  0
LINE
  5
18E2
330
2038
100
AcDbEntity
  8
0
  6
Continuous
 62
     7
100
AcDbLine
 10
2337.024028707674
 20
1546.995794462761
 30
0.0
 11
2337.024028707674
 21
1548.544986235698
 31
0.0
  0
LINE
  5
18E3
330
2038
100
AcDbEntity
  8
0
  6
Continuous
 62
     7
100
AcDbLine
 10
2355.324025560548
 20
1548.695793437561
 30
0.0
 11
2338.724012781312
 21
1548.695793437561
 31
0.0
  0
LINE
  5
18E4
330
2038
100
AcDbEntity
  8
0
  6
Continuous
 62
     7
100
AcDbLine
 10
2337.024028707674
 20
1180.945782053073
 30
0.0
 11
2352.024014402559
 21
1180.945782053073
 31
0.0
  0
ARC
  5
18E6
330
2038
100
AcDbEntity
  8
0
  6
Continuous
 62
     7
100
AcDbCircle
 10
2352.024018065944
 20
1185.94579348149
 30
0.0
 40
5.0
100
AcDbArc
 50
270.0
 51
0.0
  0
CIRCLE
  5
18E7
330
2038
100
AcDbEntity
  8
0
  6
Continuous
 62
     7
100
AcDbCircle
 10
2347.024018065944
 20
1188.69579348149
 30
0.0
 40
5.24999999999997
  0
LINE
  5
18ED
330
2038
100
AcDbEntity
  8
0
  6
Continuous
 62
     7
100
AcDbLine
 10
2337.024028707674
 20
1199.395803796848
 30
0.0
 11
2337.024028707674
 21
1207.695780384143
 31
0.0
  0
LINE
  5
18F0
330
2038
100
AcDbEntity
  8
0
  6
Continuous
 62
     7
100
AcDbLine
 10
1737.024004865815
 20
1198.695806848606
 30
0.0
 11
2335.324014831712
 21
1198.695806848606
 31
0.0
  0
LINE
  5
18F2
330
2038
100
AcDbEntity
  8
0
  6
Continuous
 62
     7
100
AcDbLine
 10
2337.024028707674
 20
1198.695806848606
 30
0.0
 11
2337.024028707674
 21
1196.995792972644
 31
0.0
  0
LINE
  5
18F3
330
2038
100
AcDbEntity
  8
0
  6
Continuous
 62
     7
100
AcDbLine
 10
2336.873199154069
 20
1198.695806848606
 30
0.0
 11
2337.024028707674
 21
1198.695806848606
 31
0.0
  0
LINE
  5
18F4
330
2038
100
AcDbEntity
  8
0
  6
Continuous
 62
     7
100
AcDbLine
 10
2335.324014831712
 20
1198.695806848606
 30
0.0
 11
2336.873199154069
 21
1198.695806848606
 31
0.0
  0
LINE
  5
18F5
330
2038
100
AcDbEntity
  8
0
  6
Continuous
 62
     7
100
AcDbLine
 10
2337.024028707674
 20
1178.69579611977
 30
0.0
 11
1724.274005104234
 21
1178.69579611977
 31
0.0
  0
LINE
  5
18F6
330
2038
100
AcDbEntity
  8
0
  6
Continuous
 62
     7
100
AcDbLine
 10
2337.024028707674
 20
1180.395780193409
 30
0.0
 11
2337.024028707674
 21
1178.69579611977
 31
0.0
  0
CIRCLE
  5
18F7
330
2038
100
AcDbEntity
  8
0
  6
Continuous
 62
     7
100
AcDbCircle
 10
1727.024018065944
 20
1188.695793481492
 30
0.0
 40
5.24999999999997
  0
LINE
  5
18F9
330
2038
100
AcDbEntity
  8
0
  6
Continuous
 62
     7
100
AcDbLine
 10
2337.024028707674
 20
1180.395780193409
 30
0.0
 11
2337.024028707674
 21
1196.995792972644
 31
0.0
  0
LINE
  5
18FD
330
2038
100
AcDbEntity
  8
0
  6
Continuous
 62
     7
100
AcDbLine
 10
1719.274009872605
 20
1198.695806848606
 30
0.0
 11
1719.274009872605
 21
1183.695791351398
 31
0.0
  0
ARC
  5
18FE
330
2038
100
AcDbEntity
  8
0
  6
Continuous
 62
     7
100
AcDbCircle
 10
1724.274018065944
 20
1183.695793481492
 30
0.0
 40
5.000000000000028
100
AcDbArc
 50
180.0
 51
270.0
  0
LINE
  5
1929
330
2038
100
AcDbEntity
  8
0
  6
Continuous
 62
     7
100
AcDbLine
 10
1748.205597807099
 20
1198.695806848606
 30
0.0
 11
1748.212899376084
 21
1198.695806848606
 31
0.0
  0
LINE
  5
192D
330
2038
100
AcDbEntity
  8
0
  6
Continuous
 62
     7
100
AcDbLine
 10
1751.597310711076
 20
1198.695806848606
 30
0.0
 11
1751.605089117219
 21
1198.695806848606
 31
0.0
  0
LINE
  5
1933
330
2038
100
AcDbEntity
  8
0
  6
Continuous
 62
     7
100
AcDbLine
 10
1793.604995418717
 20
1198.695806848606
 30
0.0
 11
1793.620492626359
 21
1198.695806848606
 31
0.0
  0
LINE
  5
1936
330
2038
100
AcDbEntity
  8
0
  6
Continuous
 62
     7
100
AcDbLine
 10
1800.659011412789
 20
1198.695806848606
 30
0.0
 11
1800.674925852944
 21
1198.695806848606
 31
0.0
  0
LINE
  5
193B
330
2038
100
AcDbEntity
  8
0
  6
Continuous
 62
     7
100
AcDbLine
 10
2239.049802828958
 20
1198.739228832325
 30
0.0
 11
2239.049802828958
 21
1198.695806848606
 31
0.0
  0
LINE
  5
193C
330
2038
100
AcDbEntity
  8
0
  6
Continuous
 62
     7
100
AcDbLine
 10
1868.850986767938
 20
1198.695806848606
 30
0.0
 11
1868.872876573732
 21
1198.695806848606
 31
0.0
  0
LINE
  5
193D
330
2038
100
AcDbEntity
  8
0
  6
Continuous
 62
     7
100
AcDbLine
 10
1869.269187856843
 20
1198.695806848606
 30
0.0
 11
1869.269187856843
 21
1198.739228832325
 31
0.0
  0
LINE
  5
193E
330
2038
100
AcDbEntity
  8
0
  6
Continuous
 62
     7
100
AcDbLine
 10
1868.872876573732
 20
1198.739228832325
 30
0.0
 11
1868.872876573732
 21
1198.695806848606
 31
0.0
  0
ARC
  5
193F
330
2038
100
AcDbEntity
  8
0
  6
Continuous
 62
     7
100
AcDbCircle
 10
1869.668068336084
 20
1199.171040497558
 30
0.0
 40
0.4752405133393891
100
AcDbArc
 50
245.3149414899328
 51
269.6920485063749
  0
LINE
  5
1940
330
2038
100
AcDbEntity
  8
0
  6
Continuous
 62
     7
100
AcDbLine
 10
1878.753329921891
 20
1198.695806848606
 30
0.0
 11
1878.775502849748
 21
1198.695806848606
 31
0.0
  0
LINE
  5
1941
330
2038
100
AcDbEntity
  8
0
  6
Continuous
 62
     7
100
AcDbLine
 10
1878.753329921891
 20
1198.739228832325
 30
0.0
 11
1878.753329921891
 21
1198.695806848606
 31
0.0
  0
LINE
  5
1942
330
2038
100
AcDbEntity
  8
0
  6
Continuous
 62
     7
100
AcDbLine
 10
2165.860790122678
 20
1198.739228832325
 30
0.0
 11
2165.860790122678
 21
1198.695806848606
 31
0.0
  0
LINE
  5
1943
330
2038
100
AcDbEntity
  8
0
  6
Continuous
 62
     7
100
AcDbLine
 10
2165.570008863141
 20
1198.739228832325
 30
0.0
 11
2165.570008863141
 21
1198.695806848606
 31
0.0
  0
ARC
  5
1944
330
2038
100
AcDbEntity
  8
0
  6
Continuous
 62
     7
100
AcDbCircle
 10
2165.274825428554
 20
1198.970015808143
 30
0.0
 40
0.274244293715425
100
AcDbArc
 50
270.9197525339379
 51
302.6971204499852
  0
LINE
  5
1945
330
2038
100
AcDbEntity
  8
0
  6
Continuous
 62
     7
100
AcDbLine
 10
2154.959868003061
 20
1198.739228832325
 30
0.0
 11
2154.959868003061
 21
1198.695806848606
 31
0.0
  0
LINE
  5
1946
330
2038
100
AcDbEntity
  8
0
  6
Continuous
 62
     7
100
AcDbLine
 10
1965.260642875363
 20
1198.695806848606
 30
0.0
 11
1965.286414433648
 21
1198.695806848606
 31
0.0
  0
LINE
  5
194A
330
2038
100
AcDbEntity
  8
0
  6
Continuous
 62
     7
100
AcDbLine
 10
1976.86863999479
 20
1198.739228832325
 30
0.0
 11
1976.86863999479
 21
1198.695806848606
 31
0.0
  0
LINE
  5
194B
330
2038
100
AcDbEntity
  8
0
  6
Continuous
 62
     7
100
AcDbLine
 10
1976.86863999479
 20
1198.695806848606
 30
0.0
 11
1976.894538212945
 21
1198.695806848606
 31
0.0
  0
LINE
  5
194C
330
2038
100
AcDbEntity
  8
0
  6
Continuous
 62
     7
100
AcDbLine
 10
2079.008830074599
 20
1198.739228832325
 30
0.0
 11
2079.008830074599
 21
1198.695806848606
 31
0.0
  0
LINE
  5
194D
330
2038
100
AcDbEntity
  8
0
  6
Continuous
 62
     7
100
AcDbLine
 10
2079.064850990107
 20
1198.739228832325
 30
0.0
 11
2079.064850990107
 21
1198.695806848606
 31
0.0
  0
ARC
  5
194E
330
2038
100
AcDbEntity
  8
0
  6
Continuous
 62
     7
100
AcDbCircle
 10
2078.924638226217
 20
1198.744314919455
 30
0.0
 40
0.0560939342086739
100
AcDbArc
 50
300.1441181884609
 51
354.7977957382768
  0
LINE
  5
194F
330
2038
100
AcDbEntity
  8
0
  6
Continuous
 62
     7
100
AcDbLine
 10
2067.119474817445
 20
1198.739228832325
 30
0.0
 11
2067.119474817445
 21
1198.695806848606
 31
0.0
  0
LINE
  5
1950
330
2038
100
AcDbEntity
  8
0
  6
Continuous
 62
     7
100
AcDbLine
 10
1971.673230935266
 20
1153.195796596606
 30
0.0
 11
2186.036812151068
 21
1153.195796596606
 31
0.0
  0
LINE
  5
19BF
330
2038
100
AcDbEntity
  8
0
  6
Continuous
 62
     7
100
AcDbLine
 10
2312.686021734407
 20
1198.695806848606
 30
0.0
 11
2312.686021734407
 21
1198.739228832325
 31
0.0
  0
LINE
  5
19C0
330
2038
100
AcDbEntity
  8
0
  6
Continuous
 62
     7
100
AcDbLine
 10
2186.036812151068
 20
1153.195796596606
 30
0.0
 11
2219.092349816492
 21
1178.69579611977
 31
0.0
  0
LINE
  5
19C2
330
2038
100
AcDbEntity
  8
0
  6
Continuous
 62
     7
100
AcDbLine
 10
1938.617672134568
 20
1178.69579611977
 30
0.0
 11
1971.673230935266
 21
1153.195796596606
 31
0.0
  0
LINE
  5
19C3
330
2038
100
AcDbEntity
  8
0
  6
Continuous
 62
     7
100
AcDbLine
 10
2312.424029518297
 20
1198.695806848606
 30
0.0
 11
2312.424029518297
 21
1198.739228832325
 31
0.0
  0
LINE
  5
19C4
330
2038
100
AcDbEntity
  8
0
  6
Continuous
 62
     7
100
AcDbLine
 10
2308.224018026521
 20
1198.739228832325
 30
0.0
 11
2308.224018026521
 21
1198.695806848606
 31
0.0
  0
LINE
  5
19C5
330
2038
100
AcDbEntity
  8
0
  6
Continuous
 62
     7
100
AcDbLine
 10
2038.42401813381
 20
1198.695806848606
 30
0.0
 11
2038.42401813381
 21
1198.739228832325
 31
0.0
  0
LINE
  5
19C6
330
2038
100
AcDbEntity
  8
0
  6
Continuous
 62
     7
100
AcDbLine
 10
2034.224017817905
 20
1198.739228832325
 30
0.0
 11
2034.224017817905
 21
1198.695806848606
 31
0.0
  0
LINE
  5
19C7
330
2038
100
AcDbEntity
  8
0
  6
Continuous
 62
     7
100
AcDbLine
 10
2175.424020100763
 20
1198.695806848606
 30
0.0
 11
2175.424020100763
 21
1198.739228832325
 31
0.0
  0
LINE
  5
19C8
330
2038
100
AcDbEntity
  8
0
  6
Continuous
 62
     7
100
AcDbLine
 10
2171.224016059568
 20
1198.739228832325
 30
0.0
 11
2171.224016059568
 21
1198.695806848606
 31
0.0
  0
LINE
  5
19C9
330
2038
100
AcDbEntity
  8
0
  6
Continuous
 62
     7
100
AcDbLine
 10
1901.424016166856
 20
1198.695806848606
 30
0.0
 11
1901.424016166856
 21
1198.739228832325
 31
0.0
  0
LINE
  5
19CA
330
2038
100
AcDbEntity
  8
0
  6
Continuous
 62
     7
100
AcDbLine
 10
1897.224019576242
 20
1198.739228832325
 30
0.0
 11
1897.224019576242
 21
1198.695806848606
 31
0.0
  0
LINE
  5
19CC
330
2038
100
AcDbEntity
  8
0
  6
Continuous
 62
     7
100
AcDbLine
 10
1761.624004055192
 20
1198.739228832325
 30
0.0
 11
1761.624004055192
 21
1198.695806848606
 31
0.0
  0
LINE
  5
1A16
330
2038
100
AcDbEntity
  8
0
  6
Continuous
 62
     7
100
AcDbLine
 10
649.6717811173521
 20
1548.695793437561
 30
0.0
 11
1329.671788269909
 21
1548.695793437561
 31
0.0
  0
LINE
  5
1A23
330
2038
100
AcDbEntity
  8
0
  6
Continuous
 62
     7
100
AcDbLine
 10
639.6717906540953
 20
1549.395790385802
 30
0.0
 11
639.6717906540953
 21
1563.695794033607
 31
0.0
  0
LINE
  5
1A26
330
2038
100
AcDbEntity
  8
0
  6
Continuous
 62
     7
100
AcDbLine
 10
639.6717906540953
 20
1563.695794033607
 30
0.0
 11
639.6717906540953
 21
1568.695792990526
 31
0.0
  0
LINE
  5
1A2A
330
2038
100
AcDbEntity
  8
0
  6
Continuous
 62
     7
100
AcDbLine
 10
1339.671778733166
 20
1563.695794033607
 30
0.0
 11
1339.671778733166
 21
1549.395790385802
 31
0.0
  0
LINE
  5
1A2D
330
2038
100
AcDbEntity
  8
0
  6
Continuous
 62
     7
100
AcDbLine
 10
1339.671778733166
 20
1568.695792990526
 30
0.0
 11
1339.671778733166
 21
1563.695794033607
 31
0.0
  0
LINE
  5
1A35
330
2038
100
AcDbEntity
  8
0
  6
Continuous
 62
     7
100
AcDbLine
 10
639.6717906540953
 20
1549.395790385802
 30
0.0
 11
639.6717906540953
 21
1548.695793437561
 31
0.0
  0
LINE
  5
1A36
330
2038
100
AcDbEntity
  8
0
  6
Continuous
 62
     7
100
AcDbLine
 10
1339.671778733166
 20
1548.695793437561
 30
0.0
 11
1339.671778733166
 21
1549.395790385802
 31
0.0
  0
LINE
  5
1A37
330
2038
100
AcDbEntity
  8
0
  6
Continuous
 62
     7
100
AcDbLine
 10
639.6717906540953
 20
1197.695789920887
 30
0.0
 11
1339.671778733166
 21
1197.695789920887
 31
0.0
  0
LINE
  5
1A39
330
2038
100
AcDbEntity
  8
0
  6
Continuous
 62
     7
100
AcDbLine
 10
639.6717906540953
 20
1180.945782053074
 30
0.0
 11
639.6717906540953
 21
1185.945807087025
 31
0.0
  0
LINE
  5
1A3D
330
2038
100
AcDbEntity
  8
0
  6
Continuous
 62
     7
100
AcDbLine
 10
641.3717747277342
 20
1548.695793437561
 30
0.0
 11
649.6717811173521
 21
1548.695793437561
 31
0.0
  0
LINE
  5
1A3F
330
2038
100
AcDbEntity
  8
0
  6
Continuous
 62
     7
100
AcDbLine
 10
639.6717906540953
 20
1548.695793437561
 30
0.0
 11
641.3717747277342
 21
1548.695793437561
 31
0.0
  0
LINE
  5
1A40
330
2038
100
AcDbEntity
  8
0
  6
Continuous
 62
     7
100
AcDbLine
 10
639.6717906540953
 20
1185.945807087025
 30
0.0
 11
639.6717906540953
 21
1548.695793437561
 31
0.0
  0
LINE
  5
1A43
330
2038
100
AcDbEntity
  8
0
  6
Continuous
 62
     7
100
AcDbLine
 10
1339.671778733166
 20
1185.945807087025
 30
0.0
 11
1339.671778733166
 21
1180.945782053074
 31
0.0
  0
LINE
  5
1A46
330
2038
100
AcDbEntity
  8
0
  6
Continuous
 62
     7
100
AcDbLine
 10
1339.671778733166
 20
1548.695793437561
 30
0.0
 11
1339.671778733166
 21
1185.945807087025
 31
0.0
  0
LINE
  5
1A47
330
2038
100
AcDbEntity
  8
0
  6
Continuous
 62
     7
100
AcDbLine
 10
1337.971764857205
 20
1548.695793437561
 30
0.0
 11
1339.671778733166
 21
1548.695793437561
 31
0.0
  0
LINE
  5
1A49
330
2038
100
AcDbEntity
  8
0
  6
Continuous
 62
     7
100
AcDbLine
 10
1329.671788269909
 20
1548.695793437561
 30
0.0
 11
1337.971764857205
 21
1548.695793437561
 31
0.0
  0
LINE
  5
1A4C
330
2038
100
AcDbEntity
  8
0
  6
Continuous
 62
     7
100
AcDbLine
 10
639.6717906540953
 20
1180.395780193409
 30
0.0
 11
639.6717906540953
 21
1177.69579611977
 31
0.0
  0
LINE
  5
1A50
330
2038
100
AcDbEntity
  8
0
  6
Continuous
 62
     7
100
AcDbLine
 10
1339.671778733166
 20
1177.69579611977
 30
0.0
 11
1339.671778733166
 21
1180.395780193409
 31
0.0
  0
LINE
  5
1A57
330
2038
100
AcDbEntity
  8
0
  6
Continuous
 62
     7
100
AcDbLine
 10
639.6717906540953
 20
1180.395780193409
 30
0.0
 11
639.6717906540953
 21
1180.945782053074
 31
0.0
  0
LINE
  5
1A5F
330
2038
100
AcDbEntity
  8
0
  6
Continuous
 62
     7
100
AcDbLine
 10
1339.671778733166
 20
1180.945782053074
 30
0.0
 11
1339.671778733166
 21
1180.395780193409
 31
0.0
  0
LINE
  5
1A61
330
2038
100
AcDbEntity
  8
0
  6
Continuous
 62
     7
100
AcDbLine
 10
966.4899960702976
 20
1153.195796596606
 30
0.0
 11
1127.262669855984
 21
1153.195796596606
 31
0.0
  0
LINE
  5
1A62
330
2038
100
AcDbEntity
  8
0
  6
Continuous
 62
     7
100
AcDbLine
 10
1127.262669855984
 20
1153.195796596606
 30
0.0
 11
1180.853563601407
 21
1153.195796596606
 31
0.0
  0
LINE
  5
1B87
330
2038
100
AcDbEntity
  8
0
  6
Continuous
 62
     7
100
AcDbLine
 10
1180.853563601407
 20
1153.195796596606
 30
0.0
 11
1238.538755292958
 21
1197.695789920887
 31
0.0
  0
LINE
  5
1B88
330
2038
100
AcDbEntity
  8
0
  6
Continuous
 62
     7
100
AcDbLine
 10
908.8047961923038
 20
1197.695789920887
 30
0.0
 11
966.4899960702976
 21
1153.195796596606
 31
0.0
  0
LINE
  5
1BEF
330
2038
100
AcDbEntity
  8
0
100
AcDbLine
 10
639.6717906540953
 20
861.4255015922027
 30
0.0
 11
639.6717906540953
 21
851.4255015922027
 31
0.0
  0
LINE
  5
1BF0
330
2038
100
AcDbEntity
  8
0
100
AcDbLine
 10
639.6717906540953
 20
851.4255015922027
 30
0.0
 11
634.6717906540952
 21
851.4255015922027
 31
0.0
  0
LINE
  5
1BF1
330
2038
100
AcDbEntity
  8
0
100
AcDbLine
 10
634.6717906540952
 20
851.4255015922027
 30
0.0
 11
644.6717906540953
 21
851.4255015922027
 31
0.0
  0
LINE
  5
1BF3
330
2038
100
AcDbEntity
  8
0
100
AcDbLine
 10
1339.671778733166
 20
851.4255015922027
 30
0.0
 11
1334.671778733166
 21
851.4255015922027
 31
0.0
  0
LINE
  5
1BF4
330
2038
100
AcDbEntity
  8
0
100
AcDbLine
 10
1334.671778733166
 20
851.4255015922027
 30
0.0
 11
1344.671778733166
 21
851.4255015922027
 31
0.0
  0
LINE
  5
1BF5
330
2038
100
AcDbEntity
  8
0
100
AcDbLine
 10
639.6717906540953
 20
220.4255158973215
 30
0.0
 11
639.6717906540953
 21
230.4255158973215
 31
0.0
  0
LINE
  5
1BF6
330
2038
100
AcDbEntity
  8
0
100
AcDbLine
 10
639.6717906540953
 20
230.4255158973215
 30
0.0
 11
634.6717906540952
 21
230.4255158973215
 31
0.0
  0
LINE
  5
1BF7
330
2038
100
AcDbEntity
  8
0
100
AcDbLine
 10
634.6717906540952
 20
230.4255158973215
 30
0.0
 11
644.6717906540953
 21
230.4255158973215
 31
0.0
  0
LINE
  5
1BF9
330
2038
100
AcDbEntity
  8
0
100
AcDbLine
 10
1339.671778733166
 20
230.4255158973215
 30
0.0
 11
1334.671778733166
 21
230.4255158973215
 31
0.0
  0
LINE
  5
1BFA
330
2038
100
AcDbEntity
  8
0
100
AcDbLine
 10
1334.671778733166
 20
230.4255158973215
 30
0.0
 11
1344.671778733166
 21
230.4255158973215
 31
0.0
  0
LINE
  5
1BFB
330
2038
100
AcDbEntity
  8
0
100
AcDbLine
 10
639.6717906540953
 20
1568.695792990526
 30
0.0
 11
639.6717906540953
 21
1558.695792990526
 31
0.0
  0
LINE
  5
1BFC
330
2038
100
AcDbEntity
  8
0
100
AcDbLine
 10
639.6717906540953
 20
1558.695792990526
 30
0.0
 11
634.6717906540952
 21
1558.695792990526
 31
0.0
  0
LINE
  5
1BFD
330
2038
100
AcDbEntity
  8
0
100
AcDbLine
 10
634.6717906540952
 20
1558.695792990526
 30
0.0
 11
644.6717906540953
 21
1558.695792990526
 31
0.0
  0
LINE
  5
1BFF
330
2038
100
AcDbEntity
  8
0
100
AcDbLine
 10
1339.671778733166
 20
1558.695792990526
 30
0.0
 11
1334.671778733166
 21
1558.695792990526
 31
0.0
  0
LINE
  5
1C00
330
2038
100
AcDbEntity
  8
0
100
AcDbLine
 10
1334.671778733166
 20
1558.695792990526
 30
0.0
 11
1344.671778733166
 21
1558.695792990526
 31
0.0
  0
LINE
  5
1C01
330
2038
100
AcDbEntity
  8
0
100
AcDbLine
 10
1339.671778733166
 20
1197.695789920887
 30
0.0
 11
1339.671778733166
 21
1187.695789920886
 31
0.0
  0
LINE
  5
1C02
330
2038
100
AcDbEntity
  8
0
100
AcDbLine
 10
1339.671778733166
 20
1187.695789920886
 30
0.0
 11
1334.671778733167
 21
1187.695789920886
 31
0.0
  0
LINE
  5
1C03
330
2038
100
AcDbEntity
  8
0
100
AcDbLine
 10
1334.671778733167
 20
1187.695789920886
 30
0.0
 11
1344.671778733167
 21
1187.695789920886
 31
0.0
  0
LINE
  5
1C04
330
2038
100
AcDbEntity
  8
0
100
AcDbLine
 10
639.6717906540953
 20
1197.695789920887
 30
0.0
 11
639.6717906540953
 21
1187.695789920886
 31
0.0
  0
LINE
  5
1C05
330
2038
100
AcDbEntity
  8
0
100
AcDbLine
 10
639.6717906540953
 20
1187.695789920886
 30
0.0
 11
634.6717906540952
 21
1187.695789920886
 31
0.0
  0
LINE
  5
1C06
330
2038
100
AcDbEntity
  8
0
100
AcDbLine
 10
634.6717906540952
 20
1187.695789920886
 30
0.0
 11
644.6717906540953
 21
1187.695789920886
 31
0.0
  0
LINE
  5
1C07
330
2038
100
AcDbEntity
  8
0
100
AcDbLine
 10
1727.024018065944
 20
1558.695793481492
 30
0.0
 11
1727.024018065944
 21
1565.695793481492
 31
0.0
  0
LINE
  5
1C08
330
2038
100
AcDbEntity
  8
0
100
AcDbLine
 10
1727.024018065944
 20
1565.695793481492
 30
0.0
 11
1727.024018065944
 21
1551.695793481492
 31
0.0
  0
LINE
  5
1C09
330
2038
100
AcDbEntity
  8
0
100
AcDbLine
 10
1727.024018065944
 20
1558.695793481492
 30
0.0
 11
1720.024018065944
 21
1558.695793481492
 31
0.0
  0
LINE
  5
1C0A
330
2038
100
AcDbEntity
  8
0
100
AcDbLine
 10
1720.024018065944
 20
1558.695793481492
 30
0.0
 11
1734.024018065944
 21
1558.695793481492
 31
0.0
  0
LINE
  5
1C0B
330
2038
100
AcDbEntity
  8
0
100
AcDbLine
 10
1720.024018065944
 20
1188.695793481492
 30
0.0
 11
1734.024018065944
 21
1188.695793481492
 31
0.0
  0
LINE
  5
1C0C
330
2038
100
AcDbEntity
  8
0
100
AcDbLine
 10
1727.024018065944
 20
1188.695793481492
 30
0.0
 11
1720.024018065944
 21
1188.695793481492
 31
0.0
  0
LINE
  5
1C0D
330
2038
100
AcDbEntity
  8
0
100
AcDbLine
 10
1727.024018065944
 20
1195.695793481492
 30
0.0
 11
1727.024018065944
 21
1181.695793481492
 31
0.0
  0
LINE
  5
1C0E
330
2038
100
AcDbEntity
  8
0
100
AcDbLine
 10
1727.024018065944
 20
1188.695793481492
 30
0.0
 11
1727.024018065944
 21
1195.695793481492
 31
0.0
  0
LINE
  5
1C0F
330
2038
100
AcDbEntity
  8
0
100
AcDbLine
 10
2340.024018065944
 20
1188.69579348149
 30
0.0
 11
2354.024018065944
 21
1188.69579348149
 31
0.0
  0
LINE
  5
1C10
330
2038
100
AcDbEntity
  8
0
100
AcDbLine
 10
2347.024018065944
 20
1188.69579348149
 30
0.0
 11
2347.024018065944
 21
1195.69579348149
 31
0.0
  0
LINE
  5
1C11
330
2038
100
AcDbEntity
  8
0
100
AcDbLine
 10
2347.024018065944
 20
1195.69579348149
 30
0.0
 11
2347.024018065944
 21
1181.69579348149
 31
0.0
  0
LINE
  5
1C12
330
2038
100
AcDbEntity
  8
0
100
AcDbLine
 10
2347.024018065944
 20
1565.695793481494
 30
0.0
 11
2347.024018065944
 21
1551.695793481494
 31
0.0
  0
LINE
  5
1C13
330
2038
100
AcDbEntity
  8
0
100
AcDbLine
 10
2347.024018065944
 20
1558.695793481494
 30
0.0
 11
2347.024018065944
 21
1565.695793481494
 31
0.0
  0
LINE
  5
1C14
330
2038
100
AcDbEntity
  8
0
100
AcDbLine
 10
2340.024018065944
 20
1558.695793481494
 30
0.0
 11
2354.024018065944
 21
1558.695793481494
 31
0.0
  0
LINE
  5
21F3
330
2038
100
AcDbEntity
  8
0
  6
Continuous
 62
     7
100
AcDbLine
 10
242.3195645214462
 20
1539.695790099703
 30
0.0
 11
242.3195645214462
 21
1547.99579648932
 31
0.0
  0
LINE
  5
21F4
330
2038
100
AcDbEntity
  8
0
  6
Continuous
 62
     7
100
AcDbLine
 10
242.3195645214462
 20
1566.995794015728
 30
0.0
 11
242.3195645214462
 21
1568.695792990528
 31
0.0
  0
LINE
  5
21F5
330
2038
100
AcDbEntity
  8
0
  6
Continuous
 62
     7
100
AcDbLine
 10
242.3195645214462
 20
1568.695792990528
 30
0.0
 11
-370.4304590819936
 21
1568.69579299053
 31
0.0
  0
LINE
  5
21F6
330
2038
100
AcDbEntity
  8
0
  6
Continuous
 62
     7
100
AcDbLine
 10
242.3195645214462
 20
1548.695793437563
 30
0.0
 11
242.3195645214462
 21
1550.395792412363
 31
0.0
  0
LINE
  5
21F7
330
2038
100
AcDbEntity
  8
0
  6
Continuous
 62
     7
100
AcDbLine
 10
-357.6804593204131
 20
1548.695793437565
 30
0.0
 11
240.6195506454851
 21
1548.695793437563
 31
0.0
  0
LINE
  5
21F8
330
2038
100
AcDbEntity
  8
0
  6
Continuous
 62
     7
100
AcDbLine
 10
242.1687349678421
 20
1548.695793437563
 30
0.0
 11
242.3195645214462
 21
1548.695793437563
 31
0.0
  0
LINE
  5
21F9
330
2038
100
AcDbEntity
  8
0
  6
Continuous
 62
     7
100
AcDbLine
 10
240.6195506454851
 20
1548.695793437563
 30
0.0
 11
242.1687349678421
 21
1548.695793437563
 31
0.0
  0
CIRCLE
  5
21FA
330
2038
100
AcDbEntity
  8
0
  6
Continuous
 62
     7
100
AcDbCircle
 10
-367.680448678683
 20
1558.695793481498
 30
0.0
 40
5.25
  0
LINE
  5
21FB
330
2038
100
AcDbEntity
  8
0
  6
Continuous
 62
     7
100
AcDbLine
 10
242.3195645214462
 20
1566.995794015728
 30
0.0
 11
242.3195645214462
 21
1550.395792412363
 31
0.0
  0
LINE
  5
21FC
330
2038
100
AcDbEntity
  8
0
  6
Continuous
 62
     7
100
AcDbLine
 10
-375.430454313622
 20
1548.695793437565
 30
0.0
 11
-375.430454313622
 21
1563.695794033611
 31
0.0
  0
ARC
  5
21FD
330
2038
100
AcDbEntity
  8
0
  6
Continuous
 62
     7
100
AcDbCircle
 10
-370.4304486786821
 20
1563.695793481494
 30
0.0
 40
5.0
100
AcDbArc
 50
90.0
 51
180.0
  0
LINE
  5
21FE
330
2038
100
AcDbEntity
  8
0
  6
Continuous
 62
     7
100
AcDbLine
 10
233.3195611835849
 20
1198.695806848608
 30
0.0
 11
241.61953777088
 21
1198.695806848608
 31
0.0
  0
LINE
  5
21FF
330
2038
100
AcDbEntity
  8
0
  6
Continuous
 62
     7
100
AcDbLine
 10
242.319564521445
 20
1198.695806848608
 30
0.0
 11
244.019548595084
 21
1198.695806848608
 31
0.0
  0
LINE
  5
2200
330
2038
100
AcDbEntity
  8
0
  6
Continuous
 62
     7
100
AcDbLine
 10
242.3195645214462
 20
1548.695793437563
 30
0.0
 11
242.319564521445
 21
1200.395790922247
 31
0.0
  0
LINE
  5
2201
330
2038
100
AcDbEntity
  8
0
  6
Continuous
 62
     7
100
AcDbLine
 10
242.319564521445
 20
1198.846606599889
 30
0.0
 11
242.319564521445
 21
1198.695806848608
 31
0.0
  0
LINE
  5
2202
330
2038
100
AcDbEntity
  8
0
  6
Continuous
 62
     7
100
AcDbLine
 10
242.319564521445
 20
1200.395790922247
 30
0.0
 11
242.319564521445
 21
1198.846606599889
 31
0.0
  0
LINE
  5
2203
330
2038
100
AcDbEntity
  8
0
  6
Continuous
 62
     7
100
AcDbLine
 10
242.3195645214462
 20
1566.445792156063
 30
0.0
 11
257.3195502163312
 21
1566.445792156063
 31
0.0
  0
CIRCLE
  5
2204
330
2038
100
AcDbEntity
  8
0
  6
Continuous
 62
     7
100
AcDbCircle
 10
252.3195513213172
 20
1558.695793481494
 30
0.0
 40
5.25
  0
LINE
  5
2205
330
2038
100
AcDbEntity
  8
0
  6
Continuous
 62
     7
100
AcDbLine
 10
260.61956137432
 20
1198.695806848608
 30
0.0
 11
244.019548595084
 21
1198.695806848608
 31
0.0
  0
ARC
  5
2206
330
2038
100
AcDbEntity
  8
0
  6
Continuous
 62
     7
100
AcDbCircle
 10
257.3195513213172
 20
1561.445793481494
 30
0.0
 40
5.0
100
AcDbArc
 50
0.0
 51
90.0
  0
LINE
  5
2207
330
2038
100
AcDbEntity
  8
0
  6
Continuous
 62
     7
100
AcDbLine
 10
262.3195454479589
 20
1198.695806848608
 30
0.0
 11
262.3195454479601
 21
1561.445793199144
 31
0.0
  0
LINE
  5
2208
330
2038
100
AcDbEntity
  8
0
  6
Continuous
 62
     7
100
AcDbLine
 10
260.61956137432
 20
1198.695806848608
 30
0.0
 11
262.3195454479589
 21
1198.695806848608
 31
0.0
  0
LINE
  5
2209
330
2038
100
AcDbEntity
  8
0
  6
Continuous
 62
     7
100
AcDbLine
 10
-348.6804559825521
 20
1548.695793437565
 30
0.0
 11
-356.98046237217
 21
1548.695793437565
 31
0.0
  0
LINE
  5
220A
330
2038
100
AcDbEntity
  8
0
  6
Continuous
 62
     7
100
AcDbLine
 10
-375.9804561732869
 20
1548.695793437565
 30
0.0
 11
-377.6804402469263
 21
1548.695793437565
 31
0.0
  0
LINE
  5
220B
330
2038
100
AcDbEntity
  8
0
  6
Continuous
 62
     7
100
AcDbLine
 10
-377.6804402469263
 20
1548.695793437565
 30
0.0
 11
-377.6804402469272
 21
1185.945807087028
 31
0.0
  0
LINE
  5
220C
330
2038
100
AcDbEntity
  8
0
  6
Continuous
 62
     7
100
AcDbLine
 10
-357.6804593204131
 20
1548.695793437565
 30
0.0
 11
-359.3804433940511
 21
1548.695793437565
 31
0.0
  0
LINE
  5
220D
330
2038
100
AcDbEntity
  8
0
  6
Continuous
 62
     7
100
AcDbLine
 10
-357.680459320414
 20
1198.69580684861
 30
0.0
 11
-357.6804593204131
 21
1546.995794462765
 31
0.0
  0
LINE
  5
220E
330
2038
100
AcDbEntity
  8
0
  6
Continuous
 62
     7
100
AcDbLine
 10
-357.6804593204131
 20
1548.544986235702
 30
0.0
 11
-357.6804593204131
 21
1548.695793437565
 31
0.0
  0
LINE
  5
220F
330
2038
100
AcDbEntity
  8
0
  6
Continuous
 62
     7
100
AcDbLine
 10
-357.6804593204131
 20
1546.995794462765
 30
0.0
 11
-357.6804593204131
 21
1548.544986235702
 31
0.0
  0
LINE
  5
2210
330
2038
100
AcDbEntity
  8
0
  6
Continuous
 62
     7
100
AcDbLine
 10
-375.9804561732869
 20
1548.695793437565
 30
0.0
 11
-359.3804433940511
 21
1548.695793437565
 31
0.0
  0
LINE
  5
2211
330
2038
100
AcDbEntity
  8
0
  6
Continuous
 62
     7
100
AcDbLine
 10
-357.680459320414
 20
1180.945782053077
 30
0.0
 11
-372.6804450152988
 21
1180.945782053077
 31
0.0
  0
ARC
  5
2212
330
2038
100
AcDbEntity
  8
0
  6
Continuous
 62
     7
100
AcDbCircle
 10
-372.6804486786839
 20
1185.945793481494
 30
0.0
 40
5.0
100
AcDbArc
 50
180.0
 51
270.0
  0
CIRCLE
  5
2213
330
2038
100
AcDbEntity
  8
0
  6
Continuous
 62
     7
100
AcDbCircle
 10
-367.6804486786839
 20
1188.695793481494
 30
0.0
 40
5.24999999999997
  0
LINE
  5
2214
330
2038
100
AcDbEntity
  8
0
  6
Continuous
 62
     7
100
AcDbLine
 10
-357.680459320414
 20
1199.395803796852
 30
0.0
 11
-357.680459320414
 21
1207.695780384147
 31
0.0
  0
LINE
  5
2215
330
2038
100
AcDbEntity
  8
0
  6
Continuous
 62
     7
100
AcDbLine
 10
242.319564521445
 20
1198.695806848608
 30
0.0
 11
-355.9804454444518
 21
1198.69580684861
 31
0.0
  0
LINE
  5
2216
330
2038
100
AcDbEntity
  8
0
  6
Continuous
 62
     7
100
AcDbLine
 10
-357.680459320414
 20
1198.69580684861
 30
0.0
 11
-357.680459320414
 21
1196.995792972648
 31
0.0
  0
LINE
  5
2217
330
2038
100
AcDbEntity
  8
0
  6
Continuous
 62
     7
100
AcDbLine
 10
-357.529629766809
 20
1198.69580684861
 30
0.0
 11
-357.680459320414
 21
1198.69580684861
 31
0.0
  0
LINE
  5
2218
330
2038
100
AcDbEntity
  8
0
  6
Continuous
 62
     7
100
AcDbLine
 10
-355.9804454444518
 20
1198.69580684861
 30
0.0
 11
-357.529629766809
 21
1198.69580684861
 31
0.0
  0
LINE
  5
2219
330
2038
100
AcDbEntity
  8
0
  6
Continuous
 62
     7
100
AcDbLine
 10
-357.680459320414
 20
1178.695796119774
 30
0.0
 11
255.069564283026
 21
1178.695796119772
 31
0.0
  0
LINE
  5
221A
330
2038
100
AcDbEntity
  8
0
  6
Continuous
 62
     7
100
AcDbLine
 10
-357.680459320414
 20
1180.395780193413
 30
0.0
 11
-357.680459320414
 21
1178.695796119774
 31
0.0
  0
CIRCLE
  5
221B
330
2038
100
AcDbEntity
  8
0
  6
Continuous
 62
     7
100
AcDbCircle
 10
252.3195513213161
 20
1188.695793481494
 30
0.0
 40
5.24999999999997
  0
LINE
  5
221C
330
2038
100
AcDbEntity
  8
0
  6
Continuous
 62
     7
100
AcDbLine
 10
-357.680459320414
 20
1180.395780193413
 30
0.0
 11
-357.680459320414
 21
1196.995792972648
 31
0.0
  0
LINE
  5
221D
330
2038
100
AcDbEntity
  8
0
  6
Continuous
 62
     7
100
AcDbLine
 10
260.0695595146551
 20
1198.695806848608
 30
0.0
 11
260.0695595146551
 21
1183.6957913514
 31
0.0
  0
ARC
  5
221E
330
2038
100
AcDbEntity
  8
0
  6
Continuous
 62
     7
100
AcDbCircle
 10
255.0695513213161
 20
1183.695793481494
 30
0.0
 40
5.000000000000028
100
AcDbArc
 50
270.0
 51
0.0
  0
LINE
  5
221F
330
2038
100
AcDbEntity
  8
0
  6
Continuous
 62
     7
100
AcDbLine
 10
231.1379715801611
 20
1198.695806848608
 30
0.0
 11
231.1306700111761
 21
1198.695806848608
 31
0.0
  0
LINE
  5
2220
330
2038
100
AcDbEntity
  8
0
  6
Continuous
 62
     7
100
AcDbLine
 10
227.746258676184
 20
1198.695806848608
 30
0.0
 11
227.738480270041
 21
1198.695806848608
 31
0.0
  0
LINE
  5
2221
330
2038
100
AcDbEntity
  8
0
  6
Continuous
 62
     7
100
AcDbLine
 10
185.7385739685431
 20
1198.695806848608
 30
0.0
 11
185.723076760901
 21
1198.695806848608
 31
0.0
  0
LINE
  5
2222
330
2038
100
AcDbEntity
  8
0
  6
Continuous
 62
     7
100
AcDbLine
 10
178.6845579744711
 20
1198.695806848608
 30
0.0
 11
178.6686435343161
 21
1198.695806848608
 31
0.0
  0
LINE
  5
2223
330
2038
100
AcDbEntity
  8
0
  6
Continuous
 62
     7
100
AcDbLine
 10
-259.706233441698
 20
1198.739228832329
 30
0.0
 11
-259.706233441698
 21
1198.69580684861
 31
0.0
  0
LINE
  5
2224
330
2038
100
AcDbEntity
  8
0
  6
Continuous
 62
     7
100
AcDbLine
 10
110.4925826193221
 20
1198.695806848609
 30
0.0
 11
110.4706928135281
 21
1198.695806848609
 31
0.0
  0
LINE
  5
2225
330
2038
100
AcDbEntity
  8
0
  6
Continuous
 62
     7
100
AcDbLine
 10
110.074381530417
 20
1198.695806848609
 30
0.0
 11
110.074381530417
 21
1198.739228832327
 31
0.0
  0
LINE
  5
2226
330
2038
100
AcDbEntity
  8
0
  6
Continuous
 62
     7
100
AcDbLine
 10
110.4706928135281
 20
1198.739228832327
 30
0.0
 11
110.4706928135281
 21
1198.695806848609
 31
0.0
  0
ARC
  5
2227
330
2038
100
AcDbEntity
  8
0
  6
Continuous
 62
     7
100
AcDbCircle
 10
109.6755010511761
 20
1199.17104049756
 30
0.0
 40
0.4752405133393891
100
AcDbArc
 50
270.3079514936247
 51
294.6850585100664
  0
LINE
  5
2228
330
2038
100
AcDbEntity
  8
0
  6
Continuous
 62
     7
100
AcDbLine
 10
100.590239465369
 20
1198.695806848609
 30
0.0
 11
100.5680665375121
 21
1198.695806848609
 31
0.0
  0
LINE
  5
2229
330
2038
100
AcDbEntity
  8
0
  6
Continuous
 62
     7
100
AcDbLine
 10
100.590239465369
 20
1198.739228832327
 30
0.0
 11
100.590239465369
 21
1198.695806848609
 31
0.0
  0
LINE
  5
222A
330
2038
100
AcDbEntity
  8
0
  6
Continuous
 62
     7
100
AcDbLine
 10
-186.5172207354178
 20
1198.739228832328
 30
0.0
 11
-186.5172207354178
 21
1198.695806848609
 31
0.0
  0
LINE
  5
222B
330
2038
100
AcDbEntity
  8
0
  6
Continuous
 62
     7
100
AcDbLine
 10
-186.2264394758811
 20
1198.739228832328
 30
0.0
 11
-186.2264394758811
 21
1198.695806848609
 31
0.0
  0
ARC
  5
222C
330
2038
100
AcDbEntity
  8
0
  6
Continuous
 62
     7
100
AcDbCircle
 10
-185.9312560412939
 20
1198.970015808146
 30
0.0
 40
0.274244293715425
100
AcDbArc
 50
237.3028795500265
 51
269.0802474660615
  0
LINE
  5
222D
330
2038
100
AcDbEntity
  8
0
  6
Continuous
 62
     7
100
AcDbLine
 10
-175.6162986158008
 20
1198.739228832328
 30
0.0
 11
-175.6162986158008
 21
1198.695806848609
 31
0.0
  0
LINE
  5
222E
330
2038
100
AcDbEntity
  8
0
  6
Continuous
 62
     7
100
AcDbLine
 10
14.08292651189709
 20
1198.695806848609
 30
0.0
 11
14.0571549536121
 21
1198.695806848609
 31
0.0
  0
LINE
  5
222F
330
2038
100
AcDbEntity
  8
0
  6
Continuous
 62
     7
100
AcDbLine
 10
2.474929392469903
 20
1198.739228832328
 30
0.0
 11
2.474929392469903
 21
1198.695806848609
 31
0.0
  0
LINE
  5
2230
330
2038
100
AcDbEntity
  8
0
  6
Continuous
 62
     7
100
AcDbLine
 10
2.474929392469903
 20
1198.695806848609
 30
0.0
 11
2.449031174314996
 21
1198.695806848609
 31
0.0
  0
LINE
  5
2231
330
2038
100
AcDbEntity
  8
0
  6
Continuous
 62
     7
100
AcDbLine
 10
-99.66526068733879
 20
1198.739228832328
 30
0.0
 11
-99.66526068733879
 21
1198.695806848609
 31
0.0
  0
LINE
  5
2232
330
2038
100
AcDbEntity
  8
0
  6
Continuous
 62
     7
100
AcDbLine
 10
-99.72128160284706
 20
1198.739228832328
 30
0.0
 11
-99.72128160284706
 21
1198.695806848609
 31
0.0
  0
ARC
  5
2233
330
2038
100
AcDbEntity
  8
0
  6
Continuous
 62
     7
100
AcDbCircle
 10
-99.58106883895721
 20
1198.744314919458
 30
0.0
 40
0.0560939342086739
100
AcDbArc
 50
185.2022042616434
 51
239.8558818113148
  0
LINE
  5
2234
330
2038
100
AcDbEntity
  8
0
  6
Continuous
 62
     7
100
AcDbLine
 10
-87.77590543018482
 20
1198.739228832328
 30
0.0
 11
-87.77590543018482
 21
1198.695806848609
 31
0.0
  0
LINE
  5
2235
330
2038
100
AcDbEntity
  8
0
  6
Continuous
 62
     7
100
AcDbLine
 10
7.670338451993757
 20
1153.195796596609
 30
0.0
 11
-206.6932427638078
 21
1153.195796596609
 31
0.0
  0
LINE
  5
2236
330
2038
100
AcDbEntity
  8
0
  6
Continuous
 62
     7
100
AcDbLine
 10
-333.3424523471469
 20
1198.69580684861
 30
0.0
 11
-333.3424523471469
 21
1198.739228832329
 31
0.0
  0
LINE
  5
2237
330
2038
100
AcDbEntity
  8
0
  6
Continuous
 62
     7
100
AcDbLine
 10
-206.6932427638078
 20
1153.195796596609
 30
0.0
 11
-239.7487804292321
 21
1178.695796119774
 31
0.0
  0
LINE
  5
2238
330
2038
100
AcDbEntity
  8
0
  6
Continuous
 62
     7
100
AcDbLine
 10
40.72589725269199
 20
1178.695796119773
 30
0.0
 11
7.670338451993757
 21
1153.195796596609
 31
0.0
  0
LINE
  5
2239
330
2038
100
AcDbEntity
  8
0
  6
Continuous
 62
     7
100
AcDbLine
 10
-333.0804601310372
 20
1198.69580684861
 30
0.0
 11
-333.0804601310372
 21
1198.739228832329
 31
0.0
  0
LINE
  5
223A
330
2038
100
AcDbEntity
  8
0
  6
Continuous
 62
     7
100
AcDbLine
 10
-328.8804486392612
 20
1198.739228832329
 30
0.0
 11
-328.8804486392612
 21
1198.69580684861
 31
0.0
  0
LINE
  5
223B
330
2038
100
AcDbEntity
  8
0
  6
Continuous
 62
     7
100
AcDbLine
 10
-59.08044874655002
 20
1198.695806848609
 30
0.0
 11
-59.08044874655002
 21
1198.739228832328
 31
0.0
  0
LINE
  5
223C
330
2038
100
AcDbEntity
  8
0
  6
Continuous
 62
     7
100
AcDbLine
 10
-54.88044843064495
 20
1198.739228832328
 30
0.0
 11
-54.88044843064495
 21
1198.695806848609
 31
0.0
  0
LINE
  5
223D
330
2038
100
AcDbEntity
  8
0
  6
Continuous
 62
     7
100
AcDbLine
 10
-196.0804507135028
 20
1198.695806848609
 30
0.0
 11
-196.0804507135028
 21
1198.739228832328
 31
0.0
  0
LINE
  5
223E
330
2038
100
AcDbEntity
  8
0
  6
Continuous
 62
     7
100
AcDbLine
 10
-191.8804466723079
 20
1198.739228832328
 30
0.0
 11
-191.8804466723079
 21
1198.695806848609
 31
0.0
  0
LINE
  5
223F
330
2038
100
AcDbEntity
  8
0
  6
Continuous
 62
     7
100
AcDbLine
 10
77.91955322040394
 20
1198.695806848609
 30
0.0
 11
77.91955322040394
 21
1198.739228832328
 31
0.0
  0
LINE
  5
2240
330
2038
100
AcDbEntity
  8
0
  6
Continuous
 62
     7
100
AcDbLine
 10
82.11954981101803
 20
1198.739228832327
 30
0.0
 11
82.11954981101803
 21
1198.695806848609
 31
0.0
  0
LINE
  5
2241
330
2038
100
AcDbEntity
  8
0
  6
Continuous
 62
     7
100
AcDbLine
 10
217.719565332068
 20
1198.739228832327
 30
0.0
 11
217.719565332068
 21
1198.695806848608
 31
0.0
  0
LINE
  5
2242
330
2038
100
AcDbEntity
  8
0
100
AcDbLine
 10
252.3195513213172
 20
1558.695793481494
 30
0.0
 11
252.3195513213172
 21
1565.695793481494
 31
0.0
  0
LINE
  5
2243
330
2038
100
AcDbEntity
  8
0
100
AcDbLine
 10
252.3195513213172
 20
1565.695793481494
 30
0.0
 11
252.3195513213172
 21
1551.695793481494
 31
0.0
  0
LINE
  5
2244
330
2038
100
AcDbEntity
  8
0
100
AcDbLine
 10
252.3195513213172
 20
1558.695793481494
 30
0.0
 11
259.3195513213172
 21
1558.695793481494
 31
0.0
  0
LINE
  5
2245
330
2038
100
AcDbEntity
  8
0
100
AcDbLine
 10
259.3195513213172
 20
1558.695793481494
 30
0.0
 11
245.3195513213172
 21
1558.695793481494
 31
0.0
  0
LINE
  5
2246
330
2038
100
AcDbEntity
  8
0
100
AcDbLine
 10
259.3195513213161
 20
1188.695793481494
 30
0.0
 11
245.3195513213161
 21
1188.695793481494
 31
0.0
  0
LINE
  5
2247
330
2038
100
AcDbEntity
  8
0
100
AcDbLine
 10
252.3195513213161
 20
1188.695793481494
 30
0.0
 11
259.3195513213161
 21
1188.695793481494
 31
0.0
  0
LINE
  5
2248
330
2038
100
AcDbEntity
  8
0
100
AcDbLine
 10
252.3195513213161
 20
1195.695793481494
 30
0.0
 11
252.3195513213161
 21
1181.695793481494
 31
0.0
  0
LINE
  5
2249
330
2038
100
AcDbEntity
  8
0
100
AcDbLine
 10
252.3195513213161
 20
1188.695793481494
 30
0.0
 11
252.3195513213161
 21
1195.695793481494
 31
0.0
  0
LINE
  5
224A
330
2038
100
AcDbEntity
  8
0
100
AcDbLine
 10
-360.6804486786839
 20
1188.695793481494
 30
0.0
 11
-374.6804486786839
 21
1188.695793481494
 31
0.0
  0
LINE
  5
224B
330
2038
100
AcDbEntity
  8
0
100
AcDbLine
 10
-367.6804486786839
 20
1188.695793481494
 30
0.0
 11
-367.6804486786839
 21
1195.695793481494
 31
0.0
  0
LINE
  5
224C
330
2038
100
AcDbEntity
  8
0
100
AcDbLine
 10
-367.6804486786839
 20
1195.695793481494
 30
0.0
 11
-367.6804486786839
 21
1181.695793481494
 31
0.0
  0
LINE
  5
224D
330
2038
100
AcDbEntity
  8
0
100
AcDbLine
 10
-367.6804486786825
 20
1565.695793481498
 30
0.0
 11
-367.680448678683
 21
1551.695793481498
 31
0.0
  0
LINE
  5
224E
330
2038
100
AcDbEntity
  8
0
100
AcDbLine
 10
-367.680448678683
 20
1558.695793481498
 30
0.0
 11
-367.6804486786825
 21
1565.695793481498
 31
0.0
  0
LINE
  5
224F
330
2038
100
AcDbEntity
  8
0
100
AcDbLine
 10
-360.680448678683
 20
1558.695793481498
 30
0.0
 11
-374.680448678683
 21
1558.695793481498
 31
0.0
  0
INSERT
  5
245F
330
2038
100
AcDbEntity
  8
LENKIMO
  6
CENTERX2
100
AcDbBlockReference
  2
*U174
 10
1419.801126002948
 20
193.9757763854516
 30
0.0
 41
0.75
 42
0.75
 43
0.75
  0
INSERT
  5
2460
330
2038
100
AcDbEntity
  8
LENKIMO
  6
CENTERX2
100
AcDbBlockReference
  2
*U175
 10
-703.6333992375608
 20
596.2292337444073
 30
0.0
 41
0.75
 42
0.75
 43
0.75
  0
LINE
  5
2461
330
2038
100
AcDbEntity
  8
0
100
AcDbLine
 10
307.328131789116
 20
685.6522556694852
 30
0.0
 11
307.328131789116
 21
625.6522556694854
 31
0.0
  0
LINE
  5
2462
330
2038
100
AcDbEntity
  8
0
100
AcDbLine
 10
457.3281317891142
 20
565.6522556694856
 30
0.0
 11
307.328131789116
 21
445.6522556694855
 31
0.0
  0
LINE
  5
2463
330
2038
100
AcDbEntity
  8
0
100
AcDbLine
 10
457.3281317891142
 20
565.6522556694856
 30
0.0
 11
307.328131789116
 21
685.6522556694852
 31
0.0
  0
LINE
  5
2464
330
2038
100
AcDbEntity
  8
0
100
AcDbLine
 10
307.328131789116
 20
505.6522556694855
 30
0.0
 11
157.328131789116
 21
505.6522556694855
 31
0.0
  0
LINE
  5
2465
330
2038
100
AcDbEntity
  8
0
100
AcDbLine
 10
307.328131789116
 20
625.6522556694854
 30
0.0
 11
157.328131789116
 21
625.6522556694854
 31
0.0
  0
LINE
  5
2466
330
2038
100
AcDbEntity
  8
0
100
AcDbLine
 10
307.328131789116
 20
505.6522556694855
 30
0.0
 11
307.328131789116
 21
445.6522556694855
 31
0.0
  0
LINE
  5
2467
330
2038
100
AcDbEntity
  8
0
100
AcDbLine
 10
157.328131789116
 20
625.6522556694854
 30
0.0
 11
157.328131789116
 21
505.6522556694855
 31
0.0
  0
MTEXT
  5
2468
330
2038
100
AcDbEntity
  8
0
100
AcDbMText
 10
181.805656477206
 20
589.7235781895132
 30
0.0
 40
52.5
 41
31.44920197953655
 71
     1
 72
     5
  1
{ODA}
 73
     1
 44
1.0
1001
ACAD
1000
ACAD_MTEXT_DEFINED_HEIGHT_BEGIN
1070
    46
1040
35.595
1000
ACAD_MTEXT_DEFINED_HEIGHT_END
  0
INSERT
  5
2469
330
2038
100
AcDbEntity
  8
LENKIMO
  6
CENTERX2
100
AcDbBlockReference
  2
*U174
 10
-742.6745163907144
 20
-1623.811143423935
 30
0.0
 41
1.5
 42
1.5
 43
1.5
  0
LINE
  5
246A
330
2038
100
AcDbEntity
  8
0
100
AcDbLine
 10
1769.793918425333
 20
709.5833524331933
 30
0.0
 11
1769.793918425333
 21
649.5833524331929
 31
0.0
  0
LINE
  5
246B
330
2038
100
AcDbEntity
  8
0
100
AcDbLine
 10
1919.793918425333
 20
589.5833524331928
 30
0.0
 11
1769.793918425333
 21
469.5833524331933
 31
0.0
  0
LINE
  5
246C
330
2038
100
AcDbEntity
  8
0
100
AcDbLine
 10
1919.793918425333
 20
589.5833524331928
 30
0.0
 11
1769.793918425333
 21
709.5833524331933
 31
0.0
  0
LINE
  5
246D
330
2038
100
AcDbEntity
  8
0
100
AcDbLine
 10
1769.793918425333
 20
529.5833524331933
 30
0.0
 11
1619.793918425333
 21
529.5833524331933
 31
0.0
  0
LINE
  5
246E
330
2038
100
AcDbEntity
  8
0
100
AcDbLine
 10
1769.793918425333
 20
649.5833524331929
 30
0.0
 11
1619.793918425333
 21
649.5833524331929
 31
0.0
  0
LINE
  5
246F
330
2038
100
AcDbEntity
  8
0
100
AcDbLine
 10
1769.793918425333
 20
529.5833524331933
 30
0.0
 11
1769.793918425333
 21
469.5833524331933
 31
0.0
  0
LINE
  5
2470
330
2038
100
AcDbEntity
  8
0
100
AcDbLine
 10
1619.793918425333
 20
649.5833524331929
 30
0.0
 11
1619.793918425333
 21
529.5833524331933
 31
0.0
  0
MTEXT
  5
2471
330
2038
100
AcDbEntity
  8
0
100
AcDbMText
 10
1644.271443113425
 20
613.6546749532208
 30
0.0
 40
52.5
 41
31.44920197953655
 71
     1
 72
     5
  1
{SUP}
 73
     1
 44
1.0
1001
ACAD
1000
ACAD_MTEXT_DEFINED_HEIGHT_BEGIN
1070
    46
1040
35.595
1000
ACAD_MTEXT_DEFINED_HEIGHT_END
  0
INSERT
  5
2472
330
2038
100
AcDbEntity
  8
LENKIMO
  6
CENTERX2
100
AcDbBlockReference
  2
*U175
 10
273.8864768035119
 20
-1139.084928451757
 30
0.0
 41
1.5
 42
1.5
 43
1.5
  0
LINE
  5
2474
330
2038
100
AcDbEntity
  8
0
100
AcDbLine
 10
-357.6804593204135
 20
1372.845800655688
 30
0.0
 11
242.3195645214456
 21
1374.545792179905
 31
0.0
  0
LINE
  5
2475
330
2038
100
AcDbEntity
  8
0
100
AcDbLine
 10
1737.024004865815
 20
1374.545792179903
 30
0.0
 11
2337.024028707674
 21
1372.845800655683
 31
0.0
  0
VIEWPORT
  5
FEF
330
2036
100
AcDbEntity
 67
     1
  8
0
100
AcDbViewport
 10
1158.697814893774
 20
-882.1953111589094
 30
0.0
 40
11658.33978824966
 41
5260.77846349511
 68
     1
 69
     1
 12
1158.697814893774
 22
-882.1953111589094
 13
0.0
 23
0.0
 14
10.0
 24
10.0
 15
10.0
 25
10.0
 16
0.0
 26
0.0
 36
1.0
 17
0.0
 27
0.0
 37
0.0
 42
50.0
 43
0.0
 44
0.0
 45
5260.77846349511
 50
0.0
 51
0.0
 72
   100
 90
   557280
  1

281
     0
 71
     0
 74
     0
110
0.0
120
0.0
130
0.0
111
1.0
121
0.0
131
0.0
112
0.0
122
1.0
132
0.0
 79
     0
146
0.0
  0
ENDSEC
  0
SECTION
  2
OBJECTS
  0
DICTIONARY
  5
2028
330
0
100
AcDbDictionary
281
     1
  3
ACAD_GROUP
350
2029
  3
ACAD_LAYOUT
350
2035
  3
ACAD_MLINESTYLE
350
2032
  3
ACAD_PLOTSETTINGS
350
2034
  3
ACAD_PLOTSTYLENAME
350
202A
  3
ACAD_SCALELIST
350
21B1
  3
APPDATA
350
21F0
  3
DWGPROPS
350
2478
  0
DICTIONARY
  5
2476
330
2038
100
AcDbDictionary
280
     1
281
     1
  3
DIM_BOUNDING_BOXES_V1
360
2477
  0
DICTIONARY
  5
2029
102
{ACAD_REACTORS
330
2028
102
}
330
2028
100
AcDbDictionary
281
     1
  0
DICTIONARY
  5
2035
102
{ACAD_REACTORS
330
2028
102
}
330
2028
100
AcDbDictionary
281
     1
  3
Model
350
2039
  3
Sheet 1
350
2037
  0
DICTIONARY
  5
2032
102
{ACAD_REACTORS
330
2028
102
}
330
2028
100
AcDbDictionary
281
     1
  3
Standard
350
2033
  0
DICTIONARY
  5
2034
102
{ACAD_REACTORS
330
2028
102
}
330
2028
100
AcDbDictionary
281
     1
  0
ACDBDICTIONARYWDFLT
  5
202A
102
{ACAD_REACTORS
330
2028
102
}
330
2028
100
AcDbDictionary
281
     1
  3
Normal
350
202B
100
AcDbDictionaryWithDefault
340
202B
  0
DICTIONARY
  5
21B1
102
{ACAD_REACTORS
330
2028
102
}
330
2028
100
AcDbDictionary
281
     1
  3
A0
350
21B2
  3
A1
350
21B3
  3
A2
350
21B4
  3
A3
350
21B5
  3
A4
350
21B6
  3
A5
350
21B7
  3
A6
350
21B8
  3
A7
350
21B9
  3
A8
350
21BA
  3
A9
350
21BB
  3
B0
350
21BC
  3
B1
350
21BD
  3
B2
350
21BE
  3
B3
350
21BF
  3
B4
350
21C0
  3
B5
350
21C1
  3
B6
350
21C2
  3
B7
350
21C3
  3
B8
350
21C4
  3
B9
350
21C5
  3
C0
350
21C6
  3
C1
350
21C7
  3
C2
350
21C8
  3
C3
350
21C9
  3
C4
350
21CA
  3
C5
350
21CB
  3
C6
350
21CC
  3
C7
350
21CD
  3
C8
350
21CE
  3
C9
350
21CF
  3
D0
350
21D0
  3
D1
350
21D1
  3
D2
350
21D2
  0
DICTIONARY
  5
21F0
102
{ACAD_REACTORS
330
2028
102
}
330
2028
100
AcDbDictionary
281
     1
  0
XRECORD
  5
2478
102
{ACAD_REACTORS
330
2028
102
}
330
2028
100
AcDbXrecord
280
     1
  1
DWGPROPS COOKIE
  2

  3

  4

  6

  7

  8
egidijustuzinas
  9

300
=
301
=
302
=
303
=
304
=
305
=
306
=
307
=
308
=
309
=
 40
0.0
 41
2455660.517424097
 42
2459177.517011794
  1

 90
        0
  0
DICTIONARY
  5
2477
102
{ACAD_REACTORS
330
2476
102
}
330
2476
100
AcDbDictionary
281
     1
  0
LAYOUT
  5
2039
102
{ACAD_REACTORS
330
2035
102
}
330
2035
100
AcDbPlotSettings
  1

  2
none_device
  4
Letter_(8.50_x_11.00_Inches)
  6

 40
6.35
 41
6.35
 42
6.35
 43
6.35
 44
215.9
 45
279.4
 46
0.0
 47
0.0
 48
0.0
 49
0.0
140
0.0
141
0.0
142
1.0
143
1.0
 70
  1712
 72
     0
 73
     0
 74
     0
  7

 75
     0
147
1.0
148
0.0
149
0.0
100
AcDbLayout
  1
Model
 70
     1
 71
     0
 10
0.0
 20
0.0
 11
12.0
 21
9.0
 12
0.0
 22
0.0
 32
0.0
 14
-377.6804486786839
 24
220.4255158973215
 34
0.0
 15
2357.024018065944
 25
1568.695793481494
 35
0.0
146
0.0
 13
0.0
 23
0.0
 33
0.0
 16
1.0
 26
0.0
 36
0.0
 17
0.0
 27
1.0
 37
0.0
 76
     0
330
2038
331
203B
  0
LAYOUT
  5
2037
102
{ACAD_REACTORS
330
2035
102
}
330
2035
100
AcDbPlotSettings
  1

  2
none_device
  4

  6

 40
0.0
 41
0.0
 42
0.0
 43
0.0
 44
0.0
 45
0.0
 46
0.0
 47
0.0
 48
0.0
 49
0.0
140
0.0
141
0.0
142
1.0
143
1.0
 70
   688
 72
     0
 73
     0
 74
     5
  7

 75
    16
147
1.0
148
0.0
149
0.0
100
AcDbLayout
  1
Sheet 1
 70
     1
 71
     1
 10
0.0
 20
0.0
 11
0.0
 21
0.0
 12
0.0
 22
0.0
 32
0.0
 14
-241.4842471211493
 24
-1047.32335429006
 34
0.0
 15
1475.867993255181
 25
229.946931725868
 35
0.0
146
0.0
 13
0.0
 23
0.0
 33
0.0
 16
1.0
 26
0.0
 36
0.0
 17
0.0
 27
1.0
 37
0.0
 76
     0
330
2036
331
FEF
  0
MLINESTYLE
  5
2033
102
{ACAD_REACTORS
330
2032
102
}
330
2032
100
AcDbMlineStyle
  2
Standard
 70
     0
  3

 62
   256
 51
90.0
 52
90.0
 71
     2
 49
0.5
 62
   256
  6
BYLAYER
 49
-0.5
 62
   256
  6
BYLAYER
  0
ACDBPLACEHOLDER
  5
202B
102
{ACAD_REACTORS
330
202A
102
}
330
202A
  0
SCALE
  5
21B2
102
{ACAD_REACTORS
330
21B1
102
}
330
21B1
100
AcDbScale
 70
     0
300
1:1
140
1.0
141
1.0
290
     1
  0
SCALE
  5
21B3
102
{ACAD_REACTORS
330
21B1
102
}
330
21B1
100
AcDbScale
 70
     0
300
1:2
140
1.0
141
2.0
290
     0
  0
SCALE
  5
21B4
102
{ACAD_REACTORS
330
21B1
102
}
330
21B1
100
AcDbScale
 70
     0
300
1:4
140
1.0
141
4.0
290
     0
  0
SCALE
  5
21B5
102
{ACAD_REACTORS
330
21B1
102
}
330
21B1
100
AcDbScale
 70
     0
300
1:5
140
1.0
141
5.0
290
     0
  0
SCALE
  5
21B6
102
{ACAD_REACTORS
330
21B1
102
}
330
21B1
100
AcDbScale
 70
     0
300
1:8
140
1.0
141
8.0
290
     0
  0
SCALE
  5
21B7
102
{ACAD_REACTORS
330
21B1
102
}
330
21B1
100
AcDbScale
 70
     0
300
1:10
140
1.0
141
10.0
290
     0
  0
SCALE
  5
21B8
102
{ACAD_REACTORS
330
21B1
102
}
330
21B1
100
AcDbScale
 70
     0
300
1:16
140
1.0
141
16.0
290
     0
  0
SCALE
  5
21B9
102
{ACAD_REACTORS
330
21B1
102
}
330
21B1
100
AcDbScale
 70
     0
300
1:20
140
1.0
141
20.0
290
     0
  0
SCALE
  5
21BA
102
{ACAD_REACTORS
330
21B1
102
}
330
21B1
100
AcDbScale
 70
     0
300
1:30
140
1.0
141
30.0
290
     0
  0
SCALE
  5
21BB
102
{ACAD_REACTORS
330
21B1
102
}
330
21B1
100
AcDbScale
 70
     0
300
1:40
140
1.0
141
40.0
290
     0
  0
SCALE
  5
21BC
102
{ACAD_REACTORS
330
21B1
102
}
330
21B1
100
AcDbScale
 70
     0
300
1:50
140
1.0
141
50.0
290
     0
  0
SCALE
  5
21BD
102
{ACAD_REACTORS
330
21B1
102
}
330
21B1
100
AcDbScale
 70
     0
300
1:100
140
1.0
141
100.0
290
     0
  0
SCALE
  5
21BE
102
{ACAD_REACTORS
330
21B1
102
}
330
21B1
100
AcDbScale
 70
     0
300
2:1
140
2.0
141
1.0
290
     0
  0
SCALE
  5
21BF
102
{ACAD_REACTORS
330
21B1
102
}
330
21B1
100
AcDbScale
 70
     0
300
4:1
140
4.0
141
1.0
290
     0
  0
SCALE
  5
21C0
102
{ACAD_REACTORS
330
21B1
102
}
330
21B1
100
AcDbScale
 70
     0
300
8:1
140
8.0
141
1.0
290
     0
  0
SCALE
  5
21C1
102
{ACAD_REACTORS
330
21B1
102
}
330
21B1
100
AcDbScale
 70
     0
300
10:1
140
10.0
141
1.0
290
     0
  0
SCALE
  5
21C2
102
{ACAD_REACTORS
330
21B1
102
}
330
21B1
100
AcDbScale
 70
     0
300
100:1
140
100.0
141
1.0
290
     0
  0
SCALE
  5
21C3
102
{ACAD_REACTORS
330
21B1
102
}
330
21B1
100
AcDbScale
 70
     0
300
1/128" = 1'-0"
140
0.0078125
141
12.0
290
     0
  0
SCALE
  5
21C4
102
{ACAD_REACTORS
330
21B1
102
}
330
21B1
100
AcDbScale
 70
     0
300
1/64" = 1'-0"
140
0.015625
141
12.0
290
     0
  0
SCALE
  5
21C5
102
{ACAD_REACTORS
330
21B1
102
}
330
21B1
100
AcDbScale
 70
     0
300
1/32" = 1'-0"
140
0.03125
141
12.0
290
     0
  0
SCALE
  5
21C6
102
{ACAD_REACTORS
330
21B1
102
}
330
21B1
100
AcDbScale
 70
     0
300
1/16" = 1'-0"
140
0.0625
141
12.0
290
     0
  0
SCALE
  5
21C7
102
{ACAD_REACTORS
330
21B1
102
}
330
21B1
100
AcDbScale
 70
     0
300
3/32" = 1'-0"
140
0.09375
141
12.0
290
     0
  0
SCALE
  5
21C8
102
{ACAD_REACTORS
330
21B1
102
}
330
21B1
100
AcDbScale
 70
     0
300
1/8" = 1'-0"
140
0.125
141
12.0
290
     0
  0
SCALE
  5
21C9
102
{ACAD_REACTORS
330
21B1
102
}
330
21B1
100
AcDbScale
 70
     0
300
3/16" = 1'-0"
140
0.1875
141
12.0
290
     0
  0
SCALE
  5
21CA
102
{ACAD_REACTORS
330
21B1
102
}
330
21B1
100
AcDbScale
 70
     0
300
1/4" = 1'-0"
140
0.25
141
12.0
290
     0
  0
SCALE
  5
21CB
102
{ACAD_REACTORS
330
21B1
102
}
330
21B1
100
AcDbScale
 70
     0
300
3/8" = 1'-0"
140
0.375
141
12.0
290
     0
  0
SCALE
  5
21CC
102
{ACAD_REACTORS
330
21B1
102
}
330
21B1
100
AcDbScale
 70
     0
300
1/2" = 1'-0"
140
0.5
141
12.0
290
     0
  0
SCALE
  5
21CD
102
{ACAD_REACTORS
330
21B1
102
}
330
21B1
100
AcDbScale
 70
     0
300
3/4" = 1'-0"
140
0.75
141
12.0
290
     0
  0
SCALE
  5
21CE
102
{ACAD_REACTORS
330
21B1
102
}
330
21B1
100
AcDbScale
 70
     0
300
1" = 1'-0"
140
1.0
141
12.0
290
     0
  0
SCALE
  5
21CF
102
{ACAD_REACTORS
330
21B1
102
}
330
21B1
100
AcDbScale
 70
     0
300
1-1/2" = 1'-0"
140
1.5
141
12.0
290
     0
  0
SCALE
  5
21D0
102
{ACAD_REACTORS
330
21B1
102
}
330
21B1
100
AcDbScale
 70
     0
300
3" = 1'-0"
140
3.0
141
12.0
290
     0
  0
SCALE
  5
21D1
102
{ACAD_REACTORS
330
21B1
102
}
330
21B1
100
AcDbScale
 70
     0
300
6" = 1'-0"
140
6.0
141
12.0
290
     0
  0
SCALE
  5
21D2
102
{ACAD_REACTORS
330
21B1
102
}
330
21B1
100
AcDbScale
 70
     0
300
1'-0" = 1'-0"
140
12.0
141
12.0
290
     0
  0
ENDSEC
  0
EOF
