  0
SECTION
  2
HEADER
  9
$ACADVER
  1
AC1015
  9
$ACADMAINTVER
 70
     6
  9
$DWGCODEPAGE
  3
ANSI_1257
  9
$INSBASE
 10
0.0
 20
0.0
 30
0.0
  9
$EXTMIN
 10
0.0
 20
0.0
 30
0.0
  9
$EXTMAX
 10
420.0
 20
297.0
 30
0.0
  9
$LIMMIN
 10
0.0
 20
0.0
  9
$LIMMAX
 10
420.0
 20
297.0
  9
$ORTHOMODE
 70
     0
  9
$REGENMODE
 70
     1
  9
$FILLMODE
 70
     1
  9
$QTEXTMODE
 70
     0
  9
$MIRRTEXT
 70
     1
  9
$LTSCALE
 40
1.0
  9
$ATTMODE
 70
     1
  9
$TEXTSIZE
 40
5.6444444444
  9
$TRACEWID
 40
1.0
  9
$TEXTSTYLE
  7
Standard
  9
$CLAYER
  8
0
  9
$CELTYPE
  6
ByLayer
  9
$CECOLOR
 62
   256
  9
$CELTSCALE
 40
1.0
  9
$DISPSILH
 70
     0
  9
$DIMSCALE
 40
1.0
  9
$DIMASZ
 40
3.175
  9
$DIMEXO
 40
1.0
  9
$DIMDLI
 40
3.75
  9
$DIMRND
 40
0.0
  9
$DIMDLE
 40
0.0
  9
$DIMEXE
 40
1.0
  9
$DIMTP
 40
0.0
  9
$DIMTM
 40
0.0
  9
$DIMTXT
 40
4.9388888889
  9
$DIMCEN
 40
2.5
  9
$DIMTSZ
 40
0.0
  9
$DIMTOL
 70
     0
  9
$DIMLIM
 70
     0
  9
$DIMTIH
 70
     1
  9
$DIMTOH
 70
     1
  9
$DIMSE1
 70
     0
  9
$DIMSE2
 70
     0
  9
$DIMTAD
 70
     1
  9
$DIMZIN
 70
     0
  9
$DIMBLK
  1

  9
$DIMASO
 70
     1
  9
$DIMSHO
 70
     1
  9
$DIMPOST
  1

  9
$DIMAPOST
  1

  9
$DIMALT
 70
     0
  9
$DIMALTD
 70
     3
  9
$DIMALTF
 40
0.0393700787
  9
$DIMLFAC
 40
1.0
  9
$DIMTOFL
 70
     1
  9
$DIMTVP
 40
0.0
  9
$DIMTIX
 70
     0
  9
$DIMSOXD
 70
     0
  9
$DIMSAH
 70
     0
  9
$DIMBLK1
  1

  9
$DIMBLK2
  1

  9
$DIMSTYLE
  2
ISO-25
  9
$DIMCLRD
 70
     0
  9
$DIMCLRE
 70
     0
  9
$DIMCLRT
 70
     0
  9
$DIMTFAC
 40
1.0
  9
$DIMGAP
 40
1.524
  9
$DIMJUST
 70
     0
  9
$DIMSD1
 70
     0
  9
$DIMSD2
 70
     0
  9
$DIMTOLJ
 70
     0
  9
$DIMTZIN
 70
     0
  9
$DIMALTZ
 70
     0
  9
$DIMALTTZ
 70
     0
  9
$DIMUPT
 70
     0
  9
$DIMDEC
 70
     1
  9
$DIMTDEC
 70
     1
  9
$DIMALTU
 70
     2
  9
$DIMALTTD
 70
     3
  9
$DIMTXSTY
  7
Standard
  9
$DIMAUNIT
 70
     0
  9
$DIMADEC
 70
     1
  9
$DIMALTRND
 40
0.0
  9
$DIMAZIN
 70
     0
  9
$DIMDSEP
 70
    44
  9
$DIMATFIT
 70
     3
  9
$DIMFRAC
 70
     0
  9
$DIMLDRBLK
  1

  9
$DIMLUNIT
 70
     2
  9
$DIMLWD
 70
    -2
  9
$DIMLWE
 70
    -2
  9
$DIMTMOVE
 70
     0
  9
$LUNITS
 70
     2
  9
$LUPREC
 70
     1
  9
$SKETCHINC
 40
1.0
  9
$FILLETRAD
 40
10.0
  9
$AUNITS
 70
     0
  9
$AUPREC
 70
     1
  9
$MENU
  1
.
  9
$ELEVATION
 40
0.0
  9
$PELEVATION
 40
0.0
  9
$THICKNESS
 40
0.0
  9
$LIMCHECK
 70
     0
  9
$CHAMFERA
 40
0.0
  9
$CHAMFERB
 40
0.0
  9
$CHAMFERC
 40
0.0
  9
$CHAMFERD
 40
0.0
  9
$SKPOLY
 70
     0
  9
$TDCREATE
 40
2459739.401284456
  9
$TDUCREATE
 40
2459739.276284456
  9
$TDUPDATE
 40
2459739.401285174
  9
$TDUUPDATE
 40
2459739.276285174
  9
$TDINDWG
 40
0.0000000116
  9
$TDUSRTIMER
 40
0.0000000116
  9
$USRTIMER
 70
     1
  9
$ANGBASE
 50
0.0
  9
$ANGDIR
 70
     0
  9
$PDMODE
 70
     0
  9
$PDSIZE
 40
-1.0
  9
$PLINEWID
 40
0.0
  9
$SPLFRAME
 70
     0
  9
$SPLINETYPE
 70
     6
  9
$SPLINESEGS
 70
     8
  9
$HANDSEED
  5
55E
  9
$SURFTAB1
 70
     6
  9
$SURFTAB2
 70
     6
  9
$SURFTYPE
 70
     6
  9
$SURFU
 70
     6
  9
$SURFV
 70
     6
  9
$UCSBASE
  2

  9
$UCSNAME
  2

  9
$UCSORG
 10
0.0
 20
0.0
 30
0.0
  9
$UCSXDIR
 10
1.0
 20
0.0
 30
0.0
  9
$UCSYDIR
 10
0.0
 20
1.0
 30
0.0
  9
$UCSORTHOREF
  2

  9
$UCSORTHOVIEW
 70
     0
  9
$UCSORGTOP
 10
0.0
 20
0.0
 30
0.0
  9
$UCSORGBOTTOM
 10
0.0
 20
0.0
 30
0.0
  9
$UCSORGLEFT
 10
0.0
 20
0.0
 30
0.0
  9
$UCSORGRIGHT
 10
0.0
 20
0.0
 30
0.0
  9
$UCSORGFRONT
 10
0.0
 20
0.0
 30
0.0
  9
$UCSORGBACK
 10
0.0
 20
0.0
 30
0.0
  9
$PUCSBASE
  2

  9
$PUCSNAME
  2

  9
$PUCSORG
 10
0.0
 20
0.0
 30
0.0
  9
$PUCSXDIR
 10
1.0
 20
0.0
 30
0.0
  9
$PUCSYDIR
 10
0.0
 20
1.0
 30
0.0
  9
$PUCSORTHOREF
  2

  9
$PUCSORTHOVIEW
 70
     0
  9
$PUCSORGTOP
 10
0.0
 20
0.0
 30
0.0
  9
$PUCSORGBOTTOM
 10
0.0
 20
0.0
 30
0.0
  9
$PUCSORGLEFT
 10
0.0
 20
0.0
 30
0.0
  9
$PUCSORGRIGHT
 10
0.0
 20
0.0
 30
0.0
  9
$PUCSORGFRONT
 10
0.0
 20
0.0
 30
0.0
  9
$PUCSORGBACK
 10
0.0
 20
0.0
 30
0.0
  9
$USERI1
 70
     0
  9
$USERI2
 70
     0
  9
$USERI3
 70
     0
  9
$USERI4
 70
     0
  9
$USERI5
 70
     0
  9
$USERR1
 40
0.0
  9
$USERR2
 40
0.0
  9
$USERR3
 40
0.0
  9
$USERR4
 40
0.0
  9
$USERR5
 40
0.0
  9
$WORLDVIEW
 70
     1
  9
$SHADEDGE
 70
     3
  9
$SHADEDIF
 70
    70
  9
$TILEMODE
 70
     1
  9
$MAXACTVP
 70
    64
  9
$PINSBASE
 10
0.0
 20
0.0
 30
0.0
  9
$PLIMCHECK
 70
     0
  9
$PEXTMIN
 10
1.0000000000E+20
 20
1.0000000000E+20
 30
1.0000000000E+20
  9
$PEXTMAX
 10
-1.0000000000E+20
 20
-1.0000000000E+20
 30
-1.0000000000E+20
  9
$PLIMMIN
 10
0.0
 20
0.0
  9
$PLIMMAX
 10
420.0
 20
297.0
  9
$UNITMODE
 70
     0
  9
$VISRETAIN
 70
     1
  9
$PLINEGEN
 70
     0
  9
$PSLTSCALE
 70
     1
  9
$TREEDEPTH
 70
  3020
  9
$CMLSTYLE
  2
Standard
  9
$CMLJUST
 70
     0
  9
$CMLSCALE
 40
20.0
  9
$PROXYGRAPHICS
 70
     1
  9
$MEASUREMENT
 70
     1
  9
$CELWEIGHT
370
    -1
  9
$ENDCAPS
280
     0
  9
$JOINSTYLE
280
     0
  9
$LWDISPLAY
290
     1
  9
$INSUNITS
 70
     4
  9
$HYPERLINKBASE
  1

  9
$STYLESHEET
  1

  9
$XEDIT
290
     1
  9
$CEPSNTYPE
380
     0
  9
$PSTYLEMODE
290
     1
  9
$FINGERPRINTGUID
  2
{b03115c3-2010-4d70-9142-cfcb393b8f4b}
  9
$VERSIONGUID
  2
{FAEB1C32-E019-11D5-929B-00C0DF256EC4}
  9
$EXTNAMES
290
     1
  9
$PSVPSCALE
 40
0.0
  9
$OLESTARTUP
290
     0
  0
ENDSEC
  0
SECTION
  2
CLASSES
  0
CLASS
  1
ACDBDICTIONARYWDFLT
  2
AcDbDictionaryWithDefault
  3
ObjectDBX Classes
 90
        0
280
     0
281
     0
  0
CLASS
  1
VISUALSTYLE
  2
AcDbVisualStyle
  3
ObjectDBX Classes
 90
     4095
280
     0
281
     0
  0
CLASS
  1
MATERIAL
  2
AcDbMaterial
  3
ObjectDBX Classes
 90
     1153
280
     0
281
     0
  0
CLASS
  1
SCALE
  2
AcDbScale
  3
ObjectDBX Classes
 90
     1153
280
     0
281
     0
  0
CLASS
  1
TABLESTYLE
  2
AcDbTableStyle
  3
ObjectDBX Classes
 90
     4095
280
     0
281
     0
  0
CLASS
  1
MLEADERSTYLE
  2
AcDbMLeaderStyle
  3
ACDB_MLEADERSTYLE_CLASS
 90
     4095
280
     0
281
     0
  0
CLASS
  1
SUN
  2
AcDbSun
  3
SCENEOE
 90
     1153
280
     0
281
     0
  0
CLASS
  1
ACDBPLACEHOLDER
  2
AcDbPlaceHolder
  3
ObjectDBX Classes
 90
        0
280
     0
281
     0
  0
CLASS
  1
LAYOUT
  2
AcDbLayout
  3
ObjectDBX Classes
 90
        0
280
     0
281
     0
  0
ENDSEC
  0
SECTION
  2
TABLES
  0
TABLE
  2
VPORT
  5
8
330
0
100
AcDbSymbolTable
 70
     1
  0
VPORT
  5
29
330
8
100
AcDbSymbolTableRecord
100
AcDbViewportTableRecord
  2
*Active
 70
     0
 10
0.0
 20
0.0
 11
1.0
 21
1.0
 12
210.0
 22
148.5
 13
0.0
 23
0.0
 14
10.0
 24
10.0
 15
10.0
 25
10.0
 16
0.0
 26
0.0
 36
1.0
 17
0.0
 27
0.0
 37
0.0
 40
297.0
 41
1.4141414141
 42
50.0
 43
0.0
 44
0.0
 50
0.0
 51
0.0
 71
     0
 72
  2000
 73
     1
 74
     3
 75
     0
 76
     0
 77
     0
 78
     0
281
     0
 65
     1
110
0.0
120
0.0
130
0.0
111
1.0
121
0.0
131
0.0
112
0.0
122
1.0
132
0.0
 79
     0
146
0.0
  0
ENDTAB
  0
TABLE
  2
LTYPE
  5
5
330
0
100
AcDbSymbolTable
 70
     6
  0
LTYPE
  5
14
330
5
100
AcDbSymbolTableRecord
100
AcDbLinetypeTableRecord
  2
ByBlock
 70
     0
  3

 72
    65
 73
     0
 40
0.0
  0
LTYPE
  5
15
330
5
100
AcDbSymbolTableRecord
100
AcDbLinetypeTableRecord
  2
ByLayer
 70
     0
  3

 72
    65
 73
     0
 40
0.0
  0
LTYPE
  5
16
330
5
100
AcDbSymbolTableRecord
100
AcDbLinetypeTableRecord
  2
Continuous
 70
     0
  3
Solid line
 72
    65
 73
     0
 40
0.0
  0
LTYPE
  5
6E
330
5
100
AcDbSymbolTableRecord
100
AcDbLinetypeTableRecord
  2
HIDDEN
 70
     0
  3
Hidden __ __ __ __ __ __ __ __ __ __ __ __ __ __
 72
    65
 73
     2
 40
1.905
 49
1.27
 74
     0
 49
-0.635
 74
     0
  0
LTYPE
  5
6F
330
5
100
AcDbSymbolTableRecord
100
AcDbLinetypeTableRecord
  2
PHANTOM
 70
     0
  3
Phantom ______  __  __  ______  __  __  ______
 72
    65
 73
     6
 40
12.7
 49
6.35
 74
     0
 49
-1.27
 74
     0
 49
1.27
 74
     0
 49
-1.27
 74
     0
 49
1.27
 74
     0
 49
-1.27
 74
     0
  0
LTYPE
  5
70
330
5
100
AcDbSymbolTableRecord
100
AcDbLinetypeTableRecord
  2
CENTER
 70
     0
  3
Center ____ _ ____ _ ____ _ ____ _ ____ _ ____
 72
    65
 73
     4
 40
10.16
 49
6.35
 74
     0
 49
-1.27
 74
     0
 49
1.27
 74
     0
 49
-1.27
 74
     0
  0
LTYPE
  5
71
330
5
100
AcDbSymbolTableRecord
100
AcDbLinetypeTableRecord
  2
CENTERX2
 70
     0
  3
Center (2x) ________  __  ________  __  _____
 72
    65
 73
     4
 40
20.32
 49
12.7
 74
     0
 49
-2.54
 74
     0
 49
2.54
 74
     0
 49
-2.54
 74
     0
  0
LTYPE
  5
72
330
5
100
AcDbSymbolTableRecord
100
AcDbLinetypeTableRecord
  2
DOT2
 70
     0
  3
Dot (.5x) ........................................
 72
    65
 73
     2
 40
0.635
 49
0.0
 74
     0
 49
-0.635
 74
     0
  0
ENDTAB
  0
TABLE
  2
LAYER
  5
2
330
0
100
AcDbSymbolTable
 70
     2
  0
LAYER
  5
10
330
2
100
AcDbSymbolTableRecord
100
AcDbLayerTableRecord
  2
0
 70
     0
 62
     7
  6
Continuous
370
    -3
390
F
  0
LAYER
  5
73
330
2
100
AcDbSymbolTableRecord
100
AcDbLayerTableRecord
  2
LENKIMO
 70
     0
 62
     1
  6
CENTERX2
370
    -3
390
F
  0
ENDTAB
  0
TABLE
  2
STYLE
  5
3
330
0
100
AcDbSymbolTable
 70
     1
  0
STYLE
  5
11
330
3
100
AcDbSymbolTableRecord
100
AcDbTextStyleTableRecord
  2
Standard
 70
     0
 40
0.0
 41
1.0
 50
0.0
 71
     0
 42
5.6444444444
  3
txt
  4

  0
ENDTAB
  0
TABLE
  2
VIEW
  5
6
330
0
100
AcDbSymbolTable
 70
     0
  0
ENDTAB
  0
TABLE
  2
UCS
  5
7
330
0
100
AcDbSymbolTable
 70
     0
  0
ENDTAB
  0
TABLE
  2
APPID
  5
9
330
0
100
AcDbSymbolTable
 70
     1
  0
APPID
  5
12
330
9
100
AcDbSymbolTableRecord
100
AcDbRegAppTableRecord
  2
ACAD
 70
     0
  0
ENDTAB
  0
TABLE
  2
DIMSTYLE
  5
A
330
0
100
AcDbSymbolTable
 70
     1
100
AcDbDimStyleTable
  0
DIMSTYLE
105
27
330
A
100
AcDbSymbolTableRecord
100
AcDbDimStyleTableRecord
  2
ISO-25
 70
     0
 41
2.5
 42
0.625
 43
3.75
 44
1.25
 73
     0
 74
     0
 77
     1
 78
     8
140
2.5
141
2.5
143
0.0393700787
147
0.625
171
     3
172
     1
178
     0
271
     2
272
     2
274
     3
278
    44
283
     0
284
     8
340
11
  0
ENDTAB
  0
TABLE
  2
BLOCK_RECORD
  5
1
330
0
100
AcDbSymbolTable
 70
     2
  0
BLOCK_RECORD
  5
1F
330
1
100
AcDbSymbolTableRecord
100
AcDbBlockTableRecord
  2
*Model_Space
340
22
  0
BLOCK_RECORD
  5
1B
330
1
100
AcDbSymbolTableRecord
100
AcDbBlockTableRecord
  2
*Paper_Space
340
1E
  0
BLOCK_RECORD
  5
23
330
1
100
AcDbSymbolTableRecord
100
AcDbBlockTableRecord
  2
*Paper_Space0
340
26
  0
BLOCK_RECORD
  5
74
330
1
100
AcDbSymbolTableRecord
100
AcDbBlockTableRecord
  2
Block11_2
340
0
  0
ENDTAB
  0
ENDSEC
  0
SECTION
  2
BLOCKS
  0
BLOCK
  5
20
330
1F
100
AcDbEntity
  8
0
100
AcDbBlockBegin
  2
*Model_Space
 70
     0
 10
0.0
 20
0.0
 30
0.0
  3
*Model_Space
  1

  0
ENDBLK
  5
21
330
1F
100
AcDbEntity
  8
0
100
AcDbBlockEnd
  0
BLOCK
  5
1C
330
1B
100
AcDbEntity
 67
     1
  8
0
100
AcDbBlockBegin
  2
*Paper_Space
 70
     0
 10
0.0
 20
0.0
 30
0.0
  3
*Paper_Space
  1

  0
ENDBLK
  5
1D
330
1B
100
AcDbEntity
 67
     1
  8
0
100
AcDbBlockEnd
  0
BLOCK
  5
24
330
23
100
AcDbEntity
  8
0
100
AcDbBlockBegin
  2
*Paper_Space0
 70
     0
 10
0.0
 20
0.0
 30
0.0
  3
*Paper_Space0
  1

  0
ENDBLK
  5
25
330
23
100
AcDbEntity
  8
0
100
AcDbBlockEnd
  0
BLOCK
  5
75
330
74
100
AcDbEntity
  8
0
100
AcDbBlockBegin
  2
Block11_2
 70
     0
 10
0.0
 20
0.0
 30
0.0
  3
Block11_2
  1

  0
LINE
  5
77
330
74
100
AcDbEntity
  8
0
  6
Continuous
100
AcDbLine
 10
-15.7956326374
 20
2.3055746011
 30
0.0
 11
-18.0649288667
 21
1.8146036087
 31
0.0
  0
LINE
  5
78
330
74
100
AcDbEntity
  8
0
  6
Continuous
100
AcDbLine
 10
-15.6988785554
 20
-9.1195335787
 30
0.0
 11
-10.2261014967
 21
-7.9354771524
 31
0.0
  0
LINE
  5
79
330
74
100
AcDbEntity
  8
0
  6
Continuous
100
AcDbLine
 10
-10.2261014967
 20
-7.9354771524
 30
0.0
 11
-10.6655808869
 21
-5.9041780766
 31
0.0
  0
LINE
  5
7A
330
74
100
AcDbEntity
  8
0
  6
Continuous
100
AcDbLine
 10
-10.6655808869
 20
-5.9041780766
 30
0.0
 11
-13.8699456036
 21
-6.5974547429
 31
0.0
  0
LINE
  5
7B
330
74
100
AcDbEntity
  8
0
  6
Continuous
100
AcDbLine
 10
-8.296070931
 20
1.802048972
 30
0.0
 11
-6.9198111955
 21
2.0998080743
 31
0.0
  0
LINE
  5
7C
330
74
100
AcDbEntity
  8
0
  6
Continuous
100
AcDbLine
 10
-5.4333831358
 20
-4.7719736412
 30
0.0
 11
-6.8095376466
 21
-5.0697099777
 31
0.0
  0
LINE
  5
7D
330
74
100
AcDbEntity
  8
0
  6
Continuous
100
AcDbLine
 10
-11.0044904538
 20
3.3421566929
 30
0.0
 11
-8.6388294738
 21
-7.5920647278
 31
0.0
  0
LINE
  5
7E
330
74
100
AcDbEntity
  8
0
  6
Continuous
100
AcDbLine
 10
-8.6388294738
 20
-7.5920647278
 30
0.0
 11
-8.6384401425
 21
-7.5919804944
 31
0.0
  0
LINE
  5
7F
330
74
100
AcDbEntity
  8
0
  6
Continuous
100
AcDbLine
 10
-8.6384401425
 20
-7.5919804944
 30
0.0
 11
-4.4940245505
 21
-6.6953201952
 31
0.0
  0
LINE
  5
80
330
74
100
AcDbEntity
  8
0
  6
Continuous
100
AcDbLine
 10
-6.8595855671
 20
4.238922853
 30
0.0
 11
-11.0044904538
 21
3.3421566929
 31
0.0
  0
LINE
  5
81
330
74
100
AcDbEntity
  8
0
  6
Continuous
100
AcDbLine
 10
-32.9933593229
 20
-3.3005605139
 30
0.0
 11
-32.8591663041
 21
-3.2715273367
 31
0.0
  0
LINE
  5
82
330
74
100
AcDbEntity
  8
0
  6
Continuous
100
AcDbLine
 10
-31.5697721187
 20
-3.9678201523
 30
0.0
 11
-29.2969561243
 21
-3.4760876451
 31
0.0
  0
LINE
  5
83
330
74
100
AcDbEntity
  8
0
  6
Continuous
100
AcDbLine
 10
-33.2794920496
 20
-1.2667721217
 30
0.0
 11
-33.3448839193
 21
-1.2809199049
 31
0.0
  0
LINE
  5
84
330
74
100
AcDbEntity
  8
0
  6
Continuous
100
AcDbLine
 10
-31.3289079349
 20
-10.5856399919
 30
0.0
 11
-31.4650581325
 21
-10.6150966123
 31
0.0
  0
LINE
  5
85
330
74
100
AcDbEntity
  8
0
  6
Continuous
100
AcDbLine
 10
-32.8822392925
 20
-9.9377601564
 30
0.0
 11
-35.1888692339
 21
-10.4368084414
 31
0.0
  0
LINE
  5
86
330
74
100
AcDbEntity
  8
0
  6
Continuous
100
AcDbLine
 10
-31.5949683304
 20
-12.7295787952
 30
0.0
 11
-30.2063920476
 21
-12.4291549603
 31
0.0
  0
LINE
  5
87
330
74
100
AcDbEntity
  8
0
  6
Continuous
100
AcDbLine
 10
6.262509235
 20
-4.3681026205
 30
0.0
 11
8.6370616994
 21
-3.8543590356
 31
0.0
  0
LINE
  5
88
330
74
100
AcDbEntity
  8
0
  6
Continuous
100
AcDbLine
 10
8.6370616994
 20
-3.8543590356
 30
0.0
 11
3.9059396663
 21
6.5680857621
 31
0.0
  0
LINE
  5
89
330
74
100
AcDbEntity
  8
0
  6
Continuous
100
AcDbLine
 10
3.9059396663
 20
6.5680857621
 30
0.0
 11
0.0
 21
5.7230206493
 31
0.0
  0
LINE
  5
8A
330
74
100
AcDbEntity
  8
0
  6
Continuous
100
AcDbLine
 10
0.0
 20
5.7230206493
 30
0.0
 11
0.0
 21
-5.7230206493
 31
0.0
  0
LINE
  5
8B
330
74
100
AcDbEntity
  8
0
  6
Continuous
100
AcDbLine
 10
0.0
 20
-5.7230206493
 30
0.0
 11
2.3746576891
 21
-5.2092542987
 31
0.0
  0
LINE
  5
8C
330
74
100
AcDbEntity
  8
0
  6
Continuous
100
AcDbLine
 10
2.3746576891
 20
-5.2092542987
 30
0.0
 11
2.3747844598
 21
-3.0912381741
 31
0.0
  0
LINE
  5
8D
330
74
100
AcDbEntity
  8
0
  6
Continuous
100
AcDbLine
 10
2.3747844598
 20
-3.0912381741
 30
0.0
 11
4.0318309599
 21
-2.7327297722
 31
0.0
  0
LINE
  5
8E
330
74
100
AcDbEntity
  8
0
  6
Continuous
100
AcDbLine
 10
4.0318309599
 20
-2.7327297722
 30
0.0
 11
3.5923515697
 21
-0.7014306964
 31
0.0
  0
LINE
  5
8F
330
74
100
AcDbEntity
  8
0
  6
Continuous
100
AcDbLine
 10
3.5923515697
 20
-0.7014306964
 30
0.0
 11
2.3750284336
 21
-0.9648032524
 31
0.0
  0
LINE
  5
90
330
74
100
AcDbEntity
  8
0
  6
Continuous
100
AcDbLine
 10
2.3750284336
 20
-0.9648032524
 30
0.0
 11
2.3752084601
 21
4.1936873712
 31
0.0
  0
LINE
  5
91
330
74
100
AcDbEntity
  8
0
  6
Continuous
100
AcDbLine
 10
2.3752084601
 20
4.1936873712
 30
0.0
 11
6.262509235
 21
-4.3681026205
 31
0.0
  0
LINE
  5
92
330
74
100
AcDbEntity
  8
0
  6
Continuous
100
AcDbLine
 10
-53.0629352118
 20
-11.4801779454
 30
0.0
 11
-50.7945341276
 21
-8.0228043203
 31
0.0
  0
LINE
  5
93
330
74
100
AcDbEntity
  8
0
  6
Continuous
100
AcDbLine
 10
-50.7945341276
 20
-8.0228043203
 30
0.0
 11
-54.2891069366
 21
-5.8122833411
 31
0.0
  0
LINE
  5
94
330
74
100
AcDbEntity
  8
0
  6
Continuous
100
AcDbLine
 10
-54.2891069366
 20
-5.8122833411
 30
0.0
 11
-51.4073820962
 21
-5.1888110564
 31
0.0
  0
LINE
  5
95
330
74
100
AcDbEntity
  8
0
  6
Continuous
100
AcDbLine
 10
-51.4073820962
 20
-5.1888110564
 30
0.0
 11
-47.9127327975
 21
-7.3992273667
 31
0.0
  0
LINE
  5
96
330
74
100
AcDbEntity
  8
0
  6
Continuous
100
AcDbLine
 10
-47.9127327975
 20
-7.3992273667
 30
0.0
 11
-50.1813587974
 21
-10.8569360435
 31
0.0
  0
LINE
  5
97
330
74
100
AcDbEntity
  8
0
  6
Continuous
100
AcDbLine
 10
-50.1813587974
 20
-10.8569360435
 30
0.0
 11
-53.0628942334
 21
-11.4803673498
 31
0.0
  0
LINE
  5
98
330
74
100
AcDbEntity
  8
0
  6
Continuous
100
AcDbLine
 10
-53.0628942334
 20
-11.4803673498
 30
0.0
 11
-53.0629352118
 21
-11.4801779454
 31
0.0
  0
LINE
  5
99
330
74
100
AcDbEntity
  8
0
  6
Continuous
100
AcDbLine
 10
-42.7624916815
 20
-3.31845567
 30
0.0
 11
-45.0307950789
 21
-6.7757971452
 31
0.0
  0
LINE
  5
9A
330
74
100
AcDbEntity
  8
0
  6
Continuous
100
AcDbLine
 10
-45.0307950789
 20
-6.7757971452
 30
0.0
 11
-48.5254573289
 21
-4.5652955168
 31
0.0
  0
LINE
  5
9B
330
74
100
AcDbEntity
  8
0
  6
Continuous
100
AcDbLine
 10
-48.5254573289
 20
-4.5652955168
 30
0.0
 11
-48.5257466967
 21
-4.5653581227
 31
0.0
  0
LINE
  5
9C
330
74
100
AcDbEntity
  8
0
  6
Continuous
100
AcDbLine
 10
-48.5257466967
 20
-4.5653581227
 30
0.0
 11
-47.9126146215
 21
-7.399289919
 31
0.0
  0
LINE
  5
9D
330
74
100
AcDbEntity
  8
0
  6
Continuous
100
AcDbLine
 10
-47.9126146215
 20
-7.399289919
 30
0.0
 11
-44.4177372167
 21
-9.6098441329
 31
0.0
  0
LINE
  5
9E
330
74
100
AcDbEntity
  8
0
  6
Continuous
100
AcDbLine
 10
-44.4177372167
 20
-9.6098441329
 30
0.0
 11
-42.1490649772
 21
-6.1523237222
 31
0.0
  0
LINE
  5
9F
330
74
100
AcDbEntity
  8
0
  6
Continuous
100
AcDbLine
 10
-42.1490649772
 20
-6.1523237222
 30
0.0
 11
-42.7621970524
 21
-3.3183919259
 31
0.0
  0
LINE
  5
A0
330
74
100
AcDbEntity
  8
0
  6
Continuous
100
AcDbLine
 10
-42.7621970524
 20
-3.3183919259
 30
0.0
 11
-42.7624916815
 21
-3.31845567
 31
0.0
  0
LINE
  5
A1
330
74
100
AcDbEntity
  8
0
  6
Continuous
100
AcDbLine
 10
-41.535889647
 20
-8.9864554454
 30
0.0
 11
-43.8045413973
 21
-12.4440705583
 31
0.0
  0
LINE
  5
A2
330
74
100
AcDbEntity
  8
0
  6
Continuous
100
AcDbLine
 10
-43.8045413973
 20
-12.4440705583
 30
0.0
 11
-40.3564529382
 21
-14.625159785
 31
0.0
  0
LINE
  5
A3
330
74
100
AcDbEntity
  8
0
  6
Continuous
100
AcDbLine
 10
-40.3564529382
 20
-14.625159785
 30
0.0
 11
-43.2382724808
 21
-15.2486525588
 31
0.0
  0
LINE
  5
A4
330
74
100
AcDbEntity
  8
0
  6
Continuous
100
AcDbLine
 10
-43.2382724808
 20
-15.2486525588
 30
0.0
 11
-46.686243472
 21
-13.0676480676
 31
0.0
  0
LINE
  5
A5
330
74
100
AcDbEntity
  8
0
  6
Continuous
100
AcDbLine
 10
-46.686243472
 20
-13.0676480676
 30
0.0
 11
-44.4177144509
 21
-9.6099493576
 31
0.0
  0
LINE
  5
A6
330
74
100
AcDbEntity
  8
0
  6
Continuous
100
AcDbLine
 10
-44.4177144509
 20
-9.6099493576
 30
0.0
 11
-41.535889647
 21
-8.9864554454
 31
0.0
  0
LINE
  5
A7
330
74
100
AcDbEntity
  8
0
  6
Continuous
100
AcDbLine
 10
-51.8063383656
 20
-17.1023866618
 30
0.0
 11
-49.5681857438
 21
-13.6910572443
 31
0.0
  0
LINE
  5
A8
330
74
100
AcDbEntity
  8
0
  6
Continuous
100
AcDbLine
 10
-49.5681857438
 20
-13.6910572443
 30
0.0
 11
-46.1199973213
 21
-15.8721248435
 31
0.0
  0
LINE
  5
A9
330
74
100
AcDbEntity
  8
0
  6
Continuous
100
AcDbLine
 10
-46.1199973213
 20
-15.8721248435
 30
0.0
 11
-46.0813956519
 21
-15.8637732234
 31
0.0
  0
LINE
  5
AA
330
74
100
AcDbEntity
  8
0
  6
Continuous
100
AcDbLine
 10
-46.0813956519
 20
-15.8637732234
 30
0.0
 11
-46.6863662012
 21
-13.0675644704
 31
0.0
  0
LINE
  5
AB
330
74
100
AcDbEntity
  8
0
  6
Continuous
100
AcDbLine
 10
-46.6863662012
 20
-13.0675644704
 30
0.0
 11
-50.1813587974
 21
-10.8569360435
 31
0.0
  0
LINE
  5
AC
330
74
100
AcDbEntity
  8
0
  6
Continuous
100
AcDbLine
 10
-50.1813587974
 20
-10.8569360435
 30
0.0
 11
-52.4497621582
 21
-14.3142991462
 31
0.0
  0
LINE
  5
AD
330
74
100
AcDbEntity
  8
0
  6
Continuous
100
AcDbLine
 10
-52.4497621582
 20
-14.3142991462
 30
0.0
 11
-51.8447506306
 21
-17.1106973035
 31
0.0
  0
LINE
  5
AE
330
74
100
AcDbEntity
  8
0
  6
Continuous
100
AcDbLine
 10
-51.8447506306
 20
-17.1106973035
 30
0.0
 11
-51.8063383656
 21
-17.1023866618
 31
0.0
  0
LINE
  5
AF
330
74
100
AcDbEntity
  8
0
  6
Continuous
100
AcDbLine
 10
-20.0432683672
 20
-10.0594590717
 30
0.0
 11
-17.6687053803
 21
-9.5457132103
 31
0.0
  0
LINE
  5
B0
330
74
100
AcDbEntity
  8
0
  6
Continuous
100
AcDbLine
 10
-17.6687053803
 20
-9.5457132103
 30
0.0
 11
-22.3998379359
 21
0.8767293109
 31
0.0
  0
LINE
  5
B1
330
74
100
AcDbEntity
  8
0
  6
Continuous
100
AcDbLine
 10
-22.3998379359
 20
0.8767293109
 30
0.0
 11
-26.3058670432
 21
0.0316448472
 31
0.0
  0
LINE
  5
B2
330
74
100
AcDbEntity
  8
0
  6
Continuous
100
AcDbLine
 10
-26.3058670432
 20
0.0316448472
 30
0.0
 11
-26.3056723775
 21
-11.4143543348
 31
0.0
  0
LINE
  5
B3
330
74
100
AcDbEntity
  8
0
  6
Continuous
100
AcDbLine
 10
-26.3056723775
 20
-11.4143543348
 30
0.0
 11
-23.9311146519
 21
-10.9006096116
 31
0.0
  0
LINE
  5
B4
330
74
100
AcDbEntity
  8
0
  6
Continuous
100
AcDbLine
 10
-23.9311146519
 20
-10.9006096116
 30
0.0
 11
-23.9309931424
 21
-8.7825946253
 31
0.0
  0
LINE
  5
B5
330
74
100
AcDbEntity
  8
0
  6
Continuous
100
AcDbLine
 10
-23.9309931424
 20
-8.7825946253
 30
0.0
 11
-22.2738308951
 21
-8.4240611811
 31
0.0
  0
LINE
  5
B6
330
74
100
AcDbEntity
  8
0
  6
Continuous
100
AcDbLine
 10
-22.2738308951
 20
-8.4240611811
 30
0.0
 11
-22.7133102854
 21
-6.3927621053
 31
0.0
  0
LINE
  5
B7
330
74
100
AcDbEntity
  8
0
  6
Continuous
100
AcDbLine
 10
-22.7133102854
 20
-6.3927621053
 30
0.0
 11
-23.9308333483
 21
-6.6561779162
 31
0.0
  0
LINE
  5
B8
330
74
100
AcDbEntity
  8
0
  6
Continuous
100
AcDbLine
 10
-23.9308333483
 20
-6.6561779162
 30
0.0
 11
-23.9305586196
 21
-1.4976668035
 31
0.0
  0
LINE
  5
B9
330
74
100
AcDbEntity
  8
0
  6
Continuous
100
AcDbLine
 10
-23.9305586196
 20
-1.4976668035
 30
0.0
 11
-20.0432683672
 21
-10.0594590717
 31
0.0
  0
SPLINE
  5
BA
330
74
100
AcDbEntity
  8
0
100
AcDbSpline
210
0.0
220
0.0
230
1.0
 70
     8
 71
     3
 72
     8
 73
     4
 74
     0
 42
0.00000001
 43
0.00000001
 40
0.0
 40
0.0
 40
0.0
 40
0.0
 40
1.0
 40
1.0
 40
1.0
 40
1.0
 10
-13.86994560355125
 20
-6.597454742918429
 30
0.0
 10
-13.88373254946556
 20
-6.53373068413859
 30
0.0
 10
-15.11365515797402
 20
-0.8489574873494021
 30
0.0
 10
-15.79563263740206
 20
2.305574601061459
 30
0.0
  0
SPLINE
  5
BB
330
74
100
AcDbEntity
  8
0
100
AcDbSpline
210
0.0
220
0.0
230
1.0
 70
     8
 71
     3
 72
     8
 73
     4
 74
     0
 42
0.00000001
 43
0.00000001
 40
2.0
 40
2.0
 40
2.0
 40
2.0
 40
3.0
 40
3.0
 40
3.0
 40
3.0
 10
-18.06492886668426
 20
1.814603608696524
 30
0.0
 10
-17.24003965005502
 20
-1.995739949107536
 30
0.0
 10
-15.71186186991051
 20
-9.059523950669432
 30
0.0
 10
-15.69887855542093
 20
-9.119533578677906
 30
0.0
  0
SPLINE
  5
BC
330
74
100
AcDbEntity
  8
0
100
AcDbSpline
210
0.0
220
0.0
230
1.0
 70
     8
 71
     3
 72
     8
 73
     4
 74
     0
 42
0.00000001
 43
0.00000001
 40
0.0
 40
0.0
 40
0.0
 40
0.0
 40
1.0
 40
1.0
 40
1.0
 40
1.0
 10
-6.809537646582547
 20
-5.069709977697404
 30
0.0
 10
-7.284290309572815
 20
-2.875375801708635
 30
0.0
 10
-7.897830097865885
 20
-0.0390758678013329
 30
0.0
 10
-8.296070930952649
 20
1.80204897196991
 30
0.0
  0
SPLINE
  5
BD
330
74
100
AcDbEntity
  8
0
100
AcDbSpline
210
0.0
220
0.0
230
1.0
 70
     8
 71
     3
 72
     8
 73
     4
 74
     0
 42
0.00000001
 43
0.00000001
 40
2.0
 40
2.0
 40
2.0
 40
2.0
 40
3.0
 40
3.0
 40
3.0
 40
3.0
 10
-6.919811195494074
 20
2.099808074263809
 30
0.0
 10
-6.228016878711183
 20
2.249480443098069
 30
0.0
 10
-5.547633595833446
 20
1.815851349115847
 30
0.0
 10
-5.399398884916104
 20
1.130701970100344
 30
0.0
  0
SPLINE
  5
BE
330
74
100
AcDbEntity
  8
0
100
AcDbSpline
210
0.0
220
0.0
230
1.0
 70
     8
 71
     3
 72
     8
 73
     4
 74
     0
 42
0.00000001
 43
0.00000001
 40
3.0
 40
3.0
 40
3.0
 40
3.0
 40
4.0
 40
4.0
 40
4.0
 40
4.0
 10
-5.399398884916104
 20
1.130701970100344
 30
0.0
 10
-5.107009087764085
 20
-0.2207405274728672
 30
0.0
 10
-4.711497421058354
 20
-2.048334586467611
 30
0.0
 10
-4.449160707297047
 20
-3.260870000165379
 30
0.0
  0
SPLINE
  5
BF
330
74
100
AcDbEntity
  8
0
100
AcDbSpline
210
0.0
220
0.0
230
1.0
 70
     8
 71
     3
 72
     8
 73
     4
 74
     0
 42
0.00000001
 43
0.00000001
 40
4.0
 40
4.0
 40
4.0
 40
4.0
 40
5.0
 40
5.0
 40
5.0
 40
5.0
 10
-4.449160707297047
 20
-3.260870000165379
 30
0.0
 10
-4.300905507193207
 20
-3.946114081381999
 30
0.0
 10
-4.741570606399121
 20
-4.622385452066122
 30
0.0
 10
-5.433383135791953
 20
-4.771973641166296
 30
0.0
  0
SPLINE
  5
C0
330
74
100
AcDbEntity
  8
0
100
AcDbSpline
210
0.0
220
0.0
230
1.0
 70
     8
 71
     3
 72
     8
 73
     4
 74
     0
 42
0.00000001
 43
0.00000001
 40
3.0
 40
3.0
 40
3.0
 40
3.0
 40
4.0
 40
4.0
 40
4.0
 40
4.0
 10
-4.494024550545999
 20
-6.695320195210662
 30
0.0
 10
-2.825524345390513
 20
-6.334333740063992
 30
0.0
 10
-1.762658323115034
 20
-4.702068307882374
 30
0.0
 10
-2.120071189640999
 20
-3.049576315093403
 30
0.0
  0
SPLINE
  5
C1
330
74
100
AcDbEntity
  8
0
100
AcDbSpline
210
0.0
220
0.0
230
1.0
 70
     8
 71
     3
 72
     8
 73
     4
 74
     0
 42
0.00000001
 43
0.00000001
 40
4.0
 40
4.0
 40
4.0
 40
4.0
 40
5.0
 40
5.0
 40
5.0
 40
5.0
 10
-2.120071189640999
 20
-3.049576315093403
 30
0.0
 10
-2.485983017556096
 20
-1.358310753073632
 30
0.0
 10
-2.867352798370483
 20
0.4044023583376265
 30
0.0
 10
-3.190995488197396
 20
1.900704823656681
 30
0.0
  0
SPLINE
  5
C2
330
74
100
AcDbEntity
  8
0
100
AcDbSpline
210
0.0
220
0.0
230
1.0
 70
     8
 71
     3
 72
     8
 73
     4
 74
     0
 42
0.00000001
 43
0.00000001
 40
5.0
 40
5.0
 40
5.0
 40
5.0
 40
6.0
 40
6.0
 40
6.0
 40
6.0
 10
-3.190995488197396
 20
1.900704823656681
 30
0.0
 10
-3.54857504695031
 20
3.553458157285876
 30
0.0
 10
-5.190901218780231
 20
4.599949148191988
 30
0.0
 10
-6.859585567104196
 20
4.238922852960538
 30
0.0
  0
SPLINE
  5
C3
330
74
100
AcDbEntity
  8
0
100
AcDbSpline
210
0.0
220
0.0
230
1.0
 70
     8
 71
     3
 72
     8
 73
     4
 74
     0
 42
0.00000001
 43
0.00000001
 40
0.0
 40
0.0
 40
0.0
 40
0.0
 40
1.0
 40
1.0
 40
1.0
 40
1.0
 10
-30.23703582864644
 20
-6.251438951366732
 30
0.0
 10
-30.9104300186728
 20
-6.015603382360459
 30
0.0
 10
-31.40848551125485
 20
-5.893156856121871
 30
0.0
 10
-32.67210357750635
 20
-5.496689523479785
 30
0.0
  0
SPLINE
  5
C4
330
74
100
AcDbEntity
  8
0
100
AcDbSpline
210
0.0
220
0.0
230
1.0
 70
     8
 71
     3
 72
     8
 73
     4
 74
     0
 42
0.00000001
 43
0.00000001
 40
1.0
 40
1.0
 40
1.0
 40
1.0
 40
2.0
 40
2.0
 40
2.0
 40
2.0
 10
-32.67210357750635
 20
-5.496689523479785
 30
0.0
 10
-33.03332194555517
 20
-5.383421617718132
 30
0.0
 10
-33.81210282496122
 20
-5.206692347750555
 30
0.0
 10
-33.94849250952588
 20
-4.576291363356936
 30
0.0
  0
SPLINE
  5
C5
330
74
100
AcDbEntity
  8
0
100
AcDbSpline
210
0.0
220
0.0
230
1.0
 70
     8
 71
     3
 72
     8
 73
     4
 74
     0
 42
0.00000001
 43
0.00000001
 40
2.0
 40
2.0
 40
2.0
 40
2.0
 40
3.0
 40
3.0
 40
3.0
 40
3.0
 10
-33.94849250952588
 20
-4.576291363356936
 30
0.0
 10
-34.11622381965225
 20
-3.801027578894063
 30
0.0
 10
-33.67528356585564
 20
-3.448097454184924
 30
0.0
 10
-32.99335932290604
 20
-3.30056051389548
 30
0.0
  0
SPLINE
  5
C6
330
74
100
AcDbEntity
  8
0
100
AcDbSpline
210
0.0
220
0.0
230
1.0
 70
     8
 71
     3
 72
     8
 73
     4
 74
     0
 42
0.00000001
 43
0.00000001
 40
4.0
 40
4.0
 40
4.0
 40
4.0
 40
5.0
 40
5.0
 40
5.0
 40
5.0
 10
-32.85916630414497
 20
-3.271527336675416
 30
0.0
 10
-32.2786944245911
 20
-3.14594000653005
 30
0.0
 10
-31.77109773641243
 20
-3.328116480283148
 30
0.0
 10
-31.56977211870437
 20
-3.967820152272103
 30
0.0
  0
SPLINE
  5
C7
330
74
100
AcDbEntity
  8
0
100
AcDbSpline
210
0.0
220
0.0
230
1.0
 70
     8
 71
     3
 72
     8
 73
     4
 74
     0
 42
0.00000001
 43
0.00000001
 40
6.0
 40
6.0
 40
6.0
 40
6.0
 40
7.0
 40
7.0
 40
7.0
 40
7.0
 10
-29.29695612428625
 20
-3.476087645143529
 30
0.0
 10
-29.68810071971012
 20
-1.866802583842748
 30
0.0
 10
-30.87776107222441
 20
-0.7599478056671497
 30
0.0
 10
-33.27949204955325
 20
-1.266772121690862
 30
0.0
  0
SPLINE
  5
C8
330
74
100
AcDbEntity
  8
0
100
AcDbSpline
210
0.0
220
0.0
230
1.0
 70
     8
 71
     3
 72
     8
 73
     4
 74
     0
 42
0.00000001
 43
0.00000001
 40
8.0
 40
8.0
 40
8.0
 40
8.0
 40
9.0
 40
9.0
 40
9.0
 40
9.0
 10
-33.34488391931659
 20
-1.280919904944554
 30
0.0
 10
-35.81152992452102
 20
-1.828202838410209
 30
0.0
 10
-36.33378487826545
 20
-3.54465012997844
 30
0.0
 10
-36.09207577942843
 20
-4.962606301827474
 30
0.0
  0
SPLINE
  5
C9
330
74
100
AcDbEntity
  8
0
100
AcDbSpline
210
0.0
220
0.0
230
1.0
 70
     8
 71
     3
 72
     8
 73
     4
 74
     0
 42
0.00000001
 43
0.00000001
 40
9.0
 40
9.0
 40
9.0
 40
9.0
 40
10.0
 40
10.0
 40
10.0
 40
10.0
 10
-36.09207577942843
 20
-4.962606301827474
 30
0.0
 10
-35.83736690020325
 20
-6.457652824126185
 30
0.0
 10
-34.96800490008025
 20
-7.196828812263726
 30
0.0
 10
-33.99931718292642
 20
-7.502708028683521
 30
0.0
  0
SPLINE
  5
CA
330
74
100
AcDbEntity
  8
0
100
AcDbSpline
210
0.0
220
0.0
230
1.0
 70
     8
 71
     3
 72
     8
 73
     4
 74
     0
 42
0.00000001
 43
0.00000001
 40
10.0
 40
10.0
 40
10.0
 40
10.0
 40
11.0
 40
11.0
 40
11.0
 40
11.0
 10
-33.99931718292642
 20
-7.502708028683521
 30
0.0
 10
-33.40907414696034
 20
-7.689011641945549
 30
0.0
 10
-32.48616403135102
 20
-7.975318844696811
 30
0.0
 10
-31.47547483016511
 20
-8.271505052332133
 30
0.0
  0
SPLINE
  5
CB
330
74
100
AcDbEntity
  8
0
100
AcDbSpline
210
0.0
220
0.0
230
1.0
 70
     8
 71
     3
 72
     8
 73
     4
 74
     0
 42
0.00000001
 43
0.00000001
 40
11.0
 40
11.0
 40
11.0
 40
11.0
 40
12.0
 40
12.0
 40
12.0
 40
12.0
 10
-31.47547483016511
 20
-8.271505052332133
 30
0.0
 10
-31.11213516930565
 20
-8.377980375833697
 30
0.0
 10
-30.40258052645035
 20
-8.55729511966404
 30
0.0
 10
-30.28870163819746
 20
-9.336631754491275
 30
0.0
  0
SPLINE
  5
CC
330
74
100
AcDbEntity
  8
0
100
AcDbSpline
210
0.0
220
0.0
230
1.0
 70
     8
 71
     3
 72
     8
 73
     4
 74
     0
 42
0.00000001
 43
0.00000001
 40
12.0
 40
12.0
 40
12.0
 40
12.0
 40
13.0
 40
13.0
 40
13.0
 40
13.0
 10
-30.28870163819746
 20
-9.336631754491275
 30
0.0
 10
-30.1883718252622
 20
-10.02498578462436
 30
0.0
 10
-30.64014408852681
 20
-10.43662327702193
 30
0.0
 10
-31.32890793487913
 20
-10.58563999188937
 30
0.0
  0
SPLINE
  5
CD
330
74
100
AcDbEntity
  8
0
100
AcDbSpline
210
0.0
220
0.0
230
1.0
 70
     8
 71
     3
 72
     8
 73
     4
 74
     0
 42
0.00000001
 43
0.00000001
 40
14.0
 40
14.0
 40
14.0
 40
14.0
 40
15.0
 40
15.0
 40
15.0
 40
15.0
 10
-31.46505813246006
 20
-10.61509661229636
 30
0.0
 10
-32.05208024758041
 20
-10.74210111117219
 30
0.0
 10
-32.71260096537058
 20
-10.55064660173623
 30
0.0
 10
-32.8822392924921
 20
-9.937760156430087
 30
0.0
  0
SPLINE
  5
CE
330
74
100
AcDbEntity
  8
0
100
AcDbSpline
210
0.0
220
0.0
230
1.0
 70
     8
 71
     3
 72
     8
 73
     4
 74
     0
 42
0.00000001
 43
0.00000001
 40
16.0
 40
16.0
 40
16.0
 40
16.0
 40
17.0
 40
17.0
 40
17.0
 40
17.0
 10
-35.1888692338865
 20
-10.43680844141459
 30
0.0
 10
-34.81471685749703
 20
-11.8843133271045
 30
0.0
 10
-33.72975075395794
 20
-12.95131992706823
 30
0.0
 10
-31.59496833044066
 20
-12.72957879515504
 30
0.0
  0
SPLINE
  5
CF
330
74
100
AcDbEntity
  8
0
100
AcDbSpline
210
0.0
220
0.0
230
1.0
 70
     8
 71
     3
 72
     8
 73
     4
 74
     0
 42
0.00000001
 43
0.00000001
 40
18.0
 40
18.0
 40
18.0
 40
18.0
 40
19.0
 40
19.0
 40
19.0
 40
19.0
 10
-30.20639204762402
 20
-12.42915496033268
 30
0.0
 10
-28.36320980349184
 20
-11.79454394754582
 30
0.0
 10
-27.78707037380765
 20
-10.41512978795686
 30
0.0
 10
-27.91988511866083
 20
-9.073464993912006
 30
0.0
  0
SPLINE
  5
D0
330
74
100
AcDbEntity
  8
0
100
AcDbSpline
210
0.0
220
0.0
230
1.0
 70
     8
 71
     3
 72
     8
 73
     4
 74
     0
 42
0.00000001
 43
0.00000001
 40
19.0
 40
19.0
 40
19.0
 40
19.0
 40
20.0
 40
20.0
 40
20.0
 40
20.0
 10
-27.91988511866083
 20
-9.073464993912006
 30
0.0
 10
-28.12563217330358
 20
-6.994152508733083
 30
0.0
 10
-29.51271678483619
 20
-6.50510505043454
 30
0.0
 10
-30.23703582864644
 20
-6.251438951366732
 30
0.0
  0
HATCH
  5
D1
330
74
100
AcDbEntity
  8
0
100
AcDbHatch
 10
0.0
 20
0.0
 30
0.0
210
0.0
220
0.0
230
1.0
  2
SOLID
 70
     1
 71
     0
 91
        1
 92
        0
 93
        7
 72
     1
 10
-53.06293521179145
 20
-11.48017794540906
 11
-53.0628942334185
 21
-11.48036734981106
 72
     1
 10
-53.0628942334185
 20
-11.48036734981106
 11
-50.18135879739363
 21
-10.85693604353014
 72
     1
 10
-50.18135879739363
 20
-10.85693604353014
 11
-47.91273279754322
 21
-7.399227366744369
 72
     1
 10
-47.91273279754322
 20
-7.399227366744369
 11
-51.40738209617635
 21
-5.188811056417426
 72
     1
 10
-51.40738209617635
 20
-5.188811056417426
 11
-54.28910693660305
 21
-5.812283341071309
 72
     1
 10
-54.28910693660305
 20
-5.812283341071309
 11
-50.79453412756107
 21
-8.022804320319173
 72
     1
 10
-50.79453412756107
 20
-8.022804320319173
 11
-53.06293521179145
 21
-11.48017794540906
 97
        0
 75
     0
 76
     1
 98
        1
 10
0.0
 20
0.0
  0
HATCH
  5
D2
330
74
100
AcDbEntity
  8
0
100
AcDbHatch
 10
0.0
 20
0.0
 30
0.0
210
0.0
220
0.0
230
1.0
  2
SOLID
 70
     1
 71
     0
 91
        1
 92
        0
 93
        6
 72
     1
 10
-41.53588964704281
 20
-8.986455445432597
 11
-44.41771445090438
 21
-9.609949357561213
 72
     1
 10
-44.41771445090438
 20
-9.609949357561213
 11
-46.68624347197728
 21
-13.06764806762683
 72
     1
 10
-46.68624347197728
 20
-13.06764806762683
 11
-43.23827248082917
 21
-15.24865255879992
 72
     1
 10
-43.23827248082917
 20
-15.24865255879992
 11
-40.35645293820115
 21
-14.62515978495947
 72
     1
 10
-40.35645293820115
 20
-14.62515978495947
 11
-43.80454139731328
 21
-12.44407055830516
 72
     1
 10
-43.80454139731328
 20
-12.44407055830516
 11
-41.53588964704281
 21
-8.986455445432597
 97
        0
 75
     0
 76
     1
 98
        1
 10
0.0
 20
0.0
  0
HATCH
  5
D3
330
74
100
AcDbEntity
  8
0
100
AcDbHatch
 10
0.0
 20
0.0
 30
0.0
210
0.0
220
0.0
230
1.0
  2
SOLID
 70
     1
 71
     0
 91
        1
 92
        0
 93
       20
 72
     4
 94
        3
 73
     1
 74
     0
 95
        8
 96
        4
 40
18.0
 40
18.0
 40
18.0
 40
18.0
 40
19.0
 40
19.0
 40
19.0
 40
19.0
 10
-30.20639204762402
 20
-12.42915496033267
 42
1.0
 10
-28.36320980349188
 20
-11.79454394754584
 42
1.0
 10
-27.78707037380775
 20
-10.41512978795687
 42
1.0
 10
-27.91988511866085
 20
-9.073464993912015
 42
1.0
 72
     4
 94
        3
 73
     1
 74
     0
 95
        8
 96
        4
 40
19.0
 40
19.0
 40
19.0
 40
19.0
 40
20.0
 40
20.0
 40
20.0
 40
20.0
 10
-27.91988511866085
 20
-9.073464993912015
 42
1.0
 10
-28.1256321733036
 20
-6.994152508733093
 42
1.0
 10
-29.51271678483624
 20
-6.505105050434554
 42
1.0
 10
-30.23703582864647
 20
-6.251438951366739
 42
1.0
 72
     4
 94
        3
 73
     1
 74
     0
 95
        8
 96
        4
 40
0.0
 40
0.0
 40
0.0
 40
0.0
 40
1.0
 40
1.0
 40
1.0
 40
1.0
 10
-30.23703582864647
 20
-6.251438951366739
 42
1.0
 10
-30.91043001867278
 20
-6.015603382360466
 42
1.0
 10
-31.40848551125484
 20
-5.893156856121866
 42
1.0
 10
-32.67210357750633
 20
-5.496689523479784
 42
1.0
 72
     4
 94
        3
 73
     1
 74
     0
 95
        8
 96
        4
 40
1.0
 40
1.0
 40
1.0
 40
1.0
 40
2.0
 40
2.0
 40
2.0
 40
2.0
 10
-32.67210357750633
 20
-5.496689523479784
 42
1.0
 10
-33.03332194555515
 20
-5.383421617718138
 42
1.0
 10
-33.81210282496121
 20
-5.206692347750558
 42
1.0
 10
-33.94849250952591
 20
-4.576291363356954
 42
1.0
 72
     4
 94
        3
 73
     1
 74
     0
 95
        8
 96
        4
 40
2.0
 40
2.0
 40
2.0
 40
2.0
 40
3.0
 40
3.0
 40
3.0
 40
3.0
 10
-33.94849250952591
 20
-4.576291363356954
 42
1.0
 10
-34.11622381965228
 20
-3.801027578894066
 42
1.0
 10
-33.67528356585566
 20
-3.448097454184939
 42
1.0
 10
-32.99335932290605
 20
-3.300560513895483
 42
1.0
 72
     1
 10
-32.99335932290605
 20
-3.300560513895483
 11
-32.85916630414502
 21
-3.271527336675422
 72
     4
 94
        3
 73
     1
 74
     0
 95
        8
 96
        4
 40
4.0
 40
4.0
 40
4.0
 40
4.0
 40
5.0
 40
5.0
 40
5.0
 40
5.0
 10
-32.85916630414502
 20
-3.271527336675422
 42
1.0
 10
-32.27869442459117
 20
-3.145940006530068
 42
1.0
 10
-31.77109773641243
 20
-3.328116480283154
 42
1.0
 10
-31.5697721187044
 20
-3.967820152272114
 42
1.0
 72
     1
 10
-31.5697721187044
 20
-3.967820152272114
 11
-29.29695612428624
 21
-3.476087645143523
 72
     4
 94
        3
 73
     1
 74
     0
 95
        8
 96
        4
 40
6.0
 40
6.0
 40
6.0
 40
6.0
 40
7.0
 40
7.0
 40
7.0
 40
7.0
 10
-29.2969561242863
 20
-3.476087645143538
 42
1.0
 10
-29.6881007197101
 20
-1.866802583842747
 42
1.0
 10
-30.87776107222446
 20
-0.7599478056671519
 42
1.0
 10
-33.27949204955327
 20
-1.266772121690873
 42
1.0
 72
     1
 10
-33.27949204955321
 20
-1.266772121690857
 11
-33.3448839193166
 21
-1.280919904944549
 72
     4
 94
        3
 73
     1
 74
     0
 95
        8
 96
        4
 40
8.0
 40
8.0
 40
8.0
 40
8.0
 40
9.0
 40
9.0
 40
9.0
 40
9.0
 10
-33.34488391931666
 20
-1.280919904944565
 42
1.0
 10
-35.8115299245211
 20
-1.828202838410234
 42
1.0
 10
-36.3337848782655
 20
-3.544650129978449
 42
1.0
 10
-36.09207577942846
 20
-4.962606301827486
 42
1.0
 72
     4
 94
        3
 73
     1
 74
     0
 95
        8
 96
        4
 40
9.0
 40
9.0
 40
9.0
 40
9.0
 40
10.0
 40
10.0
 40
10.0
 40
10.0
 10
-36.09207577942846
 20
-4.962606301827486
 42
1.0
 10
-35.83736690020323
 20
-6.457652824126184
 42
1.0
 10
-34.96800490008029
 20
-7.196828812263736
 42
1.0
 10
-33.99931718292643
 20
-7.502708028683525
 42
1.0
 72
     4
 94
        3
 73
     1
 74
     0
 95
        8
 96
        4
 40
10.0
 40
10.0
 40
10.0
 40
10.0
 40
11.0
 40
11.0
 40
11.0
 40
11.0
 10
-33.99931718292643
 20
-7.502708028683525
 42
1.0
 10
-33.40907414696031
 20
-7.689011641945555
 42
1.0
 10
-32.48616403135106
 20
-7.975318844696822
 42
1.0
 10
-31.47547483016516
 20
-8.27150505233215
 42
1.0
 72
     4
 94
        3
 73
     1
 74
     0
 95
        8
 96
        4
 40
11.0
 40
11.0
 40
11.0
 40
11.0
 40
12.0
 40
12.0
 40
12.0
 40
12.0
 10
-31.47547483016516
 20
-8.27150505233215
 42
1.0
 10
-31.11213516930568
 20
-8.377980375833708
 42
1.0
 10
-30.40258052645039
 20
-8.557295119664056
 42
1.0
 10
-30.28870163819752
 20
-9.336631754491272
 42
1.0
 72
     4
 94
        3
 73
     1
 74
     0
 95
        8
 96
        4
 40
12.0
 40
12.0
 40
12.0
 40
12.0
 40
13.0
 40
13.0
 40
13.0
 40
13.0
 10
-30.28870163819752
 20
-9.336631754491272
 42
1.0
 10
-30.18837182526216
 20
-10.02498578462435
 42
1.0
 10
-30.64014408852681
 20
-10.43662327702195
 42
1.0
 10
-31.32890793487914
 20
-10.58563999188937
 42
1.0
 72
     1
 10
-31.32890793487914
 20
-10.58563999188937
 11
-31.46505813246008
 21
-10.61509661229637
 72
     4
 94
        3
 73
     1
 74
     0
 95
        8
 96
        4
 40
14.0
 40
14.0
 40
14.0
 40
14.0
 40
15.0
 40
15.0
 40
15.0
 40
15.0
 10
-31.46505813246008
 20
-10.61509661229637
 42
1.0
 10
-32.05208024758041
 20
-10.7421011111722
 42
1.0
 10
-32.71260096537064
 20
-10.55064660173623
 42
1.0
 10
-32.88223929249212
 20
-9.937760156430087
 42
1.0
 72
     1
 10
-32.88223929249212
 20
-9.937760156430087
 11
-35.18886923388655
 21
-10.43680844141459
 72
     4
 94
        3
 73
     1
 74
     0
 95
        8
 96
        4
 40
16.0
 40
16.0
 40
16.0
 40
16.0
 40
17.0
 40
17.0
 40
17.0
 40
17.0
 10
-35.18886923388649
 20
-10.43680844141459
 42
1.0
 10
-34.81471685749708
 20
-11.88431332710451
 42
1.0
 10
-33.72975075395801
 20
-12.95131992706824
 42
1.0
 10
-31.59496833044075
 20
-12.72957879515506
 42
1.0
 72
     1
 10
-31.59496833044068
 20
-12.72957879515504
 11
-30.20639204762409
 21
-12.42915496033269
 97
        0
 75
     0
 76
     1
 98
        1
 10
0.0
 20
0.0
  0
HATCH
  5
D4
330
74
100
AcDbEntity
  8
0
100
AcDbHatch
 10
0.0
 20
0.0
 30
0.0
210
0.0
220
0.0
230
1.0
  2
SOLID
 70
     1
 71
     0
 91
        1
 92
        0
 93
       11
 72
     1
 10
-23.93083334830058
 20
-6.656177916224847
 11
-23.9305586195879
 21
-1.497666803489873
 72
     1
 10
-23.9305586195879
 20
-1.497666803489873
 11
-20.04326836721582
 21
-10.05945907169815
 72
     1
 10
-20.04326836721582
 20
-10.05945907169815
 11
-17.66870538033285
 21
-9.545713210289948
 72
     1
 10
-17.66870538033285
 20
-9.545713210289948
 11
-22.39983793591613
 21
0.8767293108990284
 72
     1
 10
-22.39983793591613
 20
0.8767293108990277
 11
-26.30586704316552
 21
0.0316448471579831
 72
     1
 10
-26.30586704316552
 20
0.0316448471579831
 11
-26.30567237753049
 21
-11.41435433475813
 72
     1
 10
-26.30567237753049
 20
-11.41435433475813
 11
-23.93111465188077
 21
-10.90060961163804
 72
     1
 10
-23.93111465188077
 20
-10.90060961163804
 11
-23.93099314235586
 21
-8.782594625323274
 72
     1
 10
-23.93099314235586
 20
-8.782594625323274
 11
-22.27383089514867
 21
-8.42406118111162
 72
     1
 10
-22.27383089514867
 20
-8.42406118111162
 11
-22.7133102853523
 21
-6.392762105309743
 72
     1
 10
-22.7133102853523
 20
-6.392762105309743
 11
-23.93083334830058
 21
-6.656177916224847
 97
        0
 75
     0
 76
     1
 98
        1
 10
0.0
 20
0.0
  0
HATCH
  5
D5
330
74
100
AcDbEntity
  8
0
100
AcDbHatch
 10
0.0
 20
0.0
 30
0.0
210
0.0
220
0.0
230
1.0
  2
SOLID
 70
     1
 71
     0
 91
        1
 92
        0
 93
        6
 72
     1
 10
-15.79563263740209
 20
2.305574601061446
 11
-18.06492886668423
 21
1.814603608696526
 72
     4
 94
        3
 73
     1
 74
     0
 95
        8
 96
        4
 40
2.0
 40
2.0
 40
2.0
 40
2.0
 40
3.0
 40
3.0
 40
3.0
 40
3.0
 10
-18.06492886668423
 20
1.814603608696526
 42
1.0
 10
-17.240039650055
 20
-1.995739949107533
 42
1.0
 10
-15.71186186991055
 20
-9.059523950669437
 42
1.0
 10
-15.69887855542098
 20
-9.119533578677919
 42
1.0
 72
     1
 10
-15.69887855542092
 20
-9.119533578677903
 11
-10.22610149671526
 21
-7.93547715235816
 72
     1
 10
-10.22610149671526
 20
-7.93547715235816
 11
-10.66558088691882
 21
-5.904178076556605
 72
     1
 10
-10.66558088691882
 20
-5.904178076556605
 11
-13.86994560355126
 21
-6.597454742918437
 72
     4
 94
        3
 73
     1
 74
     0
 95
        8
 96
        4
 40
0.0
 40
0.0
 40
0.0
 40
0.0
 40
1.0
 40
1.0
 40
1.0
 40
1.0
 10
-13.86994560355126
 20
-6.597454742918437
 42
1.0
 10
-13.88373254946556
 20
-6.533730684138598
 42
1.0
 10
-15.1136551579741
 20
-0.8489574873494129
 42
1.0
 10
-15.79563263740209
 20
2.305574601061446
 42
1.0
 97
        0
 75
     0
 76
     1
 98
        1
 10
0.0
 20
0.0
  0
HATCH
  5
D6
330
74
100
AcDbEntity
  8
0
100
AcDbHatch
 10
0.0
 20
0.0
 30
0.0
210
0.0
220
0.0
230
1.0
  2
SOLID
 70
     1
 71
     0
 91
        1
 92
        0
 93
       11
 72
     1
 10
2.375028433631206
 20
-0.9648032523823513
 11
2.375208460142868
 21
4.193687371166118
 72
     1
 10
2.375208460142868
 20
4.193687371166118
 11
6.262509234981617
 21
-4.368102620465918
 72
     1
 10
6.262509234981617
 20
-4.368102620465917
 11
8.637061699398163
 21
-3.854359035633896
 72
     1
 10
8.637061699398163
 20
-3.854359035633896
 11
3.905939666281055
 21
6.568085762131229
 72
     1
 10
3.905939666281055
 20
6.56808576213123
 11
-0.0000000000001235
 21
5.723020649288631
 72
     1
 10
-0.0000000000001234
 20
5.723020649288631
 11
-0.000000000000185
 21
-5.723020649288538
 72
     1
 10
-0.000000000000185
 20
-5.723020649288538
 11
2.37465768908423
 21
-5.20925429869377
 72
     1
 10
2.37465768908423
 20
-5.20925429869377
 11
2.374784459841949
 21
-3.091238174090979
 72
     1
 10
2.374784459841949
 20
-3.091238174090979
 11
4.031830959914354
 21
-2.732729772218408
 72
     1
 10
4.031830959914354
 20
-2.732729772218408
 11
3.592351569710606
 21
-0.701430696416514
 72
     1
 10
3.592351569710606
 20
-0.7014306964165138
 11
2.375028433631206
 21
-0.9648032523823513
 97
        0
 75
     0
 76
     1
 98
        1
 10
0.0
 20
0.0
  0
HATCH
  5
D7
330
74
100
AcDbEntity
  8
0
100
AcDbHatch
 10
0.0
 20
0.0
 30
0.0
210
0.0
220
0.0
230
1.0
  2
SOLID
 70
     1
 71
     0
 91
        1
 92
        0
 93
        8
 72
     1
 10
-42.14906497721024
 20
-6.152323722221632
 11
-42.76219705242848
 21
-3.318391925879333
 72
     1
 10
-42.76219705242848
 20
-3.318391925879333
 11
-42.76249168149826
 21
-3.318455670015027
 72
     1
 10
-42.76249168149826
 20
-3.318455670015027
 11
-45.03079507887072
 21
-6.775797145163721
 72
     1
 10
-45.03079507887072
 20
-6.775797145163721
 11
-48.52545732888054
 21
-4.565295516814268
 72
     1
 10
-48.52545732888054
 20
-4.565295516814268
 11
-48.52574669671678
 21
-4.565358122661792
 72
     1
 10
-48.52574669671678
 20
-4.565358122661792
 11
-47.91261462149855
 21
-7.39928991900409
 72
     1
 10
-47.91261462149855
 20
-7.39928991900409
 11
-44.41773721666716
 21
-9.60984413289331
 72
     1
 10
-44.41773721666716
 20
-9.60984413289331
 11
-42.14906497721024
 21
-6.152323722221632
 97
        0
 75
     0
 76
     1
 98
        1
 10
0.0
 20
0.0
  0
HATCH
  5
D8
330
74
100
AcDbEntity
  8
0
100
AcDbHatch
 10
0.0
 20
0.0
 30
0.0
210
0.0
220
0.0
230
1.0
  2
SOLID
 70
     1
 71
     0
 91
        1
 92
        0
 93
        8
 72
     1
 10
-46.11999732125613
 20
-15.87212484345383
 11
-46.08139565189786
 21
-15.8637732233933
 72
     1
 10
-46.08139565189786
 20
-15.8637732233933
 11
-46.68636620117444
 21
-13.06756447043367
 72
     1
 10
-46.68636620117444
 20
-13.06756447043367
 11
-50.18135879739361
 21
-10.85693604353009
 72
     1
 10
-50.18135879739361
 20
-10.85693604353009
 11
-52.44976215820033
 21
-14.31429914615315
 72
     1
 10
-52.44976215820033
 20
-14.31429914615315
 11
-51.84475063055083
 21
-17.11069730351469
 72
     1
 10
-51.84475063055083
 20
-17.11069730351469
 11
-51.80633836559459
 21
-17.1023866618271
 72
     1
 10
-51.80633836559459
 20
-17.1023866618271
 11
-49.56818574380249
 21
-13.69105724427409
 72
     1
 10
-49.56818574380249
 20
-13.69105724427409
 11
-46.11999732125613
 21
-15.87212484345383
 97
        0
 75
     0
 76
     1
 98
        1
 10
0.0
 20
0.0
  0
HATCH
  5
D9
330
74
100
AcDbEntity
  8
0
100
AcDbHatch
 10
0.0
 20
0.0
 30
0.0
210
0.0
220
0.0
230
1.0
  2
SOLID
 70
     1
 71
     0
 91
        2
 92
        0
 93
        7
 72
     1
 10
-6.859585567104196
 20
4.238922852960538
 11
-11.00449045380928
 21
3.342156692939393
 72
     1
 10
-11.00449045380928
 20
3.342156692939393
 11
-8.638829473816639
 21
-7.592064727757185
 72
     1
 10
-8.638829473816639
 20
-7.592064727757185
 11
-8.63844014254617
 21
-7.591980494435086
 72
     1
 10
-8.63844014254617
 20
-7.591980494435086
 11
-4.494024550545999
 21
-6.695320195210662
 72
     4
 94
        3
 73
     1
 74
     0
 95
        8
 96
        4
 40
3.0
 40
3.0
 40
3.0
 40
3.0
 40
4.0
 40
4.0
 40
4.0
 40
4.0
 10
-4.494024550545999
 20
-6.695320195210662
 42
1.0
 10
-2.825524345390513
 20
-6.334333740063992
 42
1.0
 10
-1.762658323115034
 20
-4.702068307882374
 42
1.0
 10
-2.120071189640999
 20
-3.049576315093403
 42
1.0
 72
     4
 94
        3
 73
     1
 74
     0
 95
        8
 96
        4
 40
4.0
 40
4.0
 40
4.0
 40
4.0
 40
5.0
 40
5.0
 40
5.0
 40
5.0
 10
-2.120071189640999
 20
-3.049576315093403
 42
1.0
 10
-2.485983017556096
 20
-1.358310753073632
 42
1.0
 10
-2.867352798370483
 20
0.4044023583376265
 42
1.0
 10
-3.190995488197396
 20
1.900704823656681
 42
1.0
 72
     4
 94
        3
 73
     1
 74
     0
 95
        8
 96
        4
 40
5.0
 40
5.0
 40
5.0
 40
5.0
 40
6.0
 40
6.0
 40
6.0
 40
6.0
 10
-3.190995488197396
 20
1.900704823656681
 42
1.0
 10
-3.54857504695031
 20
3.553458157285876
 42
1.0
 10
-5.190901218780231
 20
4.599949148191988
 42
1.0
 10
-6.859585567104196
 20
4.238922852960538
 42
1.0
 97
        0
 92
        0
 93
        6
 72
     4
 94
        3
 73
     1
 74
     0
 95
        8
 96
        4
 40
2.0
 40
2.0
 40
2.0
 40
2.0
 40
3.0
 40
3.0
 40
3.0
 40
3.0
 10
-6.919811195494074
 20
2.099808074263809
 42
1.0
 10
-6.228016878711183
 20
2.249480443098069
 42
1.0
 10
-5.547633595833446
 20
1.815851349115847
 42
1.0
 10
-5.399398884916104
 20
1.130701970100344
 42
1.0
 72
     4
 94
        3
 73
     1
 74
     0
 95
        8
 96
        4
 40
3.0
 40
3.0
 40
3.0
 40
3.0
 40
4.0
 40
4.0
 40
4.0
 40
4.0
 10
-5.399398884916104
 20
1.130701970100344
 42
1.0
 10
-5.107009087764085
 20
-0.2207405274728672
 42
1.0
 10
-4.711497421058354
 20
-2.048334586467611
 42
1.0
 10
-4.449160707297047
 20
-3.260870000165379
 42
1.0
 72
     4
 94
        3
 73
     1
 74
     0
 95
        8
 96
        4
 40
4.0
 40
4.0
 40
4.0
 40
4.0
 40
5.0
 40
5.0
 40
5.0
 40
5.0
 10
-4.449160707297047
 20
-3.260870000165379
 42
1.0
 10
-4.300905507193207
 20
-3.946114081381999
 42
1.0
 10
-4.741570606399121
 20
-4.622385452066122
 42
1.0
 10
-5.433383135791953
 20
-4.771973641166296
 42
1.0
 72
     1
 10
-5.433383135791953
 20
-4.771973641166296
 11
-6.809537646582547
 21
-5.069709977697404
 72
     4
 94
        3
 73
     1
 74
     0
 95
        8
 96
        4
 40
0.0
 40
0.0
 40
0.0
 40
0.0
 40
1.0
 40
1.0
 40
1.0
 40
1.0
 10
-6.809537646582547
 20
-5.069709977697404
 42
1.0
 10
-7.284290309572815
 20
-2.875375801708635
 42
1.0
 10
-7.897830097865885
 20
-0.0390758678013329
 42
1.0
 10
-8.296070930952649
 20
1.80204897196991
 42
1.0
 72
     1
 10
-8.296070930952649
 20
1.80204897196991
 11
-6.919811195494074
 21
2.099808074263809
 97
        0
 75
     0
 76
     1
 98
        1
 10
0.0
 20
0.0
  0
ENDBLK
  5
76
330
74
100
AcDbEntity
  8
0
100
AcDbBlockEnd
  0
ENDSEC
  0
SECTION
  2
ENTITIES
  0
LINE
  5
DA
330
1F
100
AcDbEntity
  8
0
100
AcDbLine
 10
-167.9
 20
465.8670861245
 30
0.0
 11
-167.9
 21
464.8170861245
 31
0.0
  0
LINE
  5
DB
330
1F
100
AcDbEntity
  8
0
100
AcDbLine
 10
-159.7
 20
464.8170861245
 30
0.0
 11
-159.7
 21
465.8670861245
 31
0.0
  0
ARC
  5
DC
330
1F
100
AcDbEntity
  8
0
100
AcDbCircle
 10
-165.9
 20
465.8670861245
 30
0.0
 40
2.0
100
AcDbArc
 50
89.9999999999
 51
180.0
  0
ARC
  5
DD
330
1F
100
AcDbEntity
  8
0
100
AcDbCircle
 10
-161.7
 20
465.8670861245
 30
0.0
 40
2.0
100
AcDbArc
 50
0.0
 51
89.9999999999
  0
LINE
  5
DE
330
1F
100
AcDbEntity
  8
0
100
AcDbLine
 10
-164.325
 20
455.8170861245
 30
0.0
 11
-164.1
 21
455.3170861245
 31
0.0
  0
LINE
  5
DF
330
1F
100
AcDbEntity
  8
0
100
AcDbLine
 10
-163.5
 20
455.3170861245
 30
0.0
 11
-163.275
 21
455.8170861245
 31
0.0
  0
LINE
  5
E0
330
1F
100
AcDbEntity
  8
0
100
AcDbLine
 10
385.5
 20
465.8670861245
 30
0.0
 11
385.5
 21
464.8170861245
 31
0.0
  0
LINE
  5
E1
330
1F
100
AcDbEntity
  8
0
100
AcDbLine
 10
393.7
 20
464.8170861245
 30
0.0
 11
393.7
 21
465.8670861245
 31
0.0
  0
ARC
  5
E2
330
1F
100
AcDbEntity
  8
0
100
AcDbCircle
 10
387.5
 20
465.8670861245
 30
0.0
 40
2.0
100
AcDbArc
 50
90.0
 51
180.0
  0
ARC
  5
E3
330
1F
100
AcDbEntity
  8
0
100
AcDbCircle
 10
391.7
 20
465.8670861245
 30
0.0
 40
2.0
100
AcDbArc
 50
0.0
 51
90.0
  0
LINE
  5
E4
330
1F
100
AcDbEntity
  8
0
100
AcDbLine
 10
389.075
 20
455.8170861245
 30
0.0
 11
389.3
 21
455.3170861245
 31
0.0
  0
LINE
  5
E5
330
1F
100
AcDbEntity
  8
0
100
AcDbLine
 10
389.9
 20
455.3170861245
 30
0.0
 11
390.125
 21
455.8170861245
 31
0.0
  0
LINE
  5
E6
330
1F
100
AcDbEntity
  8
0
100
AcDbLine
 10
360.5
 20
465.8670861245
 30
0.0
 11
360.5
 21
464.8170861245
 31
0.0
  0
LINE
  5
E7
330
1F
100
AcDbEntity
  8
0
100
AcDbLine
 10
368.7
 20
464.8170861245
 30
0.0
 11
368.7
 21
465.8670861245
 31
0.0
  0
ARC
  5
E8
330
1F
100
AcDbEntity
  8
0
100
AcDbCircle
 10
362.5
 20
465.8670861245
 30
0.0
 40
2.0
100
AcDbArc
 50
90.0
 51
180.0
  0
ARC
  5
E9
330
1F
100
AcDbEntity
  8
0
100
AcDbCircle
 10
366.7
 20
465.8670861245
 30
0.0
 40
2.0
100
AcDbArc
 50
0.0
 51
90.0
  0
LINE
  5
EA
330
1F
100
AcDbEntity
  8
0
100
AcDbLine
 10
364.075
 20
455.8170861245
 30
0.0
 11
364.3
 21
455.3170861245
 31
0.0
  0
LINE
  5
EB
330
1F
100
AcDbEntity
  8
0
100
AcDbLine
 10
364.9
 20
455.3170861245
 30
0.0
 11
365.125
 21
455.8170861245
 31
0.0
  0
LINE
  5
EC
330
1F
100
AcDbEntity
  8
0
100
AcDbLine
 10
108.8
 20
465.8670861245
 30
0.0
 11
108.8
 21
464.8170861245
 31
0.0
  0
LINE
  5
ED
330
1F
100
AcDbEntity
  8
0
100
AcDbLine
 10
117.0
 20
464.8170861245
 30
0.0
 11
117.0
 21
465.8670861245
 31
0.0
  0
ARC
  5
EE
330
1F
100
AcDbEntity
  8
0
100
AcDbCircle
 10
110.8
 20
465.8670861245
 30
0.0
 40
2.0
100
AcDbArc
 50
90.0
 51
180.0
  0
ARC
  5
EF
330
1F
100
AcDbEntity
  8
0
100
AcDbCircle
 10
115.0
 20
465.8670861245
 30
0.0
 40
2.0
100
AcDbArc
 50
0.0
 51
90.0
  0
LINE
  5
F0
330
1F
100
AcDbEntity
  8
0
100
AcDbLine
 10
112.375
 20
455.8170861245
 30
0.0
 11
112.6
 21
455.3170861245
 31
0.0
  0
LINE
  5
F1
330
1F
100
AcDbEntity
  8
0
100
AcDbLine
 10
113.2
 20
455.3170861245
 30
0.0
 11
113.425
 21
455.8170861245
 31
0.0
  0
LINE
  5
F2
330
1F
100
AcDbEntity
  8
0
100
AcDbLine
 10
-142.9
 20
465.8670861245
 30
0.0
 11
-142.9
 21
464.8170861245
 31
0.0
  0
LINE
  5
F3
330
1F
100
AcDbEntity
  8
0
100
AcDbLine
 10
-134.7
 20
464.8170861245
 30
0.0
 11
-134.7
 21
465.8670861245
 31
0.0
  0
ARC
  5
F4
330
1F
100
AcDbEntity
  8
0
100
AcDbCircle
 10
-140.9
 20
465.8670861245
 30
0.0
 40
2.0
100
AcDbArc
 50
90.0
 51
180.0
  0
ARC
  5
F5
330
1F
100
AcDbEntity
  8
0
100
AcDbCircle
 10
-136.7
 20
465.8670861245
 30
0.0
 40
2.0
100
AcDbArc
 50
0.0
 51
90.0
  0
LINE
  5
F6
330
1F
100
AcDbEntity
  8
0
100
AcDbLine
 10
-139.325
 20
455.8170861245
 30
0.0
 11
-139.1
 21
455.3170861245
 31
0.0
  0
LINE
  5
F7
330
1F
100
AcDbEntity
  8
0
100
AcDbLine
 10
-138.5
 20
455.3170861245
 30
0.0
 11
-138.275
 21
455.8170861245
 31
0.0
  0
ARC
  5
F8
330
1F
100
AcDbEntity
  8
0
100
AcDbCircle
 10
-165.0
 20
72.6845861245
 30
0.0
 40
8.000000000000014
100
AcDbArc
 50
270.0
 51
305.9798005975
  0
ARC
  5
F9
330
1F
100
AcDbEntity
  8
0
100
AcDbCircle
 10
-165.0
 20
32.6845861245
 30
0.0
 40
8.000000000000007
100
AcDbArc
 50
54.0201994025
 51
90.0
  0
LINE
  5
FA
330
1F
100
AcDbEntity
  8
0
100
AcDbLine
 10
-165.0
 20
64.6845861245
 30
0.0
 11
-167.0
 21
64.6845861245
 31
0.0
  0
LINE
  5
FB
330
1F
100
AcDbEntity
  8
0
100
AcDbLine
 10
-167.0
 20
40.6845861245
 30
0.0
 11
-165.0
 21
40.6845861245
 31
0.0
  0
ARC
  5
FC
330
1F
100
AcDbEntity
  8
0
100
AcDbCircle
 10
-165.0
 20
436.6223861245
 30
0.0
 40
8.00000000000003
100
AcDbArc
 50
270.0
 51
305.9798005975
  0
ARC
  5
FD
330
1F
100
AcDbEntity
  8
0
100
AcDbCircle
 10
-165.0
 20
396.6223861245
 30
0.0
 40
8.0
100
AcDbArc
 50
54.0201994025
 51
90.0
  0
LINE
  5
FE
330
1F
100
AcDbEntity
  8
0
100
AcDbLine
 10
-165.0
 20
428.6223861245
 30
0.0
 11
-167.0
 21
428.6223861245
 31
0.0
  0
LINE
  5
FF
330
1F
100
AcDbEntity
  8
0
100
AcDbLine
 10
-167.0
 20
404.6223861245
 30
0.0
 11
-165.0
 21
404.6223861245
 31
0.0
  0
LINE
  5
100
330
1F
100
AcDbEntity
  8
0
100
AcDbLine
 10
-194.7
 20
-3.7829138755
 30
0.0
 11
-160.3
 21
-3.7829138755
 31
0.0
  0
LINE
  5
101
330
1F
100
AcDbEntity
  8
0
100
AcDbLine
 10
-160.3
 20
12.2170861245
 30
0.0
 11
-194.7
 21
12.2170861245
 31
0.0
  0
LINE
  5
102
330
1F
100
AcDbEntity
  8
0
100
AcDbLine
 10
-153.3
 20
446.5170861245
 30
0.0
 11
-153.6
 21
446.5170861245
 31
0.0
  0
LINE
  5
103
330
1F
100
AcDbEntity
  8
0
100
AcDbLine
 10
-153.6
 20
442.3170861245
 30
0.0
 11
-153.3
 21
442.3170861245
 31
0.0
  0
LINE
  5
104
330
1F
100
AcDbEntity
  8
0
100
AcDbLine
 10
-153.3
 20
176.0237566038
 30
0.0
 11
-153.6
 21
176.0237566038
 31
0.0
  0
LINE
  5
105
330
1F
100
AcDbEntity
  8
0
100
AcDbLine
 10
-153.6
 20
171.8237566038
 30
0.0
 11
-153.3
 21
171.8237566038
 31
0.0
  0
LINE
  5
106
330
1F
100
AcDbEntity
  8
0
100
AcDbLine
 10
-153.3
 20
451.5170861245
 30
0.0
 11
-153.6
 21
451.5170861245
 31
0.0
  0
LINE
  5
107
330
1F
100
AcDbEntity
  8
0
100
AcDbLine
 10
-153.6
 20
447.3170861245
 30
0.0
 11
-153.3
 21
447.3170861245
 31
0.0
  0
LINE
  5
108
330
1F
100
AcDbEntity
  8
0
100
AcDbLine
 10
-153.3
 20
243.6670861245
 30
0.0
 11
-153.6
 21
243.6670861245
 31
0.0
  0
LINE
  5
109
330
1F
100
AcDbEntity
  8
0
100
AcDbLine
 10
-153.6
 20
239.4670861245
 30
0.0
 11
-153.3
 21
239.4670861245
 31
0.0
  0
LINE
  5
10A
330
1F
100
AcDbEntity
  8
0
100
AcDbLine
 10
-153.3
 20
236.8170861245
 30
0.0
 11
-153.6
 21
236.8170861245
 31
0.0
  0
LINE
  5
10B
330
1F
100
AcDbEntity
  8
0
100
AcDbLine
 10
-153.6
 20
232.6170861245
 30
0.0
 11
-153.3
 21
232.6170861245
 31
0.0
  0
LINE
  5
10C
330
1F
100
AcDbEntity
  8
0
100
AcDbLine
 10
-153.6
 20
34.0770918434
 30
0.0
 11
-153.3
 21
34.0770918434
 31
0.0
  0
LINE
  5
10D
330
1F
100
AcDbEntity
  8
0
100
AcDbLine
 10
-153.3
 20
383.8170861245
 30
0.0
 11
-153.6
 21
383.8170861245
 31
0.0
  0
LINE
  5
10E
330
1F
100
AcDbEntity
  8
0
100
AcDbLine
 10
-153.6
 20
379.6170861245
 30
0.0
 11
-153.3
 21
379.6170861245
 31
0.0
  0
LINE
  5
10F
330
1F
100
AcDbEntity
  8
0
100
AcDbLine
 10
-153.3
 20
313.7704213642
 30
0.0
 11
-153.6
 21
313.7704213642
 31
0.0
  0
LINE
  5
110
330
1F
100
AcDbEntity
  8
0
100
AcDbLine
 10
-153.6
 20
309.5704213642
 30
0.0
 11
-153.3
 21
309.5704213642
 31
0.0
  0
LINE
  5
111
330
1F
100
AcDbEntity
  8
0
100
AcDbLine
 10
-153.3
 20
89.8170861245
 30
0.0
 11
-153.6
 21
89.8170861245
 31
0.0
  0
LINE
  5
112
330
1F
100
AcDbEntity
  8
0
100
AcDbLine
 10
-153.6
 20
85.6170861245
 30
0.0
 11
-153.3
 21
85.6170861245
 31
0.0
  0
LINE
  5
113
330
1F
100
AcDbEntity
  8
0
100
AcDbLine
 10
-153.3
 20
40.8170861245
 30
0.0
 11
-153.6
 21
40.8170861245
 31
0.0
  0
LINE
  5
114
330
1F
100
AcDbEntity
  8
0
100
AcDbLine
 10
-153.6
 20
36.6170861245
 30
0.0
 11
-153.3
 21
36.6170861245
 31
0.0
  0
CIRCLE
  5
115
330
1F
100
AcDbEntity
  8
0
100
AcDbCircle
 10
112.9
 20
229.5670861245
 30
0.0
 40
164.9000000000001
  0
LINE
  5
116
330
1F
100
AcDbEntity
  8
0
100
AcDbLine
 10
51.0689344309
 20
369.7345861245
 30
0.0
 11
174.7310655691
 21
369.7345861245
 31
0.0
  0
LINE
  5
117
330
1F
100
AcDbEntity
  8
0
100
AcDbLine
 10
-21.5122619757
 20
303.0745861245
 30
0.0
 11
-1.25
 21
303.0745861245
 31
0.0
  0
LINE
  5
118
330
1F
100
AcDbEntity
  8
0
100
AcDbLine
 10
1.65
 20
303.0745861245
 30
0.0
 11
247.3122619757
 21
303.0745861245
 31
0.0
  0
LINE
  5
119
330
1F
100
AcDbEntity
  8
0
100
AcDbLine
 10
238.9940270965
 20
316.5745861245
 30
0.0
 11
1.65
 21
316.5745861245
 31
0.0
  0
LINE
  5
11A
330
1F
100
AcDbEntity
  8
0
100
AcDbLine
 10
-1.25
 20
316.5745861245
 30
0.0
 11
-13.1940270965
 21
316.5745861245
 31
0.0
  0
LINE
  5
11B
330
1F
100
AcDbEntity
  8
0
100
AcDbLine
 10
-28.1406805479
 20
169.7545861245
 30
0.0
 11
-1.25
 21
169.7545861245
 31
0.0
  0
LINE
  5
11C
330
1F
100
AcDbEntity
  8
0
100
AcDbLine
 10
1.65
 20
169.7545861245
 30
0.0
 11
253.9406805479
 21
169.7545861245
 31
0.0
  0
LINE
  5
11D
330
1F
100
AcDbEntity
  8
0
100
AcDbLine
 10
258.9313701552
 20
183.2545861245
 30
0.0
 11
1.65
 21
183.2545861245
 31
0.0
  0
LINE
  5
11E
330
1F
100
AcDbEntity
  8
0
100
AcDbLine
 10
-1.25
 20
183.2545861245
 30
0.0
 11
-28.55
 21
183.2545861245
 31
0.0
  0
LINE
  5
11F
330
1F
100
AcDbEntity
  8
0
100
AcDbLine
 10
-31.45
 20
183.2545861245
 30
0.0
 11
-33.1313701552
 21
183.2545861245
 31
0.0
  0
LINE
  5
120
330
1F
100
AcDbEntity
  8
0
100
AcDbLine
 10
26.4435631696
 20
103.0945861245
 30
0.0
 11
199.3564368304
 21
103.0945861245
 31
0.0
  0
LINE
  5
121
330
1F
100
AcDbEntity
  8
0
100
AcDbLine
 10
216.3757119783
 20
116.5945861245
 30
0.0
 11
9.4242880217
 21
116.5945861245
 31
0.0
  0
LINE
  5
122
330
1F
100
AcDbEntity
  8
0
100
AcDbLine
 10
-40.1461383682
 20
236.4145861245
 30
0.0
 11
-31.45
 21
236.4145861245
 31
0.0
  0
LINE
  5
123
330
1F
100
AcDbEntity
  8
0
100
AcDbLine
 10
-28.55
 20
236.4145861245
 30
0.0
 11
-1.25
 21
236.4145861245
 31
0.0
  0
LINE
  5
124
330
1F
100
AcDbEntity
  8
0
100
AcDbLine
 10
1.65
 20
236.4145861245
 30
0.0
 11
265.9461383682
 21
236.4145861245
 31
0.0
  0
LINE
  5
125
330
1F
100
AcDbEntity
  8
0
100
AcDbLine
 10
264.7419835533
 20
249.9145861245
 30
0.0
 11
1.65
 21
249.9145861245
 31
0.0
  0
LINE
  5
126
330
1F
100
AcDbEntity
  8
0
100
AcDbLine
 10
-1.25
 20
249.9145861245
 30
0.0
 11
-28.55
 21
249.9145861245
 31
0.0
  0
LINE
  5
127
330
1F
100
AcDbEntity
  8
0
100
AcDbLine
 10
-31.45
 20
249.9145861245
 30
0.0
 11
-38.9419835533
 21
249.9145861245
 31
0.0
  0
ARC
  5
128
330
1F
100
AcDbEntity
  8
0
100
AcDbCircle
 10
-205.9
 20
404.1223861245
 30
0.0
 40
1.400000000000091
100
AcDbArc
 50
180.0
 51
270.0
  0
ARC
  5
129
330
1F
100
AcDbEntity
  8
0
100
AcDbCircle
 10
-205.9
 20
429.1223861245
 30
0.0
 40
1.400000000000034
100
AcDbArc
 50
90.0
 51
180.0
  0
LINE
  5
12A
330
1F
100
AcDbEntity
  8
0
100
AcDbLine
 10
-205.9
 20
402.7223861245
 30
0.0
 11
-197.7
 21
402.7223861245
 31
0.0
  0
LINE
  5
12B
330
1F
100
AcDbEntity
  8
0
100
AcDbLine
 10
-197.7
 20
430.5223861245
 30
0.0
 11
-205.9
 21
430.5223861245
 31
0.0
  0
ARC
  5
12C
330
1F
100
AcDbEntity
  8
0
100
AcDbCircle
 10
-205.9
 20
40.1845861245
 30
0.0
 40
1.400000000000034
100
AcDbArc
 50
180.0
 51
270.0
  0
ARC
  5
12D
330
1F
100
AcDbEntity
  8
0
100
AcDbCircle
 10
-205.9
 20
65.1845861245
 30
0.0
 40
1.40000000000002
100
AcDbArc
 50
90.0
 51
180.0
  0
LINE
  5
12E
330
1F
100
AcDbEntity
  8
0
100
AcDbLine
 10
-205.9
 20
38.7845861245
 30
0.0
 11
-197.7
 21
38.7845861245
 31
0.0
  0
LINE
  5
12F
330
1F
100
AcDbEntity
  8
0
100
AcDbLine
 10
-197.7
 20
66.5845861245
 30
0.0
 11
-205.9
 21
66.5845861245
 31
0.0
  0
LINE
  5
130
330
1F
100
AcDbEntity
  8
0
100
AcDbLine
 10
-197.3
 20
431.6223861245
 30
0.0
 11
-197.7
 21
431.6223861245
 31
0.0
  0
LINE
  5
131
330
1F
100
AcDbEntity
  8
0
100
AcDbLine
 10
-197.7
 20
401.6223861245
 30
0.0
 11
-197.3
 21
401.6223861245
 31
0.0
  0
LINE
  5
132
330
1F
100
AcDbEntity
  8
0
100
AcDbLine
 10
-197.3
 20
67.6845861245
 30
0.0
 11
-197.7
 21
67.6845861245
 31
0.0
  0
LINE
  5
133
330
1F
100
AcDbEntity
  8
0
100
AcDbLine
 10
-197.7
 20
37.6845861245
 30
0.0
 11
-197.3
 21
37.6845861245
 31
0.0
  0
LINE
  5
134
330
1F
100
AcDbEntity
  8
0
100
AcDbLine
 10
-189.6
 20
66.1345861245
 30
0.0
 11
-197.3
 21
66.1345861245
 31
0.0
  0
LINE
  5
135
330
1F
100
AcDbEntity
  8
0
100
AcDbLine
 10
-197.3
 20
39.2345861245
 30
0.0
 11
-189.6
 21
39.2345861245
 31
0.0
  0
LINE
  5
136
330
1F
100
AcDbEntity
  8
0
100
AcDbLine
 10
-184.2
 20
39.9345861245
 30
0.0
 11
-176.7
 21
39.9345861245
 31
0.0
  0
LINE
  5
137
330
1F
100
AcDbEntity
  8
0
100
AcDbLine
 10
-176.7
 20
65.4345861245
 30
0.0
 11
-184.2
 21
65.4345861245
 31
0.0
  0
LINE
  5
138
330
1F
100
AcDbEntity
  8
0
100
AcDbLine
 10
-176.7
 20
39.9345861245
 30
0.0
 11
-175.95
 21
40.6845861245
 31
0.0
  0
LINE
  5
139
330
1F
100
AcDbEntity
  8
0
100
AcDbLine
 10
-175.95
 20
64.6845861245
 30
0.0
 11
-176.7
 21
65.4345861245
 31
0.0
  0
LINE
  5
13A
330
1F
100
AcDbEntity
  8
0
100
AcDbLine
 10
-189.6
 20
430.0723861245
 30
0.0
 11
-197.3
 21
430.0723861245
 31
0.0
  0
LINE
  5
13B
330
1F
100
AcDbEntity
  8
0
100
AcDbLine
 10
-197.3
 20
403.1723861245
 30
0.0
 11
-189.6
 21
403.1723861245
 31
0.0
  0
LINE
  5
13C
330
1F
100
AcDbEntity
  8
0
100
AcDbLine
 10
-184.2
 20
403.8723861245
 30
0.0
 11
-176.7
 21
403.8723861245
 31
0.0
  0
LINE
  5
13D
330
1F
100
AcDbEntity
  8
0
100
AcDbLine
 10
-176.7
 20
429.3723861245
 30
0.0
 11
-184.2
 21
429.3723861245
 31
0.0
  0
LINE
  5
13E
330
1F
100
AcDbEntity
  8
0
100
AcDbLine
 10
-176.7
 20
403.8723861245
 30
0.0
 11
-175.95
 21
404.6223861245
 31
0.0
  0
LINE
  5
13F
330
1F
100
AcDbEntity
  8
0
100
AcDbLine
 10
-175.95
 20
428.6223861245
 30
0.0
 11
-176.7
 21
429.3723861245
 31
0.0
  0
LINE
  5
140
330
1F
100
AcDbEntity
  8
0
100
AcDbLine
 10
-153.3
 20
427.6223861245
 30
0.0
 11
-153.6
 21
427.6223861245
 31
0.0
  0
LINE
  5
141
330
1F
100
AcDbEntity
  8
0
100
AcDbLine
 10
-167.0
 20
427.6223861245
 30
0.0
 11
-175.95
 21
427.6223861245
 31
0.0
  0
LINE
  5
142
330
1F
100
AcDbEntity
  8
0
100
AcDbLine
 10
-175.95
 20
405.6223861245
 30
0.0
 11
-167.0
 21
405.6223861245
 31
0.0
  0
LINE
  5
143
330
1F
100
AcDbEntity
  8
0
100
AcDbLine
 10
-153.6
 20
405.6223861245
 30
0.0
 11
-153.3
 21
405.6223861245
 31
0.0
  0
LINE
  5
144
330
1F
100
AcDbEntity
  8
0
100
AcDbLine
 10
-153.3
 20
63.6845861245
 30
0.0
 11
-153.6
 21
63.6845861245
 31
0.0
  0
LINE
  5
145
330
1F
100
AcDbEntity
  8
0
100
AcDbLine
 10
-167.0
 20
63.6845861245
 30
0.0
 11
-175.95
 21
63.6845861245
 31
0.0
  0
LINE
  5
146
330
1F
100
AcDbEntity
  8
0
100
AcDbLine
 10
-175.95
 20
41.6845861245
 30
0.0
 11
-167.0
 21
41.6845861245
 31
0.0
  0
LINE
  5
147
330
1F
100
AcDbEntity
  8
0
100
AcDbLine
 10
-153.6
 20
41.6845861245
 30
0.0
 11
-153.3
 21
41.6845861245
 31
0.0
  0
LINE
  5
148
330
1F
100
AcDbEntity
  8
0
100
AcDbLine
 10
3.1012872576
 20
336.4045861223
 30
0.0
 11
222.6987127424
 21
336.4045861223
 31
0.0
  0
LINE
  5
149
330
1F
100
AcDbEntity
  8
0
100
AcDbLine
 10
207.7097823009
 20
349.9045861223
 30
0.0
 11
18.0902176991
 21
349.9045861223
 31
0.0
  0
LINE
  5
14A
330
1F
100
AcDbEntity
  8
0
100
AcDbLine
 10
22.2515514782
 20
353.0695861245
 30
0.0
 11
203.5484485218
 21
353.0695861245
 31
0.0
  0
LINE
  5
14B
330
1F
100
AcDbEntity
  8
0
100
AcDbLine
 10
181.4589069298
 20
366.5695861245
 30
0.0
 11
44.3410930702
 21
366.5695861245
 31
0.0
  0
LINE
  5
14C
330
1F
100
AcDbEntity
  8
0
100
AcDbLine
 10
-10.950429833
 20
319.7395861223
 30
0.0
 11
-1.25
 21
319.7395861223
 31
0.0
  0
LINE
  5
14D
330
1F
100
AcDbEntity
  8
0
100
AcDbLine
 10
1.65
 20
319.7395861223
 30
0.0
 11
236.750429833
 21
319.7395861223
 31
0.0
  0
LINE
  5
14E
330
1F
100
AcDbEntity
  8
0
100
AcDbLine
 10
225.6919388515
 20
333.2395861223
 30
0.0
 11
1.65
 21
333.2395861223
 31
0.0
  0
LINE
  5
14F
330
1F
100
AcDbEntity
  8
0
100
AcDbLine
 10
-38.4841836835
 20
253.0795861223
 30
0.0
 11
-31.45
 21
253.0795861223
 31
0.0
  0
LINE
  5
150
330
1F
100
AcDbEntity
  8
0
100
AcDbLine
 10
-28.55
 20
253.0795861223
 30
0.0
 11
-1.25
 21
253.0795861223
 31
0.0
  0
LINE
  5
151
330
1F
100
AcDbEntity
  8
0
100
AcDbLine
 10
1.65
 20
253.0795861223
 30
0.0
 11
264.2841836835
 21
253.0795861223
 31
0.0
  0
LINE
  5
152
330
1F
100
AcDbEntity
  8
0
100
AcDbLine
 10
261.5609685478
 20
266.5795861223
 30
0.0
 11
1.65
 21
266.5795861223
 31
0.0
  0
LINE
  5
153
330
1F
100
AcDbEntity
  8
0
100
AcDbLine
 10
-1.25
 20
266.5795861223
 30
0.0
 11
-28.55
 21
266.5795861223
 31
0.0
  0
LINE
  5
154
330
1F
100
AcDbEntity
  8
0
100
AcDbLine
 10
-31.45
 20
266.5795861223
 30
0.0
 11
-35.7609685478
 21
266.5795861223
 31
0.0
  0
LINE
  5
155
330
1F
100
AcDbEntity
  8
0
100
AcDbLine
 10
6.0715315615
 20
119.7595861223
 30
0.0
 11
219.7284684385
 21
119.7595861223
 31
0.0
  0
LINE
  5
156
330
1F
100
AcDbEntity
  8
0
100
AcDbLine
 10
232.0422434277
 20
133.2595861223
 30
0.0
 11
1.65
 21
133.2595861223
 31
0.0
  0
LINE
  5
157
330
1F
100
AcDbEntity
  8
0
100
AcDbLine
 10
-1.25
 20
133.2595861223
 30
0.0
 11
-6.2422434277
 21
133.2595861223
 31
0.0
  0
LINE
  5
158
330
1F
100
AcDbEntity
  8
0
100
AcDbLine
 10
-37.9929617955
 20
203.0845861245
 30
0.0
 11
-31.45
 21
203.0845861245
 31
0.0
  0
LINE
  5
159
330
1F
100
AcDbEntity
  8
0
100
AcDbLine
 10
-28.55
 20
203.0845861245
 30
0.0
 11
-1.25
 21
203.0845861245
 31
0.0
  0
LINE
  5
15A
330
1F
100
AcDbEntity
  8
0
100
AcDbLine
 10
1.65
 20
203.0845861245
 30
0.0
 11
263.7929617955
 21
203.0845861245
 31
0.0
  0
LINE
  5
15B
330
1F
100
AcDbEntity
  8
0
100
AcDbLine
 10
265.5481687391
 20
216.5845861245
 30
0.0
 11
1.65
 21
216.5845861245
 31
0.0
  0
LINE
  5
15C
330
1F
100
AcDbEntity
  8
0
100
AcDbLine
 10
-1.25
 20
216.5845861245
 30
0.0
 11
-28.55
 21
216.5845861245
 31
0.0
  0
LINE
  5
15D
330
1F
100
AcDbEntity
  8
0
100
AcDbLine
 10
-31.45
 20
216.5845861245
 30
0.0
 11
-39.7481687391
 21
216.5845861245
 31
0.0
  0
LINE
  5
15E
330
1F
100
AcDbEntity
  8
0
100
AcDbLine
 10
-39.984353089
 20
219.7495861268
 30
0.0
 11
-31.45
 21
219.7495861268
 31
0.0
  0
LINE
  5
15F
330
1F
100
AcDbEntity
  8
0
100
AcDbLine
 10
-28.55
 20
219.7495861268
 30
0.0
 11
-1.25
 21
219.7495861268
 31
0.0
  0
LINE
  5
160
330
1F
100
AcDbEntity
  8
0
100
AcDbLine
 10
1.65
 20
219.7495861268
 30
0.0
 11
265.784353089
 21
219.7495861268
 31
0.0
  0
LINE
  5
161
330
1F
100
AcDbEntity
  8
0
100
AcDbLine
 10
266.0549800672
 20
233.2495861268
 30
0.0
 11
1.65
 21
233.2495861268
 31
0.0
  0
LINE
  5
162
330
1F
100
AcDbEntity
  8
0
100
AcDbLine
 10
-1.25
 20
233.2495861268
 30
0.0
 11
-28.55
 21
233.2495861268
 31
0.0
  0
LINE
  5
163
330
1F
100
AcDbEntity
  8
0
100
AcDbLine
 10
-31.45
 20
233.2495861268
 30
0.0
 11
-40.2549800672
 21
233.2495861268
 31
0.0
  0
LINE
  5
164
330
1F
100
AcDbEntity
  8
0
100
AcDbLine
 10
-34.0976257265
 20
186.4195861223
 30
0.0
 11
-31.45
 21
186.4195861223
 31
0.0
  0
LINE
  5
165
330
1F
100
AcDbEntity
  8
0
100
AcDbLine
 10
-28.55
 20
186.4195861223
 30
0.0
 11
-1.25
 21
186.4195861223
 31
0.0
  0
LINE
  5
166
330
1F
100
AcDbEntity
  8
0
100
AcDbLine
 10
1.65
 20
186.4195861223
 30
0.0
 11
259.8976257265
 21
186.4195861223
 31
0.0
  0
LINE
  5
167
330
1F
100
AcDbEntity
  8
0
100
AcDbLine
 10
263.2031419142
 20
199.9195861223
 30
0.0
 11
1.65
 21
199.9195861223
 31
0.0
  0
LINE
  5
168
330
1F
100
AcDbEntity
  8
0
100
AcDbLine
 10
-1.25
 20
199.9195861223
 30
0.0
 11
-28.55
 21
199.9195861223
 31
0.0
  0
LINE
  5
169
330
1F
100
AcDbEntity
  8
0
100
AcDbLine
 10
-31.45
 20
199.9195861223
 30
0.0
 11
-37.4031419142
 21
199.9195861223
 31
0.0
  0
LINE
  5
16A
330
1F
100
AcDbEntity
  8
0
100
AcDbLine
 10
158.348731769
 20
83.2645861245
 30
0.0
 11
67.451268231
 21
83.2645861245
 31
0.0
  0
LINE
  5
16B
330
1F
100
AcDbEntity
  8
0
100
AcDbLine
 10
58.2953773014
 20
86.4295861268
 30
0.0
 11
167.5046226986
 21
86.4295861268
 31
0.0
  0
LINE
  5
16C
330
1F
100
AcDbEntity
  8
0
100
AcDbLine
 10
194.5341063526
 20
99.9295861268
 30
0.0
 11
31.2658936474
 21
99.9295861268
 31
0.0
  0
LINE
  5
16D
330
1F
100
AcDbEntity
  8
0
100
AcDbLine
 10
-34.9369954356
 20
269.7445861245
 30
0.0
 11
-31.45
 21
269.7445861245
 31
0.0
  0
LINE
  5
16E
330
1F
100
AcDbEntity
  8
0
100
AcDbLine
 10
-28.55
 20
269.7445861245
 30
0.0
 11
-1.25
 21
269.7445861245
 31
0.0
  0
LINE
  5
16F
330
1F
100
AcDbEntity
  8
0
100
AcDbLine
 10
1.65
 20
269.7445861245
 30
0.0
 11
260.7369954356
 21
269.7445861245
 31
0.0
  0
LINE
  5
170
330
1F
100
AcDbEntity
  8
0
100
AcDbLine
 10
256.3877511128
 20
283.2445861245
 30
0.0
 11
1.65
 21
283.2445861245
 31
0.0
  0
LINE
  5
171
330
1F
100
AcDbEntity
  8
0
100
AcDbLine
 10
-1.25
 20
283.2445861245
 30
0.0
 11
-28.55
 21
283.2445861245
 31
0.0
  0
LINE
  5
172
330
1F
100
AcDbEntity
  8
0
100
AcDbLine
 10
-28.55
 20
286.4095861268
 30
0.0
 11
-1.25
 21
286.4095861268
 31
0.0
  0
LINE
  5
173
330
1F
100
AcDbEntity
  8
0
100
AcDbLine
 10
1.65
 20
286.4095861268
 30
0.0
 11
255.1636247224
 21
286.4095861268
 31
0.0
  0
LINE
  5
174
330
1F
100
AcDbEntity
  8
0
100
AcDbLine
 10
248.9953394466
 20
299.9095861268
 30
0.0
 11
1.65
 21
299.9095861268
 31
0.0
  0
LINE
  5
175
330
1F
100
AcDbEntity
  8
0
100
AcDbLine
 10
-1.25
 20
299.9095861268
 30
0.0
 11
-23.1953394466
 21
299.9095861268
 31
0.0
  0
LINE
  5
176
330
1F
100
AcDbEntity
  8
0
100
AcDbLine
 10
-8.7325754845
 20
136.4245861223
 30
0.0
 11
-1.25
 21
136.4245861223
 31
0.0
  0
LINE
  5
177
330
1F
100
AcDbEntity
  8
0
100
AcDbLine
 10
1.65
 20
136.4245861223
 30
0.0
 11
234.5325754845
 21
136.4245861223
 31
0.0
  0
LINE
  5
178
330
1F
100
AcDbEntity
  8
0
100
AcDbLine
 10
243.7704738245
 20
149.9245861223
 30
0.0
 11
1.65
 21
149.9245861223
 31
0.0
  0
LINE
  5
179
330
1F
100
AcDbEntity
  8
0
100
AcDbLine
 10
-1.25
 20
149.9245861223
 30
0.0
 11
-17.9704738245
 21
149.9245861223
 31
0.0
  0
LINE
  5
17A
330
1F
100
AcDbEntity
  8
0
100
AcDbLine
 10
-19.8448707838
 20
153.0895861245
 30
0.0
 11
-1.25
 21
153.0895861245
 31
0.0
  0
LINE
  5
17B
330
1F
100
AcDbEntity
  8
0
100
AcDbLine
 10
1.65
 20
153.0895861245
 30
0.0
 11
245.6448707838
 21
153.0895861245
 31
0.0
  0
LINE
  5
17C
330
1F
100
AcDbEntity
  8
0
100
AcDbLine
 10
252.5561606927
 20
166.5895861245
 30
0.0
 11
1.65
 21
166.5895861245
 31
0.0
  0
LINE
  5
17D
330
1F
100
AcDbEntity
  8
0
100
AcDbLine
 10
-1.25
 20
166.5895861245
 30
0.0
 11
-26.7561606927
 21
166.5895861245
 31
0.0
  0
LINE
  5
17E
330
1F
100
AcDbEntity
  8
0
100
AcDbLine
 10
-28.55
 20
183.7595861244
 30
0.0
 11
-31.25
 21
183.7595861244
 31
0.0
  0
LINE
  5
17F
330
1F
100
AcDbEntity
  8
0
100
AcDbLine
 10
-31.25
 20
202.5895861244
 30
0.0
 11
-28.55
 21
202.5895861244
 31
0.0
  0
LINE
  5
180
330
1F
100
AcDbEntity
  8
0
100
AcDbLine
 10
-28.55
 20
217.0895861244
 30
0.0
 11
-31.25
 21
217.0895861244
 31
0.0
  0
LINE
  5
181
330
1F
100
AcDbEntity
  8
0
100
AcDbLine
 10
-31.25
 20
235.9195861244
 30
0.0
 11
-28.55
 21
235.9195861244
 31
0.0
  0
LINE
  5
182
330
1F
100
AcDbEntity
  8
0
100
AcDbLine
 10
-28.55
 20
250.4195861244
 30
0.0
 11
-31.25
 21
250.4195861244
 31
0.0
  0
LINE
  5
183
330
1F
100
AcDbEntity
  8
0
100
AcDbLine
 10
-31.25
 20
269.2495861244
 30
0.0
 11
-28.55
 21
269.2495861244
 31
0.0
  0
LINE
  5
184
330
1F
100
AcDbEntity
  8
0
100
AcDbLine
 10
-28.55
 20
283.7495861244
 30
0.0
 11
-30.3978207072
 21
283.7495861244
 31
0.0
  0
LINE
  5
185
330
1F
100
AcDbEntity
  8
0
100
AcDbLine
 10
-31.25
 20
185.9195861244
 30
0.0
 11
-28.55
 21
185.9195861244
 31
0.0
  0
LINE
  5
186
330
1F
100
AcDbEntity
  8
0
100
AcDbLine
 10
-28.55
 20
200.4195861244
 30
0.0
 11
-31.25
 21
200.4195861244
 31
0.0
  0
LINE
  5
187
330
1F
100
AcDbEntity
  8
0
100
AcDbLine
 10
-31.25
 20
219.2495861244
 30
0.0
 11
-28.55
 21
219.2495861244
 31
0.0
  0
LINE
  5
188
330
1F
100
AcDbEntity
  8
0
100
AcDbLine
 10
-28.55
 20
233.7495861244
 30
0.0
 11
-31.25
 21
233.7495861244
 31
0.0
  0
LINE
  5
189
330
1F
100
AcDbEntity
  8
0
100
AcDbLine
 10
-31.25
 20
252.5795861244
 30
0.0
 11
-28.55
 21
252.5795861244
 31
0.0
  0
LINE
  5
18A
330
1F
100
AcDbEntity
  8
0
100
AcDbLine
 10
-28.55
 20
267.0795861244
 30
0.0
 11
-31.25
 21
267.0795861244
 31
0.0
  0
LINE
  5
18B
330
1F
100
AcDbEntity
  8
0
100
AcDbLine
 10
-29.5623859811
 20
285.9095861244
 30
0.0
 11
-28.55
 21
285.9095861244
 31
0.0
  0
LINE
  5
18C
330
1F
100
AcDbEntity
  8
0
100
AcDbLine
 10
-1.05
 20
135.9295861244
 30
0.0
 11
1.65
 21
135.9295861244
 31
0.0
  0
LINE
  5
18D
330
1F
100
AcDbEntity
  8
0
100
AcDbLine
 10
1.65
 20
150.4295861244
 30
0.0
 11
-1.05
 21
150.4295861244
 31
0.0
  0
LINE
  5
18E
330
1F
100
AcDbEntity
  8
0
100
AcDbLine
 10
-1.05
 20
169.2595861244
 30
0.0
 11
1.65
 21
169.2595861244
 31
0.0
  0
LINE
  5
18F
330
1F
100
AcDbEntity
  8
0
100
AcDbLine
 10
1.65
 20
183.7595861244
 30
0.0
 11
-1.05
 21
183.7595861244
 31
0.0
  0
LINE
  5
190
330
1F
100
AcDbEntity
  8
0
100
AcDbLine
 10
-1.05
 20
202.5895861244
 30
0.0
 11
1.65
 21
202.5895861244
 31
0.0
  0
LINE
  5
191
330
1F
100
AcDbEntity
  8
0
100
AcDbLine
 10
1.65
 20
217.0895861244
 30
0.0
 11
-1.05
 21
217.0895861244
 31
0.0
  0
LINE
  5
192
330
1F
100
AcDbEntity
  8
0
100
AcDbLine
 10
-1.05
 20
235.9195861244
 30
0.0
 11
1.65
 21
235.9195861244
 31
0.0
  0
LINE
  5
193
330
1F
100
AcDbEntity
  8
0
100
AcDbLine
 10
1.65
 20
250.4195861244
 30
0.0
 11
-1.05
 21
250.4195861244
 31
0.0
  0
LINE
  5
194
330
1F
100
AcDbEntity
  8
0
100
AcDbLine
 10
-1.05
 20
269.2495861244
 30
0.0
 11
1.65
 21
269.2495861244
 31
0.0
  0
LINE
  5
195
330
1F
100
AcDbEntity
  8
0
100
AcDbLine
 10
1.65
 20
283.7495861244
 30
0.0
 11
-1.05
 21
283.7495861244
 31
0.0
  0
LINE
  5
196
330
1F
100
AcDbEntity
  8
0
100
AcDbLine
 10
-1.05
 20
302.5795861244
 30
0.0
 11
1.65
 21
302.5795861244
 31
0.0
  0
LINE
  5
197
330
1F
100
AcDbEntity
  8
0
100
AcDbLine
 10
1.65
 20
317.0795861244
 30
0.0
 11
-1.05
 21
317.0795861244
 31
0.0
  0
LINE
  5
198
330
1F
100
AcDbEntity
  8
0
100
AcDbLine
 10
1.65
 20
133.7595861244
 30
0.0
 11
-1.05
 21
133.7595861244
 31
0.0
  0
LINE
  5
199
330
1F
100
AcDbEntity
  8
0
100
AcDbLine
 10
-1.05
 20
152.5895861244
 30
0.0
 11
1.65
 21
152.5895861244
 31
0.0
  0
LINE
  5
19A
330
1F
100
AcDbEntity
  8
0
100
AcDbLine
 10
1.65
 20
167.0895861244
 30
0.0
 11
-1.05
 21
167.0895861244
 31
0.0
  0
LINE
  5
19B
330
1F
100
AcDbEntity
  8
0
100
AcDbLine
 10
-1.05
 20
185.9195861244
 30
0.0
 11
1.65
 21
185.9195861244
 31
0.0
  0
LINE
  5
19C
330
1F
100
AcDbEntity
  8
0
100
AcDbLine
 10
1.65
 20
200.4195861244
 30
0.0
 11
-1.05
 21
200.4195861244
 31
0.0
  0
LINE
  5
19D
330
1F
100
AcDbEntity
  8
0
100
AcDbLine
 10
-1.05
 20
219.2495861244
 30
0.0
 11
1.65
 21
219.2495861244
 31
0.0
  0
LINE
  5
19E
330
1F
100
AcDbEntity
  8
0
100
AcDbLine
 10
1.65
 20
233.7495861244
 30
0.0
 11
-1.05
 21
233.7495861244
 31
0.0
  0
LINE
  5
19F
330
1F
100
AcDbEntity
  8
0
100
AcDbLine
 10
-1.05
 20
252.5795861244
 30
0.0
 11
1.65
 21
252.5795861244
 31
0.0
  0
LINE
  5
1A0
330
1F
100
AcDbEntity
  8
0
100
AcDbLine
 10
1.65
 20
267.0795861244
 30
0.0
 11
-1.05
 21
267.0795861244
 31
0.0
  0
LINE
  5
1A1
330
1F
100
AcDbEntity
  8
0
100
AcDbLine
 10
-1.05
 20
285.9095861244
 30
0.0
 11
1.65
 21
285.9095861244
 31
0.0
  0
LINE
  5
1A2
330
1F
100
AcDbEntity
  8
0
100
AcDbLine
 10
1.65
 20
300.4095861244
 30
0.0
 11
-1.05
 21
300.4095861244
 31
0.0
  0
LINE
  5
1A3
330
1F
100
AcDbEntity
  8
0
100
AcDbLine
 10
-1.05
 20
319.2395861244
 30
0.0
 11
1.65
 21
319.2395861244
 31
0.0
  0
LINE
  5
1A4
330
1F
100
AcDbEntity
  8
0
100
AcDbLine
 10
1.65
 20
333.7395861244
 30
0.0
 11
0.5696881094
 21
333.7395861244
 31
0.0
  0
LINE
  5
1A5
330
1F
100
AcDbEntity
  8
0
100
AcDbLine
 10
-160.3
 20
-3.7829138755
 30
0.0
 11
-160.3
 21
-9.7829138755
 31
0.0
  0
LINE
  5
1A6
330
1F
100
AcDbEntity
  8
0
100
AcDbLine
 10
386.1
 20
-3.7829138755
 30
0.0
 11
379.5
 21
-3.7829138755
 31
0.0
  0
LINE
  5
1A7
330
1F
100
AcDbEntity
  8
0
100
AcDbLine
 10
-153.7
 20
-3.7829138755
 30
0.0
 11
-160.3
 21
-3.7829138755
 31
0.0
  0
LINE
  5
1A8
330
1F
100
AcDbEntity
  8
0
100
AcDbLine
 10
386.1
 20
-3.7829138755
 30
0.0
 11
386.1
 21
-9.7829138755
 31
0.0
  0
LINE
  5
1A9
330
1F
100
AcDbEntity
  8
0
100
AcDbLine
 10
386.1
 20
-9.7829138755
 30
0.0
 11
-160.3
 21
-9.7829138755
 31
0.0
  0
LINE
  5
1AA
330
1F
100
AcDbEntity
  8
0
100
AcDbLine
 10
386.1
 20
-3.7829138755
 30
0.0
 11
386.1
 21
455.8170861245
 31
0.0
  0
LINE
  5
1AB
330
1F
100
AcDbEntity
  8
0
100
AcDbLine
 10
386.1
 20
-3.7829138755
 30
0.0
 11
380.1
 21
-3.7829138755
 31
0.0
  0
LINE
  5
1AC
330
1F
100
AcDbEntity
  8
0
100
AcDbLine
 10
-154.3
 20
-3.7829138755
 30
0.0
 11
-160.3
 21
-3.7829138755
 31
0.0
  0
LINE
  5
1AD
330
1F
100
AcDbEntity
  8
0
100
AcDbLine
 10
-160.3
 20
-3.7829138755
 30
0.0
 11
-160.3
 21
455.8170861245
 31
0.0
  0
LINE
  5
1AE
330
1F
100
AcDbEntity
  8
0
100
AcDbLine
 10
-165.9
 20
467.8670861245
 30
0.0
 11
-165.8710113351
 21
467.8670861245
 31
0.0
  0
LINE
  5
1AF
330
1F
100
AcDbEntity
  8
0
100
AcDbLine
 10
-165.8710113351
 20
467.8670861245
 30
0.0
 11
-163.9517233186
 21
467.8670861245
 31
0.0
  0
LINE
  5
1B0
330
1F
100
AcDbEntity
  8
0
100
AcDbLine
 10
-163.9517233186
 20
467.8670861245
 30
0.0
 11
-163.4522758998
 21
467.8670861245
 31
0.0
  0
LINE
  5
1B1
330
1F
100
AcDbEntity
  8
0
100
AcDbLine
 10
-163.4522758998
 20
467.8670861245
 30
0.0
 11
-161.7054881154
 21
467.8670861245
 31
0.0
  0
LINE
  5
1B2
330
1F
100
AcDbEntity
  8
0
100
AcDbLine
 10
-161.7054881154
 20
467.8670861245
 30
0.0
 11
-161.7
 21
467.8670861245
 31
0.0
  0
LINE
  5
1B3
330
1F
100
AcDbEntity
  8
0
100
AcDbLine
 10
-164.0996684513
 20
455.3170861245
 30
0.0
 11
-164.1
 21
455.3170861245
 31
0.0
  0
LINE
  5
1B4
330
1F
100
AcDbEntity
  8
0
100
AcDbLine
 10
-163.5
 20
455.3170861245
 30
0.0
 11
-164.0996684513
 21
455.3170861245
 31
0.0
  0
LINE
  5
1B5
330
1F
100
AcDbEntity
  8
0
100
AcDbLine
 10
387.5
 20
467.8670861245
 30
0.0
 11
388.5985486347
 21
467.8670861245
 31
0.0
  0
LINE
  5
1B6
330
1F
100
AcDbEntity
  8
0
100
AcDbLine
 10
388.5985486347
 20
467.8670861245
 30
0.0
 11
389.0632928459
 21
467.8670861245
 31
0.0
  0
LINE
  5
1B7
330
1F
100
AcDbEntity
  8
0
100
AcDbLine
 10
389.0632928459
 20
467.8670861245
 30
0.0
 11
391.4458318349
 21
467.8670861245
 31
0.0
  0
LINE
  5
1B8
330
1F
100
AcDbEntity
  8
0
100
AcDbLine
 10
391.4458318349
 20
467.8670861245
 30
0.0
 11
391.6302574789
 21
467.8670861245
 31
0.0
  0
LINE
  5
1B9
330
1F
100
AcDbEntity
  8
0
100
AcDbLine
 10
391.6302574789
 20
467.8670861245
 30
0.0
 11
391.7
 21
467.8670861245
 31
0.0
  0
LINE
  5
1BA
330
1F
100
AcDbEntity
  8
0
100
AcDbLine
 10
389.4893446136
 20
455.3170861245
 30
0.0
 11
389.3
 21
455.3170861245
 31
0.0
  0
LINE
  5
1BB
330
1F
100
AcDbEntity
  8
0
100
AcDbLine
 10
389.9
 20
455.3170861245
 30
0.0
 11
389.4893446136
 21
455.3170861245
 31
0.0
  0
LINE
  5
1BC
330
1F
100
AcDbEntity
  8
0
100
AcDbLine
 10
362.5
 20
467.8670861245
 30
0.0
 11
363.5985486347
 21
467.8670861245
 31
0.0
  0
LINE
  5
1BD
330
1F
100
AcDbEntity
  8
0
100
AcDbLine
 10
363.5985486347
 20
467.8670861245
 30
0.0
 11
364.0632928459
 21
467.8670861245
 31
0.0
  0
LINE
  5
1BE
330
1F
100
AcDbEntity
  8
0
100
AcDbLine
 10
364.0632928459
 20
467.8670861245
 30
0.0
 11
366.4458318349
 21
467.8670861245
 31
0.0
  0
LINE
  5
1BF
330
1F
100
AcDbEntity
  8
0
100
AcDbLine
 10
366.4458318349
 20
467.8670861245
 30
0.0
 11
366.6302574789
 21
467.8670861245
 31
0.0
  0
LINE
  5
1C0
330
1F
100
AcDbEntity
  8
0
100
AcDbLine
 10
366.6302574789
 20
467.8670861245
 30
0.0
 11
366.7
 21
467.8670861245
 31
0.0
  0
LINE
  5
1C1
330
1F
100
AcDbEntity
  8
0
100
AcDbLine
 10
364.4893446136
 20
455.3170861245
 30
0.0
 11
364.3
 21
455.3170861245
 31
0.0
  0
LINE
  5
1C2
330
1F
100
AcDbEntity
  8
0
100
AcDbLine
 10
364.9
 20
455.3170861245
 30
0.0
 11
364.4893446136
 21
455.3170861245
 31
0.0
  0
LINE
  5
1C3
330
1F
100
AcDbEntity
  8
0
100
AcDbLine
 10
110.8
 20
467.8670861245
 30
0.0
 11
111.8985486347
 21
467.8670861245
 31
0.0
  0
LINE
  5
1C4
330
1F
100
AcDbEntity
  8
0
100
AcDbLine
 10
111.8985486347
 20
467.8670861245
 30
0.0
 11
112.3632928459
 21
467.8670861245
 31
0.0
  0
LINE
  5
1C5
330
1F
100
AcDbEntity
  8
0
100
AcDbLine
 10
112.3632928459
 20
467.8670861245
 30
0.0
 11
114.7458318349
 21
467.8670861245
 31
0.0
  0
LINE
  5
1C6
330
1F
100
AcDbEntity
  8
0
100
AcDbLine
 10
114.7458318349
 20
467.8670861245
 30
0.0
 11
114.9302574789
 21
467.8670861245
 31
0.0
  0
LINE
  5
1C7
330
1F
100
AcDbEntity
  8
0
100
AcDbLine
 10
114.9302574789
 20
467.8670861245
 30
0.0
 11
115.0
 21
467.8670861245
 31
0.0
  0
LINE
  5
1C8
330
1F
100
AcDbEntity
  8
0
100
AcDbLine
 10
112.7893446136
 20
455.3170861245
 30
0.0
 11
112.6
 21
455.3170861245
 31
0.0
  0
LINE
  5
1C9
330
1F
100
AcDbEntity
  8
0
100
AcDbLine
 10
113.2
 20
455.3170861245
 30
0.0
 11
112.7893446136
 21
455.3170861245
 31
0.0
  0
LINE
  5
1CA
330
1F
100
AcDbEntity
  8
0
100
AcDbLine
 10
-140.9
 20
467.8670861245
 30
0.0
 11
-140.6419845625
 21
467.8670861245
 31
0.0
  0
LINE
  5
1CB
330
1F
100
AcDbEntity
  8
0
100
AcDbLine
 10
-140.6419845625
 20
467.8670861245
 30
0.0
 11
-140.3513602468
 21
467.8670861245
 31
0.0
  0
LINE
  5
1CC
330
1F
100
AcDbEntity
  8
0
100
AcDbLine
 10
-140.3513602468
 20
467.8670861245
 30
0.0
 11
-137.7914897763
 21
467.8670861245
 31
0.0
  0
LINE
  5
1CD
330
1F
100
AcDbEntity
  8
0
100
AcDbLine
 10
-137.7914897763
 20
467.8670861245
 30
0.0
 11
-137.3846267685
 21
467.8670861245
 31
0.0
  0
LINE
  5
1CE
330
1F
100
AcDbEntity
  8
0
100
AcDbLine
 10
-137.3846267685
 20
467.8670861245
 30
0.0
 11
-136.7
 21
467.8670861245
 31
0.0
  0
LINE
  5
1CF
330
1F
100
AcDbEntity
  8
0
100
AcDbLine
 10
-139.0441178047
 20
455.3170861245
 30
0.0
 11
-139.1
 21
455.3170861245
 31
0.0
  0
LINE
  5
1D0
330
1F
100
AcDbEntity
  8
0
100
AcDbLine
 10
-138.5
 20
455.3170861245
 30
0.0
 11
-139.0441178047
 21
455.3170861245
 31
0.0
  0
SPLINE
  5
1D1
330
1F
100
AcDbEntity
  8
0
100
AcDbSpline
210
0.0
220
0.0
230
1.0
 70
     8
 71
     3
 72
    12
 73
     8
 74
     0
 42
0.00000001
 43
0.00000001
 40
0.0
 40
0.0
 40
0.0
 40
0.0
 40
0.2255407622558437
 40
0.4511342019104468
 40
0.6767278442586412
 40
0.9023212728363714
 40
1.0
 40
1.0
 40
1.0
 40
1.0
 10
-169.6585786437632
 20
463.1170861245261
 30
0.0
 10
-169.5940081339898
 20
463.317866650767
 30
0.0
 10
-169.4648520333265
 20
463.7194745976362
 30
0.0
 10
-169.2710793553716
 20
464.2476343137405
 30
0.0
 10
-169.0774140984213
 20
464.6327916204119
 30
0.0
 10
-168.9199778532565
 20
464.799746277396
 30
0.0
 10
-168.8278400271149
 20
464.8130625334953
 30
0.0
 10
-168.8000000000006
 20
464.8170861245261
 30
0.0
  0
LINE
  5
1D2
330
1F
100
AcDbEntity
  8
0
100
AcDbLine
 10
-168.8
 20
464.8170861245
 30
0.0
 11
394.6
 21
464.8170861245
 31
0.0
  0
SPLINE
  5
1D3
330
1F
100
AcDbEntity
  8
0
100
AcDbSpline
210
0.0
220
0.0
230
1.0
 70
     8
 71
     3
 72
    12
 73
     8
 74
     0
 42
0.00000001
 43
0.00000001
 40
0.0
 40
0.0
 40
0.0
 40
0.0
 40
0.225540762255857
 40
0.4511342019104818
 40
0.676727844258712
 40
0.9023212728365007
 40
1.0
 40
1.0
 40
1.0
 40
1.0
 10
394.5999999999995
 20
464.8170861245281
 30
0.0
 10
394.664570509773
 20
464.796328383069
 30
0.0
 10
394.7937266104364
 20
464.7548080519635
 30
0.0
 10
394.9874992883913
 20
464.4321720201596
 30
0.0
 10
395.1811645453416
 20
463.9615492597912
 30
0.0
 10
395.3386007905062
 20
463.4901921634134
 30
0.0
 10
395.430738616648
 20
463.2036627881138
 30
0.0
 10
395.4585786437623
 20
463.1170861245282
 30
0.0
  0
LINE
  5
1D4
330
1F
100
AcDbEntity
  8
0
100
AcDbLine
 10
395.4585786438
 20
463.1170861245
 30
0.0
 11
395.4585786438
 21
455.8170861245
 31
0.0
  0
LINE
  5
1D5
330
1F
100
AcDbEntity
  8
0
100
AcDbLine
 10
-169.6585786438
 20
455.8170861245
 30
0.0
 11
-169.6585786438
 21
463.1170861245
 31
0.0
  0
LINE
  5
1D6
330
1F
100
AcDbEntity
  8
0
100
AcDbLine
 10
395.4585786438
 20
455.8170861245
 30
0.0
 11
-169.6585786438
 21
455.8170861245
 31
0.0
  0
SPLINE
  5
1D7
330
1F
100
AcDbEntity
  8
0
100
AcDbSpline
210
0.0
220
0.0
230
1.0
 70
     8
 71
     3
 72
    12
 73
     8
 74
     0
 42
0.00000001
 43
0.00000001
 40
0.0
 40
0.0
 40
0.0
 40
0.0
 40
0.2255407622558484
 40
0.4511342019104649
 40
0.6767278442586633
 40
0.9023212728364135
 40
1.0
 40
1.0
 40
1.0
 40
1.0
 10
396.2999999999996
 20
463.1170861245281
 30
0.0
 10
396.2792422585404
 20
463.3178666507691
 30
0.0
 10
396.2377219274351
 20
463.7194745976383
 30
0.0
 10
395.915085895631
 20
464.2476343137426
 30
0.0
 10
395.4444631352626
 20
464.6327916204139
 30
0.0
 10
394.9731060388848
 20
464.7997462773981
 30
0.0
 10
394.6865766635852
 20
464.8130625334973
 30
0.0
 10
394.5999999999995
 20
464.8170861245281
 30
0.0
  0
LINE
  5
1D8
330
1F
100
AcDbEntity
  8
0
100
AcDbLine
 10
395.6
 20
463.1170861245
 30
0.0
 11
396.3
 21
463.1170861245
 31
0.0
  0
SPLINE
  5
1D9
330
1F
100
AcDbEntity
  8
0
100
AcDbSpline
210
0.0
220
0.0
230
1.0
 70
     8
 71
     3
 72
    10
 73
     6
 74
     0
 42
0.00000001
 43
0.00000001
 40
0.0
 40
0.0
 40
0.0
 40
0.0
 40
0.3460734631002009
 40
0.7655709923075051
 40
1.0
 40
1.0
 40
1.0
 40
1.0
 10
395.5999999999996
 20
463.1170861245281
 30
0.0
 10
395.5895505261727
 20
463.2218889095105
 30
0.0
 10
395.5664345843289
 20
463.4537297775647
 30
0.0
 10
395.4183339544593
 20
463.7387521821258
 30
0.0
 10
395.2555688535349
 20
463.8547659881517
 30
0.0
 10
395.1972184747942
 20
463.8963562890351
 30
0.0
  0
SPLINE
  5
1DA
330
1F
100
AcDbEntity
  8
0
100
AcDbSpline
210
0.0
220
0.0
230
1.0
 70
     8
 71
     3
 72
    12
 73
     8
 74
     0
 42
0.00000001
 43
0.00000001
 40
0.0
 40
0.0
 40
0.0
 40
0.0
 40
0.2255407622558499
 40
0.4511342019104517
 40
0.6767278442586544
 40
0.9023212728363882
 40
1.0
 40
1.0
 40
1.0
 40
1.0
 10
-168.8000000000005
 20
464.8170861245261
 30
0.0
 10
-169.0007805262415
 20
464.7963283830669
 30
0.0
 10
-169.4023884731106
 20
464.7548080519613
 30
0.0
 10
-169.9305481892149
 20
464.4321720201575
 30
0.0
 10
-170.3157054958864
 20
463.9615492597892
 30
0.0
 10
-170.4826601528704
 20
463.4901921634113
 30
0.0
 10
-170.4959764089697
 20
463.2036627881118
 30
0.0
 10
-170.5000000000005
 20
463.1170861245261
 30
0.0
  0
SPLINE
  5
1DB
330
1F
100
AcDbEntity
  8
0
100
AcDbSpline
210
0.0
220
0.0
230
1.0
 70
     8
 71
     3
 72
    11
 73
     7
 74
     0
 42
0.00000001
 43
0.00000001
 40
0.0
 40
0.0
 40
0.0
 40
0.0
 40
0.0712594150275345
 40
0.4822663997264787
 40
0.8932733497183465
 40
1.0
 40
1.0
 40
1.0
 40
1.0
 10
-169.3875577748173
 20
463.9132133457317
 30
0.0
 10
-169.4071887345661
 20
463.9028949730402
 30
0.0
 10
-169.5400462984058
 20
463.8330627347738
 30
0.0
 10
-169.7016996017469
 20
463.58713496625
 30
0.0
 10
-169.7942345337086
 20
463.3114209012533
 30
0.0
 10
-169.7990146227822
 20
463.1502999275422
 30
0.0
 10
-169.8000000000005
 20
463.1170861245261
 30
0.0
  0
LINE
  5
1DC
330
1F
100
AcDbEntity
  8
0
100
AcDbLine
 10
-169.8
 20
463.1170861245
 30
0.0
 11
-170.5
 21
463.1170861245
 31
0.0
  0
LINE
  5
1DD
330
1F
100
AcDbEntity
  8
0
100
AcDbLine
 10
396.3
 20
455.8170861245
 30
0.0
 11
395.6
 21
455.8170861245
 31
0.0
  0
LINE
  5
1DE
330
1F
100
AcDbEntity
  8
0
100
AcDbLine
 10
395.6
 20
455.8170861245
 30
0.0
 11
395.6
 21
463.1170861245
 31
0.0
  0
LINE
  5
1DF
330
1F
100
AcDbEntity
  8
0
100
AcDbLine
 10
396.3
 20
455.8170861245
 30
0.0
 11
396.3
 21
463.1170861245
 31
0.0
  0
LINE
  5
1E0
330
1F
100
AcDbEntity
  8
0
100
AcDbLine
 10
-169.8
 20
463.1170861245
 30
0.0
 11
-169.8
 21
455.8170861245
 31
0.0
  0
LINE
  5
1E1
330
1F
100
AcDbEntity
  8
0
100
AcDbLine
 10
-170.5
 20
455.8170861245
 30
0.0
 11
-169.8
 21
455.8170861245
 31
0.0
  0
LINE
  5
1E2
330
1F
100
AcDbEntity
  8
0
100
AcDbLine
 10
-170.5
 20
463.1170861245
 30
0.0
 11
-170.5
 21
455.8170861245
 31
0.0
  0
LINE
  5
1E3
330
1F
100
AcDbEntity
  8
0
100
AcDbLine
 10
-167.0
 20
64.6845861245
 30
0.0
 11
-167.0
 21
40.6845861245
 31
0.0
  0
LINE
  5
1E4
330
1F
100
AcDbEntity
  8
0
100
AcDbLine
 10
-167.0
 20
428.6223861245
 30
0.0
 11
-167.0
 21
404.6223861245
 31
0.0
  0
LINE
  5
1E5
330
1F
100
AcDbEntity
  8
0
100
AcDbLine
 10
-194.7
 20
-3.7205378819
 30
0.0
 11
-194.7
 21
-3.7829138755
 31
0.0
  0
LINE
  5
1E6
330
1F
100
AcDbEntity
  8
0
100
AcDbLine
 10
-194.7
 20
12.2170861245
 30
0.0
 11
-194.7
 21
-3.7205378819
 31
0.0
  0
SPLINE
  5
1E7
330
1F
100
AcDbEntity
  8
0
100
AcDbSpline
210
0.0
220
0.0
230
1.0
 70
     8
 71
     3
 72
    11
 73
     7
 74
     0
 42
0.00000001
 43
0.00000001
 40
0.0
 40
0.0
 40
0.0
 40
0.0
 40
0.2450334515710202
 40
0.4998973412927809
 40
0.7547871358978449
 40
1.0
 40
1.0
 40
1.0
 40
1.0
 10
381.2999999999996
 20
-1.982913875468895
 30
0.0
 10
381.2739749582501
 20
-2.214034374599438
 30
0.0
 10
381.2208807823562
 20
-2.685547640616348
 30
0.0
 10
380.8040666249586
 20
-3.286588552408543
 30
0.0
 10
380.2030015518712
 20
-3.703696180248406
 30
0.0
 10
379.7312913373286
 20
-3.756850822522639
 30
0.0
 10
379.4999999999995
 20
-3.782913875468863
 30
0.0
  0
SPLINE
  5
1E8
330
1F
100
AcDbEntity
  8
0
100
AcDbSpline
210
0.0
220
0.0
230
1.0
 70
     8
 71
     3
 72
     9
 73
     5
 74
     0
 42
0.00000001
 43
0.00000001
 40
0.0
 40
0.0
 40
0.0
 40
0.0
 40
0.6406834121123987
 40
0.9999999999999999
 40
0.9999999999999999
 40
0.9999999999999999
 40
0.9999999999999999
 10
380.4999999999995
 20
-1.982913875468895
 30
0.0
 10
380.4810201491231
 20
-2.160266331027783
 30
0.0
 10
380.451395765976
 20
-2.437083948287622
 30
0.0
 10
380.2461362500141
 20
-2.614711421098093
 30
0.0
 10
380.1723831011072
 20
-2.678535918543445
 30
0.0
  0
LINE
  5
1E9
330
1F
100
AcDbEntity
  8
0
100
AcDbLine
 10
381.3
 20
-1.9829138755
 30
0.0
 11
380.5
 21
-1.9829138755
 31
0.0
  0
LINE
  5
1EA
330
1F
100
AcDbEntity
  8
0
100
AcDbLine
 10
-154.7
 20
-1.9829138755
 30
0.0
 11
-155.5
 21
-1.9829138755
 31
0.0
  0
SPLINE
  5
1EB
330
1F
100
AcDbEntity
  8
0
100
AcDbSpline
210
0.0
220
0.0
230
1.0
 70
     8
 71
     3
 72
     9
 73
     5
 74
     0
 42
0.00000001
 43
0.00000001
 40
0.0
 40
0.0
 40
0.0
 40
0.0
 40
0.3238099317691011
 40
1.0
 40
1.0
 40
1.0
 40
1.0
 10
-154.3727823099573
 20
-2.677499817171858
 30
0.0
 10
-154.4403187567844
 20
-2.621578536237124
 30
0.0
 10
-154.6488869327451
 20
-2.448880680340104
 30
0.0
 10
-154.6793805314271
 20
-2.170889052957981
 30
0.0
 10
-154.7000000000003
 20
-1.982913875470782
 30
0.0
  0
SPLINE
  5
1EC
330
1F
100
AcDbEntity
  8
0
100
AcDbSpline
210
0.0
220
0.0
230
1.0
 70
     8
 71
     3
 72
    11
 73
     7
 74
     0
 42
0.00000001
 43
0.00000001
 40
0.0
 40
0.0
 40
0.0
 40
0.0
 40
0.2475522032093845
 40
0.5024226380969103
 40
0.757312600481742
 40
1.0
 40
1.0
 40
1.0
 40
1.0
 10
-153.7000000000003
 20
-3.78291387547075
 30
0.0
 10
-153.9335196547491
 20
-3.756353576699012
 30
0.0
 10
-154.4074623604299
 20
-3.70244779357698
 30
0.0
 10
-155.0089073227452
 20
-3.281730305327468
 30
0.0
 10
-155.4221211991487
 20
-2.681080749016351
 30
0.0
 10
-155.474468319119
 20
-2.211799960288918
 30
0.0
 10
-155.5000000000004
 20
-1.982913875470782
 30
0.0
  0
LINE
  5
1ED
330
1F
100
AcDbEntity
  8
0
100
AcDbLine
 10
-154.6
 20
-1.9829138755
 30
0.0
 11
-154.6
 21
26.2170861245
 31
0.0
  0
LINE
  5
1EE
330
1F
100
AcDbEntity
  8
0
100
AcDbLine
 10
380.4
 20
26.2170861245
 30
0.0
 11
-154.6
 21
26.2170861245
 31
0.0
  0
LINE
  5
1EF
330
1F
100
AcDbEntity
  8
0
100
AcDbLine
 10
380.4
 20
-1.9829138755
 30
0.0
 11
380.4
 21
26.2170861245
 31
0.0
  0
LINE
  5
1F0
330
1F
100
AcDbEntity
  8
0
100
AcDbLine
 10
381.3
 20
26.2170861245
 30
0.0
 11
380.5
 21
26.2170861245
 31
0.0
  0
LINE
  5
1F1
330
1F
100
AcDbEntity
  8
0
100
AcDbLine
 10
381.3
 20
-1.9829138755
 30
0.0
 11
381.3
 21
26.2170861245
 31
0.0
  0
LINE
  5
1F2
330
1F
100
AcDbEntity
  8
0
100
AcDbLine
 10
380.5
 20
-1.9829138755
 30
0.0
 11
380.5
 21
26.2170861245
 31
0.0
  0
SPLINE
  5
1F3
330
1F
100
AcDbEntity
  8
0
100
AcDbSpline
210
0.0
220
0.0
230
1.0
 70
     8
 71
     3
 72
    11
 73
     7
 74
     0
 42
0.00000001
 43
0.00000001
 40
0.0
 40
0.0
 40
0.0
 40
0.0
 40
0.2500000000000045
 40
0.5000000000000107
 40
0.7500000000000168
 40
1.0
 40
1.0
 40
1.0
 40
1.0
 10
-154.6000000000006
 20
-1.982913875470893
 30
0.0
 10
-154.5250000000005
 20
-2.21878055432212
 30
0.0
 10
-154.3750000000004
 20
-2.690513912024628
 30
0.0
 10
-154.1500000000003
 20
-3.285494798799027
 30
0.0
 10
-153.9250000000002
 20
-3.701743382419409
 30
0.0
 10
-153.7750000000002
 20
-3.755857044453748
 30
0.0
 10
-153.7000000000002
 20
-3.782913875470917
 30
0.0
  0
SPLINE
  5
1F4
330
1F
100
AcDbEntity
  8
0
100
AcDbSpline
210
0.0
220
0.0
230
1.0
 70
     8
 71
     3
 72
    11
 73
     7
 74
     0
 42
0.00000001
 43
0.00000001
 40
0.0
 40
0.0
 40
0.0
 40
0.0
 40
0.2500000000000021
 40
0.4999999999999984
 40
0.7499999999999997
 40
1.0
 40
1.0
 40
1.0
 40
1.0
 10
379.4999999999995
 20
-3.782913875468918
 30
0.0
 10
379.5749999999995
 20
-3.755857044451749
 30
0.0
 10
379.7249999999995
 20
-3.701743382417244
 30
0.0
 10
379.9499999999996
 20
-3.285494798797084
 30
0.0
 10
380.1749999999994
 20
-2.690513912022463
 30
0.0
 10
380.3249999999995
 20
-2.218780554320066
 30
0.0
 10
380.3999999999996
 20
-1.982913875468895
 30
0.0
  0
LINE
  5
1F5
330
1F
100
AcDbEntity
  8
0
100
AcDbLine
 10
-153.7
 20
-3.7829138755
 30
0.0
 11
379.5
 21
-3.7829138755
 31
0.0
  0
LINE
  5
1F6
330
1F
100
AcDbEntity
  8
0
100
AcDbLine
 10
-155.5
 20
26.2170861245
 30
0.0
 11
-154.7
 21
26.2170861245
 31
0.0
  0
LINE
  5
1F7
330
1F
100
AcDbEntity
  8
0
100
AcDbLine
 10
-155.5
 20
-1.9829138755
 30
0.0
 11
-155.5
 21
26.2170861245
 31
0.0
  0
LINE
  5
1F8
330
1F
100
AcDbEntity
  8
0
100
AcDbLine
 10
-154.7
 20
-1.9829138755
 30
0.0
 11
-154.7
 21
26.2170861245
 31
0.0
  0
CIRCLE
  5
1F9
330
1F
100
AcDbEntity
  8
0
100
AcDbCircle
 10
112.9
 20
59.5670861245
 30
0.0
 40
3.900000000000015
  0
CIRCLE
  5
1FA
330
1F
100
AcDbEntity
  8
0
100
AcDbCircle
 10
112.9
 20
59.5670861245
 30
0.0
 40
1.099999999999978
  0
CIRCLE
  5
1FB
330
1F
100
AcDbEntity
  8
0
100
AcDbCircle
 10
-34.3243186434
 20
144.5670861245
 30
0.0
 40
3.899999999999995
  0
CIRCLE
  5
1FC
330
1F
100
AcDbEntity
  8
0
100
AcDbCircle
 10
-34.3243186434
 20
144.5670861245
 30
0.0
 40
1.100000000000003
  0
CIRCLE
  5
1FD
330
1F
100
AcDbEntity
  8
0
100
AcDbCircle
 10
112.9
 20
399.5670861245
 30
0.0
 40
3.899999999999985
  0
CIRCLE
  5
1FE
330
1F
100
AcDbEntity
  8
0
100
AcDbCircle
 10
112.9
 20
399.5670861245
 30
0.0
 40
1.099999999999956
  0
CIRCLE
  5
1FF
330
1F
100
AcDbEntity
  8
0
100
AcDbCircle
 10
-34.3243186434
 20
314.5670861245
 30
0.0
 40
3.899999999999962
  0
CIRCLE
  5
200
330
1F
100
AcDbEntity
  8
0
100
AcDbCircle
 10
-34.3243186434
 20
314.5670861245
 30
0.0
 40
1.099999999999998
  0
CIRCLE
  5
201
330
1F
100
AcDbEntity
  8
0
100
AcDbCircle
 10
260.1243186434
 20
314.5670861245
 30
0.0
 40
3.899999999999953
  0
CIRCLE
  5
202
330
1F
100
AcDbEntity
  8
0
100
AcDbCircle
 10
260.1243186434
 20
314.5670861245
 30
0.0
 40
1.100000000000021
  0
CIRCLE
  5
203
330
1F
100
AcDbEntity
  8
0
100
AcDbCircle
 10
32.4138071187
 20
21.2170861245
 30
0.0
 40
1.100000000000001
  0
CIRCLE
  5
204
330
1F
100
AcDbEntity
  8
0
100
AcDbCircle
 10
-128.5585786438
 20
21.2170861245
 30
0.0
 40
1.100000000000002
  0
CIRCLE
  5
205
330
1F
100
AcDbEntity
  8
0
100
AcDbCircle
 10
193.3861928813
 20
21.2170861245
 30
0.0
 40
1.099999999999987
  0
CIRCLE
  5
206
330
1F
100
AcDbEntity
  8
0
100
AcDbCircle
 10
354.3585786438
 20
21.2170861245
 30
0.0
 40
1.099999999999966
  0
CIRCLE
  5
207
330
1F
100
AcDbEntity
  8
0
100
AcDbCircle
 10
260.1243186434
 20
144.5670861245
 30
0.0
 40
3.899999999999974
  0
CIRCLE
  5
208
330
1F
100
AcDbEntity
  8
0
100
AcDbCircle
 10
260.1243186434
 20
144.5670861245
 30
0.0
 40
1.099999999999992
  0
CIRCLE
  5
209
330
1F
100
AcDbEntity
  8
0
100
AcDbCircle
 10
112.9
 20
229.5670861245
 30
0.0
 40
153.2000000000029
  0
CIRCLE
  5
20A
330
1F
100
AcDbEntity
  8
0
100
AcDbCircle
 10
112.9
 20
229.5670861245
 30
0.0
 40
157.5
  0
CIRCLE
  5
20B
330
1F
100
AcDbEntity
  8
0
100
AcDbCircle
 10
112.9
 20
229.5670861245
 30
0.0
 40
153.1992451863354
  0
LINE
  5
20C
330
1F
100
AcDbEntity
  8
0
100
AcDbLine
 10
-207.3
 20
429.1223861245
 30
0.0
 11
-207.3
 21
404.1250891308
 31
0.0
  0
LINE
  5
20D
330
1F
100
AcDbEntity
  8
0
100
AcDbLine
 10
-207.3
 20
65.1845861245
 30
0.0
 11
-207.3
 21
40.1845861245
 31
0.0
  0
LINE
  5
20E
330
1F
100
AcDbEntity
  8
0
100
AcDbLine
 10
-197.3
 20
431.6223861245
 30
0.0
 11
-197.3
 21
401.6223861245
 31
0.0
  0
LINE
  5
20F
330
1F
100
AcDbEntity
  8
0
100
AcDbLine
 10
-197.7
 20
431.6223861245
 30
0.0
 11
-197.7
 21
401.6223861245
 31
0.0
  0
LINE
  5
210
330
1F
100
AcDbEntity
  8
0
100
AcDbLine
 10
-197.3
 20
66.4326246604
 30
0.0
 11
-197.3
 21
37.6845861245
 31
0.0
  0
LINE
  5
211
330
1F
100
AcDbEntity
  8
0
100
AcDbLine
 10
-197.3
 20
67.6845861245
 30
0.0
 11
-197.3
 21
66.4326246604
 31
0.0
  0
LINE
  5
212
330
1F
100
AcDbEntity
  8
0
100
AcDbLine
 10
-197.7
 20
66.4326246604
 30
0.0
 11
-197.7
 21
37.6845861245
 31
0.0
  0
LINE
  5
213
330
1F
100
AcDbEntity
  8
0
100
AcDbLine
 10
-197.7
 20
67.6845861245
 30
0.0
 11
-197.7
 21
66.4326246604
 31
0.0
  0
LINE
  5
214
330
1F
100
AcDbEntity
  8
0
100
AcDbLine
 10
-189.6
 20
44.8903574905
 30
0.0
 11
-184.2
 21
44.8903574905
 31
0.0
  0
LINE
  5
215
330
1F
100
AcDbEntity
  8
0
100
AcDbLine
 10
-189.6
 20
44.8903574905
 30
0.0
 11
-189.6
 21
60.4788147586
 31
0.0
  0
LINE
  5
216
330
1F
100
AcDbEntity
  8
0
100
AcDbLine
 10
-189.6
 20
60.4788147586
 30
0.0
 11
-184.2
 21
60.4788147586
 31
0.0
  0
LINE
  5
217
330
1F
100
AcDbEntity
  8
0
100
AcDbLine
 10
-184.2
 20
44.8903574905
 30
0.0
 11
-184.2
 21
60.4788147586
 31
0.0
  0
LINE
  5
218
330
1F
100
AcDbEntity
  8
0
100
AcDbLine
 10
-189.6
 20
37.0961288564
 30
0.0
 11
-184.2
 21
37.0961288564
 31
0.0
  0
LINE
  5
219
330
1F
100
AcDbEntity
  8
0
100
AcDbLine
 10
-184.2
 20
37.0961288564
 30
0.0
 11
-184.2
 21
44.8903574905
 31
0.0
  0
LINE
  5
21A
330
1F
100
AcDbEntity
  8
0
100
AcDbLine
 10
-189.6
 20
37.0961288564
 30
0.0
 11
-189.6
 21
44.8903574905
 31
0.0
  0
LINE
  5
21B
330
1F
100
AcDbEntity
  8
0
100
AcDbLine
 10
-189.6
 20
68.2730433926
 30
0.0
 11
-184.2
 21
68.2730433926
 31
0.0
  0
LINE
  5
21C
330
1F
100
AcDbEntity
  8
0
100
AcDbLine
 10
-184.2
 20
60.4788147586
 30
0.0
 11
-184.2
 21
68.2730433926
 31
0.0
  0
LINE
  5
21D
330
1F
100
AcDbEntity
  8
0
100
AcDbLine
 10
-189.6
 20
60.4788147586
 30
0.0
 11
-189.6
 21
68.2730433926
 31
0.0
  0
LINE
  5
21E
330
1F
100
AcDbEntity
  8
0
100
AcDbLine
 10
-176.7
 20
52.6845861245
 30
0.0
 11
-176.7
 21
65.4345861245
 31
0.0
  0
LINE
  5
21F
330
1F
100
AcDbEntity
  8
0
100
AcDbLine
 10
-176.7
 20
39.9345861245
 30
0.0
 11
-176.7
 21
52.6845861245
 31
0.0
  0
LINE
  5
220
330
1F
100
AcDbEntity
  8
0
100
AcDbLine
 10
-175.95
 20
52.6845861245
 30
0.0
 11
-175.95
 21
40.6845861245
 31
0.0
  0
LINE
  5
221
330
1F
100
AcDbEntity
  8
0
100
AcDbLine
 10
-175.95
 20
64.6845861245
 30
0.0
 11
-175.95
 21
52.6845861245
 31
0.0
  0
LINE
  5
222
330
1F
100
AcDbEntity
  8
0
100
AcDbLine
 10
-189.6
 20
401.0339288564
 30
0.0
 11
-184.2
 21
401.0339288564
 31
0.0
  0
LINE
  5
223
330
1F
100
AcDbEntity
  8
0
100
AcDbLine
 10
-189.6
 20
401.0339288564
 30
0.0
 11
-189.6
 21
408.8281574905
 31
0.0
  0
LINE
  5
224
330
1F
100
AcDbEntity
  8
0
100
AcDbLine
 10
-189.6
 20
408.8281574905
 30
0.0
 11
-184.2
 21
408.8281574905
 31
0.0
  0
LINE
  5
225
330
1F
100
AcDbEntity
  8
0
100
AcDbLine
 10
-184.2
 20
401.0339288564
 30
0.0
 11
-184.2
 21
408.8281574905
 31
0.0
  0
LINE
  5
226
330
1F
100
AcDbEntity
  8
0
100
AcDbLine
 10
-189.6
 20
424.4166147586
 30
0.0
 11
-184.2
 21
424.4166147586
 31
0.0
  0
LINE
  5
227
330
1F
100
AcDbEntity
  8
0
100
AcDbLine
 10
-184.2
 20
408.8281574905
 30
0.0
 11
-184.2
 21
424.4166147586
 31
0.0
  0
LINE
  5
228
330
1F
100
AcDbEntity
  8
0
100
AcDbLine
 10
-189.6
 20
408.8281574905
 30
0.0
 11
-189.6
 21
424.4166147586
 31
0.0
  0
LINE
  5
229
330
1F
100
AcDbEntity
  8
0
100
AcDbLine
 10
-189.6
 20
432.2108433927
 30
0.0
 11
-184.2
 21
432.2108433927
 31
0.0
  0
LINE
  5
22A
330
1F
100
AcDbEntity
  8
0
100
AcDbLine
 10
-184.2
 20
424.4166147586
 30
0.0
 11
-184.2
 21
432.2108433927
 31
0.0
  0
LINE
  5
22B
330
1F
100
AcDbEntity
  8
0
100
AcDbLine
 10
-189.6
 20
424.4166147586
 30
0.0
 11
-189.6
 21
432.2108433927
 31
0.0
  0
LINE
  5
22C
330
1F
100
AcDbEntity
  8
0
100
AcDbLine
 10
-176.7
 20
403.8723861245
 30
0.0
 11
-176.7
 21
429.3723861245
 31
0.0
  0
LINE
  5
22D
330
1F
100
AcDbEntity
  8
0
100
AcDbLine
 10
-175.95
 20
428.6223861245
 30
0.0
 11
-175.95
 21
404.6223861245
 31
0.0
  0
LINE
  5
22E
330
1F
100
AcDbEntity
  8
0
100
AcDbLine
 10
-31.25
 20
177.6942972496
 30
0.0
 11
-31.25
 21
281.4398749995
 31
0.0
  0
LINE
  5
22F
330
1F
100
AcDbEntity
  8
0
100
AcDbLine
 10
-31.45
 20
178.2534794918
 30
0.0
 11
-31.45
 21
280.8806927573
 31
0.0
  0
LINE
  5
230
330
1F
100
AcDbEntity
  8
0
100
AcDbLine
 10
-28.55
 20
170.7271549553
 30
0.0
 11
-28.55
 21
183.7595861244
 31
0.0
  0
LINE
  5
231
330
1F
100
AcDbEntity
  8
0
100
AcDbLine
 10
-28.55
 20
202.5895861244
 30
0.0
 11
-28.55
 21
217.0895861244
 31
0.0
  0
LINE
  5
232
330
1F
100
AcDbEntity
  8
0
100
AcDbLine
 10
-28.55
 20
235.9195861244
 30
0.0
 11
-28.55
 21
250.4195861244
 31
0.0
  0
LINE
  5
233
330
1F
100
AcDbEntity
  8
0
100
AcDbLine
 10
-28.55
 20
269.2495861244
 30
0.0
 11
-28.55
 21
283.7495861244
 31
0.0
  0
LINE
  5
234
330
1F
100
AcDbEntity
  8
0
100
AcDbLine
 10
-28.55
 20
185.9195861244
 30
0.0
 11
-28.55
 21
200.4195861244
 31
0.0
  0
LINE
  5
235
330
1F
100
AcDbEntity
  8
0
100
AcDbLine
 10
-28.55
 20
219.2495861244
 30
0.0
 11
-28.55
 21
233.7495861244
 31
0.0
  0
LINE
  5
236
330
1F
100
AcDbEntity
  8
0
100
AcDbLine
 10
-28.55
 20
252.5795861244
 30
0.0
 11
-28.55
 21
267.0795861244
 31
0.0
  0
LINE
  5
237
330
1F
100
AcDbEntity
  8
0
100
AcDbLine
 10
-28.55
 20
285.9095861244
 30
0.0
 11
-28.55
 21
288.4070172938
 31
0.0
  0
LINE
  5
238
330
1F
100
AcDbEntity
  8
0
100
AcDbLine
 10
-1.05
 20
127.1688135529
 30
0.0
 11
-1.05
 21
331.9653586962
 31
0.0
  0
LINE
  5
239
330
1F
100
AcDbEntity
  8
0
100
AcDbLine
 10
-1.25
 20
127.3918140394
 30
0.0
 11
-1.25
 21
331.7423582096
 31
0.0
  0
LINE
  5
23A
330
1F
100
AcDbEntity
  8
0
100
AcDbLine
 10
1.65
 20
135.9295861244
 30
0.0
 11
1.65
 21
150.4295861244
 31
0.0
  0
LINE
  5
23B
330
1F
100
AcDbEntity
  8
0
100
AcDbLine
 10
1.65
 20
169.2595861244
 30
0.0
 11
1.65
 21
183.7595861244
 31
0.0
  0
LINE
  5
23C
330
1F
100
AcDbEntity
  8
0
100
AcDbLine
 10
1.65
 20
202.5895861244
 30
0.0
 11
1.65
 21
217.0895861244
 31
0.0
  0
LINE
  5
23D
330
1F
100
AcDbEntity
  8
0
100
AcDbLine
 10
1.65
 20
235.9195861244
 30
0.0
 11
1.65
 21
250.4195861244
 31
0.0
  0
LINE
  5
23E
330
1F
100
AcDbEntity
  8
0
100
AcDbLine
 10
1.65
 20
269.2495861244
 30
0.0
 11
1.65
 21
283.7495861244
 31
0.0
  0
LINE
  5
23F
330
1F
100
AcDbEntity
  8
0
100
AcDbLine
 10
1.65
 20
302.5795861244
 30
0.0
 11
1.65
 21
317.0795861244
 31
0.0
  0
LINE
  5
240
330
1F
100
AcDbEntity
  8
0
100
AcDbLine
 10
1.65
 20
124.2405581271
 30
0.0
 11
1.65
 21
133.7595861244
 31
0.0
  0
LINE
  5
241
330
1F
100
AcDbEntity
  8
0
100
AcDbLine
 10
1.65
 20
152.5895861244
 30
0.0
 11
1.65
 21
167.0895861244
 31
0.0
  0
LINE
  5
242
330
1F
100
AcDbEntity
  8
0
100
AcDbLine
 10
1.65
 20
185.9195861244
 30
0.0
 11
1.65
 21
200.4195861244
 31
0.0
  0
LINE
  5
243
330
1F
100
AcDbEntity
  8
0
100
AcDbLine
 10
1.65
 20
219.2495861244
 30
0.0
 11
1.65
 21
233.7495861244
 31
0.0
  0
LINE
  5
244
330
1F
100
AcDbEntity
  8
0
100
AcDbLine
 10
1.65
 20
252.5795861244
 30
0.0
 11
1.65
 21
267.0795861244
 31
0.0
  0
LINE
  5
245
330
1F
100
AcDbEntity
  8
0
100
AcDbLine
 10
1.65
 20
285.9095861244
 30
0.0
 11
1.65
 21
300.4095861244
 31
0.0
  0
LINE
  5
246
330
1F
100
AcDbEntity
  8
0
100
AcDbLine
 10
1.65
 20
319.2395861244
 30
0.0
 11
1.65
 21
333.7395861244
 31
0.0
  0
LINE
  5
247
330
1F
100
AcDbEntity
  8
0
100
AcDbLine
 10
-153.3
 20
26.2170861245
 30
0.0
 11
-153.3
 21
455.8170861245
 31
0.0
  0
LINE
  5
248
330
1F
100
AcDbEntity
  8
0
100
AcDbLine
 10
380.1
 20
455.8170861245
 30
0.0
 11
380.1
 21
26.2170861245
 31
0.0
  0
LINE
  5
249
330
1F
100
AcDbEntity
  8
0
100
AcDbLine
 10
-153.6
 20
26.2170861245
 30
0.0
 11
-153.6
 21
455.8170861245
 31
0.0
  0
LINE
  5
24A
330
1F
100
AcDbEntity
  8
0
100
AcDbLine
 10
-154.3
 20
26.2170861245
 30
0.0
 11
-154.3
 21
455.8170861245
 31
0.0
  0
LINE
  5
24B
330
1F
100
AcDbEntity
  8
0
  6
PHANTOM
 62
     8
370
    18
100
AcDbLine
 10
-163.6072954944
 20
465.8670861245
 30
0.0
 11
-159.7
 21
465.8670861245
 31
0.0
  0
LINE
  5
24C
330
1F
100
AcDbEntity
  8
0
  6
PHANTOM
 62
     8
370
    18
100
AcDbLine
 10
-167.9
 20
465.8670861245
 30
0.0
 11
-163.6072954944
 21
465.8670861245
 31
0.0
  0
LINE
  5
24D
330
1F
100
AcDbEntity
  8
0
  6
PHANTOM
 62
     8
370
    18
100
AcDbLine
 10
393.4109025318
 20
465.8670861245
 30
0.0
 11
393.7
 21
465.8670861245
 31
0.0
  0
LINE
  5
24E
330
1F
100
AcDbEntity
  8
0
  6
PHANTOM
 62
     8
370
    18
100
AcDbLine
 10
385.5
 20
465.8670861245
 30
0.0
 11
393.4109025318
 21
465.8670861245
 31
0.0
  0
LINE
  5
24F
330
1F
100
AcDbEntity
  8
0
  6
PHANTOM
 62
     8
370
    18
100
AcDbLine
 10
368.4109025318
 20
465.8670861245
 30
0.0
 11
368.7
 21
465.8670861245
 31
0.0
  0
LINE
  5
250
330
1F
100
AcDbEntity
  8
0
  6
PHANTOM
 62
     8
370
    18
100
AcDbLine
 10
360.5
 20
465.8670861245
 30
0.0
 11
368.4109025318
 21
465.8670861245
 31
0.0
  0
LINE
  5
251
330
1F
100
AcDbEntity
  8
0
  6
PHANTOM
 62
     8
370
    18
100
AcDbLine
 10
116.7109025318
 20
465.8670861245
 30
0.0
 11
117.0
 21
465.8670861245
 31
0.0
  0
LINE
  5
252
330
1F
100
AcDbEntity
  8
0
  6
PHANTOM
 62
     8
370
    18
100
AcDbLine
 10
108.8
 20
465.8670861245
 30
0.0
 11
116.7109025318
 21
465.8670861245
 31
0.0
  0
LINE
  5
253
330
1F
100
AcDbEntity
  8
0
  6
PHANTOM
 62
     8
370
    18
100
AcDbLine
 10
-136.4168806112
 20
465.8670861245
 30
0.0
 11
-134.7
 21
465.8670861245
 31
0.0
  0
LINE
  5
254
330
1F
100
AcDbEntity
  8
0
  6
PHANTOM
 62
     8
370
    18
100
AcDbLine
 10
-142.9
 20
465.8670861245
 30
0.0
 11
-136.4168806112
 21
465.8670861245
 31
0.0
  0
LINE
  5
255
330
1F
100
AcDbEntity
  8
0
  6
PHANTOM
 62
     8
370
    18
100
AcDbLine
 10
-169.6585786438
 20
463.1170861245
 30
0.0
 11
395.4585786438
 21
463.1170861245
 31
0.0
  0
LINE
  5
256
330
1F
100
AcDbEntity
  8
0
  6
PHANTOM
 62
     8
370
    18
100
AcDbLine
 10
-165.0
 20
64.6845861245
 30
0.0
 11
-165.0
 21
40.6845861245
 31
0.0
  0
LINE
  5
257
330
1F
100
AcDbEntity
  8
0
  6
PHANTOM
 62
     8
370
    18
100
AcDbLine
 10
-165.0
 20
428.6223861245
 30
0.0
 11
-165.0
 21
404.6223861245
 31
0.0
  0
LINE
  5
258
330
1F
100
AcDbEntity
  8
0
  6
PHANTOM
 62
     8
370
    18
100
AcDbLine
 10
380.4
 20
-1.9829138755
 30
0.0
 11
-154.6
 21
-1.9829138755
 31
0.0
  0
CIRCLE
  5
259
330
1F
100
AcDbEntity
  8
0
  6
PHANTOM
 62
     8
370
    18
100
AcDbCircle
 10
112.9
 20
229.5670861245
 30
0.0
 40
164.4434660676936
  0
CIRCLE
  5
25A
330
1F
100
AcDbEntity
  8
0
  6
PHANTOM
 62
     8
370
    18
100
AcDbCircle
 10
112.9
 20
229.5670861245
 30
0.0
 40
154.4984005204029
  0
CIRCLE
  5
25B
330
1F
100
AcDbEntity
  8
0
  6
PHANTOM
 62
     8
370
    18
100
AcDbCircle
 10
112.9
 20
229.5670861245
 30
0.0
 40
156.197978707398
  0
LINE
  5
25C
330
1F
100
AcDbEntity
  8
0
  6
PHANTOM
 62
     8
370
    18
100
AcDbLine
 10
-205.9
 20
402.7223861245
 30
0.0
 11
-205.9
 21
430.5223861245
 31
0.0
  0
ARC
  5
25D
330
1F
100
AcDbEntity
  8
0
  6
PHANTOM
 62
     8
370
    18
100
AcDbCircle
 10
-205.900151352
 20
404.1252405155
 30
0.0
 40
1.399848656201239
100
AcDbArc
 50
180.0061961738
 51
270.0061948339
  0
LINE
  5
25E
330
1F
100
AcDbEntity
  8
0
  6
PHANTOM
 62
     8
370
    18
100
AcDbLine
 10
-205.9
 20
402.7253918675
 30
0.0
 11
-197.7
 21
402.7253918675
 31
0.0
  0
LINE
  5
25F
330
1F
100
AcDbEntity
  8
0
  6
PHANTOM
 62
     8
370
    18
100
AcDbLine
 10
-205.9
 20
38.7845861245
 30
0.0
 11
-205.9
 21
66.5845861245
 31
0.0
  0
LINE
  5
260
330
1F
100
AcDbEntity
  8
0
  6
PHANTOM
 62
     8
370
    18
100
AcDbLine
 10
-151.6
 20
455.8170861245
 30
0.0
 11
-151.6
 21
26.2170861245
 31
0.0
  0
LINE
  5
261
330
1F
100
AcDbEntity
  8
0
  6
PHANTOM
 62
     8
370
    18
100
AcDbLine
 10
378.4
 20
26.2170861245
 30
0.0
 11
378.4
 21
455.8170861245
 31
0.0
  0
LINE
  5
262
330
1F
100
AcDbEntity
  8
0
100
AcDbLine
 10
-194.7
 20
-354.6440412398
 30
0.0
 11
-170.5
 21
-354.6440412398
 31
0.0
  0
ARC
  5
263
330
1F
100
AcDbEntity
  8
0
100
AcDbCircle
 10
277.3
 20
-458.7233308682
 30
0.0
 40
0.500000000000032
100
AcDbArc
 50
274.9871394293
 51
90.0
  0
ARC
  5
264
330
1F
100
AcDbEntity
  8
0
100
AcDbCircle
 10
-51.5
 20
-458.7233308682
 30
0.0
 40
0.5000000000000289
100
AcDbArc
 50
90.0
 51
265.0128605707
  0
ARC
  5
265
330
1F
100
AcDbEntity
  8
0
100
AcDbCircle
 10
277.3
 20
-462.9233308682
 30
0.0
 40
0.5
100
AcDbArc
 50
274.9871394293
 51
90.0
  0
ARC
  5
266
330
1F
100
AcDbEntity
  8
0
100
AcDbCircle
 10
-51.5
 20
-462.9233308682
 30
0.0
 40
0.5
100
AcDbArc
 50
90.0
 51
265.0128605707
  0
LINE
  5
267
330
1F
100
AcDbEntity
  8
0
100
AcDbLine
 10
-51.5434660677
 20
-459.2214379862
 30
0.0
 11
-43.7282669662
 21
-459.9034117243
 31
0.0
  0
LINE
  5
268
330
1F
100
AcDbEntity
  8
0
100
AcDbLine
 10
269.5282669662
 20
-459.9034117243
 30
0.0
 11
277.3434660677
 21
-459.2214379862
 31
0.0
  0
LINE
  5
269
330
1F
100
AcDbEntity
  8
0
100
AcDbLine
 10
-51.5434660677
 20
-463.4214379862
 30
0.0
 11
-43.7282669662
 21
-464.1034117243
 31
0.0
  0
LINE
  5
26A
330
1F
100
AcDbEntity
  8
0
100
AcDbLine
 10
269.5282669662
 20
-464.1034117243
 30
0.0
 11
277.3434660677
 21
-463.4214379862
 31
0.0
  0
ARC
  5
26B
330
1F
100
AcDbEntity
  8
0
100
AcDbCircle
 10
269.55
 20
-460.1524652832
 30
0.0
 40
0.25
100
AcDbArc
 50
94.9871394293
 51
180.0
  0
ARC
  5
26C
330
1F
100
AcDbEntity
  8
0
100
AcDbCircle
 10
-43.75
 20
-460.1524652832
 30
0.0
 40
0.2499999999999716
100
AcDbArc
 50
0.0
 51
85.0128605707
  0
ARC
  5
26D
330
1F
100
AcDbEntity
  8
0
100
AcDbCircle
 10
269.55
 20
-464.3524652832
 30
0.0
 40
0.25
100
AcDbArc
 50
94.9871394293
 51
180.0
  0
ARC
  5
26E
330
1F
100
AcDbEntity
  8
0
100
AcDbCircle
 10
-43.75
 20
-464.3524652832
 30
0.0
 40
0.2499999999999889
100
AcDbArc
 50
0.0
 51
85.0128605707
  0
LINE
  5
26F
330
1F
100
AcDbEntity
  8
0
100
AcDbLine
 10
269.3
 20
-462.4233308682
 30
0.0
 11
269.3
 21
-460.1524652832
 31
0.0
  0
LINE
  5
270
330
1F
100
AcDbEntity
  8
0
100
AcDbLine
 10
-43.5
 20
-460.1524652832
 30
0.0
 11
-43.5
 21
-462.4233308682
 31
0.0
  0
LINE
  5
271
330
1F
100
AcDbEntity
  8
0
100
AcDbLine
 10
269.3
 20
-465.2233305661
 30
0.0
 11
269.3
 21
-464.3524652832
 31
0.0
  0
LINE
  5
272
330
1F
100
AcDbEntity
  8
0
100
AcDbLine
 10
-43.5
 20
-464.3524652832
 30
0.0
 11
-43.5
 21
-465.2233305661
 31
0.0
  0
ARC
  5
273
330
1F
100
AcDbEntity
  8
0
100
AcDbCircle
 10
-51.5
 20
-180.1233302638
 30
0.0
 40
0.5000000000000054
100
AcDbArc
 50
94.9871394293
 51
270.0
  0
ARC
  5
274
330
1F
100
AcDbEntity
  8
0
100
AcDbCircle
 10
277.3
 20
-180.1233302638
 30
0.0
 40
0.5000000000000085
100
AcDbArc
 50
270.0
 51
85.0128605707
  0
ARC
  5
275
330
1F
100
AcDbEntity
  8
0
100
AcDbCircle
 10
-51.5
 20
-184.3233302638
 30
0.0
 40
0.5000000000000054
100
AcDbArc
 50
94.9871394293
 51
270.0
  0
ARC
  5
276
330
1F
100
AcDbEntity
  8
0
100
AcDbCircle
 10
277.3
 20
-184.3233302638
 30
0.0
 40
0.5
100
AcDbArc
 50
270.0
 51
85.0128605707
  0
LINE
  5
277
330
1F
100
AcDbEntity
  8
0
100
AcDbLine
 10
277.3434660677
 20
-179.6252231459
 30
0.0
 11
269.5282669662
 21
-178.9432494078
 31
0.0
  0
LINE
  5
278
330
1F
100
AcDbEntity
  8
0
100
AcDbLine
 10
-43.7282669662
 20
-178.9432494078
 30
0.0
 11
-51.5434660677
 21
-179.6252231459
 31
0.0
  0
LINE
  5
279
330
1F
100
AcDbEntity
  8
0
100
AcDbLine
 10
277.3434660677
 20
-183.8252231459
 30
0.0
 11
269.5282669662
 21
-183.1432494078
 31
0.0
  0
LINE
  5
27A
330
1F
100
AcDbEntity
  8
0
100
AcDbLine
 10
-43.7282669662
 20
-183.1432494078
 30
0.0
 11
-51.5434660677
 21
-183.8252231459
 31
0.0
  0
ARC
  5
27B
330
1F
100
AcDbEntity
  8
0
100
AcDbCircle
 10
-43.75
 20
-178.6941958489
 30
0.0
 40
0.2500000000000123
100
AcDbArc
 50
274.9871394293
 51
0.0
  0
ARC
  5
27C
330
1F
100
AcDbEntity
  8
0
100
AcDbCircle
 10
269.55
 20
-178.6941958489
 30
0.0
 40
0.250000000000011
100
AcDbArc
 50
180.0
 51
265.0128605707
  0
ARC
  5
27D
330
1F
100
AcDbEntity
  8
0
100
AcDbCircle
 10
-43.75
 20
-182.8941958489
 30
0.0
 40
0.2500000000000123
100
AcDbArc
 50
274.9871394293
 51
0.0
  0
ARC
  5
27E
330
1F
100
AcDbEntity
  8
0
100
AcDbCircle
 10
269.55
 20
-182.8941958489
 30
0.0
 40
0.250000000000011
100
AcDbArc
 50
180.0
 51
265.0128605707
  0
LINE
  5
27F
330
1F
100
AcDbEntity
  8
0
100
AcDbLine
 10
-43.5
 20
-177.823330566
 30
0.0
 11
-43.5
 21
-178.6941958489
 31
0.0
  0
LINE
  5
280
330
1F
100
AcDbEntity
  8
0
100
AcDbLine
 10
269.3
 20
-178.6941958489
 30
0.0
 11
269.3
 21
-177.823330566
 31
0.0
  0
LINE
  5
281
330
1F
100
AcDbEntity
  8
0
100
AcDbLine
 10
-43.5
 20
-180.6233302638
 30
0.0
 11
-43.5
 21
-182.8941958489
 31
0.0
  0
LINE
  5
282
330
1F
100
AcDbEntity
  8
0
100
AcDbLine
 10
269.3
 20
-182.8941958489
 30
0.0
 11
269.3
 21
-180.6233302638
 31
0.0
  0
LINE
  5
283
330
1F
100
AcDbEntity
  8
0
100
AcDbLine
 10
270.4
 20
-469.923330566
 30
0.0
 11
270.4
 21
-465.2233305661
 31
0.0
  0
LINE
  5
284
330
1F
100
AcDbEntity
  8
0
100
AcDbLine
 10
-44.6
 20
-465.2233305661
 30
0.0
 11
-44.6
 21
-469.9233305661
 31
0.0
  0
ARC
  5
285
330
1F
100
AcDbEntity
  8
0
100
AcDbCircle
 10
269.1
 20
-469.9233321374
 30
0.0
 40
1.300000000004673
100
AcDbArc
 50
270.0
 51
0.0000692571
  0
ARC
  5
286
330
1F
100
AcDbEntity
  8
0
100
AcDbCircle
 10
-43.3
 20
-469.9233321374
 30
0.0
 40
1.300000000004673
100
AcDbArc
 50
179.9999307429
 51
270.0
  0
LINE
  5
287
330
1F
100
AcDbEntity
  8
0
100
AcDbLine
 10
-43.3
 20
-471.2233321374
 30
0.0
 11
269.1
 21
-471.2233321374
 31
0.0
  0
LINE
  5
288
330
1F
100
AcDbEntity
  8
0
100
AcDbLine
 10
270.3499485996
 20
-446.9022992264
 30
0.0
 11
270.3499485996
 21
-432.6233305661
 31
0.0
  0
LINE
  5
289
330
1F
100
AcDbEntity
  8
0
100
AcDbLine
 10
-44.5499485996
 20
-432.6233305661
 30
0.0
 11
-44.5499485996
 21
-446.9022992264
 31
0.0
  0
LINE
  5
28A
330
1F
100
AcDbEntity
  8
0
100
AcDbLine
 10
-44.5499485996
 20
-446.9022992264
 30
0.0
 11
-42.8063834938
 21
-448.6458643322
 31
0.0
  0
LINE
  5
28B
330
1F
100
AcDbEntity
  8
0
100
AcDbLine
 10
268.6063834938
 20
-448.6458643322
 30
0.0
 11
270.3499485996
 21
-446.9022992264
 31
0.0
  0
LINE
  5
28C
330
1F
100
AcDbEntity
  8
0
100
AcDbLine
 10
-42.8063834938
 20
-448.6458643322
 30
0.0
 11
-40.7992451863
 21
-455.6681981315
 31
0.0
  0
LINE
  5
28D
330
1F
100
AcDbEntity
  8
0
100
AcDbLine
 10
266.5992451863
 20
-455.6681981315
 30
0.0
 11
268.6063834938
 21
-448.6458643322
 31
0.0
  0
LINE
  5
28E
330
1F
100
AcDbEntity
  8
0
100
AcDbLine
 10
266.5992451863
 20
-458.2233308682
 30
0.0
 11
266.5992451863
 21
-455.6681981315
 31
0.0
  0
LINE
  5
28F
330
1F
100
AcDbEntity
  8
0
100
AcDbLine
 10
-40.7992451863
 20
-455.6681981315
 30
0.0
 11
-40.7992451863
 21
-458.2233308682
 31
0.0
  0
ARC
  5
290
330
1F
100
AcDbEntity
  8
0
100
AcDbCircle
 10
-43.3
 20
-173.1233289946
 30
0.0
 40
1.300000000004673
100
AcDbArc
 50
90.0
 51
180.0000692571
  0
ARC
  5
291
330
1F
100
AcDbEntity
  8
0
100
AcDbCircle
 10
269.1
 20
-173.1233289946
 30
0.0
 40
1.300000000004673
100
AcDbArc
 50
359.9999307429
 51
90.0
  0
LINE
  5
292
330
1F
100
AcDbEntity
  8
0
100
AcDbLine
 10
269.1
 20
-171.8233289946
 30
0.0
 11
-43.3
 21
-171.8233289946
 31
0.0
  0
LINE
  5
293
330
1F
100
AcDbEntity
  8
0
100
AcDbLine
 10
-44.6
 20
-173.123330566
 30
0.0
 11
-44.6
 21
-177.823330566
 31
0.0
  0
LINE
  5
294
330
1F
100
AcDbEntity
  8
0
100
AcDbLine
 10
270.4
 20
-177.823330566
 30
0.0
 11
270.4
 21
-173.123330566
 31
0.0
  0
LINE
  5
295
330
1F
100
AcDbEntity
  8
0
100
AcDbLine
 10
-44.5499485996
 20
-196.1443619057
 30
0.0
 11
-44.5499485996
 21
-210.5233305661
 31
0.0
  0
LINE
  5
296
330
1F
100
AcDbEntity
  8
0
100
AcDbLine
 10
270.3499485996
 20
-210.5233305661
 30
0.0
 11
270.3499485996
 21
-196.1443619057
 31
0.0
  0
LINE
  5
297
330
1F
100
AcDbEntity
  8
0
100
AcDbLine
 10
270.3499485996
 20
-196.1443619057
 30
0.0
 11
268.6063834938
 21
-194.4007967999
 31
0.0
  0
LINE
  5
298
330
1F
100
AcDbEntity
  8
0
100
AcDbLine
 10
-42.8063834938
 20
-194.4007967999
 30
0.0
 11
-44.5499485996
 21
-196.1443619057
 31
0.0
  0
LINE
  5
299
330
1F
100
AcDbEntity
  8
0
100
AcDbLine
 10
268.6063834938
 20
-194.4007967999
 30
0.0
 11
266.5992451863
 21
-187.3784630006
 31
0.0
  0
LINE
  5
29A
330
1F
100
AcDbEntity
  8
0
100
AcDbLine
 10
-40.7992451863
 20
-187.3784630006
 30
0.0
 11
-42.8063834938
 21
-194.4007967999
 31
0.0
  0
LINE
  5
29B
330
1F
100
AcDbEntity
  8
0
100
AcDbLine
 10
-40.7992451863
 20
-184.8233302638
 30
0.0
 11
-40.7992451863
 21
-187.3784630006
 31
0.0
  0
LINE
  5
29C
330
1F
100
AcDbEntity
  8
0
100
AcDbLine
 10
266.5992451863
 20
-187.3784630006
 30
0.0
 11
266.5992451863
 21
-184.8233302638
 31
0.0
  0
LINE
  5
29D
330
1F
100
AcDbEntity
  8
0
100
AcDbLine
 10
-205.9
 20
-343.6052305661
 30
0.0
 11
-197.7
 21
-343.6052305661
 31
0.0
  0
LINE
  5
29E
330
1F
100
AcDbEntity
  8
0
100
AcDbLine
 10
-197.7
 20
-315.8052305661
 30
0.0
 11
-205.9
 21
-315.8052305661
 31
0.0
  0
ARC
  5
29F
330
1F
100
AcDbEntity
  8
0
100
AcDbCircle
 10
-205.9
 20
-342.2052305661
 30
0.0
 40
1.399999999999977
100
AcDbArc
 50
180.0
 51
270.0
  0
ARC
  5
2A0
330
1F
100
AcDbEntity
  8
0
100
AcDbCircle
 10
-205.9
 20
-317.2052305661
 30
0.0
 40
1.400000000000006
100
AcDbArc
 50
90.0
 51
180.0
  0
LINE
  5
2A1
330
1F
100
AcDbEntity
  8
0
100
AcDbLine
 10
-205.9
 20
-291.6052305664
 30
0.0
 11
-197.7
 21
-291.6052305664
 31
0.0
  0
LINE
  5
2A2
330
1F
100
AcDbEntity
  8
0
100
AcDbLine
 10
-197.7
 20
-263.8052305664
 30
0.0
 11
-205.9
 21
-263.8052305664
 31
0.0
  0
ARC
  5
2A3
330
1F
100
AcDbEntity
  8
0
100
AcDbCircle
 10
-205.9
 20
-290.2052305664
 30
0.0
 40
1.400000000000034
100
AcDbArc
 50
180.0
 51
270.0
  0
ARC
  5
2A4
330
1F
100
AcDbEntity
  8
0
100
AcDbCircle
 10
-205.9
 20
-265.2052305664
 30
0.0
 40
1.400000000000034
100
AcDbArc
 50
90.0
 51
180.0
  0
LINE
  5
2A5
330
1F
100
AcDbEntity
  8
0
100
AcDbLine
 10
-197.3
 20
-314.7052305661
 30
0.0
 11
-197.7
 21
-314.7052305661
 31
0.0
  0
LINE
  5
2A6
330
1F
100
AcDbEntity
  8
0
100
AcDbLine
 10
-197.7
 20
-344.7052305661
 30
0.0
 11
-197.3
 21
-344.7052305661
 31
0.0
  0
LINE
  5
2A7
330
1F
100
AcDbEntity
  8
0
100
AcDbLine
 10
-197.3
 20
-262.7052305664
 30
0.0
 11
-197.7
 21
-262.7052305664
 31
0.0
  0
LINE
  5
2A8
330
1F
100
AcDbEntity
  8
0
100
AcDbLine
 10
-197.7
 20
-292.7052305664
 30
0.0
 11
-197.3
 21
-292.7052305664
 31
0.0
  0
LINE
  5
2A9
330
1F
100
AcDbEntity
  8
0
100
AcDbLine
 10
-189.6
 20
-264.2552305664
 30
0.0
 11
-197.3
 21
-264.2552305664
 31
0.0
  0
LINE
  5
2AA
330
1F
100
AcDbEntity
  8
0
100
AcDbLine
 10
-197.3
 20
-291.1552305664
 30
0.0
 11
-189.6
 21
-291.1552305664
 31
0.0
  0
LINE
  5
2AB
330
1F
100
AcDbEntity
  8
0
100
AcDbLine
 10
-184.2
 20
-290.4552305664
 30
0.0
 11
-176.7
 21
-290.4552305664
 31
0.0
  0
LINE
  5
2AC
330
1F
100
AcDbEntity
  8
0
100
AcDbLine
 10
-176.7
 20
-264.9552305664
 30
0.0
 11
-184.2
 21
-264.9552305664
 31
0.0
  0
LINE
  5
2AD
330
1F
100
AcDbEntity
  8
0
100
AcDbLine
 10
-176.7
 20
-290.4552305664
 30
0.0
 11
-175.95
 21
-289.7052305664
 31
0.0
  0
LINE
  5
2AE
330
1F
100
AcDbEntity
  8
0
100
AcDbLine
 10
-175.95
 20
-265.7052305664
 30
0.0
 11
-176.7
 21
-264.9552305664
 31
0.0
  0
LINE
  5
2AF
330
1F
100
AcDbEntity
  8
0
100
AcDbLine
 10
-189.6
 20
-316.2552305661
 30
0.0
 11
-197.3
 21
-316.2552305661
 31
0.0
  0
LINE
  5
2B0
330
1F
100
AcDbEntity
  8
0
100
AcDbLine
 10
-197.3
 20
-343.1552305661
 30
0.0
 11
-189.6
 21
-343.1552305661
 31
0.0
  0
LINE
  5
2B1
330
1F
100
AcDbEntity
  8
0
100
AcDbLine
 10
-184.2
 20
-342.4552305661
 30
0.0
 11
-176.7
 21
-342.4552305661
 31
0.0
  0
LINE
  5
2B2
330
1F
100
AcDbEntity
  8
0
100
AcDbLine
 10
-176.7
 20
-316.9552305661
 30
0.0
 11
-184.2
 21
-316.9552305661
 31
0.0
  0
LINE
  5
2B3
330
1F
100
AcDbEntity
  8
0
100
AcDbLine
 10
-176.7
 20
-342.4552305661
 30
0.0
 11
-175.95
 21
-341.7052305661
 31
0.0
  0
LINE
  5
2B4
330
1F
100
AcDbEntity
  8
0
100
AcDbLine
 10
-175.95
 20
-317.7052305661
 30
0.0
 11
-176.7
 21
-316.9552305661
 31
0.0
  0
LINE
  5
2B5
330
1F
100
AcDbEntity
  8
0
100
AcDbLine
 10
-170.5
 20
-318.7052305661
 30
0.0
 11
-175.95
 21
-318.7052305661
 31
0.0
  0
LINE
  5
2B6
330
1F
100
AcDbEntity
  8
0
100
AcDbLine
 10
-175.95
 20
-340.7052305661
 30
0.0
 11
-170.5
 21
-340.7052305661
 31
0.0
  0
LINE
  5
2B7
330
1F
100
AcDbEntity
  8
0
100
AcDbLine
 10
-170.5
 20
-266.7052305664
 30
0.0
 11
-175.95
 21
-266.7052305664
 31
0.0
  0
LINE
  5
2B8
330
1F
100
AcDbEntity
  8
0
100
AcDbLine
 10
-175.95
 20
-288.7052305664
 30
0.0
 11
-170.5
 21
-288.7052305664
 31
0.0
  0
CIRCLE
  5
2B9
330
1F
100
AcDbEntity
  8
0
100
AcDbCircle
 10
-163.8
 20
-321.573330566
 30
0.0
 40
4.100000000000051
  0
LINE
  5
2BA
330
1F
100
AcDbEntity
  8
0
100
AcDbLine
 10
-161.7149340538
 20
-321.8233305661
 30
0.0
 11
-161.7149340538
 21
-321.3233305661
 31
0.0
  0
LINE
  5
2BB
330
1F
100
AcDbEntity
  8
0
100
AcDbLine
 10
-163.55
 20
-323.6583965123
 30
0.0
 11
-163.55
 21
-322.8233305661
 31
0.0
  0
ARC
  5
2BC
330
1F
100
AcDbEntity
  8
0
100
AcDbCircle
 10
-162.55
 20
-322.8233305661
 30
0.0
 40
1.000000000000995
100
AcDbArc
 50
90.0
 51
180.0000000001
  0
LINE
  5
2BD
330
1F
100
AcDbEntity
  8
0
100
AcDbLine
 10
-162.55
 20
-321.8233305661
 30
0.0
 11
-161.7149340538
 21
-321.8233305661
 31
0.0
  0
LINE
  5
2BE
330
1F
100
AcDbEntity
  8
0
100
AcDbLine
 10
-164.05
 20
-319.4882646199
 30
0.0
 11
-164.05
 21
-320.3233305661
 31
0.0
  0
LINE
  5
2BF
330
1F
100
AcDbEntity
  8
0
100
AcDbLine
 10
-165.05
 20
-321.3233305661
 30
0.0
 11
-165.8850659462
 21
-321.3233305661
 31
0.0
  0
ARC
  5
2C0
330
1F
100
AcDbEntity
  8
0
100
AcDbCircle
 10
-165.05
 20
-320.3233305661
 30
0.0
 40
1.000000000000341
100
AcDbArc
 50
270.0000000001
 51
0.0
  0
LINE
  5
2C1
330
1F
100
AcDbEntity
  8
0
100
AcDbLine
 10
-163.55
 20
-319.4882646199
 30
0.0
 11
-164.05
 21
-319.4882646199
 31
0.0
  0
LINE
  5
2C2
330
1F
100
AcDbEntity
  8
0
100
AcDbLine
 10
-161.7149340538
 20
-321.3233305661
 30
0.0
 11
-162.55
 21
-321.3233305661
 31
0.0
  0
LINE
  5
2C3
330
1F
100
AcDbEntity
  8
0
100
AcDbLine
 10
-163.55
 20
-320.3233305661
 30
0.0
 11
-163.55
 21
-319.4882646199
 31
0.0
  0
ARC
  5
2C4
330
1F
100
AcDbEntity
  8
0
100
AcDbCircle
 10
-162.55
 20
-320.3233305661
 30
0.0
 40
0.9999999999987779
100
AcDbArc
 50
180.0
 51
270.0000000001
  0
LINE
  5
2C5
330
1F
100
AcDbEntity
  8
0
100
AcDbLine
 10
-165.8850659462
 20
-321.3233305661
 30
0.0
 11
-165.8850659462
 21
-321.8233305661
 31
0.0
  0
LINE
  5
2C6
330
1F
100
AcDbEntity
  8
0
100
AcDbLine
 10
-165.8850659462
 20
-321.8233305661
 30
0.0
 11
-165.05
 21
-321.8233305661
 31
0.0
  0
ARC
  5
2C7
330
1F
100
AcDbEntity
  8
0
100
AcDbCircle
 10
-165.05
 20
-322.8233305661
 30
0.0
 40
1.000000000000114
100
AcDbArc
 50
359.9999999999
 51
90.0000000001
  0
LINE
  5
2C8
330
1F
100
AcDbEntity
  8
0
100
AcDbLine
 10
-164.05
 20
-322.8233305661
 30
0.0
 11
-164.05
 21
-323.6583965123
 31
0.0
  0
LINE
  5
2C9
330
1F
100
AcDbEntity
  8
0
100
AcDbLine
 10
-164.05
 20
-323.6583965123
 30
0.0
 11
-163.55
 21
-323.6583965123
 31
0.0
  0
CIRCLE
  5
2CA
330
1F
100
AcDbEntity
  8
0
100
AcDbCircle
 10
-163.8
 20
-385.823330566
 30
0.0
 40
4.100000000000056
  0
LINE
  5
2CB
330
1F
100
AcDbEntity
  8
0
100
AcDbLine
 10
-161.7289886649
 20
-385.4756064658
 30
0.0
 11
-162.5631317277
 21
-385.514855483
 31
0.0
  0
ARC
  5
2CC
330
1F
100
AcDbEntity
  8
0
100
AcDbCircle
 10
-162.6101328266
 20
-384.5159606453
 30
0.0
 40
1.000000000000996
100
AcDbArc
 50
182.6939570941
 51
272.6939570942
  0
LINE
  5
2CD
330
1F
100
AcDbEntity
  8
0
100
AcDbLine
 10
-163.6090276642
 20
-384.5629617442
 30
0.0
 11
-163.6482766814
 21
-383.7288186815
 31
0.0
  0
LINE
  5
2CE
330
1F
100
AcDbEntity
  8
0
100
AcDbLine
 10
-163.6482766814
 20
-383.7288186815
 30
0.0
 11
-164.1477241002
 21
-383.7523192309
 31
0.0
  0
LINE
  5
2CF
330
1F
100
AcDbEntity
  8
0
100
AcDbLine
 10
-164.1477241002
 20
-383.7523192309
 30
0.0
 11
-164.1084750831
 21
-384.5864622937
 31
0.0
  0
ARC
  5
2D0
330
1F
100
AcDbEntity
  8
0
100
AcDbCircle
 10
-165.1073699207
 20
-384.6334633926
 30
0.0
 40
0.9999999999988223
100
AcDbArc
 50
272.6939570941
 51
2.6939570941
  0
LINE
  5
2D1
330
1F
100
AcDbEntity
  8
0
100
AcDbLine
 10
-165.0603688218
 20
-385.6323582303
 30
0.0
 11
-165.8945118846
 21
-385.6716072474
 31
0.0
  0
LINE
  5
2D2
330
1F
100
AcDbEntity
  8
0
100
AcDbLine
 10
-165.8710113351
 20
-386.1710546663
 30
0.0
 11
-165.0368682723
 21
-386.1318056491
 31
0.0
  0
ARC
  5
2D3
330
1F
100
AcDbEntity
  8
0
100
AcDbCircle
 10
-164.9898671734
 20
-387.1307004868
 30
0.0
 40
1.000000000000343
100
AcDbArc
 50
2.6939570941
 51
92.6939570941
  0
LINE
  5
2D4
330
1F
100
AcDbEntity
  8
0
100
AcDbLine
 10
-163.9909723358
 20
-387.0836993878
 30
0.0
 11
-163.9517233186
 21
-387.9178424506
 31
0.0
  0
LINE
  5
2D5
330
1F
100
AcDbEntity
  8
0
100
AcDbLine
 10
-163.9517233186
 20
-387.9178424506
 30
0.0
 11
-163.4522758998
 21
-387.8943419011
 31
0.0
  0
ARC
  5
2D6
330
1F
100
AcDbEntity
  8
0
100
AcDbCircle
 10
-162.4926300793
 20
-387.0131977395
 30
0.0
 40
1.000000000000186
100
AcDbArc
 50
92.693957094
 51
182.6939570942
  0
LINE
  5
2D7
330
1F
100
AcDbEntity
  8
0
100
AcDbLine
 10
-162.5396311782
 20
-386.0143029018
 30
0.0
 11
-161.7054881154
 21
-385.9750538847
 31
0.0
  0
LINE
  5
2D8
330
1F
100
AcDbEntity
  8
0
100
AcDbLine
 10
-163.4522758998
 20
-387.8943419011
 30
0.0
 11
-163.4915249169
 21
-387.0601988384
 31
0.0
  0
LINE
  5
2D9
330
1F
100
AcDbEntity
  8
0
100
AcDbLine
 10
-165.8945118846
 20
-385.6716072474
 30
0.0
 11
-165.8710113351
 21
-386.1710546663
 31
0.0
  0
LINE
  5
2DA
330
1F
100
AcDbEntity
  8
0
100
AcDbLine
 10
-161.7054881154
 20
-385.9750538847
 30
0.0
 11
-161.7289886649
 21
-385.4756064658
 31
0.0
  0
CIRCLE
  5
2DB
330
1F
100
AcDbEntity
  8
0
100
AcDbCircle
 10
389.6
 20
-385.823330566
 30
0.0
 40
4.100000000000027
  0
LINE
  5
2DC
330
1F
100
AcDbEntity
  8
0
100
AcDbLine
 10
390.1367071541
 20
-383.7930730871
 30
0.0
 11
389.8286920043
 21
-384.5692572161
 31
0.0
  0
ARC
  5
2DD
330
1F
100
AcDbEntity
  8
0
100
AcDbCircle
 10
388.8992035819
 20
-384.2004059281
 30
0.0
 40
1.000000000000938
100
AcDbArc
 50
248.3552093289
 51
338.355209329
  0
LINE
  5
2DE
330
1F
100
AcDbEntity
  8
0
100
AcDbLine
 10
388.530352294
 20
-385.1298943505
 30
0.0
 11
387.7541681651
 21
-384.8218792007
 31
0.0
  0
LINE
  5
2DF
330
1F
100
AcDbEntity
  8
0
100
AcDbLine
 10
387.7541681651
 20
-384.8218792007
 30
0.0
 11
387.5697425211
 21
-385.2866234119
 31
0.0
  0
LINE
  5
2E0
330
1F
100
AcDbEntity
  8
0
100
AcDbLine
 10
391.6302574789
 20
-386.3600377202
 30
0.0
 11
390.85407335
 21
-386.0520225704
 31
0.0
  0
ARC
  5
2E1
330
1F
100
AcDbEntity
  8
0
100
AcDbCircle
 10
391.2229246379
 20
-385.122534148
 30
0.0
 40
1.000000000000104
100
AcDbArc
 50
158.3552093288
 51
248.355209329
  0
LINE
  5
2E2
330
1F
100
AcDbEntity
  8
0
100
AcDbLine
 10
390.2934362155
 20
-384.75368286
 30
0.0
 11
390.6014513653
 21
-383.9774987311
 31
0.0
  0
LINE
  5
2E3
330
1F
100
AcDbEntity
  8
0
100
AcDbLine
 10
388.5985486347
 20
-387.669162401
 30
0.0
 11
389.0632928459
 21
-387.853588045
 31
0.0
  0
LINE
  5
2E4
330
1F
100
AcDbEntity
  8
0
100
AcDbLine
 10
390.669647706
 20
-386.5167667816
 30
0.0
 11
391.4458318349
 21
-386.8247819314
 31
0.0
  0
LINE
  5
2E5
330
1F
100
AcDbEntity
  8
0
100
AcDbLine
 10
389.0632928459
 20
-387.853588045
 30
0.0
 11
389.3713079957
 21
-387.077403916
 31
0.0
  0
ARC
  5
2E6
330
1F
100
AcDbEntity
  8
0
100
AcDbCircle
 10
390.3007964181
 20
-387.446255204
 30
0.0
 40
1.000000000000332
100
AcDbArc
 50
68.355209329
 51
158.3552093289
  0
LINE
  5
2E7
330
1F
100
AcDbEntity
  8
0
100
AcDbLine
 10
387.5697425211
 20
-385.2866234119
 30
0.0
 11
388.34592665
 21
-385.5946385617
 31
0.0
  0
ARC
  5
2E8
330
1F
100
AcDbEntity
  8
0
100
AcDbCircle
 10
387.9770753621
 20
-386.5241269841
 30
0.0
 40
0.9999999999987461
100
AcDbArc
 50
338.3552093289
 51
68.355209329
  0
LINE
  5
2E9
330
1F
100
AcDbEntity
  8
0
100
AcDbLine
 10
388.9065637845
 20
-386.8929782721
 30
0.0
 11
388.5985486347
 21
-387.669162401
 31
0.0
  0
LINE
  5
2EA
330
1F
100
AcDbEntity
  8
0
100
AcDbLine
 10
391.4458318349
 20
-386.8247819314
 30
0.0
 11
391.6302574789
 21
-386.3600377202
 31
0.0
  0
LINE
  5
2EB
330
1F
100
AcDbEntity
  8
0
100
AcDbLine
 10
390.6014513653
 20
-383.9774987311
 30
0.0
 11
390.1367071541
 21
-383.7930730871
 31
0.0
  0
CIRCLE
  5
2EC
330
1F
100
AcDbEntity
  8
0
100
AcDbCircle
 10
364.6
 20
-425.823330566
 30
0.0
 40
4.10000000000008
  0
LINE
  5
2ED
330
1F
100
AcDbEntity
  8
0
100
AcDbLine
 10
365.1367071541
 20
-423.7930730871
 30
0.0
 11
364.8286920043
 21
-424.5692572161
 31
0.0
  0
LINE
  5
2EE
330
1F
100
AcDbEntity
  8
0
100
AcDbLine
 10
363.530352294
 20
-425.1298943505
 30
0.0
 11
362.7541681651
 21
-424.8218792007
 31
0.0
  0
ARC
  5
2EF
330
1F
100
AcDbEntity
  8
0
100
AcDbCircle
 10
363.8992035819
 20
-424.2004059281
 30
0.0
 40
1.000000000000938
100
AcDbArc
 50
248.3552093289
 51
338.355209329
  0
LINE
  5
2F0
330
1F
100
AcDbEntity
  8
0
100
AcDbLine
 10
362.7541681651
 20
-424.8218792007
 30
0.0
 11
362.5697425211
 21
-425.2866234119
 31
0.0
  0
LINE
  5
2F1
330
1F
100
AcDbEntity
  8
0
100
AcDbLine
 10
366.6302574789
 20
-426.3600377202
 30
0.0
 11
365.85407335
 21
-426.0520225704
 31
0.0
  0
ARC
  5
2F2
330
1F
100
AcDbEntity
  8
0
100
AcDbCircle
 10
366.2229246379
 20
-425.122534148
 30
0.0
 40
1.000000000000104
100
AcDbArc
 50
158.3552093288
 51
248.355209329
  0
LINE
  5
2F3
330
1F
100
AcDbEntity
  8
0
100
AcDbLine
 10
365.2934362155
 20
-424.75368286
 30
0.0
 11
365.6014513653
 21
-423.9774987311
 31
0.0
  0
ARC
  5
2F4
330
1F
100
AcDbEntity
  8
0
100
AcDbCircle
 10
365.3007964181
 20
-427.446255204
 30
0.0
 40
1.000000000000353
100
AcDbArc
 50
68.355209329
 51
158.3552093289
  0
LINE
  5
2F5
330
1F
100
AcDbEntity
  8
0
100
AcDbLine
 10
365.669647706
 20
-426.5167667816
 30
0.0
 11
366.4458318349
 21
-426.8247819314
 31
0.0
  0
LINE
  5
2F6
330
1F
100
AcDbEntity
  8
0
100
AcDbLine
 10
364.0632928459
 20
-427.853588045
 30
0.0
 11
364.3713079957
 21
-427.077403916
 31
0.0
  0
LINE
  5
2F7
330
1F
100
AcDbEntity
  8
0
100
AcDbLine
 10
363.5985486347
 20
-427.669162401
 30
0.0
 11
364.0632928459
 21
-427.853588045
 31
0.0
  0
LINE
  5
2F8
330
1F
100
AcDbEntity
  8
0
100
AcDbLine
 10
362.5697425211
 20
-425.2866234119
 30
0.0
 11
363.34592665
 21
-425.5946385617
 31
0.0
  0
ARC
  5
2F9
330
1F
100
AcDbEntity
  8
0
100
AcDbCircle
 10
362.9770753621
 20
-426.5241269841
 30
0.0
 40
0.9999999999988198
100
AcDbArc
 50
338.3552093289
 51
68.355209329
  0
LINE
  5
2FA
330
1F
100
AcDbEntity
  8
0
100
AcDbLine
 10
363.9065637845
 20
-426.8929782721
 30
0.0
 11
363.5985486347
 21
-427.669162401
 31
0.0
  0
LINE
  5
2FB
330
1F
100
AcDbEntity
  8
0
100
AcDbLine
 10
366.4458318349
 20
-426.8247819314
 30
0.0
 11
366.6302574789
 21
-426.3600377202
 31
0.0
  0
LINE
  5
2FC
330
1F
100
AcDbEntity
  8
0
100
AcDbLine
 10
365.6014513653
 20
-423.9774987311
 30
0.0
 11
365.1367071541
 21
-423.7930730871
 31
0.0
  0
CIRCLE
  5
2FD
330
1F
100
AcDbEntity
  8
0
100
AcDbCircle
 10
112.9
 20
-425.823330566
 30
0.0
 40
4.100000000000019
  0
LINE
  5
2FE
330
1F
100
AcDbEntity
  8
0
100
AcDbLine
 10
113.4367071541
 20
-423.7930730871
 30
0.0
 11
113.1286920043
 21
-424.569257216
 31
0.0
  0
LINE
  5
2FF
330
1F
100
AcDbEntity
  8
0
100
AcDbLine
 10
111.830352294
 20
-425.1298943505
 30
0.0
 11
111.0541681651
 21
-424.8218792007
 31
0.0
  0
ARC
  5
300
330
1F
100
AcDbEntity
  8
0
100
AcDbCircle
 10
112.1992035819
 20
-424.2004059281
 30
0.0
 40
1.000000000001004
100
AcDbArc
 50
248.3552093289
 51
338.355209329
  0
LINE
  5
301
330
1F
100
AcDbEntity
  8
0
100
AcDbLine
 10
111.0541681651
 20
-424.8218792007
 30
0.0
 11
110.8697425211
 21
-425.2866234119
 31
0.0
  0
LINE
  5
302
330
1F
100
AcDbEntity
  8
0
100
AcDbLine
 10
114.9302574789
 20
-426.3600377202
 30
0.0
 11
114.15407335
 21
-426.0520225704
 31
0.0
  0
ARC
  5
303
330
1F
100
AcDbEntity
  8
0
100
AcDbCircle
 10
114.5229246379
 20
-425.122534148
 30
0.0
 40
1.000000000000099
100
AcDbArc
 50
158.3552093288
 51
248.355209329
  0
LINE
  5
304
330
1F
100
AcDbEntity
  8
0
100
AcDbLine
 10
113.5934362155
 20
-424.75368286
 30
0.0
 11
113.9014513653
 21
-423.9774987311
 31
0.0
  0
LINE
  5
305
330
1F
100
AcDbEntity
  8
0
100
AcDbLine
 10
110.8697425211
 20
-425.2866234119
 30
0.0
 11
111.64592665
 21
-425.5946385617
 31
0.0
  0
ARC
  5
306
330
1F
100
AcDbEntity
  8
0
100
AcDbCircle
 10
111.2770753621
 20
-426.5241269841
 30
0.0
 40
0.9999999999987934
100
AcDbArc
 50
338.3552093289
 51
68.355209329
  0
LINE
  5
307
330
1F
100
AcDbEntity
  8
0
100
AcDbLine
 10
112.2065637845
 20
-426.8929782721
 30
0.0
 11
111.8985486347
 21
-427.669162401
 31
0.0
  0
LINE
  5
308
330
1F
100
AcDbEntity
  8
0
100
AcDbLine
 10
114.7458318349
 20
-426.8247819314
 30
0.0
 11
114.9302574789
 21
-426.3600377202
 31
0.0
  0
LINE
  5
309
330
1F
100
AcDbEntity
  8
0
100
AcDbLine
 10
112.3632928459
 20
-427.853588045
 30
0.0
 11
112.6713079957
 21
-427.077403916
 31
0.0
  0
ARC
  5
30A
330
1F
100
AcDbEntity
  8
0
100
AcDbCircle
 10
113.6007964181
 20
-427.446255204
 30
0.0
 40
1.00000000000034
100
AcDbArc
 50
68.355209329
 51
158.3552093289
  0
LINE
  5
30B
330
1F
100
AcDbEntity
  8
0
100
AcDbLine
 10
113.969647706
 20
-426.5167667816
 30
0.0
 11
114.7458318349
 21
-426.8247819314
 31
0.0
  0
LINE
  5
30C
330
1F
100
AcDbEntity
  8
0
100
AcDbLine
 10
111.8985486347
 20
-427.669162401
 30
0.0
 11
112.3632928459
 21
-427.853588045
 31
0.0
  0
LINE
  5
30D
330
1F
100
AcDbEntity
  8
0
100
AcDbLine
 10
113.9014513653
 20
-423.9774987311
 30
0.0
 11
113.4367071541
 21
-423.7930730871
 31
0.0
  0
LINE
  5
30E
330
1F
100
AcDbEntity
  8
0
100
AcDbLine
 10
-140.6419845625
 20
-216.2148203423
 30
0.0
 11
-139.9624696774
 21
-216.7002012807
 31
0.0
  0
ARC
  5
30F
330
1F
100
AcDbEntity
  8
0
100
AcDbCircle
 10
-140.5437183088
 20
-217.5139272963
 30
0.0
 40
1.000000000000969
100
AcDbArc
 50
324.4615872762
 51
54.4615872763
  0
LINE
  5
310
330
1F
100
AcDbEntity
  8
0
100
AcDbLine
 10
-139.7299922932
 20
-218.0951759277
 30
0.0
 11
-140.2153732315
 21
-218.7746908129
 31
0.0
  0
CIRCLE
  5
311
330
1F
100
AcDbEntity
  8
0
100
AcDbCircle
 10
-138.8
 20
-217.223330566
 30
0.0
 40
4.100000000000001
  0
LINE
  5
312
330
1F
100
AcDbEntity
  8
0
100
AcDbLine
 10
-140.2153732315
 20
-218.7746908129
 30
0.0
 11
-139.8085102237
 21
-219.0653151286
 31
0.0
  0
LINE
  5
313
330
1F
100
AcDbEntity
  8
0
100
AcDbLine
 10
-137.7914897763
 20
-215.3813460035
 30
0.0
 11
-138.2768707146
 21
-216.0608608887
 31
0.0
  0
ARC
  5
314
330
1F
100
AcDbEntity
  8
0
100
AcDbCircle
 10
-139.0905967302
 20
-215.4796122573
 30
0.0
 40
1.000000000000093
100
AcDbArc
 50
234.4615872761
 51
324.4615872763
  0
LINE
  5
315
330
1F
100
AcDbEntity
  8
0
100
AcDbLine
 10
-139.6718453617
 20
-216.2933382729
 30
0.0
 11
-140.3513602468
 21
-215.8079573345
 31
0.0
  0
LINE
  5
316
330
1F
100
AcDbEntity
  8
0
100
AcDbLine
 10
-137.3846267685
 20
-215.6719703192
 30
0.0
 11
-137.7914897763
 21
-215.3813460035
 31
0.0
  0
LINE
  5
317
330
1F
100
AcDbEntity
  8
0
100
AcDbLine
 10
-139.8085102237
 20
-219.0653151286
 30
0.0
 11
-139.3231292854
 21
-218.3858002434
 31
0.0
  0
LINE
  5
318
330
1F
100
AcDbEntity
  8
0
100
AcDbLine
 10
-137.9281546383
 20
-218.1533228592
 30
0.0
 11
-137.2486397532
 21
-218.6387037976
 31
0.0
  0
ARC
  5
319
330
1F
100
AcDbEntity
  8
0
100
AcDbCircle
 10
-138.5094032698
 20
-218.9670488748
 30
0.0
 40
0.999999999998752
100
AcDbArc
 50
54.4615872761
 51
144.4615872762
  0
LINE
  5
31A
330
1F
100
AcDbEntity
  8
0
100
AcDbLine
 10
-136.9580154375
 20
-218.2318407898
 30
0.0
 11
-137.6375303226
 21
-217.7464598514
 31
0.0
  0
LINE
  5
31B
330
1F
100
AcDbEntity
  8
0
100
AcDbLine
 10
-137.8700077068
 20
-216.3514852044
 30
0.0
 11
-137.3846267685
 21
-215.6719703192
 31
0.0
  0
ARC
  5
31C
330
1F
100
AcDbEntity
  8
0
100
AcDbCircle
 10
-137.0562816912
 20
-216.9327338358
 30
0.0
 40
1.000000000000358
100
AcDbArc
 50
144.4615872762
 51
234.4615872762
  0
LINE
  5
31D
330
1F
100
AcDbEntity
  8
0
100
AcDbLine
 10
-137.2486397532
 20
-218.6387037976
 30
0.0
 11
-136.9580154375
 21
-218.2318407898
 31
0.0
  0
LINE
  5
31E
330
1F
100
AcDbEntity
  8
0
100
AcDbLine
 10
-140.3513602468
 20
-215.8079573345
 30
0.0
 11
-140.6419845625
 21
-216.2148203423
 31
0.0
  0
LINE
  5
31F
330
1F
100
AcDbEntity
  8
0
100
AcDbLine
 10
388.5985486347
 20
-255.3774987311
 30
0.0
 11
388.9065637845
 21
-256.15368286
 31
0.0
  0
ARC
  5
320
330
1F
100
AcDbEntity
  8
0
100
AcDbCircle
 10
387.9770753621
 20
-256.522534148
 30
0.0
 40
1.000000000001001
100
AcDbArc
 50
291.6447906711
 51
21.6447906712
  0
LINE
  5
321
330
1F
100
AcDbEntity
  8
0
100
AcDbLine
 10
388.34592665
 20
-257.4520225704
 30
0.0
 11
387.5697425211
 21
-257.7600377202
 31
0.0
  0
CIRCLE
  5
322
330
1F
100
AcDbEntity
  8
0
100
AcDbCircle
 10
389.6
 20
-257.223330566
 30
0.0
 40
4.100000000000027
  0
LINE
  5
323
330
1F
100
AcDbEntity
  8
0
100
AcDbLine
 10
387.5697425211
 20
-257.7600377202
 30
0.0
 11
387.7541681651
 21
-258.2247819314
 31
0.0
  0
LINE
  5
324
330
1F
100
AcDbEntity
  8
0
100
AcDbLine
 10
390.6014513653
 20
-259.069162401
 30
0.0
 11
390.2934362155
 21
-258.2929782721
 31
0.0
  0
ARC
  5
325
330
1F
100
AcDbEntity
  8
0
100
AcDbCircle
 10
391.2229246379
 20
-257.9241269841
 30
0.0
 40
1.00000000000032
100
AcDbArc
 50
111.6447906711
 51
201.6447906711
  0
LINE
  5
326
330
1F
100
AcDbEntity
  8
0
100
AcDbLine
 10
390.85407335
 20
-256.9946385617
 30
0.0
 11
391.6302574789
 21
-256.6866234119
 31
0.0
  0
LINE
  5
327
330
1F
100
AcDbEntity
  8
0
100
AcDbLine
 10
391.6302574789
 20
-256.6866234119
 30
0.0
 11
391.4458318349
 21
-256.2218792007
 31
0.0
  0
ARC
  5
328
330
1F
100
AcDbEntity
  8
0
100
AcDbCircle
 10
390.3007964181
 20
-255.6004059281
 30
0.0
 40
1.000000000000105
100
AcDbArc
 50
201.644790671
 51
291.6447906712
  0
LINE
  5
329
330
1F
100
AcDbEntity
  8
0
100
AcDbLine
 10
389.3713079957
 20
-255.9692572161
 30
0.0
 11
389.0632928459
 21
-255.1930730871
 31
0.0
  0
LINE
  5
32A
330
1F
100
AcDbEntity
  8
0
100
AcDbLine
 10
391.4458318349
 20
-256.2218792007
 30
0.0
 11
390.669647706
 21
-256.5298943505
 31
0.0
  0
LINE
  5
32B
330
1F
100
AcDbEntity
  8
0
100
AcDbLine
 10
387.7541681651
 20
-258.2247819314
 30
0.0
 11
388.530352294
 21
-257.9167667816
 31
0.0
  0
ARC
  5
32C
330
1F
100
AcDbEntity
  8
0
100
AcDbCircle
 10
388.8992035819
 20
-258.846255204
 30
0.0
 40
0.9999999999987395
100
AcDbArc
 50
21.644790671
 51
111.6447906711
  0
LINE
  5
32D
330
1F
100
AcDbEntity
  8
0
100
AcDbLine
 10
389.8286920043
 20
-258.477403916
 30
0.0
 11
390.1367071541
 21
-259.253588045
 31
0.0
  0
LINE
  5
32E
330
1F
100
AcDbEntity
  8
0
100
AcDbLine
 10
390.1367071541
 20
-259.253588045
 30
0.0
 11
390.6014513653
 21
-259.069162401
 31
0.0
  0
LINE
  5
32F
330
1F
100
AcDbEntity
  8
0
100
AcDbLine
 10
389.0632928459
 20
-255.1930730871
 30
0.0
 11
388.5985486347
 21
-255.3774987311
 31
0.0
  0
LINE
  5
330
330
1F
100
AcDbEntity
  8
0
100
AcDbLine
 10
-137.2486397532
 20
-424.4079573345
 30
0.0
 11
-137.9281546383
 21
-424.8933382729
 31
0.0
  0
LINE
  5
331
330
1F
100
AcDbEntity
  8
0
100
AcDbLine
 10
-139.3231292854
 20
-424.6608608887
 30
0.0
 11
-139.8085102237
 21
-423.9813460035
 31
0.0
  0
ARC
  5
332
330
1F
100
AcDbEntity
  8
0
100
AcDbCircle
 10
-138.5094032698
 20
-424.0796122573
 30
0.0
 40
1.000000000001019
100
AcDbArc
 50
215.5384127238
 51
305.5384127239
  0
LINE
  5
333
330
1F
100
AcDbEntity
  8
0
100
AcDbLine
 10
-139.8085102237
 20
-423.9813460035
 30
0.0
 11
-140.2153732315
 21
-424.2719703192
 31
0.0
  0
CIRCLE
  5
334
330
1F
100
AcDbEntity
  8
0
100
AcDbCircle
 10
-138.8
 20
-425.823330566
 30
0.0
 40
4.100000000000017
  0
LINE
  5
335
330
1F
100
AcDbEntity
  8
0
100
AcDbLine
 10
-140.3513602468
 20
-427.2387037976
 30
0.0
 11
-139.6718453617
 21
-426.7533228592
 31
0.0
  0
ARC
  5
336
330
1F
100
AcDbEntity
  8
0
100
AcDbCircle
 10
-139.0905967302
 20
-427.5670488748
 30
0.0
 40
1.000000000000331
100
AcDbArc
 50
35.5384127239
 51
125.5384127238
  0
LINE
  5
337
330
1F
100
AcDbEntity
  8
0
100
AcDbLine
 10
-138.2768707146
 20
-426.9858002434
 30
0.0
 11
-137.7914897763
 21
-427.6653151286
 31
0.0
  0
LINE
  5
338
330
1F
100
AcDbEntity
  8
0
100
AcDbLine
 10
-140.2153732315
 20
-424.2719703192
 30
0.0
 11
-139.7299922932
 21
-424.9514852044
 31
0.0
  0
ARC
  5
339
330
1F
100
AcDbEntity
  8
0
100
AcDbCircle
 10
-140.5437183088
 20
-425.5327338358
 30
0.0
 40
0.9999999999987587
100
AcDbArc
 50
305.5384127238
 51
35.5384127239
  0
LINE
  5
33A
330
1F
100
AcDbEntity
  8
0
100
AcDbLine
 10
-139.9624696774
 20
-426.3464598514
 30
0.0
 11
-140.6419845625
 21
-426.8318407898
 31
0.0
  0
LINE
  5
33B
330
1F
100
AcDbEntity
  8
0
100
AcDbLine
 10
-140.6419845625
 20
-426.8318407898
 30
0.0
 11
-140.3513602468
 21
-427.2387037976
 31
0.0
  0
LINE
  5
33C
330
1F
100
AcDbEntity
  8
0
100
AcDbLine
 10
-137.7914897763
 20
-427.6653151286
 30
0.0
 11
-137.3846267685
 21
-427.3746908129
 31
0.0
  0
LINE
  5
33D
330
1F
100
AcDbEntity
  8
0
100
AcDbLine
 10
-137.3846267685
 20
-427.3746908129
 30
0.0
 11
-137.8700077068
 21
-426.6951759277
 31
0.0
  0
ARC
  5
33E
330
1F
100
AcDbEntity
  8
0
100
AcDbCircle
 10
-137.0562816912
 20
-426.1139272963
 30
0.0
 40
1.00000000000009
100
AcDbArc
 50
125.5384127237
 51
215.5384127239
  0
LINE
  5
33F
330
1F
100
AcDbEntity
  8
0
100
AcDbLine
 10
-137.6375303226
 20
-425.3002012807
 30
0.0
 11
-136.9580154375
 21
-424.8148203423
 31
0.0
  0
LINE
  5
340
330
1F
100
AcDbEntity
  8
0
100
AcDbLine
 10
-136.9580154375
 20
-424.8148203423
 30
0.0
 11
-137.2486397532
 21
-424.4079573345
 31
0.0
  0
LINE
  5
341
330
1F
100
AcDbEntity
  8
0
100
AcDbLine
 10
111.8985486347
 20
-215.3774987311
 30
0.0
 11
112.2065637845
 21
-216.15368286
 31
0.0
  0
LINE
  5
342
330
1F
100
AcDbEntity
  8
0
100
AcDbLine
 10
111.64592665
 20
-217.4520225704
 30
0.0
 11
110.8697425211
 21
-217.7600377202
 31
0.0
  0
ARC
  5
343
330
1F
100
AcDbEntity
  8
0
100
AcDbCircle
 10
111.2770753621
 20
-216.522534148
 30
0.0
 40
1.000000000001017
100
AcDbArc
 50
291.6447906711
 51
21.6447906712
  0
CIRCLE
  5
344
330
1F
100
AcDbEntity
  8
0
100
AcDbCircle
 10
112.9
 20
-217.2233305661
 30
0.0
 40
4.100000000000007
  0
LINE
  5
345
330
1F
100
AcDbEntity
  8
0
100
AcDbLine
 10
110.8697425211
 20
-217.7600377202
 30
0.0
 11
111.0541681651
 21
-218.2247819314
 31
0.0
  0
LINE
  5
346
330
1F
100
AcDbEntity
  8
0
100
AcDbLine
 10
113.9014513653
 20
-219.069162401
 30
0.0
 11
113.5934362155
 21
-218.2929782721
 31
0.0
  0
ARC
  5
347
330
1F
100
AcDbEntity
  8
0
100
AcDbCircle
 10
114.5229246379
 20
-217.9241269841
 30
0.0
 40
1.000000000000344
100
AcDbArc
 50
111.6447906711
 51
201.6447906711
  0
LINE
  5
348
330
1F
100
AcDbEntity
  8
0
100
AcDbLine
 10
114.15407335
 20
-216.9946385617
 30
0.0
 11
114.9302574789
 21
-216.6866234119
 31
0.0
  0
LINE
  5
349
330
1F
100
AcDbEntity
  8
0
100
AcDbLine
 10
114.9302574789
 20
-216.6866234119
 30
0.0
 11
114.7458318349
 21
-216.2218792007
 31
0.0
  0
ARC
  5
34A
330
1F
100
AcDbEntity
  8
0
100
AcDbCircle
 10
113.6007964181
 20
-215.6004059281
 30
0.0
 40
1.000000000000105
100
AcDbArc
 50
201.644790671
 51
291.6447906712
  0
LINE
  5
34B
330
1F
100
AcDbEntity
  8
0
100
AcDbLine
 10
112.6713079957
 20
-215.9692572161
 30
0.0
 11
112.3632928459
 21
-215.1930730871
 31
0.0
  0
LINE
  5
34C
330
1F
100
AcDbEntity
  8
0
100
AcDbLine
 10
114.7458318349
 20
-216.2218792007
 30
0.0
 11
113.969647706
 21
-216.5298943505
 31
0.0
  0
LINE
  5
34D
330
1F
100
AcDbEntity
  8
0
100
AcDbLine
 10
111.0541681651
 20
-218.2247819314
 30
0.0
 11
111.830352294
 21
-217.9167667816
 31
0.0
  0
LINE
  5
34E
330
1F
100
AcDbEntity
  8
0
100
AcDbLine
 10
113.1286920043
 20
-218.477403916
 30
0.0
 11
113.4367071541
 21
-219.253588045
 31
0.0
  0
ARC
  5
34F
330
1F
100
AcDbEntity
  8
0
100
AcDbCircle
 10
112.1992035819
 20
-218.846255204
 30
0.0
 40
0.9999999999987945
100
AcDbArc
 50
21.644790671
 51
111.6447906711
  0
LINE
  5
350
330
1F
100
AcDbEntity
  8
0
100
AcDbLine
 10
113.4367071541
 20
-219.253588045
 30
0.0
 11
113.9014513653
 21
-219.069162401
 31
0.0
  0
LINE
  5
351
330
1F
100
AcDbEntity
  8
0
100
AcDbLine
 10
112.3632928459
 20
-215.1930730871
 30
0.0
 11
111.8985486347
 21
-215.3774987311
 31
0.0
  0
CIRCLE
  5
352
330
1F
100
AcDbEntity
  8
0
100
AcDbCircle
 10
364.6
 20
-217.223330566
 30
0.0
 40
4.100000000000059
  0
LINE
  5
353
330
1F
100
AcDbEntity
  8
0
100
AcDbLine
 10
363.5985486347
 20
-215.3774987311
 30
0.0
 11
363.9065637845
 21
-216.15368286
 31
0.0
  0
LINE
  5
354
330
1F
100
AcDbEntity
  8
0
100
AcDbLine
 10
363.34592665
 20
-217.4520225704
 30
0.0
 11
362.5697425211
 21
-217.7600377202
 31
0.0
  0
ARC
  5
355
330
1F
100
AcDbEntity
  8
0
100
AcDbCircle
 10
362.9770753621
 20
-216.522534148
 30
0.0
 40
1.000000000000991
100
AcDbArc
 50
291.6447906711
 51
21.6447906712
  0
LINE
  5
356
330
1F
100
AcDbEntity
  8
0
100
AcDbLine
 10
362.5697425211
 20
-217.7600377202
 30
0.0
 11
362.7541681651
 21
-218.2247819314
 31
0.0
  0
LINE
  5
357
330
1F
100
AcDbEntity
  8
0
100
AcDbLine
 10
365.6014513653
 20
-219.069162401
 30
0.0
 11
365.2934362155
 21
-218.2929782721
 31
0.0
  0
ARC
  5
358
330
1F
100
AcDbEntity
  8
0
100
AcDbCircle
 10
366.2229246379
 20
-217.9241269841
 30
0.0
 40
1.000000000000341
100
AcDbArc
 50
111.6447906711
 51
201.6447906711
  0
LINE
  5
359
330
1F
100
AcDbEntity
  8
0
100
AcDbLine
 10
365.85407335
 20
-216.9946385617
 30
0.0
 11
366.6302574789
 21
-216.6866234119
 31
0.0
  0
LINE
  5
35A
330
1F
100
AcDbEntity
  8
0
100
AcDbLine
 10
362.7541681651
 20
-218.2247819314
 30
0.0
 11
363.530352294
 21
-217.9167667816
 31
0.0
  0
ARC
  5
35B
330
1F
100
AcDbEntity
  8
0
100
AcDbCircle
 10
363.8992035819
 20
-218.846255204
 30
0.0
 40
0.9999999999988342
100
AcDbArc
 50
21.644790671
 51
111.6447906711
  0
LINE
  5
35C
330
1F
100
AcDbEntity
  8
0
100
AcDbLine
 10
364.8286920043
 20
-218.477403916
 30
0.0
 11
365.1367071541
 21
-219.253588045
 31
0.0
  0
LINE
  5
35D
330
1F
100
AcDbEntity
  8
0
100
AcDbLine
 10
366.4458318349
 20
-216.2218792007
 30
0.0
 11
365.669647706
 21
-216.5298943505
 31
0.0
  0
ARC
  5
35E
330
1F
100
AcDbEntity
  8
0
100
AcDbCircle
 10
365.3007964181
 20
-215.6004059281
 30
0.0
 40
1.000000000000084
100
AcDbArc
 50
201.644790671
 51
291.6447906712
  0
LINE
  5
35F
330
1F
100
AcDbEntity
  8
0
100
AcDbLine
 10
364.3713079957
 20
-215.9692572161
 30
0.0
 11
364.0632928459
 21
-215.1930730871
 31
0.0
  0
LINE
  5
360
330
1F
100
AcDbEntity
  8
0
100
AcDbLine
 10
366.6302574789
 20
-216.6866234119
 30
0.0
 11
366.4458318349
 21
-216.2218792007
 31
0.0
  0
LINE
  5
361
330
1F
100
AcDbEntity
  8
0
100
AcDbLine
 10
365.1367071541
 20
-219.253588045
 30
0.0
 11
365.6014513653
 21
-219.069162401
 31
0.0
  0
LINE
  5
362
330
1F
100
AcDbEntity
  8
0
100
AcDbLine
 10
364.0632928459
 20
-215.1930730871
 30
0.0
 11
363.5985486347
 21
-215.3774987311
 31
0.0
  0
CIRCLE
  5
363
330
1F
100
AcDbEntity
  8
0
100
AcDbCircle
 10
-163.8
 20
-257.223330566
 30
0.0
 40
4.099999999999969
  0
LINE
  5
364
330
1F
100
AcDbEntity
  8
0
100
AcDbLine
 10
-165.8945118846
 20
-257.3750538847
 30
0.0
 11
-165.0603688218
 21
-257.4143029018
 31
0.0
  0
LINE
  5
365
330
1F
100
AcDbEntity
  8
0
100
AcDbLine
 10
-164.1084750831
 20
-258.4601988384
 30
0.0
 11
-164.1477241002
 21
-259.2943419012
 31
0.0
  0
ARC
  5
366
330
1F
100
AcDbEntity
  8
0
100
AcDbCircle
 10
-165.1073699207
 20
-258.4131977395
 30
0.0
 40
1.000000000001036
100
AcDbArc
 50
357.3060429059
 51
87.306042906
  0
LINE
  5
367
330
1F
100
AcDbEntity
  8
0
100
AcDbLine
 10
-164.1477241002
 20
-259.2943419012
 30
0.0
 11
-163.6482766814
 21
-259.3178424506
 31
0.0
  0
LINE
  5
368
330
1F
100
AcDbEntity
  8
0
100
AcDbLine
 10
-163.4522758998
 20
-255.1523192309
 30
0.0
 11
-163.9517233186
 21
-255.1288186815
 31
0.0
  0
LINE
  5
369
330
1F
100
AcDbEntity
  8
0
100
AcDbLine
 10
-161.7289886649
 20
-257.5710546663
 30
0.0
 11
-161.7054881154
 21
-257.0716072474
 31
0.0
  0
ARC
  5
36A
330
1F
100
AcDbEntity
  8
0
100
AcDbCircle
 10
-164.9898671734
 20
-255.9159606453
 30
0.0
 40
1.000000000000106
100
AcDbArc
 50
267.3060429058
 51
357.306042906
  0
LINE
  5
36B
330
1F
100
AcDbEntity
  8
0
100
AcDbLine
 10
-165.0368682723
 20
-256.914855483
 30
0.0
 11
-165.8710113351
 21
-256.8756064658
 31
0.0
  0
LINE
  5
36C
330
1F
100
AcDbEntity
  8
0
100
AcDbLine
 10
-163.9517233186
 20
-255.1288186815
 30
0.0
 11
-163.9909723358
 21
-255.9629617442
 31
0.0
  0
ARC
  5
36D
330
1F
100
AcDbEntity
  8
0
100
AcDbCircle
 10
-162.4926300793
 20
-256.0334633926
 30
0.0
 40
1.000000000000324
100
AcDbArc
 50
177.306042906
 51
267.3060429059
  0
LINE
  5
36E
330
1F
100
AcDbEntity
  8
0
100
AcDbLine
 10
-163.4915249169
 20
-255.9864622937
 30
0.0
 11
-163.4522758998
 21
-255.1523192309
 31
0.0
  0
LINE
  5
36F
330
1F
100
AcDbEntity
  8
0
100
AcDbLine
 10
-161.7054881154
 20
-257.0716072474
 30
0.0
 11
-162.5396311782
 21
-257.0323582303
 31
0.0
  0
LINE
  5
370
330
1F
100
AcDbEntity
  8
0
100
AcDbLine
 10
-163.6482766814
 20
-259.3178424506
 30
0.0
 11
-163.6090276642
 21
-258.4836993879
 31
0.0
  0
ARC
  5
371
330
1F
100
AcDbEntity
  8
0
100
AcDbCircle
 10
-162.6101328266
 20
-258.5307004868
 30
0.0
 40
0.9999999999988296
100
AcDbArc
 50
87.3060429059
 51
177.306042906
  0
LINE
  5
372
330
1F
100
AcDbEntity
  8
0
100
AcDbLine
 10
-162.5631317277
 20
-257.5318056491
 30
0.0
 11
-161.7289886649
 21
-257.5710546663
 31
0.0
  0
LINE
  5
373
330
1F
100
AcDbEntity
  8
0
100
AcDbLine
 10
-165.8710113351
 20
-256.8756064658
 30
0.0
 11
-165.8945118846
 21
-257.3750538847
 31
0.0
  0
SPLINE
  5
374
330
1F
100
AcDbEntity
  8
0
100
AcDbSpline
210
0.0
220
0.0
230
1.0
 70
     8
 71
     3
 72
    12
 73
     8
 74
     0
 42
0.00000001
 43
0.00000001
 40
0.0
 40
0.0
 40
0.0
 40
0.0
 40
0.2255407622558911
 40
0.4511342019104577
 40
0.6767278442586683
 40
0.9023212728363886
 40
1.0
 40
1.0
 40
1.0
 40
1.0
 10
394.5999999999995
 20
-212.2233305660498
 30
0.0
 10
394.8007805262405
 20
-212.1587600562764
 30
0.0
 10
395.2023884731097
 20
-212.0296039556131
 30
0.0
 10
395.7305481892139
 20
-211.8358312776581
 30
0.0
 10
396.1157054958855
 20
-211.6421660207077
 30
0.0
 10
396.2826601528693
 20
-211.4847297755433
 30
0.0
 10
396.2959764089687
 20
-211.3925919494015
 30
0.0
 10
396.2999999999996
 20
-211.3647519222872
 30
0.0
  0
LINE
  5
375
330
1F
100
AcDbEntity
  8
0
100
AcDbLine
 10
396.3
 20
-431.7819092098
 30
0.0
 11
396.3
 21
-211.3647519223
 31
0.0
  0
SPLINE
  5
376
330
1F
100
AcDbEntity
  8
0
100
AcDbSpline
210
0.0
220
0.0
230
1.0
 70
     8
 71
     3
 72
    12
 73
     8
 74
     0
 42
0.00000001
 43
0.00000001
 40
0.0
 40
0.0
 40
0.0
 40
0.0
 40
0.2255407622558484
 40
0.4511342019104649
 40
0.6767278442586633
 40
0.9023212728364135
 40
1.0
 40
1.0
 40
1.0
 40
1.0
 10
396.2999999999996
 20
-431.7819092098126
 30
0.0
 10
396.2792422585404
 20
-431.7173387000391
 30
0.0
 10
396.2377219274351
 20
-431.5881825993758
 30
0.0
 10
395.915085895631
 20
-431.3944099214208
 30
0.0
 10
395.4444631352626
 20
-431.2007446644704
 30
0.0
 10
394.9731060388848
 20
-431.043308419306
 30
0.0
 10
394.6865766635852
 20
-430.9511705931642
 30
0.0
 10
394.5999999999995
 20
-430.9233305660499
 30
0.0
  0
SPLINE
  5
377
330
1F
100
AcDbEntity
  8
0
100
AcDbSpline
210
0.0
220
0.0
230
1.0
 70
     8
 71
     3
 72
    12
 73
     8
 74
     0
 42
0.00000001
 43
0.00000001
 40
0.0
 40
0.0
 40
0.0
 40
0.0
 40
0.2255407622558498
 40
0.4511342019104213
 40
0.6767278442586057
 40
0.9023212728363533
 40
1.0
 40
1.0
 40
1.0
 40
1.0
 10
395.4585786437622
 20
-210.5233305660498
 30
0.0
 10
395.3940081339888
 20
-210.544088307509
 30
0.0
 10
395.2648520333256
 20
-210.5856086386146
 30
0.0
 10
395.0710793553704
 20
-210.9082446704183
 30
0.0
 10
394.8774140984206
 20
-211.3788674307866
 30
0.0
 10
394.7199778532554
 20
-211.8502245271644
 30
0.0
 10
394.6278400271138
 20
-212.1367539024641
 30
0.0
 10
394.5999999999995
 20
-212.2233305660498
 30
0.0
  0
LINE
  5
378
330
1F
100
AcDbEntity
  8
0
100
AcDbLine
 10
395.4585786438
 20
-211.223330566
 30
0.0
 11
395.4585786438
 21
-210.523330566
 31
0.0
  0
SPLINE
  5
379
330
1F
100
AcDbEntity
  8
0
100
AcDbSpline
210
0.0
220
0.0
230
1.0
 70
     8
 71
     3
 72
    12
 73
     8
 74
     0
 42
0.00000001
 43
0.00000001
 40
0.0
 40
0.0
 40
0.0
 40
0.0
 40
0.201933541534862
 40
0.4467099568632519
 40
0.6915641992353244
 40
0.93641842093088
 40
1.0
 40
1.0
 40
1.0
 40
1.0
 10
395.4585786437623
 20
-211.2233305660499
 30
0.0
 10
395.4008646302775
 20
-211.2331757348573
 30
0.0
 10
395.2731918113973
 20
-211.2549548553534
 30
0.0
 10
395.0750059367183
 20
-211.4421491167588
 30
0.0
 10
394.8648496310765
 20
-211.7454275395208
 30
0.0
 10
394.7060082494151
 20
-212.0294057781384
 30
0.0
 10
394.6181178951774
 20
-212.19018683432
 30
0.0
 10
394.5999999999995
 20
-212.2233305660499
 30
0.0
  0
SPLINE
  5
37A
330
1F
100
AcDbEntity
  8
0
100
AcDbSpline
210
0.0
220
0.0
230
1.0
 70
     8
 71
     3
 72
    12
 73
     8
 74
     0
 42
0.00000001
 43
0.00000001
 40
0.0
 40
0.0
 40
0.0
 40
0.0
 40
0.2019335415348286
 40
0.4467099568632526
 40
0.69156419923524
 40
0.9364184209308126
 40
1.0
 40
1.0
 40
1.0
 40
1.0
 10
394.5999999999995
 20
-212.2233305660499
 30
0.0
 10
394.7055853345017
 20
-212.1656165525652
 30
0.0
 10
394.9391573298344
 20
-212.0379437336852
 30
0.0
 10
395.2618605958198
 20
-211.8397578590059
 30
0.0
 10
395.5063424167683
 20
-211.6296015533645
 30
0.0
 10
395.5939921785455
 20
-211.4707601717025
 30
0.0
 10
395.5989732018027
 20
-211.3828698174651
 30
0.0
 10
395.5999999999995
 20
-211.3647519222872
 30
0.0
  0
LINE
  5
37B
330
1F
100
AcDbEntity
  8
0
100
AcDbLine
 10
395.6
 20
-211.3647519223
 30
0.0
 11
396.3
 21
-211.3647519223
 31
0.0
  0
SPLINE
  5
37C
330
1F
100
AcDbEntity
  8
0
100
AcDbSpline
210
0.0
220
0.0
230
1.0
 70
     8
 71
     3
 72
    12
 73
     8
 74
     0
 42
0.00000001
 43
0.00000001
 40
0.0
 40
0.0
 40
0.0
 40
0.0
 40
0.2255407622558485
 40
0.451134201910436
 40
0.6767278442586404
 40
0.9023212728363608
 40
1.0
 40
1.0
 40
1.0
 40
1.0
 10
-168.8000000000005
 20
-212.2233305660499
 30
0.0
 10
-168.864570509774
 20
-212.0225500398089
 30
0.0
 10
-168.9937266104373
 20
-211.6209420929397
 30
0.0
 10
-169.1874992883922
 20
-211.0927823768354
 30
0.0
 10
-169.3811645453426
 20
-210.707625070164
 30
0.0
 10
-169.538600790507
 20
-210.54067041318
 30
0.0
 10
-169.6307386166489
 20
-210.5273541570807
 30
0.0
 10
-169.6585786437632
 20
-210.5233305660498
 30
0.0
  0
LINE
  5
37D
330
1F
100
AcDbEntity
  8
0
100
AcDbLine
 10
395.4585786438
 20
-210.523330566
 30
0.0
 11
-169.6585786438
 21
-210.523330566
 31
0.0
  0
SPLINE
  5
37E
330
1F
100
AcDbEntity
  8
0
100
AcDbSpline
210
0.0
220
0.0
230
1.0
 70
     8
 71
     3
 72
    12
 73
     8
 74
     0
 42
0.00000001
 43
0.00000001
 40
0.0
 40
0.0
 40
0.0
 40
0.0
 40
0.225540762255857
 40
0.4511342019104818
 40
0.676727844258712
 40
0.9023212728365007
 40
1.0
 40
1.0
 40
1.0
 40
1.0
 10
394.5999999999995
 20
-430.9233305660499
 30
0.0
 10
394.664570509773
 20
-431.1241110922909
 30
0.0
 10
394.7937266104364
 20
-431.52571903916
 30
0.0
 10
394.9874992883913
 20
-432.0538787552644
 30
0.0
 10
395.1811645453416
 20
-432.4390360619358
 30
0.0
 10
395.3386007905062
 20
-432.6059907189198
 30
0.0
 10
395.430738616648
 20
-432.6193069750191
 30
0.0
 10
395.4585786437623
 20
-432.6233305660498
 30
0.0
  0
SPLINE
  5
37F
330
1F
100
AcDbEntity
  8
0
100
AcDbSpline
210
0.0
220
0.0
230
1.0
 70
     8
 71
     3
 72
    12
 73
     8
 74
     0
 42
0.00000001
 43
0.00000001
 40
0.0
 40
0.0
 40
0.0
 40
0.0
 40
0.2019335415348639
 40
0.4467099568632655
 40
0.6915641992352819
 40
0.936418420930761
 40
1.0
 40
1.0
 40
1.0
 40
1.0
 10
394.5999999999995
 20
-430.9233305660498
 30
0.0
 10
394.6577140134842
 20
-431.028915900552
 30
0.0
 10
394.7853868323642
 20
-431.2624878958846
 30
0.0
 10
394.9835727070436
 20
-431.5851911618699
 30
0.0
 10
395.1937290126849
 20
-431.8296729828187
 30
0.0
 10
395.3525703943469
 20
-431.9173227445957
 30
0.0
 10
395.4404607485843
 20
-431.922303767853
 30
0.0
 10
395.4585786437622
 20
-431.9233305660499
 30
0.0
  0
LINE
  5
380
330
1F
100
AcDbEntity
  8
0
100
AcDbLine
 10
395.4585786438
 20
-431.923330566
 30
0.0
 11
395.4585786438
 21
-432.623330566
 31
0.0
  0
LINE
  5
381
330
1F
100
AcDbEntity
  8
0
100
AcDbLine
 10
-169.6585786438
 20
-432.623330566
 30
0.0
 11
395.4585786438
 21
-432.623330566
 31
0.0
  0
SPLINE
  5
382
330
1F
100
AcDbEntity
  8
0
100
AcDbSpline
210
0.0
220
0.0
230
1.0
 70
     8
 71
     3
 72
    12
 73
     8
 74
     0
 42
0.00000001
 43
0.00000001
 40
0.0
 40
0.0
 40
0.0
 40
0.0
 40
0.2255407622558437
 40
0.4511342019104468
 40
0.6767278442586412
 40
0.9023212728363714
 40
1.0
 40
1.0
 40
1.0
 40
1.0
 10
-169.6585786437632
 20
-432.6233305660498
 30
0.0
 10
-169.5940081339898
 20
-432.6025728245907
 30
0.0
 10
-169.4648520333265
 20
-432.5610524934853
 30
0.0
 10
-169.2710793553716
 20
-432.2384164616814
 30
0.0
 10
-169.0774140984213
 20
-431.7677937013131
 30
0.0
 10
-168.9199778532565
 20
-431.2964366049351
 30
0.0
 10
-168.8278400271149
 20
-431.0099072296356
 30
0.0
 10
-168.8000000000006
 20
-430.9233305660499
 30
0.0
  0
LINE
  5
383
330
1F
100
AcDbEntity
  8
0
100
AcDbLine
 10
395.6
 20
-431.7819092098
 30
0.0
 11
396.3
 21
-431.7819092098
 31
0.0
  0
SPLINE
  5
384
330
1F
100
AcDbEntity
  8
0
100
AcDbSpline
210
0.0
220
0.0
230
1.0
 70
     8
 71
     3
 72
    12
 73
     8
 74
     0
 42
0.00000001
 43
0.00000001
 40
0.0
 40
0.0
 40
0.0
 40
0.0
 40
0.2019335415348558
 40
0.446709956863256
 40
0.6915641992353311
 40
0.9364184209308456
 40
1.0
 40
1.0
 40
1.0
 40
1.0
 10
395.5999999999995
 20
-431.7819092098126
 30
0.0
 10
395.590154831192
 20
-431.7241951963278
 30
0.0
 10
395.568375710696
 20
-431.5965223774479
 30
0.0
 10
395.3811814492907
 20
-431.3983365027686
 30
0.0
 10
395.0779030265284
 20
-431.1881801971271
 30
0.0
 10
394.7939247879111
 20
-431.0293388154655
 30
0.0
 10
394.6331437317294
 20
-430.9414484612277
 30
0.0
 10
394.5999999999995
 20
-430.9233305660498
 30
0.0
  0
SPLINE
  5
385
330
1F
100
AcDbEntity
  8
0
100
AcDbSpline
210
0.0
220
0.0
230
1.0
 70
     8
 71
     3
 72
    12
 73
     8
 74
     0
 42
0.00000001
 43
0.00000001
 40
0.0
 40
0.0
 40
0.0
 40
0.0
 40
0.2255407622558499
 40
0.4511342019104517
 40
0.6767278442586544
 40
0.9023212728363882
 40
1.0
 40
1.0
 40
1.0
 40
1.0
 10
-168.8000000000005
 20
-430.9233305660498
 30
0.0
 10
-169.0007805262415
 20
-430.9879010758233
 30
0.0
 10
-169.4023884731106
 20
-431.1170571764866
 30
0.0
 10
-169.9305481892149
 20
-431.3108298544416
 30
0.0
 10
-170.3157054958864
 20
-431.5044951113919
 30
0.0
 10
-170.4826601528704
 20
-431.6619313565564
 30
0.0
 10
-170.4959764089697
 20
-431.7540691826982
 30
0.0
 10
-170.5000000000005
 20
-431.7819092098125
 30
0.0
  0
LINE
  5
386
330
1F
100
AcDbEntity
  8
0
100
AcDbLine
 10
-170.5
 20
-431.7819092098
 30
0.0
 11
-170.5
 21
-211.3647519223
 31
0.0
  0
SPLINE
  5
387
330
1F
100
AcDbEntity
  8
0
100
AcDbSpline
210
0.0
220
0.0
230
1.0
 70
     8
 71
     3
 72
    12
 73
     8
 74
     0
 42
0.00000001
 43
0.00000001
 40
0.0
 40
0.0
 40
0.0
 40
0.0
 40
0.225540762255854
 40
0.4511342019104581
 40
0.6767278442586646
 40
0.9023212728363977
 40
1.0
 40
1.0
 40
1.0
 40
1.0
 10
-170.5000000000005
 20
-211.3647519222872
 30
0.0
 10
-170.4792422585413
 20
-211.4293224320606
 30
0.0
 10
-170.4377219274359
 20
-211.5584785327239
 30
0.0
 10
-170.1150858956319
 20
-211.7522512106789
 30
0.0
 10
-169.6444631352637
 20
-211.9459164676292
 30
0.0
 10
-169.1731060388859
 20
-212.1033527127937
 30
0.0
 10
-168.8865766635862
 20
-212.1954905389355
 30
0.0
 10
-168.8000000000005
 20
-212.2233305660499
 30
0.0
  0
LINE
  5
388
330
1F
100
AcDbEntity
  8
0
100
AcDbLine
 10
-169.8
 20
-211.3647519223
 30
0.0
 11
-170.5
 21
-211.3647519223
 31
0.0
  0
SPLINE
  5
389
330
1F
100
AcDbEntity
  8
0
100
AcDbSpline
210
0.0
220
0.0
230
1.0
 70
     8
 71
     3
 72
    12
 73
     8
 74
     0
 42
0.00000001
 43
0.00000001
 40
0.0
 40
0.0
 40
0.0
 40
0.0
 40
0.2019335415348369
 40
0.446709956863249
 40
0.6915641992352768
 40
0.936418420930808
 40
1.0
 40
1.0
 40
1.0
 40
1.0
 10
-169.8000000000005
 20
-211.3647519222872
 30
0.0
 10
-169.7901548311931
 20
-211.4224659357718
 30
0.0
 10
-169.768375710697
 20
-211.5501387546518
 30
0.0
 10
-169.5811814492916
 20
-211.7483246293312
 30
0.0
 10
-169.2779030265295
 20
-211.9584809349724
 30
0.0
 10
-168.9939247879123
 20
-212.1173223166345
 30
0.0
 10
-168.8331437317304
 20
-212.2052126708719
 30
0.0
 10
-168.8000000000005
 20
-212.2233305660498
 30
0.0
  0
SPLINE
  5
38A
330
1F
100
AcDbEntity
  8
0
100
AcDbSpline
210
0.0
220
0.0
230
1.0
 70
     8
 71
     3
 72
    12
 73
     8
 74
     0
 42
0.00000001
 43
0.00000001
 40
0.0
 40
0.0
 40
0.0
 40
0.0
 40
0.2019335415348445
 40
0.4467099568632239
 40
0.6915641992352771
 40
0.9364184209308193
 40
1.0
 40
1.0
 40
1.0
 40
1.0
 10
-168.8000000000005
 20
-212.2233305660498
 30
0.0
 10
-168.8577140134853
 20
-212.1177452315476
 30
0.0
 10
-168.9853868323653
 20
-211.884173236215
 30
0.0
 10
-169.1835727070444
 20
-211.5614699702298
 30
0.0
 10
-169.3937290126859
 20
-211.3169881492809
 30
0.0
 10
-169.5525703943478
 20
-211.229338387504
 30
0.0
 10
-169.6404607485854
 20
-211.2243573642467
 30
0.0
 10
-169.6585786437632
 20
-211.2233305660499
 30
0.0
  0
LINE
  5
38B
330
1F
100
AcDbEntity
  8
0
100
AcDbLine
 10
-169.6585786438
 20
-211.223330566
 30
0.0
 11
-169.6585786438
 21
-210.523330566
 31
0.0
  0
LINE
  5
38C
330
1F
100
AcDbEntity
  8
0
100
AcDbLine
 10
-169.6585786438
 20
-431.923330566
 30
0.0
 11
-169.6585786438
 21
-432.623330566
 31
0.0
  0
SPLINE
  5
38D
330
1F
100
AcDbEntity
  8
0
100
AcDbSpline
210
0.0
220
0.0
230
1.0
 70
     8
 71
     3
 72
    12
 73
     8
 74
     0
 42
0.00000001
 43
0.00000001
 40
0.0
 40
0.0
 40
0.0
 40
0.0
 40
0.2019335415348336
 40
0.4467099568632445
 40
0.6915641992352656
 40
0.9364184209308087
 40
1.0
 40
1.0
 40
1.0
 40
1.0
 10
-169.6585786437633
 20
-431.9233305660499
 30
0.0
 10
-169.6008646302785
 20
-431.9134853972425
 30
0.0
 10
-169.4731918113985
 20
-431.8917062767464
 30
0.0
 10
-169.2750059367193
 20
-431.704512015341
 30
0.0
 10
-169.0648496310779
 20
-431.401233592579
 30
0.0
 10
-168.9060082494159
 20
-431.1172553539615
 30
0.0
 10
-168.8181178951784
 20
-430.9564742977797
 30
0.0
 10
-168.8000000000005
 20
-430.9233305660499
 30
0.0
  0
SPLINE
  5
38E
330
1F
100
AcDbEntity
  8
0
100
AcDbSpline
210
0.0
220
0.0
230
1.0
 70
     8
 71
     3
 72
    12
 73
     8
 74
     0
 42
0.00000001
 43
0.00000001
 40
0.0
 40
0.0
 40
0.0
 40
0.0
 40
0.2019335415348493
 40
0.4467099568632572
 40
0.6915641992352791
 40
0.9364184209308277
 40
1.0
 40
1.0
 40
1.0
 40
1.0
 10
-168.8000000000005
 20
-430.9233305660499
 30
0.0
 10
-168.9055853345027
 20
-430.9810445795346
 30
0.0
 10
-169.1391573298353
 20
-431.1087173984146
 30
0.0
 10
-169.4618605958206
 20
-431.3069032730938
 30
0.0
 10
-169.7063424167695
 20
-431.5170595787353
 30
0.0
 10
-169.7939921785465
 20
-431.6759009603971
 30
0.0
 10
-169.7989732018036
 20
-431.7637913146346
 30
0.0
 10
-169.8000000000005
 20
-431.7819092098125
 30
0.0
  0
LINE
  5
38F
330
1F
100
AcDbEntity
  8
0
100
AcDbLine
 10
-169.8
 20
-431.7819092098
 30
0.0
 11
-170.5
 21
-431.7819092098
 31
0.0
  0
LINE
  5
390
330
1F
100
AcDbEntity
  8
0
100
AcDbLine
 10
-194.7
 20
-343.1552305661
 30
0.0
 11
-194.7
 21
-354.6440412398
 31
0.0
  0
LINE
  5
391
330
1F
100
AcDbEntity
  8
0
100
AcDbLine
 10
220.2458976818
 20
-458.2233308682
 30
0.0
 11
-51.5
 21
-458.2233308682
 31
0.0
  0
LINE
  5
392
330
1F
100
AcDbEntity
  8
0
100
AcDbLine
 10
277.3
 20
-458.2233308682
 30
0.0
 11
220.2458976818
 21
-458.2233308682
 31
0.0
  0
LINE
  5
393
330
1F
100
AcDbEntity
  8
0
100
AcDbLine
 10
220.2458976818
 20
-462.4233308682
 30
0.0
 11
-51.5
 21
-462.4233308682
 31
0.0
  0
LINE
  5
394
330
1F
100
AcDbEntity
  8
0
100
AcDbLine
 10
277.3
 20
-462.4233308682
 30
0.0
 11
220.2458976818
 21
-462.4233308682
 31
0.0
  0
LINE
  5
395
330
1F
100
AcDbEntity
  8
0
100
AcDbLine
 10
-51.5
 20
-180.6233302638
 30
0.0
 11
277.3
 21
-180.6233302638
 31
0.0
  0
LINE
  5
396
330
1F
100
AcDbEntity
  8
0
100
AcDbLine
 10
-51.5
 20
-184.8233302638
 30
0.0
 11
277.3
 21
-184.8233302638
 31
0.0
  0
LINE
  5
397
330
1F
100
AcDbEntity
  8
0
100
AcDbLine
 10
270.4
 20
-465.2233305661
 30
0.0
 11
-44.6
 21
-465.2233305661
 31
0.0
  0
LINE
  5
398
330
1F
100
AcDbEntity
  8
0
100
AcDbLine
 10
270.3499485996
 20
-446.9022992264
 30
0.0
 11
-44.5499485996
 21
-446.9022992264
 31
0.0
  0
LINE
  5
399
330
1F
100
AcDbEntity
  8
0
100
AcDbLine
 10
268.6063834938
 20
-448.6458643322
 30
0.0
 11
-42.8063834938
 21
-448.6458643322
 31
0.0
  0
LINE
  5
39A
330
1F
100
AcDbEntity
  8
0
100
AcDbLine
 10
266.5992451863
 20
-455.6681981315
 30
0.0
 11
-40.7992451863
 21
-455.6681981315
 31
0.0
  0
LINE
  5
39B
330
1F
100
AcDbEntity
  8
0
100
AcDbLine
 10
-44.6
 20
-177.823330566
 30
0.0
 11
270.4
 21
-177.823330566
 31
0.0
  0
LINE
  5
39C
330
1F
100
AcDbEntity
  8
0
100
AcDbLine
 10
-44.5499485996
 20
-196.1443619057
 30
0.0
 11
270.3499485996
 21
-196.1443619057
 31
0.0
  0
LINE
  5
39D
330
1F
100
AcDbEntity
  8
0
100
AcDbLine
 10
-42.8063834938
 20
-194.4007967999
 30
0.0
 11
268.6063834938
 21
-194.4007967999
 31
0.0
  0
LINE
  5
39E
330
1F
100
AcDbEntity
  8
0
100
AcDbLine
 10
-40.7992451863
 20
-187.3784630006
 30
0.0
 11
266.5992451863
 21
-187.3784630006
 31
0.0
  0
LINE
  5
39F
330
1F
100
AcDbEntity
  8
0
100
AcDbLine
 10
-207.3
 20
-317.2052305661
 30
0.0
 11
-207.3
 21
-342.2052305661
 31
0.0
  0
LINE
  5
3A0
330
1F
100
AcDbEntity
  8
0
100
AcDbLine
 10
-207.3
 20
-265.2052305664
 30
0.0
 11
-207.3
 21
-290.2052305664
 31
0.0
  0
LINE
  5
3A1
330
1F
100
AcDbEntity
  8
0
100
AcDbLine
 10
-197.3
 20
-329.3933047667
 30
0.0
 11
-197.3
 21
-344.7052305661
 31
0.0
  0
LINE
  5
3A2
330
1F
100
AcDbEntity
  8
0
100
AcDbLine
 10
-197.3
 20
-314.7052305661
 30
0.0
 11
-197.3
 21
-329.3933047667
 31
0.0
  0
LINE
  5
3A3
330
1F
100
AcDbEntity
  8
0
100
AcDbLine
 10
-197.7
 20
-329.3933047667
 30
0.0
 11
-197.7
 21
-344.7052305661
 31
0.0
  0
LINE
  5
3A4
330
1F
100
AcDbEntity
  8
0
100
AcDbLine
 10
-197.7
 20
-314.7052305661
 30
0.0
 11
-197.7
 21
-329.3933047667
 31
0.0
  0
LINE
  5
3A5
330
1F
100
AcDbEntity
  8
0
100
AcDbLine
 10
-197.3
 20
-283.7045168919
 30
0.0
 11
-197.3
 21
-292.7052305664
 31
0.0
  0
LINE
  5
3A6
330
1F
100
AcDbEntity
  8
0
100
AcDbLine
 10
-197.3
 20
-262.7052305664
 30
0.0
 11
-197.3
 21
-283.7045168919
 31
0.0
  0
LINE
  5
3A7
330
1F
100
AcDbEntity
  8
0
100
AcDbLine
 10
-197.7
 20
-283.7045168919
 30
0.0
 11
-197.7
 21
-292.7052305664
 31
0.0
  0
LINE
  5
3A8
330
1F
100
AcDbEntity
  8
0
100
AcDbLine
 10
-197.7
 20
-262.7052305664
 30
0.0
 11
-197.7
 21
-283.7045168919
 31
0.0
  0
LINE
  5
3A9
330
1F
100
AcDbEntity
  8
0
100
AcDbLine
 10
-189.6
 20
-291.2052305664
 30
0.0
 11
-184.2
 21
-291.2052305664
 31
0.0
  0
LINE
  5
3AA
330
1F
100
AcDbEntity
  8
0
100
AcDbLine
 10
-189.6
 20
-291.2052305664
 30
0.0
 11
-189.6
 21
-277.7052305664
 31
0.0
  0
LINE
  5
3AB
330
1F
100
AcDbEntity
  8
0
100
AcDbLine
 10
-189.6
 20
-277.7052305664
 30
0.0
 11
-184.2
 21
-277.7052305664
 31
0.0
  0
LINE
  5
3AC
330
1F
100
AcDbEntity
  8
0
100
AcDbLine
 10
-184.2
 20
-291.2052305664
 30
0.0
 11
-184.2
 21
-277.7052305664
 31
0.0
  0
LINE
  5
3AD
330
1F
100
AcDbEntity
  8
0
100
AcDbLine
 10
-189.6
 20
-277.7052305664
 30
0.0
 11
-189.6
 21
-264.2052305664
 31
0.0
  0
LINE
  5
3AE
330
1F
100
AcDbEntity
  8
0
100
AcDbLine
 10
-189.6
 20
-264.2052305664
 30
0.0
 11
-184.2
 21
-264.2052305664
 31
0.0
  0
LINE
  5
3AF
330
1F
100
AcDbEntity
  8
0
100
AcDbLine
 10
-184.2
 20
-277.7052305664
 30
0.0
 11
-184.2
 21
-264.2052305664
 31
0.0
  0
LINE
  5
3B0
330
1F
100
AcDbEntity
  8
0
100
AcDbLine
 10
-176.7
 20
-290.4552305664
 30
0.0
 11
-176.7
 21
-264.9552305664
 31
0.0
  0
LINE
  5
3B1
330
1F
100
AcDbEntity
  8
0
100
AcDbLine
 10
-175.95
 20
-265.7052305664
 30
0.0
 11
-175.95
 21
-289.7052305664
 31
0.0
  0
LINE
  5
3B2
330
1F
100
AcDbEntity
  8
0
100
AcDbLine
 10
-189.6
 20
-329.7052305661
 30
0.0
 11
-184.2
 21
-329.7052305661
 31
0.0
  0
LINE
  5
3B3
330
1F
100
AcDbEntity
  8
0
100
AcDbLine
 10
-189.6
 20
-329.7052305661
 30
0.0
 11
-189.6
 21
-316.2052305661
 31
0.0
  0
LINE
  5
3B4
330
1F
100
AcDbEntity
  8
0
100
AcDbLine
 10
-189.6
 20
-316.2052305661
 30
0.0
 11
-184.2
 21
-316.2052305661
 31
0.0
  0
LINE
  5
3B5
330
1F
100
AcDbEntity
  8
0
100
AcDbLine
 10
-184.2
 20
-329.7052305661
 30
0.0
 11
-184.2
 21
-316.2052305661
 31
0.0
  0
LINE
  5
3B6
330
1F
100
AcDbEntity
  8
0
100
AcDbLine
 10
-189.6
 20
-343.2052305661
 30
0.0
 11
-184.2
 21
-343.2052305661
 31
0.0
  0
LINE
  5
3B7
330
1F
100
AcDbEntity
  8
0
100
AcDbLine
 10
-189.6
 20
-343.2052305661
 30
0.0
 11
-189.6
 21
-329.7052305661
 31
0.0
  0
LINE
  5
3B8
330
1F
100
AcDbEntity
  8
0
100
AcDbLine
 10
-184.2
 20
-343.2052305661
 30
0.0
 11
-184.2
 21
-329.7052305661
 31
0.0
  0
LINE
  5
3B9
330
1F
100
AcDbEntity
  8
0
100
AcDbLine
 10
-176.7
 20
-342.4552305661
 30
0.0
 11
-176.7
 21
-316.9552305661
 31
0.0
  0
LINE
  5
3BA
330
1F
100
AcDbEntity
  8
0
100
AcDbLine
 10
-175.95
 20
-317.7052305661
 30
0.0
 11
-175.95
 21
-341.7052305661
 31
0.0
  0
ARC
  5
3BB
330
1F
100
AcDbEntity
  8
0
  6
PHANTOM
 62
     8
370
    18
100
AcDbCircle
 10
-163.8
 20
-321.5733305661
 30
0.0
 40
2.100000000001197
100
AcDbArc
 50
276.8371411682
 51
353.1628588318
  0
ARC
  5
3BC
330
1F
100
AcDbEntity
  8
0
  6
PHANTOM
 62
     8
370
    18
100
AcDbCircle
 10
-163.8
 20
-321.5733305661
 30
0.0
 40
2.100000000001197
100
AcDbArc
 50
353.1628588318
 51
6.8371411681
  0
ARC
  5
3BD
330
1F
100
AcDbEntity
  8
0
  6
PHANTOM
 62
     8
370
    18
100
AcDbCircle
 10
-163.8
 20
-321.5733305661
 30
0.0
 40
2.099999999999557
100
AcDbArc
 50
6.8371411681
 51
83.1628588318
  0
ARC
  5
3BE
330
1F
100
AcDbEntity
  8
0
  6
PHANTOM
 62
     8
370
    18
100
AcDbCircle
 10
-163.8
 20
-321.5733305661
 30
0.0
 40
2.099999999999004
100
AcDbArc
 50
83.1628588318
 51
96.8371411681
  0
ARC
  5
3BF
330
1F
100
AcDbEntity
  8
0
  6
PHANTOM
 62
     8
370
    18
100
AcDbCircle
 10
-163.8
 20
-321.5733305661
 30
0.0
 40
2.099999999999004
100
AcDbArc
 50
96.8371411681
 51
173.1628588319
  0
ARC
  5
3C0
330
1F
100
AcDbEntity
  8
0
  6
PHANTOM
 62
     8
370
    18
100
AcDbCircle
 10
-163.8
 20
-321.5733305661
 30
0.0
 40
2.099999999998449
100
AcDbArc
 50
173.1628588319
 51
186.8371411682
  0
ARC
  5
3C1
330
1F
100
AcDbEntity
  8
0
  6
PHANTOM
 62
     8
370
    18
100
AcDbCircle
 10
-163.8
 20
-321.5733305661
 30
0.0
 40
2.099999999999606
100
AcDbArc
 50
186.8371411682
 51
263.1628588319
  0
ARC
  5
3C2
330
1F
100
AcDbEntity
  8
0
  6
PHANTOM
 62
     8
370
    18
100
AcDbCircle
 10
-163.8
 20
-321.5733305661
 30
0.0
 40
2.099999999999948
100
AcDbArc
 50
263.1628588319
 51
276.8371411682
  0
ARC
  5
3C3
330
1F
100
AcDbEntity
  8
0
  6
PHANTOM
 62
     8
370
    18
100
AcDbCircle
 10
-163.8
 20
-385.823330566
 30
0.0
 40
2.100000000001204
100
AcDbArc
 50
9.5310982623
 51
85.8568159259
  0
ARC
  5
3C4
330
1F
100
AcDbEntity
  8
0
  6
PHANTOM
 62
     8
370
    18
100
AcDbCircle
 10
-163.8
 20
-385.823330566
 30
0.0
 40
2.100000000001204
100
AcDbArc
 50
85.8568159259
 51
99.5310982622
  0
ARC
  5
3C5
330
1F
100
AcDbEntity
  8
0
  6
PHANTOM
 62
     8
370
    18
100
AcDbCircle
 10
-163.8
 20
-385.823330566
 30
0.0
 40
2.09999999999959
100
AcDbArc
 50
99.5310982622
 51
175.8568159259
  0
ARC
  5
3C6
330
1F
100
AcDbEntity
  8
0
  6
PHANTOM
 62
     8
370
    18
100
AcDbCircle
 10
-163.8
 20
-385.823330566
 30
0.0
 40
2.099999999998991
100
AcDbArc
 50
175.8568159259
 51
189.5310982622
  0
ARC
  5
3C7
330
1F
100
AcDbEntity
  8
0
  6
PHANTOM
 62
     8
370
    18
100
AcDbCircle
 10
-163.8
 20
-385.823330566
 30
0.0
 40
2.099999999998991
100
AcDbArc
 50
189.5310982622
 51
265.856815926
  0
ARC
  5
3C8
330
1F
100
AcDbEntity
  8
0
  6
PHANTOM
 62
     8
370
    18
100
AcDbCircle
 10
-163.8
 20
-385.823330566
 30
0.0
 40
2.099999999998411
100
AcDbArc
 50
265.856815926
 51
279.5310982623
  0
ARC
  5
3C9
330
1F
100
AcDbEntity
  8
0
  6
PHANTOM
 62
     8
370
    18
100
AcDbCircle
 10
-163.8
 20
-385.823330566
 30
0.0
 40
2.099999999999569
100
AcDbArc
 50
279.5310982623
 51
355.856815926
  0
ARC
  5
3CA
330
1F
100
AcDbEntity
  8
0
  6
PHANTOM
 62
     8
370
    18
100
AcDbCircle
 10
-163.8
 20
-385.823330566
 30
0.0
 40
2.099999999999946
100
AcDbArc
 50
355.856815926
 51
9.5310982623
  0
ARC
  5
3CB
330
1F
100
AcDbEntity
  8
0
  6
PHANTOM
 62
     8
370
    18
100
AcDbCircle
 10
389.6
 20
-385.823330566
 30
0.0
 40
2.100000000001208
100
AcDbArc
 50
75.1923504971
 51
151.5180681608
  0
ARC
  5
3CC
330
1F
100
AcDbEntity
  8
0
  6
PHANTOM
 62
     8
370
    18
100
AcDbCircle
 10
389.6
 20
-385.823330566
 30
0.0
 40
2.100000000001208
100
AcDbArc
 50
151.5180681608
 51
165.1923504971
  0
ARC
  5
3CD
330
1F
100
AcDbEntity
  8
0
  6
PHANTOM
 62
     8
370
    18
100
AcDbCircle
 10
389.6
 20
-385.823330566
 30
0.0
 40
2.099999999999612
100
AcDbArc
 50
165.1923504971
 51
241.5180681608
  0
ARC
  5
3CE
330
1F
100
AcDbEntity
  8
0
  6
PHANTOM
 62
     8
370
    18
100
AcDbCircle
 10
389.6
 20
-385.823330566
 30
0.0
 40
2.099999999999072
100
AcDbArc
 50
241.5180681608
 51
255.192350497
  0
ARC
  5
3CF
330
1F
100
AcDbEntity
  8
0
  6
PHANTOM
 62
     8
370
    18
100
AcDbCircle
 10
389.6
 20
-385.823330566
 30
0.0
 40
2.099999999999072
100
AcDbArc
 50
255.192350497
 51
331.5180681608
  0
ARC
  5
3D0
330
1F
100
AcDbEntity
  8
0
  6
PHANTOM
 62
     8
370
    18
100
AcDbCircle
 10
389.6
 20
-385.823330566
 30
0.0
 40
2.099999999998459
100
AcDbArc
 50
331.5180681608
 51
345.1923504971
  0
ARC
  5
3D1
330
1F
100
AcDbEntity
  8
0
  6
PHANTOM
 62
     8
370
    18
100
AcDbCircle
 10
389.6
 20
-385.823330566
 30
0.0
 40
2.099999999999498
100
AcDbArc
 50
345.1923504971
 51
61.5180681608
  0
ARC
  5
3D2
330
1F
100
AcDbEntity
  8
0
  6
PHANTOM
 62
     8
370
    18
100
AcDbCircle
 10
389.6
 20
-385.823330566
 30
0.0
 40
2.099999999999863
100
AcDbArc
 50
61.5180681608
 51
75.1923504971
  0
ARC
  5
3D3
330
1F
100
AcDbEntity
  8
0
  6
PHANTOM
 62
     8
370
    18
100
AcDbCircle
 10
364.6
 20
-425.823330566
 30
0.0
 40
2.100000000001208
100
AcDbArc
 50
75.1923504971
 51
151.5180681608
  0
ARC
  5
3D4
330
1F
100
AcDbEntity
  8
0
  6
PHANTOM
 62
     8
370
    18
100
AcDbCircle
 10
364.6
 20
-425.823330566
 30
0.0
 40
2.100000000001208
100
AcDbArc
 50
151.5180681608
 51
165.1923504971
  0
ARC
  5
3D5
330
1F
100
AcDbEntity
  8
0
  6
PHANTOM
 62
     8
370
    18
100
AcDbCircle
 10
364.6
 20
-425.823330566
 30
0.0
 40
2.099999999999598
100
AcDbArc
 50
165.1923504971
 51
241.5180681607
  0
ARC
  5
3D6
330
1F
100
AcDbEntity
  8
0
  6
PHANTOM
 62
     8
370
    18
100
AcDbCircle
 10
364.6
 20
-425.823330566
 30
0.0
 40
2.099999999999017
100
AcDbArc
 50
241.5180681607
 51
255.192350497
  0
ARC
  5
3D7
330
1F
100
AcDbEntity
  8
0
  6
PHANTOM
 62
     8
370
    18
100
AcDbCircle
 10
364.6
 20
-425.823330566
 30
0.0
 40
2.099999999999017
100
AcDbArc
 50
255.192350497
 51
331.5180681608
  0
ARC
  5
3D8
330
1F
100
AcDbEntity
  8
0
  6
PHANTOM
 62
     8
370
    18
100
AcDbCircle
 10
364.6
 20
-425.823330566
 30
0.0
 40
2.099999999998409
100
AcDbArc
 50
331.5180681608
 51
345.1923504971
  0
ARC
  5
3D9
330
1F
100
AcDbEntity
  8
0
  6
PHANTOM
 62
     8
370
    18
100
AcDbCircle
 10
364.6
 20
-425.823330566
 30
0.0
 40
2.099999999999548
100
AcDbArc
 50
345.1923504971
 51
61.5180681608
  0
ARC
  5
3DA
330
1F
100
AcDbEntity
  8
0
  6
PHANTOM
 62
     8
370
    18
100
AcDbCircle
 10
364.6
 20
-425.823330566
 30
0.0
 40
2.099999999999904
100
AcDbArc
 50
61.5180681608
 51
75.1923504971
  0
ARC
  5
3DB
330
1F
100
AcDbEntity
  8
0
  6
PHANTOM
 62
     8
370
    18
100
AcDbCircle
 10
112.9
 20
-425.823330566
 30
0.0
 40
2.100000000001197
100
AcDbArc
 50
75.1923504971
 51
151.5180681608
  0
ARC
  5
3DC
330
1F
100
AcDbEntity
  8
0
  6
PHANTOM
 62
     8
370
    18
100
AcDbCircle
 10
112.9
 20
-425.823330566
 30
0.0
 40
2.100000000001197
100
AcDbArc
 50
151.5180681608
 51
165.1923504971
  0
ARC
  5
3DD
330
1F
100
AcDbEntity
  8
0
  6
PHANTOM
 62
     8
370
    18
100
AcDbCircle
 10
112.9
 20
-425.823330566
 30
0.0
 40
2.099999999999556
100
AcDbArc
 50
165.1923504971
 51
241.5180681608
  0
ARC
  5
3DE
330
1F
100
AcDbEntity
  8
0
  6
PHANTOM
 62
     8
370
    18
100
AcDbCircle
 10
112.9
 20
-425.823330566
 30
0.0
 40
2.099999999999003
100
AcDbArc
 50
241.5180681608
 51
255.192350497
  0
ARC
  5
3DF
330
1F
100
AcDbEntity
  8
0
  6
PHANTOM
 62
     8
370
    18
100
AcDbCircle
 10
112.9
 20
-425.823330566
 30
0.0
 40
2.099999999999003
100
AcDbArc
 50
255.192350497
 51
331.5180681608
  0
ARC
  5
3E0
330
1F
100
AcDbEntity
  8
0
  6
PHANTOM
 62
     8
370
    18
100
AcDbCircle
 10
112.9
 20
-425.823330566
 30
0.0
 40
2.099999999998459
100
AcDbArc
 50
331.5180681608
 51
345.1923504971
  0
ARC
  5
3E1
330
1F
100
AcDbEntity
  8
0
  6
PHANTOM
 62
     8
370
    18
100
AcDbCircle
 10
112.9
 20
-425.823330566
 30
0.0
 40
2.099999999999562
100
AcDbArc
 50
345.1923504971
 51
61.5180681608
  0
ARC
  5
3E2
330
1F
100
AcDbEntity
  8
0
  6
PHANTOM
 62
     8
370
    18
100
AcDbCircle
 10
112.9
 20
-425.823330566
 30
0.0
 40
2.099999999999911
100
AcDbArc
 50
61.5180681608
 51
75.1923504971
  0
ARC
  5
3E3
330
1F
100
AcDbEntity
  8
0
  6
PHANTOM
 62
     8
370
    18
100
AcDbCircle
 10
-138.8
 20
-217.223330566
 30
0.0
 40
2.10000000000121
100
AcDbArc
 50
151.2987284444
 51
227.624446108
  0
ARC
  5
3E4
330
1F
100
AcDbEntity
  8
0
  6
PHANTOM
 62
     8
370
    18
100
AcDbCircle
 10
-138.8
 20
-217.223330566
 30
0.0
 40
2.10000000000121
100
AcDbArc
 50
227.624446108
 51
241.2987284443
  0
ARC
  5
3E5
330
1F
100
AcDbEntity
  8
0
  6
PHANTOM
 62
     8
370
    18
100
AcDbCircle
 10
-138.8
 20
-217.223330566
 30
0.0
 40
2.099999999999536
100
AcDbArc
 50
241.2987284443
 51
317.624446108
  0
ARC
  5
3E6
330
1F
100
AcDbEntity
  8
0
  6
PHANTOM
 62
     8
370
    18
100
AcDbCircle
 10
-138.8
 20
-217.223330566
 30
0.0
 40
2.099999999999044
100
AcDbArc
 50
317.624446108
 51
331.2987284443
  0
ARC
  5
3E7
330
1F
100
AcDbEntity
  8
0
  6
PHANTOM
 62
     8
370
    18
100
AcDbCircle
 10
-138.8
 20
-217.223330566
 30
0.0
 40
2.099999999999044
100
AcDbArc
 50
331.2987284443
 51
47.6244461081
  0
ARC
  5
3E8
330
1F
100
AcDbEntity
  8
0
  6
PHANTOM
 62
     8
370
    18
100
AcDbCircle
 10
-138.8
 20
-217.223330566
 30
0.0
 40
2.09999999999846
100
AcDbArc
 50
47.6244461081
 51
61.2987284444
  0
ARC
  5
3E9
330
1F
100
AcDbEntity
  8
0
  6
PHANTOM
 62
     8
370
    18
100
AcDbCircle
 10
-138.8
 20
-217.223330566
 30
0.0
 40
2.099999999999554
100
AcDbArc
 50
61.2987284444
 51
137.6244461081
  0
ARC
  5
3EA
330
1F
100
AcDbEntity
  8
0
  6
PHANTOM
 62
     8
370
    18
100
AcDbCircle
 10
-138.8
 20
-217.223330566
 30
0.0
 40
2.099999999999861
100
AcDbArc
 50
137.6244461081
 51
151.2987284444
  0
ARC
  5
3EB
330
1F
100
AcDbEntity
  8
0
  6
PHANTOM
 62
     8
370
    18
100
AcDbCircle
 10
389.6
 20
-257.223330566
 30
0.0
 40
2.100000000001177
100
AcDbArc
 50
118.4819318392
 51
194.8076495029
  0
ARC
  5
3EC
330
1F
100
AcDbEntity
  8
0
  6
PHANTOM
 62
     8
370
    18
100
AcDbCircle
 10
389.6
 20
-257.223330566
 30
0.0
 40
2.100000000001177
100
AcDbArc
 50
194.8076495029
 51
208.4819318392
  0
ARC
  5
3ED
330
1F
100
AcDbEntity
  8
0
  6
PHANTOM
 62
     8
370
    18
100
AcDbCircle
 10
389.6
 20
-257.223330566
 30
0.0
 40
2.099999999999539
100
AcDbArc
 50
208.4819318392
 51
284.8076495029
  0
ARC
  5
3EE
330
1F
100
AcDbEntity
  8
0
  6
PHANTOM
 62
     8
370
    18
100
AcDbCircle
 10
389.6
 20
-257.223330566
 30
0.0
 40
2.099999999999056
100
AcDbArc
 50
284.8076495029
 51
298.4819318392
  0
ARC
  5
3EF
330
1F
100
AcDbEntity
  8
0
  6
PHANTOM
 62
     8
370
    18
100
AcDbCircle
 10
389.6
 20
-257.223330566
 30
0.0
 40
2.099999999999056
100
AcDbArc
 50
298.4819318392
 51
14.807649503
  0
ARC
  5
3F0
330
1F
100
AcDbEntity
  8
0
  6
PHANTOM
 62
     8
370
    18
100
AcDbCircle
 10
389.6
 20
-257.223330566
 30
0.0
 40
2.099999999998521
100
AcDbArc
 50
14.807649503
 51
28.4819318393
  0
ARC
  5
3F1
330
1F
100
AcDbEntity
  8
0
  6
PHANTOM
 62
     8
370
    18
100
AcDbCircle
 10
389.6
 20
-257.223330566
 30
0.0
 40
2.09999999999957
100
AcDbArc
 50
28.4819318393
 51
104.807649503
  0
ARC
  5
3F2
330
1F
100
AcDbEntity
  8
0
  6
PHANTOM
 62
     8
370
    18
100
AcDbCircle
 10
389.6
 20
-257.223330566
 30
0.0
 40
2.099999999999923
100
AcDbArc
 50
104.807649503
 51
118.4819318392
  0
ARC
  5
3F3
330
1F
100
AcDbEntity
  8
0
  6
PHANTOM
 62
     8
370
    18
100
AcDbCircle
 10
-138.8
 20
-425.823330566
 30
0.0
 40
2.100000000001211
100
AcDbArc
 50
42.375553892
 51
118.7012715557
  0
ARC
  5
3F4
330
1F
100
AcDbEntity
  8
0
  6
PHANTOM
 62
     8
370
    18
100
AcDbCircle
 10
-138.8
 20
-425.823330566
 30
0.0
 40
2.100000000001211
100
AcDbArc
 50
118.7012715557
 51
132.375553892
  0
ARC
  5
3F5
330
1F
100
AcDbEntity
  8
0
  6
PHANTOM
 62
     8
370
    18
100
AcDbCircle
 10
-138.8
 20
-425.823330566
 30
0.0
 40
2.099999999999559
100
AcDbArc
 50
132.375553892
 51
208.7012715556
  0
ARC
  5
3F6
330
1F
100
AcDbEntity
  8
0
  6
PHANTOM
 62
     8
370
    18
100
AcDbCircle
 10
-138.8
 20
-425.823330566
 30
0.0
 40
2.099999999999078
100
AcDbArc
 50
208.7012715556
 51
222.3755538919
  0
ARC
  5
3F7
330
1F
100
AcDbEntity
  8
0
  6
PHANTOM
 62
     8
370
    18
100
AcDbCircle
 10
-138.8
 20
-425.823330566
 30
0.0
 40
2.099999999999078
100
AcDbArc
 50
222.3755538919
 51
298.7012715557
  0
ARC
  5
3F8
330
1F
100
AcDbEntity
  8
0
  6
PHANTOM
 62
     8
370
    18
100
AcDbCircle
 10
-138.8
 20
-425.823330566
 30
0.0
 40
2.099999999998448
100
AcDbArc
 50
298.7012715557
 51
312.375553892
  0
ARC
  5
3F9
330
1F
100
AcDbEntity
  8
0
  6
PHANTOM
 62
     8
370
    18
100
AcDbCircle
 10
-138.8
 20
-425.823330566
 30
0.0
 40
2.09999999999952
100
AcDbArc
 50
312.375553892
 51
28.7012715557
  0
ARC
  5
3FA
330
1F
100
AcDbEntity
  8
0
  6
PHANTOM
 62
     8
370
    18
100
AcDbCircle
 10
-138.8
 20
-425.823330566
 30
0.0
 40
2.099999999999825
100
AcDbArc
 50
28.7012715557
 51
42.375553892
  0
ARC
  5
3FB
330
1F
100
AcDbEntity
  8
0
  6
PHANTOM
 62
     8
370
    18
100
AcDbCircle
 10
112.9
 20
-217.223330566
 30
0.0
 40
2.100000000001198
100
AcDbArc
 50
118.4819318392
 51
194.8076495029
  0
ARC
  5
3FC
330
1F
100
AcDbEntity
  8
0
  6
PHANTOM
 62
     8
370
    18
100
AcDbCircle
 10
112.9
 20
-217.223330566
 30
0.0
 40
2.100000000001198
100
AcDbArc
 50
194.8076495029
 51
208.4819318392
  0
ARC
  5
3FD
330
1F
100
AcDbEntity
  8
0
  6
PHANTOM
 62
     8
370
    18
100
AcDbCircle
 10
112.9
 20
-217.223330566
 30
0.0
 40
2.099999999999564
100
AcDbArc
 50
208.4819318392
 51
284.8076495029
  0
ARC
  5
3FE
330
1F
100
AcDbEntity
  8
0
  6
PHANTOM
 62
     8
370
    18
100
AcDbCircle
 10
112.9
 20
-217.223330566
 30
0.0
 40
2.099999999999004
100
AcDbArc
 50
284.8076495029
 51
298.4819318392
  0
ARC
  5
3FF
330
1F
100
AcDbEntity
  8
0
  6
PHANTOM
 62
     8
370
    18
100
AcDbCircle
 10
112.9
 20
-217.223330566
 30
0.0
 40
2.099999999999004
100
AcDbArc
 50
298.4819318392
 51
14.807649503
  0
ARC
  5
400
330
1F
100
AcDbEntity
  8
0
  6
PHANTOM
 62
     8
370
    18
100
AcDbCircle
 10
112.9
 20
-217.223330566
 30
0.0
 40
2.099999999998459
100
AcDbArc
 50
14.807649503
 51
28.4819318393
  0
ARC
  5
401
330
1F
100
AcDbEntity
  8
0
  6
PHANTOM
 62
     8
370
    18
100
AcDbCircle
 10
112.9
 20
-217.223330566
 30
0.0
 40
2.099999999999553
100
AcDbArc
 50
28.4819318393
 51
104.807649503
  0
ARC
  5
402
330
1F
100
AcDbEntity
  8
0
  6
PHANTOM
 62
     8
370
    18
100
AcDbCircle
 10
112.9
 20
-217.223330566
 30
0.0
 40
2.099999999999886
100
AcDbArc
 50
104.807649503
 51
118.4819318392
  0
ARC
  5
403
330
1F
100
AcDbEntity
  8
0
  6
PHANTOM
 62
     8
370
    18
100
AcDbCircle
 10
364.6
 20
-217.223330566
 30
0.0
 40
2.100000000001184
100
AcDbArc
 50
118.4819318392
 51
194.8076495029
  0
ARC
  5
404
330
1F
100
AcDbEntity
  8
0
  6
PHANTOM
 62
     8
370
    18
100
AcDbCircle
 10
364.6
 20
-217.223330566
 30
0.0
 40
2.100000000001184
100
AcDbArc
 50
194.8076495029
 51
208.4819318392
  0
ARC
  5
405
330
1F
100
AcDbEntity
  8
0
  6
PHANTOM
 62
     8
370
    18
100
AcDbCircle
 10
364.6
 20
-217.223330566
 30
0.0
 40
2.099999999999589
100
AcDbArc
 50
208.4819318392
 51
284.8076495029
  0
ARC
  5
406
330
1F
100
AcDbEntity
  8
0
  6
PHANTOM
 62
     8
370
    18
100
AcDbCircle
 10
364.6
 20
-217.223330566
 30
0.0
 40
2.099999999999004
100
AcDbArc
 50
284.8076495029
 51
298.4819318392
  0
ARC
  5
407
330
1F
100
AcDbEntity
  8
0
  6
PHANTOM
 62
     8
370
    18
100
AcDbCircle
 10
364.6
 20
-217.223330566
 30
0.0
 40
2.099999999999004
100
AcDbArc
 50
298.4819318392
 51
14.807649503
  0
ARC
  5
408
330
1F
100
AcDbEntity
  8
0
  6
PHANTOM
 62
     8
370
    18
100
AcDbCircle
 10
364.6
 20
-217.223330566
 30
0.0
 40
2.099999999998464
100
AcDbArc
 50
14.807649503
 51
28.4819318393
  0
ARC
  5
409
330
1F
100
AcDbEntity
  8
0
  6
PHANTOM
 62
     8
370
    18
100
AcDbCircle
 10
364.6
 20
-217.223330566
 30
0.0
 40
2.099999999999556
100
AcDbArc
 50
28.4819318393
 51
104.807649503
  0
ARC
  5
40A
330
1F
100
AcDbEntity
  8
0
  6
PHANTOM
 62
     8
370
    18
100
AcDbCircle
 10
364.6
 20
-217.223330566
 30
0.0
 40
2.099999999999925
100
AcDbArc
 50
104.807649503
 51
118.4819318392
  0
ARC
  5
40B
330
1F
100
AcDbEntity
  8
0
  6
PHANTOM
 62
     8
370
    18
100
AcDbCircle
 10
-163.8
 20
-257.223330566
 30
0.0
 40
2.100000000001231
100
AcDbArc
 50
184.1431840741
 51
260.4689017377
  0
ARC
  5
40C
330
1F
100
AcDbEntity
  8
0
  6
PHANTOM
 62
     8
370
    18
100
AcDbCircle
 10
-163.8
 20
-257.223330566
 30
0.0
 40
2.100000000001231
100
AcDbArc
 50
260.4689017377
 51
274.1431840741
  0
ARC
  5
40D
330
1F
100
AcDbEntity
  8
0
  6
PHANTOM
 62
     8
370
    18
100
AcDbCircle
 10
-163.8
 20
-257.223330566
 30
0.0
 40
2.099999999999632
100
AcDbArc
 50
274.1431840741
 51
350.4689017377
  0
ARC
  5
40E
330
1F
100
AcDbEntity
  8
0
  6
PHANTOM
 62
     8
370
    18
100
AcDbCircle
 10
-163.8
 20
-257.223330566
 30
0.0
 40
2.099999999999084
100
AcDbArc
 50
350.4689017377
 51
4.143184074
  0
ARC
  5
40F
330
1F
100
AcDbEntity
  8
0
  6
PHANTOM
 62
     8
370
    18
100
AcDbCircle
 10
-163.8
 20
-257.223330566
 30
0.0
 40
2.099999999999084
100
AcDbArc
 50
4.143184074
 51
80.4689017378
  0
ARC
  5
410
330
1F
100
AcDbEntity
  8
0
  6
PHANTOM
 62
     8
370
    18
100
AcDbCircle
 10
-163.8
 20
-257.223330566
 30
0.0
 40
2.099999999998443
100
AcDbArc
 50
80.4689017378
 51
94.1431840741
  0
ARC
  5
411
330
1F
100
AcDbEntity
  8
0
  6
PHANTOM
 62
     8
370
    18
100
AcDbCircle
 10
-163.8
 20
-257.223330566
 30
0.0
 40
2.099999999999513
100
AcDbArc
 50
94.1431840741
 51
170.4689017378
  0
ARC
  5
412
330
1F
100
AcDbEntity
  8
0
  6
PHANTOM
 62
     8
370
    18
100
AcDbCircle
 10
-163.8
 20
-257.223330566
 30
0.0
 40
2.099999999999897
100
AcDbArc
 50
170.4689017378
 51
184.1431840741
  0
LINE
  5
413
330
1F
100
AcDbEntity
  8
0
  6
PHANTOM
 62
     8
370
    18
100
AcDbLine
 10
394.6
 20
-430.923330566
 30
0.0
 11
394.6
 21
-212.223330566
 31
0.0
  0
LINE
  5
414
330
1F
100
AcDbEntity
  8
0
  6
PHANTOM
 62
     8
370
    18
100
AcDbLine
 10
394.6
 20
-212.223330566
 30
0.0
 11
-168.8
 21
-212.223330566
 31
0.0
  0
LINE
  5
415
330
1F
100
AcDbEntity
  8
0
  6
PHANTOM
 62
     8
370
    18
100
AcDbLine
 10
-168.8
 20
-212.223330566
 30
0.0
 11
-168.8
 21
-430.923330566
 31
0.0
  0
LINE
  5
416
330
1F
100
AcDbEntity
  8
0
  6
PHANTOM
 62
     8
370
    18
100
AcDbLine
 10
-168.8
 20
-430.923330566
 30
0.0
 11
394.6
 21
-430.923330566
 31
0.0
  0
LINE
  5
417
330
1F
100
AcDbEntity
  8
0
  6
PHANTOM
 62
     8
370
    18
100
AcDbLine
 10
220.2742790933
 20
-459.2214379862
 30
0.0
 11
-51.5434660677
 21
-459.2214379862
 31
0.0
  0
LINE
  5
418
330
1F
100
AcDbEntity
  8
0
  6
PHANTOM
 62
     8
370
    18
100
AcDbLine
 10
277.3434660677
 20
-459.2214379862
 30
0.0
 11
220.2742790933
 21
-459.2214379862
 31
0.0
  0
LINE
  5
419
330
1F
100
AcDbEntity
  8
0
  6
PHANTOM
 62
     8
370
    18
100
AcDbLine
 10
220.2742790933
 20
-463.4214379862
 30
0.0
 11
-51.5434660677
 21
-463.4214379862
 31
0.0
  0
LINE
  5
41A
330
1F
100
AcDbEntity
  8
0
  6
PHANTOM
 62
     8
370
    18
100
AcDbLine
 10
277.3434660677
 20
-463.4214379862
 30
0.0
 11
220.2742790933
 21
-463.4214379862
 31
0.0
  0
LINE
  5
41B
330
1F
100
AcDbEntity
  8
0
  6
PHANTOM
 62
     8
370
    18
100
AcDbLine
 10
215.1713012155
 20
-459.9034117243
 30
0.0
 11
-43.7282669662
 21
-459.9034117243
 31
0.0
  0
LINE
  5
41C
330
1F
100
AcDbEntity
  8
0
  6
PHANTOM
 62
     8
370
    18
100
AcDbLine
 10
269.5282669662
 20
-459.9034117243
 30
0.0
 11
215.1713012155
 21
-459.9034117243
 31
0.0
  0
LINE
  5
41D
330
1F
100
AcDbEntity
  8
0
  6
PHANTOM
 62
     8
370
    18
100
AcDbLine
 10
215.1713012155
 20
-464.1034117243
 30
0.0
 11
-43.7282669662
 21
-464.1034117243
 31
0.0
  0
LINE
  5
41E
330
1F
100
AcDbEntity
  8
0
  6
PHANTOM
 62
     8
370
    18
100
AcDbLine
 10
269.5282669662
 20
-464.1034117243
 30
0.0
 11
215.1713012155
 21
-464.1034117243
 31
0.0
  0
LINE
  5
41F
330
1F
100
AcDbEntity
  8
0
  6
PHANTOM
 62
     8
370
    18
100
AcDbLine
 10
215.0222530257
 20
-460.1524652832
 30
0.0
 11
-43.5
 21
-460.1524652832
 31
0.0
  0
LINE
  5
420
330
1F
100
AcDbEntity
  8
0
  6
PHANTOM
 62
     8
370
    18
100
AcDbLine
 10
269.3
 20
-460.1524652832
 30
0.0
 11
215.0222530257
 21
-460.1524652832
 31
0.0
  0
LINE
  5
421
330
1F
100
AcDbEntity
  8
0
  6
PHANTOM
 62
     8
370
    18
100
AcDbLine
 10
215.0222530257
 20
-464.3524652832
 30
0.0
 11
-43.5
 21
-464.3524652832
 31
0.0
  0
LINE
  5
422
330
1F
100
AcDbEntity
  8
0
  6
PHANTOM
 62
     8
370
    18
100
AcDbLine
 10
269.3
 20
-464.3524652832
 30
0.0
 11
215.0222530257
 21
-464.3524652832
 31
0.0
  0
LINE
  5
423
330
1F
100
AcDbEntity
  8
0
  6
PHANTOM
 62
     8
370
    18
100
AcDbLine
 10
-51.5434660677
 20
-179.6252231459
 30
0.0
 11
277.3434660677
 21
-179.6252231459
 31
0.0
  0
LINE
  5
424
330
1F
100
AcDbEntity
  8
0
  6
PHANTOM
 62
     8
370
    18
100
AcDbLine
 10
-51.5434660677
 20
-183.8252231459
 30
0.0
 11
277.3434660677
 21
-183.8252231459
 31
0.0
  0
LINE
  5
425
330
1F
100
AcDbEntity
  8
0
  6
PHANTOM
 62
     8
370
    18
100
AcDbLine
 10
-43.7282669662
 20
-178.9432494078
 30
0.0
 11
269.5282669662
 21
-178.9432494078
 31
0.0
  0
LINE
  5
426
330
1F
100
AcDbEntity
  8
0
  6
PHANTOM
 62
     8
370
    18
100
AcDbLine
 10
-43.7282669662
 20
-183.1432494078
 30
0.0
 11
269.5282669662
 21
-183.1432494078
 31
0.0
  0
LINE
  5
427
330
1F
100
AcDbEntity
  8
0
  6
PHANTOM
 62
     8
370
    18
100
AcDbLine
 10
-43.5
 20
-178.6941958489
 30
0.0
 11
269.3
 21
-178.6941958489
 31
0.0
  0
LINE
  5
428
330
1F
100
AcDbEntity
  8
0
  6
PHANTOM
 62
     8
370
    18
100
AcDbLine
 10
-43.5
 20
-182.8941958489
 30
0.0
 11
269.3
 21
-182.8941958489
 31
0.0
  0
LINE
  5
429
330
1F
100
AcDbEntity
  8
0
  6
PHANTOM
 62
     8
370
    18
100
AcDbLine
 10
270.4
 20
-469.923330566
 30
0.0
 11
-44.6
 21
-469.9233305661
 31
0.0
  0
LINE
  5
42A
330
1F
100
AcDbEntity
  8
0
  6
PHANTOM
 62
     8
370
    18
100
AcDbLine
 10
-44.6
 20
-173.123330566
 30
0.0
 11
270.4
 21
-173.123330566
 31
0.0
  0
LINE
  5
42B
330
1F
100
AcDbEntity
  8
0
  6
PHANTOM
 62
     8
370
    18
100
AcDbLine
 10
-205.9
 20
-343.6052305661
 30
0.0
 11
-205.9
 21
-315.8052305661
 31
0.0
  0
LINE
  5
42C
330
1F
100
AcDbEntity
  8
0
  6
PHANTOM
 62
     8
370
    18
100
AcDbLine
 10
-205.9
 20
-291.6052305664
 30
0.0
 11
-205.9
 21
-263.8052305664
 31
0.0
  0
CIRCLE
  5
42D
330
1F
100
AcDbEntity
  8
0
  6
Continuous
 62
     7
100
AcDbCircle
 10
788.0535081228
 20
449.4170861245
 30
0.0
 40
2.750000000000001
  0
CIRCLE
  5
42E
330
1F
100
AcDbEntity
  8
0
  6
Continuous
 62
     7
100
AcDbCircle
 10
788.0535081228
 20
20.0170861245
 30
0.0
 40
2.750000000000019
  0
ARC
  5
42F
330
1F
100
AcDbEntity
  8
0
100
AcDbCircle
 10
742.5552021572
 20
465.8670861245
 30
0.0
 40
2.0
100
AcDbArc
 50
89.9999999999
 51
180.0
  0
ARC
  5
430
330
1F
100
AcDbEntity
  8
0
100
AcDbCircle
 10
746.7552021572
 20
465.8670861245
 30
0.0
 40
2.0
100
AcDbArc
 50
0.0
 51
89.9999999999
  0
LINE
  5
431
330
1F
100
AcDbEntity
  8
0
100
AcDbLine
 10
740.5552021572
 20
465.8670861245
 30
0.0
 11
740.5552021572
 21
464.8170861245
 31
0.0
  0
LINE
  5
432
330
1F
100
AcDbEntity
  8
0
100
AcDbLine
 10
748.7552021572
 20
464.8170861245
 30
0.0
 11
748.7552021572
 21
465.8670861245
 31
0.0
  0
LINE
  5
433
330
1F
100
AcDbEntity
  8
0
100
AcDbLine
 10
744.1302021572
 20
455.8170861245
 30
0.0
 11
744.3552021572
 21
455.3170861245
 31
0.0
  0
LINE
  5
434
330
1F
100
AcDbEntity
  8
0
100
AcDbLine
 10
744.9552021572
 20
455.3170861245
 30
0.0
 11
745.1802021572
 21
455.8170861245
 31
0.0
  0
LINE
  5
435
330
1F
100
AcDbEntity
  8
0
100
AcDbLine
 10
804.8052021572
 20
465.8670861245
 30
0.0
 11
804.8052021572
 21
464.8170861245
 31
0.0
  0
LINE
  5
436
330
1F
100
AcDbEntity
  8
0
100
AcDbLine
 10
813.0052021572
 20
464.8170861245
 30
0.0
 11
813.0052021572
 21
465.8670861245
 31
0.0
  0
ARC
  5
437
330
1F
100
AcDbEntity
  8
0
100
AcDbCircle
 10
806.8052021572
 20
465.8670861245
 30
0.0
 40
2.0
100
AcDbArc
 50
90.0
 51
180.0
  0
ARC
  5
438
330
1F
100
AcDbEntity
  8
0
100
AcDbCircle
 10
811.0052021572
 20
465.8670861245
 30
0.0
 40
2.0
100
AcDbArc
 50
360.0
 51
90.0
  0
LINE
  5
439
330
1F
100
AcDbEntity
  8
0
100
AcDbLine
 10
808.3802021572
 20
455.8170861245
 30
0.0
 11
808.6052021572
 21
455.3170861245
 31
0.0
  0
LINE
  5
43A
330
1F
100
AcDbEntity
  8
0
100
AcDbLine
 10
809.2052021572
 20
455.3170861245
 30
0.0
 11
809.4302021572
 21
455.8170861245
 31
0.0
  0
LINE
  5
43B
330
1F
100
AcDbEntity
  8
0
100
AcDbLine
 10
636.2052021572
 20
465.8670861245
 30
0.0
 11
636.2052021572
 21
464.8170861245
 31
0.0
  0
LINE
  5
43C
330
1F
100
AcDbEntity
  8
0
100
AcDbLine
 10
644.4052021572
 20
464.8170861245
 30
0.0
 11
644.4052021572
 21
465.8670861245
 31
0.0
  0
ARC
  5
43D
330
1F
100
AcDbEntity
  8
0
100
AcDbCircle
 10
638.2052021572
 20
465.8670861245
 30
0.0
 40
2.0
100
AcDbArc
 50
90.0
 51
180.0
  0
ARC
  5
43E
330
1F
100
AcDbEntity
  8
0
100
AcDbCircle
 10
642.4052021572
 20
465.8670861245
 30
0.0
 40
2.0
100
AcDbArc
 50
0.0
 51
90.0
  0
LINE
  5
43F
330
1F
100
AcDbEntity
  8
0
100
AcDbLine
 10
639.7802021572
 20
455.8170861245
 30
0.0
 11
640.0052021572
 21
455.3170861245
 31
0.0
  0
LINE
  5
440
330
1F
100
AcDbEntity
  8
0
100
AcDbLine
 10
640.6052021572
 20
455.3170861245
 30
0.0
 11
640.8302021572
 21
455.8170861245
 31
0.0
  0
LINE
  5
441
330
1F
100
AcDbEntity
  8
0
100
AcDbLine
 10
844.8052021572
 20
465.8670861245
 30
0.0
 11
844.8052021572
 21
464.8170861245
 31
0.0
  0
LINE
  5
442
330
1F
100
AcDbEntity
  8
0
100
AcDbLine
 10
853.0052021572
 20
464.8170861245
 30
0.0
 11
853.0052021572
 21
465.8670861245
 31
0.0
  0
ARC
  5
443
330
1F
100
AcDbEntity
  8
0
100
AcDbCircle
 10
846.8052021572
 20
465.8670861245
 30
0.0
 40
2.0
100
AcDbArc
 50
90.0000000001
 51
180.0
  0
ARC
  5
444
330
1F
100
AcDbEntity
  8
0
100
AcDbCircle
 10
851.0052021572
 20
465.8670861245
 30
0.0
 40
2.0
100
AcDbArc
 50
0.0
 51
90.0000000001
  0
LINE
  5
445
330
1F
100
AcDbEntity
  8
0
100
AcDbLine
 10
848.3802021572
 20
455.8170861245
 30
0.0
 11
848.6052021572
 21
455.3170861245
 31
0.0
  0
LINE
  5
446
330
1F
100
AcDbEntity
  8
0
100
AcDbLine
 10
849.2052021572
 20
455.3170861245
 30
0.0
 11
849.4302021572
 21
455.8170861245
 31
0.0
  0
LINE
  5
447
330
1F
100
AcDbEntity
  8
0
100
AcDbLine
 10
676.2052021572
 20
465.8670861245
 30
0.0
 11
676.2052021572
 21
464.8170861245
 31
0.0
  0
LINE
  5
448
330
1F
100
AcDbEntity
  8
0
100
AcDbLine
 10
684.4052021572
 20
464.8170861245
 30
0.0
 11
684.4052021572
 21
465.8670861245
 31
0.0
  0
ARC
  5
449
330
1F
100
AcDbEntity
  8
0
100
AcDbCircle
 10
678.2052021572
 20
465.8670861245
 30
0.0
 40
2.0
100
AcDbArc
 50
90.0
 51
180.0
  0
ARC
  5
44A
330
1F
100
AcDbEntity
  8
0
100
AcDbCircle
 10
682.4052021572
 20
465.8670861245
 30
0.0
 40
2.0
100
AcDbArc
 50
0.0
 51
90.0
  0
LINE
  5
44B
330
1F
100
AcDbEntity
  8
0
100
AcDbLine
 10
679.7802021572
 20
455.8170861245
 30
0.0
 11
680.0052021572
 21
455.3170861245
 31
0.0
  0
LINE
  5
44C
330
1F
100
AcDbEntity
  8
0
100
AcDbLine
 10
680.6052021572
 20
455.3170861245
 30
0.0
 11
680.8302021572
 21
455.8170861245
 31
0.0
  0
ARC
  5
44D
330
1F
100
AcDbEntity
  8
0
100
AcDbCircle
 10
652.1343376466
 20
399.8282635409
 30
0.0
 40
4.999999999999956
100
AcDbArc
 50
133.3006884733
 51
170.3421313068
  0
ARC
  5
44E
330
1F
100
AcDbEntity
  8
0
100
AcDbCircle
 10
652.1343376466
 20
399.3059087082
 30
0.0
 40
5.000000000000039
100
AcDbArc
 50
189.6578686932
 51
226.6993115267
  0
LINE
  5
44F
330
1F
100
AcDbEntity
  8
0
100
AcDbLine
 10
648.8052021572
 20
401.6670861245
 30
0.0
 11
648.7052021572
 21
401.6670861245
 31
0.0
  0
LINE
  5
450
330
1F
100
AcDbEntity
  8
0
100
AcDbLine
 10
648.7052021572
 20
397.4670861245
 30
0.0
 11
648.8052021572
 21
397.4670861245
 31
0.0
  0
ARC
  5
451
330
1F
100
AcDbEntity
  8
0
100
AcDbCircle
 10
837.0760666677
 20
59.3059087082
 30
0.0
 40
4.999999999999982
100
AcDbArc
 50
313.3006884733
 51
350.3421313068
  0
ARC
  5
452
330
1F
100
AcDbEntity
  8
0
100
AcDbCircle
 10
837.0760666677
 20
59.8282635409
 30
0.0
 40
4.999999999999988
100
AcDbArc
 50
9.6578686932
 51
46.6993115267
  0
ARC
  5
453
330
1F
100
AcDbEntity
  8
0
100
AcDbCircle
 10
837.0760666677
 20
144.3059087082
 30
0.0
 40
4.999999999999998
100
AcDbArc
 50
313.3006884733
 51
350.3421313068
  0
ARC
  5
454
330
1F
100
AcDbEntity
  8
0
100
AcDbCircle
 10
837.0760666677
 20
144.8282635409
 30
0.0
 40
5.000000000000055
100
AcDbArc
 50
9.6578686932
 51
46.6993115267
  0
ARC
  5
455
330
1F
100
AcDbEntity
  8
0
100
AcDbCircle
 10
837.0760666677
 20
399.3059087082
 30
0.0
 40
5.000000000000005
100
AcDbArc
 50
313.3006884733
 51
350.3421313068
  0
ARC
  5
456
330
1F
100
AcDbEntity
  8
0
100
AcDbCircle
 10
837.0760666677
 20
399.8282635409
 30
0.0
 40
4.999999999999987
100
AcDbArc
 50
9.6578686932
 51
46.6993115267
  0
ARC
  5
457
330
1F
100
AcDbEntity
  8
0
100
AcDbCircle
 10
837.0760666677
 20
314.3059087082
 30
0.0
 40
5.000000000000076
100
AcDbArc
 50
313.3006884733
 51
350.3421313068
  0
ARC
  5
458
330
1F
100
AcDbEntity
  8
0
100
AcDbCircle
 10
837.0760666677
 20
314.8282635409
 30
0.0
 40
5.000000000000076
100
AcDbArc
 50
9.6578686932
 51
46.6993115267
  0
ARC
  5
459
330
1F
100
AcDbEntity
  8
0
100
AcDbCircle
 10
651.0343376466
 20
21.4782635409
 30
0.0
 40
4.999999999999985
100
AcDbArc
 50
133.3006884733
 51
170.3421313068
  0
ARC
  5
45A
330
1F
100
AcDbEntity
  8
0
100
AcDbCircle
 10
651.0343376466
 20
20.9559087082
 30
0.0
 40
4.999999999999988
100
AcDbArc
 50
189.6578686932
 51
226.6993115267
  0
ARC
  5
45B
330
1F
100
AcDbEntity
  8
0
100
AcDbCircle
 10
838.1760666677
 20
20.9559087082
 30
0.0
 40
5.000000000000093
100
AcDbArc
 50
314.8964028233
 51
350.3421313068
  0
ARC
  5
45C
330
1F
100
AcDbEntity
  8
0
100
AcDbCircle
 10
838.1760666677
 20
21.4782635409
 30
0.0
 40
5.000000000000093
100
AcDbArc
 50
9.6578686932
 51
45.1035971767
  0
ARC
  5
45D
330
1F
100
AcDbEntity
  8
0
100
AcDbCircle
 10
652.1343376466
 20
314.8282635409
 30
0.0
 40
5.000000000000099
100
AcDbArc
 50
133.3006884733
 51
170.3421313068
  0
ARC
  5
45E
330
1F
100
AcDbEntity
  8
0
100
AcDbCircle
 10
652.1343376466
 20
314.3059087082
 30
0.0
 40
5.000000000000108
100
AcDbArc
 50
189.6578686932
 51
226.6993115267
  0
LINE
  5
45F
330
1F
100
AcDbEntity
  8
0
100
AcDbLine
 10
648.8052021572
 20
316.6670861245
 30
0.0
 11
648.7052021572
 21
316.6670861245
 31
0.0
  0
LINE
  5
460
330
1F
100
AcDbEntity
  8
0
100
AcDbLine
 10
648.7052021572
 20
312.4670861245
 30
0.0
 11
648.8052021572
 21
312.4670861245
 31
0.0
  0
ARC
  5
461
330
1F
100
AcDbEntity
  8
0
100
AcDbCircle
 10
652.1343376466
 20
59.8282635409
 30
0.0
 40
4.999999999999988
100
AcDbArc
 50
133.3006884733
 51
170.3421313068
  0
ARC
  5
462
330
1F
100
AcDbEntity
  8
0
100
AcDbCircle
 10
652.1343376466
 20
59.3059087082
 30
0.0
 40
4.999999999999982
100
AcDbArc
 50
189.6578686932
 51
226.6993115267
  0
LINE
  5
463
330
1F
100
AcDbEntity
  8
0
100
AcDbLine
 10
648.8052021572
 20
61.6670861245
 30
0.0
 11
648.7052021572
 21
61.6670861245
 31
0.0
  0
LINE
  5
464
330
1F
100
AcDbEntity
  8
0
100
AcDbLine
 10
648.7052021572
 20
57.4670861245
 30
0.0
 11
648.8052021572
 21
57.4670861245
 31
0.0
  0
ARC
  5
465
330
1F
100
AcDbEntity
  8
0
100
AcDbCircle
 10
652.1343376466
 20
144.8282635409
 30
0.0
 40
4.999999999999981
100
AcDbArc
 50
133.3006884733
 51
170.3421313068
  0
ARC
  5
466
330
1F
100
AcDbEntity
  8
0
100
AcDbCircle
 10
652.1343376466
 20
144.3059087082
 30
0.0
 40
4.999999999999998
100
AcDbArc
 50
189.6578686932
 51
226.6993115267
  0
LINE
  5
467
330
1F
100
AcDbEntity
  8
0
100
AcDbLine
 10
648.8052021572
 20
146.6670861245
 30
0.0
 11
648.7052021572
 21
146.6670861245
 31
0.0
  0
LINE
  5
468
330
1F
100
AcDbEntity
  8
0
100
AcDbLine
 10
648.7052021572
 20
142.4670861245
 30
0.0
 11
648.8052021572
 21
142.4670861245
 31
0.0
  0
ARC
  5
469
330
1F
100
AcDbEntity
  8
0
100
AcDbCircle
 10
886.0052024594
 20
393.9670861245
 30
0.0
 40
0.4999999999999754
100
AcDbArc
 50
4.9871394293
 51
180.0
  0
ARC
  5
46A
330
1F
100
AcDbEntity
  8
0
100
AcDbCircle
 10
886.0052024594
 20
65.1670861245
 30
0.0
 40
0.5
100
AcDbArc
 50
180.0
 51
355.0128605707
  0
ARC
  5
46B
330
1F
100
AcDbEntity
  8
0
100
AcDbCircle
 10
881.8052024594
 20
393.9670861245
 30
0.0
 40
0.5
100
AcDbArc
 50
4.9871394293
 51
180.0
  0
ARC
  5
46C
330
1F
100
AcDbEntity
  8
0
100
AcDbCircle
 10
881.8052024594
 20
65.1670861245
 30
0.0
 40
0.5000000000001137
100
AcDbArc
 50
180.0
 51
355.0128605707
  0
LINE
  5
46D
330
1F
100
AcDbEntity
  8
0
100
AcDbLine
 10
886.5033095773
 20
65.1236200568
 30
0.0
 11
887.1852833154
 21
72.9388191584
 31
0.0
  0
LINE
  5
46E
330
1F
100
AcDbEntity
  8
0
100
AcDbLine
 10
887.1852833154
 20
386.1953530907
 30
0.0
 11
886.5033095773
 21
394.0105521922
 31
0.0
  0
LINE
  5
46F
330
1F
100
AcDbEntity
  8
0
100
AcDbLine
 10
882.3033095773
 20
65.1236200568
 30
0.0
 11
882.9852833154
 21
72.9388191584
 31
0.0
  0
LINE
  5
470
330
1F
100
AcDbEntity
  8
0
100
AcDbLine
 10
882.9852833154
 20
386.1953530907
 30
0.0
 11
882.3033095773
 21
394.0105521922
 31
0.0
  0
ARC
  5
471
330
1F
100
AcDbEntity
  8
0
100
AcDbCircle
 10
883.2343368744
 20
386.2170861245
 30
0.0
 40
0.2500000000001059
100
AcDbArc
 50
184.9871394293
 51
270.0
  0
ARC
  5
472
330
1F
100
AcDbEntity
  8
0
100
AcDbCircle
 10
883.2343368744
 20
72.9170861245
 30
0.0
 40
0.2499999999999889
100
AcDbArc
 50
90.0
 51
175.0128605707
  0
ARC
  5
473
330
1F
100
AcDbEntity
  8
0
100
AcDbCircle
 10
887.4343368744
 20
386.2170861245
 30
0.0
 40
0.25
100
AcDbArc
 50
184.9871394293
 51
270.0
  0
ARC
  5
474
330
1F
100
AcDbEntity
  8
0
100
AcDbCircle
 10
887.4343368744
 20
72.9170861245
 30
0.0
 40
0.2499999999999889
100
AcDbArc
 50
90.0
 51
175.0128605707
  0
LINE
  5
475
330
1F
100
AcDbEntity
  8
0
100
AcDbLine
 10
885.5052024594
 20
385.9670861245
 30
0.0
 11
883.2343368744
 21
385.9670861245
 31
0.0
  0
LINE
  5
476
330
1F
100
AcDbEntity
  8
0
100
AcDbLine
 10
883.2343368744
 20
73.1670861245
 30
0.0
 11
885.5052024594
 21
73.1670861245
 31
0.0
  0
LINE
  5
477
330
1F
100
AcDbEntity
  8
0
100
AcDbLine
 10
888.3052021572
 20
385.9670861245
 30
0.0
 11
887.4343368744
 21
385.9670861245
 31
0.0
  0
LINE
  5
478
330
1F
100
AcDbEntity
  8
0
100
AcDbLine
 10
887.4343368744
 20
73.1670861245
 30
0.0
 11
888.3052021572
 21
73.1670861245
 31
0.0
  0
ARC
  5
479
330
1F
100
AcDbEntity
  8
0
100
AcDbCircle
 10
603.205201855
 20
65.1670861245
 30
0.0
 40
0.5000000000001137
100
AcDbArc
 50
184.9871394293
 51
0.0
  0
ARC
  5
47A
330
1F
100
AcDbEntity
  8
0
100
AcDbCircle
 10
603.205201855
 20
393.9670861245
 30
0.0
 40
0.5000000000001137
100
AcDbArc
 50
0.0
 51
175.0128605707
  0
ARC
  5
47B
330
1F
100
AcDbEntity
  8
0
100
AcDbCircle
 10
607.405201855
 20
65.1670861245
 30
0.0
 40
0.5000000000000898
100
AcDbArc
 50
184.9871394293
 51
0.0
  0
ARC
  5
47C
330
1F
100
AcDbEntity
  8
0
100
AcDbCircle
 10
607.405201855
 20
393.9670861245
 30
0.0
 40
0.5
100
AcDbArc
 50
0.0
 51
175.0128605707
  0
LINE
  5
47D
330
1F
100
AcDbEntity
  8
0
100
AcDbLine
 10
606.907094737
 20
394.0105521922
 30
0.0
 11
606.225120999
 21
386.1953530907
 31
0.0
  0
LINE
  5
47E
330
1F
100
AcDbEntity
  8
0
100
AcDbLine
 10
606.225120999
 20
72.9388191584
 30
0.0
 11
606.907094737
 21
65.1236200568
 31
0.0
  0
LINE
  5
47F
330
1F
100
AcDbEntity
  8
0
100
AcDbLine
 10
602.707094737
 20
394.0105521922
 30
0.0
 11
602.025120999
 21
386.1953530907
 31
0.0
  0
LINE
  5
480
330
1F
100
AcDbEntity
  8
0
100
AcDbLine
 10
602.025120999
 20
72.9388191584
 30
0.0
 11
602.707094737
 21
65.1236200568
 31
0.0
  0
ARC
  5
481
330
1F
100
AcDbEntity
  8
0
100
AcDbCircle
 10
605.97606744
 20
72.9170861245
 30
0.0
 40
0.2500000000000284
100
AcDbArc
 50
4.9871394293
 51
90.0
  0
ARC
  5
482
330
1F
100
AcDbEntity
  8
0
100
AcDbCircle
 10
605.97606744
 20
386.2170861245
 30
0.0
 40
0.25
100
AcDbArc
 50
270.0
 51
355.0128605707
  0
ARC
  5
483
330
1F
100
AcDbEntity
  8
0
100
AcDbCircle
 10
601.77606744
 20
72.9170861245
 30
0.0
 40
0.2500000000001009
100
AcDbArc
 50
4.9871394293
 51
90.0
  0
ARC
  5
484
330
1F
100
AcDbEntity
  8
0
100
AcDbCircle
 10
601.77606744
 20
386.2170861245
 30
0.0
 40
0.250000000000096
100
AcDbArc
 50
270.0
 51
355.0128605707
  0
LINE
  5
485
330
1F
100
AcDbEntity
  8
0
100
AcDbLine
 10
600.9052021572
 20
73.1670861245
 30
0.0
 11
601.77606744
 21
73.1670861245
 31
0.0
  0
LINE
  5
486
330
1F
100
AcDbEntity
  8
0
100
AcDbLine
 10
601.77606744
 20
385.9670861245
 30
0.0
 11
600.9052021572
 21
385.9670861245
 31
0.0
  0
LINE
  5
487
330
1F
100
AcDbEntity
  8
0
100
AcDbLine
 10
603.705201855
 20
73.1670861245
 30
0.0
 11
605.97606744
 21
73.1670861245
 31
0.0
  0
LINE
  5
488
330
1F
100
AcDbEntity
  8
0
100
AcDbLine
 10
605.97606744
 20
385.9670861245
 30
0.0
 11
603.705201855
 21
385.9670861245
 31
0.0
  0
LINE
  5
489
330
1F
100
AcDbEntity
  8
0
100
AcDbLine
 10
893.0052021572
 20
387.0670861245
 30
0.0
 11
888.3052021572
 21
387.0670861245
 31
0.0
  0
LINE
  5
48A
330
1F
100
AcDbEntity
  8
0
100
AcDbLine
 10
888.3052021572
 20
72.0670861245
 30
0.0
 11
893.0052021572
 21
72.0670861245
 31
0.0
  0
ARC
  5
48B
330
1F
100
AcDbEntity
  8
0
100
AcDbCircle
 10
893.0052037286
 20
385.7670861245
 30
0.0
 40
1.300000000004656
100
AcDbArc
 50
0.0
 51
90.0000692571
  0
ARC
  5
48C
330
1F
100
AcDbEntity
  8
0
100
AcDbCircle
 10
893.0052037286
 20
73.3670861245
 30
0.0
 40
1.300000000004729
100
AcDbArc
 50
269.9999307429
 51
0.0
  0
LINE
  5
48D
330
1F
100
AcDbEntity
  8
0
100
AcDbLine
 10
894.3052037286
 20
73.3670861245
 30
0.0
 11
894.3052037286
 21
385.7670861245
 31
0.0
  0
LINE
  5
48E
330
1F
100
AcDbEntity
  8
0
100
AcDbLine
 10
869.9841708175
 20
387.0170347241
 30
0.0
 11
840.5052021572
 21
387.0170347241
 31
0.0
  0
LINE
  5
48F
330
1F
100
AcDbEntity
  8
0
100
AcDbLine
 10
840.5052021572
 20
72.117137525
 30
0.0
 11
869.9841708175
 21
72.117137525
 31
0.0
  0
LINE
  5
490
330
1F
100
AcDbEntity
  8
0
100
AcDbLine
 10
869.9841708175
 20
72.117137525
 30
0.0
 11
871.7277359233
 21
73.8607026307
 31
0.0
  0
LINE
  5
491
330
1F
100
AcDbEntity
  8
0
100
AcDbLine
 10
871.7277359233
 20
385.2734696183
 30
0.0
 11
869.9841708175
 21
387.0170347241
 31
0.0
  0
LINE
  5
492
330
1F
100
AcDbEntity
  8
0
100
AcDbLine
 10
871.7277359233
 20
73.8607026307
 30
0.0
 11
878.7500697226
 21
75.8678409382
 31
0.0
  0
LINE
  5
493
330
1F
100
AcDbEntity
  8
0
100
AcDbLine
 10
878.7500697226
 20
383.2663313109
 30
0.0
 11
871.7277359233
 21
385.2734696183
 31
0.0
  0
LINE
  5
494
330
1F
100
AcDbEntity
  8
0
100
AcDbLine
 10
881.3052024594
 20
383.2663313109
 30
0.0
 11
878.7500697226
 21
383.2663313109
 31
0.0
  0
LINE
  5
495
330
1F
100
AcDbEntity
  8
0
100
AcDbLine
 10
878.7500697226
 20
75.8678409382
 30
0.0
 11
881.3052024594
 21
75.8678409382
 31
0.0
  0
LINE
  5
496
330
1F
100
AcDbEntity
  8
0
100
AcDbLine
 10
596.2052021572
 20
72.0670861245
 30
0.0
 11
600.9052021572
 21
72.0670861245
 31
0.0
  0
LINE
  5
497
330
1F
100
AcDbEntity
  8
0
100
AcDbLine
 10
600.9052021572
 20
387.0670861245
 30
0.0
 11
596.2052021572
 21
387.0670861245
 31
0.0
  0
ARC
  5
498
330
1F
100
AcDbEntity
  8
0
100
AcDbCircle
 10
596.2052005858
 20
73.3670861245
 30
0.0
 40
1.300000000004642
100
AcDbArc
 50
180.0
 51
270.0000692571
  0
ARC
  5
499
330
1F
100
AcDbEntity
  8
0
100
AcDbCircle
 10
596.2052005858
 20
385.7670861245
 30
0.0
 40
1.300000000004729
100
AcDbArc
 50
89.9999307429
 51
180.0
  0
LINE
  5
49A
330
1F
100
AcDbEntity
  8
0
100
AcDbLine
 10
594.9052005858
 20
385.7670861245
 30
0.0
 11
594.9052005858
 21
73.3670861245
 31
0.0
  0
LINE
  5
49B
330
1F
100
AcDbEntity
  8
0
100
AcDbLine
 10
619.2262334968
 20
72.117137525
 30
0.0
 11
648.8052021572
 21
72.117137525
 31
0.0
  0
LINE
  5
49C
330
1F
100
AcDbEntity
  8
0
100
AcDbLine
 10
648.8052021572
 20
387.0170347241
 30
0.0
 11
619.2262334968
 21
387.0170347241
 31
0.0
  0
LINE
  5
49D
330
1F
100
AcDbEntity
  8
0
100
AcDbLine
 10
619.2262334968
 20
387.0170347241
 30
0.0
 11
617.482668391
 21
385.2734696183
 31
0.0
  0
LINE
  5
49E
330
1F
100
AcDbEntity
  8
0
100
AcDbLine
 10
617.482668391
 20
73.8607026307
 30
0.0
 11
619.2262334968
 21
72.117137525
 31
0.0
  0
LINE
  5
49F
330
1F
100
AcDbEntity
  8
0
100
AcDbLine
 10
617.482668391
 20
385.2734696183
 30
0.0
 11
610.4603345917
 21
383.2663313109
 31
0.0
  0
LINE
  5
4A0
330
1F
100
AcDbEntity
  8
0
100
AcDbLine
 10
610.4603345917
 20
75.8678409382
 30
0.0
 11
617.482668391
 21
73.8607026307
 31
0.0
  0
LINE
  5
4A1
330
1F
100
AcDbEntity
  8
0
100
AcDbLine
 10
607.905201855
 20
75.8678409382
 30
0.0
 11
610.4603345917
 21
75.8678409382
 31
0.0
  0
LINE
  5
4A2
330
1F
100
AcDbEntity
  8
0
100
AcDbLine
 10
610.4603345917
 20
383.2663313109
 30
0.0
 11
607.905201855
 21
383.2663313109
 31
0.0
  0
LINE
  5
4A3
330
1F
100
AcDbEntity
  8
0
100
AcDbLine
 10
650.6552021572
 20
-3.7829138755
 30
0.0
 11
650.6552021572
 21
-9.7829138755
 31
0.0
  0
LINE
  5
4A4
330
1F
100
AcDbEntity
  8
0
100
AcDbLine
 10
838.6552021572
 20
-3.7829138755
 30
0.0
 11
838.6552021572
 21
-9.7829138755
 31
0.0
  0
LINE
  5
4A5
330
1F
100
AcDbEntity
  8
0
100
AcDbLine
 10
838.6552021572
 20
-9.7829138755
 30
0.0
 11
650.6552021572
 21
-9.7829138755
 31
0.0
  0
LINE
  5
4A6
330
1F
100
AcDbEntity
  8
0
100
AcDbLine
 10
838.6552021572
 20
-3.7829138755
 30
0.0
 11
650.6552021572
 21
-3.7829138755
 31
0.0
  0
LINE
  5
4A7
330
1F
100
AcDbEntity
  8
0
100
AcDbLine
 10
650.6552021572
 20
455.8170861245
 30
0.0
 11
650.6552021572
 21
-3.7829138755
 31
0.0
  0
LINE
  5
4A8
330
1F
100
AcDbEntity
  8
0
100
AcDbLine
 10
838.6552021572
 20
-3.7829138755
 30
0.0
 11
838.6552021572
 21
455.8170861245
 31
0.0
  0
LINE
  5
4A9
330
1F
100
AcDbEntity
  8
0
100
AcDbLine
 10
772.5981941542
 20
-3.7829138755
 30
0.0
 11
838.6552021572
 21
-3.7829138755
 31
0.0
  0
ARC
  5
4AA
330
1F
100
AcDbEntity
  8
0
100
AcDbCircle
 10
769.7259128309
 20
4.2170861245
 30
0.0
 40
8.500000000000213
100
AcDbArc
 50
289.7499227957
 51
250.2500772043
  0
LINE
  5
4AB
330
1F
100
AcDbEntity
  8
0
100
AcDbLine
 10
650.6552021572
 20
-3.7829138755
 30
0.0
 11
766.8536315077
 21
-3.7829138755
 31
0.0
  0
LINE
  5
4AC
330
1F
100
AcDbEntity
  8
0
100
AcDbLine
 10
742.5552021572
 20
467.8670861245
 30
0.0
 11
742.570136211
 21
467.8670861245
 31
0.0
  0
LINE
  5
4AD
330
1F
100
AcDbEntity
  8
0
100
AcDbLine
 10
742.570136211
 20
467.8670861245
 30
0.0
 11
744.4052021572
 21
467.8670861245
 31
0.0
  0
LINE
  5
4AE
330
1F
100
AcDbEntity
  8
0
100
AcDbLine
 10
744.4052021572
 20
467.8670861245
 30
0.0
 11
744.9052021572
 21
467.8670861245
 31
0.0
  0
LINE
  5
4AF
330
1F
100
AcDbEntity
  8
0
100
AcDbLine
 10
744.9052021572
 20
467.8670861245
 30
0.0
 11
746.7402681034
 21
467.8670861245
 31
0.0
  0
LINE
  5
4B0
330
1F
100
AcDbEntity
  8
0
100
AcDbLine
 10
746.7402681034
 20
467.8670861245
 30
0.0
 11
746.7552021572
 21
467.8670861245
 31
0.0
  0
LINE
  5
4B1
330
1F
100
AcDbEntity
  8
0
100
AcDbLine
 10
744.9552021572
 20
455.3170861245
 30
0.0
 11
744.3552021572
 21
455.3170861245
 31
0.0
  0
LINE
  5
4B2
330
1F
100
AcDbEntity
  8
0
100
AcDbLine
 10
806.8052021572
 20
467.8670861245
 30
0.0
 11
806.8341908221
 21
467.8670861245
 31
0.0
  0
LINE
  5
4B3
330
1F
100
AcDbEntity
  8
0
100
AcDbLine
 10
806.8341908221
 20
467.8670861245
 30
0.0
 11
808.7534788386
 21
467.8670861245
 31
0.0
  0
LINE
  5
4B4
330
1F
100
AcDbEntity
  8
0
100
AcDbLine
 10
808.7534788386
 20
467.8670861245
 30
0.0
 11
809.2529262574
 21
467.8670861245
 31
0.0
  0
LINE
  5
4B5
330
1F
100
AcDbEntity
  8
0
100
AcDbLine
 10
809.2529262574
 20
467.8670861245
 30
0.0
 11
810.9997140417
 21
467.8670861245
 31
0.0
  0
LINE
  5
4B6
330
1F
100
AcDbEntity
  8
0
100
AcDbLine
 10
810.9997140417
 20
467.8670861245
 30
0.0
 11
811.0052021572
 21
467.8670861245
 31
0.0
  0
LINE
  5
4B7
330
1F
100
AcDbEntity
  8
0
100
AcDbLine
 10
808.9193024868
 20
455.3170861245
 30
0.0
 11
808.6052021572
 21
455.3170861245
 31
0.0
  0
LINE
  5
4B8
330
1F
100
AcDbEntity
  8
0
100
AcDbLine
 10
809.2052021572
 20
455.3170861245
 30
0.0
 11
808.9193024868
 21
455.3170861245
 31
0.0
  0
LINE
  5
4B9
330
1F
100
AcDbEntity
  8
0
100
AcDbLine
 10
639.2966919334
 20
467.8670861245
 30
0.0
 11
641.856562404
 21
467.8670861245
 31
0.0
  0
LINE
  5
4BA
330
1F
100
AcDbEntity
  8
0
100
AcDbLine
 10
641.856562404
 20
467.8670861245
 30
0.0
 11
642.1471867197
 21
467.8670861245
 31
0.0
  0
LINE
  5
4BB
330
1F
100
AcDbEntity
  8
0
100
AcDbLine
 10
642.1471867197
 20
467.8670861245
 30
0.0
 11
642.4052021572
 21
467.8670861245
 31
0.0
  0
LINE
  5
4BC
330
1F
100
AcDbEntity
  8
0
100
AcDbLine
 10
638.2052021572
 20
467.8670861245
 30
0.0
 11
638.8898289256
 21
467.8670861245
 31
0.0
  0
LINE
  5
4BD
330
1F
100
AcDbEntity
  8
0
100
AcDbLine
 10
638.8898289256
 20
467.8670861245
 30
0.0
 11
639.2966919334
 21
467.8670861245
 31
0.0
  0
LINE
  5
4BE
330
1F
100
AcDbEntity
  8
0
100
AcDbLine
 10
640.6052021572
 20
455.3170861245
 30
0.0
 11
640.0052021572
 21
455.3170861245
 31
0.0
  0
LINE
  5
4BF
330
1F
100
AcDbEntity
  8
0
100
AcDbLine
 10
846.8052021572
 20
467.8670861245
 30
0.0
 11
847.0632175946
 21
467.8670861245
 31
0.0
  0
LINE
  5
4C0
330
1F
100
AcDbEntity
  8
0
100
AcDbLine
 10
847.0632175946
 20
467.8670861245
 30
0.0
 11
847.3538419103
 21
467.8670861245
 31
0.0
  0
LINE
  5
4C1
330
1F
100
AcDbEntity
  8
0
100
AcDbLine
 10
847.3538419103
 20
467.8670861245
 30
0.0
 11
849.9137123809
 21
467.8670861245
 31
0.0
  0
LINE
  5
4C2
330
1F
100
AcDbEntity
  8
0
100
AcDbLine
 10
849.9137123809
 20
467.8670861245
 30
0.0
 11
850.3205753887
 21
467.8670861245
 31
0.0
  0
LINE
  5
4C3
330
1F
100
AcDbEntity
  8
0
100
AcDbLine
 10
850.3205753887
 20
467.8670861245
 30
0.0
 11
851.0052021572
 21
467.8670861245
 31
0.0
  0
LINE
  5
4C4
330
1F
100
AcDbEntity
  8
0
100
AcDbLine
 10
849.0795767466
 20
455.3170861245
 30
0.0
 11
848.6052021572
 21
455.3170861245
 31
0.0
  0
LINE
  5
4C5
330
1F
100
AcDbEntity
  8
0
100
AcDbLine
 10
849.2052021572
 20
455.3170861245
 30
0.0
 11
849.0795767466
 21
455.3170861245
 31
0.0
  0
LINE
  5
4C6
330
1F
100
AcDbEntity
  8
0
100
AcDbLine
 10
680.4569254758
 20
467.8670861245
 30
0.0
 11
682.3762134923
 21
467.8670861245
 31
0.0
  0
LINE
  5
4C7
330
1F
100
AcDbEntity
  8
0
100
AcDbLine
 10
682.3762134923
 20
467.8670861245
 30
0.0
 11
682.4052021572
 21
467.8670861245
 31
0.0
  0
LINE
  5
4C8
330
1F
100
AcDbEntity
  8
0
100
AcDbLine
 10
678.2052021572
 20
467.8670861245
 30
0.0
 11
678.2106902726
 21
467.8670861245
 31
0.0
  0
LINE
  5
4C9
330
1F
100
AcDbEntity
  8
0
100
AcDbLine
 10
678.2106902726
 20
467.8670861245
 30
0.0
 11
679.9574780569
 21
467.8670861245
 31
0.0
  0
LINE
  5
4CA
330
1F
100
AcDbEntity
  8
0
100
AcDbLine
 10
679.9574780569
 20
467.8670861245
 30
0.0
 11
680.4569254758
 21
467.8670861245
 31
0.0
  0
LINE
  5
4CB
330
1F
100
AcDbEntity
  8
0
100
AcDbLine
 10
680.6052021572
 20
455.3170861245
 30
0.0
 11
680.0052021572
 21
455.3170861245
 31
0.0
  0
LINE
  5
4CC
330
1F
100
AcDbEntity
  8
0
100
AcDbLine
 10
634.4466235134
 20
455.8170861245
 30
0.0
 11
634.4466235134
 21
463.1170861245
 31
0.0
  0
LINE
  5
4CD
330
1F
100
AcDbEntity
  8
0
100
AcDbLine
 10
854.8637808009
 20
463.1170861245
 30
0.0
 11
854.8637808009
 21
455.8170861245
 31
0.0
  0
LINE
  5
4CE
330
1F
100
AcDbEntity
  8
0
100
AcDbLine
 10
854.8637808009
 20
455.8170861245
 30
0.0
 11
634.4466235134
 21
455.8170861245
 31
0.0
  0
SPLINE
  5
4CF
330
1F
100
AcDbEntity
  8
0
100
AcDbSpline
210
0.0
220
0.0
230
1.0
 70
     8
 71
     3
 72
    12
 73
     8
 74
     0
 42
0.00000001
 43
0.00000001
 40
0.0
 40
0.0
 40
0.0
 40
0.0
 40
0.2255407622558499
 40
0.4511342019104517
 40
0.6767278442586544
 40
0.9023212728363882
 40
1.0
 40
1.0
 40
1.0
 40
1.0
 10
854.0052021571673
 20
464.8170861245261
 30
0.0
 10
854.0697726669408
 20
464.7963283830669
 30
0.0
 10
854.1989287676041
 20
464.7548080519613
 30
0.0
 10
854.3927014455592
 20
464.4321720201575
 30
0.0
 10
854.5863667025095
 20
463.9615492597892
 30
0.0
 10
854.7438029476739
 20
463.4901921634113
 30
0.0
 10
854.8359407738158
 20
463.2036627881118
 30
0.0
 10
854.86378080093
 20
463.1170861245261
 30
0.0
  0
SPLINE
  5
4D0
330
1F
100
AcDbEntity
  8
0
100
AcDbSpline
210
0.0
220
0.0
230
1.0
 70
     8
 71
     3
 72
    12
 73
     8
 74
     0
 42
0.00000001
 43
0.00000001
 40
0.0
 40
0.0
 40
0.0
 40
0.0
 40
0.225540762255854
 40
0.4511342019104581
 40
0.6767278442586646
 40
0.9023212728363977
 40
1.0
 40
1.0
 40
1.0
 40
1.0
 10
634.4466235134048
 20
463.1170861245261
 30
0.0
 10
634.5111940231783
 20
463.317866650767
 30
0.0
 10
634.6403501238415
 20
463.7194745976362
 30
0.0
 10
634.8341228017964
 20
464.2476343137405
 30
0.0
 10
635.0277880587469
 20
464.6327916204119
 30
0.0
 10
635.1852243039112
 20
464.7997462773961
 30
0.0
 10
635.2773621300531
 20
464.8130625334952
 30
0.0
 10
635.3052021571675
 20
464.817086124526
 30
0.0
  0
LINE
  5
4D1
330
1F
100
AcDbEntity
  8
0
100
AcDbLine
 10
635.3052021572
 20
464.8170861245
 30
0.0
 11
854.0052021572
 21
464.8170861245
 31
0.0
  0
SPLINE
  5
4D2
330
1F
100
AcDbEntity
  8
0
100
AcDbSpline
210
0.0
220
0.0
230
1.0
 70
     8
 71
     3
 72
    11
 73
     7
 74
     0
 42
0.00000001
 43
0.00000001
 40
0.0
 40
0.0
 40
0.0
 40
0.0
 40
0.0712594150275207
 40
0.4822663997264988
 40
0.893273349718337
 40
1.0
 40
1.0
 40
1.0
 40
1.0
 10
634.7176443823507
 20
463.9132133457317
 30
0.0
 10
634.6980134226019
 20
463.9028949730402
 30
0.0
 10
634.565155858762
 20
463.8330627347738
 30
0.0
 10
634.4035025554211
 20
463.5871349662501
 30
0.0
 10
634.3109676234595
 20
463.3114209012532
 30
0.0
 10
634.3061875343858
 20
463.1502999275421
 30
0.0
 10
634.3052021571675
 20
463.1170861245261
 30
0.0
  0
LINE
  5
4D3
330
1F
100
AcDbEntity
  8
0
100
AcDbLine
 10
634.3052021572
 20
463.1170861245
 30
0.0
 11
633.6052021572
 21
463.1170861245
 31
0.0
  0
SPLINE
  5
4D4
330
1F
100
AcDbEntity
  8
0
100
AcDbSpline
210
0.0
220
0.0
230
1.0
 70
     8
 71
     3
 72
    12
 73
     8
 74
     0
 42
0.00000001
 43
0.00000001
 40
0.0
 40
0.0
 40
0.0
 40
0.0
 40
0.2255407622558485
 40
0.451134201910436
 40
0.6767278442586404
 40
0.9023212728363608
 40
1.0
 40
1.0
 40
1.0
 40
1.0
 10
635.3052021571675
 20
464.817086124526
 30
0.0
 10
635.1044216309265
 20
464.7963283830669
 30
0.0
 10
634.7028136840573
 20
464.7548080519614
 30
0.0
 10
634.1746539679531
 20
464.4321720201575
 30
0.0
 10
633.7894966612816
 20
463.9615492597893
 30
0.0
 10
633.6225420042975
 20
463.4901921634113
 30
0.0
 10
633.6092257481982
 20
463.2036627881118
 30
0.0
 10
633.6052021571675
 20
463.1170861245261
 30
0.0
  0
SPLINE
  5
4D5
330
1F
100
AcDbEntity
  8
0
100
AcDbSpline
210
0.0
220
0.0
230
1.0
 70
     8
 71
     3
 72
    12
 73
     8
 74
     0
 42
0.00000001
 43
0.00000001
 40
0.0
 40
0.0
 40
0.0
 40
0.0
 40
0.2255407622558437
 40
0.4511342019104468
 40
0.6767278442586412
 40
0.9023212728363714
 40
1.0
 40
1.0
 40
1.0
 40
1.0
 10
855.7052021571674
 20
463.1170861245261
 30
0.0
 10
855.6844444157083
 20
463.317866650767
 30
0.0
 10
855.6429240846029
 20
463.7194745976362
 30
0.0
 10
855.320288052799
 20
464.2476343137405
 30
0.0
 10
854.8496652924307
 20
464.6327916204119
 30
0.0
 10
854.3783081960528
 20
464.799746277396
 30
0.0
 10
854.0917788207531
 20
464.8130625334953
 30
0.0
 10
854.0052021571674
 20
464.8170861245261
 30
0.0
  0
LINE
  5
4D6
330
1F
100
AcDbEntity
  8
0
100
AcDbLine
 10
855.0052021572
 20
463.1170861245
 30
0.0
 11
855.7052021572
 21
463.1170861245
 31
0.0
  0
SPLINE
  5
4D7
330
1F
100
AcDbEntity
  8
0
100
AcDbSpline
210
0.0
220
0.0
230
1.0
 70
     8
 71
     3
 72
    10
 73
     6
 74
     0
 42
0.00000001
 43
0.00000001
 40
0.0
 40
0.0
 40
0.0
 40
0.0
 40
0.3460734631000567
 40
0.7655709923072508
 40
1.0
 40
1.0
 40
1.0
 40
1.0
 10
855.0052021571674
 20
463.1170861245261
 30
0.0
 10
854.9947526833406
 20
463.2218889095086
 30
0.0
 10
854.9716367414967
 20
463.4537297775626
 30
0.0
 10
854.8235361116274
 20
463.7387521821239
 30
0.0
 10
854.6607710107028
 20
463.8547659881498
 30
0.0
 10
854.6024206319619
 20
463.8963562890331
 30
0.0
  0
LINE
  5
4D8
330
1F
100
AcDbEntity
  8
0
100
AcDbLine
 10
633.6052021572
 20
455.8170861245
 30
0.0
 11
634.3052021572
 21
455.8170861245
 31
0.0
  0
LINE
  5
4D9
330
1F
100
AcDbEntity
  8
0
100
AcDbLine
 10
633.6052021572
 20
463.1170861245
 30
0.0
 11
633.6052021572
 21
455.8170861245
 31
0.0
  0
LINE
  5
4DA
330
1F
100
AcDbEntity
  8
0
100
AcDbLine
 10
634.3052021572
 20
463.1170861245
 30
0.0
 11
634.3052021572
 21
455.8170861245
 31
0.0
  0
LINE
  5
4DB
330
1F
100
AcDbEntity
  8
0
100
AcDbLine
 10
855.7052021572
 20
455.8170861245
 30
0.0
 11
855.0052021572
 21
455.8170861245
 31
0.0
  0
LINE
  5
4DC
330
1F
100
AcDbEntity
  8
0
100
AcDbLine
 10
855.7052021572
 20
455.8170861245
 30
0.0
 11
855.7052021572
 21
463.1170861245
 31
0.0
  0
LINE
  5
4DD
330
1F
100
AcDbEntity
  8
0
100
AcDbLine
 10
855.0052021572
 20
455.8170861245
 30
0.0
 11
855.0052021572
 21
463.1170861245
 31
0.0
  0
ARC
  5
4DE
330
1F
100
AcDbEntity
  8
0
100
AcDbCircle
 10
768.8534868712
 20
11.1625071301
 30
0.0
 40
0.749999999999985
100
AcDbArc
 50
190.2304077269
 51
4.0886341048
  0
CIRCLE
  5
4DF
330
1F
100
AcDbEntity
  8
0
100
AcDbCircle
 10
769.7259128309
 20
4.2170861245
 30
0.0
 40
7.999999999999983
  0
ARC
  5
4E0
330
1F
100
AcDbEntity
  8
0
100
AcDbCircle
 10
769.7259128309
 20
4.2170861245
 30
0.0
 40
6.999999999999974
100
AcDbArc
 50
103.301294538
 51
91.0177472937
  0
LINE
  5
4E1
330
1F
100
AcDbEntity
  8
0
100
AcDbLine
 10
841.7052021572
 20
-1.9829138755
 30
0.0
 11
841.7052021572
 21
26.2170861245
 31
0.0
  0
LINE
  5
4E2
330
1F
100
AcDbEntity
  8
0
100
AcDbLine
 10
650.6552021572
 20
26.2170861245
 30
0.0
 11
647.6052021572
 21
26.2170861245
 31
0.0
  0
LINE
  5
4E3
330
1F
100
AcDbEntity
  8
0
100
AcDbLine
 10
841.7052021572
 20
26.2170861245
 30
0.0
 11
838.6552021572
 21
26.2170861245
 31
0.0
  0
LINE
  5
4E4
330
1F
100
AcDbEntity
  8
0
100
AcDbLine
 10
647.6052021572
 20
-1.9829138755
 30
0.0
 11
647.6052021572
 21
26.2170861245
 31
0.0
  0
ARC
  5
4E5
330
1F
100
AcDbEntity
  8
0
100
AcDbCircle
 10
769.7259128309
 20
4.2170861245
 30
0.0
 40
8.250000000000044
100
AcDbArc
 50
311.2782040134
 51
228.7217959866
  0
LINE
  5
4E6
330
1F
100
AcDbEntity
  8
0
100
AcDbLine
 10
764.6094451016
 20
-2.4460886211
 30
0.0
 11
764.2832572291
 21
-1.9829138755
 31
0.0
  0
SPLINE
  5
4E7
330
1F
100
AcDbEntity
  8
0
100
AcDbSpline
210
0.0
220
0.0
230
1.0
 70
     8
 71
     3
 72
    12
 73
     8
 74
     0
 42
0.00000001
 43
0.00000001
 40
0.0
 40
0.0
 40
0.0
 40
0.0
 40
0.1182000456078701
 40
0.2349502975815136
 40
0.4678012831670797
 40
0.7110280320759386
 40
1.0
 40
1.0
 40
1.0
 40
1.0
 10
765.6981963562976
 20
-2.982913875470561
 30
0.0
 10
765.6645713573381
 20
-2.977542897358909
 30
0.0
 10
765.5977337899662
 20
-2.966866819366365
 30
0.0
 10
765.4280541684938
 20
-2.865262531314527
 30
0.0
 10
765.1580670941297
 20
-2.657075400663733
 30
0.0
 10
764.7408279686356
 20
-2.348836284030098
 30
0.0
 10
764.4442774889893
 20
-2.111682864027631
 30
0.0
 10
764.2832572291094
 20
-1.982913875470504
 30
0.0
  0
SPLINE
  5
4E8
330
1F
100
AcDbEntity
  8
0
100
AcDbSpline
210
0.0
220
0.0
230
1.0
 70
     8
 71
     3
 72
    11
 73
     7
 74
     0
 42
0.00000001
 43
0.00000001
 40
0.0
 40
0.0
 40
0.0
 40
0.0
 40
0.2450334515710297
 40
0.4998973412928512
 40
0.7547871358978377
 40
1.0
 40
1.0
 40
1.0
 40
1.0
 10
647.6052021571658
 20
-1.982913875470116
 30
0.0
 10
647.7521817123172
 20
-2.214034374600826
 30
0.0
 10
648.0520374600671
 20
-2.685547640618013
 30
0.0
 10
648.5050313521161
 20
-3.286588552409431
 30
0.0
 10
648.9581325567744
 20
-3.703696180249627
 30
0.0
 10
649.2581138250299
 20
-3.756850822523916
 30
0.0
 10
649.4052021571657
 20
-3.782913875470084
 30
0.0
  0
LINE
  5
4E9
330
1F
100
AcDbEntity
  8
0
100
AcDbLine
 10
649.4052021572
 20
-3.7829138755
 30
0.0
 11
650.6552021572
 21
-3.7829138755
 31
0.0
  0
SPLINE
  5
4EA
330
1F
100
AcDbEntity
  8
0
100
AcDbSpline
210
0.0
220
0.0
230
1.0
 70
     8
 71
     3
 72
    11
 73
     7
 74
     0
 42
0.00000001
 43
0.00000001
 40
0.0
 40
0.0
 40
0.0
 40
0.0
 40
0.2475522032093845
 40
0.5024226380969103
 40
0.757312600481742
 40
1.0
 40
1.0
 40
1.0
 40
1.0
 10
839.9052021571657
 20
-3.78291387547075
 30
0.0
 10
840.0537098107816
 20
-3.756353576699012
 30
0.0
 10
840.3551153573285
 20
-3.70244779357698
 30
0.0
 10
840.8096062742601
 20
-3.281730305327468
 30
0.0
 10
841.2612139829533
 20
-2.681080749016351
 30
0.0
 10
841.559645673821
 20
-2.211799960288918
 30
0.0
 10
841.7052021571658
 20
-1.982913875470782
 30
0.0
  0
LINE
  5
4EB
330
1F
100
AcDbEntity
  8
0
100
AcDbLine
 10
838.6552021572
 20
-3.7829138755
 30
0.0
 11
839.9052021572
 21
-3.7829138755
 31
0.0
  0
LINE
  5
4EC
330
1F
100
AcDbEntity
  8
0
100
AcDbLine
 10
775.1685684327
 20
-1.9829138755
 30
0.0
 11
774.8724150978
 21
-2.4040629196
 31
0.0
  0
SPLINE
  5
4ED
330
1F
100
AcDbEntity
  8
0
100
AcDbSpline
210
0.0
220
0.0
230
1.0
 70
     8
 71
     3
 72
    12
 73
     8
 74
     0
 42
0.00000001
 43
0.00000001
 40
0.0
 40
0.0
 40
0.0
 40
0.0
 40
0.281642376830864
 40
0.5312978823858002
 40
0.7657186380974624
 40
0.8824598236169386
 40
1.0
 40
1.0
 40
1.0
 40
1.0
 10
775.1685684327474
 20
-1.98291387547056
 30
0.0
 10
775.0117292518012
 20
-2.108287779086448
 30
0.0
 10
774.715863531417
 20
-2.344796539760607
 30
0.0
 10
774.298993521681
 20
-2.655576288290662
 30
0.0
 10
774.0271168522725
 20
-2.866623292083814
 30
0.0
 10
773.855675662551
 20
-2.967145116365422
 30
0.0
 10
773.7877220073833
 20
-2.977645685422747
 30
0.0
 10
773.7536293055592
 20
-2.982913875470505
 30
0.0
  0
SPLINE
  5
4EE
330
1F
100
AcDbEntity
  8
0
100
AcDbSpline
210
0.0
220
0.0
230
1.0
 70
     8
 71
     3
 72
    11
 73
     7
 74
     0
 42
0.00000001
 43
0.00000001
 40
0.0
 40
0.0
 40
0.0
 40
0.0
 40
0.2500000000000045
 40
0.5000000000000107
 40
0.7500000000000168
 40
1.0
 40
1.0
 40
1.0
 40
1.0
 10
841.7052021571657
 20
-1.982913875470893
 30
0.0
 10
841.6781453261486
 20
-2.21878055432212
 30
0.0
 10
841.6240316641141
 20
-2.690513912024628
 30
0.0
 10
841.207783080494
 20
-3.285494798799027
 30
0.0
 10
840.6128021937195
 20
-3.701743382419409
 30
0.0
 10
840.141068836017
 20
-3.755857044453748
 30
0.0
 10
839.9052021571658
 20
-3.782913875470917
 30
0.0
  0
SPLINE
  5
4EF
330
1F
100
AcDbEntity
  8
0
100
AcDbSpline
210
0.0
220
0.0
230
1.0
 70
     8
 71
     3
 72
    11
 73
     7
 74
     0
 42
0.00000001
 43
0.00000001
 40
0.0
 40
0.0
 40
0.0
 40
0.0
 40
0.2500000000000008
 40
0.4999999999999977
 40
0.7500000000000009
 40
1.0
 40
1.0
 40
1.0
 40
1.0
 10
649.4052021571657
 20
-3.782913875470251
 30
0.0
 10
649.1693354783146
 20
-3.755857044453026
 30
0.0
 10
648.697602120612
 20
-3.701743382418632
 30
0.0
 10
648.1026212338377
 20
-3.285494798798416
 30
0.0
 10
647.6863726502173
 20
-2.690513912023851
 30
0.0
 10
647.6322589881829
 20
-2.218780554321453
 30
0.0
 10
647.6052021571658
 20
-1.982913875470227
 30
0.0
  0
LINE
  5
4F0
330
1F
100
AcDbEntity
  8
0
100
AcDbLine
 10
773.7536293056
 20
-2.9829138755
 30
0.0
 11
773.2130319858
 21
-2.9829138755
 31
0.0
  0
LINE
  5
4F1
330
1F
100
AcDbEntity
  8
0
100
AcDbLine
 10
766.2387936761
 20
-2.9829138755
 30
0.0
 11
765.6981963563
 21
-2.9829138755
 31
0.0
  0
LINE
  5
4F2
330
1F
100
AcDbEntity
  8
0
100
AcDbLine
 10
648.7052021572
 20
403.4670861245
 30
0.0
 11
648.7052021572
 21
395.6670861245
 31
0.0
  0
LINE
  5
4F3
330
1F
100
AcDbEntity
  8
0
100
AcDbLine
 10
647.2052021572
 20
400.6670861245
 30
0.0
 11
647.2052021572
 21
398.4670861245
 31
0.0
  0
LINE
  5
4F4
330
1F
100
AcDbEntity
  8
0
100
AcDbLine
 10
842.0052021572
 20
58.4670861245
 30
0.0
 11
842.0052021572
 21
60.6670861245
 31
0.0
  0
LINE
  5
4F5
330
1F
100
AcDbEntity
  8
0
100
AcDbLine
 10
842.0052021572
 20
143.9592956976
 30
0.0
 11
842.0052021572
 21
145.6670861245
 31
0.0
  0
LINE
  5
4F6
330
1F
100
AcDbEntity
  8
0
100
AcDbLine
 10
842.0052021572
 20
143.4670861245
 30
0.0
 11
842.0052021572
 21
143.9592956976
 31
0.0
  0
LWPOLYLINE
  5
4F7
330
1F
100
AcDbEntity
  8
0
100
AcDbPolyline
 90
        3
 70
   128
 43
0.0
 10
838.6552021572
 20
445.0395811044
 10
838.7002487725
 20
444.2205871062
 10
838.6552021572
 20
443.7945911446
  0
LINE
  5
4F8
330
1F
100
AcDbEntity
  8
0
100
AcDbLine
 10
842.0052021572
 20
400.6649858076
 30
0.0
 11
842.0052021572
 21
400.6670861245
 31
0.0
  0
LINE
  5
4F9
330
1F
100
AcDbEntity
  8
0
100
AcDbLine
 10
842.0052021572
 20
398.4670861245
 30
0.0
 11
842.0052021572
 21
400.6649858076
 31
0.0
  0
LINE
  5
4FA
330
1F
100
AcDbEntity
  8
0
100
AcDbLine
 10
842.0052021572
 20
315.0571953806
 30
0.0
 11
842.0052021572
 21
315.6670861245
 31
0.0
  0
LINE
  5
4FB
330
1F
100
AcDbEntity
  8
0
100
AcDbLine
 10
842.0052021572
 20
313.4670861245
 30
0.0
 11
842.0052021572
 21
315.0571953806
 31
0.0
  0
LINE
  5
4FC
330
1F
100
AcDbEntity
  8
0
100
AcDbLine
 10
646.1052021572
 20
22.3170861245
 30
0.0
 11
646.1052021572
 21
20.1170861245
 31
0.0
  0
LINE
  5
4FD
330
1F
100
AcDbEntity
  8
0
100
AcDbLine
 10
843.1052021572
 20
20.1170861245
 30
0.0
 11
843.1052021572
 21
22.3170861245
 31
0.0
  0
LINE
  5
4FE
330
1F
100
AcDbEntity
  8
0
100
AcDbLine
 10
648.7052021572
 20
318.4670861245
 30
0.0
 11
648.7052021572
 21
310.6670861245
 31
0.0
  0
LINE
  5
4FF
330
1F
100
AcDbEntity
  8
0
100
AcDbLine
 10
647.2052021572
 20
315.6670861245
 30
0.0
 11
647.2052021572
 21
313.4670861245
 31
0.0
  0
LINE
  5
500
330
1F
100
AcDbEntity
  8
0
100
AcDbLine
 10
647.2052021572
 20
60.6670861245
 30
0.0
 11
647.2052021572
 21
58.4670861245
 31
0.0
  0
LINE
  5
501
330
1F
100
AcDbEntity
  8
0
100
AcDbLine
 10
648.7052021572
 20
63.4670861245
 30
0.0
 11
648.7052021572
 21
55.6670861245
 31
0.0
  0
LINE
  5
502
330
1F
100
AcDbEntity
  8
0
100
AcDbLine
 10
648.7052021572
 20
148.4670861245
 30
0.0
 11
648.7052021572
 21
140.6670861245
 31
0.0
  0
LINE
  5
503
330
1F
100
AcDbEntity
  8
0
100
AcDbLine
 10
647.2052021572
 20
145.6670861245
 30
0.0
 11
647.2052021572
 21
143.4670861245
 31
0.0
  0
LWPOLYLINE
  5
504
330
1F
100
AcDbEntity
  8
0
100
AcDbPolyline
 90
        3
 70
   128
 43
0.0
 10
838.6552021572
 20
242.1895811044
 10
838.7046589223
 20
241.5019943694
 10
838.6552021572
 20
240.9445911446
  0
LWPOLYLINE
  5
505
330
1F
100
AcDbEntity
  8
0
100
AcDbPolyline
 90
        3
 70
   128
 43
0.0
 10
838.6552021572
 20
39.3395811044
 10
838.6864186724
 20
38.3347794915
 10
838.6552021572
 20
38.0945911446
  0
LINE
  5
506
330
1F
100
AcDbEntity
  8
0
100
AcDbLine
 10
885.5052024594
 20
393.9670861245
 30
0.0
 11
885.5052024594
 21
65.1670861245
 31
0.0
  0
LINE
  5
507
330
1F
100
AcDbEntity
  8
0
100
AcDbLine
 10
881.3052024594
 20
393.9670861245
 30
0.0
 11
881.3052024594
 21
65.1670861245
 31
0.0
  0
LINE
  5
508
330
1F
100
AcDbEntity
  8
0
100
AcDbLine
 10
603.705201855
 20
111.0693842417
 30
0.0
 11
603.705201855
 21
393.9670861245
 31
0.0
  0
LINE
  5
509
330
1F
100
AcDbEntity
  8
0
100
AcDbLine
 10
603.705201855
 20
65.1670861245
 30
0.0
 11
603.705201855
 21
111.0693842417
 31
0.0
  0
LINE
  5
50A
330
1F
100
AcDbEntity
  8
0
100
AcDbLine
 10
607.905201855
 20
111.0693842417
 30
0.0
 11
607.905201855
 21
393.9670861245
 31
0.0
  0
LINE
  5
50B
330
1F
100
AcDbEntity
  8
0
100
AcDbLine
 10
607.905201855
 20
65.1670861245
 30
0.0
 11
607.905201855
 21
111.0693842417
 31
0.0
  0
LINE
  5
50C
330
1F
100
AcDbEntity
  8
0
100
AcDbLine
 10
888.3052021572
 20
387.0670861245
 30
0.0
 11
888.3052021572
 21
72.0670861245
 31
0.0
  0
LINE
  5
50D
330
1F
100
AcDbEntity
  8
0
100
AcDbLine
 10
869.9841708175
 20
387.0170347241
 30
0.0
 11
869.9841708175
 21
72.117137525
 31
0.0
  0
LINE
  5
50E
330
1F
100
AcDbEntity
  8
0
100
AcDbLine
 10
871.7277359233
 20
385.2734696183
 30
0.0
 11
871.7277359233
 21
73.8607026307
 31
0.0
  0
LINE
  5
50F
330
1F
100
AcDbEntity
  8
0
100
AcDbLine
 10
878.7500697226
 20
383.2663313109
 30
0.0
 11
878.7500697226
 21
75.8678409382
 31
0.0
  0
LINE
  5
510
330
1F
100
AcDbEntity
  8
0
100
AcDbLine
 10
600.9052021572
 20
72.0670861245
 30
0.0
 11
600.9052021572
 21
387.0670861245
 31
0.0
  0
LINE
  5
511
330
1F
100
AcDbEntity
  8
0
100
AcDbLine
 10
619.2262334968
 20
72.117137525
 30
0.0
 11
619.2262334968
 21
387.0170347241
 31
0.0
  0
LINE
  5
512
330
1F
100
AcDbEntity
  8
0
100
AcDbLine
 10
617.482668391
 20
73.8607026307
 30
0.0
 11
617.482668391
 21
385.2734696183
 31
0.0
  0
LINE
  5
513
330
1F
100
AcDbEntity
  8
0
100
AcDbLine
 10
610.4603345917
 20
75.8678409382
 30
0.0
 11
610.4603345917
 21
383.2663313109
 31
0.0
  0
CIRCLE
  5
514
330
1F
100
AcDbEntity
  8
0
100
AcDbCircle
 10
752.7871021572
 20
416.6223861245
 30
0.0
 40
13.90000000000002
  0
CIRCLE
  5
515
330
1F
100
AcDbEntity
  8
0
100
AcDbCircle
 10
700.7871021575
 20
52.6845861245
 30
0.0
 40
13.9
  0
CIRCLE
  5
516
330
1F
100
AcDbEntity
  8
0
100
AcDbCircle
 10
752.7871021572
 20
416.6223861245
 30
0.0
 40
14.99999999999996
  0
CIRCLE
  5
517
330
1F
100
AcDbEntity
  8
0
100
AcDbCircle
 10
700.7871021575
 20
52.6845861245
 30
0.0
 40
15.0
  0
LINE
  5
518
330
1F
100
AcDbEntity
  8
0
100
AcDbLine
 10
687.2871021575
 20
60.4788147586
 30
0.0
 11
687.2871021575
 21
59.2229345398
 31
0.0
  0
LINE
  5
519
330
1F
100
AcDbEntity
  8
0
100
AcDbLine
 10
687.2871021575
 20
46.1462377092
 30
0.0
 11
687.2871021575
 21
44.8903574905
 31
0.0
  0
LINE
  5
51A
330
1F
100
AcDbEntity
  8
0
100
AcDbLine
 10
714.2871021575
 20
60.4788147586
 30
0.0
 11
713.199477984
 21
61.106754868
 31
0.0
  0
LINE
  5
51B
330
1F
100
AcDbEntity
  8
0
100
AcDbLine
 10
701.8747263311
 20
67.6451032833
 30
0.0
 11
700.7871021575
 21
68.2730433926
 31
0.0
  0
LINE
  5
51C
330
1F
100
AcDbEntity
  8
0
100
AcDbLine
 10
714.2871021575
 20
44.8903574905
 30
0.0
 11
714.2871021575
 21
46.1462377092
 31
0.0
  0
LINE
  5
51D
330
1F
100
AcDbEntity
  8
0
100
AcDbLine
 10
714.2871021575
 20
59.2229345398
 30
0.0
 11
714.2871021575
 21
60.4788147586
 31
0.0
  0
LINE
  5
51E
330
1F
100
AcDbEntity
  8
0
100
AcDbLine
 10
700.7871021575
 20
37.0961288564
 30
0.0
 11
701.8747263311
 21
37.7240689658
 31
0.0
  0
LINE
  5
51F
330
1F
100
AcDbEntity
  8
0
100
AcDbLine
 10
713.199477984
 20
44.2624173811
 30
0.0
 11
714.2871021575
 21
44.8903574905
 31
0.0
  0
LINE
  5
520
330
1F
100
AcDbEntity
  8
0
100
AcDbLine
 10
687.2871021575
 20
44.8903574905
 30
0.0
 11
688.3747263311
 21
44.2624173811
 31
0.0
  0
LINE
  5
521
330
1F
100
AcDbEntity
  8
0
100
AcDbLine
 10
699.699477984
 20
37.7240689658
 30
0.0
 11
700.7871021575
 21
37.0961288564
 31
0.0
  0
LINE
  5
522
330
1F
100
AcDbEntity
  8
0
100
AcDbLine
 10
700.7871021575
 20
68.2730433926
 30
0.0
 11
699.699477984
 21
67.6451032833
 31
0.0
  0
LINE
  5
523
330
1F
100
AcDbEntity
  8
0
100
AcDbLine
 10
688.3747263311
 20
61.106754868
 30
0.0
 11
687.2871021575
 21
60.4788147586
 31
0.0
  0
LINE
  5
524
330
1F
100
AcDbEntity
  8
0
100
AcDbLine
 10
766.2871021572
 20
408.8281574905
 30
0.0
 11
766.2871021572
 21
410.0840377092
 31
0.0
  0
LINE
  5
525
330
1F
100
AcDbEntity
  8
0
100
AcDbLine
 10
766.2871021572
 20
423.1607345398
 30
0.0
 11
766.2871021572
 21
424.4166147586
 31
0.0
  0
LINE
  5
526
330
1F
100
AcDbEntity
  8
0
100
AcDbLine
 10
752.7871021572
 20
401.0339288564
 30
0.0
 11
753.8747263307
 21
401.6618689658
 31
0.0
  0
LINE
  5
527
330
1F
100
AcDbEntity
  8
0
100
AcDbLine
 10
765.1994779836
 20
408.2002173811
 30
0.0
 11
766.2871021572
 21
408.8281574905
 31
0.0
  0
LINE
  5
528
330
1F
100
AcDbEntity
  8
0
100
AcDbLine
 10
739.2871021572
 20
408.8281574905
 30
0.0
 11
740.3747263307
 21
408.2002173811
 31
0.0
  0
LINE
  5
529
330
1F
100
AcDbEntity
  8
0
100
AcDbLine
 10
751.6994779836
 20
401.6618689658
 30
0.0
 11
752.7871021572
 21
401.0339288564
 31
0.0
  0
LINE
  5
52A
330
1F
100
AcDbEntity
  8
0
100
AcDbLine
 10
739.2871021572
 20
424.4166147586
 30
0.0
 11
739.2871021572
 21
423.1607345398
 31
0.0
  0
LINE
  5
52B
330
1F
100
AcDbEntity
  8
0
100
AcDbLine
 10
739.2871021572
 20
410.0840377092
 30
0.0
 11
739.2871021572
 21
408.8281574905
 31
0.0
  0
LINE
  5
52C
330
1F
100
AcDbEntity
  8
0
100
AcDbLine
 10
752.7871021572
 20
432.2108433927
 30
0.0
 11
751.6994779836
 21
431.5829032833
 31
0.0
  0
LINE
  5
52D
330
1F
100
AcDbEntity
  8
0
100
AcDbLine
 10
740.3747263307
 20
425.044554868
 30
0.0
 11
739.2871021572
 21
424.4166147586
 31
0.0
  0
LINE
  5
52E
330
1F
100
AcDbEntity
  8
0
100
AcDbLine
 10
766.2871021572
 20
424.4166147586
 30
0.0
 11
765.1994779836
 21
425.044554868
 31
0.0
  0
LINE
  5
52F
330
1F
100
AcDbEntity
  8
0
100
AcDbLine
 10
753.8747263307
 20
431.5829032833
 30
0.0
 11
752.7871021572
 21
432.2108433927
 31
0.0
  0
LINE
  5
530
330
1F
100
AcDbEntity
  8
0
100
AcDbLine
 10
838.8052021572
 20
26.2170861245
 30
0.0
 11
838.8052021572
 21
455.8170861245
 31
0.0
  0
LINE
  5
531
330
1F
100
AcDbEntity
  8
0
100
AcDbLine
 10
648.8052021572
 20
26.2170861245
 30
0.0
 11
648.8052021572
 21
455.8170861245
 31
0.0
  0
LINE
  5
532
330
1F
100
AcDbEntity
  8
0
100
AcDbLine
 10
840.5052021572
 20
455.8170861245
 30
0.0
 11
840.5052021572
 21
26.2170861245
 31
0.0
  0
LINE
  5
533
330
1F
100
AcDbEntity
  8
0
100
AcDbLine
 10
774.7888387311
 20
-2.2829138755
 30
0.0
 11
774.3896023575
 21
-2.2829138755
 31
0.0
  0
LINE
  5
534
330
1F
100
AcDbEntity
  8
0
100
AcDbLine
 10
772.3239890423
 20
-2.2829138755
 30
0.0
 11
767.1278366196
 21
-2.2829138755
 31
0.0
  0
LINE
  5
535
330
1F
100
AcDbEntity
  8
0
100
AcDbLine
 10
765.0622233044
 20
-2.2829138755
 30
0.0
 11
764.663548799
 21
-2.2829138755
 31
0.0
  0
LINE
  5
536
330
1F
100
AcDbEntity
  8
0
  6
PHANTOM
 62
     8
370
    18
100
AcDbLine
 10
744.6552021572
 20
465.8670861245
 30
0.0
 11
748.7552021572
 21
465.8670861245
 31
0.0
  0
LINE
  5
537
330
1F
100
AcDbEntity
  8
0
  6
PHANTOM
 62
     8
370
    18
100
AcDbLine
 10
740.5552021572
 20
465.8670861245
 30
0.0
 11
744.6552021572
 21
465.8670861245
 31
0.0
  0
LINE
  5
538
330
1F
100
AcDbEntity
  8
0
  6
PHANTOM
 62
     8
370
    18
100
AcDbLine
 10
804.8052021572
 20
465.8670861245
 30
0.0
 11
813.0052021572
 21
465.8670861245
 31
0.0
  0
LINE
  5
539
330
1F
100
AcDbEntity
  8
0
  6
PHANTOM
 62
     8
370
    18
100
AcDbLine
 10
636.2052021572
 20
465.8670861245
 30
0.0
 11
644.4052021572
 21
465.8670861245
 31
0.0
  0
LINE
  5
53A
330
1F
100
AcDbEntity
  8
0
  6
PHANTOM
 62
     8
370
    18
100
AcDbLine
 10
844.8052021572
 20
465.8670861245
 30
0.0
 11
853.0052021572
 21
465.8670861245
 31
0.0
  0
LINE
  5
53B
330
1F
100
AcDbEntity
  8
0
  6
PHANTOM
 62
     8
370
    18
100
AcDbLine
 10
676.2052021572
 20
465.8670861245
 30
0.0
 11
684.4052021572
 21
465.8670861245
 31
0.0
  0
LINE
  5
53C
330
1F
100
AcDbEntity
  8
0
  6
PHANTOM
 62
     8
370
    18
100
AcDbLine
 10
854.8637808009
 20
463.1170861245
 30
0.0
 11
634.4466235134
 21
463.1170861245
 31
0.0
  0
LINE
  5
53D
330
1F
100
AcDbEntity
  8
0
  6
PHANTOM
 62
     8
370
    18
100
AcDbLine
 10
841.7052021572
 20
-1.9829138755
 30
0.0
 11
838.6552021572
 21
-1.9829138755
 31
0.0
  0
LINE
  5
53E
330
1F
100
AcDbEntity
  8
0
  6
PHANTOM
 62
     8
370
    18
100
AcDbLine
 10
775.540549535
 20
-1.9829138755
 30
0.0
 11
775.1685684327
 21
-1.9829138755
 31
0.0
  0
LINE
  5
53F
330
1F
100
AcDbEntity
  8
0
  6
PHANTOM
 62
     8
370
    18
100
AcDbLine
 10
764.2832572291
 20
-1.9829138755
 30
0.0
 11
763.9112761269
 21
-1.9829138755
 31
0.0
  0
LINE
  5
540
330
1F
100
AcDbEntity
  8
0
  6
PHANTOM
 62
     8
370
    18
100
AcDbLine
 10
650.6552021572
 20
-1.9829138755
 30
0.0
 11
647.6052021572
 21
-1.9829138755
 31
0.0
  0
LINE
  5
541
330
1F
100
AcDbEntity
  8
0
  6
PHANTOM
 62
     8
370
    18
100
AcDbLine
 10
886.5033095773
 20
394.0105521922
 30
0.0
 11
886.5033095773
 21
65.1236200568
 31
0.0
  0
LINE
  5
542
330
1F
100
AcDbEntity
  8
0
  6
PHANTOM
 62
     8
370
    18
100
AcDbLine
 10
882.3033095773
 20
394.0105521922
 30
0.0
 11
882.3033095773
 21
65.1236200568
 31
0.0
  0
LINE
  5
543
330
1F
100
AcDbEntity
  8
0
  6
PHANTOM
 62
     8
370
    18
100
AcDbLine
 10
887.1852833154
 20
386.1953530907
 30
0.0
 11
887.1852833154
 21
72.9388191584
 31
0.0
  0
LINE
  5
544
330
1F
100
AcDbEntity
  8
0
  6
PHANTOM
 62
     8
370
    18
100
AcDbLine
 10
882.9852833154
 20
386.1953530907
 30
0.0
 11
882.9852833154
 21
72.9388191584
 31
0.0
  0
LINE
  5
545
330
1F
100
AcDbEntity
  8
0
  6
PHANTOM
 62
     8
370
    18
100
AcDbLine
 10
883.2343368744
 20
385.9670861245
 30
0.0
 11
883.2343368744
 21
73.1670861245
 31
0.0
  0
LINE
  5
546
330
1F
100
AcDbEntity
  8
0
  6
PHANTOM
 62
     8
370
    18
100
AcDbLine
 10
887.4343368744
 20
385.9670861245
 30
0.0
 11
887.4343368744
 21
73.1670861245
 31
0.0
  0
LINE
  5
547
330
1F
100
AcDbEntity
  8
0
  6
PHANTOM
 62
     8
370
    18
100
AcDbLine
 10
602.707094737
 20
111.0380543808
 30
0.0
 11
602.707094737
 21
394.0105521922
 31
0.0
  0
LINE
  5
548
330
1F
100
AcDbEntity
  8
0
  6
PHANTOM
 62
     8
370
    18
100
AcDbLine
 10
602.707094737
 20
65.1236200568
 30
0.0
 11
602.707094737
 21
111.0380543808
 31
0.0
  0
LINE
  5
549
330
1F
100
AcDbEntity
  8
0
  6
PHANTOM
 62
     8
370
    18
100
AcDbLine
 10
606.907094737
 20
111.0380543808
 30
0.0
 11
606.907094737
 21
394.0105521922
 31
0.0
  0
LINE
  5
54A
330
1F
100
AcDbEntity
  8
0
  6
PHANTOM
 62
     8
370
    18
100
AcDbLine
 10
606.907094737
 20
65.1236200568
 30
0.0
 11
606.907094737
 21
111.0380543808
 31
0.0
  0
LINE
  5
54B
330
1F
100
AcDbEntity
  8
0
  6
PHANTOM
 62
     8
370
    18
100
AcDbLine
 10
606.225120999
 20
116.6711634641
 30
0.0
 11
606.225120999
 21
386.1953530907
 31
0.0
  0
LINE
  5
54C
330
1F
100
AcDbEntity
  8
0
  6
PHANTOM
 62
     8
370
    18
100
AcDbLine
 10
606.225120999
 20
72.9388191584
 30
0.0
 11
606.225120999
 21
116.6711634641
 31
0.0
  0
LINE
  5
54D
330
1F
100
AcDbEntity
  8
0
  6
PHANTOM
 62
     8
370
    18
100
AcDbLine
 10
602.025120999
 20
116.6711634641
 30
0.0
 11
602.025120999
 21
386.1953530907
 31
0.0
  0
LINE
  5
54E
330
1F
100
AcDbEntity
  8
0
  6
PHANTOM
 62
     8
370
    18
100
AcDbLine
 10
602.025120999
 20
72.9388191584
 30
0.0
 11
602.025120999
 21
116.6711634641
 31
0.0
  0
LINE
  5
54F
330
1F
100
AcDbEntity
  8
0
  6
PHANTOM
 62
     8
370
    18
100
AcDbLine
 10
605.97606744
 20
116.8356957688
 30
0.0
 11
605.97606744
 21
385.9670861245
 31
0.0
  0
LINE
  5
550
330
1F
100
AcDbEntity
  8
0
  6
PHANTOM
 62
     8
370
    18
100
AcDbLine
 10
605.97606744
 20
73.1670861245
 30
0.0
 11
605.97606744
 21
116.8356957688
 31
0.0
  0
LINE
  5
551
330
1F
100
AcDbEntity
  8
0
  6
PHANTOM
 62
     8
370
    18
100
AcDbLine
 10
601.77606744
 20
116.8356957688
 30
0.0
 11
601.77606744
 21
385.9670861245
 31
0.0
  0
LINE
  5
552
330
1F
100
AcDbEntity
  8
0
  6
PHANTOM
 62
     8
370
    18
100
AcDbLine
 10
601.77606744
 20
73.1670861245
 30
0.0
 11
601.77606744
 21
116.8356957688
 31
0.0
  0
LINE
  5
553
330
1F
100
AcDbEntity
  8
0
  6
PHANTOM
 62
     8
370
    18
100
AcDbLine
 10
893.0052021572
 20
387.0670861245
 30
0.0
 11
893.0052021572
 21
72.0670861245
 31
0.0
  0
LINE
  5
554
330
1F
100
AcDbEntity
  8
0
  6
PHANTOM
 62
     8
370
    18
100
AcDbLine
 10
596.2052021572
 20
72.0670861245
 30
0.0
 11
596.2052021572
 21
387.0670861245
 31
0.0
  0
CIRCLE
  5
555
330
1F
100
AcDbEntity
  8
0
  6
PHANTOM
 62
     8
370
    18
100
AcDbCircle
 10
752.7871021572
 20
416.6223861245
 30
0.0
 40
12.49999999999994
  0
LINE
  5
556
330
1F
100
AcDbEntity
  8
0
  6
PHANTOM
 62
     8
370
    18
100
AcDbLine
 10
753.0470403233
 20
404.1250891308
 30
0.0
 11
753.0761533979
 21
402.7253918675
 31
0.0
  0
CIRCLE
  5
557
330
1F
100
AcDbEntity
  8
0
  6
PHANTOM
 62
     8
370
    18
100
AcDbCircle
 10
700.7871021575
 20
52.6845861245
 30
0.0
 40
12.49999999999999
  0
LINE
  5
558
330
1F
100
AcDbEntity
  8
0
  6
PHANTOM
 62
     8
370
    18
100
AcDbLine
 10
695.7876968863
 20
41.2278873446
 30
0.0
 11
695.2277634959
 21
39.9447370813
 31
0.0
  0
LINE
  5
559
330
1F
100
AcDbEntity
  8
0
  6
PHANTOM
 62
     8
370
    18
100
AcDbLine
 10
650.5052021572
 20
26.2170861245
 30
0.0
 11
650.5052021572
 21
455.8170861245
 31
0.0
  0
LINE
  5
55A
330
1F
100
AcDbEntity
  8
0
  6
PHANTOM
 62
     8
370
    18
100
AcDbLine
 10
775.8750997691
 20
-1.2829138755
 30
0.0
 11
775.5353878502
 21
-1.2829138755
 31
0.0
  0
LINE
  5
55B
330
1F
100
AcDbEntity
  8
0
  6
PHANTOM
 62
     8
370
    18
100
AcDbLine
 10
774.0560398499
 20
-1.2829138755
 30
0.0
 11
765.395785812
 21
-1.2829138755
 31
0.0
  0
LINE
  5
55C
330
1F
100
AcDbEntity
  8
0
  6
PHANTOM
 62
     8
370
    18
100
AcDbLine
 10
763.9164378116
 20
-1.2829138755
 30
0.0
 11
763.5767258928
 21
-1.2829138755
 31
0.0
  0
ENDSEC
  0
SECTION
  2
OBJECTS
  0
DICTIONARY
  5
C
330
0
100
AcDbDictionary
281
     1
  3
ACAD_GROUP
350
D
  3
ACAD_LAYOUT
350
1A
  3
ACAD_MLINESTYLE
350
17
  3
ACAD_PLOTSETTINGS
350
19
  3
ACAD_PLOTSTYLENAME
350
E
  3
ACAD_SCALELIST
350
47
  3
DWGPROPS
350
55D
  0
DICTIONARY
  5
D
102
{ACAD_REACTORS
330
C
102
}
330
C
100
AcDbDictionary
281
     1
  0
DICTIONARY
  5
1A
102
{ACAD_REACTORS
330
C
102
}
330
C
100
AcDbDictionary
281
     1
  3
Layout1
350
1E
  3
Layout2
350
26
  3
Model
350
22
  0
DICTIONARY
  5
17
102
{ACAD_REACTORS
330
C
102
}
330
C
100
AcDbDictionary
281
     1
  3
Standard
350
18
  0
DICTIONARY
  5
19
102
{ACAD_REACTORS
330
C
102
}
330
C
100
AcDbDictionary
281
     1
  0
ACDBDICTIONARYWDFLT
  5
E
102
{ACAD_REACTORS
330
C
102
}
330
C
100
AcDbDictionary
281
     1
  3
Normal
350
F
100
AcDbDictionaryWithDefault
340
F
  0
DICTIONARY
  5
47
102
{ACAD_REACTORS
330
C
102
}
330
C
100
AcDbDictionary
281
     1
  3
A0
350
48
  3
A1
350
49
  3
A2
350
4A
  3
A3
350
4B
  3
A4
350
4C
  3
A5
350
4D
  3
A6
350
4E
  3
A7
350
4F
  3
A8
350
50
  3
A9
350
51
  3
B0
350
52
  3
B1
350
53
  3
B2
350
54
  3
B3
350
55
  3
B4
350
56
  3
B5
350
57
  3
B6
350
58
  3
B7
350
59
  3
B8
350
5A
  3
B9
350
5B
  3
C0
350
5C
  3
C1
350
5D
  3
C2
350
5E
  3
C3
350
5F
  3
C4
350
60
  3
C5
350
61
  3
C6
350
62
  3
C7
350
63
  3
C8
350
64
  3
C9
350
65
  3
D0
350
66
  3
D1
350
67
  3
D2
350
68
  0
XRECORD
  5
55D
102
{ACAD_REACTORS
330
C
102
}
330
C
100
AcDbXrecord
280
     1
  1
DWGPROPS COOKIE
  2

  3

  4

  6

  7

  8
Karolis.Palepsaitis
  9

300
=
301
=
302
=
303
=
304
=
305
=
306
=
307
=
308
=
309
=
 40
0.0
 41
2459739.276284456
 42
2459739.276285174
  1

 90
        0
  0
LAYOUT
  5
1E
102
{ACAD_REACTORS
330
1A
102
}
330
1A
100
AcDbPlotSettings
  1

  2
none_device
  4

  6

 40
0.0
 41
0.0
 42
0.0
 43
0.0
 44
0.0
 45
0.0
 46
0.0
 47
0.0
 48
0.0
 49
0.0
140
0.0
141
0.0
142
1.0
143
1.0
 70
   688
 72
     1
 73
     0
 74
     5
  7

 75
    16
147
1.0
148
0.0
149
0.0
100
AcDbLayout
  1
Layout1
 70
     1
 71
     1
 10
0.0
 20
0.0
 11
420.0
 21
297.0
 12
0.0
 22
0.0
 32
0.0
 14
1.0000000000E+20
 24
1.0000000000E+20
 34
1.0000000000E+20
 15
-1.0000000000E+20
 25
-1.0000000000E+20
 35
-1.0000000000E+20
146
0.0
 13
0.0
 23
0.0
 33
0.0
 16
1.0
 26
0.0
 36
0.0
 17
0.0
 27
1.0
 37
0.0
 76
     0
330
1B
  0
LAYOUT
  5
26
102
{ACAD_REACTORS
330
1A
102
}
330
1A
100
AcDbPlotSettings
  1

  2
none_device
  4

  6

 40
0.0
 41
0.0
 42
0.0
 43
0.0
 44
0.0
 45
0.0
 46
0.0
 47
0.0
 48
0.0
 49
0.0
140
0.0
141
0.0
142
1.0
143
1.0
 70
   688
 72
     1
 73
     0
 74
     5
  7

 75
    16
147
1.0
148
0.0
149
0.0
100
AcDbLayout
  1
Layout2
 70
     1
 71
     2
 10
0.0
 20
0.0
 11
0.0
 21
0.0
 12
0.0
 22
0.0
 32
0.0
 14
0.0
 24
0.0
 34
0.0
 15
0.0
 25
0.0
 35
0.0
146
0.0
 13
0.0
 23
0.0
 33
0.0
 16
1.0
 26
0.0
 36
0.0
 17
0.0
 27
1.0
 37
0.0
 76
     0
330
23
  0
LAYOUT
  5
22
102
{ACAD_REACTORS
330
1A
102
}
330
1A
100
AcDbPlotSettings
  1

  2
none_device
  4
Letter_(8.50_x_11.00_Inches)
  6

 40
6.35
 41
6.35
 42
6.35000508
 43
6.35000508
 44
215.9
 45
279.4
 46
0.0
 47
0.0
 48
0.0
 49
0.0
140
0.0
141
0.0
142
1.0
143
1.0
 70
  1712
 72
     1
 73
     0
 74
     0
  7

 75
     0
147
1.0
148
0.0
149
0.0
100
AcDbLayout
  1
Model
 70
     1
 71
     0
 10
0.0
 20
0.0
 11
420.0
 21
297.0
 12
0.0
 22
0.0
 32
0.0
 14
0.0
 24
0.0
 34
0.0
 15
420.0
 25
297.0
 35
0.0
146
0.0
 13
0.0
 23
0.0
 33
0.0
 16
1.0
 26
0.0
 36
0.0
 17
0.0
 27
1.0
 37
0.0
 76
     0
330
1F
331
29
  0
MLINESTYLE
  5
18
102
{ACAD_REACTORS
330
17
102
}
330
17
100
AcDbMlineStyle
  2
Standard
 70
     0
  3

 62
   256
 51
90.0
 52
90.0
 71
     2
 49
0.5
 62
   256
  6
BYLAYER
 49
-0.5
 62
   256
  6
BYLAYER
  0
ACDBPLACEHOLDER
  5
F
102
{ACAD_REACTORS
330
E
102
}
330
E
  0
SCALE
  5
48
102
{ACAD_REACTORS
330
47
102
}
330
47
100
AcDbScale
 70
     0
300
1:1
140
1.0
141
1.0
290
     1
  0
SCALE
  5
49
102
{ACAD_REACTORS
330
47
102
}
330
47
100
AcDbScale
 70
     0
300
1:2
140
1.0
141
2.0
290
     0
  0
SCALE
  5
4A
102
{ACAD_REACTORS
330
47
102
}
330
47
100
AcDbScale
 70
     0
300
1:4
140
1.0
141
4.0
290
     0
  0
SCALE
  5
4B
102
{ACAD_REACTORS
330
47
102
}
330
47
100
AcDbScale
 70
     0
300
1:5
140
1.0
141
5.0
290
     0
  0
SCALE
  5
4C
102
{ACAD_REACTORS
330
47
102
}
330
47
100
AcDbScale
 70
     0
300
1:8
140
1.0
141
8.0
290
     0
  0
SCALE
  5
4D
102
{ACAD_REACTORS
330
47
102
}
330
47
100
AcDbScale
 70
     0
300
1:10
140
1.0
141
10.0
290
     0
  0
SCALE
  5
4E
102
{ACAD_REACTORS
330
47
102
}
330
47
100
AcDbScale
 70
     0
300
1:16
140
1.0
141
16.0
290
     0
  0
SCALE
  5
4F
102
{ACAD_REACTORS
330
47
102
}
330
47
100
AcDbScale
 70
     0
300
1:20
140
1.0
141
20.0
290
     0
  0
SCALE
  5
50
102
{ACAD_REACTORS
330
47
102
}
330
47
100
AcDbScale
 70
     0
300
1:30
140
1.0
141
30.0
290
     0
  0
SCALE
  5
51
102
{ACAD_REACTORS
330
47
102
}
330
47
100
AcDbScale
 70
     0
300
1:40
140
1.0
141
40.0
290
     0
  0
SCALE
  5
52
102
{ACAD_REACTORS
330
47
102
}
330
47
100
AcDbScale
 70
     0
300
1:50
140
1.0
141
50.0
290
     0
  0
SCALE
  5
53
102
{ACAD_REACTORS
330
47
102
}
330
47
100
AcDbScale
 70
     0
300
1:100
140
1.0
141
100.0
290
     0
  0
SCALE
  5
54
102
{ACAD_REACTORS
330
47
102
}
330
47
100
AcDbScale
 70
     0
300
2:1
140
2.0
141
1.0
290
     0
  0
SCALE
  5
55
102
{ACAD_REACTORS
330
47
102
}
330
47
100
AcDbScale
 70
     0
300
4:1
140
4.0
141
1.0
290
     0
  0
SCALE
  5
56
102
{ACAD_REACTORS
330
47
102
}
330
47
100
AcDbScale
 70
     0
300
8:1
140
8.0
141
1.0
290
     0
  0
SCALE
  5
57
102
{ACAD_REACTORS
330
47
102
}
330
47
100
AcDbScale
 70
     0
300
10:1
140
10.0
141
1.0
290
     0
  0
SCALE
  5
58
102
{ACAD_REACTORS
330
47
102
}
330
47
100
AcDbScale
 70
     0
300
100:1
140
100.0
141
1.0
290
     0
  0
SCALE
  5
59
102
{ACAD_REACTORS
330
47
102
}
330
47
100
AcDbScale
 70
     0
300
1/128" = 1'-0"
140
0.0078125
141
12.0
290
     0
  0
SCALE
  5
5A
102
{ACAD_REACTORS
330
47
102
}
330
47
100
AcDbScale
 70
     0
300
1/64" = 1'-0"
140
0.015625
141
12.0
290
     0
  0
SCALE
  5
5B
102
{ACAD_REACTORS
330
47
102
}
330
47
100
AcDbScale
 70
     0
300
1/32" = 1'-0"
140
0.03125
141
12.0
290
     0
  0
SCALE
  5
5C
102
{ACAD_REACTORS
330
47
102
}
330
47
100
AcDbScale
 70
     0
300
1/16" = 1'-0"
140
0.0625
141
12.0
290
     0
  0
SCALE
  5
5D
102
{ACAD_REACTORS
330
47
102
}
330
47
100
AcDbScale
 70
     0
300
3/32" = 1'-0"
140
0.09375
141
12.0
290
     0
  0
SCALE
  5
5E
102
{ACAD_REACTORS
330
47
102
}
330
47
100
AcDbScale
 70
     0
300
1/8" = 1'-0"
140
0.125
141
12.0
290
     0
  0
SCALE
  5
5F
102
{ACAD_REACTORS
330
47
102
}
330
47
100
AcDbScale
 70
     0
300
3/16" = 1'-0"
140
0.1875
141
12.0
290
     0
  0
SCALE
  5
60
102
{ACAD_REACTORS
330
47
102
}
330
47
100
AcDbScale
 70
     0
300
1/4" = 1'-0"
140
0.25
141
12.0
290
     0
  0
SCALE
  5
61
102
{ACAD_REACTORS
330
47
102
}
330
47
100
AcDbScale
 70
     0
300
3/8" = 1'-0"
140
0.375
141
12.0
290
     0
  0
SCALE
  5
62
102
{ACAD_REACTORS
330
47
102
}
330
47
100
AcDbScale
 70
     0
300
1/2" = 1'-0"
140
0.5
141
12.0
290
     0
  0
SCALE
  5
63
102
{ACAD_REACTORS
330
47
102
}
330
47
100
AcDbScale
 70
     0
300
3/4" = 1'-0"
140
0.75
141
12.0
290
     0
  0
SCALE
  5
64
102
{ACAD_REACTORS
330
47
102
}
330
47
100
AcDbScale
 70
     0
300
1" = 1'-0"
140
1.0
141
12.0
290
     0
  0
SCALE
  5
65
102
{ACAD_REACTORS
330
47
102
}
330
47
100
AcDbScale
 70
     0
300
1-1/2" = 1'-0"
140
1.5
141
12.0
290
     0
  0
SCALE
  5
66
102
{ACAD_REACTORS
330
47
102
}
330
47
100
AcDbScale
 70
     0
300
3" = 1'-0"
140
3.0
141
12.0
290
     0
  0
SCALE
  5
67
102
{ACAD_REACTORS
330
47
102
}
330
47
100
AcDbScale
 70
     0
300
6" = 1'-0"
140
6.0
141
12.0
290
     0
  0
SCALE
  5
68
102
{ACAD_REACTORS
330
47
102
}
330
47
100
AcDbScale
 70
     0
300
1'-0" = 1'-0"
140
12.0
141
12.0
290
     0
  0
ENDSEC
  0
EOF
