  0
SECTION
  2
HEADER
  9
$ACADVER
  1
AC1015
  9
$ACADMAINTVER
 70
     6
  9
$DWGCODEPAGE
  3
ANSI_1257
  9
$INSBASE
 10
0.0
 20
0.0
 30
0.0
  9
$EXTMIN
 10
0.0
 20
0.0
 30
0.0
  9
$EXTMAX
 10
420.0
 20
297.0
 30
0.0
  9
$LIMMIN
 10
0.0
 20
0.0
  9
$LIMMAX
 10
420.0
 20
297.0
  9
$ORTHOMODE
 70
     0
  9
$REGENMODE
 70
     1
  9
$FILLMODE
 70
     1
  9
$QTEXTMODE
 70
     0
  9
$MIRRTEXT
 70
     1
  9
$LTSCALE
 40
1.0
  9
$ATTMODE
 70
     1
  9
$TEXTSIZE
 40
5.6444444444
  9
$TRACEWID
 40
1.0
  9
$TEXTSTYLE
  7
Standard
  9
$CLAYER
  8
0
  9
$CELTYPE
  6
ByLayer
  9
$CECOLOR
 62
   256
  9
$CELTSCALE
 40
1.0
  9
$DISPSILH
 70
     0
  9
$DIMSCALE
 40
1.0
  9
$DIMASZ
 40
3.175
  9
$DIMEXO
 40
1.0
  9
$DIMDLI
 40
3.75
  9
$DIMRND
 40
0.0
  9
$DIMDLE
 40
0.0
  9
$DIMEXE
 40
1.0
  9
$DIMTP
 40
0.0
  9
$DIMTM
 40
0.0
  9
$DIMTXT
 40
4.9388888889
  9
$DIMCEN
 40
2.5
  9
$DIMTSZ
 40
0.0
  9
$DIMTOL
 70
     0
  9
$DIMLIM
 70
     0
  9
$DIMTIH
 70
     1
  9
$DIMTOH
 70
     1
  9
$DIMSE1
 70
     0
  9
$DIMSE2
 70
     0
  9
$DIMTAD
 70
     1
  9
$DIMZIN
 70
     0
  9
$DIMBLK
  1

  9
$DIMASO
 70
     1
  9
$DIMSHO
 70
     1
  9
$DIMPOST
  1

  9
$DIMAPOST
  1

  9
$DIMALT
 70
     0
  9
$DIMALTD
 70
     3
  9
$DIMALTF
 40
0.0393700787
  9
$DIMLFAC
 40
1.0
  9
$DIMTOFL
 70
     1
  9
$DIMTVP
 40
0.0
  9
$DIMTIX
 70
     0
  9
$DIMSOXD
 70
     0
  9
$DIMSAH
 70
     0
  9
$DIMBLK1
  1

  9
$DIMBLK2
  1

  9
$DIMSTYLE
  2
ISO-25
  9
$DIMCLRD
 70
     0
  9
$DIMCLRE
 70
     0
  9
$DIMCLRT
 70
     0
  9
$DIMTFAC
 40
1.0
  9
$DIMGAP
 40
1.524
  9
$DIMJUST
 70
     0
  9
$DIMSD1
 70
     0
  9
$DIMSD2
 70
     0
  9
$DIMTOLJ
 70
     0
  9
$DIMTZIN
 70
     0
  9
$DIMALTZ
 70
     0
  9
$DIMALTTZ
 70
     0
  9
$DIMUPT
 70
     0
  9
$DIMDEC
 70
     1
  9
$DIMTDEC
 70
     1
  9
$DIMALTU
 70
     2
  9
$DIMALTTD
 70
     3
  9
$DIMTXSTY
  7
Standard
  9
$DIMAUNIT
 70
     0
  9
$DIMADEC
 70
     1
  9
$DIMALTRND
 40
0.0
  9
$DIMAZIN
 70
     0
  9
$DIMDSEP
 70
    44
  9
$DIMATFIT
 70
     3
  9
$DIMFRAC
 70
     0
  9
$DIMLDRBLK
  1

  9
$DIMLUNIT
 70
     2
  9
$DIMLWD
 70
    -2
  9
$DIMLWE
 70
    -2
  9
$DIMTMOVE
 70
     0
  9
$LUNITS
 70
     2
  9
$LUPREC
 70
     1
  9
$SKETCHINC
 40
1.0
  9
$FILLETRAD
 40
10.0
  9
$AUNITS
 70
     0
  9
$AUPREC
 70
     1
  9
$MENU
  1
.
  9
$ELEVATION
 40
0.0
  9
$PELEVATION
 40
0.0
  9
$THICKNESS
 40
0.0
  9
$LIMCHECK
 70
     0
  9
$CHAMFERA
 40
0.0
  9
$CHAMFERB
 40
0.0
  9
$CHAMFERC
 40
0.0
  9
$CHAMFERD
 40
0.0
  9
$SKPOLY
 70
     0
  9
$TDCREATE
 40
2459788.611648403
  9
$TDUCREATE
 40
2459788.486648403
  9
$TDUPDATE
 40
2459788.611648958
  9
$TDUUPDATE
 40
2459788.486648958
  9
$TDINDWG
 40
0.0000000116
  9
$TDUSRTIMER
 40
0.0000000116
  9
$USRTIMER
 70
     1
  9
$ANGBASE
 50
0.0
  9
$ANGDIR
 70
     0
  9
$PDMODE
 70
     0
  9
$PDSIZE
 40
-1.0
  9
$PLINEWID
 40
0.0
  9
$SPLFRAME
 70
     0
  9
$SPLINETYPE
 70
     6
  9
$SPLINESEGS
 70
     8
  9
$HANDSEED
  5
4EC
  9
$SURFTAB1
 70
     6
  9
$SURFTAB2
 70
     6
  9
$SURFTYPE
 70
     6
  9
$SURFU
 70
     6
  9
$SURFV
 70
     6
  9
$UCSBASE
  2

  9
$UCSNAME
  2

  9
$UCSORG
 10
0.0
 20
0.0
 30
0.0
  9
$UCSXDIR
 10
1.0
 20
0.0
 30
0.0
  9
$UCSYDIR
 10
0.0
 20
1.0
 30
0.0
  9
$UCSORTHOREF
  2

  9
$UCSORTHOVIEW
 70
     0
  9
$UCSORGTOP
 10
0.0
 20
0.0
 30
0.0
  9
$UCSORGBOTTOM
 10
0.0
 20
0.0
 30
0.0
  9
$UCSORGLEFT
 10
0.0
 20
0.0
 30
0.0
  9
$UCSORGRIGHT
 10
0.0
 20
0.0
 30
0.0
  9
$UCSORGFRONT
 10
0.0
 20
0.0
 30
0.0
  9
$UCSORGBACK
 10
0.0
 20
0.0
 30
0.0
  9
$PUCSBASE
  2

  9
$PUCSNAME
  2

  9
$PUCSORG
 10
0.0
 20
0.0
 30
0.0
  9
$PUCSXDIR
 10
1.0
 20
0.0
 30
0.0
  9
$PUCSYDIR
 10
0.0
 20
1.0
 30
0.0
  9
$PUCSORTHOREF
  2

  9
$PUCSORTHOVIEW
 70
     0
  9
$PUCSORGTOP
 10
0.0
 20
0.0
 30
0.0
  9
$PUCSORGBOTTOM
 10
0.0
 20
0.0
 30
0.0
  9
$PUCSORGLEFT
 10
0.0
 20
0.0
 30
0.0
  9
$PUCSORGRIGHT
 10
0.0
 20
0.0
 30
0.0
  9
$PUCSORGFRONT
 10
0.0
 20
0.0
 30
0.0
  9
$PUCSORGBACK
 10
0.0
 20
0.0
 30
0.0
  9
$USERI1
 70
     0
  9
$USERI2
 70
     0
  9
$USERI3
 70
     0
  9
$USERI4
 70
     0
  9
$USERI5
 70
     0
  9
$USERR1
 40
0.0
  9
$USERR2
 40
0.0
  9
$USERR3
 40
0.0
  9
$USERR4
 40
0.0
  9
$USERR5
 40
0.0
  9
$WORLDVIEW
 70
     1
  9
$SHADEDGE
 70
     3
  9
$SHADEDIF
 70
    70
  9
$TILEMODE
 70
     1
  9
$MAXACTVP
 70
    64
  9
$PINSBASE
 10
0.0
 20
0.0
 30
0.0
  9
$PLIMCHECK
 70
     0
  9
$PEXTMIN
 10
1.0000000000E+20
 20
1.0000000000E+20
 30
1.0000000000E+20
  9
$PEXTMAX
 10
-1.0000000000E+20
 20
-1.0000000000E+20
 30
-1.0000000000E+20
  9
$PLIMMIN
 10
0.0
 20
0.0
  9
$PLIMMAX
 10
420.0
 20
297.0
  9
$UNITMODE
 70
     0
  9
$VISRETAIN
 70
     1
  9
$PLINEGEN
 70
     0
  9
$PSLTSCALE
 70
     1
  9
$TREEDEPTH
 70
  3020
  9
$CMLSTYLE
  2
Standard
  9
$CMLJUST
 70
     0
  9
$CMLSCALE
 40
20.0
  9
$PROXYGRAPHICS
 70
     1
  9
$MEASUREMENT
 70
     1
  9
$CELWEIGHT
370
    -1
  9
$ENDCAPS
280
     0
  9
$JOINSTYLE
280
     0
  9
$LWDISPLAY
290
     1
  9
$INSUNITS
 70
     4
  9
$HYPERLINKBASE
  1

  9
$STYLESHEET
  1

  9
$XEDIT
290
     1
  9
$CEPSNTYPE
380
     0
  9
$PSTYLEMODE
290
     1
  9
$FINGERPRINTGUID
  2
{72ff63d1-a35e-4d30-8f47-9645ca944be8}
  9
$VERSIONGUID
  2
{FAEB1C32-E019-11D5-929B-00C0DF256EC4}
  9
$EXTNAMES
290
     1
  9
$PSVPSCALE
 40
0.0
  9
$OLESTARTUP
290
     0
  0
ENDSEC
  0
SECTION
  2
CLASSES
  0
CLASS
  1
ACDBDICTIONARYWDFLT
  2
AcDbDictionaryWithDefault
  3
ObjectDBX Classes
 90
        0
280
     0
281
     0
  0
CLASS
  1
VISUALSTYLE
  2
AcDbVisualStyle
  3
ObjectDBX Classes
 90
     4095
280
     0
281
     0
  0
CLASS
  1
MATERIAL
  2
AcDbMaterial
  3
ObjectDBX Classes
 90
     1153
280
     0
281
     0
  0
CLASS
  1
SCALE
  2
AcDbScale
  3
ObjectDBX Classes
 90
     1153
280
     0
281
     0
  0
CLASS
  1
TABLESTYLE
  2
AcDbTableStyle
  3
ObjectDBX Classes
 90
     4095
280
     0
281
     0
  0
CLASS
  1
MLEADERSTYLE
  2
AcDbMLeaderStyle
  3
ACDB_MLEADERSTYLE_CLASS
 90
     4095
280
     0
281
     0
  0
CLASS
  1
SUN
  2
AcDbSun
  3
SCENEOE
 90
     1153
280
     0
281
     0
  0
CLASS
  1
ACDBPLACEHOLDER
  2
AcDbPlaceHolder
  3
ObjectDBX Classes
 90
        0
280
     0
281
     0
  0
CLASS
  1
LAYOUT
  2
AcDbLayout
  3
ObjectDBX Classes
 90
        0
280
     0
281
     0
  0
ENDSEC
  0
SECTION
  2
TABLES
  0
TABLE
  2
VPORT
  5
8
330
0
100
AcDbSymbolTable
 70
     1
  0
VPORT
  5
29
330
8
100
AcDbSymbolTableRecord
100
AcDbViewportTableRecord
  2
*Active
 70
     0
 10
0.0
 20
0.0
 11
1.0
 21
1.0
 12
210.0
 22
148.5
 13
0.0
 23
0.0
 14
10.0
 24
10.0
 15
10.0
 25
10.0
 16
0.0
 26
0.0
 36
1.0
 17
0.0
 27
0.0
 37
0.0
 40
297.0
 41
1.4141414141
 42
50.0
 43
0.0
 44
0.0
 50
0.0
 51
0.0
 71
     0
 72
  2000
 73
     1
 74
     3
 75
     0
 76
     0
 77
     0
 78
     0
281
     0
 65
     1
110
0.0
120
0.0
130
0.0
111
1.0
121
0.0
131
0.0
112
0.0
122
1.0
132
0.0
 79
     0
146
0.0
  0
ENDTAB
  0
TABLE
  2
LTYPE
  5
5
330
0
100
AcDbSymbolTable
 70
     6
  0
LTYPE
  5
14
330
5
100
AcDbSymbolTableRecord
100
AcDbLinetypeTableRecord
  2
ByBlock
 70
     0
  3

 72
    65
 73
     0
 40
0.0
  0
LTYPE
  5
15
330
5
100
AcDbSymbolTableRecord
100
AcDbLinetypeTableRecord
  2
ByLayer
 70
     0
  3

 72
    65
 73
     0
 40
0.0
  0
LTYPE
  5
16
330
5
100
AcDbSymbolTableRecord
100
AcDbLinetypeTableRecord
  2
Continuous
 70
     0
  3
Solid line
 72
    65
 73
     0
 40
0.0
  0
LTYPE
  5
6E
330
5
100
AcDbSymbolTableRecord
100
AcDbLinetypeTableRecord
  2
HIDDEN
 70
     0
  3
Hidden __ __ __ __ __ __ __ __ __ __ __ __ __ __
 72
    65
 73
     2
 40
1.905
 49
1.27
 74
     0
 49
-0.635
 74
     0
  0
LTYPE
  5
6F
330
5
100
AcDbSymbolTableRecord
100
AcDbLinetypeTableRecord
  2
PHANTOM
 70
     0
  3
Phantom ______  __  __  ______  __  __  ______
 72
    65
 73
     6
 40
12.7
 49
6.35
 74
     0
 49
-1.27
 74
     0
 49
1.27
 74
     0
 49
-1.27
 74
     0
 49
1.27
 74
     0
 49
-1.27
 74
     0
  0
LTYPE
  5
70
330
5
100
AcDbSymbolTableRecord
100
AcDbLinetypeTableRecord
  2
CENTER
 70
     0
  3
Center ____ _ ____ _ ____ _ ____ _ ____ _ ____
 72
    65
 73
     4
 40
10.16
 49
6.35
 74
     0
 49
-1.27
 74
     0
 49
1.27
 74
     0
 49
-1.27
 74
     0
  0
LTYPE
  5
71
330
5
100
AcDbSymbolTableRecord
100
AcDbLinetypeTableRecord
  2
CENTERX2
 70
     0
  3
Center (2x) ________  __  ________  __  _____
 72
    65
 73
     4
 40
20.32
 49
12.7
 74
     0
 49
-2.54
 74
     0
 49
2.54
 74
     0
 49
-2.54
 74
     0
  0
LTYPE
  5
72
330
5
100
AcDbSymbolTableRecord
100
AcDbLinetypeTableRecord
  2
DOT2
 70
     0
  3
Dot (.5x) ........................................
 72
    65
 73
     2
 40
0.635
 49
0.0
 74
     0
 49
-0.635
 74
     0
  0
ENDTAB
  0
TABLE
  2
LAYER
  5
2
330
0
100
AcDbSymbolTable
 70
     2
  0
LAYER
  5
10
330
2
100
AcDbSymbolTableRecord
100
AcDbLayerTableRecord
  2
0
 70
     0
 62
     7
  6
Continuous
370
    -3
390
F
  0
LAYER
  5
73
330
2
100
AcDbSymbolTableRecord
100
AcDbLayerTableRecord
  2
LENKIMO
 70
     0
 62
     1
  6
CENTERX2
370
    -3
390
F
  0
ENDTAB
  0
TABLE
  2
STYLE
  5
3
330
0
100
AcDbSymbolTable
 70
     1
  0
STYLE
  5
11
330
3
100
AcDbSymbolTableRecord
100
AcDbTextStyleTableRecord
  2
Standard
 70
     0
 40
0.0
 41
1.0
 50
0.0
 71
     0
 42
5.6444444444
  3
txt
  4

  0
ENDTAB
  0
TABLE
  2
VIEW
  5
6
330
0
100
AcDbSymbolTable
 70
     0
  0
ENDTAB
  0
TABLE
  2
UCS
  5
7
330
0
100
AcDbSymbolTable
 70
     0
  0
ENDTAB
  0
TABLE
  2
APPID
  5
9
330
0
100
AcDbSymbolTable
 70
     1
  0
APPID
  5
12
330
9
100
AcDbSymbolTableRecord
100
AcDbRegAppTableRecord
  2
ACAD
 70
     0
  0
ENDTAB
  0
TABLE
  2
DIMSTYLE
  5
A
330
0
100
AcDbSymbolTable
 70
     1
100
AcDbDimStyleTable
  0
DIMSTYLE
105
27
330
A
100
AcDbSymbolTableRecord
100
AcDbDimStyleTableRecord
  2
ISO-25
 70
     0
 41
2.5
 42
0.625
 43
3.75
 44
1.25
 73
     0
 74
     0
 77
     1
 78
     8
140
2.5
141
2.5
143
0.0393700787
147
0.625
171
     3
172
     1
178
     0
271
     2
272
     2
274
     3
278
    44
283
     0
284
     8
340
11
  0
ENDTAB
  0
TABLE
  2
BLOCK_RECORD
  5
1
330
0
100
AcDbSymbolTable
 70
     2
  0
BLOCK_RECORD
  5
1F
330
1
100
AcDbSymbolTableRecord
100
AcDbBlockTableRecord
  2
*Model_Space
340
22
  0
BLOCK_RECORD
  5
1B
330
1
100
AcDbSymbolTableRecord
100
AcDbBlockTableRecord
  2
*Paper_Space
340
1E
  0
BLOCK_RECORD
  5
23
330
1
100
AcDbSymbolTableRecord
100
AcDbBlockTableRecord
  2
*Paper_Space0
340
26
  0
BLOCK_RECORD
  5
74
330
1
100
AcDbSymbolTableRecord
100
AcDbBlockTableRecord
  2
Block11_2
340
0
  0
ENDTAB
  0
ENDSEC
  0
SECTION
  2
BLOCKS
  0
BLOCK
  5
20
330
1F
100
AcDbEntity
  8
0
100
AcDbBlockBegin
  2
*Model_Space
 70
     0
 10
0.0
 20
0.0
 30
0.0
  3
*Model_Space
  1

  0
ENDBLK
  5
21
330
1F
100
AcDbEntity
  8
0
100
AcDbBlockEnd
  0
BLOCK
  5
1C
330
1B
100
AcDbEntity
 67
     1
  8
0
100
AcDbBlockBegin
  2
*Paper_Space
 70
     0
 10
0.0
 20
0.0
 30
0.0
  3
*Paper_Space
  1

  0
ENDBLK
  5
1D
330
1B
100
AcDbEntity
 67
     1
  8
0
100
AcDbBlockEnd
  0
BLOCK
  5
24
330
23
100
AcDbEntity
  8
0
100
AcDbBlockBegin
  2
*Paper_Space0
 70
     0
 10
0.0
 20
0.0
 30
0.0
  3
*Paper_Space0
  1

  0
ENDBLK
  5
25
330
23
100
AcDbEntity
  8
0
100
AcDbBlockEnd
  0
BLOCK
  5
75
330
74
100
AcDbEntity
  8
0
100
AcDbBlockBegin
  2
Block11_2
 70
     0
 10
0.0
 20
0.0
 30
0.0
  3
Block11_2
  1

  0
LINE
  5
77
330
74
100
AcDbEntity
  8
0
  6
Continuous
100
AcDbLine
 10
-15.7956326374
 20
2.3055746011
 30
0.0
 11
-18.0649288667
 21
1.8146036087
 31
0.0
  0
LINE
  5
78
330
74
100
AcDbEntity
  8
0
  6
Continuous
100
AcDbLine
 10
-15.6988785554
 20
-9.1195335787
 30
0.0
 11
-10.2261014967
 21
-7.9354771524
 31
0.0
  0
LINE
  5
79
330
74
100
AcDbEntity
  8
0
  6
Continuous
100
AcDbLine
 10
-10.2261014967
 20
-7.9354771524
 30
0.0
 11
-10.6655808869
 21
-5.9041780766
 31
0.0
  0
LINE
  5
7A
330
74
100
AcDbEntity
  8
0
  6
Continuous
100
AcDbLine
 10
-10.6655808869
 20
-5.9041780766
 30
0.0
 11
-13.8699456036
 21
-6.5974547429
 31
0.0
  0
LINE
  5
7B
330
74
100
AcDbEntity
  8
0
  6
Continuous
100
AcDbLine
 10
-8.296070931
 20
1.802048972
 30
0.0
 11
-6.9198111955
 21
2.0998080743
 31
0.0
  0
LINE
  5
7C
330
74
100
AcDbEntity
  8
0
  6
Continuous
100
AcDbLine
 10
-5.4333831358
 20
-4.7719736412
 30
0.0
 11
-6.8095376466
 21
-5.0697099777
 31
0.0
  0
LINE
  5
7D
330
74
100
AcDbEntity
  8
0
  6
Continuous
100
AcDbLine
 10
-11.0044904538
 20
3.3421566929
 30
0.0
 11
-8.6388294738
 21
-7.5920647278
 31
0.0
  0
LINE
  5
7E
330
74
100
AcDbEntity
  8
0
  6
Continuous
100
AcDbLine
 10
-8.6388294738
 20
-7.5920647278
 30
0.0
 11
-8.6384401425
 21
-7.5919804944
 31
0.0
  0
LINE
  5
7F
330
74
100
AcDbEntity
  8
0
  6
Continuous
100
AcDbLine
 10
-8.6384401425
 20
-7.5919804944
 30
0.0
 11
-4.4940245505
 21
-6.6953201952
 31
0.0
  0
LINE
  5
80
330
74
100
AcDbEntity
  8
0
  6
Continuous
100
AcDbLine
 10
-6.8595855671
 20
4.238922853
 30
0.0
 11
-11.0044904538
 21
3.3421566929
 31
0.0
  0
LINE
  5
81
330
74
100
AcDbEntity
  8
0
  6
Continuous
100
AcDbLine
 10
-32.9933593229
 20
-3.3005605139
 30
0.0
 11
-32.8591663041
 21
-3.2715273367
 31
0.0
  0
LINE
  5
82
330
74
100
AcDbEntity
  8
0
  6
Continuous
100
AcDbLine
 10
-31.5697721187
 20
-3.9678201523
 30
0.0
 11
-29.2969561243
 21
-3.4760876451
 31
0.0
  0
LINE
  5
83
330
74
100
AcDbEntity
  8
0
  6
Continuous
100
AcDbLine
 10
-33.2794920496
 20
-1.2667721217
 30
0.0
 11
-33.3448839193
 21
-1.2809199049
 31
0.0
  0
LINE
  5
84
330
74
100
AcDbEntity
  8
0
  6
Continuous
100
AcDbLine
 10
-31.3289079349
 20
-10.5856399919
 30
0.0
 11
-31.4650581325
 21
-10.6150966123
 31
0.0
  0
LINE
  5
85
330
74
100
AcDbEntity
  8
0
  6
Continuous
100
AcDbLine
 10
-32.8822392925
 20
-9.9377601564
 30
0.0
 11
-35.1888692339
 21
-10.4368084414
 31
0.0
  0
LINE
  5
86
330
74
100
AcDbEntity
  8
0
  6
Continuous
100
AcDbLine
 10
-31.5949683304
 20
-12.7295787952
 30
0.0
 11
-30.2063920476
 21
-12.4291549603
 31
0.0
  0
LINE
  5
87
330
74
100
AcDbEntity
  8
0
  6
Continuous
100
AcDbLine
 10
6.262509235
 20
-4.3681026205
 30
0.0
 11
8.6370616994
 21
-3.8543590356
 31
0.0
  0
LINE
  5
88
330
74
100
AcDbEntity
  8
0
  6
Continuous
100
AcDbLine
 10
8.6370616994
 20
-3.8543590356
 30
0.0
 11
3.9059396663
 21
6.5680857621
 31
0.0
  0
LINE
  5
89
330
74
100
AcDbEntity
  8
0
  6
Continuous
100
AcDbLine
 10
3.9059396663
 20
6.5680857621
 30
0.0
 11
0.0
 21
5.7230206493
 31
0.0
  0
LINE
  5
8A
330
74
100
AcDbEntity
  8
0
  6
Continuous
100
AcDbLine
 10
0.0
 20
5.7230206493
 30
0.0
 11
0.0
 21
-5.7230206493
 31
0.0
  0
LINE
  5
8B
330
74
100
AcDbEntity
  8
0
  6
Continuous
100
AcDbLine
 10
0.0
 20
-5.7230206493
 30
0.0
 11
2.3746576891
 21
-5.2092542987
 31
0.0
  0
LINE
  5
8C
330
74
100
AcDbEntity
  8
0
  6
Continuous
100
AcDbLine
 10
2.3746576891
 20
-5.2092542987
 30
0.0
 11
2.3747844598
 21
-3.0912381741
 31
0.0
  0
LINE
  5
8D
330
74
100
AcDbEntity
  8
0
  6
Continuous
100
AcDbLine
 10
2.3747844598
 20
-3.0912381741
 30
0.0
 11
4.0318309599
 21
-2.7327297722
 31
0.0
  0
LINE
  5
8E
330
74
100
AcDbEntity
  8
0
  6
Continuous
100
AcDbLine
 10
4.0318309599
 20
-2.7327297722
 30
0.0
 11
3.5923515697
 21
-0.7014306964
 31
0.0
  0
LINE
  5
8F
330
74
100
AcDbEntity
  8
0
  6
Continuous
100
AcDbLine
 10
3.5923515697
 20
-0.7014306964
 30
0.0
 11
2.3750284336
 21
-0.9648032524
 31
0.0
  0
LINE
  5
90
330
74
100
AcDbEntity
  8
0
  6
Continuous
100
AcDbLine
 10
2.3750284336
 20
-0.9648032524
 30
0.0
 11
2.3752084601
 21
4.1936873712
 31
0.0
  0
LINE
  5
91
330
74
100
AcDbEntity
  8
0
  6
Continuous
100
AcDbLine
 10
2.3752084601
 20
4.1936873712
 30
0.0
 11
6.262509235
 21
-4.3681026205
 31
0.0
  0
LINE
  5
92
330
74
100
AcDbEntity
  8
0
  6
Continuous
100
AcDbLine
 10
-53.0629352118
 20
-11.4801779454
 30
0.0
 11
-50.7945341276
 21
-8.0228043203
 31
0.0
  0
LINE
  5
93
330
74
100
AcDbEntity
  8
0
  6
Continuous
100
AcDbLine
 10
-50.7945341276
 20
-8.0228043203
 30
0.0
 11
-54.2891069366
 21
-5.8122833411
 31
0.0
  0
LINE
  5
94
330
74
100
AcDbEntity
  8
0
  6
Continuous
100
AcDbLine
 10
-54.2891069366
 20
-5.8122833411
 30
0.0
 11
-51.4073820962
 21
-5.1888110564
 31
0.0
  0
LINE
  5
95
330
74
100
AcDbEntity
  8
0
  6
Continuous
100
AcDbLine
 10
-51.4073820962
 20
-5.1888110564
 30
0.0
 11
-47.9127327975
 21
-7.3992273667
 31
0.0
  0
LINE
  5
96
330
74
100
AcDbEntity
  8
0
  6
Continuous
100
AcDbLine
 10
-47.9127327975
 20
-7.3992273667
 30
0.0
 11
-50.1813587974
 21
-10.8569360435
 31
0.0
  0
LINE
  5
97
330
74
100
AcDbEntity
  8
0
  6
Continuous
100
AcDbLine
 10
-50.1813587974
 20
-10.8569360435
 30
0.0
 11
-53.0628942334
 21
-11.4803673498
 31
0.0
  0
LINE
  5
98
330
74
100
AcDbEntity
  8
0
  6
Continuous
100
AcDbLine
 10
-53.0628942334
 20
-11.4803673498
 30
0.0
 11
-53.0629352118
 21
-11.4801779454
 31
0.0
  0
LINE
  5
99
330
74
100
AcDbEntity
  8
0
  6
Continuous
100
AcDbLine
 10
-42.7624916815
 20
-3.31845567
 30
0.0
 11
-45.0307950789
 21
-6.7757971452
 31
0.0
  0
LINE
  5
9A
330
74
100
AcDbEntity
  8
0
  6
Continuous
100
AcDbLine
 10
-45.0307950789
 20
-6.7757971452
 30
0.0
 11
-48.5254573289
 21
-4.5652955168
 31
0.0
  0
LINE
  5
9B
330
74
100
AcDbEntity
  8
0
  6
Continuous
100
AcDbLine
 10
-48.5254573289
 20
-4.5652955168
 30
0.0
 11
-48.5257466967
 21
-4.5653581227
 31
0.0
  0
LINE
  5
9C
330
74
100
AcDbEntity
  8
0
  6
Continuous
100
AcDbLine
 10
-48.5257466967
 20
-4.5653581227
 30
0.0
 11
-47.9126146215
 21
-7.399289919
 31
0.0
  0
LINE
  5
9D
330
74
100
AcDbEntity
  8
0
  6
Continuous
100
AcDbLine
 10
-47.9126146215
 20
-7.399289919
 30
0.0
 11
-44.4177372167
 21
-9.6098441329
 31
0.0
  0
LINE
  5
9E
330
74
100
AcDbEntity
  8
0
  6
Continuous
100
AcDbLine
 10
-44.4177372167
 20
-9.6098441329
 30
0.0
 11
-42.1490649772
 21
-6.1523237222
 31
0.0
  0
LINE
  5
9F
330
74
100
AcDbEntity
  8
0
  6
Continuous
100
AcDbLine
 10
-42.1490649772
 20
-6.1523237222
 30
0.0
 11
-42.7621970524
 21
-3.3183919259
 31
0.0
  0
LINE
  5
A0
330
74
100
AcDbEntity
  8
0
  6
Continuous
100
AcDbLine
 10
-42.7621970524
 20
-3.3183919259
 30
0.0
 11
-42.7624916815
 21
-3.31845567
 31
0.0
  0
LINE
  5
A1
330
74
100
AcDbEntity
  8
0
  6
Continuous
100
AcDbLine
 10
-41.535889647
 20
-8.9864554454
 30
0.0
 11
-43.8045413973
 21
-12.4440705583
 31
0.0
  0
LINE
  5
A2
330
74
100
AcDbEntity
  8
0
  6
Continuous
100
AcDbLine
 10
-43.8045413973
 20
-12.4440705583
 30
0.0
 11
-40.3564529382
 21
-14.625159785
 31
0.0
  0
LINE
  5
A3
330
74
100
AcDbEntity
  8
0
  6
Continuous
100
AcDbLine
 10
-40.3564529382
 20
-14.625159785
 30
0.0
 11
-43.2382724808
 21
-15.2486525588
 31
0.0
  0
LINE
  5
A4
330
74
100
AcDbEntity
  8
0
  6
Continuous
100
AcDbLine
 10
-43.2382724808
 20
-15.2486525588
 30
0.0
 11
-46.686243472
 21
-13.0676480676
 31
0.0
  0
LINE
  5
A5
330
74
100
AcDbEntity
  8
0
  6
Continuous
100
AcDbLine
 10
-46.686243472
 20
-13.0676480676
 30
0.0
 11
-44.4177144509
 21
-9.6099493576
 31
0.0
  0
LINE
  5
A6
330
74
100
AcDbEntity
  8
0
  6
Continuous
100
AcDbLine
 10
-44.4177144509
 20
-9.6099493576
 30
0.0
 11
-41.535889647
 21
-8.9864554454
 31
0.0
  0
LINE
  5
A7
330
74
100
AcDbEntity
  8
0
  6
Continuous
100
AcDbLine
 10
-51.8063383656
 20
-17.1023866618
 30
0.0
 11
-49.5681857438
 21
-13.6910572443
 31
0.0
  0
LINE
  5
A8
330
74
100
AcDbEntity
  8
0
  6
Continuous
100
AcDbLine
 10
-49.5681857438
 20
-13.6910572443
 30
0.0
 11
-46.1199973213
 21
-15.8721248435
 31
0.0
  0
LINE
  5
A9
330
74
100
AcDbEntity
  8
0
  6
Continuous
100
AcDbLine
 10
-46.1199973213
 20
-15.8721248435
 30
0.0
 11
-46.0813956519
 21
-15.8637732234
 31
0.0
  0
LINE
  5
AA
330
74
100
AcDbEntity
  8
0
  6
Continuous
100
AcDbLine
 10
-46.0813956519
 20
-15.8637732234
 30
0.0
 11
-46.6863662012
 21
-13.0675644704
 31
0.0
  0
LINE
  5
AB
330
74
100
AcDbEntity
  8
0
  6
Continuous
100
AcDbLine
 10
-46.6863662012
 20
-13.0675644704
 30
0.0
 11
-50.1813587974
 21
-10.8569360435
 31
0.0
  0
LINE
  5
AC
330
74
100
AcDbEntity
  8
0
  6
Continuous
100
AcDbLine
 10
-50.1813587974
 20
-10.8569360435
 30
0.0
 11
-52.4497621582
 21
-14.3142991462
 31
0.0
  0
LINE
  5
AD
330
74
100
AcDbEntity
  8
0
  6
Continuous
100
AcDbLine
 10
-52.4497621582
 20
-14.3142991462
 30
0.0
 11
-51.8447506306
 21
-17.1106973035
 31
0.0
  0
LINE
  5
AE
330
74
100
AcDbEntity
  8
0
  6
Continuous
100
AcDbLine
 10
-51.8447506306
 20
-17.1106973035
 30
0.0
 11
-51.8063383656
 21
-17.1023866618
 31
0.0
  0
LINE
  5
AF
330
74
100
AcDbEntity
  8
0
  6
Continuous
100
AcDbLine
 10
-20.0432683672
 20
-10.0594590717
 30
0.0
 11
-17.6687053803
 21
-9.5457132103
 31
0.0
  0
LINE
  5
B0
330
74
100
AcDbEntity
  8
0
  6
Continuous
100
AcDbLine
 10
-17.6687053803
 20
-9.5457132103
 30
0.0
 11
-22.3998379359
 21
0.8767293109
 31
0.0
  0
LINE
  5
B1
330
74
100
AcDbEntity
  8
0
  6
Continuous
100
AcDbLine
 10
-22.3998379359
 20
0.8767293109
 30
0.0
 11
-26.3058670432
 21
0.0316448472
 31
0.0
  0
LINE
  5
B2
330
74
100
AcDbEntity
  8
0
  6
Continuous
100
AcDbLine
 10
-26.3058670432
 20
0.0316448472
 30
0.0
 11
-26.3056723775
 21
-11.4143543348
 31
0.0
  0
LINE
  5
B3
330
74
100
AcDbEntity
  8
0
  6
Continuous
100
AcDbLine
 10
-26.3056723775
 20
-11.4143543348
 30
0.0
 11
-23.9311146519
 21
-10.9006096116
 31
0.0
  0
LINE
  5
B4
330
74
100
AcDbEntity
  8
0
  6
Continuous
100
AcDbLine
 10
-23.9311146519
 20
-10.9006096116
 30
0.0
 11
-23.9309931424
 21
-8.7825946253
 31
0.0
  0
LINE
  5
B5
330
74
100
AcDbEntity
  8
0
  6
Continuous
100
AcDbLine
 10
-23.9309931424
 20
-8.7825946253
 30
0.0
 11
-22.2738308951
 21
-8.4240611811
 31
0.0
  0
LINE
  5
B6
330
74
100
AcDbEntity
  8
0
  6
Continuous
100
AcDbLine
 10
-22.2738308951
 20
-8.4240611811
 30
0.0
 11
-22.7133102854
 21
-6.3927621053
 31
0.0
  0
LINE
  5
B7
330
74
100
AcDbEntity
  8
0
  6
Continuous
100
AcDbLine
 10
-22.7133102854
 20
-6.3927621053
 30
0.0
 11
-23.9308333483
 21
-6.6561779162
 31
0.0
  0
LINE
  5
B8
330
74
100
AcDbEntity
  8
0
  6
Continuous
100
AcDbLine
 10
-23.9308333483
 20
-6.6561779162
 30
0.0
 11
-23.9305586196
 21
-1.4976668035
 31
0.0
  0
LINE
  5
B9
330
74
100
AcDbEntity
  8
0
  6
Continuous
100
AcDbLine
 10
-23.9305586196
 20
-1.4976668035
 30
0.0
 11
-20.0432683672
 21
-10.0594590717
 31
0.0
  0
SPLINE
  5
BA
330
74
100
AcDbEntity
  8
0
100
AcDbSpline
210
0.0
220
0.0
230
1.0
 70
     8
 71
     3
 72
     8
 73
     4
 74
     0
 42
0.00000001
 43
0.00000001
 40
0.0
 40
0.0
 40
0.0
 40
0.0
 40
1.0
 40
1.0
 40
1.0
 40
1.0
 10
-13.86994560355125
 20
-6.597454742918429
 30
0.0
 10
-13.88373254946556
 20
-6.53373068413859
 30
0.0
 10
-15.11365515797402
 20
-0.8489574873494021
 30
0.0
 10
-15.79563263740206
 20
2.305574601061459
 30
0.0
  0
SPLINE
  5
BB
330
74
100
AcDbEntity
  8
0
100
AcDbSpline
210
0.0
220
0.0
230
1.0
 70
     8
 71
     3
 72
     8
 73
     4
 74
     0
 42
0.00000001
 43
0.00000001
 40
2.0
 40
2.0
 40
2.0
 40
2.0
 40
3.0
 40
3.0
 40
3.0
 40
3.0
 10
-18.06492886668426
 20
1.814603608696524
 30
0.0
 10
-17.24003965005502
 20
-1.995739949107536
 30
0.0
 10
-15.71186186991051
 20
-9.059523950669432
 30
0.0
 10
-15.69887855542093
 20
-9.119533578677906
 30
0.0
  0
SPLINE
  5
BC
330
74
100
AcDbEntity
  8
0
100
AcDbSpline
210
0.0
220
0.0
230
1.0
 70
     8
 71
     3
 72
     8
 73
     4
 74
     0
 42
0.00000001
 43
0.00000001
 40
0.0
 40
0.0
 40
0.0
 40
0.0
 40
1.0
 40
1.0
 40
1.0
 40
1.0
 10
-6.809537646582547
 20
-5.069709977697404
 30
0.0
 10
-7.284290309572815
 20
-2.875375801708635
 30
0.0
 10
-7.897830097865885
 20
-0.0390758678013329
 30
0.0
 10
-8.296070930952649
 20
1.80204897196991
 30
0.0
  0
SPLINE
  5
BD
330
74
100
AcDbEntity
  8
0
100
AcDbSpline
210
0.0
220
0.0
230
1.0
 70
     8
 71
     3
 72
     8
 73
     4
 74
     0
 42
0.00000001
 43
0.00000001
 40
2.0
 40
2.0
 40
2.0
 40
2.0
 40
3.0
 40
3.0
 40
3.0
 40
3.0
 10
-6.919811195494074
 20
2.099808074263809
 30
0.0
 10
-6.228016878711183
 20
2.249480443098069
 30
0.0
 10
-5.547633595833446
 20
1.815851349115847
 30
0.0
 10
-5.399398884916104
 20
1.130701970100344
 30
0.0
  0
SPLINE
  5
BE
330
74
100
AcDbEntity
  8
0
100
AcDbSpline
210
0.0
220
0.0
230
1.0
 70
     8
 71
     3
 72
     8
 73
     4
 74
     0
 42
0.00000001
 43
0.00000001
 40
3.0
 40
3.0
 40
3.0
 40
3.0
 40
4.0
 40
4.0
 40
4.0
 40
4.0
 10
-5.399398884916104
 20
1.130701970100344
 30
0.0
 10
-5.107009087764085
 20
-0.2207405274728672
 30
0.0
 10
-4.711497421058354
 20
-2.048334586467611
 30
0.0
 10
-4.449160707297047
 20
-3.260870000165379
 30
0.0
  0
SPLINE
  5
BF
330
74
100
AcDbEntity
  8
0
100
AcDbSpline
210
0.0
220
0.0
230
1.0
 70
     8
 71
     3
 72
     8
 73
     4
 74
     0
 42
0.00000001
 43
0.00000001
 40
4.0
 40
4.0
 40
4.0
 40
4.0
 40
5.0
 40
5.0
 40
5.0
 40
5.0
 10
-4.449160707297047
 20
-3.260870000165379
 30
0.0
 10
-4.300905507193207
 20
-3.946114081381999
 30
0.0
 10
-4.741570606399121
 20
-4.622385452066122
 30
0.0
 10
-5.433383135791953
 20
-4.771973641166296
 30
0.0
  0
SPLINE
  5
C0
330
74
100
AcDbEntity
  8
0
100
AcDbSpline
210
0.0
220
0.0
230
1.0
 70
     8
 71
     3
 72
     8
 73
     4
 74
     0
 42
0.00000001
 43
0.00000001
 40
3.0
 40
3.0
 40
3.0
 40
3.0
 40
4.0
 40
4.0
 40
4.0
 40
4.0
 10
-4.494024550545999
 20
-6.695320195210662
 30
0.0
 10
-2.825524345390513
 20
-6.334333740063992
 30
0.0
 10
-1.762658323115034
 20
-4.702068307882374
 30
0.0
 10
-2.120071189640999
 20
-3.049576315093403
 30
0.0
  0
SPLINE
  5
C1
330
74
100
AcDbEntity
  8
0
100
AcDbSpline
210
0.0
220
0.0
230
1.0
 70
     8
 71
     3
 72
     8
 73
     4
 74
     0
 42
0.00000001
 43
0.00000001
 40
4.0
 40
4.0
 40
4.0
 40
4.0
 40
5.0
 40
5.0
 40
5.0
 40
5.0
 10
-2.120071189640999
 20
-3.049576315093403
 30
0.0
 10
-2.485983017556096
 20
-1.358310753073632
 30
0.0
 10
-2.867352798370483
 20
0.4044023583376265
 30
0.0
 10
-3.190995488197396
 20
1.900704823656681
 30
0.0
  0
SPLINE
  5
C2
330
74
100
AcDbEntity
  8
0
100
AcDbSpline
210
0.0
220
0.0
230
1.0
 70
     8
 71
     3
 72
     8
 73
     4
 74
     0
 42
0.00000001
 43
0.00000001
 40
5.0
 40
5.0
 40
5.0
 40
5.0
 40
6.0
 40
6.0
 40
6.0
 40
6.0
 10
-3.190995488197396
 20
1.900704823656681
 30
0.0
 10
-3.54857504695031
 20
3.553458157285876
 30
0.0
 10
-5.190901218780231
 20
4.599949148191988
 30
0.0
 10
-6.859585567104196
 20
4.238922852960538
 30
0.0
  0
SPLINE
  5
C3
330
74
100
AcDbEntity
  8
0
100
AcDbSpline
210
0.0
220
0.0
230
1.0
 70
     8
 71
     3
 72
     8
 73
     4
 74
     0
 42
0.00000001
 43
0.00000001
 40
0.0
 40
0.0
 40
0.0
 40
0.0
 40
1.0
 40
1.0
 40
1.0
 40
1.0
 10
-30.23703582864644
 20
-6.251438951366732
 30
0.0
 10
-30.9104300186728
 20
-6.015603382360459
 30
0.0
 10
-31.40848551125485
 20
-5.893156856121871
 30
0.0
 10
-32.67210357750635
 20
-5.496689523479785
 30
0.0
  0
SPLINE
  5
C4
330
74
100
AcDbEntity
  8
0
100
AcDbSpline
210
0.0
220
0.0
230
1.0
 70
     8
 71
     3
 72
     8
 73
     4
 74
     0
 42
0.00000001
 43
0.00000001
 40
1.0
 40
1.0
 40
1.0
 40
1.0
 40
2.0
 40
2.0
 40
2.0
 40
2.0
 10
-32.67210357750635
 20
-5.496689523479785
 30
0.0
 10
-33.03332194555517
 20
-5.383421617718132
 30
0.0
 10
-33.81210282496122
 20
-5.206692347750555
 30
0.0
 10
-33.94849250952588
 20
-4.576291363356936
 30
0.0
  0
SPLINE
  5
C5
330
74
100
AcDbEntity
  8
0
100
AcDbSpline
210
0.0
220
0.0
230
1.0
 70
     8
 71
     3
 72
     8
 73
     4
 74
     0
 42
0.00000001
 43
0.00000001
 40
2.0
 40
2.0
 40
2.0
 40
2.0
 40
3.0
 40
3.0
 40
3.0
 40
3.0
 10
-33.94849250952588
 20
-4.576291363356936
 30
0.0
 10
-34.11622381965225
 20
-3.801027578894063
 30
0.0
 10
-33.67528356585564
 20
-3.448097454184924
 30
0.0
 10
-32.99335932290604
 20
-3.30056051389548
 30
0.0
  0
SPLINE
  5
C6
330
74
100
AcDbEntity
  8
0
100
AcDbSpline
210
0.0
220
0.0
230
1.0
 70
     8
 71
     3
 72
     8
 73
     4
 74
     0
 42
0.00000001
 43
0.00000001
 40
4.0
 40
4.0
 40
4.0
 40
4.0
 40
5.0
 40
5.0
 40
5.0
 40
5.0
 10
-32.85916630414497
 20
-3.271527336675416
 30
0.0
 10
-32.2786944245911
 20
-3.14594000653005
 30
0.0
 10
-31.77109773641243
 20
-3.328116480283148
 30
0.0
 10
-31.56977211870437
 20
-3.967820152272103
 30
0.0
  0
SPLINE
  5
C7
330
74
100
AcDbEntity
  8
0
100
AcDbSpline
210
0.0
220
0.0
230
1.0
 70
     8
 71
     3
 72
     8
 73
     4
 74
     0
 42
0.00000001
 43
0.00000001
 40
6.0
 40
6.0
 40
6.0
 40
6.0
 40
7.0
 40
7.0
 40
7.0
 40
7.0
 10
-29.29695612428625
 20
-3.476087645143529
 30
0.0
 10
-29.68810071971012
 20
-1.866802583842748
 30
0.0
 10
-30.87776107222441
 20
-0.7599478056671497
 30
0.0
 10
-33.27949204955325
 20
-1.266772121690862
 30
0.0
  0
SPLINE
  5
C8
330
74
100
AcDbEntity
  8
0
100
AcDbSpline
210
0.0
220
0.0
230
1.0
 70
     8
 71
     3
 72
     8
 73
     4
 74
     0
 42
0.00000001
 43
0.00000001
 40
8.0
 40
8.0
 40
8.0
 40
8.0
 40
9.0
 40
9.0
 40
9.0
 40
9.0
 10
-33.34488391931659
 20
-1.280919904944554
 30
0.0
 10
-35.81152992452102
 20
-1.828202838410209
 30
0.0
 10
-36.33378487826545
 20
-3.54465012997844
 30
0.0
 10
-36.09207577942843
 20
-4.962606301827474
 30
0.0
  0
SPLINE
  5
C9
330
74
100
AcDbEntity
  8
0
100
AcDbSpline
210
0.0
220
0.0
230
1.0
 70
     8
 71
     3
 72
     8
 73
     4
 74
     0
 42
0.00000001
 43
0.00000001
 40
9.0
 40
9.0
 40
9.0
 40
9.0
 40
10.0
 40
10.0
 40
10.0
 40
10.0
 10
-36.09207577942843
 20
-4.962606301827474
 30
0.0
 10
-35.83736690020325
 20
-6.457652824126185
 30
0.0
 10
-34.96800490008025
 20
-7.196828812263726
 30
0.0
 10
-33.99931718292642
 20
-7.502708028683521
 30
0.0
  0
SPLINE
  5
CA
330
74
100
AcDbEntity
  8
0
100
AcDbSpline
210
0.0
220
0.0
230
1.0
 70
     8
 71
     3
 72
     8
 73
     4
 74
     0
 42
0.00000001
 43
0.00000001
 40
10.0
 40
10.0
 40
10.0
 40
10.0
 40
11.0
 40
11.0
 40
11.0
 40
11.0
 10
-33.99931718292642
 20
-7.502708028683521
 30
0.0
 10
-33.40907414696034
 20
-7.689011641945549
 30
0.0
 10
-32.48616403135102
 20
-7.975318844696811
 30
0.0
 10
-31.47547483016511
 20
-8.271505052332133
 30
0.0
  0
SPLINE
  5
CB
330
74
100
AcDbEntity
  8
0
100
AcDbSpline
210
0.0
220
0.0
230
1.0
 70
     8
 71
     3
 72
     8
 73
     4
 74
     0
 42
0.00000001
 43
0.00000001
 40
11.0
 40
11.0
 40
11.0
 40
11.0
 40
12.0
 40
12.0
 40
12.0
 40
12.0
 10
-31.47547483016511
 20
-8.271505052332133
 30
0.0
 10
-31.11213516930565
 20
-8.377980375833697
 30
0.0
 10
-30.40258052645035
 20
-8.55729511966404
 30
0.0
 10
-30.28870163819746
 20
-9.336631754491275
 30
0.0
  0
SPLINE
  5
CC
330
74
100
AcDbEntity
  8
0
100
AcDbSpline
210
0.0
220
0.0
230
1.0
 70
     8
 71
     3
 72
     8
 73
     4
 74
     0
 42
0.00000001
 43
0.00000001
 40
12.0
 40
12.0
 40
12.0
 40
12.0
 40
13.0
 40
13.0
 40
13.0
 40
13.0
 10
-30.28870163819746
 20
-9.336631754491275
 30
0.0
 10
-30.1883718252622
 20
-10.02498578462436
 30
0.0
 10
-30.64014408852681
 20
-10.43662327702193
 30
0.0
 10
-31.32890793487913
 20
-10.58563999188937
 30
0.0
  0
SPLINE
  5
CD
330
74
100
AcDbEntity
  8
0
100
AcDbSpline
210
0.0
220
0.0
230
1.0
 70
     8
 71
     3
 72
     8
 73
     4
 74
     0
 42
0.00000001
 43
0.00000001
 40
14.0
 40
14.0
 40
14.0
 40
14.0
 40
15.0
 40
15.0
 40
15.0
 40
15.0
 10
-31.46505813246006
 20
-10.61509661229636
 30
0.0
 10
-32.05208024758041
 20
-10.74210111117219
 30
0.0
 10
-32.71260096537058
 20
-10.55064660173623
 30
0.0
 10
-32.8822392924921
 20
-9.937760156430087
 30
0.0
  0
SPLINE
  5
CE
330
74
100
AcDbEntity
  8
0
100
AcDbSpline
210
0.0
220
0.0
230
1.0
 70
     8
 71
     3
 72
     8
 73
     4
 74
     0
 42
0.00000001
 43
0.00000001
 40
16.0
 40
16.0
 40
16.0
 40
16.0
 40
17.0
 40
17.0
 40
17.0
 40
17.0
 10
-35.1888692338865
 20
-10.43680844141459
 30
0.0
 10
-34.81471685749703
 20
-11.8843133271045
 30
0.0
 10
-33.72975075395794
 20
-12.95131992706823
 30
0.0
 10
-31.59496833044066
 20
-12.72957879515504
 30
0.0
  0
SPLINE
  5
CF
330
74
100
AcDbEntity
  8
0
100
AcDbSpline
210
0.0
220
0.0
230
1.0
 70
     8
 71
     3
 72
     8
 73
     4
 74
     0
 42
0.00000001
 43
0.00000001
 40
18.0
 40
18.0
 40
18.0
 40
18.0
 40
19.0
 40
19.0
 40
19.0
 40
19.0
 10
-30.20639204762402
 20
-12.42915496033268
 30
0.0
 10
-28.36320980349184
 20
-11.79454394754582
 30
0.0
 10
-27.78707037380765
 20
-10.41512978795686
 30
0.0
 10
-27.91988511866083
 20
-9.073464993912006
 30
0.0
  0
SPLINE
  5
D0
330
74
100
AcDbEntity
  8
0
100
AcDbSpline
210
0.0
220
0.0
230
1.0
 70
     8
 71
     3
 72
     8
 73
     4
 74
     0
 42
0.00000001
 43
0.00000001
 40
19.0
 40
19.0
 40
19.0
 40
19.0
 40
20.0
 40
20.0
 40
20.0
 40
20.0
 10
-27.91988511866083
 20
-9.073464993912006
 30
0.0
 10
-28.12563217330358
 20
-6.994152508733083
 30
0.0
 10
-29.51271678483619
 20
-6.50510505043454
 30
0.0
 10
-30.23703582864644
 20
-6.251438951366732
 30
0.0
  0
HATCH
  5
D1
330
74
100
AcDbEntity
  8
0
100
AcDbHatch
 10
0.0
 20
0.0
 30
0.0
210
0.0
220
0.0
230
1.0
  2
SOLID
 70
     1
 71
     0
 91
        1
 92
        0
 93
        7
 72
     1
 10
-53.06293521179145
 20
-11.48017794540906
 11
-53.0628942334185
 21
-11.48036734981106
 72
     1
 10
-53.0628942334185
 20
-11.48036734981106
 11
-50.18135879739363
 21
-10.85693604353014
 72
     1
 10
-50.18135879739363
 20
-10.85693604353014
 11
-47.91273279754322
 21
-7.399227366744369
 72
     1
 10
-47.91273279754322
 20
-7.399227366744369
 11
-51.40738209617635
 21
-5.188811056417426
 72
     1
 10
-51.40738209617635
 20
-5.188811056417426
 11
-54.28910693660305
 21
-5.812283341071309
 72
     1
 10
-54.28910693660305
 20
-5.812283341071309
 11
-50.79453412756107
 21
-8.022804320319173
 72
     1
 10
-50.79453412756107
 20
-8.022804320319173
 11
-53.06293521179145
 21
-11.48017794540906
 97
        0
 75
     0
 76
     1
 98
        1
 10
0.0
 20
0.0
  0
HATCH
  5
D2
330
74
100
AcDbEntity
  8
0
100
AcDbHatch
 10
0.0
 20
0.0
 30
0.0
210
0.0
220
0.0
230
1.0
  2
SOLID
 70
     1
 71
     0
 91
        1
 92
        0
 93
        6
 72
     1
 10
-41.53588964704281
 20
-8.986455445432597
 11
-44.41771445090438
 21
-9.609949357561213
 72
     1
 10
-44.41771445090438
 20
-9.609949357561213
 11
-46.68624347197728
 21
-13.06764806762683
 72
     1
 10
-46.68624347197728
 20
-13.06764806762683
 11
-43.23827248082917
 21
-15.24865255879992
 72
     1
 10
-43.23827248082917
 20
-15.24865255879992
 11
-40.35645293820115
 21
-14.62515978495947
 72
     1
 10
-40.35645293820115
 20
-14.62515978495947
 11
-43.80454139731328
 21
-12.44407055830516
 72
     1
 10
-43.80454139731328
 20
-12.44407055830516
 11
-41.53588964704281
 21
-8.986455445432597
 97
        0
 75
     0
 76
     1
 98
        1
 10
0.0
 20
0.0
  0
HATCH
  5
D3
330
74
100
AcDbEntity
  8
0
100
AcDbHatch
 10
0.0
 20
0.0
 30
0.0
210
0.0
220
0.0
230
1.0
  2
SOLID
 70
     1
 71
     0
 91
        1
 92
        0
 93
       20
 72
     4
 94
        3
 73
     1
 74
     0
 95
        8
 96
        4
 40
18.0
 40
18.0
 40
18.0
 40
18.0
 40
19.0
 40
19.0
 40
19.0
 40
19.0
 10
-30.20639204762402
 20
-12.42915496033267
 42
1.0
 10
-28.36320980349188
 20
-11.79454394754584
 42
1.0
 10
-27.78707037380775
 20
-10.41512978795687
 42
1.0
 10
-27.91988511866085
 20
-9.073464993912015
 42
1.0
 72
     4
 94
        3
 73
     1
 74
     0
 95
        8
 96
        4
 40
19.0
 40
19.0
 40
19.0
 40
19.0
 40
20.0
 40
20.0
 40
20.0
 40
20.0
 10
-27.91988511866085
 20
-9.073464993912015
 42
1.0
 10
-28.1256321733036
 20
-6.994152508733093
 42
1.0
 10
-29.51271678483624
 20
-6.505105050434554
 42
1.0
 10
-30.23703582864647
 20
-6.251438951366739
 42
1.0
 72
     4
 94
        3
 73
     1
 74
     0
 95
        8
 96
        4
 40
0.0
 40
0.0
 40
0.0
 40
0.0
 40
1.0
 40
1.0
 40
1.0
 40
1.0
 10
-30.23703582864647
 20
-6.251438951366739
 42
1.0
 10
-30.91043001867278
 20
-6.015603382360466
 42
1.0
 10
-31.40848551125484
 20
-5.893156856121866
 42
1.0
 10
-32.67210357750633
 20
-5.496689523479784
 42
1.0
 72
     4
 94
        3
 73
     1
 74
     0
 95
        8
 96
        4
 40
1.0
 40
1.0
 40
1.0
 40
1.0
 40
2.0
 40
2.0
 40
2.0
 40
2.0
 10
-32.67210357750633
 20
-5.496689523479784
 42
1.0
 10
-33.03332194555515
 20
-5.383421617718138
 42
1.0
 10
-33.81210282496121
 20
-5.206692347750558
 42
1.0
 10
-33.94849250952591
 20
-4.576291363356954
 42
1.0
 72
     4
 94
        3
 73
     1
 74
     0
 95
        8
 96
        4
 40
2.0
 40
2.0
 40
2.0
 40
2.0
 40
3.0
 40
3.0
 40
3.0
 40
3.0
 10
-33.94849250952591
 20
-4.576291363356954
 42
1.0
 10
-34.11622381965228
 20
-3.801027578894066
 42
1.0
 10
-33.67528356585566
 20
-3.448097454184939
 42
1.0
 10
-32.99335932290605
 20
-3.300560513895483
 42
1.0
 72
     1
 10
-32.99335932290605
 20
-3.300560513895483
 11
-32.85916630414502
 21
-3.271527336675422
 72
     4
 94
        3
 73
     1
 74
     0
 95
        8
 96
        4
 40
4.0
 40
4.0
 40
4.0
 40
4.0
 40
5.0
 40
5.0
 40
5.0
 40
5.0
 10
-32.85916630414502
 20
-3.271527336675422
 42
1.0
 10
-32.27869442459117
 20
-3.145940006530068
 42
1.0
 10
-31.77109773641243
 20
-3.328116480283154
 42
1.0
 10
-31.5697721187044
 20
-3.967820152272114
 42
1.0
 72
     1
 10
-31.5697721187044
 20
-3.967820152272114
 11
-29.29695612428624
 21
-3.476087645143523
 72
     4
 94
        3
 73
     1
 74
     0
 95
        8
 96
        4
 40
6.0
 40
6.0
 40
6.0
 40
6.0
 40
7.0
 40
7.0
 40
7.0
 40
7.0
 10
-29.2969561242863
 20
-3.476087645143538
 42
1.0
 10
-29.6881007197101
 20
-1.866802583842747
 42
1.0
 10
-30.87776107222446
 20
-0.7599478056671519
 42
1.0
 10
-33.27949204955327
 20
-1.266772121690873
 42
1.0
 72
     1
 10
-33.27949204955321
 20
-1.266772121690857
 11
-33.3448839193166
 21
-1.280919904944549
 72
     4
 94
        3
 73
     1
 74
     0
 95
        8
 96
        4
 40
8.0
 40
8.0
 40
8.0
 40
8.0
 40
9.0
 40
9.0
 40
9.0
 40
9.0
 10
-33.34488391931666
 20
-1.280919904944565
 42
1.0
 10
-35.8115299245211
 20
-1.828202838410234
 42
1.0
 10
-36.3337848782655
 20
-3.544650129978449
 42
1.0
 10
-36.09207577942846
 20
-4.962606301827486
 42
1.0
 72
     4
 94
        3
 73
     1
 74
     0
 95
        8
 96
        4
 40
9.0
 40
9.0
 40
9.0
 40
9.0
 40
10.0
 40
10.0
 40
10.0
 40
10.0
 10
-36.09207577942846
 20
-4.962606301827486
 42
1.0
 10
-35.83736690020323
 20
-6.457652824126184
 42
1.0
 10
-34.96800490008029
 20
-7.196828812263736
 42
1.0
 10
-33.99931718292643
 20
-7.502708028683525
 42
1.0
 72
     4
 94
        3
 73
     1
 74
     0
 95
        8
 96
        4
 40
10.0
 40
10.0
 40
10.0
 40
10.0
 40
11.0
 40
11.0
 40
11.0
 40
11.0
 10
-33.99931718292643
 20
-7.502708028683525
 42
1.0
 10
-33.40907414696031
 20
-7.689011641945555
 42
1.0
 10
-32.48616403135106
 20
-7.975318844696822
 42
1.0
 10
-31.47547483016516
 20
-8.27150505233215
 42
1.0
 72
     4
 94
        3
 73
     1
 74
     0
 95
        8
 96
        4
 40
11.0
 40
11.0
 40
11.0
 40
11.0
 40
12.0
 40
12.0
 40
12.0
 40
12.0
 10
-31.47547483016516
 20
-8.27150505233215
 42
1.0
 10
-31.11213516930568
 20
-8.377980375833708
 42
1.0
 10
-30.40258052645039
 20
-8.557295119664056
 42
1.0
 10
-30.28870163819752
 20
-9.336631754491272
 42
1.0
 72
     4
 94
        3
 73
     1
 74
     0
 95
        8
 96
        4
 40
12.0
 40
12.0
 40
12.0
 40
12.0
 40
13.0
 40
13.0
 40
13.0
 40
13.0
 10
-30.28870163819752
 20
-9.336631754491272
 42
1.0
 10
-30.18837182526216
 20
-10.02498578462435
 42
1.0
 10
-30.64014408852681
 20
-10.43662327702195
 42
1.0
 10
-31.32890793487914
 20
-10.58563999188937
 42
1.0
 72
     1
 10
-31.32890793487914
 20
-10.58563999188937
 11
-31.46505813246008
 21
-10.61509661229637
 72
     4
 94
        3
 73
     1
 74
     0
 95
        8
 96
        4
 40
14.0
 40
14.0
 40
14.0
 40
14.0
 40
15.0
 40
15.0
 40
15.0
 40
15.0
 10
-31.46505813246008
 20
-10.61509661229637
 42
1.0
 10
-32.05208024758041
 20
-10.7421011111722
 42
1.0
 10
-32.71260096537064
 20
-10.55064660173623
 42
1.0
 10
-32.88223929249212
 20
-9.937760156430087
 42
1.0
 72
     1
 10
-32.88223929249212
 20
-9.937760156430087
 11
-35.18886923388655
 21
-10.43680844141459
 72
     4
 94
        3
 73
     1
 74
     0
 95
        8
 96
        4
 40
16.0
 40
16.0
 40
16.0
 40
16.0
 40
17.0
 40
17.0
 40
17.0
 40
17.0
 10
-35.18886923388649
 20
-10.43680844141459
 42
1.0
 10
-34.81471685749708
 20
-11.88431332710451
 42
1.0
 10
-33.72975075395801
 20
-12.95131992706824
 42
1.0
 10
-31.59496833044075
 20
-12.72957879515506
 42
1.0
 72
     1
 10
-31.59496833044068
 20
-12.72957879515504
 11
-30.20639204762409
 21
-12.42915496033269
 97
        0
 75
     0
 76
     1
 98
        1
 10
0.0
 20
0.0
  0
HATCH
  5
D4
330
74
100
AcDbEntity
  8
0
100
AcDbHatch
 10
0.0
 20
0.0
 30
0.0
210
0.0
220
0.0
230
1.0
  2
SOLID
 70
     1
 71
     0
 91
        1
 92
        0
 93
       11
 72
     1
 10
-23.93083334830058
 20
-6.656177916224847
 11
-23.9305586195879
 21
-1.497666803489873
 72
     1
 10
-23.9305586195879
 20
-1.497666803489873
 11
-20.04326836721582
 21
-10.05945907169815
 72
     1
 10
-20.04326836721582
 20
-10.05945907169815
 11
-17.66870538033285
 21
-9.545713210289948
 72
     1
 10
-17.66870538033285
 20
-9.545713210289948
 11
-22.39983793591613
 21
0.8767293108990284
 72
     1
 10
-22.39983793591613
 20
0.8767293108990277
 11
-26.30586704316552
 21
0.0316448471579831
 72
     1
 10
-26.30586704316552
 20
0.0316448471579831
 11
-26.30567237753049
 21
-11.41435433475813
 72
     1
 10
-26.30567237753049
 20
-11.41435433475813
 11
-23.93111465188077
 21
-10.90060961163804
 72
     1
 10
-23.93111465188077
 20
-10.90060961163804
 11
-23.93099314235586
 21
-8.782594625323274
 72
     1
 10
-23.93099314235586
 20
-8.782594625323274
 11
-22.27383089514867
 21
-8.42406118111162
 72
     1
 10
-22.27383089514867
 20
-8.42406118111162
 11
-22.7133102853523
 21
-6.392762105309743
 72
     1
 10
-22.7133102853523
 20
-6.392762105309743
 11
-23.93083334830058
 21
-6.656177916224847
 97
        0
 75
     0
 76
     1
 98
        1
 10
0.0
 20
0.0
  0
HATCH
  5
D5
330
74
100
AcDbEntity
  8
0
100
AcDbHatch
 10
0.0
 20
0.0
 30
0.0
210
0.0
220
0.0
230
1.0
  2
SOLID
 70
     1
 71
     0
 91
        1
 92
        0
 93
        6
 72
     1
 10
-15.79563263740209
 20
2.305574601061446
 11
-18.06492886668423
 21
1.814603608696526
 72
     4
 94
        3
 73
     1
 74
     0
 95
        8
 96
        4
 40
2.0
 40
2.0
 40
2.0
 40
2.0
 40
3.0
 40
3.0
 40
3.0
 40
3.0
 10
-18.06492886668423
 20
1.814603608696526
 42
1.0
 10
-17.240039650055
 20
-1.995739949107533
 42
1.0
 10
-15.71186186991055
 20
-9.059523950669437
 42
1.0
 10
-15.69887855542098
 20
-9.119533578677919
 42
1.0
 72
     1
 10
-15.69887855542092
 20
-9.119533578677903
 11
-10.22610149671526
 21
-7.93547715235816
 72
     1
 10
-10.22610149671526
 20
-7.93547715235816
 11
-10.66558088691882
 21
-5.904178076556605
 72
     1
 10
-10.66558088691882
 20
-5.904178076556605
 11
-13.86994560355126
 21
-6.597454742918437
 72
     4
 94
        3
 73
     1
 74
     0
 95
        8
 96
        4
 40
0.0
 40
0.0
 40
0.0
 40
0.0
 40
1.0
 40
1.0
 40
1.0
 40
1.0
 10
-13.86994560355126
 20
-6.597454742918437
 42
1.0
 10
-13.88373254946556
 20
-6.533730684138598
 42
1.0
 10
-15.1136551579741
 20
-0.8489574873494129
 42
1.0
 10
-15.79563263740209
 20
2.305574601061446
 42
1.0
 97
        0
 75
     0
 76
     1
 98
        1
 10
0.0
 20
0.0
  0
HATCH
  5
D6
330
74
100
AcDbEntity
  8
0
100
AcDbHatch
 10
0.0
 20
0.0
 30
0.0
210
0.0
220
0.0
230
1.0
  2
SOLID
 70
     1
 71
     0
 91
        1
 92
        0
 93
       11
 72
     1
 10
2.375028433631206
 20
-0.9648032523823513
 11
2.375208460142868
 21
4.193687371166118
 72
     1
 10
2.375208460142868
 20
4.193687371166118
 11
6.262509234981617
 21
-4.368102620465918
 72
     1
 10
6.262509234981617
 20
-4.368102620465917
 11
8.637061699398163
 21
-3.854359035633896
 72
     1
 10
8.637061699398163
 20
-3.854359035633896
 11
3.905939666281055
 21
6.568085762131229
 72
     1
 10
3.905939666281055
 20
6.56808576213123
 11
-0.0000000000001235
 21
5.723020649288631
 72
     1
 10
-0.0000000000001234
 20
5.723020649288631
 11
-0.000000000000185
 21
-5.723020649288538
 72
     1
 10
-0.000000000000185
 20
-5.723020649288538
 11
2.37465768908423
 21
-5.20925429869377
 72
     1
 10
2.37465768908423
 20
-5.20925429869377
 11
2.374784459841949
 21
-3.091238174090979
 72
     1
 10
2.374784459841949
 20
-3.091238174090979
 11
4.031830959914354
 21
-2.732729772218408
 72
     1
 10
4.031830959914354
 20
-2.732729772218408
 11
3.592351569710606
 21
-0.701430696416514
 72
     1
 10
3.592351569710606
 20
-0.7014306964165138
 11
2.375028433631206
 21
-0.9648032523823513
 97
        0
 75
     0
 76
     1
 98
        1
 10
0.0
 20
0.0
  0
HATCH
  5
D7
330
74
100
AcDbEntity
  8
0
100
AcDbHatch
 10
0.0
 20
0.0
 30
0.0
210
0.0
220
0.0
230
1.0
  2
SOLID
 70
     1
 71
     0
 91
        1
 92
        0
 93
        8
 72
     1
 10
-42.14906497721024
 20
-6.152323722221632
 11
-42.76219705242848
 21
-3.318391925879333
 72
     1
 10
-42.76219705242848
 20
-3.318391925879333
 11
-42.76249168149826
 21
-3.318455670015027
 72
     1
 10
-42.76249168149826
 20
-3.318455670015027
 11
-45.03079507887072
 21
-6.775797145163721
 72
     1
 10
-45.03079507887072
 20
-6.775797145163721
 11
-48.52545732888054
 21
-4.565295516814268
 72
     1
 10
-48.52545732888054
 20
-4.565295516814268
 11
-48.52574669671678
 21
-4.565358122661792
 72
     1
 10
-48.52574669671678
 20
-4.565358122661792
 11
-47.91261462149855
 21
-7.39928991900409
 72
     1
 10
-47.91261462149855
 20
-7.39928991900409
 11
-44.41773721666716
 21
-9.60984413289331
 72
     1
 10
-44.41773721666716
 20
-9.60984413289331
 11
-42.14906497721024
 21
-6.152323722221632
 97
        0
 75
     0
 76
     1
 98
        1
 10
0.0
 20
0.0
  0
HATCH
  5
D8
330
74
100
AcDbEntity
  8
0
100
AcDbHatch
 10
0.0
 20
0.0
 30
0.0
210
0.0
220
0.0
230
1.0
  2
SOLID
 70
     1
 71
     0
 91
        1
 92
        0
 93
        8
 72
     1
 10
-46.11999732125613
 20
-15.87212484345383
 11
-46.08139565189786
 21
-15.8637732233933
 72
     1
 10
-46.08139565189786
 20
-15.8637732233933
 11
-46.68636620117444
 21
-13.06756447043367
 72
     1
 10
-46.68636620117444
 20
-13.06756447043367
 11
-50.18135879739361
 21
-10.85693604353009
 72
     1
 10
-50.18135879739361
 20
-10.85693604353009
 11
-52.44976215820033
 21
-14.31429914615315
 72
     1
 10
-52.44976215820033
 20
-14.31429914615315
 11
-51.84475063055083
 21
-17.11069730351469
 72
     1
 10
-51.84475063055083
 20
-17.11069730351469
 11
-51.80633836559459
 21
-17.1023866618271
 72
     1
 10
-51.80633836559459
 20
-17.1023866618271
 11
-49.56818574380249
 21
-13.69105724427409
 72
     1
 10
-49.56818574380249
 20
-13.69105724427409
 11
-46.11999732125613
 21
-15.87212484345383
 97
        0
 75
     0
 76
     1
 98
        1
 10
0.0
 20
0.0
  0
HATCH
  5
D9
330
74
100
AcDbEntity
  8
0
100
AcDbHatch
 10
0.0
 20
0.0
 30
0.0
210
0.0
220
0.0
230
1.0
  2
SOLID
 70
     1
 71
     0
 91
        2
 92
        0
 93
        7
 72
     1
 10
-6.859585567104196
 20
4.238922852960538
 11
-11.00449045380928
 21
3.342156692939393
 72
     1
 10
-11.00449045380928
 20
3.342156692939393
 11
-8.638829473816639
 21
-7.592064727757185
 72
     1
 10
-8.638829473816639
 20
-7.592064727757185
 11
-8.63844014254617
 21
-7.591980494435086
 72
     1
 10
-8.63844014254617
 20
-7.591980494435086
 11
-4.494024550545999
 21
-6.695320195210662
 72
     4
 94
        3
 73
     1
 74
     0
 95
        8
 96
        4
 40
3.0
 40
3.0
 40
3.0
 40
3.0
 40
4.0
 40
4.0
 40
4.0
 40
4.0
 10
-4.494024550545999
 20
-6.695320195210662
 42
1.0
 10
-2.825524345390513
 20
-6.334333740063992
 42
1.0
 10
-1.762658323115034
 20
-4.702068307882374
 42
1.0
 10
-2.120071189640999
 20
-3.049576315093403
 42
1.0
 72
     4
 94
        3
 73
     1
 74
     0
 95
        8
 96
        4
 40
4.0
 40
4.0
 40
4.0
 40
4.0
 40
5.0
 40
5.0
 40
5.0
 40
5.0
 10
-2.120071189640999
 20
-3.049576315093403
 42
1.0
 10
-2.485983017556096
 20
-1.358310753073632
 42
1.0
 10
-2.867352798370483
 20
0.4044023583376265
 42
1.0
 10
-3.190995488197396
 20
1.900704823656681
 42
1.0
 72
     4
 94
        3
 73
     1
 74
     0
 95
        8
 96
        4
 40
5.0
 40
5.0
 40
5.0
 40
5.0
 40
6.0
 40
6.0
 40
6.0
 40
6.0
 10
-3.190995488197396
 20
1.900704823656681
 42
1.0
 10
-3.54857504695031
 20
3.553458157285876
 42
1.0
 10
-5.190901218780231
 20
4.599949148191988
 42
1.0
 10
-6.859585567104196
 20
4.238922852960538
 42
1.0
 97
        0
 92
        0
 93
        6
 72
     4
 94
        3
 73
     1
 74
     0
 95
        8
 96
        4
 40
2.0
 40
2.0
 40
2.0
 40
2.0
 40
3.0
 40
3.0
 40
3.0
 40
3.0
 10
-6.919811195494074
 20
2.099808074263809
 42
1.0
 10
-6.228016878711183
 20
2.249480443098069
 42
1.0
 10
-5.547633595833446
 20
1.815851349115847
 42
1.0
 10
-5.399398884916104
 20
1.130701970100344
 42
1.0
 72
     4
 94
        3
 73
     1
 74
     0
 95
        8
 96
        4
 40
3.0
 40
3.0
 40
3.0
 40
3.0
 40
4.0
 40
4.0
 40
4.0
 40
4.0
 10
-5.399398884916104
 20
1.130701970100344
 42
1.0
 10
-5.107009087764085
 20
-0.2207405274728672
 42
1.0
 10
-4.711497421058354
 20
-2.048334586467611
 42
1.0
 10
-4.449160707297047
 20
-3.260870000165379
 42
1.0
 72
     4
 94
        3
 73
     1
 74
     0
 95
        8
 96
        4
 40
4.0
 40
4.0
 40
4.0
 40
4.0
 40
5.0
 40
5.0
 40
5.0
 40
5.0
 10
-4.449160707297047
 20
-3.260870000165379
 42
1.0
 10
-4.300905507193207
 20
-3.946114081381999
 42
1.0
 10
-4.741570606399121
 20
-4.622385452066122
 42
1.0
 10
-5.433383135791953
 20
-4.771973641166296
 42
1.0
 72
     1
 10
-5.433383135791953
 20
-4.771973641166296
 11
-6.809537646582547
 21
-5.069709977697404
 72
     4
 94
        3
 73
     1
 74
     0
 95
        8
 96
        4
 40
0.0
 40
0.0
 40
0.0
 40
0.0
 40
1.0
 40
1.0
 40
1.0
 40
1.0
 10
-6.809537646582547
 20
-5.069709977697404
 42
1.0
 10
-7.284290309572815
 20
-2.875375801708635
 42
1.0
 10
-7.897830097865885
 20
-0.0390758678013329
 42
1.0
 10
-8.296070930952649
 20
1.80204897196991
 42
1.0
 72
     1
 10
-8.296070930952649
 20
1.80204897196991
 11
-6.919811195494074
 21
2.099808074263809
 97
        0
 75
     0
 76
     1
 98
        1
 10
0.0
 20
0.0
  0
ENDBLK
  5
76
330
74
100
AcDbEntity
  8
0
100
AcDbBlockEnd
  0
ENDSEC
  0
SECTION
  2
ENTITIES
  0
ARC
  5
DA
330
1F
100
AcDbEntity
  8
0
100
AcDbCircle
 10
-228.0529119945
 20
-224.0561359075
 30
0.0
 40
5.000000000000016
100
AcDbArc
 50
43.3006884733
 51
80.3421313068
  0
ARC
  5
DB
330
1F
100
AcDbEntity
  8
0
100
AcDbCircle
 10
-228.5752668272
 20
-224.0561359075
 30
0.0
 40
5.000000000000016
100
AcDbArc
 50
99.6578686932
 51
136.6993115267
  0
LINE
  5
DC
330
1F
100
AcDbEntity
  8
0
100
AcDbLine
 10
-230.8140894108
 20
-225.6270004181
 30
0.0
 11
-229.5140894108
 21
-226.9270004181
 31
0.0
  0
LINE
  5
DD
330
1F
100
AcDbEntity
  8
0
100
AcDbLine
 10
-227.1140894108
 20
-226.9270004181
 30
0.0
 11
-225.8140894108
 21
-225.6270004181
 31
0.0
  0
LINE
  5
DE
330
1F
100
AcDbEntity
  8
0
100
AcDbLine
 10
-226.2140894108
 20
-225.6270004181
 30
0.0
 11
-226.2140894108
 21
-223.6270004181
 31
0.0
  0
LINE
  5
DF
330
1F
100
AcDbEntity
  8
0
100
AcDbLine
 10
-230.4140894108
 20
-223.6270004181
 30
0.0
 11
-230.4140894108
 21
-225.6270004181
 31
0.0
  0
ARC
  5
E0
330
1F
100
AcDbEntity
  8
0
100
AcDbCircle
 10
721.3470880055
 20
-224.0561359075
 30
0.0
 40
4.999999999999948
100
AcDbArc
 50
43.3006884733
 51
80.3421313068
  0
ARC
  5
E1
330
1F
100
AcDbEntity
  8
0
100
AcDbCircle
 10
720.8247331728
 20
-224.0561359075
 30
0.0
 40
5.000000000000018
100
AcDbArc
 50
99.6578686932
 51
136.6993115267
  0
LINE
  5
E2
330
1F
100
AcDbEntity
  8
0
100
AcDbLine
 10
718.5859105892
 20
-225.6270004181
 30
0.0
 11
719.8859105892
 21
-226.9270004181
 31
0.0
  0
LINE
  5
E3
330
1F
100
AcDbEntity
  8
0
100
AcDbLine
 10
722.2859105892
 20
-226.9270004181
 30
0.0
 11
723.5859105892
 21
-225.6270004181
 31
0.0
  0
LINE
  5
E4
330
1F
100
AcDbEntity
  8
0
100
AcDbLine
 10
723.1859105892
 20
-225.6270004181
 30
0.0
 11
723.1859105892
 21
-223.6270004181
 31
0.0
  0
LINE
  5
E5
330
1F
100
AcDbEntity
  8
0
100
AcDbLine
 10
718.9859105892
 20
-223.6270004181
 30
0.0
 11
718.9859105892
 21
-225.6270004181
 31
0.0
  0
ARC
  5
E6
330
1F
100
AcDbEntity
  8
0
100
AcDbCircle
 10
-59.5729119945
 20
649.0438640925
 30
0.0
 40
5.000000000000093
100
AcDbArc
 50
43.3006884733
 51
80.3421313068
  0
ARC
  5
E7
330
1F
100
AcDbEntity
  8
0
100
AcDbCircle
 10
-60.0952668272
 20
649.0438640925
 30
0.0
 40
5.000000000000092
100
AcDbArc
 50
99.6578686932
 51
136.6993115267
  0
ARC
  5
E8
330
1F
100
AcDbEntity
  8
0
100
AcDbCircle
 10
553.2670880055
 20
649.0438640925
 30
0.0
 40
5.000000000000089
100
AcDbArc
 50
43.3006884733
 51
80.3421313068
  0
ARC
  5
E9
330
1F
100
AcDbEntity
  8
0
100
AcDbCircle
 10
552.7447331728
 20
649.0438640925
 30
0.0
 40
5.000000000000089
100
AcDbArc
 50
99.6578686932
 51
136.6993115267
  0
ARC
  5
EA
330
1F
100
AcDbEntity
  8
0
100
AcDbCircle
 10
757.5470880055
 20
649.0438640925
 30
0.0
 40
5.000000000000076
100
AcDbArc
 50
43.3006884733
 51
80.3421313068
  0
ARC
  5
EB
330
1F
100
AcDbEntity
  8
0
100
AcDbCircle
 10
757.0247331728
 20
649.0438640925
 30
0.0
 40
4.999999999999994
100
AcDbArc
 50
99.6578686932
 51
136.6993115267
  0
ARC
  5
EC
330
1F
100
AcDbEntity
  8
0
100
AcDbCircle
 10
-288.8529119945
 20
649.0438640925
 30
0.0
 40
4.999999999999998
100
AcDbArc
 50
43.3006884733
 51
80.3421313068
  0
ARC
  5
ED
330
1F
100
AcDbEntity
  8
0
100
AcDbCircle
 10
-289.3752668272
 20
649.0438640925
 30
0.0
 40
4.999999999999977
100
AcDbArc
 50
99.6578686932
 51
136.6993115267
  0
ARC
  5
EE
330
1F
100
AcDbEntity
  8
0
100
AcDbCircle
 10
348.9870880055
 20
649.0438640925
 30
0.0
 40
4.999999999999977
100
AcDbArc
 50
43.3006884733
 51
80.3421313068
  0
ARC
  5
EF
330
1F
100
AcDbEntity
  8
0
100
AcDbCircle
 10
348.4647331728
 20
649.0438640925
 30
0.0
 40
4.999999999999998
100
AcDbArc
 50
99.6578686932
 51
136.6993115267
  0
ARC
  5
F0
330
1F
100
AcDbEntity
  8
0
100
AcDbCircle
 10
782.5470880055
 20
649.0438640925
 30
0.0
 40
5.000000000000076
100
AcDbArc
 50
43.3006884733
 51
80.3421313068
  0
ARC
  5
F1
330
1F
100
AcDbEntity
  8
0
100
AcDbCircle
 10
782.0247331728
 20
649.0438640925
 30
0.0
 40
5.000000000000076
100
AcDbArc
 50
99.6578686932
 51
136.6993115267
  0
ARC
  5
F2
330
1F
100
AcDbEntity
  8
0
100
AcDbCircle
 10
144.7070880055
 20
649.0438640925
 30
0.0
 40
4.999999999999987
100
AcDbArc
 50
43.3006884733
 51
80.3421313068
  0
ARC
  5
F3
330
1F
100
AcDbEntity
  8
0
100
AcDbCircle
 10
144.1847331728
 20
649.0438640925
 30
0.0
 40
4.999999999999987
100
AcDbArc
 50
99.6578686932
 51
136.6993115267
  0
ARC
  5
F4
330
1F
100
AcDbEntity
  8
0
100
AcDbCircle
 10
-263.8529119945
 20
649.0438640925
 30
0.0
 40
4.999999999999977
100
AcDbArc
 50
43.3006884733
 51
80.3421313068
  0
ARC
  5
F5
330
1F
100
AcDbEntity
  8
0
100
AcDbCircle
 10
-264.3752668272
 20
649.0438640925
 30
0.0
 40
4.999999999999998
100
AcDbArc
 50
99.6578686932
 51
136.6993115267
  0
LINE
  5
F6
330
1F
100
AcDbEntity
  8
0
100
AcDbLine
 10
-322.7140894108
 20
-219.1270004181
 30
0.0
 11
-288.3140894108
 21
-219.1270004181
 31
0.0
  0
LINE
  5
F7
330
1F
100
AcDbEntity
  8
0
100
AcDbLine
 10
-288.3140894108
 20
-203.1270004181
 30
0.0
 11
-322.7140894108
 21
-203.1270004181
 31
0.0
  0
CIRCLE
  5
F8
330
1F
100
AcDbEntity
  8
0
100
AcDbCircle
 10
246.3859105892
 20
215.7229995819
 30
0.0
 40
322.3999999999999
  0
LINE
  5
F9
330
1F
100
AcDbEntity
  8
0
100
AcDbLine
 10
-342.9140894109
 20
-165.8694771791
 30
0.0
 11
-334.7140894109
 21
-165.8694771791
 31
0.0
  0
LINE
  5
FA
330
1F
100
AcDbEntity
  8
0
100
AcDbLine
 10
-334.7140894109
 20
-104.7694771791
 30
0.0
 11
-342.9140894109
 21
-104.7694771791
 31
0.0
  0
ARC
  5
FB
330
1F
100
AcDbEntity
  8
0
100
AcDbCircle
 10
-342.9140894109
 20
-164.4694771791
 30
0.0
 40
1.399999999999977
100
AcDbArc
 50
180.0
 51
270.0
  0
ARC
  5
FC
330
1F
100
AcDbEntity
  8
0
100
AcDbCircle
 10
-342.9140894109
 20
-106.1694771791
 30
0.0
 40
1.399999999999977
100
AcDbArc
 50
90.0
 51
180.0
  0
LINE
  5
FD
330
1F
100
AcDbEntity
  8
0
100
AcDbLine
 10
-342.9140894109
 20
539.1257995819
 30
0.0
 11
-334.7140894109
 21
539.1257995819
 31
0.0
  0
LINE
  5
FE
330
1F
100
AcDbEntity
  8
0
100
AcDbLine
 10
-334.7140894109
 20
600.2257995819
 30
0.0
 11
-342.9140894109
 21
600.2257995819
 31
0.0
  0
ARC
  5
FF
330
1F
100
AcDbEntity
  8
0
100
AcDbCircle
 10
-342.9140894109
 20
540.5257995819
 30
0.0
 40
1.400000000000034
100
AcDbArc
 50
180.0
 51
270.0
  0
ARC
  5
100
330
1F
100
AcDbEntity
  8
0
100
AcDbCircle
 10
-342.9140894109
 20
598.8257995819
 30
0.0
 40
1.400000000000091
100
AcDbArc
 50
90.0
 51
180.0
  0
LINE
  5
101
330
1F
100
AcDbEntity
  8
0
100
AcDbLine
 10
-334.3140894109
 20
-103.6694771791
 30
0.0
 11
-334.7140894109
 21
-103.6694771791
 31
0.0
  0
LINE
  5
102
330
1F
100
AcDbEntity
  8
0
100
AcDbLine
 10
-334.7140894109
 20
-166.9694771791
 30
0.0
 11
-334.3140894109
 21
-166.9694771791
 31
0.0
  0
LINE
  5
103
330
1F
100
AcDbEntity
  8
0
100
AcDbLine
 10
-334.3140894109
 20
601.3257995819
 30
0.0
 11
-334.7140894109
 21
601.3257995819
 31
0.0
  0
LINE
  5
104
330
1F
100
AcDbEntity
  8
0
100
AcDbLine
 10
-334.7140894109
 20
538.0257995819
 30
0.0
 11
-334.3140894109
 21
538.0257995819
 31
0.0
  0
LINE
  5
105
330
1F
100
AcDbEntity
  8
0
100
AcDbLine
 10
-307.2140894109
 20
-165.3194771791
 30
0.0
 11
-288.3140894108
 21
-165.3194771791
 31
0.0
  0
LINE
  5
106
330
1F
100
AcDbEntity
  8
0
100
AcDbLine
 10
-288.3140894108
 20
-105.3194771791
 30
0.0
 11
-307.2140894109
 21
-105.3194771791
 31
0.0
  0
LINE
  5
107
330
1F
100
AcDbEntity
  8
0
100
AcDbLine
 10
-318.2140894109
 20
-105.5694771791
 30
0.0
 11
-334.3140894109
 21
-105.5694771791
 31
0.0
  0
LINE
  5
108
330
1F
100
AcDbEntity
  8
0
100
AcDbLine
 10
-334.3140894109
 20
-165.0694771791
 30
0.0
 11
-318.2140894109
 21
-165.0694771791
 31
0.0
  0
LINE
  5
109
330
1F
100
AcDbEntity
  8
0
100
AcDbLine
 10
-307.2140894109
 20
539.6757995819
 30
0.0
 11
-288.3140894108
 21
539.6757995819
 31
0.0
  0
LINE
  5
10A
330
1F
100
AcDbEntity
  8
0
100
AcDbLine
 10
-288.3140894108
 20
599.6757995819
 30
0.0
 11
-307.2140894109
 21
599.6757995819
 31
0.0
  0
LINE
  5
10B
330
1F
100
AcDbEntity
  8
0
100
AcDbLine
 10
-318.2140894109
 20
599.4257995819
 30
0.0
 11
-334.3140894109
 21
599.4257995819
 31
0.0
  0
LINE
  5
10C
330
1F
100
AcDbEntity
  8
0
100
AcDbLine
 10
-334.3140894109
 20
539.9257995819
 30
0.0
 11
-318.2140894109
 21
539.9257995819
 31
0.0
  0
LINE
  5
10D
330
1F
100
AcDbEntity
  8
0
100
AcDbLine
 10
145.3209532179
 20
-78.0794771791
 30
0.0
 11
347.4508679605
 21
-78.0794771791
 31
0.0
  0
LINE
  5
10E
330
1F
100
AcDbEntity
  8
0
100
AcDbLine
 10
380.4177817281
 20
-64.5794771791
 30
0.0
 11
112.3540394502
 21
-64.5794771791
 31
0.0
  0
LINE
  5
10F
330
1F
100
AcDbEntity
  8
0
100
AcDbLine
 10
234.3878939566
 20
-94.7445004181
 30
0.0
 11
258.3839272218
 21
-94.7445004181
 31
0.0
  0
LINE
  5
110
330
1F
100
AcDbEntity
  8
0
100
AcDbLine
 10
337.733186975
 20
-81.2445004181
 30
0.0
 11
155.0386342033
 21
-81.2445004181
 31
0.0
  0
LINE
  5
111
330
1F
100
AcDbEntity
  8
0
100
AcDbLine
 10
-49.8074004419
 20
121.8957995819
 30
0.0
 11
542.5792216202
 21
121.8957995819
 31
0.0
  0
LINE
  5
112
330
1F
100
AcDbEntity
  8
0
100
AcDbLine
 10
-61.7931602569
 20
255.2157995819
 30
0.0
 11
554.5649814352
 21
255.2157995819
 31
0.0
  0
LINE
  5
113
330
1F
100
AcDbEntity
  8
0
100
AcDbLine
 10
-55.6574243863
 20
288.5504995819
 30
0.0
 11
548.4292455646
 21
288.5504995819
 31
0.0
  0
LINE
  5
114
330
1F
100
AcDbEntity
  8
0
100
AcDbLine
 10
544.851291669
 20
302.0504995819
 30
0.0
 11
-52.0794704906
 21
302.0504995819
 31
0.0
  0
LINE
  5
115
330
1F
100
AcDbEntity
  8
0
100
AcDbLine
 10
-59.1951705717
 20
271.8854763429
 30
0.0
 11
551.96699175
 21
271.8854763429
 31
0.0
  0
LINE
  5
116
330
1F
100
AcDbEntity
  8
0
100
AcDbLine
 10
549.1748804855
 20
285.3854763429
 30
0.0
 11
-56.4030593072
 21
285.3854763429
 31
0.0
  0
LINE
  5
117
330
1F
100
AcDbEntity
  8
0
100
AcDbLine
 10
3.5470014269
 20
21.9104995819
 30
0.0
 11
489.2248197514
 21
21.9104995819
 31
0.0
  0
LINE
  5
118
330
1F
100
AcDbEntity
  8
0
100
AcDbLine
 10
499.4104613804
 20
35.4104995819
 30
0.0
 11
-6.6386402021
 21
35.4104995819
 31
0.0
  0
LINE
  5
119
330
1F
100
AcDbEntity
  8
0
100
AcDbLine
 10
17.8400001673
 20
5.2454763429
 30
0.0
 11
474.931821011
 21
5.2454763429
 31
0.0
  0
LINE
  5
11A
330
1F
100
AcDbEntity
  8
0
100
AcDbLine
 10
486.6646576685
 20
18.7454763429
 30
0.0
 11
6.1071635099
 21
18.7454763429
 31
0.0
  0
LINE
  5
11B
330
1F
100
AcDbEntity
  8
0
100
AcDbLine
 10
-63.4732475829
 20
238.5554995819
 30
0.0
 11
556.2450687612
 21
238.5554995819
 31
0.0
  0
LINE
  5
11C
330
1F
100
AcDbEntity
  8
0
100
AcDbLine
 10
554.9535213378
 20
252.0554995819
 30
0.0
 11
-62.1817001594
 21
252.0554995819
 31
0.0
  0
LINE
  5
11D
330
1F
100
AcDbEntity
  8
0
100
AcDbLine
 10
556.462048525
 20
235.3904763429
 30
0.0
 11
-63.6902273467
 21
235.3904763429
 31
0.0
  0
LINE
  5
11E
330
1F
100
AcDbEntity
  8
0
100
AcDbLine
 10
-64.1359468396
 20
205.2255228209
 30
0.0
 11
556.9077680179
 21
205.2255228209
 31
0.0
  0
LINE
  5
11F
330
1F
100
AcDbEntity
  8
0
100
AcDbLine
 10
557.0706476033
 20
218.7255228209
 30
0.0
 11
-64.298826425
 21
218.7255228209
 31
0.0
  0
LINE
  5
120
330
1F
100
AcDbEntity
  8
0
100
AcDbLine
 10
-63.1237331267
 20
188.5604995819
 30
0.0
 11
555.895554305
 21
188.5604995819
 31
0.0
  0
LINE
  5
121
330
1F
100
AcDbEntity
  8
0
100
AcDbLine
 10
105.9265216764
 20
-61.4144771793
 30
0.0
 11
386.845299502
 21
-61.4144771793
 31
0.0
  0
LINE
  5
122
330
1F
100
AcDbEntity
  8
0
100
AcDbLine
 10
410.7918162201
 20
-47.9144771793
 30
0.0
 11
81.9800049583
 21
-47.9144771793
 31
0.0
  0
LINE
  5
123
330
1F
100
AcDbEntity
  8
0
100
AcDbLine
 10
145.3210207759
 20
-78.0795004183
 30
0.0
 11
347.4508004024
 21
-78.0795004183
 31
0.0
  0
LINE
  5
124
330
1F
100
AcDbEntity
  8
0
100
AcDbLine
 10
-19.6580624905
 20
55.2405228209
 30
0.0
 11
512.4298836688
 21
55.2405228209
 31
0.0
  0
LINE
  5
125
330
1F
100
AcDbEntity
  8
0
100
AcDbLine
 10
520.1196726365
 20
68.7405228209
 30
0.0
 11
-27.3478514581
 21
68.7405228209
 31
0.0
  0
LINE
  5
126
330
1F
100
AcDbEntity
  8
0
100
AcDbLine
 10
-8.8645236967
 20
38.5754995819
 30
0.0
 11
501.636344875
 21
38.5754995819
 31
0.0
  0
LINE
  5
127
330
1F
100
AcDbEntity
  8
0
100
AcDbLine
 10
510.494821274
 20
52.0754995819
 30
0.0
 11
-17.7230000956
 21
52.0754995819
 31
0.0
  0
LINE
  5
128
330
1F
100
AcDbEntity
  8
0
100
AcDbLine
 10
-64.2522082171
 20
221.8857995819
 30
0.0
 11
557.0240293955
 21
221.8857995819
 31
0.0
  0
LINE
  5
129
330
1F
100
AcDbEntity
  8
0
100
AcDbLine
 10
556.4623451267
 20
235.3857995819
 30
0.0
 11
-63.6905239484
 21
235.3857995819
 31
0.0
  0
LINE
  5
12A
330
1F
100
AcDbEntity
  8
0
100
AcDbLine
 10
-61.7925579207
 20
255.2204995819
 30
0.0
 11
554.5643790991
 21
255.2204995819
 31
0.0
  0
LINE
  5
12B
330
1F
100
AcDbEntity
  8
0
100
AcDbLine
 10
552.5317679074
 20
268.7204995819
 30
0.0
 11
-59.7599467291
 21
268.7204995819
 31
0.0
  0
LINE
  5
12C
330
1F
100
AcDbEntity
  8
0
100
AcDbLine
 10
-39.0061859108
 20
338.5455228207
 30
0.0
 11
531.7780070891
 21
338.5455228207
 31
0.0
  0
LINE
  5
12D
330
1F
100
AcDbEntity
  8
0
100
AcDbLine
 10
525.5815241242
 20
352.0455228207
 30
0.0
 11
-32.8097029458
 21
352.0455228207
 31
0.0
  0
LINE
  5
12E
330
1F
100
AcDbEntity
  8
0
100
AcDbLine
 10
-45.6151273425
 20
321.8804995817
 30
0.0
 11
538.3869485208
 21
321.8804995817
 31
0.0
  0
LINE
  5
12F
330
1F
100
AcDbEntity
  8
0
100
AcDbLine
 10
-31.2443641712
 20
355.2057995819
 30
0.0
 11
524.0161853495
 21
355.2057995819
 31
0.0
  0
LINE
  5
130
330
1F
100
AcDbEntity
  8
0
100
AcDbLine
 10
516.8120259396
 20
368.7057995819
 30
0.0
 11
-24.0402047613
 21
368.7057995819
 31
0.0
  0
LINE
  5
131
330
1F
100
AcDbEntity
  8
0
100
AcDbLine
 10
-11.8158180129
 20
388.5404995819
 30
0.0
 11
504.5876391913
 21
388.5404995819
 31
0.0
  0
LINE
  5
132
330
1F
100
AcDbEntity
  8
0
100
AcDbLine
 10
495.021809351
 20
402.0404995819
 30
0.0
 11
-2.2499881727
 21
402.0404995819
 31
0.0
  0
LINE
  5
133
330
1F
100
AcDbEntity
  8
0
100
AcDbLine
 10
-58.3675609302
 20
155.2304995819
 30
0.0
 11
551.1393821085
 21
155.2304995819
 31
0.0
  0
LINE
  5
134
330
1F
100
AcDbEntity
  8
0
100
AcDbLine
 10
553.5108459219
 20
168.7304995819
 30
0.0
 11
-60.7390247435
 21
168.7304995819
 31
0.0
  0
LINE
  5
135
330
1F
100
AcDbEntity
  8
0
100
AcDbLine
 10
-54.5804290021
 20
138.5654763429
 30
0.0
 11
547.3522501805
 21
138.5654763429
 31
0.0
  0
LINE
  5
136
330
1F
100
AcDbEntity
  8
0
100
AcDbLine
 10
550.4940175091
 20
152.0654763429
 30
0.0
 11
-57.7221963308
 21
152.0654763429
 31
0.0
  0
LINE
  5
137
330
1F
100
AcDbEntity
  8
0
100
AcDbLine
 10
-29.0238828776
 20
71.9055228207
 30
0.0
 11
521.7957040559
 21
71.9055228207
 31
0.0
  0
LINE
  5
138
330
1F
100
AcDbEntity
  8
0
100
AcDbLine
 10
528.4344457918
 20
85.4055228207
 30
0.0
 11
-35.6626246134
 21
85.4055228207
 31
0.0
  0
LINE
  5
139
330
1F
100
AcDbEntity
  8
0
100
AcDbLine
 10
-19.6580484722
 20
55.2404995817
 30
0.0
 11
512.4298696505
 21
55.2404995817
 31
0.0
  0
LINE
  5
13A
330
1F
100
AcDbEntity
  8
0
100
AcDbLine
 10
-22.2223873152
 20
371.8754995819
 30
0.0
 11
514.9942084936
 21
371.8754995819
 31
0.0
  0
LINE
  5
13B
330
1F
100
AcDbEntity
  8
0
100
AcDbLine
 10
506.678150587
 20
385.3754995819
 30
0.0
 11
-13.9063294087
 21
385.3754995819
 31
0.0
  0
LINE
  5
13C
330
1F
100
AcDbEntity
  8
0
100
AcDbLine
 10
516.809380195
 20
368.7104763429
 30
0.0
 11
-24.0375590167
 21
368.7104763429
 31
0.0
  0
LINE
  5
13D
330
1F
100
AcDbEntity
  8
0
100
AcDbLine
 10
-63.1237351661
 20
188.5605228209
 30
0.0
 11
555.8955563445
 21
188.5605228209
 31
0.0
  0
LINE
  5
13E
330
1F
100
AcDbEntity
  8
0
100
AcDbLine
 10
556.7846182026
 20
202.0605228209
 30
0.0
 11
-64.0127970243
 21
202.0605228209
 31
0.0
  0
LINE
  5
13F
330
1F
100
AcDbEntity
  8
0
100
AcDbLine
 10
-61.2066302877
 20
171.8954995819
 30
0.0
 11
553.9784514661
 21
171.8954995819
 31
0.0
  0
LINE
  5
140
330
1F
100
AcDbEntity
  8
0
100
AcDbLine
 10
555.60147246
 20
185.3954995819
 30
0.0
 11
-62.8296512817
 21
185.3954995819
 31
0.0
  0
LINE
  5
141
330
1F
100
AcDbEntity
  8
0
100
AcDbLine
 10
34.3996598758
 20
-11.4242004181
 30
0.0
 11
458.3721613026
 21
-11.4242004181
 31
0.0
  0
LINE
  5
142
330
1F
100
AcDbEntity
  8
0
100
AcDbLine
 10
-45.6151188938
 20
321.8805228209
 30
0.0
 11
538.3869400721
 21
321.8805228209
 31
0.0
  0
LINE
  5
143
330
1F
100
AcDbEntity
  8
0
100
AcDbLine
 10
533.1194072227
 20
335.3805228209
 30
0.0
 11
-40.3475860443
 21
335.3805228209
 31
0.0
  0
LINE
  5
144
330
1F
100
AcDbEntity
  8
0
100
AcDbLine
 10
-51.1457909203
 20
305.2154995819
 30
0.0
 11
543.9176120986
 21
305.2154995819
 31
0.0
  0
LINE
  5
145
330
1F
100
AcDbEntity
  8
0
100
AcDbLine
 10
539.5182457266
 20
318.7154995819
 30
0.0
 11
-46.7464245482
 21
318.7154995819
 31
0.0
  0
LINE
  5
146
330
1F
100
AcDbEntity
  8
0
100
AcDbLine
 10
77.0175273545
 20
-44.7542004181
 30
0.0
 11
415.7542938238
 21
-44.7542004181
 31
0.0
  0
LINE
  5
147
330
1F
100
AcDbEntity
  8
0
100
AcDbLine
 10
434.8966095946
 20
-31.2542004181
 30
0.0
 11
57.8752115837
 21
-31.2542004181
 31
0.0
  0
LINE
  5
148
330
1F
100
AcDbEntity
  8
0
100
AcDbLine
 10
34.3946238505
 20
-11.4195004181
 30
0.0
 11
458.3771973278
 21
-11.4195004181
 31
0.0
  0
LINE
  5
149
330
1F
100
AcDbEntity
  8
0
100
AcDbLine
 10
471.9760326094
 20
2.0804995819
 30
0.0
 11
20.7957885689
 21
2.0804995819
 31
0.0
  0
LINE
  5
14A
330
1F
100
AcDbEntity
  8
0
100
AcDbLine
 10
13.9268191277
 20
421.8704995819
 30
0.0
 11
478.8450020507
 21
421.8704995819
 31
0.0
  0
LINE
  5
14B
330
1F
100
AcDbEntity
  8
0
100
AcDbLine
 10
466.1334855544
 20
435.3704995819
 30
0.0
 11
26.6383356239
 21
435.3704995819
 31
0.0
  0
LINE
  5
14C
330
1F
100
AcDbEntity
  8
0
100
AcDbLine
 10
0.1534757641
 20
405.2054763429
 30
0.0
 11
492.6183454142
 21
405.2054763429
 31
0.0
  0
LINE
  5
14D
330
1F
100
AcDbEntity
  8
0
100
AcDbLine
 10
481.6137471377
 20
418.7054763429
 30
0.0
 11
11.1580740406
 21
418.7054763429
 31
0.0
  0
LINE
  5
14E
330
1F
100
AcDbEntity
  8
0
100
AcDbLine
 10
-11.8189637171
 20
388.5357995819
 30
0.0
 11
504.5907848954
 21
388.5357995819
 31
0.0
  0
LINE
  5
14F
330
1F
100
AcDbEntity
  8
0
100
AcDbLine
 10
70.5307749
 20
471.8655228207
 30
0.0
 11
422.2410462783
 21
471.8655228207
 31
0.0
  0
LINE
  5
150
330
1F
100
AcDbEntity
  8
0
100
AcDbLine
 10
400.745654761
 20
485.3655228207
 30
0.0
 11
92.0261664173
 21
485.3655228207
 31
0.0
  0
LINE
  5
151
330
1F
100
AcDbEntity
  8
0
100
AcDbLine
 10
48.4350380141
 20
455.2004995817
 30
0.0
 11
444.3367831642
 21
455.2004995817
 31
0.0
  0
LINE
  5
152
330
1F
100
AcDbEntity
  8
0
100
AcDbLine
 10
-44.0044014102
 20
105.2354995819
 30
0.0
 11
536.7762225886
 21
105.2354995819
 31
0.0
  0
LINE
  5
153
330
1F
100
AcDbEntity
  8
0
100
AcDbLine
 10
541.5594964723
 20
118.7354995819
 30
0.0
 11
-48.787675294
 21
118.7354995819
 31
0.0
  0
LINE
  5
154
330
1F
100
AcDbEntity
  8
0
100
AcDbLine
 10
535.5521688573
 20
102.0704763429
 30
0.0
 11
-42.7803476789
 21
102.0704763429
 31
0.0
  0
LINE
  5
155
330
1F
100
AcDbEntity
  8
0
100
AcDbLine
 10
193.3130387664
 20
521.8557995819
 30
0.0
 11
299.4587824119
 21
521.8557995819
 31
0.0
  0
LINE
  5
156
330
1F
100
AcDbEntity
  8
0
100
AcDbLine
 10
133.5156633887
 20
505.1954995819
 30
0.0
 11
359.2561577897
 21
505.1954995819
 31
0.0
  0
LINE
  5
157
330
1F
100
AcDbEntity
  8
0
100
AcDbLine
 10
315.2458060516
 20
518.6954995819
 30
0.0
 11
177.5260151267
 21
518.6954995819
 31
0.0
  0
LINE
  5
158
330
1F
100
AcDbEntity
  8
0
100
AcDbLine
 10
367.0592287258
 20
502.0304763429
 30
0.0
 11
125.7125924526
 21
502.0304763429
 31
0.0
  0
LINE
  5
159
330
1F
100
AcDbEntity
  8
0
100
AcDbLine
 10
53.7932733906
 20
-28.0845004181
 30
0.0
 11
438.9785477878
 21
-28.0845004181
 31
0.0
  0
LINE
  5
15A
330
1F
100
AcDbEntity
  8
0
100
AcDbLine
 10
454.9344095124
 20
-14.5845004181
 30
0.0
 11
37.837411666
 21
-14.5845004181
 31
0.0
  0
LINE
  5
15B
330
1F
100
AcDbEntity
  8
0
100
AcDbLine
 10
434.9027366932
 20
-31.2495236571
 30
0.0
 11
57.8690844852
 21
-31.2495236571
 31
0.0
  0
LINE
  5
15C
330
1F
100
AcDbEntity
  8
0
100
AcDbLine
 10
97.6826716483
 20
488.5257995819
 30
0.0
 11
395.0891495301
 21
488.5257995819
 31
0.0
  0
LINE
  5
15D
330
1F
100
AcDbEntity
  8
0
100
AcDbLine
 10
367.0703241292
 20
502.0257995819
 30
0.0
 11
125.7014970491
 21
502.0257995819
 31
0.0
  0
LINE
  5
15E
330
1F
100
AcDbEntity
  8
0
100
AcDbLine
 10
193.3401562529
 20
521.8604995819
 30
0.0
 11
299.4316649254
 21
521.8604995819
 31
0.0
  0
LINE
  5
15F
330
1F
100
AcDbEntity
  8
0
100
AcDbLine
 10
48.4350661286
 20
455.2005228209
 30
0.0
 11
444.3367550498
 21
455.2005228209
 31
0.0
  0
LINE
  5
160
330
1F
100
AcDbEntity
  8
0
100
AcDbLine
 10
426.7643840698
 20
468.7005228209
 30
0.0
 11
66.0074371085
 21
468.7005228209
 31
0.0
  0
LINE
  5
161
330
1F
100
AcDbEntity
  8
0
100
AcDbLine
 10
29.8481291211
 20
438.5354995819
 30
0.0
 11
462.9236920572
 21
438.5354995819
 31
0.0
  0
LINE
  5
162
330
1F
100
AcDbEntity
  8
0
100
AcDbLine
 10
448.104584249
 20
452.0354995819
 30
0.0
 11
44.6672369293
 21
452.0354995819
 31
0.0
  0
LINE
  5
163
330
1F
100
AcDbEntity
  8
0
100
AcDbLine
 10
-37.1014214868
 20
88.5657995819
 30
0.0
 11
529.8732426651
 21
88.5657995819
 31
0.0
  0
LINE
  5
164
330
1F
100
AcDbEntity
  8
0
100
AcDbLine
 10
535.5503306818
 20
102.0657995819
 30
0.0
 11
-42.7785095035
 21
102.0657995819
 31
0.0
  0
LINE
  5
165
330
1F
100
AcDbEntity
  8
0
100
AcDbLine
 10
-49.8088892523
 20
121.9004995819
 30
0.0
 11
542.5807104306
 21
121.9004995819
 31
0.0
  0
LINE
  5
166
330
1F
100
AcDbEntity
  8
0
100
AcDbLine
 10
546.5230741546
 20
135.4004995819
 30
0.0
 11
-53.7512529763
 21
135.4004995819
 31
0.0
  0
LINE
  5
167
330
1F
100
AcDbEntity
  8
0
100
AcDbLine
 10
-227.2140894108
 20
-219.1270004181
 30
0.0
 11
-229.4140894108
 21
-219.1270004181
 31
0.0
  0
LINE
  5
168
330
1F
100
AcDbEntity
  8
0
100
AcDbLine
 10
-227.1140894108
 20
-226.9270004181
 30
0.0
 11
-229.5140894108
 21
-226.9270004181
 31
0.0
  0
LINE
  5
169
330
1F
100
AcDbEntity
  8
0
100
AcDbLine
 10
-225.8140894108
 20
-225.6270004181
 30
0.0
 11
-230.8140894108
 21
-225.6270004181
 31
0.0
  0
LINE
  5
16A
330
1F
100
AcDbEntity
  8
0
100
AcDbLine
 10
722.1859105892
 20
-219.1270004181
 30
0.0
 11
719.9859105892
 21
-219.1270004181
 31
0.0
  0
LINE
  5
16B
330
1F
100
AcDbEntity
  8
0
100
AcDbLine
 10
722.2859105892
 20
-226.9270004181
 30
0.0
 11
719.8859105892
 21
-226.9270004181
 31
0.0
  0
LINE
  5
16C
330
1F
100
AcDbEntity
  8
0
100
AcDbLine
 10
723.5859105892
 20
-225.6270004181
 30
0.0
 11
718.5859105892
 21
-225.6270004181
 31
0.0
  0
LINE
  5
16D
330
1F
100
AcDbEntity
  8
0
100
AcDbLine
 10
739.5859105892
 20
-191.8236995592
 30
0.0
 11
739.5859105892
 21
-192.884359731
 31
0.0
  0
LWPOLYLINE
  5
16E
330
1F
100
AcDbEntity
  8
0
100
AcDbPolyline
 90
        9
 70
   128
 43
0.0
 10
739.5859105892
 20
-192.884359731
 10
739.4898369912
 20
-193.5741081792
 10
739.2053082517
 20
-194.2373499813
 10
738.7432586507
 20
-194.8485971269
 10
738.1214444951
 20
-195.384359731
 10
737.3637617543
 20
-195.824048737
 10
736.499327751
 20
-196.1507671431
 10
735.5613621992
 20
-196.3519593443
 10
734.5859105892
 20
-196.4198936369
  0
LWPOLYLINE
  5
16F
330
1F
100
AcDbEntity
  8
0
100
AcDbPolyline
 90
        9
 70
   128
 43
0.0
 10
734.5859105892
 20
-195.3592334651
 10
735.5613621992
 20
-195.2912991725
 10
736.499327751
 20
-195.0901069714
 10
737.3637617543
 20
-194.7633885652
 10
738.1214444951
 20
-194.3236995592
 10
738.7432586507
 20
-193.7879369551
 10
739.2053082517
 20
-193.1766898095
 10
739.4898369912
 20
-192.5134480074
 10
739.5859105892
 20
-191.8236995592
  0
LINE
  5
170
330
1F
100
AcDbEntity
  8
0
100
AcDbLine
 10
734.5859105892
 20
-140.3592334651
 30
0.0
 11
732.0859105892
 21
-140.3592334651
 31
0.0
  0
LWPOLYLINE
  5
171
330
1F
100
AcDbEntity
  8
0
100
AcDbPolyline
 90
        9
 70
   128
 43
0.0
 10
739.5859105892
 20
-143.894767371
 10
739.4898369912
 20
-143.2050189228
 10
739.2053082517
 20
-142.5417771207
 10
738.7432586507
 20
-141.9305299751
 10
738.1214444951
 20
-141.394767371
 10
737.3637617543
 20
-140.955078365
 10
736.499327751
 20
-140.6283599589
 10
735.5613621992
 20
-140.4271677577
 10
734.5859105892
 20
-140.3592334651
  0
LINE
  5
172
330
1F
100
AcDbEntity
  8
0
100
AcDbLine
 10
739.5859105892
 20
-191.8236995592
 30
0.0
 11
739.5859105892
 21
-143.894767371
 31
0.0
  0
LINE
  5
173
330
1F
100
AcDbEntity
  8
0
100
AcDbLine
 10
732.0859105892
 20
-195.3592334651
 30
0.0
 11
734.5859105892
 21
-195.3592334651
 31
0.0
  0
LINE
  5
174
330
1F
100
AcDbEntity
  8
0
100
AcDbLine
 10
729.5859105892
 20
-197.1270004181
 30
0.0
 11
731.0859105892
 21
-197.1270004181
 31
0.0
  0
ARC
  5
175
330
1F
100
AcDbEntity
  8
0
100
AcDbCircle
 10
731.7734105892
 20
-197.5689421563
 30
0.0
 40
2.231696383919604
100
AcDbArc
 50
81.9505330245
 51
168.578246341
  0
ARC
  5
176
330
1F
100
AcDbEntity
  8
0
100
AcDbCircle
 10
731.9609105892
 20
-197.3037771134
 30
0.0
 40
0.8926785535676419
100
AcDbArc
 50
81.9505330245
 51
168.5782463411
  0
LINE
  5
177
330
1F
100
AcDbEntity
  8
0
100
AcDbLine
 10
732.0859105892
 20
-196.4198936369
 30
0.0
 11
734.5859105892
 21
-196.4198936369
 31
0.0
  0
ARC
  5
178
330
1F
100
AcDbEntity
  8
0
100
AcDbCircle
 10
731.7734105892
 20
-142.5689421563
 30
0.0
 40
2.231696383919918
100
AcDbArc
 50
81.9505330245
 51
168.578246341
  0
LINE
  5
179
330
1F
100
AcDbEntity
  8
0
100
AcDbLine
 10
729.5859105892
 20
-142.1270004181
 30
0.0
 11
729.5859105892
 21
-197.1270004181
 31
0.0
  0
LINE
  5
17A
330
1F
100
AcDbEntity
  8
0
100
AcDbLine
 10
731.0859105892
 20
-197.1270004181
 30
0.0
 11
731.0859105892
 21
-219.6270004181
 31
0.0
  0
LINE
  5
17B
330
1F
100
AcDbEntity
  8
0
100
AcDbLine
 10
729.5859105892
 20
-197.1270004181
 30
0.0
 11
729.5859105892
 21
-219.6270004181
 31
0.0
  0
LINE
  5
17C
330
1F
100
AcDbEntity
  8
0
100
AcDbLine
 10
728.5859105892
 20
-220.6270004181
 30
0.0
 11
716.0859105892
 21
-220.6270004181
 31
0.0
  0
ARC
  5
17D
330
1F
100
AcDbEntity
  8
0
100
AcDbCircle
 10
728.5859105892
 20
-219.6270004181
 30
0.0
 40
2.500000000000057
100
AcDbArc
 50
270.0
 51
0.0
  0
ARC
  5
17E
330
1F
100
AcDbEntity
  8
0
100
AcDbCircle
 10
728.5859105892
 20
-219.6270004181
 30
0.0
 40
1.0
100
AcDbArc
 50
270.0
 51
0.0
  0
LINE
  5
17F
330
1F
100
AcDbEntity
  8
0
100
AcDbLine
 10
711.0859105892
 20
-222.1270004181
 30
0.0
 11
711.0859105892
 21
-220.6270004181
 31
0.0
  0
LINE
  5
180
330
1F
100
AcDbEntity
  8
0
100
AcDbLine
 10
711.0859105892
 20
-220.6270004181
 30
0.0
 11
716.0859105892
 21
-220.6270004181
 31
0.0
  0
ARC
  5
181
330
1F
100
AcDbEntity
  8
0
100
AcDbCircle
 10
732.0691976739
 20
-217.3043993813
 30
0.0
 40
3.340409799443901
100
AcDbArc
 50
250.3590374513
 51
270.2866664758
  0
ARC
  5
182
330
1F
100
AcDbEntity
  8
0
100
AcDbCircle
 10
731.9609105892
 20
-218.7002237228
 30
0.0
 40
0.8926785535675171
100
AcDbArc
 50
191.4217536589
 51
278.0494669756
  0
LINE
  5
183
330
1F
100
AcDbEntity
  8
0
100
AcDbLine
 10
739.5859105892
 20
-192.884359731
 30
0.0
 11
739.5859105892
 21
-216.0485732933
 31
0.0
  0
LWPOLYLINE
  5
184
330
1F
100
AcDbEntity
  8
0
100
AcDbPolyline
 90
        9
 70
   128
 43
0.0
 10
734.5859105892
 20
-219.5841071993
 10
735.5613621992
 20
-219.5161729066
 10
736.499327751
 20
-219.3149807055
 10
737.3637617543
 20
-218.9882622994
 10
738.1214444951
 20
-218.5485732933
 10
738.7432586507
 20
-218.0128106893
 10
739.2053082517
 20
-217.4015635437
 10
739.4898369912
 20
-216.7383217415
 10
739.5859105892
 20
-216.0485732933
  0
LINE
  5
185
330
1F
100
AcDbEntity
  8
0
100
AcDbLine
 10
734.5859105892
 20
-219.5841071993
 30
0.0
 11
732.0859105892
 21
-219.5841071993
 31
0.0
  0
LINE
  5
186
330
1F
100
AcDbEntity
  8
0
100
AcDbLine
 10
739.5859105892
 20
-216.0485732933
 30
0.0
 11
739.5859105892
 21
-217.1092334651
 31
0.0
  0
LWPOLYLINE
  5
187
330
1F
100
AcDbEntity
  8
0
100
AcDbPolyline
 90
        9
 70
   128
 43
0.0
 10
739.5859105892
 20
-217.1092334651
 10
739.4898369912
 20
-217.7989819133
 10
739.2053082517
 20
-218.4622237155
 10
738.7432586507
 20
-219.0734708611
 10
738.1214444951
 20
-219.6092334651
 10
737.3637617543
 20
-220.0489224712
 10
736.499327751
 20
-220.3756408773
 10
735.5613621992
 20
-220.5768330784
 10
734.5859105892
 20
-220.644767371
  0
LINE
  5
188
330
1F
100
AcDbEntity
  8
0
100
AcDbLine
 10
734.5859105892
 20
-220.644767371
 30
0.0
 11
732.0859105892
 21
-220.644767371
 31
0.0
  0
LINE
  5
189
330
1F
100
AcDbEntity
  8
0
100
AcDbLine
 10
728.5859105892
 20
-177.1270004181
 30
0.0
 11
729.5859105892
 21
-177.1270004181
 31
0.0
  0
LINE
  5
18A
330
1F
100
AcDbEntity
  8
0
100
AcDbLine
 10
729.5859105892
 20
-142.1270004181
 30
0.0
 11
728.5859105892
 21
-142.1270004181
 31
0.0
  0
ARC
  5
18B
330
1F
100
AcDbEntity
  8
0
100
AcDbCircle
 10
716.0859105892
 20
-147.1270004181
 30
0.0
 40
5.0
100
AcDbArc
 50
90.0
 51
180.0
  0
ARC
  5
18C
330
1F
100
AcDbEntity
  8
0
100
AcDbCircle
 10
716.0859105892
 20
-172.1270004181
 30
0.0
 40
5.0
100
AcDbArc
 50
180.0
 51
270.0
  0
LINE
  5
18D
330
1F
100
AcDbEntity
  8
0
100
AcDbLine
 10
711.0859105892
 20
-172.1270004181
 30
0.0
 11
711.0859105892
 21
-147.1270004181
 31
0.0
  0
LINE
  5
18E
330
1F
100
AcDbEntity
  8
0
100
AcDbLine
 10
728.5859105892
 20
-177.1270004181
 30
0.0
 11
716.0859105892
 21
-177.1270004181
 31
0.0
  0
LINE
  5
18F
330
1F
100
AcDbEntity
  8
0
100
AcDbLine
 10
716.0859105892
 20
-142.1270004181
 30
0.0
 11
728.5859105892
 21
-142.1270004181
 31
0.0
  0
ARC
  5
190
330
1F
100
AcDbEntity
  8
0
100
AcDbCircle
 10
-239.0015894108
 20
-197.5689421563
 30
0.0
 40
2.2316963839198
100
AcDbArc
 50
11.421753659
 51
98.0494669755
  0
ARC
  5
191
330
1F
100
AcDbEntity
  8
0
100
AcDbCircle
 10
-239.0015894108
 20
-142.5689421563
 30
0.0
 40
2.231696383919717
100
AcDbArc
 50
11.421753659
 51
98.0494669755
  0
LINE
  5
192
330
1F
100
AcDbEntity
  8
0
100
AcDbLine
 10
-236.8140894108
 20
-197.1270004181
 30
0.0
 11
-236.8140894108
 21
-142.1270004181
 31
0.0
  0
LINE
  5
193
330
1F
100
AcDbEntity
  8
0
100
AcDbLine
 10
-241.8140894108
 20
-196.4198936369
 30
0.0
 11
-239.3140894108
 21
-196.4198936369
 31
0.0
  0
LINE
  5
194
330
1F
100
AcDbEntity
  8
0
100
AcDbLine
 10
-241.8140894108
 20
-195.3592334651
 30
0.0
 11
-239.3140894108
 21
-195.3592334651
 31
0.0
  0
LINE
  5
195
330
1F
100
AcDbEntity
  8
0
100
AcDbLine
 10
-236.8140894108
 20
-197.1270004181
 30
0.0
 11
-238.3140894108
 21
-197.1270004181
 31
0.0
  0
ARC
  5
196
330
1F
100
AcDbEntity
  8
0
100
AcDbCircle
 10
-239.1890894108
 20
-197.3037771134
 30
0.0
 40
0.8926785535680575
100
AcDbArc
 50
11.421753659
 51
98.0494669755
  0
LWPOLYLINE
  5
197
330
1F
100
AcDbEntity
  8
0
100
AcDbPolyline
 90
        9
 70
   128
 43
0.0
 10
-241.8140894108
 20
-196.4198936369
 10
-242.7895410209
 20
-196.3519593443
 10
-243.7275065727
 20
-196.1507671431
 10
-244.5919405759
 20
-195.824048737
 10
-245.3496233168
 20
-195.384359731
 10
-245.9714374724
 20
-194.8485971269
 10
-246.4334870734
 20
-194.2373499813
 10
-246.7180158129
 20
-193.5741081792
 10
-246.8140894108
 20
-192.884359731
  0
LINE
  5
198
330
1F
100
AcDbEntity
  8
0
100
AcDbLine
 10
-246.8140894108
 20
-192.884359731
 30
0.0
 11
-246.8140894108
 21
-191.8236995592
 31
0.0
  0
LWPOLYLINE
  5
199
330
1F
100
AcDbEntity
  8
0
100
AcDbPolyline
 90
        9
 70
   128
 43
0.0
 10
-246.8140894108
 20
-191.8236995592
 10
-246.7180158129
 20
-192.5134480074
 10
-246.4334870734
 20
-193.1766898095
 10
-245.9714374724
 20
-193.7879369551
 10
-245.3496233168
 20
-194.3236995592
 10
-244.5919405759
 20
-194.7633885652
 10
-243.7275065727
 20
-195.0901069714
 10
-242.7895410209
 20
-195.2912991725
 10
-241.8140894108
 20
-195.3592334651
  0
LINE
  5
19A
330
1F
100
AcDbEntity
  8
0
100
AcDbLine
 10
-246.8140894108
 20
-143.894767371
 30
0.0
 11
-246.8140894108
 21
-191.8236995592
 31
0.0
  0
LWPOLYLINE
  5
19B
330
1F
100
AcDbEntity
  8
0
100
AcDbPolyline
 90
        9
 70
   128
 43
0.0
 10
-241.8140894108
 20
-140.3592334651
 10
-242.7895410209
 20
-140.4271677577
 10
-243.7275065727
 20
-140.6283599588
 10
-244.5919405759
 20
-140.955078365
 10
-245.3496233168
 20
-141.394767371
 10
-245.9714374724
 20
-141.9305299751
 10
-246.4334870734
 20
-142.5417771207
 10
-246.7180158129
 20
-143.2050189228
 10
-246.8140894108
 20
-143.894767371
  0
LINE
  5
19C
330
1F
100
AcDbEntity
  8
0
100
AcDbLine
 10
-239.3140894108
 20
-140.3592334651
 30
0.0
 11
-241.8140894108
 21
-140.3592334651
 31
0.0
  0
LINE
  5
19D
330
1F
100
AcDbEntity
  8
0
100
AcDbLine
 10
-223.3140894108
 20
-220.6270004181
 30
0.0
 11
-218.3140894108
 21
-220.6270004181
 31
0.0
  0
LINE
  5
19E
330
1F
100
AcDbEntity
  8
0
100
AcDbLine
 10
-218.3140894108
 20
-220.6270004181
 30
0.0
 11
-218.3140894108
 21
-222.1270004181
 31
0.0
  0
LINE
  5
19F
330
1F
100
AcDbEntity
  8
0
100
AcDbLine
 10
-223.3140894108
 20
-220.6270004181
 30
0.0
 11
-235.8140894108
 21
-220.6270004181
 31
0.0
  0
LINE
  5
1A0
330
1F
100
AcDbEntity
  8
0
100
AcDbLine
 10
-238.3140894108
 20
-219.6270004181
 30
0.0
 11
-238.3140894108
 21
-197.1270004181
 31
0.0
  0
LINE
  5
1A1
330
1F
100
AcDbEntity
  8
0
100
AcDbLine
 10
-236.8140894108
 20
-219.6270004181
 30
0.0
 11
-236.8140894108
 21
-197.1270004181
 31
0.0
  0
ARC
  5
1A2
330
1F
100
AcDbEntity
  8
0
100
AcDbCircle
 10
-235.8140894108
 20
-219.6270004181
 30
0.0
 40
2.500000000000057
100
AcDbArc
 50
180.0
 51
270.0
  0
ARC
  5
1A3
330
1F
100
AcDbEntity
  8
0
100
AcDbCircle
 10
-235.8140894108
 20
-219.6270004181
 30
0.0
 40
1.0
100
AcDbArc
 50
180.0
 51
270.0
  0
ARC
  5
1A4
330
1F
100
AcDbEntity
  8
0
100
AcDbCircle
 10
-239.1890894108
 20
-218.7002237228
 30
0.0
 40
0.8926785535677908
100
AcDbArc
 50
261.9505330245
 51
348.578246341
  0
ARC
  5
1A5
330
1F
100
AcDbEntity
  8
0
100
AcDbCircle
 10
-239.2973764955
 20
-217.3043993818
 30
0.0
 40
3.34040979901719
100
AcDbArc
 50
269.7133335233
 51
289.6409625849
  0
LINE
  5
1A6
330
1F
100
AcDbEntity
  8
0
100
AcDbLine
 10
-239.3140894108
 20
-219.5841071993
 30
0.0
 11
-241.8140894108
 21
-219.5841071993
 31
0.0
  0
LWPOLYLINE
  5
1A7
330
1F
100
AcDbEntity
  8
0
100
AcDbPolyline
 90
        9
 70
   128
 43
0.0
 10
-246.8140894108
 20
-216.0485732933
 10
-246.7180158129
 20
-216.7383217415
 10
-246.4334870734
 20
-217.4015635437
 10
-245.9714374724
 20
-218.0128106893
 10
-245.3496233168
 20
-218.5485732933
 10
-244.5919405759
 20
-218.9882622994
 10
-243.7275065727
 20
-219.3149807055
 10
-242.7895410209
 20
-219.5161729066
 10
-241.8140894108
 20
-219.5841071993
  0
LINE
  5
1A8
330
1F
100
AcDbEntity
  8
0
100
AcDbLine
 10
-246.8140894108
 20
-216.0485732933
 30
0.0
 11
-246.8140894108
 21
-192.884359731
 31
0.0
  0
LINE
  5
1A9
330
1F
100
AcDbEntity
  8
0
100
AcDbLine
 10
-239.3140894108
 20
-220.644767371
 30
0.0
 11
-241.8140894108
 21
-220.644767371
 31
0.0
  0
LINE
  5
1AA
330
1F
100
AcDbEntity
  8
0
100
AcDbLine
 10
-246.8140894108
 20
-217.1092334651
 30
0.0
 11
-246.8140894108
 21
-216.0485732933
 31
0.0
  0
LWPOLYLINE
  5
1AB
330
1F
100
AcDbEntity
  8
0
100
AcDbPolyline
 90
        9
 70
   128
 43
0.0
 10
-241.8140894108
 20
-220.644767371
 10
-242.7895410209
 20
-220.5768330784
 10
-243.7275065727
 20
-220.3756408773
 10
-244.5919405759
 20
-220.0489224712
 10
-245.3496233168
 20
-219.6092334651
 10
-245.9714374724
 20
-219.0734708611
 10
-246.4334870734
 20
-218.4622237155
 10
-246.7180158129
 20
-217.7989819133
 10
-246.8140894108
 20
-217.1092334651
  0
LINE
  5
1AC
330
1F
100
AcDbEntity
  8
0
100
AcDbLine
 10
-236.8140894108
 20
-177.1270004181
 30
0.0
 11
-235.8140894108
 21
-177.1270004181
 31
0.0
  0
LINE
  5
1AD
330
1F
100
AcDbEntity
  8
0
100
AcDbLine
 10
-235.8140894108
 20
-142.1270004181
 30
0.0
 11
-236.8140894108
 21
-142.1270004181
 31
0.0
  0
LINE
  5
1AE
330
1F
100
AcDbEntity
  8
0
100
AcDbLine
 10
-235.8140894108
 20
-142.1270004181
 30
0.0
 11
-223.3140894108
 21
-142.1270004181
 31
0.0
  0
ARC
  5
1AF
330
1F
100
AcDbEntity
  8
0
100
AcDbCircle
 10
-223.3140894108
 20
-147.1270004181
 30
0.0
 40
5.0
100
AcDbArc
 50
0.0
 51
90.0
  0
LINE
  5
1B0
330
1F
100
AcDbEntity
  8
0
100
AcDbLine
 10
-218.3140894108
 20
-147.1270004181
 30
0.0
 11
-218.3140894108
 21
-172.1270004181
 31
0.0
  0
ARC
  5
1B1
330
1F
100
AcDbEntity
  8
0
100
AcDbCircle
 10
-223.3140894108
 20
-172.1270004181
 30
0.0
 40
5.0
100
AcDbArc
 50
270.0
 51
0.0
  0
LINE
  5
1B2
330
1F
100
AcDbEntity
  8
0
100
AcDbLine
 10
-223.3140894108
 20
-177.1270004181
 30
0.0
 11
-235.8140894108
 21
-177.1270004181
 31
0.0
  0
LINE
  5
1B3
330
1F
100
AcDbEntity
  8
0
100
AcDbLine
 10
-253.3140894108
 20
-223.6270004181
 30
0.0
 11
-203.3140894108
 21
-223.6270004181
 31
0.0
  0
LINE
  5
1B4
330
1F
100
AcDbEntity
  8
0
100
AcDbLine
 10
-253.3140894108
 20
-222.1270004181
 30
0.0
 11
-203.3140894108
 21
-222.1270004181
 31
0.0
  0
ARC
  5
1B5
330
1F
100
AcDbEntity
  8
0
100
AcDbCircle
 10
-253.3140894108
 20
-224.6270004181
 30
0.0
 40
2.500000000000398
100
AcDbArc
 50
90.0
 51
180.0
  0
ARC
  5
1B6
330
1F
100
AcDbEntity
  8
0
100
AcDbCircle
 10
-253.3140894108
 20
-224.6270004181
 30
0.0
 40
1.000000000000114
100
AcDbArc
 50
90.0
 51
180.0
  0
LINE
  5
1B7
330
1F
100
AcDbEntity
  8
0
100
AcDbLine
 10
-254.3140894108
 20
-234.6270004181
 30
0.0
 11
-254.3140894108
 21
-224.6270004181
 31
0.0
  0
LINE
  5
1B8
330
1F
100
AcDbEntity
  8
0
100
AcDbLine
 10
-255.8140894108
 20
-234.6270004181
 30
0.0
 11
-255.8140894108
 21
-224.6270004181
 31
0.0
  0
ARC
  5
1B9
330
1F
100
AcDbEntity
  8
0
100
AcDbCircle
 10
-253.3140894108
 20
-234.6270004181
 30
0.0
 40
1.000000000000227
100
AcDbArc
 50
180.0
 51
270.0
  0
ARC
  5
1BA
330
1F
100
AcDbEntity
  8
0
100
AcDbCircle
 10
-253.3140894108
 20
-234.6270004181
 30
0.0
 40
2.499999999999858
100
AcDbArc
 50
180.0
 51
270.0
  0
LINE
  5
1BB
330
1F
100
AcDbEntity
  8
0
100
AcDbLine
 10
-203.3140894108
 20
-237.1270004181
 30
0.0
 11
-207.8140894108
 21
-237.1270004181
 31
0.0
  0
LINE
  5
1BC
330
1F
100
AcDbEntity
  8
0
100
AcDbLine
 10
-207.8140894108
 20
-235.6270004181
 30
0.0
 11
-207.8140894108
 21
-237.1270004181
 31
0.0
  0
LINE
  5
1BD
330
1F
100
AcDbEntity
  8
0
100
AcDbLine
 10
-203.3140894108
 20
-235.6270004181
 30
0.0
 11
-207.8140894108
 21
-235.6270004181
 31
0.0
  0
ARC
  5
1BE
330
1F
100
AcDbEntity
  8
0
100
AcDbCircle
 10
-203.3140894108
 20
-234.6270004181
 30
0.0
 40
2.500000000000597
100
AcDbArc
 50
270.0
 51
360.0
  0
ARC
  5
1BF
330
1F
100
AcDbEntity
  8
0
100
AcDbCircle
 10
-203.3140894108
 20
-234.6270004181
 30
0.0
 40
1.000000000000654
100
AcDbArc
 50
270.0
 51
0.0
  0
LINE
  5
1C0
330
1F
100
AcDbEntity
  8
0
100
AcDbLine
 10
-200.8140894108
 20
-224.6270004181
 30
0.0
 11
-200.8140894108
 21
-234.6270004181
 31
0.0
  0
LINE
  5
1C1
330
1F
100
AcDbEntity
  8
0
100
AcDbLine
 10
-202.3140894108
 20
-224.6270004181
 30
0.0
 11
-202.3140894108
 21
-234.6270004181
 31
0.0
  0
ARC
  5
1C2
330
1F
100
AcDbEntity
  8
0
100
AcDbCircle
 10
-203.3140894108
 20
-224.6270004181
 30
0.0
 40
2.500000000000284
100
AcDbArc
 50
0.0
 51
90.0
  0
ARC
  5
1C3
330
1F
100
AcDbEntity
  8
0
100
AcDbCircle
 10
-203.3140894108
 20
-224.6270004181
 30
0.0
 40
1.000000000000227
100
AcDbArc
 50
0.0
 51
90.0
  0
LINE
  5
1C4
330
1F
100
AcDbEntity
  8
0
100
AcDbLine
 10
-210.8140894108
 20
-237.1270004181
 30
0.0
 11
-210.8140894108
 21
-235.6270004181
 31
0.0
  0
LINE
  5
1C5
330
1F
100
AcDbEntity
  8
0
100
AcDbLine
 10
-210.8140894108
 20
-235.6270004181
 30
0.0
 11
-207.8140894108
 21
-235.6270004181
 31
0.0
  0
LINE
  5
1C6
330
1F
100
AcDbEntity
  8
0
100
AcDbLine
 10
-207.8140894108
 20
-237.1270004181
 30
0.0
 11
-210.8140894108
 21
-237.1270004181
 31
0.0
  0
LINE
  5
1C7
330
1F
100
AcDbEntity
  8
0
100
AcDbLine
 10
-248.8140894108
 20
-235.6270004181
 30
0.0
 11
-253.3140894108
 21
-235.6270004181
 31
0.0
  0
LINE
  5
1C8
330
1F
100
AcDbEntity
  8
0
100
AcDbLine
 10
-248.8140894108
 20
-237.1270004181
 30
0.0
 11
-248.8140894108
 21
-235.6270004181
 31
0.0
  0
LINE
  5
1C9
330
1F
100
AcDbEntity
  8
0
100
AcDbLine
 10
-248.8140894108
 20
-237.1270004181
 30
0.0
 11
-253.3140894108
 21
-237.1270004181
 31
0.0
  0
LINE
  5
1CA
330
1F
100
AcDbEntity
  8
0
100
AcDbLine
 10
-245.8140894108
 20
-235.6270004181
 30
0.0
 11
-245.8140894108
 21
-237.1270004181
 31
0.0
  0
LINE
  5
1CB
330
1F
100
AcDbEntity
  8
0
100
AcDbLine
 10
-245.8140894108
 20
-237.1270004181
 30
0.0
 11
-248.8140894108
 21
-237.1270004181
 31
0.0
  0
LINE
  5
1CC
330
1F
100
AcDbEntity
  8
0
100
AcDbLine
 10
-248.8140894108
 20
-235.6270004181
 30
0.0
 11
-245.8140894108
 21
-235.6270004181
 31
0.0
  0
LINE
  5
1CD
330
1F
100
AcDbEntity
  8
0
100
AcDbLine
 10
696.0859105892
 20
-222.1270004181
 30
0.0
 11
746.0859105892
 21
-222.1270004181
 31
0.0
  0
LINE
  5
1CE
330
1F
100
AcDbEntity
  8
0
100
AcDbLine
 10
696.0859105892
 20
-223.6270004181
 30
0.0
 11
746.0859105892
 21
-223.6270004181
 31
0.0
  0
ARC
  5
1CF
330
1F
100
AcDbEntity
  8
0
100
AcDbCircle
 10
696.0859105892
 20
-224.6270004181
 30
0.0
 40
2.500000000000341
100
AcDbArc
 50
90.0
 51
180.0
  0
ARC
  5
1D0
330
1F
100
AcDbEntity
  8
0
100
AcDbCircle
 10
696.0859105892
 20
-224.6270004181
 30
0.0
 40
1.000000000000114
100
AcDbArc
 50
90.0
 51
180.0
  0
LINE
  5
1D1
330
1F
100
AcDbEntity
  8
0
100
AcDbLine
 10
693.5859105892
 20
-234.6270004181
 30
0.0
 11
693.5859105892
 21
-224.6270004181
 31
0.0
  0
LINE
  5
1D2
330
1F
100
AcDbEntity
  8
0
100
AcDbLine
 10
695.0859105892
 20
-234.6270004181
 30
0.0
 11
695.0859105892
 21
-224.6270004181
 31
0.0
  0
ARC
  5
1D3
330
1F
100
AcDbEntity
  8
0
100
AcDbCircle
 10
696.0859105892
 20
-234.6270004181
 30
0.0
 40
1.000000000000227
100
AcDbArc
 50
180.0
 51
270.0
  0
ARC
  5
1D4
330
1F
100
AcDbEntity
  8
0
100
AcDbCircle
 10
696.0859105892
 20
-234.6270004181
 30
0.0
 40
2.499999999999858
100
AcDbArc
 50
180.0
 51
270.0
  0
ARC
  5
1D5
330
1F
100
AcDbEntity
  8
0
100
AcDbCircle
 10
746.0859105892
 20
-234.6270004181
 30
0.0
 40
1.000000000000654
100
AcDbArc
 50
270.0
 51
0.0
  0
ARC
  5
1D6
330
1F
100
AcDbEntity
  8
0
100
AcDbCircle
 10
746.0859105892
 20
-234.6270004181
 30
0.0
 40
2.500000000000597
100
AcDbArc
 50
270.0
 51
360.0
  0
ARC
  5
1D7
330
1F
100
AcDbEntity
  8
0
100
AcDbCircle
 10
746.0859105892
 20
-224.6270004181
 30
0.0
 40
2.500000000000284
100
AcDbArc
 50
0.0
 51
90.0
  0
ARC
  5
1D8
330
1F
100
AcDbEntity
  8
0
100
AcDbCircle
 10
746.0859105892
 20
-224.6270004181
 30
0.0
 40
1.000000000000227
100
AcDbArc
 50
0.0
 51
90.0
  0
LINE
  5
1D9
330
1F
100
AcDbEntity
  8
0
100
AcDbLine
 10
741.5859105892
 20
-235.6270004181
 30
0.0
 11
741.5859105892
 21
-237.1270004181
 31
0.0
  0
LINE
  5
1DA
330
1F
100
AcDbEntity
  8
0
100
AcDbLine
 10
746.0859105892
 20
-235.6270004181
 30
0.0
 11
741.5859105892
 21
-235.6270004181
 31
0.0
  0
LINE
  5
1DB
330
1F
100
AcDbEntity
  8
0
100
AcDbLine
 10
746.0859105892
 20
-237.1270004181
 30
0.0
 11
741.5859105892
 21
-237.1270004181
 31
0.0
  0
LINE
  5
1DC
330
1F
100
AcDbEntity
  8
0
100
AcDbLine
 10
738.5859105892
 20
-237.1270004181
 30
0.0
 11
738.5859105892
 21
-235.6270004181
 31
0.0
  0
LINE
  5
1DD
330
1F
100
AcDbEntity
  8
0
100
AcDbLine
 10
738.5859105892
 20
-235.6270004181
 30
0.0
 11
741.5859105892
 21
-235.6270004181
 31
0.0
  0
LINE
  5
1DE
330
1F
100
AcDbEntity
  8
0
100
AcDbLine
 10
741.5859105892
 20
-237.1270004181
 30
0.0
 11
738.5859105892
 21
-237.1270004181
 31
0.0
  0
LINE
  5
1DF
330
1F
100
AcDbEntity
  8
0
100
AcDbLine
 10
748.5859105892
 20
-224.6270004181
 30
0.0
 11
748.5859105892
 21
-234.6270004181
 31
0.0
  0
LINE
  5
1E0
330
1F
100
AcDbEntity
  8
0
100
AcDbLine
 10
747.0859105892
 20
-224.6270004181
 30
0.0
 11
747.0859105892
 21
-234.6270004181
 31
0.0
  0
LINE
  5
1E1
330
1F
100
AcDbEntity
  8
0
100
AcDbLine
 10
700.5859105892
 20
-235.6270004181
 30
0.0
 11
696.0859105892
 21
-235.6270004181
 31
0.0
  0
LINE
  5
1E2
330
1F
100
AcDbEntity
  8
0
100
AcDbLine
 10
700.5859105892
 20
-237.1270004181
 30
0.0
 11
700.5859105892
 21
-235.6270004181
 31
0.0
  0
LINE
  5
1E3
330
1F
100
AcDbEntity
  8
0
100
AcDbLine
 10
700.5859105892
 20
-237.1270004181
 30
0.0
 11
696.0859105892
 21
-237.1270004181
 31
0.0
  0
LINE
  5
1E4
330
1F
100
AcDbEntity
  8
0
100
AcDbLine
 10
703.5859105892
 20
-235.6270004181
 30
0.0
 11
703.5859105892
 21
-237.1270004181
 31
0.0
  0
LINE
  5
1E5
330
1F
100
AcDbEntity
  8
0
100
AcDbLine
 10
703.5859105892
 20
-237.1270004181
 30
0.0
 11
700.5859105892
 21
-237.1270004181
 31
0.0
  0
LINE
  5
1E6
330
1F
100
AcDbEntity
  8
0
100
AcDbLine
 10
700.5859105892
 20
-235.6270004181
 30
0.0
 11
703.5859105892
 21
-235.6270004181
 31
0.0
  0
LINE
  5
1E7
330
1F
100
AcDbEntity
  8
0
100
AcDbLine
 10
-58.7340894108
 20
653.9729995819
 30
0.0
 11
-60.9340894108
 21
653.9729995819
 31
0.0
  0
LINE
  5
1E8
330
1F
100
AcDbEntity
  8
0
100
AcDbLine
 10
554.1059105892
 20
653.9729995819
 30
0.0
 11
551.9059105892
 21
653.9729995819
 31
0.0
  0
LINE
  5
1E9
330
1F
100
AcDbEntity
  8
0
100
AcDbLine
 10
758.3859105892
 20
653.9729995819
 30
0.0
 11
756.1859105892
 21
653.9729995819
 31
0.0
  0
LINE
  5
1EA
330
1F
100
AcDbEntity
  8
0
100
AcDbLine
 10
-288.0140894108
 20
653.9729995819
 30
0.0
 11
-290.2140894108
 21
653.9729995819
 31
0.0
  0
LINE
  5
1EB
330
1F
100
AcDbEntity
  8
0
100
AcDbLine
 10
349.8259105892
 20
653.9729995819
 30
0.0
 11
347.6259105892
 21
653.9729995819
 31
0.0
  0
LINE
  5
1EC
330
1F
100
AcDbEntity
  8
0
100
AcDbLine
 10
783.3859105892
 20
653.9729995819
 30
0.0
 11
781.1859105892
 21
653.9729995819
 31
0.0
  0
LINE
  5
1ED
330
1F
100
AcDbEntity
  8
0
100
AcDbLine
 10
145.5459105892
 20
653.9729995819
 30
0.0
 11
143.3459105892
 21
653.9729995819
 31
0.0
  0
LINE
  5
1EE
330
1F
100
AcDbEntity
  8
0
100
AcDbLine
 10
-263.0140894108
 20
653.9729995819
 30
0.0
 11
-265.2140894108
 21
653.9729995819
 31
0.0
  0
LINE
  5
1EF
330
1F
100
AcDbEntity
  8
0
100
AcDbLine
 10
-294.9726680546
 20
647.7729995819
 30
0.0
 11
-295.1140894108
 21
647.7729995819
 31
0.0
  0
LINE
  5
1F0
330
1F
100
AcDbEntity
  8
0
100
AcDbLine
 10
-295.1140894108
 20
648.7729995819
 30
0.0
 11
-294.9726680546
 21
648.7729995819
 31
0.0
  0
LINE
  5
1F1
330
1F
100
AcDbEntity
  8
0
100
AcDbLine
 10
788.1444892329
 20
648.7729995819
 30
0.0
 11
788.2859105892
 21
648.7729995819
 31
0.0
  0
LINE
  5
1F2
330
1F
100
AcDbEntity
  8
0
100
AcDbLine
 10
788.2859105892
 20
647.7729995819
 30
0.0
 11
788.1444892329
 21
647.7729995819
 31
0.0
  0
LINE
  5
1F3
330
1F
100
AcDbEntity
  8
0
100
AcDbLine
 10
-288.3140894108
 20
-219.1270004181
 30
0.0
 11
-288.3140894108
 21
-225.1270004181
 31
0.0
  0
LINE
  5
1F4
330
1F
100
AcDbEntity
  8
0
100
AcDbLine
 10
779.0859105892
 20
-219.1270004181
 30
0.0
 11
774.4859105892
 21
-219.1270004181
 31
0.0
  0
LINE
  5
1F5
330
1F
100
AcDbEntity
  8
0
100
AcDbLine
 10
-281.7140894108
 20
-219.1270004181
 30
0.0
 11
-288.3140894108
 21
-219.1270004181
 31
0.0
  0
LINE
  5
1F6
330
1F
100
AcDbEntity
  8
0
100
AcDbLine
 10
779.0859105892
 20
-219.1270004181
 30
0.0
 11
779.0859105892
 21
-225.1270004181
 31
0.0
  0
LINE
  5
1F7
330
1F
100
AcDbEntity
  8
0
100
AcDbLine
 10
779.0859105892
 20
-225.1270004181
 30
0.0
 11
748.5859105892
 21
-225.1270004181
 31
0.0
  0
LINE
  5
1F8
330
1F
100
AcDbEntity
  8
0
100
AcDbLine
 10
747.0859105892
 20
-225.1270004181
 30
0.0
 11
723.1859105892
 21
-225.1270004181
 31
0.0
  0
LINE
  5
1F9
330
1F
100
AcDbEntity
  8
0
100
AcDbLine
 10
718.9859105892
 20
-225.1270004181
 30
0.0
 11
695.0859105892
 21
-225.1270004181
 31
0.0
  0
LINE
  5
1FA
330
1F
100
AcDbEntity
  8
0
100
AcDbLine
 10
693.5859105892
 20
-225.1270004181
 30
0.0
 11
-200.8140894108
 21
-225.1270004181
 31
0.0
  0
LINE
  5
1FB
330
1F
100
AcDbEntity
  8
0
100
AcDbLine
 10
-202.3140894108
 20
-225.1270004181
 30
0.0
 11
-226.2140894108
 21
-225.1270004181
 31
0.0
  0
LINE
  5
1FC
330
1F
100
AcDbEntity
  8
0
100
AcDbLine
 10
-230.4140894108
 20
-225.1270004181
 30
0.0
 11
-254.3140894108
 21
-225.1270004181
 31
0.0
  0
LINE
  5
1FD
330
1F
100
AcDbEntity
  8
0
100
AcDbLine
 10
-255.8140894108
 20
-225.1270004181
 30
0.0
 11
-288.3140894108
 21
-225.1270004181
 31
0.0
  0
LINE
  5
1FE
330
1F
100
AcDbEntity
  8
0
100
AcDbLine
 10
781.0859105892
 20
-219.1270004181
 30
0.0
 11
781.0859105892
 21
643.4729995819
 31
0.0
  0
LINE
  5
1FF
330
1F
100
AcDbEntity
  8
0
100
AcDbLine
 10
781.0859105892
 20
-219.1270004181
 30
0.0
 11
775.0859105892
 21
-219.1270004181
 31
0.0
  0
LINE
  5
200
330
1F
100
AcDbEntity
  8
0
100
AcDbLine
 10
775.0859105892
 20
-189.1270004181
 30
0.0
 11
775.0859105892
 21
643.4729995819
 31
0.0
  0
LINE
  5
201
330
1F
100
AcDbEntity
  8
0
100
AcDbLine
 10
-282.3140894108
 20
-219.1270004181
 30
0.0
 11
-288.3140894108
 21
-219.1270004181
 31
0.0
  0
LINE
  5
202
330
1F
100
AcDbEntity
  8
0
100
AcDbLine
 10
-288.3140894108
 20
-219.1270004181
 30
0.0
 11
-288.3140894108
 21
643.4729995819
 31
0.0
  0
LINE
  5
203
330
1F
100
AcDbEntity
  8
0
100
AcDbLine
 10
-282.3140894108
 20
-189.1270004181
 30
0.0
 11
-282.3140894108
 21
643.4729995819
 31
0.0
  0
SPLINE
  5
204
330
1F
100
AcDbEntity
  8
0
100
AcDbSpline
210
0.0
220
0.0
230
1.0
 70
     8
 71
     3
 72
    12
 73
     8
 74
     0
 42
0.00000001
 43
0.00000001
 40
0.0
 40
0.0
 40
0.0
 40
0.0
 40
0.2255407622558276
 40
0.4511342019104204
 40
0.6767278442586063
 40
0.9023212728363338
 40
0.9999999999999999
 40
0.9999999999999999
 40
0.9999999999999999
 40
0.9999999999999999
 10
-294.9726680545987
 20
650.7729995819236
 30
0.0
 10
-294.9080975448252
 20
650.9737801081645
 30
0.0
 10
-294.7789414441618
 20
651.3753880550337
 30
0.0
 10
-294.585168766207
 20
651.9035477711382
 30
0.0
 10
-294.3915035092567
 20
652.2887050778095
 30
0.0
 10
-294.2340672640921
 20
652.4556597347936
 30
0.0
 10
-294.1419294379502
 20
652.4689759908928
 30
0.0
 10
-294.114089410836
 20
652.4729995819238
 30
0.0
  0
LINE
  5
205
330
1F
100
AcDbEntity
  8
0
100
AcDbLine
 10
-294.1140894108
 20
652.4729995819
 30
0.0
 11
787.2859105892
 21
652.4729995819
 31
0.0
  0
SPLINE
  5
206
330
1F
100
AcDbEntity
  8
0
100
AcDbSpline
210
0.0
220
0.0
230
1.0
 70
     8
 71
     3
 72
    12
 73
     8
 74
     0
 42
0.00000001
 43
0.00000001
 40
0.0
 40
0.0
 40
0.0
 40
0.0
 40
0.2255407622559016
 40
0.4511342019105395
 40
0.6767278442587116
 40
0.9023212728363911
 40
1.0
 40
1.0
 40
1.0
 40
1.0
 10
787.2859105891641
 20
652.4729995819239
 30
0.0
 10
787.3504810989377
 20
652.4522418404647
 30
0.0
 10
787.4796371996008
 20
652.4107215093591
 30
0.0
 10
787.6734098775559
 20
652.0880854775553
 30
0.0
 10
787.8670751345059
 20
651.6174627171866
 30
0.0
 10
788.0245113796705
 20
651.1461056208091
 30
0.0
 10
788.1166492058125
 20
650.8595762455095
 30
0.0
 10
788.1444892329267
 20
650.7729995819238
 30
0.0
  0
LINE
  5
207
330
1F
100
AcDbEntity
  8
0
100
AcDbLine
 10
788.1444892329
 20
650.7729995819
 30
0.0
 11
788.1444892329
 21
643.4729995819
 31
0.0
  0
LINE
  5
208
330
1F
100
AcDbEntity
  8
0
100
AcDbLine
 10
788.1444892329
 20
643.4729995819
 30
0.0
 11
-294.9726680546
 21
643.4729995819
 31
0.0
  0
LINE
  5
209
330
1F
100
AcDbEntity
  8
0
100
AcDbLine
 10
-294.9726680546
 20
643.4729995819
 30
0.0
 11
-294.9726680546
 21
650.7729995819
 31
0.0
  0
LINE
  5
20A
330
1F
100
AcDbEntity
  8
0
100
AcDbLine
 10
788.2859105892
 20
650.7729995819
 30
0.0
 11
788.9859105892
 21
650.7729995819
 31
0.0
  0
SPLINE
  5
20B
330
1F
100
AcDbEntity
  8
0
100
AcDbSpline
210
0.0
220
0.0
230
1.0
 70
     8
 71
     3
 72
    10
 73
     6
 74
     0
 42
0.00000001
 43
0.00000001
 40
0.0
 40
0.0
 40
0.0
 40
0.0
 40
0.3460734631001448
 40
0.7655709923071865
 40
1.0
 40
1.0
 40
1.0
 40
1.0
 10
788.2859105891639
 20
650.7729995819241
 30
0.0
 10
788.2754611153368
 20
650.8778023669065
 30
0.0
 10
788.2523451734924
 20
651.1096432349605
 30
0.0
 10
788.1042445436243
 20
651.3946656395219
 30
0.0
 10
787.9414794426992
 20
651.5106794455477
 30
0.0
 10
787.8831290639584
 20
651.5522697464311
 30
0.0
  0
SPLINE
  5
20C
330
1F
100
AcDbEntity
  8
0
100
AcDbSpline
210
0.0
220
0.0
230
1.0
 70
     8
 71
     3
 72
    12
 73
     8
 74
     0
 42
0.00000001
 43
0.00000001
 40
0.0
 40
0.0
 40
0.0
 40
0.0
 40
0.22554076225589
 40
0.4511342019104337
 40
0.6767278442587581
 40
0.9023212728363121
 40
1.0
 40
1.0
 40
1.0
 40
1.0
 10
788.985910589164
 20
650.7729995819241
 30
0.0
 10
788.9651528477044
 20
650.9737801081649
 30
0.0
 10
788.9236325165986
 20
651.3753880550338
 30
0.0
 10
788.6009964847956
 20
651.9035477711387
 30
0.0
 10
788.1303737244267
 20
652.2887050778095
 30
0.0
 10
787.6590166280491
 20
652.4556597347938
 30
0.0
 10
787.3724872527498
 20
652.468975990893
 30
0.0
 10
787.2859105891641
 20
652.4729995819239
 30
0.0
  0
SPLINE
  5
20D
330
1F
100
AcDbEntity
  8
0
100
AcDbSpline
210
0.0
220
0.0
230
1.0
 70
     8
 71
     3
 72
    12
 73
     8
 74
     0
 42
0.00000001
 43
0.00000001
 40
0.0
 40
0.0
 40
0.0
 40
0.0
 40
0.225540762255856
 40
0.4511342019104621
 40
0.6767278442586558
 40
0.9023212728363891
 40
1.0
 40
1.0
 40
1.0
 40
1.0
 10
-294.114089410836
 20
652.4729995819238
 30
0.0
 10
-294.3148699370769
 20
652.4522418404645
 30
0.0
 10
-294.7164778839461
 20
652.4107215093588
 30
0.0
 10
-295.2446376000504
 20
652.0880854775551
 30
0.0
 10
-295.6297949067219
 20
651.6174627171866
 30
0.0
 10
-295.7967495637058
 20
651.1461056208088
 30
0.0
 10
-295.8100658198052
 20
650.8595762455093
 30
0.0
 10
-295.814089410836
 20
650.7729995819236
 30
0.0
  0
SPLINE
  5
20E
330
1F
100
AcDbEntity
  8
0
100
AcDbSpline
210
0.0
220
0.0
230
1.0
 70
     8
 71
     3
 72
    11
 73
     7
 74
     0
 42
0.00000001
 43
0.00000001
 40
0.0
 40
0.0
 40
0.0
 40
0.0
 40
0.0712594150275112
 40
0.482266399726468
 40
0.8932733497183547
 40
1.0
 40
1.0
 40
1.0
 40
1.0
 10
-294.7016471856527
 20
651.5691268031292
 30
0.0
 10
-294.7212781454015
 20
651.5588084304377
 30
0.0
 10
-294.8541357092413
 20
651.4889761921714
 30
0.0
 10
-295.0157890125824
 20
651.2430484236476
 30
0.0
 10
-295.1083239445438
 20
650.9673343586508
 30
0.0
 10
-295.1131040336177
 20
650.8062133849397
 30
0.0
 10
-295.114089410836
 20
650.7729995819236
 30
0.0
  0
LINE
  5
20F
330
1F
100
AcDbEntity
  8
0
100
AcDbLine
 10
-295.1140894108
 20
650.7729995819
 30
0.0
 11
-295.8140894108
 21
650.7729995819
 31
0.0
  0
LINE
  5
210
330
1F
100
AcDbEntity
  8
0
100
AcDbLine
 10
788.2859105892
 20
643.4729995819
 30
0.0
 11
788.2859105892
 21
650.7729995819
 31
0.0
  0
LINE
  5
211
330
1F
100
AcDbEntity
  8
0
100
AcDbLine
 10
788.9859105892
 20
643.4729995819
 30
0.0
 11
788.9859105892
 21
650.7729995819
 31
0.0
  0
LINE
  5
212
330
1F
100
AcDbEntity
  8
0
100
AcDbLine
 10
788.9859105892
 20
643.4729995819
 30
0.0
 11
788.2859105892
 21
643.4729995819
 31
0.0
  0
LINE
  5
213
330
1F
100
AcDbEntity
  8
0
100
AcDbLine
 10
-295.8140894108
 20
643.4729995819
 30
0.0
 11
-295.1140894108
 21
643.4729995819
 31
0.0
  0
LINE
  5
214
330
1F
100
AcDbEntity
  8
0
100
AcDbLine
 10
-295.8140894108
 20
650.7729995819
 30
0.0
 11
-295.8140894108
 21
643.4729995819
 31
0.0
  0
LINE
  5
215
330
1F
100
AcDbEntity
  8
0
100
AcDbLine
 10
-295.1140894108
 20
650.7729995819
 30
0.0
 11
-295.1140894108
 21
643.4729995819
 31
0.0
  0
LINE
  5
216
330
1F
100
AcDbEntity
  8
0
100
AcDbLine
 10
-322.7140894108
 20
-219.0646244245
 30
0.0
 11
-322.7140894108
 21
-219.1270004181
 31
0.0
  0
LINE
  5
217
330
1F
100
AcDbEntity
  8
0
100
AcDbLine
 10
-322.7140894108
 20
-203.1270004181
 30
0.0
 11
-322.7140894108
 21
-219.0646244245
 31
0.0
  0
SPLINE
  5
218
330
1F
100
AcDbEntity
  8
0
100
AcDbSpline
210
0.0
220
0.0
230
1.0
 70
     8
 71
     3
 72
     9
 73
     5
 74
     0
 42
0.00000001
 43
0.00000001
 40
0.0
 40
0.0
 40
0.0
 40
0.0
 40
0.6406834121125667
 40
1.0
 40
1.0
 40
1.0
 40
1.0
 10
775.4859105891617
 20
-217.3270004180774
 30
0.0
 10
775.4669307382854
 20
-217.5043528736362
 30
0.0
 10
775.4373063551383
 20
-217.7811704908962
 30
0.0
 10
775.2320468391763
 20
-217.9587979637063
 30
0.0
 10
775.1582936902696
 20
-218.0226224611515
 30
0.0
  0
LINE
  5
219
330
1F
100
AcDbEntity
  8
0
100
AcDbLine
 10
776.2859105892
 20
-217.3270004181
 30
0.0
 11
775.4859105892
 21
-217.3270004181
 31
0.0
  0
SPLINE
  5
21A
330
1F
100
AcDbEntity
  8
0
100
AcDbSpline
210
0.0
220
0.0
230
1.0
 70
     8
 71
     3
 72
    11
 73
     7
 74
     0
 42
0.00000001
 43
0.00000001
 40
0.0
 40
0.0
 40
0.0
 40
0.0
 40
0.245033451571099
 40
0.4998973412928
 40
0.7547871358978896
 40
1.0
 40
1.0
 40
1.0
 40
1.0
 10
776.2859105891619
 20
-217.3270004180771
 30
0.0
 10
776.2598855474123
 20
-217.5581209172077
 30
0.0
 10
776.2067913715188
 20
-218.0296341832247
 30
0.0
 10
775.7899772141209
 20
-218.6306750950173
 30
0.0
 10
775.1889121410329
 20
-219.0477827228563
 30
0.0
 10
774.7172019264907
 20
-219.100937365131
 30
0.0
 10
774.4859105891617
 20
-219.1270004180774
 30
0.0
  0
SPLINE
  5
21B
330
1F
100
AcDbEntity
  8
0
100
AcDbSpline
210
0.0
220
0.0
230
1.0
 70
     8
 71
     3
 72
    11
 73
     7
 74
     0
 42
0.00000001
 43
0.00000001
 40
0.0
 40
0.0
 40
0.0
 40
0.0
 40
0.2475522032093611
 40
0.5024226380967678
 40
0.7573126004817288
 40
1.0
 40
1.0
 40
1.0
 40
1.0
 10
-281.7140894108384
 20
-219.1270004180781
 30
0.0
 10
-281.9476090655871
 20
-219.1004401193061
 30
0.0
 10
-282.421551771268
 20
-219.0465343361837
 30
0.0
 10
-283.0229967335825
 20
-218.6258168479347
 30
0.0
 10
-283.4362106099874
 20
-218.025167291624
 30
0.0
 10
-283.4885577299573
 20
-217.5558865028963
 30
0.0
 10
-283.5140894108384
 20
-217.3270004180783
 30
0.0
  0
LINE
  5
21C
330
1F
100
AcDbEntity
  8
0
100
AcDbLine
 10
-282.7140894108
 20
-217.3270004181
 30
0.0
 11
-283.5140894108
 21
-217.3270004181
 31
0.0
  0
SPLINE
  5
21D
330
1F
100
AcDbEntity
  8
0
100
AcDbSpline
210
0.0
220
0.0
230
1.0
 70
     8
 71
     3
 72
     9
 73
     5
 74
     0
 42
0.00000001
 43
0.00000001
 40
0.0
 40
0.0
 40
0.0
 40
0.0
 40
0.3238099317712176
 40
1.0
 40
1.0
 40
1.0
 40
1.0
 10
-282.3868717207944
 20
-218.0215863597797
 30
0.0
 10
-282.4544081676218
 20
-217.9656650788444
 30
0.0
 10
-282.6629763435824
 20
-217.7929672229465
 30
0.0
 10
-282.693469942265
 20
-217.5149755955644
 30
0.0
 10
-282.7140894108388
 20
-217.327000418078
 30
0.0
  0
LINE
  5
21E
330
1F
100
AcDbEntity
  8
0
100
AcDbLine
 10
-282.6140894108
 20
-217.3270004181
 30
0.0
 11
-282.6140894108
 21
-189.1270004181
 31
0.0
  0
LINE
  5
21F
330
1F
100
AcDbEntity
  8
0
100
AcDbLine
 10
775.3859105892
 20
-189.1270004181
 30
0.0
 11
739.5859105892
 21
-189.1270004181
 31
0.0
  0
LINE
  5
220
330
1F
100
AcDbEntity
  8
0
100
AcDbLine
 10
729.5859105892
 20
-189.1270004181
 30
0.0
 11
-236.8140894108
 21
-189.1270004181
 31
0.0
  0
LINE
  5
221
330
1F
100
AcDbEntity
  8
0
100
AcDbLine
 10
-246.8140894108
 20
-189.1270004181
 30
0.0
 11
-282.6140894108
 21
-189.1270004181
 31
0.0
  0
LINE
  5
222
330
1F
100
AcDbEntity
  8
0
100
AcDbLine
 10
775.3859105892
 20
-217.3270004181
 30
0.0
 11
775.3859105892
 21
-189.1270004181
 31
0.0
  0
SPLINE
  5
223
330
1F
100
AcDbEntity
  8
0
100
AcDbSpline
210
0.0
220
0.0
230
1.0
 70
     8
 71
     3
 72
    11
 73
     7
 74
     0
 42
0.00000001
 43
0.00000001
 40
0.0
 40
0.0
 40
0.0
 40
0.0
 40
0.249999999999945
 40
0.4999999999999735
 40
0.7499999999999621
 40
1.0
 40
1.0
 40
1.0
 40
1.0
 10
-282.6140894108377
 20
-217.3270004180776
 30
0.0
 10
-282.5390894108377
 20
-217.5628670969288
 30
0.0
 10
-282.389089410838
 20
-218.0346004546313
 30
0.0
 10
-282.164089410838
 20
-218.6295813414057
 30
0.0
 10
-281.939089410838
 20
-219.0458299250258
 30
0.0
 10
-281.7890894108384
 20
-219.0999435870603
 30
0.0
 10
-281.7140894108387
 20
-219.1270004180775
 30
0.0
  0
SPLINE
  5
224
330
1F
100
AcDbEntity
  8
0
100
AcDbSpline
210
0.0
220
0.0
230
1.0
 70
     8
 71
     3
 72
    11
 73
     7
 74
     0
 42
0.00000001
 43
0.00000001
 40
0.0
 40
0.0
 40
0.0
 40
0.0
 40
0.2500000000000767
 40
0.5000000000000485
 40
0.7500000000000552
 40
1.0
 40
1.0
 40
1.0
 40
1.0
 10
774.4859105891617
 20
-219.1270004180774
 30
0.0
 10
774.5609105891618
 20
-219.0999435870604
 30
0.0
 10
774.7109105891616
 20
-219.0458299250257
 30
0.0
 10
774.9359105891617
 20
-218.6295813414054
 30
0.0
 10
775.1609105891619
 20
-218.0346004546311
 30
0.0
 10
775.3109105891616
 20
-217.5628670969284
 30
0.0
 10
775.3859105891617
 20
-217.3270004180773
 30
0.0
  0
LINE
  5
225
330
1F
100
AcDbEntity
  8
0
100
AcDbLine
 10
-281.7140894108
 20
-219.1270004181
 30
0.0
 11
-245.919845498
 21
-219.1270004181
 31
0.0
  0
LINE
  5
226
330
1F
100
AcDbEntity
  8
0
100
AcDbLine
 10
-236.8140894108
 20
-219.1270004181
 30
0.0
 11
-229.4140894108
 21
-219.1270004181
 31
0.0
  0
LINE
  5
227
330
1F
100
AcDbEntity
  8
0
100
AcDbLine
 10
-227.2140894108
 20
-219.1270004181
 30
0.0
 11
719.9859105892
 21
-219.1270004181
 31
0.0
  0
LINE
  5
228
330
1F
100
AcDbEntity
  8
0
100
AcDbLine
 10
722.1859105892
 20
-219.1270004181
 30
0.0
 11
729.5859105892
 21
-219.1270004181
 31
0.0
  0
LINE
  5
229
330
1F
100
AcDbEntity
  8
0
100
AcDbLine
 10
738.6916666763
 20
-219.1270004181
 30
0.0
 11
774.4859105892
 21
-219.1270004181
 31
0.0
  0
LINE
  5
22A
330
1F
100
AcDbEntity
  8
0
100
AcDbLine
 10
776.2859105892
 20
-189.1270004181
 30
0.0
 11
775.4859105892
 21
-189.1270004181
 31
0.0
  0
LINE
  5
22B
330
1F
100
AcDbEntity
  8
0
100
AcDbLine
 10
776.2859105892
 20
-217.3270004181
 30
0.0
 11
776.2859105892
 21
-189.1270004181
 31
0.0
  0
LINE
  5
22C
330
1F
100
AcDbEntity
  8
0
100
AcDbLine
 10
775.4859105892
 20
-217.3270004181
 30
0.0
 11
775.4859105892
 21
-189.1270004181
 31
0.0
  0
LINE
  5
22D
330
1F
100
AcDbEntity
  8
0
100
AcDbLine
 10
-283.5140894108
 20
-217.3270004181
 30
0.0
 11
-283.5140894108
 21
-189.1270004181
 31
0.0
  0
LINE
  5
22E
330
1F
100
AcDbEntity
  8
0
100
AcDbLine
 10
-283.5140894108
 20
-189.1270004181
 30
0.0
 11
-282.7140894108
 21
-189.1270004181
 31
0.0
  0
LINE
  5
22F
330
1F
100
AcDbEntity
  8
0
100
AcDbLine
 10
-282.7140894108
 20
-217.3270004181
 30
0.0
 11
-282.7140894108
 21
-189.1270004181
 31
0.0
  0
CIRCLE
  5
230
330
1F
100
AcDbEntity
  8
0
100
AcDbCircle
 10
-256.5726680546
 20
-194.1270004181
 30
0.0
 40
3.900000000000031
  0
CIRCLE
  5
231
330
1F
100
AcDbEntity
  8
0
100
AcDbCircle
 10
-256.5726680546
 20
-194.1270004181
 30
0.0
 40
1.099999999999997
  0
CIRCLE
  5
232
330
1F
100
AcDbEntity
  8
0
100
AcDbCircle
 10
-228.3140894108
 20
-149.6270004181
 30
0.0
 40
3.900000000000034
  0
CIRCLE
  5
233
330
1F
100
AcDbEntity
  8
0
100
AcDbCircle
 10
-228.3140894108
 20
-149.6270004181
 30
0.0
 40
1.099999999999994
  0
CIRCLE
  5
234
330
1F
100
AcDbEntity
  8
0
100
AcDbCircle
 10
721.0859105892
 20
-169.6270004181
 30
0.0
 40
3.900000000000034
  0
CIRCLE
  5
235
330
1F
100
AcDbEntity
  8
0
100
AcDbCircle
 10
721.0859105892
 20
-169.6270004181
 30
0.0
 40
1.099999999999994
  0
CIRCLE
  5
236
330
1F
100
AcDbEntity
  8
0
100
AcDbCircle
 10
-228.3140894108
 20
-169.6270004181
 30
0.0
 40
3.900000000000034
  0
CIRCLE
  5
237
330
1F
100
AcDbEntity
  8
0
100
AcDbCircle
 10
-228.3140894108
 20
-169.6270004181
 30
0.0
 40
1.099999999999994
  0
CIRCLE
  5
238
330
1F
100
AcDbEntity
  8
0
100
AcDbCircle
 10
721.0859105892
 20
-149.6270004181
 30
0.0
 40
3.900000000000006
  0
CIRCLE
  5
239
330
1F
100
AcDbEntity
  8
0
100
AcDbCircle
 10
721.0859105892
 20
-149.6270004181
 30
0.0
 40
1.099999999999994
  0
CIRCLE
  5
23A
330
1F
100
AcDbEntity
  8
0
100
AcDbCircle
 10
530.0092303286
 20
379.4729995819
 30
0.0
 40
3.899999999999991
  0
CIRCLE
  5
23B
330
1F
100
AcDbEntity
  8
0
100
AcDbCircle
 10
530.0092303286
 20
379.4729995819
 30
0.0
 40
1.100000000000019
  0
CIRCLE
  5
23C
330
1F
100
AcDbEntity
  8
0
100
AcDbCircle
 10
246.3859105982
 20
543.2229995821
 30
0.0
 40
3.899999999999924
  0
CIRCLE
  5
23D
330
1F
100
AcDbEntity
  8
0
100
AcDbCircle
 10
246.3859105982
 20
543.2229995821
 30
0.0
 40
1.099999999999954
  0
CIRCLE
  5
23E
330
1F
100
AcDbEntity
  8
0
100
AcDbCircle
 10
410.1359105915
 20
499.3463193201
 30
0.0
 40
3.899999999999985
  0
CIRCLE
  5
23F
330
1F
100
AcDbEntity
  8
0
100
AcDbCircle
 10
410.1359105915
 20
499.3463193201
 30
0.0
 40
1.099999999999974
  0
CIRCLE
  5
240
330
1F
100
AcDbEntity
  8
0
100
AcDbCircle
 10
82.6359106043
 20
499.3463193303
 30
0.0
 40
3.900000000000016
  0
CIRCLE
  5
241
330
1F
100
AcDbEntity
  8
0
100
AcDbCircle
 10
82.6359106043
 20
499.3463193303
 30
0.0
 40
1.099999999999994
  0
CIRCLE
  5
242
330
1F
100
AcDbEntity
  8
0
100
AcDbCircle
 10
-37.2374091373
 20
379.4729996048
 30
0.0
 40
3.899999999999977
  0
CIRCLE
  5
243
330
1F
100
AcDbEntity
  8
0
100
AcDbCircle
 10
-37.2374091373
 20
379.4729996048
 30
0.0
 40
1.100000000000003
  0
CIRCLE
  5
244
330
1F
100
AcDbEntity
  8
0
100
AcDbCircle
 10
548.1610577754
 20
-194.1270004181
 30
0.0
 40
3.899999999999993
  0
CIRCLE
  5
245
330
1F
100
AcDbEntity
  8
0
100
AcDbCircle
 10
548.1610577754
 20
-194.1270004181
 30
0.0
 40
1.099999999999981
  0
CIRCLE
  5
246
330
1F
100
AcDbEntity
  8
0
100
AcDbCircle
 10
749.3444892329
 20
-194.1270004181
 30
0.0
 40
3.900000000000045
  0
CIRCLE
  5
247
330
1F
100
AcDbEntity
  8
0
100
AcDbCircle
 10
749.3444892329
 20
-194.1270004181
 30
0.0
 40
1.100000000000006
  0
CIRCLE
  5
248
330
1F
100
AcDbEntity
  8
0
100
AcDbCircle
 10
-81.114089411
 20
215.7229996145
 30
0.0
 40
3.899999999999999
  0
CIRCLE
  5
249
330
1F
100
AcDbEntity
  8
0
100
AcDbCircle
 10
-81.114089411
 20
215.7229996145
 30
0.0
 40
1.100000000000011
  0
CIRCLE
  5
24A
330
1F
100
AcDbEntity
  8
0
100
AcDbCircle
 10
346.9776263179
 20
-194.1270004181
 30
0.0
 40
3.899999999999965
  0
CIRCLE
  5
24B
330
1F
100
AcDbEntity
  8
0
100
AcDbCircle
 10
346.9776263179
 20
-194.1270004181
 30
0.0
 40
1.099999999999981
  0
CIRCLE
  5
24C
330
1F
100
AcDbEntity
  8
0
100
AcDbCircle
 10
82.6359105611
 20
-67.9003201411
 30
0.0
 40
3.900000000000048
  0
CIRCLE
  5
24D
330
1F
100
AcDbEntity
  8
0
100
AcDbCircle
 10
82.6359105611
 20
-67.9003201411
 30
0.0
 40
1.099999999999958
  0
CIRCLE
  5
24E
330
1F
100
AcDbEntity
  8
0
100
AcDbCircle
 10
246.3859105631
 20
-111.7770004179
 30
0.0
 40
3.899999999999949
  0
CIRCLE
  5
24F
330
1F
100
AcDbEntity
  8
0
100
AcDbCircle
 10
246.3859105631
 20
-111.7770004179
 30
0.0
 40
1.099999999999985
  0
CIRCLE
  5
250
330
1F
100
AcDbEntity
  8
0
100
AcDbCircle
 10
-37.2374091677
 20
51.9729996121
 30
0.0
 40
3.900000000000015
  0
CIRCLE
  5
251
330
1F
100
AcDbEntity
  8
0
100
AcDbCircle
 10
-37.2374091677
 20
51.9729996121
 30
0.0
 40
1.099999999999979
  0
CIRCLE
  5
252
330
1F
100
AcDbEntity
  8
0
100
AcDbCircle
 10
410.135910574
 20
-67.900320166
 30
0.0
 40
3.899999999999987
  0
CIRCLE
  5
253
330
1F
100
AcDbEntity
  8
0
100
AcDbCircle
 10
410.135910574
 20
-67.900320166
 30
0.0
 40
1.100000000000073
  0
CIRCLE
  5
254
330
1F
100
AcDbEntity
  8
0
100
AcDbCircle
 10
145.7941948604
 20
-194.1270004181
 30
0.0
 40
3.899999999999983
  0
CIRCLE
  5
255
330
1F
100
AcDbEntity
  8
0
100
AcDbCircle
 10
145.7941948604
 20
-194.1270004181
 30
0.0
 40
1.099999999999986
  0
CIRCLE
  5
256
330
1F
100
AcDbEntity
  8
0
100
AcDbCircle
 10
530.009230324
 20
51.9729995744
 30
0.0
 40
3.900000000000016
  0
CIRCLE
  5
257
330
1F
100
AcDbEntity
  8
0
100
AcDbCircle
 10
530.009230324
 20
51.9729995744
 30
0.0
 40
1.099999999999934
  0
CIRCLE
  5
258
330
1F
100
AcDbEntity
  8
0
100
AcDbCircle
 10
573.885910589
 20
215.7229995795
 30
0.0
 40
3.899999999999924
  0
CIRCLE
  5
259
330
1F
100
AcDbEntity
  8
0
100
AcDbCircle
 10
573.885910589
 20
215.7229995795
 30
0.0
 40
1.100000000000005
  0
CIRCLE
  5
25A
330
1F
100
AcDbEntity
  8
0
100
AcDbCircle
 10
-55.3892365971
 20
-194.1270004181
 30
0.0
 40
3.899999999999984
  0
CIRCLE
  5
25B
330
1F
100
AcDbEntity
  8
0
100
AcDbCircle
 10
-55.3892365971
 20
-194.1270004181
 30
0.0
 40
1.100000000000007
  0
CIRCLE
  5
25C
330
1F
100
AcDbEntity
  8
0
100
AcDbCircle
 10
246.3859105892
 20
215.7229995819
 30
0.0
 40
310.7000000000029
  0
CIRCLE
  5
25D
330
1F
100
AcDbEntity
  8
0
100
AcDbCircle
 10
246.3859105892
 20
215.7229995819
 30
0.0
 40
315.0000000000001
  0
CIRCLE
  5
25E
330
1F
100
AcDbEntity
  8
0
100
AcDbCircle
 10
246.3859105892
 20
215.7229995819
 30
0.0
 40
310.6992451863355
  0
LINE
  5
25F
330
1F
100
AcDbEntity
  8
0
100
AcDbLine
 10
-344.3140894109
 20
-145.8877352808
 30
0.0
 11
-344.3140894109
 21
-164.4694771791
 31
0.0
  0
LINE
  5
260
330
1F
100
AcDbEntity
  8
0
100
AcDbLine
 10
-344.3140894109
 20
-106.1694771791
 30
0.0
 11
-344.3140894109
 21
-145.8877352808
 31
0.0
  0
LINE
  5
261
330
1F
100
AcDbEntity
  8
0
100
AcDbLine
 10
-344.3140894109
 20
596.2378711225
 30
0.0
 11
-344.3140894109
 21
540.5257995819
 31
0.0
  0
LINE
  5
262
330
1F
100
AcDbEntity
  8
0
100
AcDbLine
 10
-344.3140894109
 20
598.8257995819
 30
0.0
 11
-344.3140894109
 21
596.2378711225
 31
0.0
  0
LINE
  5
263
330
1F
100
AcDbEntity
  8
0
100
AcDbLine
 10
-334.3140894109
 20
-103.6694771791
 30
0.0
 11
-334.3140894109
 21
-166.9694771791
 31
0.0
  0
LINE
  5
264
330
1F
100
AcDbEntity
  8
0
100
AcDbLine
 10
-334.7140894109
 20
-103.6694771791
 30
0.0
 11
-334.7140894109
 21
-166.9694771791
 31
0.0
  0
LINE
  5
265
330
1F
100
AcDbEntity
  8
0
100
AcDbLine
 10
-334.7140894109
 20
601.3257995819
 30
0.0
 11
-334.7140894109
 21
538.0257995819
 31
0.0
  0
LINE
  5
266
330
1F
100
AcDbEntity
  8
0
100
AcDbLine
 10
-334.3140894109
 20
601.3257995819
 30
0.0
 11
-334.3140894109
 21
538.0257995819
 31
0.0
  0
LINE
  5
267
330
1F
100
AcDbEntity
  8
0
100
AcDbLine
 10
-318.2140894109
 20
-172.8472446764
 30
0.0
 11
-307.2140894109
 21
-172.8472446764
 31
0.0
  0
LINE
  5
268
330
1F
100
AcDbEntity
  8
0
100
AcDbLine
 10
-318.2140894109
 20
-154.0833609278
 30
0.0
 11
-307.2140894109
 21
-154.0833609278
 31
0.0
  0
LINE
  5
269
330
1F
100
AcDbEntity
  8
0
100
AcDbLine
 10
-307.2140894109
 20
-172.8472446764
 30
0.0
 11
-307.2140894109
 21
-154.0833609278
 31
0.0
  0
LINE
  5
26A
330
1F
100
AcDbEntity
  8
0
100
AcDbLine
 10
-318.2140894109
 20
-172.8472446764
 30
0.0
 11
-318.2140894109
 21
-154.0833609278
 31
0.0
  0
LINE
  5
26B
330
1F
100
AcDbEntity
  8
0
100
AcDbLine
 10
-318.2140894109
 20
-116.5555934304
 30
0.0
 11
-307.2140894109
 21
-116.5555934304
 31
0.0
  0
LINE
  5
26C
330
1F
100
AcDbEntity
  8
0
100
AcDbLine
 10
-307.2140894109
 20
-154.0833609278
 30
0.0
 11
-307.2140894109
 21
-116.5555934304
 31
0.0
  0
LINE
  5
26D
330
1F
100
AcDbEntity
  8
0
100
AcDbLine
 10
-318.2140894109
 20
-154.0833609278
 30
0.0
 11
-318.2140894109
 21
-116.5555934304
 31
0.0
  0
LINE
  5
26E
330
1F
100
AcDbEntity
  8
0
100
AcDbLine
 10
-318.2140894109
 20
-97.7917096818
 30
0.0
 11
-307.2140894109
 21
-97.7917096818
 31
0.0
  0
LINE
  5
26F
330
1F
100
AcDbEntity
  8
0
100
AcDbLine
 10
-307.2140894109
 20
-116.5555934304
 30
0.0
 11
-307.2140894109
 21
-97.7917096818
 31
0.0
  0
LINE
  5
270
330
1F
100
AcDbEntity
  8
0
100
AcDbLine
 10
-318.2140894109
 20
-116.5555934304
 30
0.0
 11
-318.2140894109
 21
-97.7917096818
 31
0.0
  0
LINE
  5
271
330
1F
100
AcDbEntity
  8
0
100
AcDbLine
 10
-318.2140894109
 20
532.1480320846
 30
0.0
 11
-307.2140894109
 21
532.1480320846
 31
0.0
  0
LINE
  5
272
330
1F
100
AcDbEntity
  8
0
100
AcDbLine
 10
-318.2140894109
 20
532.1480320846
 30
0.0
 11
-318.2140894109
 21
550.9119158333
 31
0.0
  0
LINE
  5
273
330
1F
100
AcDbEntity
  8
0
100
AcDbLine
 10
-318.2140894109
 20
550.9119158333
 30
0.0
 11
-307.2140894109
 21
550.9119158333
 31
0.0
  0
LINE
  5
274
330
1F
100
AcDbEntity
  8
0
100
AcDbLine
 10
-307.2140894109
 20
532.1480320846
 30
0.0
 11
-307.2140894109
 21
550.9119158333
 31
0.0
  0
LINE
  5
275
330
1F
100
AcDbEntity
  8
0
100
AcDbLine
 10
-318.2140894109
 20
550.9119158333
 30
0.0
 11
-318.2140894109
 21
588.4396833306
 31
0.0
  0
LINE
  5
276
330
1F
100
AcDbEntity
  8
0
100
AcDbLine
 10
-318.2140894109
 20
588.4396833306
 30
0.0
 11
-307.2140894109
 21
588.4396833306
 31
0.0
  0
LINE
  5
277
330
1F
100
AcDbEntity
  8
0
100
AcDbLine
 10
-307.2140894109
 20
550.9119158333
 30
0.0
 11
-307.2140894109
 21
588.4396833306
 31
0.0
  0
LINE
  5
278
330
1F
100
AcDbEntity
  8
0
100
AcDbLine
 10
-318.2140894109
 20
607.2035670793
 30
0.0
 11
-307.2140894109
 21
607.2035670793
 31
0.0
  0
LINE
  5
279
330
1F
100
AcDbEntity
  8
0
100
AcDbLine
 10
-318.2140894109
 20
588.4396833306
 30
0.0
 11
-318.2140894109
 21
607.2035670793
 31
0.0
  0
LINE
  5
27A
330
1F
100
AcDbEntity
  8
0
100
AcDbLine
 10
-307.2140894109
 20
588.4396833306
 30
0.0
 11
-307.2140894109
 21
607.2035670793
 31
0.0
  0
LINE
  5
27B
330
1F
100
AcDbEntity
  8
0
100
AcDbLine
 10
-322.7140894108
 20
-691.7559130413
 30
0.0
 11
-295.8140894108
 21
-691.7559130413
 31
0.0
  0
LINE
  5
27C
330
1F
100
AcDbEntity
  8
0
100
AcDbLine
 10
-295.8140894108
 20
-675.7559130413
 30
0.0
 11
-322.7140894108
 21
-675.7559130413
 31
0.0
  0
ARC
  5
27D
330
1F
100
AcDbEntity
  8
0
100
AcDbCircle
 10
-75.5140894108
 20
-421.0352019445
 30
0.0
 40
0.5000000000000568
100
AcDbArc
 50
94.9871394293
 51
270.0
  0
ARC
  5
27E
330
1F
100
AcDbEntity
  8
0
100
AcDbCircle
 10
568.2859105892
 20
-421.0352019445
 30
0.0
 40
0.5000000000000221
100
AcDbArc
 50
270.0
 51
85.0128605707
  0
ARC
  5
27F
330
1F
100
AcDbEntity
  8
0
100
AcDbCircle
 10
-75.5140894108
 20
-425.2352019445
 30
0.0
 40
0.5000000000000282
100
AcDbArc
 50
94.9871394293
 51
270.0
  0
ARC
  5
280
330
1F
100
AcDbEntity
  8
0
100
AcDbCircle
 10
568.2859105892
 20
-425.2352019445
 30
0.0
 40
0.5000000000000568
100
AcDbArc
 50
270.0
 51
85.0128605707
  0
LINE
  5
281
330
1F
100
AcDbEntity
  8
0
100
AcDbLine
 10
568.3293766569
 20
-420.5370948266
 30
0.0
 11
560.5141775553
 21
-419.8551210885
 31
0.0
  0
LINE
  5
282
330
1F
100
AcDbEntity
  8
0
100
AcDbLine
 10
-67.742356377
 20
-419.8551210885
 30
0.0
 11
-75.5575554785
 21
-420.5370948266
 31
0.0
  0
LINE
  5
283
330
1F
100
AcDbEntity
  8
0
100
AcDbLine
 10
568.3293766569
 20
-424.7370948266
 30
0.0
 11
560.5141775553
 21
-424.0551210885
 31
0.0
  0
LINE
  5
284
330
1F
100
AcDbEntity
  8
0
100
AcDbLine
 10
-67.742356377
 20
-424.0551210885
 30
0.0
 11
-75.5575554785
 21
-424.7370948266
 31
0.0
  0
ARC
  5
285
330
1F
100
AcDbEntity
  8
0
100
AcDbCircle
 10
-67.7640894108
 20
-419.6060675295
 30
0.0
 40
0.2500000000000284
100
AcDbArc
 50
274.9871394293
 51
0.0
  0
ARC
  5
286
330
1F
100
AcDbEntity
  8
0
100
AcDbCircle
 10
560.5359105892
 20
-419.6060675295
 30
0.0
 40
0.25
100
AcDbArc
 50
180.0
 51
265.0128605707
  0
ARC
  5
287
330
1F
100
AcDbEntity
  8
0
100
AcDbCircle
 10
-67.7640894108
 20
-423.8060675295
 30
0.0
 40
0.2500000000000284
100
AcDbArc
 50
274.9871394293
 51
0.0
  0
ARC
  5
288
330
1F
100
AcDbEntity
  8
0
100
AcDbCircle
 10
560.5359105892
 20
-423.8060675295
 30
0.0
 40
0.2500000000000542
100
AcDbArc
 50
180.0
 51
265.0128605707
  0
LINE
  5
289
330
1F
100
AcDbEntity
  8
0
100
AcDbLine
 10
-67.5140894108
 20
-418.5352023676
 30
0.0
 11
-67.5140894108
 21
-419.6060675295
 31
0.0
  0
LINE
  5
28A
330
1F
100
AcDbEntity
  8
0
100
AcDbLine
 10
560.2859105892
 20
-419.6060675295
 30
0.0
 11
560.2859105892
 21
-418.5352023676
 31
0.0
  0
LINE
  5
28B
330
1F
100
AcDbEntity
  8
0
100
AcDbLine
 10
-67.5140894108
 20
-421.5352019445
 30
0.0
 11
-67.5140894108
 21
-423.8060675295
 31
0.0
  0
LINE
  5
28C
330
1F
100
AcDbEntity
  8
0
100
AcDbLine
 10
560.2859105892
 20
-423.8060675295
 30
0.0
 11
560.2859105892
 21
-421.5352019445
 31
0.0
  0
ARC
  5
28D
330
1F
100
AcDbEntity
  8
0
100
AcDbCircle
 10
568.2859105892
 20
-815.1352027907
 30
0.0
 40
0.5
100
AcDbArc
 50
274.9871394293
 51
90.0
  0
ARC
  5
28E
330
1F
100
AcDbEntity
  8
0
100
AcDbCircle
 10
-75.5140894108
 20
-815.1352027907
 30
0.0
 40
0.5000000000001137
100
AcDbArc
 50
90.0
 51
265.0128605707
  0
ARC
  5
28F
330
1F
100
AcDbEntity
  8
0
100
AcDbCircle
 10
568.2859105892
 20
-819.3352027907
 30
0.0
 40
0.5
100
AcDbArc
 50
274.9871394293
 51
90.0
  0
ARC
  5
290
330
1F
100
AcDbEntity
  8
0
100
AcDbCircle
 10
-75.5140894108
 20
-819.3352027907
 30
0.0
 40
0.4999999999999716
100
AcDbArc
 50
90.0
 51
265.0128605707
  0
LINE
  5
291
330
1F
100
AcDbEntity
  8
0
100
AcDbLine
 10
-75.5575554785
 20
-815.6333099086
 30
0.0
 11
-67.742356377
 21
-816.3152836467
 31
0.0
  0
LINE
  5
292
330
1F
100
AcDbEntity
  8
0
100
AcDbLine
 10
560.5141775553
 20
-816.3152836467
 30
0.0
 11
568.3293766569
 21
-815.6333099086
 31
0.0
  0
LINE
  5
293
330
1F
100
AcDbEntity
  8
0
100
AcDbLine
 10
-75.5575554785
 20
-819.8333099086
 30
0.0
 11
-67.742356377
 21
-820.5152836467
 31
0.0
  0
LINE
  5
294
330
1F
100
AcDbEntity
  8
0
100
AcDbLine
 10
560.5141775553
 20
-820.5152836467
 30
0.0
 11
568.3293766569
 21
-819.8333099086
 31
0.0
  0
ARC
  5
295
330
1F
100
AcDbEntity
  8
0
100
AcDbCircle
 10
560.5359105892
 20
-816.5643372056
 30
0.0
 40
0.2500000000001137
100
AcDbArc
 50
94.9871394293
 51
180.0
  0
ARC
  5
296
330
1F
100
AcDbEntity
  8
0
100
AcDbCircle
 10
-67.7640894108
 20
-816.5643372056
 30
0.0
 40
0.2499999999999877
100
AcDbArc
 50
0.0
 51
85.0128605707
  0
ARC
  5
297
330
1F
100
AcDbEntity
  8
0
100
AcDbCircle
 10
560.5359105892
 20
-820.7643372056
 30
0.0
 40
0.2500000000001137
100
AcDbArc
 50
94.9871394293
 51
180.0
  0
ARC
  5
298
330
1F
100
AcDbEntity
  8
0
100
AcDbCircle
 10
-67.7640894108
 20
-820.7643372056
 30
0.0
 40
0.2499999999999877
100
AcDbArc
 50
0.0
 51
85.0128605707
  0
LINE
  5
299
330
1F
100
AcDbEntity
  8
0
100
AcDbLine
 10
560.2859105892
 20
-818.8352027907
 30
0.0
 11
560.2859105892
 21
-816.5643372056
 31
0.0
  0
LINE
  5
29A
330
1F
100
AcDbEntity
  8
0
100
AcDbLine
 10
-67.5140894108
 20
-816.5643372056
 30
0.0
 11
-67.5140894108
 21
-818.8352027907
 31
0.0
  0
LINE
  5
29B
330
1F
100
AcDbEntity
  8
0
100
AcDbLine
 10
560.2859105892
 20
-821.8352023676
 30
0.0
 11
560.2859105892
 21
-820.7643372056
 31
0.0
  0
LINE
  5
29C
330
1F
100
AcDbEntity
  8
0
100
AcDbLine
 10
-67.5140894108
 20
-820.7643372056
 30
0.0
 11
-67.5140894108
 21
-821.8352023676
 31
0.0
  0
LINE
  5
29D
330
1F
100
AcDbEntity
  8
0
100
AcDbLine
 10
561.5358591887
 20
-803.5970137404
 30
0.0
 11
561.5358591887
 21
-769.7352023676
 31
0.0
  0
LINE
  5
29E
330
1F
100
AcDbEntity
  8
0
100
AcDbLine
 10
-68.7640380104
 20
-769.7352023676
 30
0.0
 11
-68.7640380104
 21
-803.5970137404
 31
0.0
  0
LINE
  5
29F
330
1F
100
AcDbEntity
  8
0
100
AcDbLine
 10
-68.7640380104
 20
-803.5970137404
 30
0.0
 11
-66.9985326929
 21
-805.362519058
 31
0.0
  0
LINE
  5
2A0
330
1F
100
AcDbEntity
  8
0
100
AcDbLine
 10
559.7703538712
 20
-805.362519058
 30
0.0
 11
561.5358591887
 21
-803.5970137404
 31
0.0
  0
LINE
  5
2A1
330
1F
100
AcDbEntity
  8
0
100
AcDbLine
 10
561.3859105892
 20
-826.5352023676
 30
0.0
 11
561.3859105892
 21
-821.8352023676
 31
0.0
  0
LINE
  5
2A2
330
1F
100
AcDbEntity
  8
0
100
AcDbLine
 10
-68.6140894108
 20
-821.8352023676
 30
0.0
 11
-68.6140894108
 21
-826.5352023676
 31
0.0
  0
ARC
  5
2A3
330
1F
100
AcDbEntity
  8
0
100
AcDbCircle
 10
560.0859105892
 20
-826.535203939
 30
0.0
 40
1.300000000004656
100
AcDbArc
 50
270.0
 51
0.0000692571
  0
ARC
  5
2A4
330
1F
100
AcDbEntity
  8
0
100
AcDbCircle
 10
-67.3140894108
 20
-826.535203939
 30
0.0
 40
1.300000000004642
100
AcDbArc
 50
179.9999307429
 51
270.0
  0
LINE
  5
2A5
330
1F
100
AcDbEntity
  8
0
100
AcDbLine
 10
-67.3140894108
 20
-827.835203939
 30
0.0
 11
560.0859105892
 21
-827.835203939
 31
0.0
  0
LINE
  5
2A6
330
1F
100
AcDbEntity
  8
0
100
AcDbLine
 10
-66.9985326929
 20
-805.362519058
 30
0.0
 11
-65.0133345972
 21
-812.3080910866
 31
0.0
  0
LINE
  5
2A7
330
1F
100
AcDbEntity
  8
0
100
AcDbLine
 10
557.7851557755
 20
-812.3080910866
 30
0.0
 11
559.7703538712
 21
-805.362519058
 31
0.0
  0
LINE
  5
2A8
330
1F
100
AcDbEntity
  8
0
100
AcDbLine
 10
557.7851557755
 20
-814.6352027907
 30
0.0
 11
557.7851557755
 21
-812.3080910866
 31
0.0
  0
LINE
  5
2A9
330
1F
100
AcDbEntity
  8
0
100
AcDbLine
 10
-65.0133345972
 20
-812.3080910866
 30
0.0
 11
-65.0133345972
 21
-814.6352027907
 31
0.0
  0
LINE
  5
2AA
330
1F
100
AcDbEntity
  8
0
100
AcDbLine
 10
561.5358591887
 20
-436.7733909947
 30
0.0
 11
559.7703538712
 21
-435.0078856772
 31
0.0
  0
LINE
  5
2AB
330
1F
100
AcDbEntity
  8
0
100
AcDbLine
 10
-66.9985326929
 20
-435.0078856772
 30
0.0
 11
-68.7640380104
 21
-436.7733909947
 31
0.0
  0
LINE
  5
2AC
330
1F
100
AcDbEntity
  8
0
100
AcDbLine
 10
-68.7640380104
 20
-436.7733909947
 30
0.0
 11
-68.7640380104
 21
-470.6352023676
 31
0.0
  0
LINE
  5
2AD
330
1F
100
AcDbEntity
  8
0
100
AcDbLine
 10
561.5358591887
 20
-470.6352023676
 30
0.0
 11
561.5358591887
 21
-436.7733909947
 31
0.0
  0
ARC
  5
2AE
330
1F
100
AcDbEntity
  8
0
100
AcDbCircle
 10
-67.3140894108
 20
-413.8352007962
 30
0.0
 40
1.300000000004642
100
AcDbArc
 50
90.0
 51
180.0000692571
  0
ARC
  5
2AF
330
1F
100
AcDbEntity
  8
0
100
AcDbCircle
 10
560.0859105892
 20
-413.8352007962
 30
0.0
 40
1.300000000004673
100
AcDbArc
 50
359.9999307429
 51
90.0
  0
LINE
  5
2B0
330
1F
100
AcDbEntity
  8
0
100
AcDbLine
 10
560.0859105892
 20
-412.5352007962
 30
0.0
 11
-67.3140894108
 21
-412.5352007962
 31
0.0
  0
LINE
  5
2B1
330
1F
100
AcDbEntity
  8
0
100
AcDbLine
 10
-68.6140894108
 20
-413.8352023676
 30
0.0
 11
-68.6140894108
 21
-418.5352023676
 31
0.0
  0
LINE
  5
2B2
330
1F
100
AcDbEntity
  8
0
100
AcDbLine
 10
561.3859105892
 20
-418.5352023676
 30
0.0
 11
561.3859105892
 21
-413.8352023676
 31
0.0
  0
LINE
  5
2B3
330
1F
100
AcDbEntity
  8
0
100
AcDbLine
 10
559.7703538712
 20
-435.0078856772
 30
0.0
 11
557.7851557755
 21
-428.0623136486
 31
0.0
  0
LINE
  5
2B4
330
1F
100
AcDbEntity
  8
0
100
AcDbLine
 10
-65.0133345972
 20
-428.0623136486
 30
0.0
 11
-66.9985326929
 21
-435.0078856772
 31
0.0
  0
LINE
  5
2B5
330
1F
100
AcDbEntity
  8
0
100
AcDbLine
 10
-65.0133345972
 20
-425.7352019445
 30
0.0
 11
-65.0133345972
 21
-428.0623136486
 31
0.0
  0
LINE
  5
2B6
330
1F
100
AcDbEntity
  8
0
100
AcDbLine
 10
557.7851557755
 20
-428.0623136486
 30
0.0
 11
557.7851557755
 21
-425.7352019445
 31
0.0
  0
ARC
  5
2B7
330
1F
100
AcDbEntity
  8
0
100
AcDbCircle
 10
-342.9140894109
 20
-603.9352023675
 30
0.0
 40
1.399999999999977
100
AcDbArc
 50
180.0
 51
270.0
  0
ARC
  5
2B8
330
1F
100
AcDbEntity
  8
0
100
AcDbCircle
 10
-342.9140894109
 20
-545.6352023675
 30
0.0
 40
1.399999999999977
100
AcDbArc
 50
90.0
 51
180.0
  0
LINE
  5
2B9
330
1F
100
AcDbEntity
  8
0
100
AcDbLine
 10
-342.9140894109
 20
-605.3352023675
 30
0.0
 11
-334.7140894109
 21
-605.3352023675
 31
0.0
  0
LINE
  5
2BA
330
1F
100
AcDbEntity
  8
0
100
AcDbLine
 10
-334.7140894109
 20
-544.2352023675
 30
0.0
 11
-342.9140894109
 21
-544.2352023675
 31
0.0
  0
LINE
  5
2BB
330
1F
100
AcDbEntity
  8
0
100
AcDbLine
 10
-342.9140894109
 20
-672.3352023675
 30
0.0
 11
-334.7140894109
 21
-672.3352023675
 31
0.0
  0
LINE
  5
2BC
330
1F
100
AcDbEntity
  8
0
100
AcDbLine
 10
-334.7140894109
 20
-611.2352023675
 30
0.0
 11
-342.9140894109
 21
-611.2352023675
 31
0.0
  0
ARC
  5
2BD
330
1F
100
AcDbEntity
  8
0
100
AcDbCircle
 10
-342.9140894109
 20
-670.9352023675
 30
0.0
 40
1.400000000000034
100
AcDbArc
 50
180.0
 51
270.0
  0
ARC
  5
2BE
330
1F
100
AcDbEntity
  8
0
100
AcDbCircle
 10
-342.9140894109
 20
-612.6352023675
 30
0.0
 40
1.400000000000091
100
AcDbArc
 50
90.0
 51
180.0
  0
LINE
  5
2BF
330
1F
100
AcDbEntity
  8
0
100
AcDbLine
 10
-334.3140894109
 20
-543.1352023675
 30
0.0
 11
-334.7140894109
 21
-543.1352023675
 31
0.0
  0
LINE
  5
2C0
330
1F
100
AcDbEntity
  8
0
100
AcDbLine
 10
-334.7140894109
 20
-606.4352023675
 30
0.0
 11
-334.3140894109
 21
-606.4352023675
 31
0.0
  0
LINE
  5
2C1
330
1F
100
AcDbEntity
  8
0
100
AcDbLine
 10
-334.3140894109
 20
-610.1352023675
 30
0.0
 11
-334.7140894109
 21
-610.1352023675
 31
0.0
  0
LINE
  5
2C2
330
1F
100
AcDbEntity
  8
0
100
AcDbLine
 10
-334.7140894109
 20
-673.4352023675
 30
0.0
 11
-334.3140894109
 21
-673.4352023675
 31
0.0
  0
LINE
  5
2C3
330
1F
100
AcDbEntity
  8
0
100
AcDbLine
 10
-307.2140894109
 20
-604.7852023675
 30
0.0
 11
-295.8140894108
 21
-604.7852023675
 31
0.0
  0
LINE
  5
2C4
330
1F
100
AcDbEntity
  8
0
100
AcDbLine
 10
-295.8140894108
 20
-544.7852023675
 30
0.0
 11
-307.2140894109
 21
-544.7852023675
 31
0.0
  0
LINE
  5
2C5
330
1F
100
AcDbEntity
  8
0
100
AcDbLine
 10
-318.2140894109
 20
-545.0352023675
 30
0.0
 11
-334.3140894109
 21
-545.0352023675
 31
0.0
  0
LINE
  5
2C6
330
1F
100
AcDbEntity
  8
0
100
AcDbLine
 10
-334.3140894109
 20
-604.5352023675
 30
0.0
 11
-318.2140894109
 21
-604.5352023675
 31
0.0
  0
LINE
  5
2C7
330
1F
100
AcDbEntity
  8
0
100
AcDbLine
 10
-307.2140894109
 20
-671.7852023675
 30
0.0
 11
-295.8140894108
 21
-671.7852023675
 31
0.0
  0
LINE
  5
2C8
330
1F
100
AcDbEntity
  8
0
100
AcDbLine
 10
-295.8140894108
 20
-611.7852023675
 30
0.0
 11
-307.2140894109
 21
-611.7852023675
 31
0.0
  0
LINE
  5
2C9
330
1F
100
AcDbEntity
  8
0
100
AcDbLine
 10
-318.2140894109
 20
-612.0352023675
 30
0.0
 11
-334.3140894109
 21
-612.0352023675
 31
0.0
  0
LINE
  5
2CA
330
1F
100
AcDbEntity
  8
0
100
AcDbLine
 10
-334.3140894109
 20
-671.5352023675
 30
0.0
 11
-318.2140894109
 21
-671.5352023675
 31
0.0
  0
CIRCLE
  5
2CB
330
1F
100
AcDbEntity
  8
0
100
AcDbCircle
 10
-228.3140894108
 20
-807.0352023676
 30
0.0
 40
3.899999999999977
  0
CIRCLE
  5
2CC
330
1F
100
AcDbEntity
  8
0
100
AcDbCircle
 10
-228.3140894108
 20
-807.0352023676
 30
0.0
 40
1.100000000000023
  0
CIRCLE
  5
2CD
330
1F
100
AcDbEntity
  8
0
100
AcDbCircle
 10
-228.3140894108
 20
-433.3352023676
 30
0.0
 40
3.899999999999977
  0
CIRCLE
  5
2CE
330
1F
100
AcDbEntity
  8
0
100
AcDbCircle
 10
-228.3140894108
 20
-433.3352023676
 30
0.0
 40
1.100000000000023
  0
CIRCLE
  5
2CF
330
1F
100
AcDbEntity
  8
0
100
AcDbCircle
 10
-228.3140894108
 20
-827.0352023676
 30
0.0
 40
3.899999999999977
  0
CIRCLE
  5
2D0
330
1F
100
AcDbEntity
  8
0
100
AcDbCircle
 10
-228.3140894108
 20
-827.0352023676
 30
0.0
 40
1.100000000000023
  0
CIRCLE
  5
2D1
330
1F
100
AcDbEntity
  8
0
100
AcDbCircle
 10
721.0859105892
 20
-827.0352023676
 30
0.0
 40
3.900000000000091
  0
CIRCLE
  5
2D2
330
1F
100
AcDbEntity
  8
0
100
AcDbCircle
 10
721.0859105892
 20
-827.0352023676
 30
0.0
 40
1.100000000000023
  0
CIRCLE
  5
2D3
330
1F
100
AcDbEntity
  8
0
100
AcDbCircle
 10
721.0859105892
 20
-807.0352023676
 30
0.0
 40
3.900000000000091
  0
CIRCLE
  5
2D4
330
1F
100
AcDbEntity
  8
0
100
AcDbCircle
 10
721.0859105892
 20
-807.0352023676
 30
0.0
 40
1.100000000000023
  0
CIRCLE
  5
2D5
330
1F
100
AcDbEntity
  8
0
100
AcDbCircle
 10
-228.3140894108
 20
-413.3352023676
 30
0.0
 40
3.899999999999977
  0
CIRCLE
  5
2D6
330
1F
100
AcDbEntity
  8
0
100
AcDbCircle
 10
-228.3140894108
 20
-413.3352023676
 30
0.0
 40
1.099999999999966
  0
CIRCLE
  5
2D7
330
1F
100
AcDbEntity
  8
0
100
AcDbCircle
 10
721.0859105892
 20
-413.3352023676
 30
0.0
 40
3.899999999999977
  0
CIRCLE
  5
2D8
330
1F
100
AcDbEntity
  8
0
100
AcDbCircle
 10
721.0859105892
 20
-413.3352023676
 30
0.0
 40
1.100000000000023
  0
CIRCLE
  5
2D9
330
1F
100
AcDbEntity
  8
0
100
AcDbCircle
 10
721.0859105892
 20
-433.3352023676
 30
0.0
 40
3.899999999999977
  0
CIRCLE
  5
2DA
330
1F
100
AcDbEntity
  8
0
100
AcDbCircle
 10
721.0859105892
 20
-433.3352023676
 30
0.0
 40
1.099999999999966
  0
LINE
  5
2DB
330
1F
100
AcDbEntity
  8
0
100
AcDbLine
 10
734.5859105892
 20
-781.3029693206
 30
0.0
 11
732.0859105892
 21
-781.3029693206
 31
0.0
  0
LWPOLYLINE
  5
2DC
330
1F
100
AcDbEntity
  8
0
100
AcDbPolyline
 90
        9
 70
   128
 43
0.0
 10
739.5859105892
 20
-784.8385032265
 10
739.4898369912
 20
-784.1487547783
 10
739.2053082517
 20
-783.4855129761
 10
738.7432586507
 20
-782.8742658305
 10
738.1214444951
 20
-782.3385032265
 10
737.3637617543
 20
-781.8988142204
 10
736.499327751
 20
-781.5720958143
 10
735.5613621992
 20
-781.3709036132
 10
734.5859105892
 20
-781.3029693206
  0
LINE
  5
2DD
330
1F
100
AcDbEntity
  8
0
100
AcDbLine
 10
739.5859105892
 20
-832.7674354146
 30
0.0
 11
739.5859105892
 21
-784.8385032265
 31
0.0
  0
LWPOLYLINE
  5
2DE
330
1F
100
AcDbEntity
  8
0
100
AcDbPolyline
 90
        9
 70
   128
 43
0.0
 10
734.5859105892
 20
-836.3029693206
 10
735.5613621992
 20
-836.2350350279
 10
736.499327751
 20
-836.0338428268
 10
737.3637617543
 20
-835.7071244207
 10
738.1214444951
 20
-835.2674354146
 10
738.7432586507
 20
-834.7316728106
 10
739.2053082517
 20
-834.120425665
 10
739.4898369912
 20
-833.4571838628
 10
739.5859105892
 20
-832.7674354146
  0
LINE
  5
2DF
330
1F
100
AcDbEntity
  8
0
100
AcDbLine
 10
732.0859105892
 20
-836.3029693206
 30
0.0
 11
734.5859105892
 21
-836.3029693206
 31
0.0
  0
ARC
  5
2E0
330
1F
100
AcDbEntity
  8
0
100
AcDbCircle
 10
731.7734105892
 20
-779.0932606293
 30
0.0
 40
2.231696383919878
100
AcDbArc
 50
191.421753659
 51
278.0494669755
  0
LINE
  5
2E1
330
1F
100
AcDbEntity
  8
0
100
AcDbLine
 10
729.5859105892
 20
-779.5352023676
 30
0.0
 11
731.0859105892
 21
-779.5352023676
 31
0.0
  0
ARC
  5
2E2
330
1F
100
AcDbEntity
  8
0
100
AcDbCircle
 10
731.9609105892
 20
-779.3584256723
 30
0.0
 40
0.8926785535676015
100
AcDbArc
 50
191.4217536589
 51
278.0494669756
  0
LWPOLYLINE
  5
2E3
330
1F
100
AcDbEntity
  8
0
100
AcDbPolyline
 90
        9
 70
   128
 43
0.0
 10
734.5859105892
 20
-780.2423091488
 10
735.5613621992
 20
-780.3102434414
 10
736.499327751
 20
-780.5114356425
 10
737.3637617543
 20
-780.8381540487
 10
738.1214444951
 20
-781.2778430547
 10
738.7432586507
 20
-781.8136056587
 10
739.2053082517
 20
-782.4248528043
 10
739.4898369912
 20
-783.0880946065
 10
739.5859105892
 20
-783.7778430547
  0
LINE
  5
2E4
330
1F
100
AcDbEntity
  8
0
100
AcDbLine
 10
739.5859105892
 20
-783.7778430547
 30
0.0
 11
739.5859105892
 21
-784.8385032265
 31
0.0
  0
LINE
  5
2E5
330
1F
100
AcDbEntity
  8
0
100
AcDbLine
 10
734.5859105892
 20
-780.2423091488
 30
0.0
 11
732.0859105892
 21
-780.2423091488
 31
0.0
  0
ARC
  5
2E6
330
1F
100
AcDbEntity
  8
0
100
AcDbCircle
 10
731.7734105892
 20
-834.0932606293
 30
0.0
 40
2.231696383919576
100
AcDbArc
 50
191.421753659
 51
278.0494669755
  0
LINE
  5
2E7
330
1F
100
AcDbEntity
  8
0
100
AcDbLine
 10
729.5859105892
 20
-779.5352023676
 30
0.0
 11
729.5859105892
 21
-834.5352023676
 31
0.0
  0
LINE
  5
2E8
330
1F
100
AcDbEntity
  8
0
100
AcDbLine
 10
729.5859105892
 20
-769.7352023676
 30
0.0
 11
729.5859105892
 21
-779.5352023676
 31
0.0
  0
LINE
  5
2E9
330
1F
100
AcDbEntity
  8
0
100
AcDbLine
 10
731.0859105892
 20
-769.7352023676
 30
0.0
 11
731.0859105892
 21
-779.5352023676
 31
0.0
  0
LINE
  5
2EA
330
1F
100
AcDbEntity
  8
0
100
AcDbLine
 10
739.5859105892
 20
-769.7352023676
 30
0.0
 11
739.5859105892
 21
-783.7778430547
 31
0.0
  0
LINE
  5
2EB
330
1F
100
AcDbEntity
  8
0
100
AcDbLine
 10
728.5859105892
 20
-834.5352023676
 30
0.0
 11
729.5859105892
 21
-834.5352023676
 31
0.0
  0
LINE
  5
2EC
330
1F
100
AcDbEntity
  8
0
100
AcDbLine
 10
729.5859105892
 20
-799.5352023676
 30
0.0
 11
728.5859105892
 21
-799.5352023676
 31
0.0
  0
LINE
  5
2ED
330
1F
100
AcDbEntity
  8
0
100
AcDbLine
 10
728.5859105892
 20
-834.5352023676
 30
0.0
 11
716.0859105892
 21
-834.5352023676
 31
0.0
  0
ARC
  5
2EE
330
1F
100
AcDbEntity
  8
0
100
AcDbCircle
 10
716.0859105892
 20
-829.5352023676
 30
0.0
 40
5.0
100
AcDbArc
 50
180.0
 51
270.0
  0
ARC
  5
2EF
330
1F
100
AcDbEntity
  8
0
100
AcDbCircle
 10
716.0859105892
 20
-804.5352023676
 30
0.0
 40
5.000000000000114
100
AcDbArc
 50
90.0
 51
180.0
  0
LINE
  5
2F0
330
1F
100
AcDbEntity
  8
0
100
AcDbLine
 10
716.0859105892
 20
-799.5352023676
 30
0.0
 11
728.5859105892
 21
-799.5352023676
 31
0.0
  0
LINE
  5
2F1
330
1F
100
AcDbEntity
  8
0
100
AcDbLine
 10
711.0859105892
 20
-829.5352023676
 30
0.0
 11
711.0859105892
 21
-804.5352023676
 31
0.0
  0
LINE
  5
2F2
330
1F
100
AcDbEntity
  8
0
100
AcDbLine
 10
-246.8140894108
 20
-784.8385032265
 30
0.0
 11
-246.8140894108
 21
-783.7778430547
 31
0.0
  0
LWPOLYLINE
  5
2F3
330
1F
100
AcDbEntity
  8
0
100
AcDbPolyline
 90
        9
 70
   128
 43
0.0
 10
-246.8140894108
 20
-783.7778430547
 10
-246.7180158129
 20
-783.0880946065
 10
-246.4334870734
 20
-782.4248528043
 10
-245.9714374724
 20
-781.8136056587
 10
-245.3496233168
 20
-781.2778430547
 10
-244.5919405759
 20
-780.8381540487
 10
-243.7275065727
 20
-780.5114356425
 10
-242.7895410209
 20
-780.3102434414
 10
-241.8140894108
 20
-780.2423091488
  0
LWPOLYLINE
  5
2F4
330
1F
100
AcDbEntity
  8
0
100
AcDbPolyline
 90
        9
 70
   128
 43
0.0
 10
-241.8140894108
 20
-781.3029693205
 10
-242.7895410209
 20
-781.3709036132
 10
-243.7275065727
 20
-781.5720958143
 10
-244.5919405759
 20
-781.8988142204
 10
-245.3496233168
 20
-782.3385032265
 10
-245.9714374724
 20
-782.8742658305
 10
-246.4334870734
 20
-783.4855129761
 10
-246.7180158129
 20
-784.1487547783
 10
-246.8140894108
 20
-784.8385032265
  0
LINE
  5
2F5
330
1F
100
AcDbEntity
  8
0
100
AcDbLine
 10
-241.8140894108
 20
-836.3029693205
 30
0.0
 11
-239.3140894108
 21
-836.3029693205
 31
0.0
  0
LWPOLYLINE
  5
2F6
330
1F
100
AcDbEntity
  8
0
100
AcDbPolyline
 90
        9
 70
   128
 43
0.0
 10
-246.8140894108
 20
-832.7674354146
 10
-246.7180158129
 20
-833.4571838628
 10
-246.4334870734
 20
-834.120425665
 10
-245.9714374724
 20
-834.7316728106
 10
-245.3496233168
 20
-835.2674354146
 10
-244.5919405759
 20
-835.7071244207
 10
-243.7275065727
 20
-836.0338428268
 10
-242.7895410209
 20
-836.2350350279
 10
-241.8140894108
 20
-836.3029693205
  0
LINE
  5
2F7
330
1F
100
AcDbEntity
  8
0
100
AcDbLine
 10
-246.8140894108
 20
-784.8385032265
 30
0.0
 11
-246.8140894108
 21
-832.7674354146
 31
0.0
  0
LINE
  5
2F8
330
1F
100
AcDbEntity
  8
0
100
AcDbLine
 10
-239.3140894108
 20
-781.3029693205
 30
0.0
 11
-241.8140894108
 21
-781.3029693205
 31
0.0
  0
LINE
  5
2F9
330
1F
100
AcDbEntity
  8
0
100
AcDbLine
 10
-236.8140894108
 20
-779.5352023676
 30
0.0
 11
-238.3140894108
 21
-779.5352023676
 31
0.0
  0
ARC
  5
2FA
330
1F
100
AcDbEntity
  8
0
100
AcDbCircle
 10
-239.0015894108
 20
-779.0932606293
 30
0.0
 40
2.231696383919711
100
AcDbArc
 50
261.9505330245
 51
348.578246341
  0
ARC
  5
2FB
330
1F
100
AcDbEntity
  8
0
100
AcDbCircle
 10
-239.1890894108
 20
-779.3584256723
 30
0.0
 40
0.892678553568024
100
AcDbArc
 50
261.9505330245
 51
348.578246341
  0
LINE
  5
2FC
330
1F
100
AcDbEntity
  8
0
100
AcDbLine
 10
-239.3140894108
 20
-780.2423091488
 30
0.0
 11
-241.8140894108
 21
-780.2423091488
 31
0.0
  0
ARC
  5
2FD
330
1F
100
AcDbEntity
  8
0
100
AcDbCircle
 10
-239.0015894108
 20
-834.0932606293
 30
0.0
 40
2.231696383919765
100
AcDbArc
 50
261.9505330245
 51
348.578246341
  0
LINE
  5
2FE
330
1F
100
AcDbEntity
  8
0
100
AcDbLine
 10
-236.8140894108
 20
-834.5352023676
 30
0.0
 11
-236.8140894108
 21
-779.5352023676
 31
0.0
  0
LINE
  5
2FF
330
1F
100
AcDbEntity
  8
0
100
AcDbLine
 10
-238.3140894108
 20
-779.5352023676
 30
0.0
 11
-238.3140894108
 21
-769.7352023676
 31
0.0
  0
LINE
  5
300
330
1F
100
AcDbEntity
  8
0
100
AcDbLine
 10
-236.8140894108
 20
-779.5352023676
 30
0.0
 11
-236.8140894108
 21
-769.7352023676
 31
0.0
  0
LINE
  5
301
330
1F
100
AcDbEntity
  8
0
100
AcDbLine
 10
-246.8140894108
 20
-783.7778430547
 30
0.0
 11
-246.8140894108
 21
-769.7352023676
 31
0.0
  0
LINE
  5
302
330
1F
100
AcDbEntity
  8
0
100
AcDbLine
 10
-235.8140894108
 20
-799.5352023676
 30
0.0
 11
-236.8140894108
 21
-799.5352023676
 31
0.0
  0
LINE
  5
303
330
1F
100
AcDbEntity
  8
0
100
AcDbLine
 10
-236.8140894108
 20
-834.5352023676
 30
0.0
 11
-235.8140894108
 21
-834.5352023676
 31
0.0
  0
ARC
  5
304
330
1F
100
AcDbEntity
  8
0
100
AcDbCircle
 10
-223.3140894108
 20
-829.5352023676
 30
0.0
 40
5.0
100
AcDbArc
 50
270.0
 51
0.0
  0
LINE
  5
305
330
1F
100
AcDbEntity
  8
0
100
AcDbLine
 10
-223.3140894108
 20
-834.5352023676
 30
0.0
 11
-235.8140894108
 21
-834.5352023676
 31
0.0
  0
LINE
  5
306
330
1F
100
AcDbEntity
  8
0
100
AcDbLine
 10
-235.8140894108
 20
-799.5352023676
 30
0.0
 11
-223.3140894108
 21
-799.5352023676
 31
0.0
  0
ARC
  5
307
330
1F
100
AcDbEntity
  8
0
100
AcDbCircle
 10
-223.3140894108
 20
-804.5352023676
 30
0.0
 40
5.0
100
AcDbArc
 50
0.0
 51
90.0
  0
LINE
  5
308
330
1F
100
AcDbEntity
  8
0
100
AcDbLine
 10
-218.3140894108
 20
-804.5352023676
 30
0.0
 11
-218.3140894108
 21
-829.5352023676
 31
0.0
  0
ARC
  5
309
330
1F
100
AcDbEntity
  8
0
100
AcDbCircle
 10
-239.0015894108
 20
-461.2771441058
 30
0.0
 40
2.231696383919564
100
AcDbArc
 50
11.421753659
 51
98.0494669755
  0
ARC
  5
30A
330
1F
100
AcDbEntity
  8
0
100
AcDbCircle
 10
-239.0015894108
 20
-406.2771441058
 30
0.0
 40
2.23169638391962
100
AcDbArc
 50
11.421753659
 51
98.0494669755
  0
LINE
  5
30B
330
1F
100
AcDbEntity
  8
0
100
AcDbLine
 10
-236.8140894108
 20
-460.8352023676
 30
0.0
 11
-236.8140894108
 21
-405.8352023676
 31
0.0
  0
LINE
  5
30C
330
1F
100
AcDbEntity
  8
0
100
AcDbLine
 10
-241.8140894108
 20
-459.0674354146
 30
0.0
 11
-239.3140894108
 21
-459.0674354146
 31
0.0
  0
LWPOLYLINE
  5
30D
330
1F
100
AcDbEntity
  8
0
100
AcDbPolyline
 90
        9
 70
   128
 43
0.0
 10
-246.8140894108
 20
-455.5319015087
 10
-246.7180158129
 20
-456.2216499569
 10
-246.4334870734
 20
-456.8848917591
 10
-245.9714374724
 20
-457.4961389047
 10
-245.3496233168
 20
-458.0319015087
 10
-244.5919405759
 20
-458.4715905147
 10
-243.7275065727
 20
-458.7983089209
 10
-242.7895410209
 20
-458.999501122
 10
-241.8140894108
 20
-459.0674354146
  0
LINE
  5
30E
330
1F
100
AcDbEntity
  8
0
100
AcDbLine
 10
-246.8140894108
 20
-407.6029693206
 30
0.0
 11
-246.8140894108
 21
-455.5319015087
 31
0.0
  0
LWPOLYLINE
  5
30F
330
1F
100
AcDbEntity
  8
0
100
AcDbPolyline
 90
        9
 70
   128
 43
0.0
 10
-241.8140894108
 20
-404.0674354146
 10
-242.7895410209
 20
-404.1353697072
 10
-243.7275065727
 20
-404.3365619084
 10
-244.5919405759
 20
-404.6632803145
 10
-245.3496233168
 20
-405.1029693206
 10
-245.9714374724
 20
-405.6387319246
 10
-246.4334870734
 20
-406.2499790702
 10
-246.7180158129
 20
-406.9132208723
 10
-246.8140894108
 20
-407.6029693206
  0
LINE
  5
310
330
1F
100
AcDbEntity
  8
0
100
AcDbLine
 10
-239.3140894108
 20
-404.0674354146
 30
0.0
 11
-241.8140894108
 21
-404.0674354146
 31
0.0
  0
LINE
  5
311
330
1F
100
AcDbEntity
  8
0
100
AcDbLine
 10
-236.8140894108
 20
-460.8352023676
 30
0.0
 11
-238.3140894108
 21
-460.8352023676
 31
0.0
  0
ARC
  5
312
330
1F
100
AcDbEntity
  8
0
100
AcDbCircle
 10
-239.1890894108
 20
-461.0119790629
 30
0.0
 40
0.8926785535678509
100
AcDbArc
 50
11.421753659
 51
98.0494669755
  0
LINE
  5
313
330
1F
100
AcDbEntity
  8
0
100
AcDbLine
 10
-241.8140894108
 20
-460.1280955864
 30
0.0
 11
-239.3140894108
 21
-460.1280955864
 31
0.0
  0
LWPOLYLINE
  5
314
330
1F
100
AcDbEntity
  8
0
100
AcDbPolyline
 90
        9
 70
   128
 43
0.0
 10
-241.8140894108
 20
-460.1280955864
 10
-242.7895410209
 20
-460.0601612938
 10
-243.7275065727
 20
-459.8589690927
 10
-244.5919405759
 20
-459.5322506865
 10
-245.3496233168
 20
-459.0925616805
 10
-245.9714374724
 20
-458.5567990764
 10
-246.4334870734
 20
-457.9455519308
 10
-246.7180158129
 20
-457.2823101287
 10
-246.8140894108
 20
-456.5925616805
  0
LINE
  5
315
330
1F
100
AcDbEntity
  8
0
100
AcDbLine
 10
-246.8140894108
 20
-456.5925616805
 30
0.0
 11
-246.8140894108
 21
-455.5319015087
 31
0.0
  0
LINE
  5
316
330
1F
100
AcDbEntity
  8
0
100
AcDbLine
 10
-238.3140894108
 20
-470.6352023676
 30
0.0
 11
-238.3140894108
 21
-460.8352023676
 31
0.0
  0
LINE
  5
317
330
1F
100
AcDbEntity
  8
0
100
AcDbLine
 10
-236.8140894108
 20
-470.6352023676
 30
0.0
 11
-236.8140894108
 21
-460.8352023676
 31
0.0
  0
LINE
  5
318
330
1F
100
AcDbEntity
  8
0
100
AcDbLine
 10
-246.8140894108
 20
-470.6352023676
 30
0.0
 11
-246.8140894108
 21
-456.5925616805
 31
0.0
  0
LINE
  5
319
330
1F
100
AcDbEntity
  8
0
100
AcDbLine
 10
-236.8140894108
 20
-440.8352023676
 30
0.0
 11
-235.8140894108
 21
-440.8352023676
 31
0.0
  0
LINE
  5
31A
330
1F
100
AcDbEntity
  8
0
100
AcDbLine
 10
-235.8140894108
 20
-405.8352023676
 30
0.0
 11
-236.8140894108
 21
-405.8352023676
 31
0.0
  0
LINE
  5
31B
330
1F
100
AcDbEntity
  8
0
100
AcDbLine
 10
-235.8140894108
 20
-405.8352023676
 30
0.0
 11
-223.3140894108
 21
-405.8352023676
 31
0.0
  0
LINE
  5
31C
330
1F
100
AcDbEntity
  8
0
100
AcDbLine
 10
-218.3140894108
 20
-410.8352023676
 30
0.0
 11
-218.3140894108
 21
-435.8352023676
 31
0.0
  0
LINE
  5
31D
330
1F
100
AcDbEntity
  8
0
100
AcDbLine
 10
-223.3140894108
 20
-440.8352023676
 30
0.0
 11
-235.8140894108
 21
-440.8352023676
 31
0.0
  0
ARC
  5
31E
330
1F
100
AcDbEntity
  8
0
100
AcDbCircle
 10
-223.3140894108
 20
-435.8352023676
 30
0.0
 40
5.0
100
AcDbArc
 50
270.0
 51
0.0
  0
ARC
  5
31F
330
1F
100
AcDbEntity
  8
0
100
AcDbCircle
 10
-223.3140894108
 20
-410.8352023676
 30
0.0
 40
5.0
100
AcDbArc
 50
0.0
 51
90.0
  0
ARC
  5
320
330
1F
100
AcDbEntity
  8
0
100
AcDbCircle
 10
731.7734105892
 20
-406.2771441058
 30
0.0
 40
2.231696383919423
100
AcDbArc
 50
81.9505330245
 51
168.578246341
  0
ARC
  5
321
330
1F
100
AcDbEntity
  8
0
100
AcDbCircle
 10
731.7734105892
 20
-461.2771441058
 30
0.0
 40
2.231696383919463
100
AcDbArc
 50
81.9505330245
 51
168.578246341
  0
LINE
  5
322
330
1F
100
AcDbEntity
  8
0
100
AcDbLine
 10
729.5859105892
 20
-405.8352023676
 30
0.0
 11
729.5859105892
 21
-460.8352023676
 31
0.0
  0
LINE
  5
323
330
1F
100
AcDbEntity
  8
0
100
AcDbLine
 10
734.5859105892
 20
-404.0674354146
 30
0.0
 11
732.0859105892
 21
-404.0674354146
 31
0.0
  0
LWPOLYLINE
  5
324
330
1F
100
AcDbEntity
  8
0
100
AcDbPolyline
 90
        9
 70
   128
 43
0.0
 10
739.5859105892
 20
-407.6029693206
 10
739.4898369912
 20
-406.9132208723
 10
739.2053082517
 20
-406.2499790702
 10
738.7432586507
 20
-405.6387319246
 10
738.1214444951
 20
-405.1029693206
 10
737.3637617543
 20
-404.6632803145
 10
736.499327751
 20
-404.3365619084
 10
735.5613621992
 20
-404.1353697072
 10
734.5859105892
 20
-404.0674354146
  0
LINE
  5
325
330
1F
100
AcDbEntity
  8
0
100
AcDbLine
 10
739.5859105892
 20
-455.5319015087
 30
0.0
 11
739.5859105892
 21
-407.6029693206
 31
0.0
  0
LWPOLYLINE
  5
326
330
1F
100
AcDbEntity
  8
0
100
AcDbPolyline
 90
        9
 70
   128
 43
0.0
 10
734.5859105892
 20
-459.0674354146
 10
735.5613621992
 20
-458.999501122
 10
736.499327751
 20
-458.7983089209
 10
737.3637617543
 20
-458.4715905147
 10
738.1214444951
 20
-458.0319015087
 10
738.7432586507
 20
-457.4961389047
 10
739.2053082517
 20
-456.8848917591
 10
739.4898369912
 20
-456.2216499569
 10
739.5859105892
 20
-455.5319015087
  0
LINE
  5
327
330
1F
100
AcDbEntity
  8
0
100
AcDbLine
 10
732.0859105892
 20
-459.0674354146
 30
0.0
 11
734.5859105892
 21
-459.0674354146
 31
0.0
  0
LINE
  5
328
330
1F
100
AcDbEntity
  8
0
100
AcDbLine
 10
739.5859105892
 20
-455.5319015087
 30
0.0
 11
739.5859105892
 21
-456.5925616805
 31
0.0
  0
LWPOLYLINE
  5
329
330
1F
100
AcDbEntity
  8
0
100
AcDbPolyline
 90
        9
 70
   128
 43
0.0
 10
739.5859105892
 20
-456.5925616805
 10
739.4898369912
 20
-457.2823101287
 10
739.2053082517
 20
-457.9455519308
 10
738.7432586507
 20
-458.5567990764
 10
738.1214444951
 20
-459.0925616805
 10
737.3637617543
 20
-459.5322506865
 10
736.499327751
 20
-459.8589690927
 10
735.5613621992
 20
-460.0601612938
 10
734.5859105892
 20
-460.1280955864
  0
LINE
  5
32A
330
1F
100
AcDbEntity
  8
0
100
AcDbLine
 10
729.5859105892
 20
-460.8352023676
 30
0.0
 11
731.0859105892
 21
-460.8352023676
 31
0.0
  0
ARC
  5
32B
330
1F
100
AcDbEntity
  8
0
100
AcDbCircle
 10
731.9609105892
 20
-461.0119790629
 30
0.0
 40
0.892678553568004
100
AcDbArc
 50
81.9505330245
 51
168.578246341
  0
LINE
  5
32C
330
1F
100
AcDbEntity
  8
0
100
AcDbLine
 10
732.0859105892
 20
-460.1280955864
 30
0.0
 11
734.5859105892
 21
-460.1280955864
 31
0.0
  0
LINE
  5
32D
330
1F
100
AcDbEntity
  8
0
100
AcDbLine
 10
731.0859105892
 20
-460.8352023676
 30
0.0
 11
731.0859105892
 21
-470.6352023676
 31
0.0
  0
LINE
  5
32E
330
1F
100
AcDbEntity
  8
0
100
AcDbLine
 10
729.5859105892
 20
-460.8352023676
 30
0.0
 11
729.5859105892
 21
-470.6352023676
 31
0.0
  0
LINE
  5
32F
330
1F
100
AcDbEntity
  8
0
100
AcDbLine
 10
739.5859105892
 20
-456.5925616805
 30
0.0
 11
739.5859105892
 21
-470.6352023676
 31
0.0
  0
LINE
  5
330
330
1F
100
AcDbEntity
  8
0
100
AcDbLine
 10
728.5859105892
 20
-440.8352023676
 30
0.0
 11
729.5859105892
 21
-440.8352023676
 31
0.0
  0
LINE
  5
331
330
1F
100
AcDbEntity
  8
0
100
AcDbLine
 10
729.5859105892
 20
-405.8352023676
 30
0.0
 11
728.5859105892
 21
-405.8352023676
 31
0.0
  0
ARC
  5
332
330
1F
100
AcDbEntity
  8
0
100
AcDbCircle
 10
716.0859105892
 20
-410.8352023676
 30
0.0
 40
5.0
100
AcDbArc
 50
90.0
 51
180.0
  0
LINE
  5
333
330
1F
100
AcDbEntity
  8
0
100
AcDbLine
 10
716.0859105892
 20
-405.8352023676
 30
0.0
 11
728.5859105892
 21
-405.8352023676
 31
0.0
  0
LINE
  5
334
330
1F
100
AcDbEntity
  8
0
100
AcDbLine
 10
728.5859105892
 20
-440.8352023676
 30
0.0
 11
716.0859105892
 21
-440.8352023676
 31
0.0
  0
ARC
  5
335
330
1F
100
AcDbEntity
  8
0
100
AcDbCircle
 10
716.0859105892
 20
-435.8352023676
 30
0.0
 40
5.0
100
AcDbArc
 50
180.0
 51
270.0
  0
LINE
  5
336
330
1F
100
AcDbEntity
  8
0
100
AcDbLine
 10
711.0859105892
 20
-435.8352023676
 30
0.0
 11
711.0859105892
 21
-410.8352023676
 31
0.0
  0
LINE
  5
337
330
1F
100
AcDbEntity
  8
0
100
AcDbLine
 10
-255.8140894108
 20
-854.6852023676
 30
0.0
 11
-253.3140894108
 21
-854.6852023676
 31
0.0
  0
LINE
  5
338
330
1F
100
AcDbEntity
  8
0
100
AcDbLine
 10
-255.8140894108
 20
-854.6852023676
 30
0.0
 11
-255.8140894108
 21
-769.7352023676
 31
0.0
  0
LINE
  5
339
330
1F
100
AcDbEntity
  8
0
100
AcDbLine
 10
-255.8140894108
 20
-470.6352023676
 30
0.0
 11
-255.8140894108
 21
-385.6852023676
 31
0.0
  0
LINE
  5
33A
330
1F
100
AcDbEntity
  8
0
100
AcDbLine
 10
-255.8140894108
 20
-385.6852023676
 30
0.0
 11
-253.3140894108
 21
-385.6852023676
 31
0.0
  0
LINE
  5
33B
330
1F
100
AcDbEntity
  8
0
100
AcDbLine
 10
-253.3140894108
 20
-854.6852023676
 30
0.0
 11
-203.3140894108
 21
-854.6852023676
 31
0.0
  0
LINE
  5
33C
330
1F
100
AcDbEntity
  8
0
100
AcDbLine
 10
-253.3140894108
 20
-385.6852023676
 30
0.0
 11
-203.3140894108
 21
-385.6852023676
 31
0.0
  0
CIRCLE
  5
33D
330
1F
100
AcDbEntity
  8
0
100
AcDbCircle
 10
-228.3140894108
 20
-844.6852023676
 30
0.0
 40
4.0
  0
CIRCLE
  5
33E
330
1F
100
AcDbEntity
  8
0
100
AcDbCircle
 10
-228.3140894108
 20
-395.6852023676
 30
0.0
 40
4.0
  0
LINE
  5
33F
330
1F
100
AcDbEntity
  8
0
100
AcDbLine
 10
-200.8140894108
 20
-854.6852023676
 30
0.0
 11
-200.8140894108
 21
-769.7352023676
 31
0.0
  0
LINE
  5
340
330
1F
100
AcDbEntity
  8
0
100
AcDbLine
 10
-200.8140894108
 20
-470.6352023676
 30
0.0
 11
-200.8140894108
 21
-385.6852023676
 31
0.0
  0
LINE
  5
341
330
1F
100
AcDbEntity
  8
0
100
AcDbLine
 10
-203.3140894108
 20
-854.6852023676
 30
0.0
 11
-200.8140894108
 21
-854.6852023676
 31
0.0
  0
LINE
  5
342
330
1F
100
AcDbEntity
  8
0
100
AcDbLine
 10
-203.3140894108
 20
-385.6852023676
 30
0.0
 11
-200.8140894108
 21
-385.6852023676
 31
0.0
  0
LINE
  5
343
330
1F
100
AcDbEntity
  8
0
100
AcDbLine
 10
693.5859105892
 20
-854.6852023676
 30
0.0
 11
696.0859105892
 21
-854.6852023676
 31
0.0
  0
LINE
  5
344
330
1F
100
AcDbEntity
  8
0
100
AcDbLine
 10
693.5859105892
 20
-854.6852023676
 30
0.0
 11
693.5859105892
 21
-769.7352023676
 31
0.0
  0
LINE
  5
345
330
1F
100
AcDbEntity
  8
0
100
AcDbLine
 10
693.5859105892
 20
-470.6352023676
 30
0.0
 11
693.5859105892
 21
-385.6852023676
 31
0.0
  0
LINE
  5
346
330
1F
100
AcDbEntity
  8
0
100
AcDbLine
 10
693.5859105892
 20
-385.6852023676
 30
0.0
 11
696.0859105892
 21
-385.6852023676
 31
0.0
  0
LINE
  5
347
330
1F
100
AcDbEntity
  8
0
100
AcDbLine
 10
696.0859105892
 20
-854.6852023676
 30
0.0
 11
746.0859105892
 21
-854.6852023676
 31
0.0
  0
LINE
  5
348
330
1F
100
AcDbEntity
  8
0
100
AcDbLine
 10
696.0859105892
 20
-385.6852023676
 30
0.0
 11
746.0859105892
 21
-385.6852023676
 31
0.0
  0
CIRCLE
  5
349
330
1F
100
AcDbEntity
  8
0
100
AcDbCircle
 10
721.0859105892
 20
-844.6852023676
 30
0.0
 40
3.999999999999886
  0
CIRCLE
  5
34A
330
1F
100
AcDbEntity
  8
0
100
AcDbCircle
 10
721.0859105892
 20
-395.6852023676
 30
0.0
 40
3.999999999999886
  0
LINE
  5
34B
330
1F
100
AcDbEntity
  8
0
100
AcDbLine
 10
748.5859105892
 20
-854.6852023676
 30
0.0
 11
748.5859105892
 21
-769.7352023676
 31
0.0
  0
LINE
  5
34C
330
1F
100
AcDbEntity
  8
0
100
AcDbLine
 10
748.5859105892
 20
-470.6352023676
 30
0.0
 11
748.5859105892
 21
-385.6852023676
 31
0.0
  0
LINE
  5
34D
330
1F
100
AcDbEntity
  8
0
100
AcDbLine
 10
746.0859105892
 20
-854.6852023676
 30
0.0
 11
748.5859105892
 21
-854.6852023676
 31
0.0
  0
LINE
  5
34E
330
1F
100
AcDbEntity
  8
0
100
AcDbLine
 10
746.0859105892
 20
-385.6852023676
 30
0.0
 11
748.5859105892
 21
-385.6852023676
 31
0.0
  0
CIRCLE
  5
34F
330
1F
100
AcDbEntity
  8
0
100
AcDbCircle
 10
348.7259105892
 20
-477.3352023676
 30
0.0
 40
3.900000000000034
  0
CIRCLE
  5
350
330
1F
100
AcDbEntity
  8
0
100
AcDbCircle
 10
348.7259105892
 20
-477.3352023676
 30
0.0
 40
1.100000000000023
  0
CIRCLE
  5
351
330
1F
100
AcDbEntity
  8
0
100
AcDbCircle
 10
782.2859105892
 20
-620.1852023676
 30
0.0
 40
3.900000000000091
  0
CIRCLE
  5
352
330
1F
100
AcDbEntity
  8
0
100
AcDbCircle
 10
782.2859105892
 20
-620.1852023676
 30
0.0
 40
1.100000000000023
  0
CIRCLE
  5
353
330
1F
100
AcDbEntity
  8
0
100
AcDbCircle
 10
-59.8340894108
 20
-763.0352023676
 30
0.0
 40
3.900000000000091
  0
CIRCLE
  5
354
330
1F
100
AcDbEntity
  8
0
100
AcDbCircle
 10
-59.8340894108
 20
-763.0352023676
 30
0.0
 40
1.100000000000136
  0
CIRCLE
  5
355
330
1F
100
AcDbEntity
  8
0
100
AcDbCircle
 10
144.4459105892
 20
-477.3352023676
 30
0.0
 40
3.899999999999977
  0
CIRCLE
  5
356
330
1F
100
AcDbEntity
  8
0
100
AcDbCircle
 10
144.4459105892
 20
-477.3352023676
 30
0.0
 40
1.100000000000023
  0
CIRCLE
  5
357
330
1F
100
AcDbEntity
  8
0
100
AcDbCircle
 10
553.0059105892
 20
-763.0352023676
 30
0.0
 40
3.899999999999977
  0
CIRCLE
  5
358
330
1F
100
AcDbEntity
  8
0
100
AcDbCircle
 10
553.0059105892
 20
-763.0352023676
 30
0.0
 40
1.099999999999909
  0
CIRCLE
  5
359
330
1F
100
AcDbEntity
  8
0
100
AcDbCircle
 10
-289.1140894108
 20
-620.1852023676
 30
0.0
 40
3.899999999999977
  0
CIRCLE
  5
35A
330
1F
100
AcDbEntity
  8
0
100
AcDbCircle
 10
-289.1140894108
 20
-620.1852023676
 30
0.0
 40
1.100000000000023
  0
CIRCLE
  5
35B
330
1F
100
AcDbEntity
  8
0
100
AcDbCircle
 10
757.2859105892
 20
-763.0352023676
 30
0.0
 40
3.899999999999977
  0
CIRCLE
  5
35C
330
1F
100
AcDbEntity
  8
0
100
AcDbCircle
 10
757.2859105892
 20
-763.0352023676
 30
0.0
 40
1.099999999999909
  0
CIRCLE
  5
35D
330
1F
100
AcDbEntity
  8
0
100
AcDbCircle
 10
553.0059105892
 20
-477.3352023676
 30
0.0
 40
3.900000000000034
  0
CIRCLE
  5
35E
330
1F
100
AcDbEntity
  8
0
100
AcDbCircle
 10
553.0059105892
 20
-477.3352023676
 30
0.0
 40
1.10000000000008
  0
CIRCLE
  5
35F
330
1F
100
AcDbEntity
  8
0
100
AcDbCircle
 10
-59.8340894108
 20
-477.3352023676
 30
0.0
 40
3.900000000000034
  0
CIRCLE
  5
360
330
1F
100
AcDbEntity
  8
0
100
AcDbCircle
 10
-59.8340894108
 20
-477.3352023676
 30
0.0
 40
1.100000000000023
  0
CIRCLE
  5
361
330
1F
100
AcDbEntity
  8
0
100
AcDbCircle
 10
-289.1140894108
 20
-723.0352023676
 30
0.0
 40
3.899999999999977
  0
CIRCLE
  5
362
330
1F
100
AcDbEntity
  8
0
100
AcDbCircle
 10
-289.1140894108
 20
-723.0352023676
 30
0.0
 40
1.099999999999909
  0
CIRCLE
  5
363
330
1F
100
AcDbEntity
  8
0
100
AcDbCircle
 10
757.2859105892
 20
-477.3352023676
 30
0.0
 40
3.899999999999977
  0
CIRCLE
  5
364
330
1F
100
AcDbEntity
  8
0
100
AcDbCircle
 10
757.2859105892
 20
-477.3352023676
 30
0.0
 40
1.100000000000023
  0
CIRCLE
  5
365
330
1F
100
AcDbEntity
  8
0
100
AcDbCircle
 10
348.7259105892
 20
-763.0352023676
 30
0.0
 40
3.900000000000091
  0
CIRCLE
  5
366
330
1F
100
AcDbEntity
  8
0
100
AcDbCircle
 10
348.7259105892
 20
-763.0352023676
 30
0.0
 40
1.100000000000023
  0
CIRCLE
  5
367
330
1F
100
AcDbEntity
  8
0
100
AcDbCircle
 10
-289.1140894108
 20
-517.3352023676
 30
0.0
 40
3.900000000000091
  0
CIRCLE
  5
368
330
1F
100
AcDbEntity
  8
0
100
AcDbCircle
 10
-289.1140894108
 20
-517.3352023676
 30
0.0
 40
1.100000000000023
  0
CIRCLE
  5
369
330
1F
100
AcDbEntity
  8
0
100
AcDbCircle
 10
782.2859105892
 20
-517.3352023676
 30
0.0
 40
3.899999999999977
  0
CIRCLE
  5
36A
330
1F
100
AcDbEntity
  8
0
100
AcDbCircle
 10
782.2859105892
 20
-517.3352023676
 30
0.0
 40
1.100000000000023
  0
CIRCLE
  5
36B
330
1F
100
AcDbEntity
  8
0
100
AcDbCircle
 10
782.2859105892
 20
-723.0352023676
 30
0.0
 40
3.900000000000091
  0
CIRCLE
  5
36C
330
1F
100
AcDbEntity
  8
0
100
AcDbCircle
 10
782.2859105892
 20
-723.0352023676
 30
0.0
 40
1.100000000000023
  0
CIRCLE
  5
36D
330
1F
100
AcDbEntity
  8
0
100
AcDbCircle
 10
-264.1140894108
 20
-477.3352023676
 30
0.0
 40
3.900000000000034
  0
CIRCLE
  5
36E
330
1F
100
AcDbEntity
  8
0
100
AcDbCircle
 10
-264.1140894108
 20
-477.3352023676
 30
0.0
 40
1.100000000000023
  0
CIRCLE
  5
36F
330
1F
100
AcDbEntity
  8
0
100
AcDbCircle
 10
144.4459105892
 20
-763.0352023676
 30
0.0
 40
3.900000000000091
  0
CIRCLE
  5
370
330
1F
100
AcDbEntity
  8
0
100
AcDbCircle
 10
144.4459105892
 20
-763.0352023676
 30
0.0
 40
1.100000000000136
  0
CIRCLE
  5
371
330
1F
100
AcDbEntity
  8
0
100
AcDbCircle
 10
-264.1140894108
 20
-763.0352023676
 30
0.0
 40
3.899999999999977
  0
CIRCLE
  5
372
330
1F
100
AcDbEntity
  8
0
100
AcDbCircle
 10
-264.1140894108
 20
-763.0352023676
 30
0.0
 40
1.100000000000136
  0
SPLINE
  5
373
330
1F
100
AcDbEntity
  8
0
100
AcDbSpline
210
0.0
220
0.0
230
1.0
 70
     8
 71
     3
 72
    12
 73
     8
 74
     0
 42
0.00000001
 43
0.00000001
 40
0.0
 40
0.0
 40
0.0
 40
0.0
 40
0.2255407622559436
 40
0.4511342019104948
 40
0.6767278442587195
 40
0.9023212728364695
 40
1.0
 40
1.0
 40
1.0
 40
1.0
 10
787.285910589165
 20
-472.335202367581
 30
0.0
 10
787.4866911154062
 20
-472.2706318578075
 30
0.0
 10
787.8882990622752
 20
-472.1414757571441
 30
0.0
 10
788.4164587783797
 20
-471.9477030791892
 30
0.0
 10
788.8016160850508
 20
-471.7540378222387
 30
0.0
 10
788.9685707420356
 20
-471.5966015770743
 30
0.0
 10
788.9818869981343
 20
-471.5044637509326
 30
0.0
 10
788.9859105891649
 20
-471.4766237238182
 30
0.0
  0
SPLINE
  5
374
330
1F
100
AcDbEntity
  8
0
100
AcDbSpline
210
0.0
220
0.0
230
1.0
 70
     8
 71
     3
 72
    12
 73
     8
 74
     0
 42
0.00000001
 43
0.00000001
 40
0.0
 40
0.0
 40
0.0
 40
0.0
 40
0.2019335415350136
 40
0.4467099568635319
 40
0.6915641992353233
 40
0.9364184209310001
 40
1.0
 40
1.0
 40
1.0
 40
1.0
 10
787.285910589165
 20
-472.335202367581
 30
0.0
 10
787.3914959236673
 20
-472.2774883540961
 30
0.0
 10
787.6250679189997
 20
-472.1498155352161
 30
0.0
 10
787.9477711849859
 20
-471.9516296605369
 30
0.0
 10
788.1922530059336
 20
-471.7414733548953
 30
0.0
 10
788.2799027677107
 20
-471.5826319732334
 30
0.0
 10
788.284883790968
 20
-471.494741618996
 30
0.0
 10
788.2859105891649
 20
-471.4766237238182
 30
0.0
  0
LINE
  5
375
330
1F
100
AcDbEntity
  8
0
100
AcDbLine
 10
788.2859105892
 20
-471.4766237238
 30
0.0
 11
788.9859105892
 21
-471.4766237238
 31
0.0
  0
LINE
  5
376
330
1F
100
AcDbEntity
  8
0
100
AcDbLine
 10
788.9859105892
 20
-768.8937810113
 30
0.0
 11
788.9859105892
 21
-471.4766237238
 31
0.0
  0
SPLINE
  5
377
330
1F
100
AcDbEntity
  8
0
100
AcDbSpline
210
0.0
220
0.0
230
1.0
 70
     8
 71
     3
 72
    12
 73
     8
 74
     0
 42
0.00000001
 43
0.00000001
 40
0.0
 40
0.0
 40
0.0
 40
0.0
 40
0.22554076225589
 40
0.4511342019104337
 40
0.6767278442587581
 40
0.9023212728363121
 40
1.0
 40
1.0
 40
1.0
 40
1.0
 10
788.985910589164
 20
-768.8937810113438
 30
0.0
 10
788.9651528477044
 20
-768.8292105015703
 30
0.0
 10
788.9236325165986
 20
-768.700054400907
 30
0.0
 10
788.6009964847956
 20
-768.5062817229518
 30
0.0
 10
788.1303737244267
 20
-768.3126164660017
 30
0.0
 10
787.6590166280491
 20
-768.1551802208371
 30
0.0
 10
787.3724872527498
 20
-768.0630423946953
 30
0.0
 10
787.2859105891641
 20
-768.0352023675811
 30
0.0
  0
SPLINE
  5
378
330
1F
100
AcDbEntity
  8
0
100
AcDbSpline
210
0.0
220
0.0
230
1.0
 70
     8
 71
     3
 72
    12
 73
     8
 74
     0
 42
0.00000001
 43
0.00000001
 40
0.0
 40
0.0
 40
0.0
 40
0.0
 40
0.2255407622558931
 40
0.4511342019104846
 40
0.6767278442586498
 40
0.9023212728363647
 40
1.0
 40
1.0
 40
1.0
 40
1.0
 10
-294.1140894108349
 20
-472.3352023675774
 30
0.0
 10
-294.1786599206085
 20
-472.1344218413363
 30
0.0
 10
-294.3078160212719
 20
-471.7328138944673
 30
0.0
 10
-294.5015886992267
 20
-471.2046541783629
 30
0.0
 10
-294.695253956177
 20
-470.8194968716916
 30
0.0
 10
-294.8526902013415
 20
-470.6525422147073
 30
0.0
 10
-294.9448280274834
 20
-470.6392259586082
 30
0.0
 10
-294.9726680545976
 20
-470.6352023675774
 30
0.0
  0
LINE
  5
379
330
1F
100
AcDbEntity
  8
0
100
AcDbLine
 10
788.1444892329
 20
-470.6352023676
 30
0.0
 11
-294.9726680546
 21
-470.6352023676
 31
0.0
  0
SPLINE
  5
37A
330
1F
100
AcDbEntity
  8
0
100
AcDbSpline
210
0.0
220
0.0
230
1.0
 70
     8
 71
     3
 72
    12
 73
     8
 74
     0
 42
0.00000001
 43
0.00000001
 40
0.0
 40
0.0
 40
0.0
 40
0.0
 40
0.2255407622559079
 40
0.4511342019105936
 40
0.6767278442587936
 40
0.9023212728364453
 40
1.0
 40
1.0
 40
1.0
 40
1.0
 10
788.1444892329278
 20
-470.635202367581
 30
0.0
 10
788.0799187231542
 20
-470.6559601090402
 30
0.0
 10
787.9507626224906
 20
-470.6974804401456
 30
0.0
 10
787.7569899445357
 20
-471.0201164719497
 30
0.0
 10
787.563324687586
 20
-471.4907392323182
 30
0.0
 10
787.405888442421
 20
-471.9620963286958
 30
0.0
 10
787.3137506162795
 20
-472.2486257039953
 30
0.0
 10
787.285910589165
 20
-472.335202367581
 30
0.0
  0
LINE
  5
37B
330
1F
100
AcDbEntity
  8
0
100
AcDbLine
 10
788.1444892329
 20
-471.3352023676
 30
0.0
 11
788.1444892329
 21
-470.6352023676
 31
0.0
  0
SPLINE
  5
37C
330
1F
100
AcDbEntity
  8
0
100
AcDbSpline
210
0.0
220
0.0
230
1.0
 70
     8
 71
     3
 72
    12
 73
     8
 74
     0
 42
0.00000001
 43
0.00000001
 40
0.0
 40
0.0
 40
0.0
 40
0.0
 40
0.2019335415349756
 40
0.4467099568635206
 40
0.691564199235511
 40
0.9364184209309306
 40
1.0
 40
1.0
 40
1.0
 40
1.0
 10
788.1444892329278
 20
-471.3352023675811
 30
0.0
 10
788.086775219443
 20
-471.3450475363885
 30
0.0
 10
787.9591024005628
 20
-471.3668266568845
 30
0.0
 10
787.7609165258834
 20
-471.5540209182901
 30
0.0
 10
787.5507602202425
 20
-471.8572993410523
 30
0.0
 10
787.3919188385804
 20
-472.1412775796696
 30
0.0
 10
787.304028484343
 20
-472.302058635851
 30
0.0
 10
787.285910589165
 20
-472.335202367581
 30
0.0
  0
SPLINE
  5
37D
330
1F
100
AcDbEntity
  8
0
100
AcDbSpline
210
0.0
220
0.0
230
1.0
 70
     8
 71
     3
 72
    12
 73
     8
 74
     0
 42
0.00000001
 43
0.00000001
 40
0.0
 40
0.0
 40
0.0
 40
0.0
 40
0.225540762255856
 40
0.4511342019104621
 40
0.6767278442586558
 40
0.9023212728363891
 40
1.0
 40
1.0
 40
1.0
 40
1.0
 10
-294.114089410836
 20
-768.0352023675774
 30
0.0
 10
-294.3148699370769
 20
-768.0997728773509
 30
0.0
 10
-294.7164778839461
 20
-768.2289289780142
 30
0.0
 10
-295.2446376000504
 20
-768.422701655969
 30
0.0
 10
-295.6297949067219
 20
-768.6163669129196
 30
0.0
 10
-295.7967495637058
 20
-768.773803158084
 30
0.0
 10
-295.8100658198052
 20
-768.8659409842257
 30
0.0
 10
-295.814089410836
 20
-768.8937810113401
 30
0.0
  0
LINE
  5
37E
330
1F
100
AcDbEntity
  8
0
100
AcDbLine
 10
-295.8140894108
 20
-768.8937810113
 30
0.0
 11
-295.8140894108
 21
-471.4766237238
 31
0.0
  0
SPLINE
  5
37F
330
1F
100
AcDbEntity
  8
0
100
AcDbSpline
210
0.0
220
0.0
230
1.0
 70
     8
 71
     3
 72
    12
 73
     8
 74
     0
 42
0.00000001
 43
0.00000001
 40
0.0
 40
0.0
 40
0.0
 40
0.0
 40
0.2255407622558533
 40
0.4511342019104584
 40
0.6767278442586527
 40
0.9023212728364064
 40
0.9999999999999999
 40
0.9999999999999999
 40
0.9999999999999999
 40
0.9999999999999999
 10
-295.814089410835
 20
-471.4766237238147
 30
0.0
 10
-295.7933316693758
 20
-471.5411942335882
 30
0.0
 10
-295.7518113382703
 20
-471.6703503342515
 30
0.0
 10
-295.4291753064665
 20
-471.8641230122064
 30
0.0
 10
-294.9585525460981
 20
-472.0577882691568
 30
0.0
 10
-294.4871954497202
 20
-472.2152245143212
 30
0.0
 10
-294.2006660744206
 20
-472.307362340463
 30
0.0
 10
-294.114089410835
 20
-472.3352023675774
 30
0.0
  0
SPLINE
  5
380
330
1F
100
AcDbEntity
  8
0
100
AcDbSpline
210
0.0
220
0.0
230
1.0
 70
     8
 71
     3
 72
    12
 73
     8
 74
     0
 42
0.00000001
 43
0.00000001
 40
0.0
 40
0.0
 40
0.0
 40
0.0
 40
0.2019335415348411
 40
0.4467099568632422
 40
0.6915641992352651
 40
0.936418420930789
 40
1.0
 40
1.0
 40
1.0
 40
1.0
 10
-294.1140894108349
 20
-472.3352023675773
 30
0.0
 10
-294.1718034243198
 20
-472.2296170330751
 30
0.0
 10
-294.2994762431998
 20
-471.9960450377426
 30
0.0
 10
-294.4976621178791
 20
-471.6733417717574
 30
0.0
 10
-294.7078184235203
 20
-471.4288599508085
 30
0.0
 10
-294.8666598051822
 20
-471.3412101890314
 30
0.0
 10
-294.9545501594197
 20
-471.3362291657742
 30
0.0
 10
-294.9726680545976
 20
-471.3352023675774
 30
0.0
  0
LINE
  5
381
330
1F
100
AcDbEntity
  8
0
100
AcDbLine
 10
-294.9726680546
 20
-471.3352023676
 30
0.0
 11
-294.9726680546
 21
-470.6352023676
 31
0.0
  0
LINE
  5
382
330
1F
100
AcDbEntity
  8
0
100
AcDbLine
 10
-295.1140894108
 20
-471.4766237238
 30
0.0
 11
-295.8140894108
 21
-471.4766237238
 31
0.0
  0
SPLINE
  5
383
330
1F
100
AcDbEntity
  8
0
100
AcDbSpline
210
0.0
220
0.0
230
1.0
 70
     8
 71
     3
 72
    12
 73
     8
 74
     0
 42
0.00000001
 43
0.00000001
 40
0.0
 40
0.0
 40
0.0
 40
0.0
 40
0.2019335415348672
 40
0.446709956863253
 40
0.6915641992352831
 40
0.9364184209308146
 40
1.0
 40
1.0
 40
1.0
 40
1.0
 10
-295.1140894108349
 20
-471.4766237238147
 30
0.0
 10
-295.1042442420276
 20
-471.5343377372994
 30
0.0
 10
-295.0824651215315
 20
-471.6620105561794
 30
0.0
 10
-294.8952708601261
 20
-471.8601964308587
 30
0.0
 10
-294.591992437364
 20
-472.0703527365
 30
0.0
 10
-294.3080141987468
 20
-472.2291941181621
 30
0.0
 10
-294.1472331425649
 20
-472.3170844723994
 30
0.0
 10
-294.1140894108349
 20
-472.3352023675773
 30
0.0
  0
SPLINE
  5
384
330
1F
100
AcDbEntity
  8
0
100
AcDbSpline
210
0.0
220
0.0
230
1.0
 70
     8
 71
     3
 72
    12
 73
     8
 74
     0
 42
0.00000001
 43
0.00000001
 40
0.0
 40
0.0
 40
0.0
 40
0.0
 40
0.2255407622559016
 40
0.4511342019105395
 40
0.6767278442587116
 40
0.9023212728363911
 40
1.0
 40
1.0
 40
1.0
 40
1.0
 10
787.2859105891641
 20
-768.0352023675811
 30
0.0
 10
787.3504810989377
 20
-768.235982893822
 30
0.0
 10
787.4796371996008
 20
-768.6375908406911
 30
0.0
 10
787.6734098775559
 20
-769.1657505567955
 30
0.0
 10
787.8670751345059
 20
-769.5509078634669
 30
0.0
 10
788.0245113796705
 20
-769.7178625204508
 30
0.0
 10
788.1166492058125
 20
-769.7311787765502
 30
0.0
 10
788.1444892329267
 20
-769.735202367581
 30
0.0
  0
SPLINE
  5
385
330
1F
100
AcDbEntity
  8
0
100
AcDbSpline
210
0.0
220
0.0
230
1.0
 70
     8
 71
     3
 72
    12
 73
     8
 74
     0
 42
0.00000001
 43
0.00000001
 40
0.0
 40
0.0
 40
0.0
 40
0.0
 40
0.2019335415349117
 40
0.4467099568634336
 40
0.6915641992354413
 40
0.9364184209308946
 40
0.9999999999999999
 40
0.9999999999999999
 40
0.9999999999999999
 40
0.9999999999999999
 10
787.285910589164
 20
-768.035202367581
 30
0.0
 10
787.3436246026486
 20
-768.140787702083
 30
0.0
 10
787.4712974215287
 20
-768.3743596974158
 30
0.0
 10
787.6694832962083
 20
-768.6970629634012
 30
0.0
 10
787.8796396018488
 20
-768.94154478435
 30
0.0
 10
788.0384809835119
 20
-769.0291945461269
 30
0.0
 10
788.1263713377488
 20
-769.0341755693842
 30
0.0
 10
788.1444892329267
 20
-769.0352023675811
 30
0.0
  0
LINE
  5
386
330
1F
100
AcDbEntity
  8
0
100
AcDbLine
 10
788.1444892329
 20
-769.0352023676
 30
0.0
 11
788.1444892329
 21
-769.7352023676
 31
0.0
  0
LINE
  5
387
330
1F
100
AcDbEntity
  8
0
100
AcDbLine
 10
-294.9726680546
 20
-769.7352023676
 30
0.0
 11
788.1444892329
 21
-769.7352023676
 31
0.0
  0
SPLINE
  5
388
330
1F
100
AcDbEntity
  8
0
100
AcDbSpline
210
0.0
220
0.0
230
1.0
 70
     8
 71
     3
 72
    12
 73
     8
 74
     0
 42
0.00000001
 43
0.00000001
 40
0.0
 40
0.0
 40
0.0
 40
0.0
 40
0.2255407622558276
 40
0.4511342019104204
 40
0.6767278442586063
 40
0.9023212728363338
 40
0.9999999999999999
 40
0.9999999999999999
 40
0.9999999999999999
 40
0.9999999999999999
 10
-294.9726680545987
 20
-769.7352023675775
 30
0.0
 10
-294.9080975448252
 20
-769.7144446261183
 30
0.0
 10
-294.7789414441618
 20
-769.672924295013
 30
0.0
 10
-294.585168766207
 20
-769.350288263209
 30
0.0
 10
-294.3915035092567
 20
-768.8796655028407
 30
0.0
 10
-294.2340672640921
 20
-768.4083084064628
 30
0.0
 10
-294.1419294379502
 20
-768.1217790311632
 30
0.0
 10
-294.114089410836
 20
-768.0352023675774
 30
0.0
  0
LINE
  5
389
330
1F
100
AcDbEntity
  8
0
100
AcDbLine
 10
788.2859105892
 20
-768.8937810113
 30
0.0
 11
788.9859105892
 21
-768.8937810113
 31
0.0
  0
SPLINE
  5
38A
330
1F
100
AcDbEntity
  8
0
100
AcDbSpline
210
0.0
220
0.0
230
1.0
 70
     8
 71
     3
 72
    12
 73
     8
 74
     0
 42
0.00000001
 43
0.00000001
 40
0.0
 40
0.0
 40
0.0
 40
0.0
 40
0.2019335415348822
 40
0.4467099568632009
 40
0.6915641992352355
 40
0.9364184209307359
 40
0.9999999999999999
 40
0.9999999999999999
 40
0.9999999999999999
 40
0.9999999999999999
 10
788.2859105891639
 20
-768.8937810113438
 30
0.0
 10
788.2760654203563
 20
-768.836066997859
 30
0.0
 10
788.25428629986
 20
-768.708394178979
 30
0.0
 10
788.067092038455
 20
-768.5102083042996
 30
0.0
 10
787.7638136156929
 20
-768.3000519986583
 30
0.0
 10
787.4798353770759
 20
-768.1412106169963
 30
0.0
 10
787.319054320894
 20
-768.0533202627588
 30
0.0
 10
787.285910589164
 20
-768.035202367581
 30
0.0
  0
LINE
  5
38B
330
1F
100
AcDbEntity
  8
0
100
AcDbLine
 10
-294.9726680546
 20
-769.0352023676
 30
0.0
 11
-294.9726680546
 21
-769.7352023676
 31
0.0
  0
SPLINE
  5
38C
330
1F
100
AcDbEntity
  8
0
100
AcDbSpline
210
0.0
220
0.0
230
1.0
 70
     8
 71
     3
 72
    12
 73
     8
 74
     0
 42
0.00000001
 43
0.00000001
 40
0.0
 40
0.0
 40
0.0
 40
0.0
 40
0.2019335415348202
 40
0.4467099568632137
 40
0.6915641992352319
 40
0.9364184209307626
 40
1.0
 40
1.0
 40
1.0
 40
1.0
 10
-294.9726680545987
 20
-769.0352023675775
 30
0.0
 10
-294.9149540411139
 20
-769.0253571987702
 30
0.0
 10
-294.787281222234
 20
-769.003578078274
 30
0.0
 10
-294.5890953475547
 20
-768.8163838168687
 30
0.0
 10
-294.3789390419134
 20
-768.5131053941066
 30
0.0
 10
-294.2200976602513
 20
-768.2291271554891
 30
0.0
 10
-294.1322073060139
 20
-768.0683460993073
 30
0.0
 10
-294.114089410836
 20
-768.0352023675774
 30
0.0
  0
SPLINE
  5
38D
330
1F
100
AcDbEntity
  8
0
100
AcDbSpline
210
0.0
220
0.0
230
1.0
 70
     8
 71
     3
 72
    12
 73
     8
 74
     0
 42
0.00000001
 43
0.00000001
 40
0.0
 40
0.0
 40
0.0
 40
0.0
 40
0.2019335415348545
 40
0.4467099568632665
 40
0.6915641992352856
 40
0.9364184209308353
 40
1.0
 40
1.0
 40
1.0
 40
1.0
 10
-294.114089410836
 20
-768.0352023675774
 30
0.0
 10
-294.2196747453382
 20
-768.0929163810622
 30
0.0
 10
-294.4532467406706
 20
-768.2205891999421
 30
0.0
 10
-294.775950006656
 20
-768.4187750746213
 30
0.0
 10
-295.0204318276051
 20
-768.6289313802629
 30
0.0
 10
-295.1080815893818
 20
-768.7877727619248
 30
0.0
 10
-295.1130626126392
 20
-768.8756631161622
 30
0.0
 10
-295.114089410836
 20
-768.8937810113401
 30
0.0
  0
LINE
  5
38E
330
1F
100
AcDbEntity
  8
0
100
AcDbLine
 10
-295.1140894108
 20
-768.8937810113
 30
0.0
 11
-295.8140894108
 21
-768.8937810113
 31
0.0
  0
LINE
  5
38F
330
1F
100
AcDbEntity
  8
0
100
AcDbLine
 10
-322.7140894108
 20
-675.7559130413
 30
0.0
 11
-322.7140894108
 21
-691.7559130413
 31
0.0
  0
LINE
  5
390
330
1F
100
AcDbEntity
  8
0
100
AcDbLine
 10
224.7007791606
 20
-421.5352019445
 30
0.0
 11
568.2859105892
 21
-421.5352019445
 31
0.0
  0
LINE
  5
391
330
1F
100
AcDbEntity
  8
0
100
AcDbLine
 10
-75.5140894108
 20
-421.5352019445
 30
0.0
 11
224.7007791606
 21
-421.5352019445
 31
0.0
  0
LINE
  5
392
330
1F
100
AcDbEntity
  8
0
100
AcDbLine
 10
224.7007791606
 20
-425.7352019445
 30
0.0
 11
568.2859105892
 21
-425.7352019445
 31
0.0
  0
LINE
  5
393
330
1F
100
AcDbEntity
  8
0
100
AcDbLine
 10
-75.5140894108
 20
-425.7352019445
 30
0.0
 11
224.7007791606
 21
-425.7352019445
 31
0.0
  0
LINE
  5
394
330
1F
100
AcDbEntity
  8
0
100
AcDbLine
 10
568.2859105892
 20
-814.6352027907
 30
0.0
 11
-75.5140894108
 21
-814.6352027907
 31
0.0
  0
LINE
  5
395
330
1F
100
AcDbEntity
  8
0
100
AcDbLine
 10
568.2859105892
 20
-818.8352027907
 30
0.0
 11
-75.5140894108
 21
-818.8352027907
 31
0.0
  0
LINE
  5
396
330
1F
100
AcDbEntity
  8
0
100
AcDbLine
 10
561.5358591887
 20
-803.5970137404
 30
0.0
 11
-68.7640380104
 21
-803.5970137404
 31
0.0
  0
LINE
  5
397
330
1F
100
AcDbEntity
  8
0
100
AcDbLine
 10
559.7703538712
 20
-805.362519058
 30
0.0
 11
-66.9985326929
 21
-805.362519058
 31
0.0
  0
LINE
  5
398
330
1F
100
AcDbEntity
  8
0
100
AcDbLine
 10
561.3859105892
 20
-821.8352023676
 30
0.0
 11
-68.6140894108
 21
-821.8352023676
 31
0.0
  0
LINE
  5
399
330
1F
100
AcDbEntity
  8
0
100
AcDbLine
 10
557.7851557755
 20
-812.3080910866
 30
0.0
 11
-65.0133345972
 21
-812.3080910866
 31
0.0
  0
LINE
  5
39A
330
1F
100
AcDbEntity
  8
0
100
AcDbLine
 10
-68.7640380104
 20
-436.7733909947
 30
0.0
 11
561.5358591887
 21
-436.7733909947
 31
0.0
  0
LINE
  5
39B
330
1F
100
AcDbEntity
  8
0
100
AcDbLine
 10
-66.9985326929
 20
-435.0078856772
 30
0.0
 11
559.7703538712
 21
-435.0078856772
 31
0.0
  0
LINE
  5
39C
330
1F
100
AcDbEntity
  8
0
100
AcDbLine
 10
-68.6140894108
 20
-418.5352023676
 30
0.0
 11
561.3859105892
 21
-418.5352023676
 31
0.0
  0
LINE
  5
39D
330
1F
100
AcDbEntity
  8
0
100
AcDbLine
 10
-65.0133345972
 20
-428.0623136486
 30
0.0
 11
557.7851557755
 21
-428.0623136486
 31
0.0
  0
LINE
  5
39E
330
1F
100
AcDbEntity
  8
0
100
AcDbLine
 10
-344.3140894109
 20
-545.6352023675
 30
0.0
 11
-344.3140894109
 21
-603.9352023675
 31
0.0
  0
LINE
  5
39F
330
1F
100
AcDbEntity
  8
0
100
AcDbLine
 10
-344.3140894109
 20
-653.7926523663
 30
0.0
 11
-344.3140894109
 21
-670.9352023675
 31
0.0
  0
LINE
  5
3A0
330
1F
100
AcDbEntity
  8
0
100
AcDbLine
 10
-344.3140894109
 20
-612.6352023675
 30
0.0
 11
-344.3140894109
 21
-653.7926523663
 31
0.0
  0
LINE
  5
3A1
330
1F
100
AcDbEntity
  8
0
100
AcDbLine
 10
-334.7140894109
 20
-545.2885001517
 30
0.0
 11
-334.7140894109
 21
-606.4352023675
 31
0.0
  0
LINE
  5
3A2
330
1F
100
AcDbEntity
  8
0
100
AcDbLine
 10
-334.7140894109
 20
-543.1352023675
 30
0.0
 11
-334.7140894109
 21
-545.2885001517
 31
0.0
  0
LINE
  5
3A3
330
1F
100
AcDbEntity
  8
0
100
AcDbLine
 10
-334.3140894109
 20
-545.2885001517
 30
0.0
 11
-334.3140894109
 21
-606.4352023675
 31
0.0
  0
LINE
  5
3A4
330
1F
100
AcDbEntity
  8
0
100
AcDbLine
 10
-334.3140894109
 20
-543.1352023675
 30
0.0
 11
-334.3140894109
 21
-545.2885001517
 31
0.0
  0
LINE
  5
3A5
330
1F
100
AcDbEntity
  8
0
100
AcDbLine
 10
-334.7140894109
 20
-610.1352023675
 30
0.0
 11
-334.7140894109
 21
-673.4352023675
 31
0.0
  0
LINE
  5
3A6
330
1F
100
AcDbEntity
  8
0
100
AcDbLine
 10
-334.3140894109
 20
-610.1352023675
 30
0.0
 11
-334.3140894109
 21
-673.4352023675
 31
0.0
  0
LINE
  5
3A7
330
1F
100
AcDbEntity
  8
0
100
AcDbLine
 10
-318.2140894109
 20
-574.7852023675
 30
0.0
 11
-307.2140894109
 21
-574.7852023675
 31
0.0
  0
LINE
  5
3A8
330
1F
100
AcDbEntity
  8
0
100
AcDbLine
 10
-318.2140894109
 20
-574.7852023675
 30
0.0
 11
-318.2140894109
 21
-542.2852023675
 31
0.0
  0
LINE
  5
3A9
330
1F
100
AcDbEntity
  8
0
100
AcDbLine
 10
-318.2140894109
 20
-542.2852023675
 30
0.0
 11
-307.2140894109
 21
-542.2852023675
 31
0.0
  0
LINE
  5
3AA
330
1F
100
AcDbEntity
  8
0
100
AcDbLine
 10
-307.2140894109
 20
-574.7852023675
 30
0.0
 11
-307.2140894109
 21
-542.2852023675
 31
0.0
  0
LINE
  5
3AB
330
1F
100
AcDbEntity
  8
0
100
AcDbLine
 10
-318.2140894109
 20
-607.2852023675
 30
0.0
 11
-307.2140894109
 21
-607.2852023675
 31
0.0
  0
LINE
  5
3AC
330
1F
100
AcDbEntity
  8
0
100
AcDbLine
 10
-318.2140894109
 20
-607.2852023675
 30
0.0
 11
-318.2140894109
 21
-574.7852023675
 31
0.0
  0
LINE
  5
3AD
330
1F
100
AcDbEntity
  8
0
100
AcDbLine
 10
-307.2140894109
 20
-607.2852023675
 30
0.0
 11
-307.2140894109
 21
-574.7852023675
 31
0.0
  0
LINE
  5
3AE
330
1F
100
AcDbEntity
  8
0
100
AcDbLine
 10
-318.2140894109
 20
-641.7852023675
 30
0.0
 11
-307.2140894109
 21
-641.7852023675
 31
0.0
  0
LINE
  5
3AF
330
1F
100
AcDbEntity
  8
0
100
AcDbLine
 10
-318.2140894109
 20
-641.7852023675
 30
0.0
 11
-318.2140894109
 21
-609.2852023675
 31
0.0
  0
LINE
  5
3B0
330
1F
100
AcDbEntity
  8
0
100
AcDbLine
 10
-318.2140894109
 20
-609.2852023675
 30
0.0
 11
-307.2140894109
 21
-609.2852023675
 31
0.0
  0
LINE
  5
3B1
330
1F
100
AcDbEntity
  8
0
100
AcDbLine
 10
-307.2140894109
 20
-641.7852023675
 30
0.0
 11
-307.2140894109
 21
-609.2852023675
 31
0.0
  0
LINE
  5
3B2
330
1F
100
AcDbEntity
  8
0
100
AcDbLine
 10
-318.2140894109
 20
-674.2852023675
 30
0.0
 11
-307.2140894109
 21
-674.2852023675
 31
0.0
  0
LINE
  5
3B3
330
1F
100
AcDbEntity
  8
0
100
AcDbLine
 10
-318.2140894109
 20
-674.2852023675
 30
0.0
 11
-318.2140894109
 21
-641.7852023675
 31
0.0
  0
LINE
  5
3B4
330
1F
100
AcDbEntity
  8
0
100
AcDbLine
 10
-307.2140894109
 20
-674.2852023675
 30
0.0
 11
-307.2140894109
 21
-641.7852023675
 31
0.0
  0
ARC
  5
3B5
330
1F
100
AcDbEntity
  8
0
100
AcDbCircle
 10
1160.0222499415
 20
649.0438640925
 30
0.0
 40
5.000000000000081
100
AcDbArc
 50
43.3006884733
 51
80.3421313068
  0
ARC
  5
3B6
330
1F
100
AcDbEntity
  8
0
100
AcDbCircle
 10
1159.4998951087
 20
649.0438640925
 30
0.0
 40
4.999999999999977
100
AcDbArc
 50
99.6578686932
 51
136.6993115267
  0
ARC
  5
3B7
330
1F
100
AcDbEntity
  8
0
100
AcDbCircle
 10
1262.8722499415
 20
649.0438640925
 30
0.0
 40
5.000000000000081
100
AcDbArc
 50
43.3006884733
 51
80.3421313068
  0
ARC
  5
3B8
330
1F
100
AcDbEntity
  8
0
100
AcDbCircle
 10
1262.3498951087
 20
649.0438640925
 30
0.0
 40
5.000000000000081
100
AcDbArc
 50
99.6578686932
 51
136.6993115267
  0
ARC
  5
3B9
330
1F
100
AcDbEntity
  8
0
100
AcDbCircle
 10
1057.1722499415
 20
649.0438640925
 30
0.0
 40
4.999999999999977
100
AcDbArc
 50
43.3006884733
 51
80.3421313068
  0
ARC
  5
3BA
330
1F
100
AcDbEntity
  8
0
100
AcDbCircle
 10
1056.6498951087
 20
649.0438640925
 30
0.0
 40
4.999999999999977
100
AcDbArc
 50
99.6578686932
 51
136.6993115267
  0
ARC
  5
3BB
330
1F
100
AcDbEntity
  8
0
100
AcDbCircle
 10
1017.1722499415
 20
649.0438640925
 30
0.0
 40
5.000000000000242
100
AcDbArc
 50
43.3006884733
 51
80.3421313068
  0
ARC
  5
3BC
330
1F
100
AcDbEntity
  8
0
100
AcDbCircle
 10
1016.6498951087
 20
649.0438640925
 30
0.0
 40
5.000000000000076
100
AcDbArc
 50
99.6578686932
 51
136.6993115267
  0
ARC
  5
3BD
330
1F
100
AcDbEntity
  8
0
100
AcDbCircle
 10
1302.8722499415
 20
649.0438640925
 30
0.0
 40
5.000000000000081
100
AcDbArc
 50
43.3006884733
 51
80.3421313068
  0
ARC
  5
3BE
330
1F
100
AcDbEntity
  8
0
100
AcDbCircle
 10
1302.3498951087
 20
649.0438640925
 30
0.0
 40
4.999999999999977
100
AcDbArc
 50
99.6578686932
 51
136.6993115267
  0
ARC
  5
3BF
330
1F
100
AcDbEntity
  8
0
100
AcDbCircle
 10
1027.6402080145
 20
-193.8658230017
 30
0.0
 40
4.999999999999981
100
AcDbArc
 50
133.3006884733
 51
170.3421313068
  0
ARC
  5
3C0
330
1F
100
AcDbEntity
  8
0
100
AcDbCircle
 10
1027.6402080145
 20
-194.3881778344
 30
0.0
 40
4.999999999999998
100
AcDbArc
 50
189.6578686932
 51
226.6993115267
  0
ARC
  5
3C1
330
1F
100
AcDbEntity
  8
0
100
AcDbCircle
 10
1291.8819370357
 20
-194.3881778344
 30
0.0
 40
4.999999999999998
100
AcDbArc
 50
313.3006884733
 51
350.3421313068
  0
ARC
  5
3C2
330
1F
100
AcDbEntity
  8
0
100
AcDbCircle
 10
1291.8819370357
 20
-193.8658230017
 30
0.0
 40
4.999999999999977
100
AcDbArc
 50
9.6578686932
 51
46.6993115267
  0
ARC
  5
3C3
330
1F
100
AcDbEntity
  8
0
100
AcDbCircle
 10
1290.6819370339
 20
542.9618221658
 30
0.0
 40
4.999999999999759
100
AcDbArc
 50
313.3006884733
 51
350.3421313068
  0
ARC
  5
3C4
330
1F
100
AcDbEntity
  8
0
100
AcDbCircle
 10
1290.6819370339
 20
543.4841769985
 30
0.0
 40
4.999999999999998
100
AcDbArc
 50
9.6578686932
 51
46.6993115267
  0
ARC
  5
3C5
330
1F
100
AcDbEntity
  8
0
100
AcDbCircle
 10
1290.6819370339
 20
499.085141914
 30
0.0
 40
4.999999999999998
100
AcDbArc
 50
313.3006884733
 51
350.3421313068
  0
ARC
  5
3C6
330
1F
100
AcDbEntity
  8
0
100
AcDbCircle
 10
1290.6819370339
 20
499.6074967467
 30
0.0
 40
4.999999999999998
100
AcDbArc
 50
9.6578686932
 51
46.6993115267
  0
ARC
  5
3C7
330
1F
100
AcDbEntity
  8
0
100
AcDbCircle
 10
1028.8402080164
 20
215.9841770309
 30
0.0
 40
4.999999999999977
100
AcDbArc
 50
133.3006884733
 51
170.3421313068
  0
ARC
  5
3C8
330
1F
100
AcDbEntity
  8
0
100
AcDbCircle
 10
1028.8402080164
 20
215.4618221982
 30
0.0
 40
4.999999999999884
100
AcDbArc
 50
189.6578686932
 51
226.6993115267
  0
ARC
  5
3C9
330
1F
100
AcDbEntity
  8
0
100
AcDbCircle
 10
1290.6819370339
 20
379.2118221884
 30
0.0
 40
5.00000000000021
100
AcDbArc
 50
313.3006884733
 51
350.3421313068
  0
ARC
  5
3CA
330
1F
100
AcDbEntity
  8
0
100
AcDbCircle
 10
1290.6819370339
 20
379.7341770212
 30
0.0
 40
5.000000000000201
100
AcDbArc
 50
9.6578686932
 51
46.6993115267
  0
ARC
  5
3CB
330
1F
100
AcDbEntity
  8
0
100
AcDbCircle
 10
1290.6819370339
 20
215.4618221982
 30
0.0
 40
5.000000000000215
100
AcDbArc
 50
313.3006884733
 51
350.3421313068
  0
ARC
  5
3CC
330
1F
100
AcDbEntity
  8
0
100
AcDbCircle
 10
1290.6819370339
 20
215.9841770309
 30
0.0
 40
5.000000000000206
100
AcDbArc
 50
9.6578686932
 51
46.6993115267
  0
ARC
  5
3CD
330
1F
100
AcDbEntity
  8
0
100
AcDbCircle
 10
1028.8402080163
 20
543.4841769985
 30
0.0
 40
5.00000000000022
100
AcDbArc
 50
133.3006884733
 51
170.3421313068
  0
ARC
  5
3CE
330
1F
100
AcDbEntity
  8
0
100
AcDbCircle
 10
1028.8402080163
 20
542.9618221658
 30
0.0
 40
5.000000000000201
100
AcDbArc
 50
189.6578686932
 51
226.6993115267
  0
ARC
  5
3CF
330
1F
100
AcDbEntity
  8
0
100
AcDbCircle
 10
1028.8402080163
 20
499.6074967467
 30
0.0
 40
5.000000000000089
100
AcDbArc
 50
133.3006884733
 51
170.3421313068
  0
ARC
  5
3D0
330
1F
100
AcDbEntity
  8
0
100
AcDbCircle
 10
1028.8402080163
 20
499.085141914
 30
0.0
 40
5.000000000000108
100
AcDbArc
 50
189.6578686932
 51
226.6993115267
  0
ARC
  5
3D1
330
1F
100
AcDbEntity
  8
0
100
AcDbCircle
 10
1028.8402080163
 20
379.7341770212
 30
0.0
 40
4.999999999999998
100
AcDbArc
 50
133.3006884733
 51
170.3421313068
  0
ARC
  5
3D2
330
1F
100
AcDbEntity
  8
0
100
AcDbCircle
 10
1028.8402080163
 20
379.2118221884
 30
0.0
 40
5.000000000000039
100
AcDbArc
 50
189.6578686932
 51
226.6993115267
  0
ARC
  5
3D3
330
1F
100
AcDbEntity
  8
0
100
AcDbCircle
 10
1290.6819370339
 20
-68.1614975575
 30
0.0
 40
4.999999999999988
100
AcDbArc
 50
313.3006884733
 51
350.3421313068
  0
ARC
  5
3D4
330
1F
100
AcDbEntity
  8
0
100
AcDbCircle
 10
1290.6819370339
 20
-67.6391427248
 30
0.0
 40
4.999999999999988
100
AcDbArc
 50
9.6578686932
 51
46.6993115267
  0
ARC
  5
3D5
330
1F
100
AcDbEntity
  8
0
100
AcDbCircle
 10
1290.6819370339
 20
-112.0381778342
 30
0.0
 40
4.999999999999988
100
AcDbArc
 50
313.3006884733
 51
350.3421313068
  0
ARC
  5
3D6
330
1F
100
AcDbEntity
  8
0
100
AcDbCircle
 10
1290.6819370339
 20
-111.5158230015
 30
0.0
 40
4.999999999999988
100
AcDbArc
 50
9.6578686932
 51
46.6993115267
  0
ARC
  5
3D7
330
1F
100
AcDbEntity
  8
0
100
AcDbCircle
 10
1028.8402080164
 20
52.2341770285
 30
0.0
 40
4.999999999999982
100
AcDbArc
 50
133.3006884733
 51
170.3421313068
  0
ARC
  5
3D8
330
1F
100
AcDbEntity
  8
0
100
AcDbCircle
 10
1028.8402080164
 20
51.7118221957
 30
0.0
 40
4.999999999999988
100
AcDbArc
 50
189.6578686932
 51
226.6993115267
  0
ARC
  5
3D9
330
1F
100
AcDbEntity
  8
0
100
AcDbCircle
 10
1028.8402080163
 20
-111.5158230015
 30
0.0
 40
4.999999999999869
100
AcDbArc
 50
133.3006884733
 51
170.3421313068
  0
ARC
  5
3DA
330
1F
100
AcDbEntity
  8
0
100
AcDbCircle
 10
1028.8402080163
 20
-112.0381778342
 30
0.0
 40
4.999999999999988
100
AcDbArc
 50
189.6578686932
 51
226.6993115267
  0
ARC
  5
3DB
330
1F
100
AcDbEntity
  8
0
100
AcDbCircle
 10
1290.6819370339
 20
51.7118221957
 30
0.0
 40
5.000000000000206
100
AcDbArc
 50
313.3006884733
 51
350.3421313068
  0
ARC
  5
3DC
330
1F
100
AcDbEntity
  8
0
100
AcDbCircle
 10
1290.6819370339
 20
52.2341770285
 30
0.0
 40
5.000000000000206
100
AcDbArc
 50
9.6578686932
 51
46.6993115267
  0
ARC
  5
3DD
330
1F
100
AcDbEntity
  8
0
100
AcDbCircle
 10
1028.8402080163
 20
-67.6391427248
 30
0.0
 40
4.999999999999988
100
AcDbArc
 50
133.3006884733
 51
170.3421313068
  0
ARC
  5
3DE
330
1F
100
AcDbEntity
  8
0
100
AcDbCircle
 10
1028.8402080163
 20
-68.1614975575
 30
0.0
 40
4.999999999999988
100
AcDbArc
 50
189.6578686932
 51
226.6993115267
  0
ARC
  5
3DF
330
1F
100
AcDbEntity
  8
0
100
AcDbCircle
 10
960.611072102
 20
-106.1770004181
 30
0.0
 40
0.5
100
AcDbArc
 50
184.9871394293
 51
0.0
  0
ARC
  5
3E0
330
1F
100
AcDbEntity
  8
0
100
AcDbCircle
 10
960.611072102
 20
537.6229995819
 30
0.0
 40
0.5
100
AcDbArc
 50
0.0
 51
175.0128605707
  0
ARC
  5
3E1
330
1F
100
AcDbEntity
  8
0
100
AcDbCircle
 10
964.811072102
 20
-106.1770004181
 30
0.0
 40
0.4999999999999679
100
AcDbArc
 50
184.9871394293
 51
0.0
  0
ARC
  5
3E2
330
1F
100
AcDbEntity
  8
0
100
AcDbCircle
 10
964.811072102
 20
537.6229995819
 30
0.0
 40
0.5
100
AcDbArc
 50
0.0
 51
175.0128605707
  0
LINE
  5
3E3
330
1F
100
AcDbEntity
  8
0
100
AcDbLine
 10
960.1129649841
 20
537.6664656496
 30
0.0
 11
959.430991246
 21
529.8512665481
 31
0.0
  0
LINE
  5
3E4
330
1F
100
AcDbEntity
  8
0
100
AcDbLine
 10
959.430991246
 20
-98.4052673842
 30
0.0
 11
960.1129649841
 21
-106.2204664858
 31
0.0
  0
LINE
  5
3E5
330
1F
100
AcDbEntity
  8
0
100
AcDbLine
 10
964.3129649841
 20
537.6664656496
 30
0.0
 11
963.630991246
 21
529.8512665481
 31
0.0
  0
LINE
  5
3E6
330
1F
100
AcDbEntity
  8
0
100
AcDbLine
 10
963.630991246
 20
-98.4052673842
 30
0.0
 11
964.3129649841
 21
-106.2204664858
 31
0.0
  0
ARC
  5
3E7
330
1F
100
AcDbEntity
  8
0
100
AcDbCircle
 10
959.181937687
 20
-98.4270004181
 30
0.0
 40
0.2500000000001021
100
AcDbArc
 50
4.9871394293
 51
90.0
  0
ARC
  5
3E8
330
1F
100
AcDbEntity
  8
0
100
AcDbCircle
 10
959.181937687
 20
529.8729995819
 30
0.0
 40
0.2500000000001137
100
AcDbArc
 50
270.0
 51
355.0128605707
  0
ARC
  5
3E9
330
1F
100
AcDbEntity
  8
0
100
AcDbCircle
 10
963.381937687
 20
-98.4270004181
 30
0.0
 40
0.2499999999999889
100
AcDbArc
 50
4.9871394293
 51
90.0
  0
ARC
  5
3EA
330
1F
100
AcDbEntity
  8
0
100
AcDbCircle
 10
963.381937687
 20
529.8729995819
 30
0.0
 40
0.2500000000001137
100
AcDbArc
 50
270.0
 51
355.0128605707
  0
LINE
  5
3EB
330
1F
100
AcDbEntity
  8
0
100
AcDbLine
 10
958.1110725251
 20
-98.1770004181
 30
0.0
 11
959.181937687
 21
-98.1770004181
 31
0.0
  0
LINE
  5
3EC
330
1F
100
AcDbEntity
  8
0
100
AcDbLine
 10
959.181937687
 20
529.6229995819
 30
0.0
 11
958.1110725251
 21
529.6229995819
 31
0.0
  0
LINE
  5
3ED
330
1F
100
AcDbEntity
  8
0
100
AcDbLine
 10
961.111072102
 20
-98.1770004181
 30
0.0
 11
963.381937687
 21
-98.1770004181
 31
0.0
  0
LINE
  5
3EE
330
1F
100
AcDbEntity
  8
0
100
AcDbLine
 10
963.381937687
 20
529.6229995819
 30
0.0
 11
961.111072102
 21
529.6229995819
 31
0.0
  0
ARC
  5
3EF
330
1F
100
AcDbEntity
  8
0
100
AcDbCircle
 10
1354.7110729482
 20
537.6229995819
 30
0.0
 40
0.5
100
AcDbArc
 50
4.9871394293
 51
180.0
  0
ARC
  5
3F0
330
1F
100
AcDbEntity
  8
0
100
AcDbCircle
 10
1354.7110729482
 20
-106.1770004181
 30
0.0
 40
0.5000000000002274
100
AcDbArc
 50
180.0
 51
355.0128605707
  0
ARC
  5
3F1
330
1F
100
AcDbEntity
  8
0
100
AcDbCircle
 10
1358.9110729482
 20
537.6229995819
 30
0.0
 40
0.5000000000002274
100
AcDbArc
 50
4.9871394293
 51
180.0
  0
ARC
  5
3F2
330
1F
100
AcDbEntity
  8
0
100
AcDbCircle
 10
1358.9110729482
 20
-106.1770004181
 30
0.0
 40
0.5000000000002274
100
AcDbArc
 50
180.0
 51
355.0128605707
  0
LINE
  5
3F3
330
1F
100
AcDbEntity
  8
0
100
AcDbLine
 10
1355.2091800661
 20
-106.2204664858
 30
0.0
 11
1355.8911538042
 21
-98.4052673842
 31
0.0
  0
LINE
  5
3F4
330
1F
100
AcDbEntity
  8
0
100
AcDbLine
 10
1355.8911538042
 20
529.8512665481
 30
0.0
 11
1355.2091800661
 21
537.6664656496
 31
0.0
  0
LINE
  5
3F5
330
1F
100
AcDbEntity
  8
0
100
AcDbLine
 10
1359.4091800661
 20
-106.2204664858
 30
0.0
 11
1360.0911538042
 21
-98.4052673842
 31
0.0
  0
LINE
  5
3F6
330
1F
100
AcDbEntity
  8
0
100
AcDbLine
 10
1360.0911538042
 20
529.8512665481
 30
0.0
 11
1359.4091800661
 21
537.6664656496
 31
0.0
  0
ARC
  5
3F7
330
1F
100
AcDbEntity
  8
0
100
AcDbCircle
 10
1356.1402073632
 20
529.8729995819
 30
0.0
 40
0.25
100
AcDbArc
 50
184.9871394293
 51
270.0
  0
ARC
  5
3F8
330
1F
100
AcDbEntity
  8
0
100
AcDbCircle
 10
1356.1402073632
 20
-98.4270004181
 30
0.0
 40
0.2499999999999877
100
AcDbArc
 50
90.0
 51
175.0128605707
  0
ARC
  5
3F9
330
1F
100
AcDbEntity
  8
0
100
AcDbCircle
 10
1360.3402073632
 20
529.8729995819
 30
0.0
 40
0.25
100
AcDbArc
 50
184.9871394293
 51
270.0
  0
ARC
  5
3FA
330
1F
100
AcDbEntity
  8
0
100
AcDbCircle
 10
1360.3402073632
 20
-98.4270004181
 30
0.0
 40
0.2499999999998579
100
AcDbArc
 50
90.0
 51
175.0128605707
  0
LINE
  5
3FB
330
1F
100
AcDbEntity
  8
0
100
AcDbLine
 10
1358.4110729482
 20
529.6229995819
 30
0.0
 11
1356.1402073632
 21
529.6229995819
 31
0.0
  0
LINE
  5
3FC
330
1F
100
AcDbEntity
  8
0
100
AcDbLine
 10
1356.1402073632
 20
-98.1770004181
 30
0.0
 11
1358.4110729482
 21
-98.1770004181
 31
0.0
  0
LINE
  5
3FD
330
1F
100
AcDbEntity
  8
0
100
AcDbLine
 10
1361.4110725251
 20
529.6229995819
 30
0.0
 11
1360.3402073632
 21
529.6229995819
 31
0.0
  0
LINE
  5
3FE
330
1F
100
AcDbEntity
  8
0
100
AcDbLine
 10
1360.3402073632
 20
-98.1770004181
 30
0.0
 11
1361.4110725251
 21
-98.1770004181
 31
0.0
  0
LINE
  5
3FF
330
1F
100
AcDbEntity
  8
0
100
AcDbLine
 10
1343.172883898
 20
530.8729481815
 30
0.0
 11
1294.1110725251
 21
530.8729481815
 31
0.0
  0
LINE
  5
400
330
1F
100
AcDbEntity
  8
0
100
AcDbLine
 10
1294.1110725251
 20
-99.4269490176
 30
0.0
 11
1343.172883898
 21
-99.4269490176
 31
0.0
  0
LINE
  5
401
330
1F
100
AcDbEntity
  8
0
100
AcDbLine
 10
1343.172883898
 20
-99.4269490176
 30
0.0
 11
1344.9383892155
 21
-97.6614437001
 31
0.0
  0
LINE
  5
402
330
1F
100
AcDbEntity
  8
0
100
AcDbLine
 10
1344.9383892155
 20
529.107442864
 30
0.0
 11
1343.172883898
 21
530.8729481815
 31
0.0
  0
LINE
  5
403
330
1F
100
AcDbEntity
  8
0
100
AcDbLine
 10
1366.1110725251
 20
530.7229995819
 30
0.0
 11
1361.4110725251
 21
530.7229995819
 31
0.0
  0
LINE
  5
404
330
1F
100
AcDbEntity
  8
0
100
AcDbLine
 10
1361.4110725251
 20
-99.2770004181
 30
0.0
 11
1366.1110725251
 21
-99.2770004181
 31
0.0
  0
ARC
  5
405
330
1F
100
AcDbEntity
  8
0
100
AcDbCircle
 10
1366.1110740965
 20
529.4229995819
 30
0.0
 40
1.300000000004542
100
AcDbArc
 50
0.0
 51
90.0000692571
  0
ARC
  5
406
330
1F
100
AcDbEntity
  8
0
100
AcDbCircle
 10
1366.1110740965
 20
-97.9770004181
 30
0.0
 40
1.300000000004729
100
AcDbArc
 50
269.9999307429
 51
0.0
  0
LINE
  5
407
330
1F
100
AcDbEntity
  8
0
100
AcDbLine
 10
1367.4110740965
 20
-97.9770004181
 30
0.0
 11
1367.4110740965
 21
529.4229995819
 31
0.0
  0
LINE
  5
408
330
1F
100
AcDbEntity
  8
0
100
AcDbLine
 10
1344.9383892155
 20
-97.6614437001
 30
0.0
 11
1351.8839612441
 21
-95.6762456044
 31
0.0
  0
LINE
  5
409
330
1F
100
AcDbEntity
  8
0
100
AcDbLine
 10
1351.8839612441
 20
527.1222447683
 30
0.0
 11
1344.9383892155
 21
529.107442864
 31
0.0
  0
LINE
  5
40A
330
1F
100
AcDbEntity
  8
0
100
AcDbLine
 10
1354.2110729482
 20
527.1222447683
 30
0.0
 11
1351.8839612441
 21
527.1222447683
 31
0.0
  0
LINE
  5
40B
330
1F
100
AcDbEntity
  8
0
100
AcDbLine
 10
1351.8839612441
 20
-95.6762456044
 30
0.0
 11
1354.2110729482
 21
-95.6762456044
 31
0.0
  0
LINE
  5
40C
330
1F
100
AcDbEntity
  8
0
100
AcDbLine
 10
976.3492611523
 20
530.8729481815
 30
0.0
 11
974.5837558347
 21
529.107442864
 31
0.0
  0
LINE
  5
40D
330
1F
100
AcDbEntity
  8
0
100
AcDbLine
 10
974.5837558347
 20
-97.6614437001
 30
0.0
 11
976.3492611523
 21
-99.4269490176
 31
0.0
  0
LINE
  5
40E
330
1F
100
AcDbEntity
  8
0
100
AcDbLine
 10
976.3492611523
 20
-99.4269490176
 30
0.0
 11
1025.4110725251
 21
-99.4269490176
 31
0.0
  0
LINE
  5
40F
330
1F
100
AcDbEntity
  8
0
100
AcDbLine
 10
1025.4110725251
 20
530.8729481815
 30
0.0
 11
976.3492611523
 21
530.8729481815
 31
0.0
  0
ARC
  5
410
330
1F
100
AcDbEntity
  8
0
100
AcDbCircle
 10
953.4110709537
 20
-97.9770004181
 30
0.0
 40
1.300000000004684
100
AcDbArc
 50
180.0
 51
270.0000692571
  0
ARC
  5
411
330
1F
100
AcDbEntity
  8
0
100
AcDbCircle
 10
953.4110709537
 20
529.4229995819
 30
0.0
 40
1.300000000004656
100
AcDbArc
 50
89.9999307429
 51
180.0
  0
LINE
  5
412
330
1F
100
AcDbEntity
  8
0
100
AcDbLine
 10
952.1110709537
 20
529.4229995819
 30
0.0
 11
952.1110709537
 21
-97.9770004181
 31
0.0
  0
LINE
  5
413
330
1F
100
AcDbEntity
  8
0
100
AcDbLine
 10
953.4110725251
 20
-99.2770004181
 30
0.0
 11
958.1110725251
 21
-99.2770004181
 31
0.0
  0
LINE
  5
414
330
1F
100
AcDbEntity
  8
0
100
AcDbLine
 10
958.1110725251
 20
530.7229995819
 30
0.0
 11
953.4110725251
 21
530.7229995819
 31
0.0
  0
LINE
  5
415
330
1F
100
AcDbEntity
  8
0
100
AcDbLine
 10
974.5837558347
 20
529.107442864
 30
0.0
 11
967.6381838061
 21
527.1222447683
 31
0.0
  0
LINE
  5
416
330
1F
100
AcDbEntity
  8
0
100
AcDbLine
 10
967.6381838061
 20
-95.6762456044
 30
0.0
 11
974.5837558347
 21
-97.6614437001
 31
0.0
  0
LINE
  5
417
330
1F
100
AcDbEntity
  8
0
100
AcDbLine
 10
965.311072102
 20
-95.6762456044
 30
0.0
 11
967.6381838061
 21
-95.6762456044
 31
0.0
  0
LINE
  5
418
330
1F
100
AcDbEntity
  8
0
100
AcDbLine
 10
967.6381838061
 20
527.1222447683
 30
0.0
 11
965.311072102
 21
527.1222447683
 31
0.0
  0
LINE
  5
419
330
1F
100
AcDbEntity
  8
0
100
AcDbLine
 10
1324.414373384
 20
-143.894767371
 30
0.0
 11
1372.3433055721
 21
-191.8236995592
 31
0.0
  0
LINE
  5
41A
330
1F
100
AcDbEntity
  8
0
100
AcDbLine
 10
1323.3537132122
 20
-144.9554275428
 30
0.0
 11
1371.2826454004
 21
-192.884359731
 31
0.0
  0
LINE
  5
41B
330
1F
100
AcDbEntity
  8
0
100
AcDbLine
 10
1295.5933055721
 20
-182.144767371
 30
0.0
 11
1296.6539657439
 21
-181.0841071993
 31
0.0
  0
LINE
  5
41C
330
1F
100
AcDbEntity
  8
0
100
AcDbLine
 10
1296.6539657439
 20
-181.0841071993
 30
0.0
 11
1300.1894996499
 21
-184.6196411052
 31
0.0
  0
LINE
  5
41D
330
1F
100
AcDbEntity
  8
0
100
AcDbLine
 10
1299.1288394781
 20
-185.680301277
 30
0.0
 11
1295.5933055721
 21
-182.144767371
 31
0.0
  0
LINE
  5
41E
330
1F
100
AcDbEntity
  8
0
100
AcDbLine
 10
1375.8788394781
 20
-195.3592334651
 30
0.0
 11
1374.8181793063
 21
-196.4198936369
 31
0.0
  0
LINE
  5
41F
330
1F
100
AcDbEntity
  8
0
100
AcDbLine
 10
1372.3433055721
 20
-191.8236995592
 30
0.0
 11
1375.8788394781
 21
-195.3592334651
 31
0.0
  0
LINE
  5
420
330
1F
100
AcDbEntity
  8
0
100
AcDbLine
 10
1374.8181793063
 20
-196.4198936369
 30
0.0
 11
1371.2826454004
 21
-192.884359731
 31
0.0
  0
LINE
  5
421
330
1F
100
AcDbEntity
  8
0
100
AcDbLine
 10
1331.618431838
 20
-216.0485732933
 30
0.0
 11
1300.1894996499
 21
-184.6196411052
 31
0.0
  0
LINE
  5
422
330
1F
100
AcDbEntity
  8
0
100
AcDbLine
 10
1330.5577716662
 20
-217.1092334651
 30
0.0
 11
1299.1288394781
 21
-185.680301277
 31
0.0
  0
LINE
  5
423
330
1F
100
AcDbEntity
  8
0
100
AcDbLine
 10
1319.8181793063
 20
-141.4198936369
 30
0.0
 11
1320.8788394781
 21
-140.3592334651
 31
0.0
  0
LINE
  5
424
330
1F
100
AcDbEntity
  8
0
100
AcDbLine
 10
1320.8788394781
 20
-140.3592334651
 30
0.0
 11
1324.414373384
 21
-143.894767371
 31
0.0
  0
LINE
  5
425
330
1F
100
AcDbEntity
  8
0
100
AcDbLine
 10
1323.3537132122
 20
-144.9554275428
 30
0.0
 11
1319.8181793063
 21
-141.4198936369
 31
0.0
  0
LINE
  5
426
330
1F
100
AcDbEntity
  8
0
100
AcDbLine
 10
1331.618431838
 20
-216.0485732933
 30
0.0
 11
1335.1539657439
 21
-219.5841071993
 31
0.0
  0
LINE
  5
427
330
1F
100
AcDbEntity
  8
0
100
AcDbLine
 10
1335.1539657439
 20
-219.5841071993
 30
0.0
 11
1334.0933055721
 21
-220.644767371
 31
0.0
  0
LINE
  5
428
330
1F
100
AcDbEntity
  8
0
100
AcDbLine
 10
1334.0933055721
 20
-220.644767371
 30
0.0
 11
1330.5577716662
 21
-217.1092334651
 31
0.0
  0
LINE
  5
429
330
1F
100
AcDbEntity
  8
0
100
AcDbLine
 10
1335.1539657439
 20
-219.5841071993
 30
0.0
 11
1335.8610725251
 21
-218.8770004181
 31
0.0
  0
LINE
  5
42A
330
1F
100
AcDbEntity
  8
0
100
AcDbLine
 10
1297.3610725251
 20
-180.3770004181
 30
0.0
 11
1296.6539657439
 21
-181.0841071993
 31
0.0
  0
LINE
  5
42B
330
1F
100
AcDbEntity
  8
0
100
AcDbLine
 10
1319.8181793063
 20
-141.4198936369
 30
0.0
 11
1319.1110725251
 21
-142.1270004181
 31
0.0
  0
LINE
  5
42C
330
1F
100
AcDbEntity
  8
0
100
AcDbLine
 10
1374.1110725251
 20
-197.1270004181
 30
0.0
 11
1374.8181793063
 21
-196.4198936369
 31
0.0
  0
LINE
  5
42D
330
1F
100
AcDbEntity
  8
0
100
AcDbLine
 10
1297.3610725251
 20
-177.1270004181
 30
0.0
 11
1297.3610725251
 21
-180.3770004181
 31
0.0
  0
LINE
  5
42E
330
1F
100
AcDbEntity
  8
0
100
AcDbLine
 10
1296.6110725251
 20
-177.1270004181
 30
0.0
 11
1297.3610725251
 21
-177.1270004181
 31
0.0
  0
LINE
  5
42F
330
1F
100
AcDbEntity
  8
0
100
AcDbLine
 10
1319.1110725251
 20
-142.1270004181
 30
0.0
 11
1296.6110725251
 21
-142.1270004181
 31
0.0
  0
LINE
  5
430
330
1F
100
AcDbEntity
  8
0
100
AcDbLine
 10
1335.8610725251
 20
-218.8770004181
 30
0.0
 11
1339.1110725251
 21
-218.8770004181
 31
0.0
  0
CIRCLE
  5
431
330
1F
100
AcDbEntity
  8
0
100
AcDbCircle
 10
1331.636198791
 20
-184.6018741522
 30
0.0
 40
15.49999999999997
  0
LINE
  5
432
330
1F
100
AcDbEntity
  8
0
100
AcDbLine
 10
1339.1110725251
 20
-218.8770004181
 30
0.0
 11
1339.1110725251
 21
-219.6270004181
 31
0.0
  0
LINE
  5
433
330
1F
100
AcDbEntity
  8
0
100
AcDbLine
 10
1374.1110725251
 20
-219.6270004181
 30
0.0
 11
1374.1110725251
 21
-197.1270004181
 31
0.0
  0
LINE
  5
434
330
1F
100
AcDbEntity
  8
0
100
AcDbLine
 10
1339.1110725251
 20
-222.1270004181
 30
0.0
 11
1339.1110725251
 21
-219.6270004181
 31
0.0
  0
LINE
  5
435
330
1F
100
AcDbEntity
  8
0
100
AcDbLine
 10
1374.1110725251
 20
-219.6270004181
 30
0.0
 11
1374.1110725251
 21
-222.1270004181
 31
0.0
  0
LINE
  5
436
330
1F
100
AcDbEntity
  8
0
100
AcDbLine
 10
1294.1110725251
 20
-142.1270004181
 30
0.0
 11
1296.6110725251
 21
-142.1270004181
 31
0.0
  0
LINE
  5
437
330
1F
100
AcDbEntity
  8
0
100
AcDbLine
 10
1296.6110725251
 20
-177.1270004181
 30
0.0
 11
1294.1110725251
 21
-177.1270004181
 31
0.0
  0
LINE
  5
438
330
1F
100
AcDbEntity
  8
0
100
AcDbLine
 10
947.1788394781
 20
-191.8236995592
 30
0.0
 11
995.1077716662
 21
-143.894767371
 31
0.0
  0
LINE
  5
439
330
1F
100
AcDbEntity
  8
0
100
AcDbLine
 10
948.2394996499
 20
-192.884359731
 30
0.0
 11
996.168431838
 21
-144.9554275428
 31
0.0
  0
LINE
  5
43A
330
1F
100
AcDbEntity
  8
0
100
AcDbLine
 10
944.7039657439
 20
-196.4198936369
 30
0.0
 11
943.6433055721
 21
-195.3592334651
 31
0.0
  0
LINE
  5
43B
330
1F
100
AcDbEntity
  8
0
100
AcDbLine
 10
943.6433055721
 20
-195.3592334651
 30
0.0
 11
947.1788394781
 21
-191.8236995592
 31
0.0
  0
LINE
  5
43C
330
1F
100
AcDbEntity
  8
0
100
AcDbLine
 10
948.2394996499
 20
-192.884359731
 30
0.0
 11
944.7039657439
 21
-196.4198936369
 31
0.0
  0
LINE
  5
43D
330
1F
100
AcDbEntity
  8
0
100
AcDbLine
 10
998.6433055721
 20
-140.3592334651
 30
0.0
 11
999.7039657439
 21
-141.4198936369
 31
0.0
  0
LINE
  5
43E
330
1F
100
AcDbEntity
  8
0
100
AcDbLine
 10
995.1077716662
 20
-143.894767371
 30
0.0
 11
998.6433055721
 21
-140.3592334651
 31
0.0
  0
LINE
  5
43F
330
1F
100
AcDbEntity
  8
0
100
AcDbLine
 10
999.7039657439
 20
-141.4198936369
 30
0.0
 11
996.168431838
 21
-144.9554275428
 31
0.0
  0
LINE
  5
440
330
1F
100
AcDbEntity
  8
0
100
AcDbLine
 10
1020.3933055721
 20
-185.680301277
 30
0.0
 11
988.964373384
 21
-217.1092334651
 31
0.0
  0
LINE
  5
441
330
1F
100
AcDbEntity
  8
0
100
AcDbLine
 10
1019.3326454004
 20
-184.6196411052
 30
0.0
 11
987.9037132122
 21
-216.0485732933
 31
0.0
  0
LINE
  5
442
330
1F
100
AcDbEntity
  8
0
100
AcDbLine
 10
985.4288394781
 20
-220.644767371
 30
0.0
 11
984.3681793063
 21
-219.5841071993
 31
0.0
  0
LINE
  5
443
330
1F
100
AcDbEntity
  8
0
100
AcDbLine
 10
988.964373384
 20
-217.1092334651
 30
0.0
 11
985.4288394781
 21
-220.644767371
 31
0.0
  0
LINE
  5
444
330
1F
100
AcDbEntity
  8
0
100
AcDbLine
 10
984.3681793063
 20
-219.5841071993
 30
0.0
 11
987.9037132122
 21
-216.0485732933
 31
0.0
  0
LINE
  5
445
330
1F
100
AcDbEntity
  8
0
100
AcDbLine
 10
1022.8681793063
 20
-181.0841071993
 30
0.0
 11
1023.9288394781
 21
-182.144767371
 31
0.0
  0
LINE
  5
446
330
1F
100
AcDbEntity
  8
0
100
AcDbLine
 10
1023.9288394781
 20
-182.144767371
 30
0.0
 11
1020.3933055721
 21
-185.680301277
 31
0.0
  0
LINE
  5
447
330
1F
100
AcDbEntity
  8
0
100
AcDbLine
 10
1019.3326454004
 20
-184.6196411052
 30
0.0
 11
1022.8681793063
 21
-181.0841071993
 31
0.0
  0
LINE
  5
448
330
1F
100
AcDbEntity
  8
0
100
AcDbLine
 10
944.7039657439
 20
-196.4198936369
 30
0.0
 11
945.4110725251
 21
-197.1270004181
 31
0.0
  0
LINE
  5
449
330
1F
100
AcDbEntity
  8
0
100
AcDbLine
 10
1000.4110725251
 20
-142.1270004181
 30
0.0
 11
999.7039657439
 21
-141.4198936369
 31
0.0
  0
LINE
  5
44A
330
1F
100
AcDbEntity
  8
0
100
AcDbLine
 10
1022.8681793063
 20
-181.0841071993
 30
0.0
 11
1022.1610725251
 21
-180.3770004181
 31
0.0
  0
LINE
  5
44B
330
1F
100
AcDbEntity
  8
0
100
AcDbLine
 10
983.6610725251
 20
-218.8770004181
 30
0.0
 11
984.3681793063
 21
-219.5841071993
 31
0.0
  0
LINE
  5
44C
330
1F
100
AcDbEntity
  8
0
100
AcDbLine
 10
980.4110725251
 20
-218.8770004181
 30
0.0
 11
983.6610725251
 21
-218.8770004181
 31
0.0
  0
LINE
  5
44D
330
1F
100
AcDbEntity
  8
0
100
AcDbLine
 10
980.4110725251
 20
-219.6270004181
 30
0.0
 11
980.4110725251
 21
-218.8770004181
 31
0.0
  0
LINE
  5
44E
330
1F
100
AcDbEntity
  8
0
100
AcDbLine
 10
945.4110725251
 20
-197.1270004181
 30
0.0
 11
945.4110725251
 21
-219.6270004181
 31
0.0
  0
LINE
  5
44F
330
1F
100
AcDbEntity
  8
0
100
AcDbLine
 10
1022.9110725251
 20
-142.1270004181
 30
0.0
 11
1000.4110725251
 21
-142.1270004181
 31
0.0
  0
LINE
  5
450
330
1F
100
AcDbEntity
  8
0
100
AcDbLine
 10
1022.1610725251
 20
-177.1270004181
 30
0.0
 11
1022.9110725251
 21
-177.1270004181
 31
0.0
  0
LINE
  5
451
330
1F
100
AcDbEntity
  8
0
100
AcDbLine
 10
1022.1610725251
 20
-180.3770004181
 30
0.0
 11
1022.1610725251
 21
-177.1270004181
 31
0.0
  0
CIRCLE
  5
452
330
1F
100
AcDbEntity
  8
0
100
AcDbCircle
 10
987.8859462593
 20
-184.6018741522
 30
0.0
 40
15.5
  0
LINE
  5
453
330
1F
100
AcDbEntity
  8
0
100
AcDbLine
 10
980.4110725251
 20
-219.6270004181
 30
0.0
 11
980.4110725251
 21
-222.1270004181
 31
0.0
  0
LINE
  5
454
330
1F
100
AcDbEntity
  8
0
100
AcDbLine
 10
945.4110725251
 20
-222.1270004181
 30
0.0
 11
945.4110725251
 21
-219.6270004181
 31
0.0
  0
LINE
  5
455
330
1F
100
AcDbEntity
  8
0
100
AcDbLine
 10
1022.9110725251
 20
-142.1270004181
 30
0.0
 11
1025.4110725251
 21
-142.1270004181
 31
0.0
  0
LINE
  5
456
330
1F
100
AcDbEntity
  8
0
100
AcDbLine
 10
1025.4110725251
 20
-177.1270004181
 30
0.0
 11
1022.9110725251
 21
-177.1270004181
 31
0.0
  0
LINE
  5
457
330
1F
100
AcDbEntity
  8
0
100
AcDbLine
 10
1394.2610725251
 20
-237.1270004181
 30
0.0
 11
1394.2610725251
 21
-234.6270004181
 31
0.0
  0
LINE
  5
458
330
1F
100
AcDbEntity
  8
0
100
AcDbLine
 10
1394.2610725251
 20
-237.1270004181
 30
0.0
 11
925.2610725251
 21
-237.1270004181
 31
0.0
  0
LINE
  5
459
330
1F
100
AcDbEntity
  8
0
100
AcDbLine
 10
925.2610725251
 20
-237.1270004181
 30
0.0
 11
925.2610725251
 21
-234.6270004181
 31
0.0
  0
LINE
  5
45A
330
1F
100
AcDbEntity
  8
0
100
AcDbLine
 10
1394.2610725251
 20
-234.6270004181
 30
0.0
 11
1394.2610725251
 21
-224.6270004181
 31
0.0
  0
LINE
  5
45B
330
1F
100
AcDbEntity
  8
0
100
AcDbLine
 10
925.2610725251
 20
-234.6270004181
 30
0.0
 11
925.2610725251
 21
-224.6270004181
 31
0.0
  0
LINE
  5
45C
330
1F
100
AcDbEntity
  8
0
100
AcDbLine
 10
1394.2610725251
 20
-222.1270004181
 30
0.0
 11
1292.2610725251
 21
-222.1270004181
 31
0.0
  0
LINE
  5
45D
330
1F
100
AcDbEntity
  8
0
100
AcDbLine
 10
1027.2610725251
 20
-222.1270004181
 30
0.0
 11
925.2610725251
 21
-222.1270004181
 31
0.0
  0
LINE
  5
45E
330
1F
100
AcDbEntity
  8
0
100
AcDbLine
 10
1394.2610725251
 20
-224.6270004181
 30
0.0
 11
1394.2610725251
 21
-222.1270004181
 31
0.0
  0
LINE
  5
45F
330
1F
100
AcDbEntity
  8
0
100
AcDbLine
 10
925.2610725251
 20
-224.6270004181
 30
0.0
 11
925.2610725251
 21
-222.1270004181
 31
0.0
  0
LINE
  5
460
330
1F
100
AcDbEntity
  8
0
100
AcDbLine
 10
1160.8610725251
 20
653.9729995819
 30
0.0
 11
1158.6610725251
 21
653.9729995819
 31
0.0
  0
LINE
  5
461
330
1F
100
AcDbEntity
  8
0
100
AcDbLine
 10
1263.7110725251
 20
653.9729995819
 30
0.0
 11
1261.5110725251
 21
653.9729995819
 31
0.0
  0
LINE
  5
462
330
1F
100
AcDbEntity
  8
0
100
AcDbLine
 10
1058.0110725251
 20
653.9729995819
 30
0.0
 11
1055.8110725251
 21
653.9729995819
 31
0.0
  0
LINE
  5
463
330
1F
100
AcDbEntity
  8
0
100
AcDbLine
 10
1018.0110725251
 20
653.9729995819
 30
0.0
 11
1015.8110725251
 21
653.9729995819
 31
0.0
  0
LINE
  5
464
330
1F
100
AcDbEntity
  8
0
100
AcDbLine
 10
1303.7110725251
 20
653.9729995819
 30
0.0
 11
1301.5110725251
 21
653.9729995819
 31
0.0
  0
LINE
  5
465
330
1F
100
AcDbEntity
  8
0
100
AcDbLine
 10
1027.1110725251
 20
643.4729995819
 30
0.0
 11
1027.1110725251
 21
-189.1270004181
 31
0.0
  0
LINE
  5
466
330
1F
100
AcDbEntity
  8
0
100
AcDbLine
 10
1294.1110725251
 20
643.4729995819
 30
0.0
 11
1294.1110725251
 21
-189.1270004181
 31
0.0
  0
LINE
  5
467
330
1F
100
AcDbEntity
  8
0
100
AcDbLine
 10
1221.2610725252
 20
-217.8137154042
 30
0.0
 11
1221.2610725252
 21
-217.3270004181
 31
0.0
  0
LINE
  5
468
330
1F
100
AcDbEntity
  8
0
100
AcDbLine
 10
1228.7744388007
 20
-217.3270004181
 30
0.0
 11
1228.3874730628
 21
-217.3270004181
 31
0.0
  0
LINE
  5
469
330
1F
100
AcDbEntity
  8
0
100
AcDbLine
 10
1226.5813985607
 20
-217.3270004181
 30
0.0
 11
1221.2610725252
 21
-217.3270004181
 31
0.0
  0
LINE
  5
46A
330
1F
100
AcDbEntity
  8
0
100
AcDbLine
 10
1221.2610725252
 20
-217.3270004181
 30
0.0
 11
1220.082167837
 21
-217.3270004181
 31
0.0
  0
LINE
  5
46B
330
1F
100
AcDbEntity
  8
0
100
AcDbLine
 10
1027.2610725251
 20
-219.1270004181
 30
0.0
 11
1027.2610725251
 21
-225.1270004181
 31
0.0
  0
LINE
  5
46C
330
1F
100
AcDbEntity
  8
0
100
AcDbLine
 10
1292.2610725251
 20
-219.1270004181
 30
0.0
 11
1027.2610725251
 21
-219.1270004181
 31
0.0
  0
LINE
  5
46D
330
1F
100
AcDbEntity
  8
0
100
AcDbLine
 10
1292.2610725251
 20
-219.1270004181
 30
0.0
 11
1292.2610725251
 21
-225.1270004181
 31
0.0
  0
LINE
  5
46E
330
1F
100
AcDbEntity
  8
0
100
AcDbLine
 10
1292.2610725251
 20
-225.1270004181
 30
0.0
 11
1027.2610725251
 21
-225.1270004181
 31
0.0
  0
LINE
  5
46F
330
1F
100
AcDbEntity
  8
0
100
AcDbLine
 10
1027.2610725251
 20
643.4729995819
 30
0.0
 11
1027.2610725251
 21
-219.1270004181
 31
0.0
  0
LINE
  5
470
330
1F
100
AcDbEntity
  8
0
100
AcDbLine
 10
1292.2610725251
 20
-219.1270004181
 30
0.0
 11
1292.2610725251
 21
643.4729995819
 31
0.0
  0
LINE
  5
471
330
1F
100
AcDbEntity
  8
0
100
AcDbLine
 10
1226.2040645221
 20
-219.1270004181
 30
0.0
 11
1292.2610725251
 21
-219.1270004181
 31
0.0
  0
ARC
  5
472
330
1F
100
AcDbEntity
  8
0
100
AcDbCircle
 10
1223.3317831989
 20
-211.1270004181
 30
0.0
 40
8.49999999999863
100
AcDbArc
 50
289.7499227956
 51
250.2500772044
  0
LINE
  5
473
330
1F
100
AcDbEntity
  8
0
100
AcDbLine
 10
1027.2610725251
 20
-219.1270004181
 30
0.0
 11
1220.4595018756
 21
-219.1270004181
 31
0.0
  0
LINE
  5
474
330
1F
100
AcDbEntity
  8
0
100
AcDbLine
 10
1308.4696511689
 20
650.7729995819
 30
0.0
 11
1308.4696511689
 21
643.4729995819
 31
0.0
  0
LINE
  5
475
330
1F
100
AcDbEntity
  8
0
100
AcDbLine
 10
1308.4696511689
 20
643.4729995819
 30
0.0
 11
1011.0524938813
 21
643.4729995819
 31
0.0
  0
LINE
  5
476
330
1F
100
AcDbEntity
  8
0
100
AcDbLine
 10
1011.0524938813
 20
643.4729995819
 30
0.0
 11
1011.0524938813
 21
650.7729995819
 31
0.0
  0
SPLINE
  5
477
330
1F
100
AcDbEntity
  8
0
100
AcDbSpline
210
0.0
220
0.0
230
1.0
 70
     8
 71
     3
 72
    12
 73
     8
 74
     0
 42
0.00000001
 43
0.00000001
 40
0.0
 40
0.0
 40
0.0
 40
0.0
 40
0.225540762255856
 40
0.4511342019104621
 40
0.6767278442586558
 40
0.9023212728363891
 40
1.0
 40
1.0
 40
1.0
 40
1.0
 10
1307.611072525107
 20
652.4729995819238
 30
0.0
 10
1307.675643034881
 20
652.4522418404645
 30
0.0
 10
1307.804799135544
 20
652.4107215093588
 30
0.0
 10
1307.998571813499
 20
652.0880854775551
 30
0.0
 10
1308.192237070449
 20
651.6174627171866
 30
0.0
 10
1308.349673315614
 20
651.1461056208088
 30
0.0
 10
1308.441811141756
 20
650.8595762455093
 30
0.0
 10
1308.46965116887
 20
650.7729995819236
 30
0.0
  0
LINE
  5
478
330
1F
100
AcDbEntity
  8
0
100
AcDbLine
 10
1011.9110725251
 20
652.4729995819
 30
0.0
 11
1307.6110725251
 21
652.4729995819
 31
0.0
  0
SPLINE
  5
479
330
1F
100
AcDbEntity
  8
0
100
AcDbSpline
210
0.0
220
0.0
230
1.0
 70
     8
 71
     3
 72
    12
 73
     8
 74
     0
 42
0.00000001
 43
0.00000001
 40
0.0
 40
0.0
 40
0.0
 40
0.0
 40
0.2255407622558533
 40
0.4511342019104584
 40
0.6767278442586527
 40
0.9023212728364064
 40
0.9999999999999999
 40
0.9999999999999999
 40
0.9999999999999999
 40
0.9999999999999999
 10
1011.052493881345
 20
650.7729995819236
 30
0.0
 10
1011.117064391118
 20
650.9737801081645
 30
0.0
 10
1011.246220491781
 20
651.3753880550337
 30
0.0
 10
1011.439993169736
 20
651.903547771138
 30
0.0
 10
1011.633658426687
 20
652.2887050778094
 30
0.0
 10
1011.791094671851
 20
652.4556597347935
 30
0.0
 10
1011.883232497993
 20
652.4689759908927
 30
0.0
 10
1011.911072525107
 20
652.4729995819235
 30
0.0
  0
SPLINE
  5
47A
330
1F
100
AcDbEntity
  8
0
100
AcDbSpline
210
0.0
220
0.0
230
1.0
 70
     8
 71
     3
 72
    11
 73
     7
 74
     0
 42
0.00000001
 43
0.00000001
 40
0.0
 40
0.0
 40
0.0
 40
0.0
 40
0.0712594150274889
 40
0.482266399726444
 40
0.893273349718279
 40
1.0
 40
1.0
 40
1.0
 40
1.0
 10
1011.323514750291
 20
651.5691268031292
 30
0.0
 10
1011.303883790542
 20
651.5588084304377
 30
0.0
 10
1011.171026226702
 20
651.4889761921713
 30
0.0
 10
1011.009372923361
 20
651.2430484236473
 30
0.0
 10
1010.916837991399
 20
650.9673343586508
 30
0.0
 10
1010.912057902326
 20
650.8062133849397
 30
0.0
 10
1010.911072525107
 20
650.7729995819236
 30
0.0
  0
LINE
  5
47B
330
1F
100
AcDbEntity
  8
0
100
AcDbLine
 10
1010.9110725251
 20
650.7729995819
 30
0.0
 11
1010.2110725251
 21
650.7729995819
 31
0.0
  0
SPLINE
  5
47C
330
1F
100
AcDbEntity
  8
0
100
AcDbSpline
210
0.0
220
0.0
230
1.0
 70
     8
 71
     3
 72
    12
 73
     8
 74
     0
 42
0.00000001
 43
0.00000001
 40
0.0
 40
0.0
 40
0.0
 40
0.0
 40
0.2255407622558931
 40
0.4511342019104846
 40
0.6767278442586498
 40
0.9023212728363647
 40
1.0
 40
1.0
 40
1.0
 40
1.0
 10
1011.911072525107
 20
652.4729995819235
 30
0.0
 10
1011.710291998866
 20
652.4522418404644
 30
0.0
 10
1011.308684051997
 20
652.410721509359
 30
0.0
 10
1010.780524335893
 20
652.0880854775551
 30
0.0
 10
1010.395367029222
 20
651.6174627171866
 30
0.0
 10
1010.228412372237
 20
651.1461056208088
 30
0.0
 10
1010.215096116138
 20
650.8595762455093
 30
0.0
 10
1010.211072525107
 20
650.7729995819236
 30
0.0
  0
LINE
  5
47D
330
1F
100
AcDbEntity
  8
0
100
AcDbLine
 10
1308.6110725251
 20
650.7729995819
 30
0.0
 11
1309.3110725251
 21
650.7729995819
 31
0.0
  0
SPLINE
  5
47E
330
1F
100
AcDbEntity
  8
0
100
AcDbSpline
210
0.0
220
0.0
230
1.0
 70
     8
 71
     3
 72
    10
 73
     6
 74
     0
 42
0.00000001
 43
0.00000001
 40
0.0
 40
0.0
 40
0.0
 40
0.0
 40
0.3460734631000073
 40
0.7655709923071397
 40
1.0
 40
1.0
 40
1.0
 40
1.0
 10
1308.611072525107
 20
650.7729995819237
 30
0.0
 10
1308.600623051281
 20
650.8778023669062
 30
0.0
 10
1308.577507109437
 20
651.1096432349601
 30
0.0
 10
1308.429406479567
 20
651.3946656395216
 30
0.0
 10
1308.266641378643
 20
651.5106794455475
 30
0.0
 10
1308.208290999902
 20
651.5522697464307
 30
0.0
  0
SPLINE
  5
47F
330
1F
100
AcDbEntity
  8
0
100
AcDbSpline
210
0.0
220
0.0
230
1.0
 70
     8
 71
     3
 72
    12
 73
     8
 74
     0
 42
0.00000001
 43
0.00000001
 40
0.0
 40
0.0
 40
0.0
 40
0.0
 40
0.2255407622558276
 40
0.4511342019104204
 40
0.6767278442586063
 40
0.9023212728363338
 40
0.9999999999999999
 40
0.9999999999999999
 40
0.9999999999999999
 40
0.9999999999999999
 10
1309.311072525107
 20
650.7729995819236
 30
0.0
 10
1309.290314783648
 20
650.9737801081645
 30
0.0
 10
1309.248794452543
 20
651.3753880550337
 30
0.0
 10
1308.926158420739
 20
651.9035477711382
 30
0.0
 10
1308.455535660371
 20
652.2887050778095
 30
0.0
 10
1307.984178563993
 20
652.4556597347936
 30
0.0
 10
1307.697649188693
 20
652.4689759908928
 30
0.0
 10
1307.611072525107
 20
652.4729995819238
 30
0.0
  0
LINE
  5
480
330
1F
100
AcDbEntity
  8
0
100
AcDbLine
 10
1010.2110725251
 20
643.4729995819
 30
0.0
 11
1010.9110725251
 21
643.4729995819
 31
0.0
  0
LINE
  5
481
330
1F
100
AcDbEntity
  8
0
100
AcDbLine
 10
1010.2110725251
 20
650.7729995819
 30
0.0
 11
1010.2110725251
 21
643.4729995819
 31
0.0
  0
LINE
  5
482
330
1F
100
AcDbEntity
  8
0
100
AcDbLine
 10
1010.9110725251
 20
650.7729995819
 30
0.0
 11
1010.9110725251
 21
643.4729995819
 31
0.0
  0
LINE
  5
483
330
1F
100
AcDbEntity
  8
0
100
AcDbLine
 10
1309.3110725251
 20
643.4729995819
 30
0.0
 11
1308.6110725251
 21
643.4729995819
 31
0.0
  0
LINE
  5
484
330
1F
100
AcDbEntity
  8
0
100
AcDbLine
 10
1308.6110725251
 20
643.4729995819
 30
0.0
 11
1308.6110725251
 21
650.7729995819
 31
0.0
  0
LINE
  5
485
330
1F
100
AcDbEntity
  8
0
100
AcDbLine
 10
1309.3110725251
 20
643.4729995819
 30
0.0
 11
1309.3110725251
 21
650.7729995819
 31
0.0
  0
ARC
  5
486
330
1F
100
AcDbEntity
  8
0
100
AcDbCircle
 10
1222.4593572392
 20
-204.1815794125
 30
0.0
 40
0.7500000000002124
100
AcDbArc
 50
190.2304077269
 51
4.0886341048
  0
ARC
  5
487
330
1F
100
AcDbEntity
  8
0
100
AcDbCircle
 10
1223.3317831989
 20
-211.1270004181
 30
0.0
 40
7.000000000000033
100
AcDbArc
 50
103.301294538
 51
91.0177472937
  0
CIRCLE
  5
488
330
1F
100
AcDbEntity
  8
0
100
AcDbCircle
 10
1223.3317831989
 20
-211.1270004181
 30
0.0
 40
7.999999999999952
  0
LINE
  5
489
330
1F
100
AcDbEntity
  8
0
100
AcDbLine
 10
1218.2153154695
 20
-217.7901751637
 30
0.0
 11
1217.8891275971
 21
-217.3270004181
 31
0.0
  0
LINE
  5
48A
330
1F
100
AcDbEntity
  8
0
100
AcDbLine
 10
1026.0110725251
 20
-219.1270004181
 30
0.0
 11
1027.2610725251
 21
-219.1270004181
 31
0.0
  0
SPLINE
  5
48B
330
1F
100
AcDbEntity
  8
0
100
AcDbSpline
210
0.0
220
0.0
230
1.0
 70
     8
 71
     3
 72
    11
 73
     7
 74
     0
 42
0.00000001
 43
0.00000001
 40
0.0
 40
0.0
 40
0.0
 40
0.0
 40
0.2450334515709712
 40
0.4998973412929192
 40
0.7547871358977529
 40
0.9999999999999999
 40
0.9999999999999999
 40
0.9999999999999999
 40
0.9999999999999999
 10
1024.211072525111
 20
-217.3270004180783
 30
0.0
 10
1024.358052080263
 20
-217.558120917209
 30
0.0
 10
1024.657907828013
 20
-218.0296341832262
 30
0.0
 10
1025.110901720062
 20
-218.6306750950171
 30
0.0
 10
1025.564002924721
 20
-219.0477827228579
 30
0.0
 10
1025.863984192976
 20
-219.1009373651319
 30
0.0
 10
1026.011072525112
 20
-219.127000418078
 30
0.0
  0
LINE
  5
48C
330
1F
100
AcDbEntity
  8
0
100
AcDbLine
 10
1295.3110725251
 20
-217.3270004181
 30
0.0
 11
1295.3110725251
 21
-189.1270004181
 31
0.0
  0
LINE
  5
48D
330
1F
100
AcDbEntity
  8
0
100
AcDbLine
 10
1024.2110725251
 20
-217.3270004181
 30
0.0
 11
1024.2110725251
 21
-189.1270004181
 31
0.0
  0
LINE
  5
48E
330
1F
100
AcDbEntity
  8
0
100
AcDbLine
 10
1027.2610725251
 20
-189.1270004181
 30
0.0
 11
1024.2110725251
 21
-189.1270004181
 31
0.0
  0
LINE
  5
48F
330
1F
100
AcDbEntity
  8
0
100
AcDbLine
 10
1295.3110725251
 20
-189.1270004181
 30
0.0
 11
1292.2610725251
 21
-189.1270004181
 31
0.0
  0
ARC
  5
490
330
1F
100
AcDbEntity
  8
0
100
AcDbCircle
 10
1223.3317831989
 20
-211.1270004181
 30
0.0
 40
8.25000000000023
100
AcDbArc
 50
311.2782040134
 51
228.7217959866
  0
SPLINE
  5
491
330
1F
100
AcDbEntity
  8
0
100
AcDbSpline
210
0.0
220
0.0
230
1.0
 70
     8
 71
     3
 72
    12
 73
     8
 74
     0
 42
0.00000001
 43
0.00000001
 40
0.0
 40
0.0
 40
0.0
 40
0.0
 40
0.1182000456165353
 40
0.2349502975938844
 40
0.4678012831726513
 40
0.7110280321309052
 40
1.0
 40
1.0
 40
1.0
 40
1.0
 10
1219.304066724248
 20
-218.3270004180783
 30
0.0
 10
1219.270441725286
 20
-218.3216294399658
 30
0.0
 10
1219.203604157911
 20
-218.3109533619718
 30
0.0
 10
1219.033924536439
 20
-218.2093490739122
 30
0.0
 10
1218.763937462049
 20
-218.0011619432411
 30
0.0
 10
1218.346698336545
 20
-217.6929228266164
 30
0.0
 10
1218.050147856906
 20
-217.4557694066129
 30
0.0
 10
1217.889127597058
 20
-217.327000418078
 30
0.0
  0
SPLINE
  5
492
330
1F
100
AcDbEntity
  8
0
100
AcDbSpline
210
0.0
220
0.0
230
1.0
 70
     8
 71
     3
 72
    11
 73
     7
 74
     0
 42
0.00000001
 43
0.00000001
 40
0.0
 40
0.0
 40
0.0
 40
0.0
 40
0.2475522032093611
 40
0.5024226380967678
 40
0.7573126004817288
 40
1.0
 40
1.0
 40
1.0
 40
1.0
 10
1293.511072525111
 20
-219.1270004180781
 30
0.0
 10
1293.659580178727
 20
-219.1004401193061
 30
0.0
 10
1293.960985725274
 20
-219.0465343361837
 30
0.0
 10
1294.415476642206
 20
-218.6258168479347
 30
0.0
 10
1294.867084350899
 20
-218.025167291624
 30
0.0
 10
1295.165516041767
 20
-217.5558865028963
 30
0.0
 10
1295.311072525111
 20
-217.3270004180783
 30
0.0
  0
LINE
  5
493
330
1F
100
AcDbEntity
  8
0
100
AcDbLine
 10
1292.2610725251
 20
-219.1270004181
 30
0.0
 11
1293.5110725251
 21
-219.1270004181
 31
0.0
  0
LINE
  5
494
330
1F
100
AcDbEntity
  8
0
100
AcDbLine
 10
1228.7744388007
 20
-217.3270004181
 30
0.0
 11
1228.4782854658
 21
-217.7481494622
 31
0.0
  0
SPLINE
  5
495
330
1F
100
AcDbEntity
  8
0
100
AcDbSpline
210
0.0
220
0.0
230
1.0
 70
     8
 71
     3
 72
    12
 73
     8
 74
     0
 42
0.00000001
 43
0.00000001
 40
0.0
 40
0.0
 40
0.0
 40
0.0
 40
0.2816423769576566
 40
0.5312978824072844
 40
0.7657186381427913
 40
0.8824598236483813
 40
1.0
 40
1.0
 40
1.0
 40
1.0
 10
1228.77443880069
 20
-217.3270004180783
 30
0.0
 10
1228.617599619673
 20
-217.452374321751
 30
0.0
 10
1228.321733899277
 20
-217.6888830824356
 30
0.0
 10
1227.904863889572
 20
-217.9996628310009
 30
0.0
 10
1227.632987220204
 20
-218.2107098347309
 30
0.0
 10
1227.461546030475
 20
-218.3112316589809
 30
0.0
 10
1227.393592375317
 20
-218.3217322280334
 30
0.0
 10
1227.3594996735
 20
-218.3270004180781
 30
0.0
  0
SPLINE
  5
496
330
1F
100
AcDbEntity
  8
0
100
AcDbSpline
210
0.0
220
0.0
230
1.0
 70
     8
 71
     3
 72
    11
 73
     7
 74
     0
 42
0.00000001
 43
0.00000001
 40
0.0
 40
0.0
 40
0.0
 40
0.0
 40
0.2500000000001117
 40
0.5000000000001122
 40
0.7500000000001209
 40
0.9999999999999999
 40
0.9999999999999999
 40
0.9999999999999999
 40
0.9999999999999999
 10
1026.011072525112
 20
-219.1270004180777
 30
0.0
 10
1025.77520584626
 20
-219.0999435870605
 30
0.0
 10
1025.303472488558
 20
-219.0458299250259
 30
0.0
 10
1024.708491601783
 20
-218.6295813414055
 30
0.0
 10
1024.292243018163
 20
-218.0346004546316
 30
0.0
 10
1024.238129356129
 20
-217.5628670969289
 30
0.0
 10
1024.211072525112
 20
-217.3270004180778
 30
0.0
  0
SPLINE
  5
497
330
1F
100
AcDbEntity
  8
0
100
AcDbSpline
210
0.0
220
0.0
230
1.0
 70
     8
 71
     3
 72
    11
 73
     7
 74
     0
 42
0.00000001
 43
0.00000001
 40
0.0
 40
0.0
 40
0.0
 40
0.0
 40
0.249999999999945
 40
0.4999999999999735
 40
0.7499999999999621
 40
1.0
 40
1.0
 40
1.0
 40
1.0
 10
1295.311072525112
 20
-217.3270004180776
 30
0.0
 10
1295.284015694094
 20
-217.5628670969288
 30
0.0
 10
1295.22990203206
 20
-218.0346004546313
 30
0.0
 10
1294.81365344844
 20
-218.6295813414057
 30
0.0
 10
1294.218672561665
 20
-219.0458299250258
 30
0.0
 10
1293.746939203963
 20
-219.0999435870603
 30
0.0
 10
1293.511072525112
 20
-219.1270004180775
 30
0.0
  0
LINE
  5
498
330
1F
100
AcDbEntity
  8
0
100
AcDbLine
 10
1227.3594996735
 20
-218.3270004181
 30
0.0
 11
1226.8189023537
 21
-218.3270004181
 31
0.0
  0
LINE
  5
499
330
1F
100
AcDbEntity
  8
0
100
AcDbLine
 10
1219.844664044
 20
-218.3270004181
 30
0.0
 11
1219.3040667242
 21
-218.3270004181
 31
0.0
  0
LINE
  5
49A
330
1F
100
AcDbEntity
  8
0
100
AcDbLine
 10
1022.7110725251
 20
-194.9034123864
 30
0.0
 11
1022.7110725251
 21
-195.2270004181
 31
0.0
  0
LINE
  5
49B
330
1F
100
AcDbEntity
  8
0
100
AcDbLine
 10
1022.7110725251
 20
-193.0270004181
 30
0.0
 11
1022.7110725251
 21
-194.9034123864
 31
0.0
  0
LINE
  5
49C
330
1F
100
AcDbEntity
  8
0
100
AcDbLine
 10
1296.8110725251
 20
-195.2270004181
 30
0.0
 11
1296.8110725251
 21
-193.0270004181
 31
0.0
  0
LWPOLYLINE
  5
49D
330
1F
100
AcDbEntity
  8
0
100
AcDbPolyline
 90
        3
 70
   128
 43
0.0
 10
1027.2610725251
 20
-176.9494953979
 10
1027.2298560099
 20
-175.944693785
 10
1027.2610725251
 20
-175.7045054382
  0
LWPOLYLINE
  5
49E
330
1F
100
AcDbEntity
  8
0
100
AcDbPolyline
 90
        3
 70
   128
 43
0.0
 10
1027.2610725251
 20
55.0790760306
 10
1027.2298560099
 20
56.0838776436
 10
1027.2610725251
 20
56.3240659904
  0
LWPOLYLINE
  5
49F
330
1F
100
AcDbEntity
  8
0
100
AcDbPolyline
 90
        3
 70
   128
 43
0.0
 10
1027.2610725251
 20
-60.9352096837
 10
1027.2298560099
 20
-59.9304080707
 10
1027.2610725251
 20
-59.6902197239
  0
LWPOLYLINE
  5
4A0
330
1F
100
AcDbEntity
  8
0
100
AcDbPolyline
 90
        3
 70
   128
 43
0.0
 10
1027.2610725251
 20
171.093361745
 10
1027.2298560099
 20
172.0981633578
 10
1027.2610725251
 20
172.3383517046
  0
LWPOLYLINE
  5
4A1
330
1F
100
AcDbEntity
  8
0
100
AcDbPolyline
 90
        3
 70
   128
 43
0.0
 10
1027.2610725251
 20
287.1076474592
 10
1027.2298560099
 20
288.1124490721
 10
1027.2610725251
 20
288.3526374189
  0
LWPOLYLINE
  5
4A2
330
1F
100
AcDbEntity
  8
0
100
AcDbPolyline
 90
        3
 70
   128
 43
0.0
 10
1027.2610725251
 20
403.1219331735
 10
1027.2298560099
 20
404.1267347864
 10
1027.2610725251
 20
404.3669231332
  0
LWPOLYLINE
  5
4A3
330
1F
100
AcDbEntity
  8
0
100
AcDbPolyline
 90
        3
 70
   128
 43
0.0
 10
1027.2610725251
 20
519.1362188878
 10
1027.21161576
 20
519.8238056228
 10
1027.2610725251
 20
520.3812088475
  0
LWPOLYLINE
  5
4A4
330
1F
100
AcDbEntity
  8
0
100
AcDbPolyline
 90
        3
 70
   128
 43
0.0
 10
1027.2610725251
 20
635.1505046021
 10
1027.2160259098
 20
635.9694986002
 10
1027.2610725251
 20
636.3954945617
  0
LINE
  5
4A5
330
1F
100
AcDbEntity
  8
0
100
AcDbLine
 10
1295.6110725234
 20
543.7131088382
 30
0.0
 11
1295.6110725234
 21
544.3229995821
 31
0.0
  0
LINE
  5
4A6
330
1F
100
AcDbEntity
  8
0
100
AcDbLine
 10
1295.6110725234
 20
542.1229995821
 30
0.0
 11
1295.6110725234
 21
543.7131088382
 31
0.0
  0
LINE
  5
4A7
330
1F
100
AcDbEntity
  8
0
100
AcDbLine
 10
1295.6110725233
 20
499.2783760746
 30
0.0
 11
1295.6110725233
 21
500.4463193303
 31
0.0
  0
LINE
  5
4A8
330
1F
100
AcDbEntity
  8
0
100
AcDbLine
 10
1295.6110725233
 20
498.2463193303
 30
0.0
 11
1295.6110725233
 21
499.2783760746
 31
0.0
  0
LINE
  5
4A9
330
1F
100
AcDbEntity
  8
0
100
AcDbLine
 10
1023.9110725269
 20
216.8229996145
 30
0.0
 11
1023.9110725269
 21
214.6229996145
 31
0.0
  0
LINE
  5
4AA
330
1F
100
AcDbEntity
  8
0
100
AcDbLine
 10
1295.6110725233
 20
378.8652091778
 30
0.0
 11
1295.6110725233
 21
380.5729996048
 31
0.0
  0
LINE
  5
4AB
330
1F
100
AcDbEntity
  8
0
100
AcDbLine
 10
1295.6110725233
 20
378.3729996048
 30
0.0
 11
1295.6110725233
 21
378.8652091778
 31
0.0
  0
LINE
  5
4AC
330
1F
100
AcDbEntity
  8
0
100
AcDbLine
 10
1295.6110725233
 20
214.7382189704
 30
0.0
 11
1295.6110725233
 21
216.8229996145
 31
0.0
  0
LINE
  5
4AD
330
1F
100
AcDbEntity
  8
0
100
AcDbLine
 10
1295.6110725233
 20
214.6229996145
 30
0.0
 11
1295.6110725233
 21
214.7382189704
 31
0.0
  0
LINE
  5
4AE
330
1F
100
AcDbEntity
  8
0
100
AcDbLine
 10
1023.9110725269
 20
544.3229995821
 30
0.0
 11
1023.9110725269
 21
542.1229995821
 31
0.0
  0
LINE
  5
4AF
330
1F
100
AcDbEntity
  8
0
100
AcDbLine
 10
1023.9110725269
 20
500.4463193303
 30
0.0
 11
1023.9110725269
 21
498.2463193303
 31
0.0
  0
LINE
  5
4B0
330
1F
100
AcDbEntity
  8
0
100
AcDbLine
 10
1023.9110725269
 20
380.5729996048
 30
0.0
 11
1023.9110725269
 21
378.3729996048
 31
0.0
  0
LINE
  5
4B1
330
1F
100
AcDbEntity
  8
0
100
AcDbLine
 10
1295.6110725233
 20
-69.0003201411
 30
0.0
 11
1295.6110725233
 21
-66.8003201411
 31
0.0
  0
LINE
  5
4B2
330
1F
100
AcDbEntity
  8
0
100
AcDbLine
 10
1295.6110725233
 20
-112.8770004179
 30
0.0
 11
1295.6110725233
 21
-110.6770004179
 31
0.0
  0
LINE
  5
4B3
330
1F
100
AcDbEntity
  8
0
100
AcDbLine
 10
1023.9110725269
 20
53.0729996121
 30
0.0
 11
1023.9110725269
 21
50.8729996121
 31
0.0
  0
LINE
  5
4B4
330
1F
100
AcDbEntity
  8
0
100
AcDbLine
 10
1023.9110725269
 20
-111.2868911618
 30
0.0
 11
1023.9110725269
 21
-112.8770004179
 31
0.0
  0
LINE
  5
4B5
330
1F
100
AcDbEntity
  8
0
100
AcDbLine
 10
1023.9110725269
 20
-110.6770004179
 30
0.0
 11
1023.9110725269
 21
-111.2868911618
 31
0.0
  0
LINE
  5
4B6
330
1F
100
AcDbEntity
  8
0
100
AcDbLine
 10
1295.6110725233
 20
50.8729996121
 30
0.0
 11
1295.6110725233
 21
53.0729996121
 31
0.0
  0
LINE
  5
4B7
330
1F
100
AcDbEntity
  8
0
100
AcDbLine
 10
1023.9110725269
 20
-66.9834827527
 30
0.0
 11
1023.9110725269
 21
-69.0003201411
 31
0.0
  0
LINE
  5
4B8
330
1F
100
AcDbEntity
  8
0
100
AcDbLine
 10
1023.9110725269
 20
-66.8003201411
 30
0.0
 11
1023.9110725269
 21
-66.9834827527
 31
0.0
  0
LINE
  5
4B9
330
1F
100
AcDbEntity
  8
0
100
AcDbLine
 10
961.111072102
 20
536.8917481782
 30
0.0
 11
961.111072102
 21
537.6229995819
 31
0.0
  0
LINE
  5
4BA
330
1F
100
AcDbEntity
  8
0
100
AcDbLine
 10
961.111072102
 20
-106.1770004181
 30
0.0
 11
961.111072102
 21
536.8917481782
 31
0.0
  0
LINE
  5
4BB
330
1F
100
AcDbEntity
  8
0
100
AcDbLine
 10
965.311072102
 20
536.8917481782
 30
0.0
 11
965.311072102
 21
537.6229995819
 31
0.0
  0
LINE
  5
4BC
330
1F
100
AcDbEntity
  8
0
100
AcDbLine
 10
965.311072102
 20
-106.1770004181
 30
0.0
 11
965.311072102
 21
536.8917481782
 31
0.0
  0
LINE
  5
4BD
330
1F
100
AcDbEntity
  8
0
100
AcDbLine
 10
1354.2110729482
 20
537.6229995819
 30
0.0
 11
1354.2110729482
 21
-106.1770004181
 31
0.0
  0
LINE
  5
4BE
330
1F
100
AcDbEntity
  8
0
100
AcDbLine
 10
1358.4110729482
 20
537.6229995819
 30
0.0
 11
1358.4110729482
 21
-106.1770004181
 31
0.0
  0
LINE
  5
4BF
330
1F
100
AcDbEntity
  8
0
100
AcDbLine
 10
1343.172883898
 20
185.9526132266
 30
0.0
 11
1343.172883898
 21
-99.4269490176
 31
0.0
  0
LINE
  5
4C0
330
1F
100
AcDbEntity
  8
0
100
AcDbLine
 10
1343.172883898
 20
530.8729481815
 30
0.0
 11
1343.172883898
 21
185.9526132266
 31
0.0
  0
LINE
  5
4C1
330
1F
100
AcDbEntity
  8
0
100
AcDbLine
 10
1344.9383892155
 20
186.1193902661
 30
0.0
 11
1344.9383892155
 21
-97.6614437001
 31
0.0
  0
LINE
  5
4C2
330
1F
100
AcDbEntity
  8
0
100
AcDbLine
 10
1344.9383892155
 20
529.107442864
 30
0.0
 11
1344.9383892155
 21
186.1193902661
 31
0.0
  0
LINE
  5
4C3
330
1F
100
AcDbEntity
  8
0
100
AcDbLine
 10
1361.4110725251
 20
185.9667780004
 30
0.0
 11
1361.4110725251
 21
-99.2770004181
 31
0.0
  0
LINE
  5
4C4
330
1F
100
AcDbEntity
  8
0
100
AcDbLine
 10
1361.4110725251
 20
530.7229995819
 30
0.0
 11
1361.4110725251
 21
185.9667780004
 31
0.0
  0
LINE
  5
4C5
330
1F
100
AcDbEntity
  8
0
100
AcDbLine
 10
1351.8839612441
 20
186.3069204071
 30
0.0
 11
1351.8839612441
 21
-95.6762456044
 31
0.0
  0
LINE
  5
4C6
330
1F
100
AcDbEntity
  8
0
100
AcDbLine
 10
1351.8839612441
 20
527.1222447683
 30
0.0
 11
1351.8839612441
 21
186.3069204071
 31
0.0
  0
LINE
  5
4C7
330
1F
100
AcDbEntity
  8
0
100
AcDbLine
 10
976.3492611523
 20
185.9526132266
 30
0.0
 11
976.3492611523
 21
530.8729481815
 31
0.0
  0
LINE
  5
4C8
330
1F
100
AcDbEntity
  8
0
100
AcDbLine
 10
976.3492611523
 20
-99.4269490176
 30
0.0
 11
976.3492611523
 21
185.9526132266
 31
0.0
  0
LINE
  5
4C9
330
1F
100
AcDbEntity
  8
0
100
AcDbLine
 10
974.5837558347
 20
186.1193902661
 30
0.0
 11
974.5837558347
 21
529.107442864
 31
0.0
  0
LINE
  5
4CA
330
1F
100
AcDbEntity
  8
0
100
AcDbLine
 10
974.5837558347
 20
-97.6614437001
 30
0.0
 11
974.5837558347
 21
186.1193902661
 31
0.0
  0
LINE
  5
4CB
330
1F
100
AcDbEntity
  8
0
100
AcDbLine
 10
958.1110725251
 20
185.9667780004
 30
0.0
 11
958.1110725251
 21
530.7229995819
 31
0.0
  0
LINE
  5
4CC
330
1F
100
AcDbEntity
  8
0
100
AcDbLine
 10
958.1110725251
 20
-99.2770004181
 30
0.0
 11
958.1110725251
 21
185.9667780004
 31
0.0
  0
LINE
  5
4CD
330
1F
100
AcDbEntity
  8
0
100
AcDbLine
 10
967.6381838061
 20
186.3069204071
 30
0.0
 11
967.6381838061
 21
527.1222447683
 31
0.0
  0
LINE
  5
4CE
330
1F
100
AcDbEntity
  8
0
100
AcDbLine
 10
967.6381838061
 20
-95.6762456044
 30
0.0
 11
967.6381838061
 21
186.3069204071
 31
0.0
  0
CIRCLE
  5
4CF
330
1F
100
AcDbEntity
  8
0
100
AcDbCircle
 10
1114.3610725251
 20
-135.3194771791
 30
0.0
 40
30.5500000000003
  0
CIRCLE
  5
4D0
330
1F
100
AcDbEntity
  8
0
100
AcDbCircle
 10
1181.3610725251
 20
569.6757995819
 30
0.0
 40
30.54999999999995
  0
CIRCLE
  5
4D1
330
1F
100
AcDbEntity
  8
0
100
AcDbCircle
 10
1114.3610725251
 20
-135.3194771791
 30
0.0
 40
31.64999999999991
  0
CIRCLE
  5
4D2
330
1F
100
AcDbEntity
  8
0
100
AcDbCircle
 10
1181.3610725251
 20
569.6757995819
 30
0.0
 40
31.64999999999995
  0
LINE
  5
4D3
330
1F
100
AcDbEntity
  8
0
100
AcDbLine
 10
1081.8610725251
 20
-116.5555934304
 30
0.0
 11
1081.8610725251
 21
-154.0833609278
 31
0.0
  0
LINE
  5
4D4
330
1F
100
AcDbEntity
  8
0
100
AcDbLine
 10
1114.3610725251
 20
-97.7917096818
 30
0.0
 11
1081.8610725251
 21
-116.5555934304
 31
0.0
  0
LINE
  5
4D5
330
1F
100
AcDbEntity
  8
0
100
AcDbLine
 10
1146.8610725251
 20
-116.5555934304
 30
0.0
 11
1114.3610725251
 21
-97.7917096818
 31
0.0
  0
LINE
  5
4D6
330
1F
100
AcDbEntity
  8
0
100
AcDbLine
 10
1146.8610725251
 20
-154.0833609278
 30
0.0
 11
1146.8610725251
 21
-116.5555934304
 31
0.0
  0
LINE
  5
4D7
330
1F
100
AcDbEntity
  8
0
100
AcDbLine
 10
1114.3610725251
 20
-172.8472446764
 30
0.0
 11
1146.8610725251
 21
-154.0833609278
 31
0.0
  0
LINE
  5
4D8
330
1F
100
AcDbEntity
  8
0
100
AcDbLine
 10
1081.8610725251
 20
-154.0833609278
 30
0.0
 11
1114.3610725251
 21
-172.8472446764
 31
0.0
  0
LINE
  5
4D9
330
1F
100
AcDbEntity
  8
0
100
AcDbLine
 10
1213.8610725251
 20
550.9119158333
 30
0.0
 11
1213.8610725251
 21
588.4396833306
 31
0.0
  0
LINE
  5
4DA
330
1F
100
AcDbEntity
  8
0
100
AcDbLine
 10
1181.3610725251
 20
532.1480320846
 30
0.0
 11
1213.8610725251
 21
550.9119158333
 31
0.0
  0
LINE
  5
4DB
330
1F
100
AcDbEntity
  8
0
100
AcDbLine
 10
1148.8610725251
 20
550.9119158333
 30
0.0
 11
1181.3610725251
 21
532.1480320846
 31
0.0
  0
LINE
  5
4DC
330
1F
100
AcDbEntity
  8
0
100
AcDbLine
 10
1148.8610725251
 20
588.4396833306
 30
0.0
 11
1148.8610725251
 21
550.9119158333
 31
0.0
  0
LINE
  5
4DD
330
1F
100
AcDbEntity
  8
0
100
AcDbLine
 10
1181.3610725251
 20
607.2035670793
 30
0.0
 11
1148.8610725251
 21
588.4396833306
 31
0.0
  0
LINE
  5
4DE
330
1F
100
AcDbEntity
  8
0
100
AcDbLine
 10
1213.8610725251
 20
588.4396833306
 30
0.0
 11
1181.3610725251
 21
607.2035670793
 31
0.0
  0
LINE
  5
4DF
330
1F
100
AcDbEntity
  8
0
100
AcDbLine
 10
1220.3610725251
 20
-206.3270004181
 30
0.0
 11
1218.3610725251
 21
-206.3270004181
 31
0.0
  0
LINE
  5
4E0
330
1F
100
AcDbEntity
  8
0
100
AcDbLine
 10
1223.3610725251
 20
-206.3270004181
 30
0.0
 11
1225.2834867636
 21
-204.4045861795
 31
0.0
  0
LINE
  5
4E1
330
1F
100
AcDbEntity
  8
0
100
AcDbLine
 10
1226.0757630934
 20
-203.6123098497
 30
0.0
 11
1226.2700854314
 21
-203.4179875117
 31
0.0
  0
LINE
  5
4E2
330
1F
100
AcDbEntity
  8
0
100
AcDbLine
 10
1223.3610725251
 20
-206.3270004181
 30
0.0
 11
1220.3610725251
 21
-206.3270004181
 31
0.0
  0
LINE
  5
4E3
330
1F
100
AcDbEntity
  8
0
100
AcDbLine
 10
1216.9269022476
 20
-216.3270004181
 30
0.0
 11
1217.2523095374
 21
-216.3270004181
 31
0.0
  0
LINE
  5
4E4
330
1F
100
AcDbEntity
  8
0
100
AcDbLine
 10
1216.8610725251
 20
-216.2448518595
 30
0.0
 11
1216.8610725251
 21
-215.8312435428
 31
0.0
  0
LINE
  5
4E5
330
1F
100
AcDbEntity
  8
0
100
AcDbLine
 10
1216.8610725251
 20
-213.7971883098
 30
0.0
 11
1216.8610725251
 21
-208.4568125264
 31
0.0
  0
LINE
  5
4E6
330
1F
100
AcDbEntity
  8
0
100
AcDbLine
 10
1216.8610725251
 20
-206.4227572933
 30
0.0
 11
1216.8610725251
 21
-206.0091489766
 31
0.0
  0
LINE
  5
4E7
330
1F
100
AcDbEntity
  8
0
100
AcDbLine
 10
1218.3610725251
 20
-216.055695519
 30
0.0
 11
1218.3610725251
 21
-206.1983053171
 31
0.0
  0
LINE
  5
4E8
330
1F
100
AcDbEntity
  8
0
100
AcDbLine
 10
1218.3610725251
 20
-204.8586644828
 30
0.0
 11
1218.3610725251
 21
-204.5425843165
 31
0.0
  0
LINE
  5
4E9
330
1F
100
AcDbEntity
  8
0
100
AcDbLine
 10
1218.3610725251
 20
-217.3953363534
 30
0.0
 11
1218.3610725251
 21
-217.6993028556
 31
0.0
  0
LINE
  5
4EA
330
1F
100
AcDbEntity
  8
0
100
AcDbLine
 10
1025.4110725251
 20
-189.1270004181
 30
0.0
 11
1025.4110725251
 21
643.4729995819
 31
0.0
  0
ENDSEC
  0
SECTION
  2
OBJECTS
  0
DICTIONARY
  5
C
330
0
100
AcDbDictionary
281
     1
  3
ACAD_GROUP
350
D
  3
ACAD_LAYOUT
350
1A
  3
ACAD_MLINESTYLE
350
17
  3
ACAD_PLOTSETTINGS
350
19
  3
ACAD_PLOTSTYLENAME
350
E
  3
ACAD_SCALELIST
350
47
  3
DWGPROPS
350
4EB
  0
DICTIONARY
  5
D
102
{ACAD_REACTORS
330
C
102
}
330
C
100
AcDbDictionary
281
     1
  0
DICTIONARY
  5
1A
102
{ACAD_REACTORS
330
C
102
}
330
C
100
AcDbDictionary
281
     1
  3
Layout1
350
1E
  3
Layout2
350
26
  3
Model
350
22
  0
DICTIONARY
  5
17
102
{ACAD_REACTORS
330
C
102
}
330
C
100
AcDbDictionary
281
     1
  3
Standard
350
18
  0
DICTIONARY
  5
19
102
{ACAD_REACTORS
330
C
102
}
330
C
100
AcDbDictionary
281
     1
  0
ACDBDICTIONARYWDFLT
  5
E
102
{ACAD_REACTORS
330
C
102
}
330
C
100
AcDbDictionary
281
     1
  3
Normal
350
F
100
AcDbDictionaryWithDefault
340
F
  0
DICTIONARY
  5
47
102
{ACAD_REACTORS
330
C
102
}
330
C
100
AcDbDictionary
281
     1
  3
A0
350
48
  3
A1
350
49
  3
A2
350
4A
  3
A3
350
4B
  3
A4
350
4C
  3
A5
350
4D
  3
A6
350
4E
  3
A7
350
4F
  3
A8
350
50
  3
A9
350
51
  3
B0
350
52
  3
B1
350
53
  3
B2
350
54
  3
B3
350
55
  3
B4
350
56
  3
B5
350
57
  3
B6
350
58
  3
B7
350
59
  3
B8
350
5A
  3
B9
350
5B
  3
C0
350
5C
  3
C1
350
5D
  3
C2
350
5E
  3
C3
350
5F
  3
C4
350
60
  3
C5
350
61
  3
C6
350
62
  3
C7
350
63
  3
C8
350
64
  3
C9
350
65
  3
D0
350
66
  3
D1
350
67
  3
D2
350
68
  0
XRECORD
  5
4EB
102
{ACAD_REACTORS
330
C
102
}
330
C
100
AcDbXrecord
280
     1
  1
DWGPROPS COOKIE
  2

  3

  4

  6

  7

  8
Karolis.Palepsaitis
  9

300
=
301
=
302
=
303
=
304
=
305
=
306
=
307
=
308
=
309
=
 40
0.0
 41
2459788.486648403
 42
2459788.486648958
  1

 90
        0
  0
LAYOUT
  5
1E
102
{ACAD_REACTORS
330
1A
102
}
330
1A
100
AcDbPlotSettings
  1

  2
none_device
  4

  6

 40
0.0
 41
0.0
 42
0.0
 43
0.0
 44
0.0
 45
0.0
 46
0.0
 47
0.0
 48
0.0
 49
0.0
140
0.0
141
0.0
142
1.0
143
1.0
 70
   688
 72
     1
 73
     0
 74
     5
  7

 75
    16
147
1.0
148
0.0
149
0.0
100
AcDbLayout
  1
Layout1
 70
     1
 71
     1
 10
0.0
 20
0.0
 11
420.0
 21
297.0
 12
0.0
 22
0.0
 32
0.0
 14
1.0000000000E+20
 24
1.0000000000E+20
 34
1.0000000000E+20
 15
-1.0000000000E+20
 25
-1.0000000000E+20
 35
-1.0000000000E+20
146
0.0
 13
0.0
 23
0.0
 33
0.0
 16
1.0
 26
0.0
 36
0.0
 17
0.0
 27
1.0
 37
0.0
 76
     0
330
1B
  0
LAYOUT
  5
26
102
{ACAD_REACTORS
330
1A
102
}
330
1A
100
AcDbPlotSettings
  1

  2
none_device
  4

  6

 40
0.0
 41
0.0
 42
0.0
 43
0.0
 44
0.0
 45
0.0
 46
0.0
 47
0.0
 48
0.0
 49
0.0
140
0.0
141
0.0
142
1.0
143
1.0
 70
   688
 72
     1
 73
     0
 74
     5
  7

 75
    16
147
1.0
148
0.0
149
0.0
100
AcDbLayout
  1
Layout2
 70
     1
 71
     2
 10
0.0
 20
0.0
 11
0.0
 21
0.0
 12
0.0
 22
0.0
 32
0.0
 14
0.0
 24
0.0
 34
0.0
 15
0.0
 25
0.0
 35
0.0
146
0.0
 13
0.0
 23
0.0
 33
0.0
 16
1.0
 26
0.0
 36
0.0
 17
0.0
 27
1.0
 37
0.0
 76
     0
330
23
  0
LAYOUT
  5
22
102
{ACAD_REACTORS
330
1A
102
}
330
1A
100
AcDbPlotSettings
  1

  2
none_device
  4
Letter_(8.50_x_11.00_Inches)
  6

 40
6.35
 41
6.35
 42
6.35000508
 43
6.35000508
 44
215.9
 45
279.4
 46
0.0
 47
0.0
 48
0.0
 49
0.0
140
0.0
141
0.0
142
1.0
143
1.0
 70
  1712
 72
     1
 73
     0
 74
     0
  7

 75
     0
147
1.0
148
0.0
149
0.0
100
AcDbLayout
  1
Model
 70
     1
 71
     0
 10
0.0
 20
0.0
 11
420.0
 21
297.0
 12
0.0
 22
0.0
 32
0.0
 14
0.0
 24
0.0
 34
0.0
 15
420.0
 25
297.0
 35
0.0
146
0.0
 13
0.0
 23
0.0
 33
0.0
 16
1.0
 26
0.0
 36
0.0
 17
0.0
 27
1.0
 37
0.0
 76
     0
330
1F
331
29
  0
MLINESTYLE
  5
18
102
{ACAD_REACTORS
330
17
102
}
330
17
100
AcDbMlineStyle
  2
Standard
 70
     0
  3

 62
   256
 51
90.0
 52
90.0
 71
     2
 49
0.5
 62
   256
  6
BYLAYER
 49
-0.5
 62
   256
  6
BYLAYER
  0
ACDBPLACEHOLDER
  5
F
102
{ACAD_REACTORS
330
E
102
}
330
E
  0
SCALE
  5
48
102
{ACAD_REACTORS
330
47
102
}
330
47
100
AcDbScale
 70
     0
300
1:1
140
1.0
141
1.0
290
     1
  0
SCALE
  5
49
102
{ACAD_REACTORS
330
47
102
}
330
47
100
AcDbScale
 70
     0
300
1:2
140
1.0
141
2.0
290
     0
  0
SCALE
  5
4A
102
{ACAD_REACTORS
330
47
102
}
330
47
100
AcDbScale
 70
     0
300
1:4
140
1.0
141
4.0
290
     0
  0
SCALE
  5
4B
102
{ACAD_REACTORS
330
47
102
}
330
47
100
AcDbScale
 70
     0
300
1:5
140
1.0
141
5.0
290
     0
  0
SCALE
  5
4C
102
{ACAD_REACTORS
330
47
102
}
330
47
100
AcDbScale
 70
     0
300
1:8
140
1.0
141
8.0
290
     0
  0
SCALE
  5
4D
102
{ACAD_REACTORS
330
47
102
}
330
47
100
AcDbScale
 70
     0
300
1:10
140
1.0
141
10.0
290
     0
  0
SCALE
  5
4E
102
{ACAD_REACTORS
330
47
102
}
330
47
100
AcDbScale
 70
     0
300
1:16
140
1.0
141
16.0
290
     0
  0
SCALE
  5
4F
102
{ACAD_REACTORS
330
47
102
}
330
47
100
AcDbScale
 70
     0
300
1:20
140
1.0
141
20.0
290
     0
  0
SCALE
  5
50
102
{ACAD_REACTORS
330
47
102
}
330
47
100
AcDbScale
 70
     0
300
1:30
140
1.0
141
30.0
290
     0
  0
SCALE
  5
51
102
{ACAD_REACTORS
330
47
102
}
330
47
100
AcDbScale
 70
     0
300
1:40
140
1.0
141
40.0
290
     0
  0
SCALE
  5
52
102
{ACAD_REACTORS
330
47
102
}
330
47
100
AcDbScale
 70
     0
300
1:50
140
1.0
141
50.0
290
     0
  0
SCALE
  5
53
102
{ACAD_REACTORS
330
47
102
}
330
47
100
AcDbScale
 70
     0
300
1:100
140
1.0
141
100.0
290
     0
  0
SCALE
  5
54
102
{ACAD_REACTORS
330
47
102
}
330
47
100
AcDbScale
 70
     0
300
2:1
140
2.0
141
1.0
290
     0
  0
SCALE
  5
55
102
{ACAD_REACTORS
330
47
102
}
330
47
100
AcDbScale
 70
     0
300
4:1
140
4.0
141
1.0
290
     0
  0
SCALE
  5
56
102
{ACAD_REACTORS
330
47
102
}
330
47
100
AcDbScale
 70
     0
300
8:1
140
8.0
141
1.0
290
     0
  0
SCALE
  5
57
102
{ACAD_REACTORS
330
47
102
}
330
47
100
AcDbScale
 70
     0
300
10:1
140
10.0
141
1.0
290
     0
  0
SCALE
  5
58
102
{ACAD_REACTORS
330
47
102
}
330
47
100
AcDbScale
 70
     0
300
100:1
140
100.0
141
1.0
290
     0
  0
SCALE
  5
59
102
{ACAD_REACTORS
330
47
102
}
330
47
100
AcDbScale
 70
     0
300
1/128" = 1'-0"
140
0.0078125
141
12.0
290
     0
  0
SCALE
  5
5A
102
{ACAD_REACTORS
330
47
102
}
330
47
100
AcDbScale
 70
     0
300
1/64" = 1'-0"
140
0.015625
141
12.0
290
     0
  0
SCALE
  5
5B
102
{ACAD_REACTORS
330
47
102
}
330
47
100
AcDbScale
 70
     0
300
1/32" = 1'-0"
140
0.03125
141
12.0
290
     0
  0
SCALE
  5
5C
102
{ACAD_REACTORS
330
47
102
}
330
47
100
AcDbScale
 70
     0
300
1/16" = 1'-0"
140
0.0625
141
12.0
290
     0
  0
SCALE
  5
5D
102
{ACAD_REACTORS
330
47
102
}
330
47
100
AcDbScale
 70
     0
300
3/32" = 1'-0"
140
0.09375
141
12.0
290
     0
  0
SCALE
  5
5E
102
{ACAD_REACTORS
330
47
102
}
330
47
100
AcDbScale
 70
     0
300
1/8" = 1'-0"
140
0.125
141
12.0
290
     0
  0
SCALE
  5
5F
102
{ACAD_REACTORS
330
47
102
}
330
47
100
AcDbScale
 70
     0
300
3/16" = 1'-0"
140
0.1875
141
12.0
290
     0
  0
SCALE
  5
60
102
{ACAD_REACTORS
330
47
102
}
330
47
100
AcDbScale
 70
     0
300
1/4" = 1'-0"
140
0.25
141
12.0
290
     0
  0
SCALE
  5
61
102
{ACAD_REACTORS
330
47
102
}
330
47
100
AcDbScale
 70
     0
300
3/8" = 1'-0"
140
0.375
141
12.0
290
     0
  0
SCALE
  5
62
102
{ACAD_REACTORS
330
47
102
}
330
47
100
AcDbScale
 70
     0
300
1/2" = 1'-0"
140
0.5
141
12.0
290
     0
  0
SCALE
  5
63
102
{ACAD_REACTORS
330
47
102
}
330
47
100
AcDbScale
 70
     0
300
3/4" = 1'-0"
140
0.75
141
12.0
290
     0
  0
SCALE
  5
64
102
{ACAD_REACTORS
330
47
102
}
330
47
100
AcDbScale
 70
     0
300
1" = 1'-0"
140
1.0
141
12.0
290
     0
  0
SCALE
  5
65
102
{ACAD_REACTORS
330
47
102
}
330
47
100
AcDbScale
 70
     0
300
1-1/2" = 1'-0"
140
1.5
141
12.0
290
     0
  0
SCALE
  5
66
102
{ACAD_REACTORS
330
47
102
}
330
47
100
AcDbScale
 70
     0
300
3" = 1'-0"
140
3.0
141
12.0
290
     0
  0
SCALE
  5
67
102
{ACAD_REACTORS
330
47
102
}
330
47
100
AcDbScale
 70
     0
300
6" = 1'-0"
140
6.0
141
12.0
290
     0
  0
SCALE
  5
68
102
{ACAD_REACTORS
330
47
102
}
330
47
100
AcDbScale
 70
     0
300
1'-0" = 1'-0"
140
12.0
141
12.0
290
     0
  0
ENDSEC
  0
EOF
