  0
SECTION
  2
HEADER
  9
$ACADVER
  1
AC1015
  9
$ACADMAINTVER
 70
     6
  9
$DWGCODEPAGE
  3
ANSI_1257
  9
$INSBASE
 10
0.0
 20
0.0
 30
0.0
  9
$EXTMIN
 10
0.0
 20
0.0
 30
0.0
  9
$EXTMAX
 10
420.0
 20
297.0
 30
0.0
  9
$LIMMIN
 10
0.0
 20
0.0
  9
$LIMMAX
 10
420.0
 20
297.0
  9
$ORTHOMODE
 70
     0
  9
$REGENMODE
 70
     1
  9
$FILLMODE
 70
     1
  9
$QTEXTMODE
 70
     0
  9
$MIRRTEXT
 70
     1
  9
$LTSCALE
 40
1.0
  9
$ATTMODE
 70
     1
  9
$TEXTSIZE
 40
5.6444444444
  9
$TRACEWID
 40
1.0
  9
$TEXTSTYLE
  7
Standard
  9
$CLAYER
  8
0
  9
$CELTYPE
  6
ByLayer
  9
$CECOLOR
 62
   256
  9
$CELTSCALE
 40
1.0
  9
$DISPSILH
 70
     0
  9
$DIMSCALE
 40
1.0
  9
$DIMASZ
 40
3.175
  9
$DIMEXO
 40
1.0
  9
$DIMDLI
 40
3.75
  9
$DIMRND
 40
0.0
  9
$DIMDLE
 40
0.0
  9
$DIMEXE
 40
1.0
  9
$DIMTP
 40
0.0
  9
$DIMTM
 40
0.0
  9
$DIMTXT
 40
5.6444444444
  9
$DIMCEN
 40
2.5
  9
$DIMTSZ
 40
0.0
  9
$DIMTOL
 70
     0
  9
$DIMLIM
 70
     0
  9
$DIMTIH
 70
     1
  9
$DIMTOH
 70
     1
  9
$DIMSE1
 70
     0
  9
$DIMSE2
 70
     0
  9
$DIMTAD
 70
     1
  9
$DIMZIN
 70
     0
  9
$DIMBLK
  1

  9
$DIMASO
 70
     1
  9
$DIMSHO
 70
     1
  9
$DIMPOST
  1

  9
$DIMAPOST
  1

  9
$DIMALT
 70
     0
  9
$DIMALTD
 70
     3
  9
$DIMALTF
 40
0.0393700787
  9
$DIMLFAC
 40
1.0
  9
$DIMTOFL
 70
     1
  9
$DIMTVP
 40
0.0
  9
$DIMTIX
 70
     0
  9
$DIMSOXD
 70
     0
  9
$DIMSAH
 70
     0
  9
$DIMBLK1
  1

  9
$DIMBLK2
  1

  9
$DIMSTYLE
  2
ISO-25
  9
$DIMCLRD
 70
     0
  9
$DIMCLRE
 70
     0
  9
$DIMCLRT
 70
     0
  9
$DIMTFAC
 40
1.0
  9
$DIMGAP
 40
1.524
  9
$DIMJUST
 70
     0
  9
$DIMSD1
 70
     0
  9
$DIMSD2
 70
     0
  9
$DIMTOLJ
 70
     0
  9
$DIMTZIN
 70
     0
  9
$DIMALTZ
 70
     0
  9
$DIMALTTZ
 70
     0
  9
$DIMUPT
 70
     0
  9
$DIMDEC
 70
     1
  9
$DIMTDEC
 70
     1
  9
$DIMALTU
 70
     2
  9
$DIMALTTD
 70
     3
  9
$DIMTXSTY
  7
Standard
  9
$DIMAUNIT
 70
     0
  9
$DIMADEC
 70
     1
  9
$DIMALTRND
 40
0.0
  9
$DIMAZIN
 70
     0
  9
$DIMDSEP
 70
    44
  9
$DIMATFIT
 70
     3
  9
$DIMFRAC
 70
     0
  9
$DIMLDRBLK
  1

  9
$DIMLUNIT
 70
     2
  9
$DIMLWD
 70
    -2
  9
$DIMLWE
 70
    -2
  9
$DIMTMOVE
 70
     0
  9
$LUNITS
 70
     2
  9
$LUPREC
 70
     1
  9
$SKETCHINC
 40
1.0
  9
$FILLETRAD
 40
0.0
  9
$AUNITS
 70
     0
  9
$AUPREC
 70
     1
  9
$MENU
  1
.
  9
$ELEVATION
 40
0.0
  9
$PELEVATION
 40
0.0
  9
$THICKNESS
 40
0.0
  9
$LIMCHECK
 70
     0
  9
$CHAMFERA
 40
0.0
  9
$CHAMFERB
 40
0.0
  9
$CHAMFERC
 40
0.0
  9
$CHAMFERD
 40
0.0
  9
$SKPOLY
 70
     0
  9
$TDCREATE
 40
2460243.576444201
  9
$TDUCREATE
 40
2460243.451444201
  9
$TDUPDATE
 40
2460243.576444329
  9
$TDUUPDATE
 40
2460243.451444329
  9
$TDINDWG
 40
0.0000000116
  9
$TDUSRTIMER
 40
0.0000000116
  9
$USRTIMER
 70
     1
  9
$ANGBASE
 50
0.0
  9
$ANGDIR
 70
     0
  9
$PDMODE
 70
     0
  9
$PDSIZE
 40
-1.0
  9
$PLINEWID
 40
0.0
  9
$SPLFRAME
 70
     0
  9
$SPLINETYPE
 70
     6
  9
$SPLINESEGS
 70
     8
  9
$HANDSEED
  5
1CF
  9
$SURFTAB1
 70
     6
  9
$SURFTAB2
 70
     6
  9
$SURFTYPE
 70
     6
  9
$SURFU
 70
     6
  9
$SURFV
 70
     6
  9
$UCSBASE
  2

  9
$UCSNAME
  2

  9
$UCSORG
 10
0.0
 20
0.0
 30
0.0
  9
$UCSXDIR
 10
1.0
 20
0.0
 30
0.0
  9
$UCSYDIR
 10
0.0
 20
1.0
 30
0.0
  9
$UCSORTHOREF
  2

  9
$UCSORTHOVIEW
 70
     0
  9
$UCSORGTOP
 10
0.0
 20
0.0
 30
0.0
  9
$UCSORGBOTTOM
 10
0.0
 20
0.0
 30
0.0
  9
$UCSORGLEFT
 10
0.0
 20
0.0
 30
0.0
  9
$UCSORGRIGHT
 10
0.0
 20
0.0
 30
0.0
  9
$UCSORGFRONT
 10
0.0
 20
0.0
 30
0.0
  9
$UCSORGBACK
 10
0.0
 20
0.0
 30
0.0
  9
$PUCSBASE
  2

  9
$PUCSNAME
  2

  9
$PUCSORG
 10
0.0
 20
0.0
 30
0.0
  9
$PUCSXDIR
 10
1.0
 20
0.0
 30
0.0
  9
$PUCSYDIR
 10
0.0
 20
1.0
 30
0.0
  9
$PUCSORTHOREF
  2

  9
$PUCSORTHOVIEW
 70
     0
  9
$PUCSORGTOP
 10
0.0
 20
0.0
 30
0.0
  9
$PUCSORGBOTTOM
 10
0.0
 20
0.0
 30
0.0
  9
$PUCSORGLEFT
 10
0.0
 20
0.0
 30
0.0
  9
$PUCSORGRIGHT
 10
0.0
 20
0.0
 30
0.0
  9
$PUCSORGFRONT
 10
0.0
 20
0.0
 30
0.0
  9
$PUCSORGBACK
 10
0.0
 20
0.0
 30
0.0
  9
$USERI1
 70
     0
  9
$USERI2
 70
     0
  9
$USERI3
 70
     0
  9
$USERI4
 70
     0
  9
$USERI5
 70
     0
  9
$USERR1
 40
0.0
  9
$USERR2
 40
0.0
  9
$USERR3
 40
0.0
  9
$USERR4
 40
0.0
  9
$USERR5
 40
0.0
  9
$WORLDVIEW
 70
     1
  9
$SHADEDGE
 70
     3
  9
$SHADEDIF
 70
    70
  9
$TILEMODE
 70
     1
  9
$MAXACTVP
 70
    64
  9
$PINSBASE
 10
0.0
 20
0.0
 30
0.0
  9
$PLIMCHECK
 70
     0
  9
$PEXTMIN
 10
1.0000000000E+20
 20
1.0000000000E+20
 30
1.0000000000E+20
  9
$PEXTMAX
 10
-1.0000000000E+20
 20
-1.0000000000E+20
 30
-1.0000000000E+20
  9
$PLIMMIN
 10
0.0
 20
0.0
  9
$PLIMMAX
 10
420.0
 20
297.0
  9
$UNITMODE
 70
     0
  9
$VISRETAIN
 70
     1
  9
$PLINEGEN
 70
     0
  9
$PSLTSCALE
 70
     1
  9
$TREEDEPTH
 70
  3020
  9
$CMLSTYLE
  2
Standard
  9
$CMLJUST
 70
     0
  9
$CMLSCALE
 40
20.0
  9
$PROXYGRAPHICS
 70
     1
  9
$MEASUREMENT
 70
     1
  9
$CELWEIGHT
370
    -1
  9
$ENDCAPS
280
     0
  9
$JOINSTYLE
280
     0
  9
$LWDISPLAY
290
     1
  9
$INSUNITS
 70
     4
  9
$HYPERLINKBASE
  1

  9
$STYLESHEET
  1

  9
$XEDIT
290
     1
  9
$CEPSNTYPE
380
     0
  9
$PSTYLEMODE
290
     1
  9
$FINGERPRINTGUID
  2
{c997b9d9-a116-4f1e-a82b-1f4afd384577}
  9
$VERSIONGUID
  2
{FAEB1C32-E019-11D5-929B-00C0DF256EC4}
  9
$EXTNAMES
290
     1
  9
$PSVPSCALE
 40
0.0
  9
$OLESTARTUP
290
     0
  0
ENDSEC
  0
SECTION
  2
CLASSES
  0
CLASS
  1
ACDBDICTIONARYWDFLT
  2
AcDbDictionaryWithDefault
  3
ObjectDBX Classes
 90
        0
280
     0
281
     0
  0
CLASS
  1
VISUALSTYLE
  2
AcDbVisualStyle
  3
ObjectDBX Classes
 90
     4095
280
     0
281
     0
  0
CLASS
  1
MATERIAL
  2
AcDbMaterial
  3
ObjectDBX Classes
 90
     1153
280
     0
281
     0
  0
CLASS
  1
SCALE
  2
AcDbScale
  3
ObjectDBX Classes
 90
     1153
280
     0
281
     0
  0
CLASS
  1
TABLESTYLE
  2
AcDbTableStyle
  3
ObjectDBX Classes
 90
     4095
280
     0
281
     0
  0
CLASS
  1
MLEADERSTYLE
  2
AcDbMLeaderStyle
  3
ACDB_MLEADERSTYLE_CLASS
 90
     4095
280
     0
281
     0
  0
CLASS
  1
SUN
  2
AcDbSun
  3
SCENEOE
 90
     1153
280
     0
281
     0
  0
CLASS
  1
ACDBPLACEHOLDER
  2
AcDbPlaceHolder
  3
ObjectDBX Classes
 90
        0
280
     0
281
     0
  0
CLASS
  1
LAYOUT
  2
AcDbLayout
  3
ObjectDBX Classes
 90
        0
280
     0
281
     0
  0
ENDSEC
  0
SECTION
  2
TABLES
  0
TABLE
  2
VPORT
  5
8
330
0
100
AcDbSymbolTable
 70
     1
  0
VPORT
  5
29
330
8
100
AcDbSymbolTableRecord
100
AcDbViewportTableRecord
  2
*Active
 70
     0
 10
0.0
 20
0.0
 11
1.0
 21
1.0
 12
210.0
 22
148.5
 13
0.0
 23
0.0
 14
10.0
 24
10.0
 15
10.0
 25
10.0
 16
0.0
 26
0.0
 36
1.0
 17
0.0
 27
0.0
 37
0.0
 40
297.0
 41
1.4141414141
 42
50.0
 43
0.0
 44
0.0
 50
0.0
 51
0.0
 71
     0
 72
  2000
 73
     1
 74
     3
 75
     0
 76
     0
 77
     0
 78
     0
281
     0
 65
     1
110
0.0
120
0.0
130
0.0
111
1.0
121
0.0
131
0.0
112
0.0
122
1.0
132
0.0
 79
     0
146
0.0
  0
ENDTAB
  0
TABLE
  2
LTYPE
  5
5
330
0
100
AcDbSymbolTable
 70
     6
  0
LTYPE
  5
14
330
5
100
AcDbSymbolTableRecord
100
AcDbLinetypeTableRecord
  2
ByBlock
 70
     0
  3

 72
    65
 73
     0
 40
0.0
  0
LTYPE
  5
15
330
5
100
AcDbSymbolTableRecord
100
AcDbLinetypeTableRecord
  2
ByLayer
 70
     0
  3

 72
    65
 73
     0
 40
0.0
  0
LTYPE
  5
16
330
5
100
AcDbSymbolTableRecord
100
AcDbLinetypeTableRecord
  2
Continuous
 70
     0
  3
Solid line
 72
    65
 73
     0
 40
0.0
  0
LTYPE
  5
5E
330
5
100
AcDbSymbolTableRecord
100
AcDbLinetypeTableRecord
  2
HIDDEN
 70
     0
  3
Hidden __ __ __ __ __ __ __ __ __ __ __ __ __ __
 72
    65
 73
     2
 40
1.905
 49
1.27
 74
     0
 49
-0.635
 74
     0
  0
LTYPE
  5
5F
330
5
100
AcDbSymbolTableRecord
100
AcDbLinetypeTableRecord
  2
PHANTOM
 70
     0
  3
Phantom ______  __  __  ______  __  __  ______
 72
    65
 73
     6
 40
12.7
 49
6.35
 74
     0
 49
-1.27
 74
     0
 49
1.27
 74
     0
 49
-1.27
 74
     0
 49
1.27
 74
     0
 49
-1.27
 74
     0
  0
LTYPE
  5
60
330
5
100
AcDbSymbolTableRecord
100
AcDbLinetypeTableRecord
  2
CENTER
 70
     0
  3
Center ____ _ ____ _ ____ _ ____ _ ____ _ ____
 72
    65
 73
     4
 40
10.16
 49
6.35
 74
     0
 49
-1.27
 74
     0
 49
1.27
 74
     0
 49
-1.27
 74
     0
  0
LTYPE
  5
61
330
5
100
AcDbSymbolTableRecord
100
AcDbLinetypeTableRecord
  2
CENTERX2
 70
     0
  3
Center (2x) ________  __  ________  __  _____
 72
    65
 73
     4
 40
20.32
 49
12.7
 74
     0
 49
-2.54
 74
     0
 49
2.54
 74
     0
 49
-2.54
 74
     0
  0
LTYPE
  5
62
330
5
100
AcDbSymbolTableRecord
100
AcDbLinetypeTableRecord
  2
DOT2
 70
     0
  3
Dot (.5x) ........................................
 72
    65
 73
     2
 40
0.635
 49
0.0
 74
     0
 49
-0.635
 74
     0
  0
ENDTAB
  0
TABLE
  2
LAYER
  5
2
330
0
100
AcDbSymbolTable
 70
     2
  0
LAYER
  5
10
330
2
100
AcDbSymbolTableRecord
100
AcDbLayerTableRecord
  2
0
 70
     0
 62
     7
  6
Continuous
370
    -3
390
F
  0
LAYER
  5
63
330
2
100
AcDbSymbolTableRecord
100
AcDbLayerTableRecord
  2
LENKIMO
 70
     0
 62
     1
  6
CENTERX2
370
    -3
390
F
  0
ENDTAB
  0
TABLE
  2
STYLE
  5
3
330
0
100
AcDbSymbolTable
 70
     1
  0
STYLE
  5
11
330
3
100
AcDbSymbolTableRecord
100
AcDbTextStyleTableRecord
  2
Standard
 70
     0
 40
0.0
 41
1.0
 50
0.0
 71
     0
 42
5.6444444444
  3
txt
  4

  0
ENDTAB
  0
TABLE
  2
VIEW
  5
6
330
0
100
AcDbSymbolTable
 70
     0
  0
ENDTAB
  0
TABLE
  2
UCS
  5
7
330
0
100
AcDbSymbolTable
 70
     0
  0
ENDTAB
  0
TABLE
  2
APPID
  5
9
330
0
100
AcDbSymbolTable
 70
     1
  0
APPID
  5
12
330
9
100
AcDbSymbolTableRecord
100
AcDbRegAppTableRecord
  2
ACAD
 70
     0
  0
ENDTAB
  0
TABLE
  2
DIMSTYLE
  5
A
330
0
100
AcDbSymbolTable
 70
     1
100
AcDbDimStyleTable
  0
DIMSTYLE
105
27
330
A
100
AcDbSymbolTableRecord
100
AcDbDimStyleTableRecord
  2
ISO-25
 70
     0
 41
2.5
 42
0.625
 43
3.75
 44
1.25
 73
     0
 74
     0
 77
     1
 78
     8
140
2.5
141
2.5
143
0.0393700787
147
0.625
171
     3
172
     1
178
     0
271
     2
272
     2
274
     3
278
    44
283
     0
284
     8
340
11
  0
ENDTAB
  0
TABLE
  2
BLOCK_RECORD
  5
1
330
0
100
AcDbSymbolTable
 70
     3
  0
BLOCK_RECORD
  5
1F
330
1
100
AcDbSymbolTableRecord
100
AcDbBlockTableRecord
  2
*Model_Space
340
22
  0
BLOCK_RECORD
  5
1B
330
1
100
AcDbSymbolTableRecord
100
AcDbBlockTableRecord
  2
*Paper_Space
340
1E
  0
BLOCK_RECORD
  5
23
330
1
100
AcDbSymbolTableRecord
100
AcDbBlockTableRecord
  2
*Paper_Space0
340
26
  0
BLOCK_RECORD
  5
64
330
1
100
AcDbSymbolTableRecord
100
AcDbBlockTableRecord
  2
Block11_2
340
0
  0
BLOCK_RECORD
  5
1C2
330
1
100
AcDbSymbolTableRecord
100
AcDbBlockTableRecord
  2
SW_CENTERMARKSYMBOL_0
340
0
102
{BLKREFS
331
1CD
102
}
  0
ENDTAB
  0
ENDSEC
  0
SECTION
  2
BLOCKS
  0
BLOCK
  5
20
330
1F
100
AcDbEntity
  8
0
100
AcDbBlockBegin
  2
*Model_Space
 70
     0
 10
0.0
 20
0.0
 30
0.0
  3
*Model_Space
  1

  0
ENDBLK
  5
21
330
1F
100
AcDbEntity
  8
0
100
AcDbBlockEnd
  0
BLOCK
  5
1C
330
1B
100
AcDbEntity
 67
     1
  8
0
100
AcDbBlockBegin
  2
*Paper_Space
 70
     0
 10
0.0
 20
0.0
 30
0.0
  3
*Paper_Space
  1

  0
ENDBLK
  5
1D
330
1B
100
AcDbEntity
 67
     1
  8
0
100
AcDbBlockEnd
  0
BLOCK
  5
24
330
23
100
AcDbEntity
  8
0
100
AcDbBlockBegin
  2
*Paper_Space0
 70
     0
 10
0.0
 20
0.0
 30
0.0
  3
*Paper_Space0
  1

  0
ENDBLK
  5
25
330
23
100
AcDbEntity
  8
0
100
AcDbBlockEnd
  0
BLOCK
  5
65
330
64
100
AcDbEntity
  8
0
100
AcDbBlockBegin
  2
Block11_2
 70
     0
 10
0.0
 20
0.0
 30
0.0
  3
Block11_2
  1

  0
LINE
  5
67
330
64
100
AcDbEntity
  8
0
  6
Continuous
100
AcDbLine
 10
-15.7956326374
 20
2.3055746011
 30
0.0
 11
-18.0649288667
 21
1.8146036087
 31
0.0
  0
LINE
  5
68
330
64
100
AcDbEntity
  8
0
  6
Continuous
100
AcDbLine
 10
-15.6988785554
 20
-9.1195335787
 30
0.0
 11
-10.2261014967
 21
-7.9354771524
 31
0.0
  0
LINE
  5
69
330
64
100
AcDbEntity
  8
0
  6
Continuous
100
AcDbLine
 10
-10.2261014967
 20
-7.9354771524
 30
0.0
 11
-10.6655808869
 21
-5.9041780766
 31
0.0
  0
LINE
  5
6A
330
64
100
AcDbEntity
  8
0
  6
Continuous
100
AcDbLine
 10
-10.6655808869
 20
-5.9041780766
 30
0.0
 11
-13.8699456036
 21
-6.5974547429
 31
0.0
  0
LINE
  5
6B
330
64
100
AcDbEntity
  8
0
  6
Continuous
100
AcDbLine
 10
-8.296070931
 20
1.802048972
 30
0.0
 11
-6.9198111955
 21
2.0998080743
 31
0.0
  0
LINE
  5
6C
330
64
100
AcDbEntity
  8
0
  6
Continuous
100
AcDbLine
 10
-5.4333831358
 20
-4.7719736412
 30
0.0
 11
-6.8095376466
 21
-5.0697099777
 31
0.0
  0
LINE
  5
6D
330
64
100
AcDbEntity
  8
0
  6
Continuous
100
AcDbLine
 10
-11.0044904538
 20
3.3421566929
 30
0.0
 11
-8.6388294738
 21
-7.5920647278
 31
0.0
  0
LINE
  5
6E
330
64
100
AcDbEntity
  8
0
  6
Continuous
100
AcDbLine
 10
-8.6388294738
 20
-7.5920647278
 30
0.0
 11
-8.6384401425
 21
-7.5919804944
 31
0.0
  0
LINE
  5
6F
330
64
100
AcDbEntity
  8
0
  6
Continuous
100
AcDbLine
 10
-8.6384401425
 20
-7.5919804944
 30
0.0
 11
-4.4940245505
 21
-6.6953201952
 31
0.0
  0
LINE
  5
70
330
64
100
AcDbEntity
  8
0
  6
Continuous
100
AcDbLine
 10
-6.8595855671
 20
4.238922853
 30
0.0
 11
-11.0044904538
 21
3.3421566929
 31
0.0
  0
LINE
  5
71
330
64
100
AcDbEntity
  8
0
  6
Continuous
100
AcDbLine
 10
-32.9933593229
 20
-3.3005605139
 30
0.0
 11
-32.8591663041
 21
-3.2715273367
 31
0.0
  0
LINE
  5
72
330
64
100
AcDbEntity
  8
0
  6
Continuous
100
AcDbLine
 10
-31.5697721187
 20
-3.9678201523
 30
0.0
 11
-29.2969561243
 21
-3.4760876451
 31
0.0
  0
LINE
  5
73
330
64
100
AcDbEntity
  8
0
  6
Continuous
100
AcDbLine
 10
-33.2794920496
 20
-1.2667721217
 30
0.0
 11
-33.3448839193
 21
-1.2809199049
 31
0.0
  0
LINE
  5
74
330
64
100
AcDbEntity
  8
0
  6
Continuous
100
AcDbLine
 10
-31.3289079349
 20
-10.5856399919
 30
0.0
 11
-31.4650581325
 21
-10.6150966123
 31
0.0
  0
LINE
  5
75
330
64
100
AcDbEntity
  8
0
  6
Continuous
100
AcDbLine
 10
-32.8822392925
 20
-9.9377601564
 30
0.0
 11
-35.1888692339
 21
-10.4368084414
 31
0.0
  0
LINE
  5
76
330
64
100
AcDbEntity
  8
0
  6
Continuous
100
AcDbLine
 10
-31.5949683304
 20
-12.7295787952
 30
0.0
 11
-30.2063920476
 21
-12.4291549603
 31
0.0
  0
LINE
  5
77
330
64
100
AcDbEntity
  8
0
  6
Continuous
100
AcDbLine
 10
6.262509235
 20
-4.3681026205
 30
0.0
 11
8.6370616994
 21
-3.8543590356
 31
0.0
  0
LINE
  5
78
330
64
100
AcDbEntity
  8
0
  6
Continuous
100
AcDbLine
 10
8.6370616994
 20
-3.8543590356
 30
0.0
 11
3.9059396663
 21
6.5680857621
 31
0.0
  0
LINE
  5
79
330
64
100
AcDbEntity
  8
0
  6
Continuous
100
AcDbLine
 10
3.9059396663
 20
6.5680857621
 30
0.0
 11
0.0
 21
5.7230206493
 31
0.0
  0
LINE
  5
7A
330
64
100
AcDbEntity
  8
0
  6
Continuous
100
AcDbLine
 10
0.0
 20
5.7230206493
 30
0.0
 11
0.0
 21
-5.7230206493
 31
0.0
  0
LINE
  5
7B
330
64
100
AcDbEntity
  8
0
  6
Continuous
100
AcDbLine
 10
0.0
 20
-5.7230206493
 30
0.0
 11
2.3746576891
 21
-5.2092542987
 31
0.0
  0
LINE
  5
7C
330
64
100
AcDbEntity
  8
0
  6
Continuous
100
AcDbLine
 10
2.3746576891
 20
-5.2092542987
 30
0.0
 11
2.3747844598
 21
-3.0912381741
 31
0.0
  0
LINE
  5
7D
330
64
100
AcDbEntity
  8
0
  6
Continuous
100
AcDbLine
 10
2.3747844598
 20
-3.0912381741
 30
0.0
 11
4.0318309599
 21
-2.7327297722
 31
0.0
  0
LINE
  5
7E
330
64
100
AcDbEntity
  8
0
  6
Continuous
100
AcDbLine
 10
4.0318309599
 20
-2.7327297722
 30
0.0
 11
3.5923515697
 21
-0.7014306964
 31
0.0
  0
LINE
  5
7F
330
64
100
AcDbEntity
  8
0
  6
Continuous
100
AcDbLine
 10
3.5923515697
 20
-0.7014306964
 30
0.0
 11
2.3750284336
 21
-0.9648032524
 31
0.0
  0
LINE
  5
80
330
64
100
AcDbEntity
  8
0
  6
Continuous
100
AcDbLine
 10
2.3750284336
 20
-0.9648032524
 30
0.0
 11
2.3752084601
 21
4.1936873712
 31
0.0
  0
LINE
  5
81
330
64
100
AcDbEntity
  8
0
  6
Continuous
100
AcDbLine
 10
2.3752084601
 20
4.1936873712
 30
0.0
 11
6.262509235
 21
-4.3681026205
 31
0.0
  0
LINE
  5
82
330
64
100
AcDbEntity
  8
0
  6
Continuous
100
AcDbLine
 10
-53.0629352118
 20
-11.4801779454
 30
0.0
 11
-50.7945341276
 21
-8.0228043203
 31
0.0
  0
LINE
  5
83
330
64
100
AcDbEntity
  8
0
  6
Continuous
100
AcDbLine
 10
-50.7945341276
 20
-8.0228043203
 30
0.0
 11
-54.2891069366
 21
-5.8122833411
 31
0.0
  0
LINE
  5
84
330
64
100
AcDbEntity
  8
0
  6
Continuous
100
AcDbLine
 10
-54.2891069366
 20
-5.8122833411
 30
0.0
 11
-51.4073820962
 21
-5.1888110564
 31
0.0
  0
LINE
  5
85
330
64
100
AcDbEntity
  8
0
  6
Continuous
100
AcDbLine
 10
-51.4073820962
 20
-5.1888110564
 30
0.0
 11
-47.9127327975
 21
-7.3992273667
 31
0.0
  0
LINE
  5
86
330
64
100
AcDbEntity
  8
0
  6
Continuous
100
AcDbLine
 10
-47.9127327975
 20
-7.3992273667
 30
0.0
 11
-50.1813587974
 21
-10.8569360435
 31
0.0
  0
LINE
  5
87
330
64
100
AcDbEntity
  8
0
  6
Continuous
100
AcDbLine
 10
-50.1813587974
 20
-10.8569360435
 30
0.0
 11
-53.0628942334
 21
-11.4803673498
 31
0.0
  0
LINE
  5
88
330
64
100
AcDbEntity
  8
0
  6
Continuous
100
AcDbLine
 10
-53.0628942334
 20
-11.4803673498
 30
0.0
 11
-53.0629352118
 21
-11.4801779454
 31
0.0
  0
LINE
  5
89
330
64
100
AcDbEntity
  8
0
  6
Continuous
100
AcDbLine
 10
-42.7624916815
 20
-3.31845567
 30
0.0
 11
-45.0307950789
 21
-6.7757971452
 31
0.0
  0
LINE
  5
8A
330
64
100
AcDbEntity
  8
0
  6
Continuous
100
AcDbLine
 10
-45.0307950789
 20
-6.7757971452
 30
0.0
 11
-48.5254573289
 21
-4.5652955168
 31
0.0
  0
LINE
  5
8B
330
64
100
AcDbEntity
  8
0
  6
Continuous
100
AcDbLine
 10
-48.5254573289
 20
-4.5652955168
 30
0.0
 11
-48.5257466967
 21
-4.5653581227
 31
0.0
  0
LINE
  5
8C
330
64
100
AcDbEntity
  8
0
  6
Continuous
100
AcDbLine
 10
-48.5257466967
 20
-4.5653581227
 30
0.0
 11
-47.9126146215
 21
-7.399289919
 31
0.0
  0
LINE
  5
8D
330
64
100
AcDbEntity
  8
0
  6
Continuous
100
AcDbLine
 10
-47.9126146215
 20
-7.399289919
 30
0.0
 11
-44.4177372167
 21
-9.6098441329
 31
0.0
  0
LINE
  5
8E
330
64
100
AcDbEntity
  8
0
  6
Continuous
100
AcDbLine
 10
-44.4177372167
 20
-9.6098441329
 30
0.0
 11
-42.1490649772
 21
-6.1523237222
 31
0.0
  0
LINE
  5
8F
330
64
100
AcDbEntity
  8
0
  6
Continuous
100
AcDbLine
 10
-42.1490649772
 20
-6.1523237222
 30
0.0
 11
-42.7621970524
 21
-3.3183919259
 31
0.0
  0
LINE
  5
90
330
64
100
AcDbEntity
  8
0
  6
Continuous
100
AcDbLine
 10
-42.7621970524
 20
-3.3183919259
 30
0.0
 11
-42.7624916815
 21
-3.31845567
 31
0.0
  0
LINE
  5
91
330
64
100
AcDbEntity
  8
0
  6
Continuous
100
AcDbLine
 10
-41.535889647
 20
-8.9864554454
 30
0.0
 11
-43.8045413973
 21
-12.4440705583
 31
0.0
  0
LINE
  5
92
330
64
100
AcDbEntity
  8
0
  6
Continuous
100
AcDbLine
 10
-43.8045413973
 20
-12.4440705583
 30
0.0
 11
-40.3564529382
 21
-14.625159785
 31
0.0
  0
LINE
  5
93
330
64
100
AcDbEntity
  8
0
  6
Continuous
100
AcDbLine
 10
-40.3564529382
 20
-14.625159785
 30
0.0
 11
-43.2382724808
 21
-15.2486525588
 31
0.0
  0
LINE
  5
94
330
64
100
AcDbEntity
  8
0
  6
Continuous
100
AcDbLine
 10
-43.2382724808
 20
-15.2486525588
 30
0.0
 11
-46.686243472
 21
-13.0676480676
 31
0.0
  0
LINE
  5
95
330
64
100
AcDbEntity
  8
0
  6
Continuous
100
AcDbLine
 10
-46.686243472
 20
-13.0676480676
 30
0.0
 11
-44.4177144509
 21
-9.6099493576
 31
0.0
  0
LINE
  5
96
330
64
100
AcDbEntity
  8
0
  6
Continuous
100
AcDbLine
 10
-44.4177144509
 20
-9.6099493576
 30
0.0
 11
-41.535889647
 21
-8.9864554454
 31
0.0
  0
LINE
  5
97
330
64
100
AcDbEntity
  8
0
  6
Continuous
100
AcDbLine
 10
-51.8063383656
 20
-17.1023866618
 30
0.0
 11
-49.5681857438
 21
-13.6910572443
 31
0.0
  0
LINE
  5
98
330
64
100
AcDbEntity
  8
0
  6
Continuous
100
AcDbLine
 10
-49.5681857438
 20
-13.6910572443
 30
0.0
 11
-46.1199973213
 21
-15.8721248435
 31
0.0
  0
LINE
  5
99
330
64
100
AcDbEntity
  8
0
  6
Continuous
100
AcDbLine
 10
-46.1199973213
 20
-15.8721248435
 30
0.0
 11
-46.0813956519
 21
-15.8637732234
 31
0.0
  0
LINE
  5
9A
330
64
100
AcDbEntity
  8
0
  6
Continuous
100
AcDbLine
 10
-46.0813956519
 20
-15.8637732234
 30
0.0
 11
-46.6863662012
 21
-13.0675644704
 31
0.0
  0
LINE
  5
9B
330
64
100
AcDbEntity
  8
0
  6
Continuous
100
AcDbLine
 10
-46.6863662012
 20
-13.0675644704
 30
0.0
 11
-50.1813587974
 21
-10.8569360435
 31
0.0
  0
LINE
  5
9C
330
64
100
AcDbEntity
  8
0
  6
Continuous
100
AcDbLine
 10
-50.1813587974
 20
-10.8569360435
 30
0.0
 11
-52.4497621582
 21
-14.3142991462
 31
0.0
  0
LINE
  5
9D
330
64
100
AcDbEntity
  8
0
  6
Continuous
100
AcDbLine
 10
-52.4497621582
 20
-14.3142991462
 30
0.0
 11
-51.8447506306
 21
-17.1106973035
 31
0.0
  0
LINE
  5
9E
330
64
100
AcDbEntity
  8
0
  6
Continuous
100
AcDbLine
 10
-51.8447506306
 20
-17.1106973035
 30
0.0
 11
-51.8063383656
 21
-17.1023866618
 31
0.0
  0
LINE
  5
9F
330
64
100
AcDbEntity
  8
0
  6
Continuous
100
AcDbLine
 10
-20.0432683672
 20
-10.0594590717
 30
0.0
 11
-17.6687053803
 21
-9.5457132103
 31
0.0
  0
LINE
  5
A0
330
64
100
AcDbEntity
  8
0
  6
Continuous
100
AcDbLine
 10
-17.6687053803
 20
-9.5457132103
 30
0.0
 11
-22.3998379359
 21
0.8767293109
 31
0.0
  0
LINE
  5
A1
330
64
100
AcDbEntity
  8
0
  6
Continuous
100
AcDbLine
 10
-22.3998379359
 20
0.8767293109
 30
0.0
 11
-26.3058670432
 21
0.0316448472
 31
0.0
  0
LINE
  5
A2
330
64
100
AcDbEntity
  8
0
  6
Continuous
100
AcDbLine
 10
-26.3058670432
 20
0.0316448472
 30
0.0
 11
-26.3056723775
 21
-11.4143543348
 31
0.0
  0
LINE
  5
A3
330
64
100
AcDbEntity
  8
0
  6
Continuous
100
AcDbLine
 10
-26.3056723775
 20
-11.4143543348
 30
0.0
 11
-23.9311146519
 21
-10.9006096116
 31
0.0
  0
LINE
  5
A4
330
64
100
AcDbEntity
  8
0
  6
Continuous
100
AcDbLine
 10
-23.9311146519
 20
-10.9006096116
 30
0.0
 11
-23.9309931424
 21
-8.7825946253
 31
0.0
  0
LINE
  5
A5
330
64
100
AcDbEntity
  8
0
  6
Continuous
100
AcDbLine
 10
-23.9309931424
 20
-8.7825946253
 30
0.0
 11
-22.2738308951
 21
-8.4240611811
 31
0.0
  0
LINE
  5
A6
330
64
100
AcDbEntity
  8
0
  6
Continuous
100
AcDbLine
 10
-22.2738308951
 20
-8.4240611811
 30
0.0
 11
-22.7133102854
 21
-6.3927621053
 31
0.0
  0
LINE
  5
A7
330
64
100
AcDbEntity
  8
0
  6
Continuous
100
AcDbLine
 10
-22.7133102854
 20
-6.3927621053
 30
0.0
 11
-23.9308333483
 21
-6.6561779162
 31
0.0
  0
LINE
  5
A8
330
64
100
AcDbEntity
  8
0
  6
Continuous
100
AcDbLine
 10
-23.9308333483
 20
-6.6561779162
 30
0.0
 11
-23.9305586196
 21
-1.4976668035
 31
0.0
  0
LINE
  5
A9
330
64
100
AcDbEntity
  8
0
  6
Continuous
100
AcDbLine
 10
-23.9305586196
 20
-1.4976668035
 30
0.0
 11
-20.0432683672
 21
-10.0594590717
 31
0.0
  0
SPLINE
  5
AA
330
64
100
AcDbEntity
  8
0
100
AcDbSpline
210
0.0
220
0.0
230
1.0
 70
     8
 71
     3
 72
     8
 73
     4
 74
     0
 42
0.00000001
 43
0.00000001
 40
0.0
 40
0.0
 40
0.0
 40
0.0
 40
1.0
 40
1.0
 40
1.0
 40
1.0
 10
-13.86994560355125
 20
-6.597454742918429
 30
0.0
 10
-13.88373254946556
 20
-6.53373068413859
 30
0.0
 10
-15.11365515797402
 20
-0.8489574873494021
 30
0.0
 10
-15.79563263740206
 20
2.305574601061459
 30
0.0
  0
SPLINE
  5
AB
330
64
100
AcDbEntity
  8
0
100
AcDbSpline
210
0.0
220
0.0
230
1.0
 70
     8
 71
     3
 72
     8
 73
     4
 74
     0
 42
0.00000001
 43
0.00000001
 40
2.0
 40
2.0
 40
2.0
 40
2.0
 40
3.0
 40
3.0
 40
3.0
 40
3.0
 10
-18.06492886668426
 20
1.814603608696524
 30
0.0
 10
-17.24003965005502
 20
-1.995739949107536
 30
0.0
 10
-15.71186186991051
 20
-9.059523950669432
 30
0.0
 10
-15.69887855542093
 20
-9.119533578677906
 30
0.0
  0
SPLINE
  5
AC
330
64
100
AcDbEntity
  8
0
100
AcDbSpline
210
0.0
220
0.0
230
1.0
 70
     8
 71
     3
 72
     8
 73
     4
 74
     0
 42
0.00000001
 43
0.00000001
 40
0.0
 40
0.0
 40
0.0
 40
0.0
 40
1.0
 40
1.0
 40
1.0
 40
1.0
 10
-6.809537646582547
 20
-5.069709977697404
 30
0.0
 10
-7.284290309572815
 20
-2.875375801708635
 30
0.0
 10
-7.897830097865885
 20
-0.0390758678013329
 30
0.0
 10
-8.296070930952649
 20
1.80204897196991
 30
0.0
  0
SPLINE
  5
AD
330
64
100
AcDbEntity
  8
0
100
AcDbSpline
210
0.0
220
0.0
230
1.0
 70
     8
 71
     3
 72
     8
 73
     4
 74
     0
 42
0.00000001
 43
0.00000001
 40
2.0
 40
2.0
 40
2.0
 40
2.0
 40
3.0
 40
3.0
 40
3.0
 40
3.0
 10
-6.919811195494074
 20
2.099808074263809
 30
0.0
 10
-6.228016878711183
 20
2.249480443098069
 30
0.0
 10
-5.547633595833446
 20
1.815851349115847
 30
0.0
 10
-5.399398884916104
 20
1.130701970100344
 30
0.0
  0
SPLINE
  5
AE
330
64
100
AcDbEntity
  8
0
100
AcDbSpline
210
0.0
220
0.0
230
1.0
 70
     8
 71
     3
 72
     8
 73
     4
 74
     0
 42
0.00000001
 43
0.00000001
 40
3.0
 40
3.0
 40
3.0
 40
3.0
 40
4.0
 40
4.0
 40
4.0
 40
4.0
 10
-5.399398884916104
 20
1.130701970100344
 30
0.0
 10
-5.107009087764085
 20
-0.2207405274728672
 30
0.0
 10
-4.711497421058354
 20
-2.048334586467611
 30
0.0
 10
-4.449160707297047
 20
-3.260870000165379
 30
0.0
  0
SPLINE
  5
AF
330
64
100
AcDbEntity
  8
0
100
AcDbSpline
210
0.0
220
0.0
230
1.0
 70
     8
 71
     3
 72
     8
 73
     4
 74
     0
 42
0.00000001
 43
0.00000001
 40
4.0
 40
4.0
 40
4.0
 40
4.0
 40
5.0
 40
5.0
 40
5.0
 40
5.0
 10
-4.449160707297047
 20
-3.260870000165379
 30
0.0
 10
-4.300905507193207
 20
-3.946114081381999
 30
0.0
 10
-4.741570606399121
 20
-4.622385452066122
 30
0.0
 10
-5.433383135791953
 20
-4.771973641166296
 30
0.0
  0
SPLINE
  5
B0
330
64
100
AcDbEntity
  8
0
100
AcDbSpline
210
0.0
220
0.0
230
1.0
 70
     8
 71
     3
 72
     8
 73
     4
 74
     0
 42
0.00000001
 43
0.00000001
 40
3.0
 40
3.0
 40
3.0
 40
3.0
 40
4.0
 40
4.0
 40
4.0
 40
4.0
 10
-4.494024550545999
 20
-6.695320195210662
 30
0.0
 10
-2.825524345390513
 20
-6.334333740063992
 30
0.0
 10
-1.762658323115034
 20
-4.702068307882374
 30
0.0
 10
-2.120071189640999
 20
-3.049576315093403
 30
0.0
  0
SPLINE
  5
B1
330
64
100
AcDbEntity
  8
0
100
AcDbSpline
210
0.0
220
0.0
230
1.0
 70
     8
 71
     3
 72
     8
 73
     4
 74
     0
 42
0.00000001
 43
0.00000001
 40
4.0
 40
4.0
 40
4.0
 40
4.0
 40
5.0
 40
5.0
 40
5.0
 40
5.0
 10
-2.120071189640999
 20
-3.049576315093403
 30
0.0
 10
-2.485983017556096
 20
-1.358310753073632
 30
0.0
 10
-2.867352798370483
 20
0.4044023583376265
 30
0.0
 10
-3.190995488197396
 20
1.900704823656681
 30
0.0
  0
SPLINE
  5
B2
330
64
100
AcDbEntity
  8
0
100
AcDbSpline
210
0.0
220
0.0
230
1.0
 70
     8
 71
     3
 72
     8
 73
     4
 74
     0
 42
0.00000001
 43
0.00000001
 40
5.0
 40
5.0
 40
5.0
 40
5.0
 40
6.0
 40
6.0
 40
6.0
 40
6.0
 10
-3.190995488197396
 20
1.900704823656681
 30
0.0
 10
-3.54857504695031
 20
3.553458157285876
 30
0.0
 10
-5.190901218780231
 20
4.599949148191988
 30
0.0
 10
-6.859585567104196
 20
4.238922852960538
 30
0.0
  0
SPLINE
  5
B3
330
64
100
AcDbEntity
  8
0
100
AcDbSpline
210
0.0
220
0.0
230
1.0
 70
     8
 71
     3
 72
     8
 73
     4
 74
     0
 42
0.00000001
 43
0.00000001
 40
0.0
 40
0.0
 40
0.0
 40
0.0
 40
1.0
 40
1.0
 40
1.0
 40
1.0
 10
-30.23703582864644
 20
-6.251438951366732
 30
0.0
 10
-30.9104300186728
 20
-6.015603382360459
 30
0.0
 10
-31.40848551125485
 20
-5.893156856121871
 30
0.0
 10
-32.67210357750635
 20
-5.496689523479785
 30
0.0
  0
SPLINE
  5
B4
330
64
100
AcDbEntity
  8
0
100
AcDbSpline
210
0.0
220
0.0
230
1.0
 70
     8
 71
     3
 72
     8
 73
     4
 74
     0
 42
0.00000001
 43
0.00000001
 40
1.0
 40
1.0
 40
1.0
 40
1.0
 40
2.0
 40
2.0
 40
2.0
 40
2.0
 10
-32.67210357750635
 20
-5.496689523479785
 30
0.0
 10
-33.03332194555517
 20
-5.383421617718132
 30
0.0
 10
-33.81210282496122
 20
-5.206692347750555
 30
0.0
 10
-33.94849250952588
 20
-4.576291363356936
 30
0.0
  0
SPLINE
  5
B5
330
64
100
AcDbEntity
  8
0
100
AcDbSpline
210
0.0
220
0.0
230
1.0
 70
     8
 71
     3
 72
     8
 73
     4
 74
     0
 42
0.00000001
 43
0.00000001
 40
2.0
 40
2.0
 40
2.0
 40
2.0
 40
3.0
 40
3.0
 40
3.0
 40
3.0
 10
-33.94849250952588
 20
-4.576291363356936
 30
0.0
 10
-34.11622381965225
 20
-3.801027578894063
 30
0.0
 10
-33.67528356585564
 20
-3.448097454184924
 30
0.0
 10
-32.99335932290604
 20
-3.30056051389548
 30
0.0
  0
SPLINE
  5
B6
330
64
100
AcDbEntity
  8
0
100
AcDbSpline
210
0.0
220
0.0
230
1.0
 70
     8
 71
     3
 72
     8
 73
     4
 74
     0
 42
0.00000001
 43
0.00000001
 40
4.0
 40
4.0
 40
4.0
 40
4.0
 40
5.0
 40
5.0
 40
5.0
 40
5.0
 10
-32.85916630414497
 20
-3.271527336675416
 30
0.0
 10
-32.2786944245911
 20
-3.14594000653005
 30
0.0
 10
-31.77109773641243
 20
-3.328116480283148
 30
0.0
 10
-31.56977211870437
 20
-3.967820152272103
 30
0.0
  0
SPLINE
  5
B7
330
64
100
AcDbEntity
  8
0
100
AcDbSpline
210
0.0
220
0.0
230
1.0
 70
     8
 71
     3
 72
     8
 73
     4
 74
     0
 42
0.00000001
 43
0.00000001
 40
6.0
 40
6.0
 40
6.0
 40
6.0
 40
7.0
 40
7.0
 40
7.0
 40
7.0
 10
-29.29695612428625
 20
-3.476087645143529
 30
0.0
 10
-29.68810071971012
 20
-1.866802583842748
 30
0.0
 10
-30.87776107222441
 20
-0.7599478056671497
 30
0.0
 10
-33.27949204955325
 20
-1.266772121690862
 30
0.0
  0
SPLINE
  5
B8
330
64
100
AcDbEntity
  8
0
100
AcDbSpline
210
0.0
220
0.0
230
1.0
 70
     8
 71
     3
 72
     8
 73
     4
 74
     0
 42
0.00000001
 43
0.00000001
 40
8.0
 40
8.0
 40
8.0
 40
8.0
 40
9.0
 40
9.0
 40
9.0
 40
9.0
 10
-33.34488391931659
 20
-1.280919904944554
 30
0.0
 10
-35.81152992452102
 20
-1.828202838410209
 30
0.0
 10
-36.33378487826545
 20
-3.54465012997844
 30
0.0
 10
-36.09207577942843
 20
-4.962606301827474
 30
0.0
  0
SPLINE
  5
B9
330
64
100
AcDbEntity
  8
0
100
AcDbSpline
210
0.0
220
0.0
230
1.0
 70
     8
 71
     3
 72
     8
 73
     4
 74
     0
 42
0.00000001
 43
0.00000001
 40
9.0
 40
9.0
 40
9.0
 40
9.0
 40
10.0
 40
10.0
 40
10.0
 40
10.0
 10
-36.09207577942843
 20
-4.962606301827474
 30
0.0
 10
-35.83736690020325
 20
-6.457652824126185
 30
0.0
 10
-34.96800490008025
 20
-7.196828812263726
 30
0.0
 10
-33.99931718292642
 20
-7.502708028683521
 30
0.0
  0
SPLINE
  5
BA
330
64
100
AcDbEntity
  8
0
100
AcDbSpline
210
0.0
220
0.0
230
1.0
 70
     8
 71
     3
 72
     8
 73
     4
 74
     0
 42
0.00000001
 43
0.00000001
 40
10.0
 40
10.0
 40
10.0
 40
10.0
 40
11.0
 40
11.0
 40
11.0
 40
11.0
 10
-33.99931718292642
 20
-7.502708028683521
 30
0.0
 10
-33.40907414696034
 20
-7.689011641945549
 30
0.0
 10
-32.48616403135102
 20
-7.975318844696811
 30
0.0
 10
-31.47547483016511
 20
-8.271505052332133
 30
0.0
  0
SPLINE
  5
BB
330
64
100
AcDbEntity
  8
0
100
AcDbSpline
210
0.0
220
0.0
230
1.0
 70
     8
 71
     3
 72
     8
 73
     4
 74
     0
 42
0.00000001
 43
0.00000001
 40
11.0
 40
11.0
 40
11.0
 40
11.0
 40
12.0
 40
12.0
 40
12.0
 40
12.0
 10
-31.47547483016511
 20
-8.271505052332133
 30
0.0
 10
-31.11213516930565
 20
-8.377980375833697
 30
0.0
 10
-30.40258052645035
 20
-8.55729511966404
 30
0.0
 10
-30.28870163819746
 20
-9.336631754491275
 30
0.0
  0
SPLINE
  5
BC
330
64
100
AcDbEntity
  8
0
100
AcDbSpline
210
0.0
220
0.0
230
1.0
 70
     8
 71
     3
 72
     8
 73
     4
 74
     0
 42
0.00000001
 43
0.00000001
 40
12.0
 40
12.0
 40
12.0
 40
12.0
 40
13.0
 40
13.0
 40
13.0
 40
13.0
 10
-30.28870163819746
 20
-9.336631754491275
 30
0.0
 10
-30.1883718252622
 20
-10.02498578462436
 30
0.0
 10
-30.64014408852681
 20
-10.43662327702193
 30
0.0
 10
-31.32890793487913
 20
-10.58563999188937
 30
0.0
  0
SPLINE
  5
BD
330
64
100
AcDbEntity
  8
0
100
AcDbSpline
210
0.0
220
0.0
230
1.0
 70
     8
 71
     3
 72
     8
 73
     4
 74
     0
 42
0.00000001
 43
0.00000001
 40
14.0
 40
14.0
 40
14.0
 40
14.0
 40
15.0
 40
15.0
 40
15.0
 40
15.0
 10
-31.46505813246006
 20
-10.61509661229636
 30
0.0
 10
-32.05208024758041
 20
-10.74210111117219
 30
0.0
 10
-32.71260096537058
 20
-10.55064660173623
 30
0.0
 10
-32.8822392924921
 20
-9.937760156430087
 30
0.0
  0
SPLINE
  5
BE
330
64
100
AcDbEntity
  8
0
100
AcDbSpline
210
0.0
220
0.0
230
1.0
 70
     8
 71
     3
 72
     8
 73
     4
 74
     0
 42
0.00000001
 43
0.00000001
 40
16.0
 40
16.0
 40
16.0
 40
16.0
 40
17.0
 40
17.0
 40
17.0
 40
17.0
 10
-35.1888692338865
 20
-10.43680844141459
 30
0.0
 10
-34.81471685749703
 20
-11.8843133271045
 30
0.0
 10
-33.72975075395794
 20
-12.95131992706823
 30
0.0
 10
-31.59496833044066
 20
-12.72957879515504
 30
0.0
  0
SPLINE
  5
BF
330
64
100
AcDbEntity
  8
0
100
AcDbSpline
210
0.0
220
0.0
230
1.0
 70
     8
 71
     3
 72
     8
 73
     4
 74
     0
 42
0.00000001
 43
0.00000001
 40
18.0
 40
18.0
 40
18.0
 40
18.0
 40
19.0
 40
19.0
 40
19.0
 40
19.0
 10
-30.20639204762402
 20
-12.42915496033268
 30
0.0
 10
-28.36320980349184
 20
-11.79454394754582
 30
0.0
 10
-27.78707037380765
 20
-10.41512978795686
 30
0.0
 10
-27.91988511866083
 20
-9.073464993912006
 30
0.0
  0
SPLINE
  5
C0
330
64
100
AcDbEntity
  8
0
100
AcDbSpline
210
0.0
220
0.0
230
1.0
 70
     8
 71
     3
 72
     8
 73
     4
 74
     0
 42
0.00000001
 43
0.00000001
 40
19.0
 40
19.0
 40
19.0
 40
19.0
 40
20.0
 40
20.0
 40
20.0
 40
20.0
 10
-27.91988511866083
 20
-9.073464993912006
 30
0.0
 10
-28.12563217330358
 20
-6.994152508733083
 30
0.0
 10
-29.51271678483619
 20
-6.50510505043454
 30
0.0
 10
-30.23703582864644
 20
-6.251438951366732
 30
0.0
  0
HATCH
  5
C1
330
64
100
AcDbEntity
  8
0
100
AcDbHatch
 10
0.0
 20
0.0
 30
0.0
210
0.0
220
0.0
230
1.0
  2
SOLID
 70
     1
 71
     0
 91
        1
 92
        0
 93
        7
 72
     1
 10
-53.06293521179145
 20
-11.48017794540906
 11
-53.0628942334185
 21
-11.48036734981106
 72
     1
 10
-53.0628942334185
 20
-11.48036734981106
 11
-50.18135879739363
 21
-10.85693604353014
 72
     1
 10
-50.18135879739363
 20
-10.85693604353014
 11
-47.91273279754322
 21
-7.399227366744369
 72
     1
 10
-47.91273279754322
 20
-7.399227366744369
 11
-51.40738209617635
 21
-5.188811056417426
 72
     1
 10
-51.40738209617635
 20
-5.188811056417426
 11
-54.28910693660305
 21
-5.812283341071309
 72
     1
 10
-54.28910693660305
 20
-5.812283341071309
 11
-50.79453412756107
 21
-8.022804320319173
 72
     1
 10
-50.79453412756107
 20
-8.022804320319173
 11
-53.06293521179145
 21
-11.48017794540906
 97
        0
 75
     0
 76
     1
 98
        1
 10
0.0
 20
0.0
  0
HATCH
  5
C2
330
64
100
AcDbEntity
  8
0
100
AcDbHatch
 10
0.0
 20
0.0
 30
0.0
210
0.0
220
0.0
230
1.0
  2
SOLID
 70
     1
 71
     0
 91
        1
 92
        0
 93
        6
 72
     1
 10
-41.53588964704281
 20
-8.986455445432597
 11
-44.41771445090438
 21
-9.609949357561213
 72
     1
 10
-44.41771445090438
 20
-9.609949357561213
 11
-46.68624347197728
 21
-13.06764806762683
 72
     1
 10
-46.68624347197728
 20
-13.06764806762683
 11
-43.23827248082917
 21
-15.24865255879992
 72
     1
 10
-43.23827248082917
 20
-15.24865255879992
 11
-40.35645293820115
 21
-14.62515978495947
 72
     1
 10
-40.35645293820115
 20
-14.62515978495947
 11
-43.80454139731328
 21
-12.44407055830516
 72
     1
 10
-43.80454139731328
 20
-12.44407055830516
 11
-41.53588964704281
 21
-8.986455445432597
 97
        0
 75
     0
 76
     1
 98
        1
 10
0.0
 20
0.0
  0
HATCH
  5
C3
330
64
100
AcDbEntity
  8
0
100
AcDbHatch
 10
0.0
 20
0.0
 30
0.0
210
0.0
220
0.0
230
1.0
  2
SOLID
 70
     1
 71
     0
 91
        1
 92
        0
 93
       20
 72
     4
 94
        3
 73
     1
 74
     0
 95
        8
 96
        4
 40
18.0
 40
18.0
 40
18.0
 40
18.0
 40
19.0
 40
19.0
 40
19.0
 40
19.0
 10
-30.20639204762402
 20
-12.42915496033267
 42
1.0
 10
-28.36320980349188
 20
-11.79454394754584
 42
1.0
 10
-27.78707037380775
 20
-10.41512978795687
 42
1.0
 10
-27.91988511866085
 20
-9.073464993912015
 42
1.0
 72
     4
 94
        3
 73
     1
 74
     0
 95
        8
 96
        4
 40
19.0
 40
19.0
 40
19.0
 40
19.0
 40
20.0
 40
20.0
 40
20.0
 40
20.0
 10
-27.91988511866085
 20
-9.073464993912015
 42
1.0
 10
-28.1256321733036
 20
-6.994152508733093
 42
1.0
 10
-29.51271678483624
 20
-6.505105050434554
 42
1.0
 10
-30.23703582864647
 20
-6.251438951366739
 42
1.0
 72
     4
 94
        3
 73
     1
 74
     0
 95
        8
 96
        4
 40
0.0
 40
0.0
 40
0.0
 40
0.0
 40
1.0
 40
1.0
 40
1.0
 40
1.0
 10
-30.23703582864647
 20
-6.251438951366739
 42
1.0
 10
-30.91043001867278
 20
-6.015603382360466
 42
1.0
 10
-31.40848551125484
 20
-5.893156856121866
 42
1.0
 10
-32.67210357750633
 20
-5.496689523479784
 42
1.0
 72
     4
 94
        3
 73
     1
 74
     0
 95
        8
 96
        4
 40
1.0
 40
1.0
 40
1.0
 40
1.0
 40
2.0
 40
2.0
 40
2.0
 40
2.0
 10
-32.67210357750633
 20
-5.496689523479784
 42
1.0
 10
-33.03332194555515
 20
-5.383421617718138
 42
1.0
 10
-33.81210282496121
 20
-5.206692347750558
 42
1.0
 10
-33.94849250952591
 20
-4.576291363356954
 42
1.0
 72
     4
 94
        3
 73
     1
 74
     0
 95
        8
 96
        4
 40
2.0
 40
2.0
 40
2.0
 40
2.0
 40
3.0
 40
3.0
 40
3.0
 40
3.0
 10
-33.94849250952591
 20
-4.576291363356954
 42
1.0
 10
-34.11622381965228
 20
-3.801027578894066
 42
1.0
 10
-33.67528356585566
 20
-3.448097454184939
 42
1.0
 10
-32.99335932290605
 20
-3.300560513895483
 42
1.0
 72
     1
 10
-32.99335932290605
 20
-3.300560513895483
 11
-32.85916630414502
 21
-3.271527336675422
 72
     4
 94
        3
 73
     1
 74
     0
 95
        8
 96
        4
 40
4.0
 40
4.0
 40
4.0
 40
4.0
 40
5.0
 40
5.0
 40
5.0
 40
5.0
 10
-32.85916630414502
 20
-3.271527336675422
 42
1.0
 10
-32.27869442459117
 20
-3.145940006530068
 42
1.0
 10
-31.77109773641243
 20
-3.328116480283154
 42
1.0
 10
-31.5697721187044
 20
-3.967820152272114
 42
1.0
 72
     1
 10
-31.5697721187044
 20
-3.967820152272114
 11
-29.29695612428624
 21
-3.476087645143523
 72
     4
 94
        3
 73
     1
 74
     0
 95
        8
 96
        4
 40
6.0
 40
6.0
 40
6.0
 40
6.0
 40
7.0
 40
7.0
 40
7.0
 40
7.0
 10
-29.2969561242863
 20
-3.476087645143538
 42
1.0
 10
-29.6881007197101
 20
-1.866802583842747
 42
1.0
 10
-30.87776107222446
 20
-0.7599478056671519
 42
1.0
 10
-33.27949204955327
 20
-1.266772121690873
 42
1.0
 72
     1
 10
-33.27949204955321
 20
-1.266772121690857
 11
-33.3448839193166
 21
-1.280919904944549
 72
     4
 94
        3
 73
     1
 74
     0
 95
        8
 96
        4
 40
8.0
 40
8.0
 40
8.0
 40
8.0
 40
9.0
 40
9.0
 40
9.0
 40
9.0
 10
-33.34488391931666
 20
-1.280919904944565
 42
1.0
 10
-35.8115299245211
 20
-1.828202838410234
 42
1.0
 10
-36.3337848782655
 20
-3.544650129978449
 42
1.0
 10
-36.09207577942846
 20
-4.962606301827486
 42
1.0
 72
     4
 94
        3
 73
     1
 74
     0
 95
        8
 96
        4
 40
9.0
 40
9.0
 40
9.0
 40
9.0
 40
10.0
 40
10.0
 40
10.0
 40
10.0
 10
-36.09207577942846
 20
-4.962606301827486
 42
1.0
 10
-35.83736690020323
 20
-6.457652824126184
 42
1.0
 10
-34.96800490008029
 20
-7.196828812263736
 42
1.0
 10
-33.99931718292643
 20
-7.502708028683525
 42
1.0
 72
     4
 94
        3
 73
     1
 74
     0
 95
        8
 96
        4
 40
10.0
 40
10.0
 40
10.0
 40
10.0
 40
11.0
 40
11.0
 40
11.0
 40
11.0
 10
-33.99931718292643
 20
-7.502708028683525
 42
1.0
 10
-33.40907414696031
 20
-7.689011641945555
 42
1.0
 10
-32.48616403135106
 20
-7.975318844696822
 42
1.0
 10
-31.47547483016516
 20
-8.27150505233215
 42
1.0
 72
     4
 94
        3
 73
     1
 74
     0
 95
        8
 96
        4
 40
11.0
 40
11.0
 40
11.0
 40
11.0
 40
12.0
 40
12.0
 40
12.0
 40
12.0
 10
-31.47547483016516
 20
-8.27150505233215
 42
1.0
 10
-31.11213516930568
 20
-8.377980375833708
 42
1.0
 10
-30.40258052645039
 20
-8.557295119664056
 42
1.0
 10
-30.28870163819752
 20
-9.336631754491272
 42
1.0
 72
     4
 94
        3
 73
     1
 74
     0
 95
        8
 96
        4
 40
12.0
 40
12.0
 40
12.0
 40
12.0
 40
13.0
 40
13.0
 40
13.0
 40
13.0
 10
-30.28870163819752
 20
-9.336631754491272
 42
1.0
 10
-30.18837182526216
 20
-10.02498578462435
 42
1.0
 10
-30.64014408852681
 20
-10.43662327702195
 42
1.0
 10
-31.32890793487914
 20
-10.58563999188937
 42
1.0
 72
     1
 10
-31.32890793487914
 20
-10.58563999188937
 11
-31.46505813246008
 21
-10.61509661229637
 72
     4
 94
        3
 73
     1
 74
     0
 95
        8
 96
        4
 40
14.0
 40
14.0
 40
14.0
 40
14.0
 40
15.0
 40
15.0
 40
15.0
 40
15.0
 10
-31.46505813246008
 20
-10.61509661229637
 42
1.0
 10
-32.05208024758041
 20
-10.7421011111722
 42
1.0
 10
-32.71260096537064
 20
-10.55064660173623
 42
1.0
 10
-32.88223929249212
 20
-9.937760156430087
 42
1.0
 72
     1
 10
-32.88223929249212
 20
-9.937760156430087
 11
-35.18886923388655
 21
-10.43680844141459
 72
     4
 94
        3
 73
     1
 74
     0
 95
        8
 96
        4
 40
16.0
 40
16.0
 40
16.0
 40
16.0
 40
17.0
 40
17.0
 40
17.0
 40
17.0
 10
-35.18886923388649
 20
-10.43680844141459
 42
1.0
 10
-34.81471685749708
 20
-11.88431332710451
 42
1.0
 10
-33.72975075395801
 20
-12.95131992706824
 42
1.0
 10
-31.59496833044075
 20
-12.72957879515506
 42
1.0
 72
     1
 10
-31.59496833044068
 20
-12.72957879515504
 11
-30.20639204762409
 21
-12.42915496033269
 97
        0
 75
     0
 76
     1
 98
        1
 10
0.0
 20
0.0
  0
HATCH
  5
C4
330
64
100
AcDbEntity
  8
0
100
AcDbHatch
 10
0.0
 20
0.0
 30
0.0
210
0.0
220
0.0
230
1.0
  2
SOLID
 70
     1
 71
     0
 91
        1
 92
        0
 93
       11
 72
     1
 10
-23.93083334830058
 20
-6.656177916224847
 11
-23.9305586195879
 21
-1.497666803489873
 72
     1
 10
-23.9305586195879
 20
-1.497666803489873
 11
-20.04326836721582
 21
-10.05945907169815
 72
     1
 10
-20.04326836721582
 20
-10.05945907169815
 11
-17.66870538033285
 21
-9.545713210289948
 72
     1
 10
-17.66870538033285
 20
-9.545713210289948
 11
-22.39983793591613
 21
0.8767293108990284
 72
     1
 10
-22.39983793591613
 20
0.8767293108990277
 11
-26.30586704316552
 21
0.0316448471579831
 72
     1
 10
-26.30586704316552
 20
0.0316448471579831
 11
-26.30567237753049
 21
-11.41435433475813
 72
     1
 10
-26.30567237753049
 20
-11.41435433475813
 11
-23.93111465188077
 21
-10.90060961163804
 72
     1
 10
-23.93111465188077
 20
-10.90060961163804
 11
-23.93099314235586
 21
-8.782594625323274
 72
     1
 10
-23.93099314235586
 20
-8.782594625323274
 11
-22.27383089514867
 21
-8.42406118111162
 72
     1
 10
-22.27383089514867
 20
-8.42406118111162
 11
-22.7133102853523
 21
-6.392762105309743
 72
     1
 10
-22.7133102853523
 20
-6.392762105309743
 11
-23.93083334830058
 21
-6.656177916224847
 97
        0
 75
     0
 76
     1
 98
        1
 10
0.0
 20
0.0
  0
HATCH
  5
C5
330
64
100
AcDbEntity
  8
0
100
AcDbHatch
 10
0.0
 20
0.0
 30
0.0
210
0.0
220
0.0
230
1.0
  2
SOLID
 70
     1
 71
     0
 91
        1
 92
        0
 93
        6
 72
     1
 10
-15.79563263740209
 20
2.305574601061446
 11
-18.06492886668423
 21
1.814603608696526
 72
     4
 94
        3
 73
     1
 74
     0
 95
        8
 96
        4
 40
2.0
 40
2.0
 40
2.0
 40
2.0
 40
3.0
 40
3.0
 40
3.0
 40
3.0
 10
-18.06492886668423
 20
1.814603608696526
 42
1.0
 10
-17.240039650055
 20
-1.995739949107533
 42
1.0
 10
-15.71186186991055
 20
-9.059523950669437
 42
1.0
 10
-15.69887855542098
 20
-9.119533578677919
 42
1.0
 72
     1
 10
-15.69887855542092
 20
-9.119533578677903
 11
-10.22610149671526
 21
-7.93547715235816
 72
     1
 10
-10.22610149671526
 20
-7.93547715235816
 11
-10.66558088691882
 21
-5.904178076556605
 72
     1
 10
-10.66558088691882
 20
-5.904178076556605
 11
-13.86994560355126
 21
-6.597454742918437
 72
     4
 94
        3
 73
     1
 74
     0
 95
        8
 96
        4
 40
0.0
 40
0.0
 40
0.0
 40
0.0
 40
1.0
 40
1.0
 40
1.0
 40
1.0
 10
-13.86994560355126
 20
-6.597454742918437
 42
1.0
 10
-13.88373254946556
 20
-6.533730684138598
 42
1.0
 10
-15.1136551579741
 20
-0.8489574873494129
 42
1.0
 10
-15.79563263740209
 20
2.305574601061446
 42
1.0
 97
        0
 75
     0
 76
     1
 98
        1
 10
0.0
 20
0.0
  0
HATCH
  5
C6
330
64
100
AcDbEntity
  8
0
100
AcDbHatch
 10
0.0
 20
0.0
 30
0.0
210
0.0
220
0.0
230
1.0
  2
SOLID
 70
     1
 71
     0
 91
        1
 92
        0
 93
       11
 72
     1
 10
2.375028433631206
 20
-0.9648032523823513
 11
2.375208460142868
 21
4.193687371166118
 72
     1
 10
2.375208460142868
 20
4.193687371166118
 11
6.262509234981617
 21
-4.368102620465918
 72
     1
 10
6.262509234981617
 20
-4.368102620465917
 11
8.637061699398163
 21
-3.854359035633896
 72
     1
 10
8.637061699398163
 20
-3.854359035633896
 11
3.905939666281055
 21
6.568085762131229
 72
     1
 10
3.905939666281055
 20
6.56808576213123
 11
-0.0000000000001235
 21
5.723020649288631
 72
     1
 10
-0.0000000000001234
 20
5.723020649288631
 11
-0.000000000000185
 21
-5.723020649288538
 72
     1
 10
-0.000000000000185
 20
-5.723020649288538
 11
2.37465768908423
 21
-5.20925429869377
 72
     1
 10
2.37465768908423
 20
-5.20925429869377
 11
2.374784459841949
 21
-3.091238174090979
 72
     1
 10
2.374784459841949
 20
-3.091238174090979
 11
4.031830959914354
 21
-2.732729772218408
 72
     1
 10
4.031830959914354
 20
-2.732729772218408
 11
3.592351569710606
 21
-0.701430696416514
 72
     1
 10
3.592351569710606
 20
-0.7014306964165138
 11
2.375028433631206
 21
-0.9648032523823513
 97
        0
 75
     0
 76
     1
 98
        1
 10
0.0
 20
0.0
  0
HATCH
  5
C7
330
64
100
AcDbEntity
  8
0
100
AcDbHatch
 10
0.0
 20
0.0
 30
0.0
210
0.0
220
0.0
230
1.0
  2
SOLID
 70
     1
 71
     0
 91
        1
 92
        0
 93
        8
 72
     1
 10
-42.14906497721024
 20
-6.152323722221632
 11
-42.76219705242848
 21
-3.318391925879333
 72
     1
 10
-42.76219705242848
 20
-3.318391925879333
 11
-42.76249168149826
 21
-3.318455670015027
 72
     1
 10
-42.76249168149826
 20
-3.318455670015027
 11
-45.03079507887072
 21
-6.775797145163721
 72
     1
 10
-45.03079507887072
 20
-6.775797145163721
 11
-48.52545732888054
 21
-4.565295516814268
 72
     1
 10
-48.52545732888054
 20
-4.565295516814268
 11
-48.52574669671678
 21
-4.565358122661792
 72
     1
 10
-48.52574669671678
 20
-4.565358122661792
 11
-47.91261462149855
 21
-7.39928991900409
 72
     1
 10
-47.91261462149855
 20
-7.39928991900409
 11
-44.41773721666716
 21
-9.60984413289331
 72
     1
 10
-44.41773721666716
 20
-9.60984413289331
 11
-42.14906497721024
 21
-6.152323722221632
 97
        0
 75
     0
 76
     1
 98
        1
 10
0.0
 20
0.0
  0
HATCH
  5
C8
330
64
100
AcDbEntity
  8
0
100
AcDbHatch
 10
0.0
 20
0.0
 30
0.0
210
0.0
220
0.0
230
1.0
  2
SOLID
 70
     1
 71
     0
 91
        1
 92
        0
 93
        8
 72
     1
 10
-46.11999732125613
 20
-15.87212484345383
 11
-46.08139565189786
 21
-15.8637732233933
 72
     1
 10
-46.08139565189786
 20
-15.8637732233933
 11
-46.68636620117444
 21
-13.06756447043367
 72
     1
 10
-46.68636620117444
 20
-13.06756447043367
 11
-50.18135879739361
 21
-10.85693604353009
 72
     1
 10
-50.18135879739361
 20
-10.85693604353009
 11
-52.44976215820033
 21
-14.31429914615315
 72
     1
 10
-52.44976215820033
 20
-14.31429914615315
 11
-51.84475063055083
 21
-17.11069730351469
 72
     1
 10
-51.84475063055083
 20
-17.11069730351469
 11
-51.80633836559459
 21
-17.1023866618271
 72
     1
 10
-51.80633836559459
 20
-17.1023866618271
 11
-49.56818574380249
 21
-13.69105724427409
 72
     1
 10
-49.56818574380249
 20
-13.69105724427409
 11
-46.11999732125613
 21
-15.87212484345383
 97
        0
 75
     0
 76
     1
 98
        1
 10
0.0
 20
0.0
  0
HATCH
  5
C9
330
64
100
AcDbEntity
  8
0
100
AcDbHatch
 10
0.0
 20
0.0
 30
0.0
210
0.0
220
0.0
230
1.0
  2
SOLID
 70
     1
 71
     0
 91
        2
 92
        0
 93
        7
 72
     1
 10
-6.859585567104196
 20
4.238922852960538
 11
-11.00449045380928
 21
3.342156692939393
 72
     1
 10
-11.00449045380928
 20
3.342156692939393
 11
-8.638829473816639
 21
-7.592064727757185
 72
     1
 10
-8.638829473816639
 20
-7.592064727757185
 11
-8.63844014254617
 21
-7.591980494435086
 72
     1
 10
-8.63844014254617
 20
-7.591980494435086
 11
-4.494024550545999
 21
-6.695320195210662
 72
     4
 94
        3
 73
     1
 74
     0
 95
        8
 96
        4
 40
3.0
 40
3.0
 40
3.0
 40
3.0
 40
4.0
 40
4.0
 40
4.0
 40
4.0
 10
-4.494024550545999
 20
-6.695320195210662
 42
1.0
 10
-2.825524345390513
 20
-6.334333740063992
 42
1.0
 10
-1.762658323115034
 20
-4.702068307882374
 42
1.0
 10
-2.120071189640999
 20
-3.049576315093403
 42
1.0
 72
     4
 94
        3
 73
     1
 74
     0
 95
        8
 96
        4
 40
4.0
 40
4.0
 40
4.0
 40
4.0
 40
5.0
 40
5.0
 40
5.0
 40
5.0
 10
-2.120071189640999
 20
-3.049576315093403
 42
1.0
 10
-2.485983017556096
 20
-1.358310753073632
 42
1.0
 10
-2.867352798370483
 20
0.4044023583376265
 42
1.0
 10
-3.190995488197396
 20
1.900704823656681
 42
1.0
 72
     4
 94
        3
 73
     1
 74
     0
 95
        8
 96
        4
 40
5.0
 40
5.0
 40
5.0
 40
5.0
 40
6.0
 40
6.0
 40
6.0
 40
6.0
 10
-3.190995488197396
 20
1.900704823656681
 42
1.0
 10
-3.54857504695031
 20
3.553458157285876
 42
1.0
 10
-5.190901218780231
 20
4.599949148191988
 42
1.0
 10
-6.859585567104196
 20
4.238922852960538
 42
1.0
 97
        0
 92
        0
 93
        6
 72
     4
 94
        3
 73
     1
 74
     0
 95
        8
 96
        4
 40
2.0
 40
2.0
 40
2.0
 40
2.0
 40
3.0
 40
3.0
 40
3.0
 40
3.0
 10
-6.919811195494074
 20
2.099808074263809
 42
1.0
 10
-6.228016878711183
 20
2.249480443098069
 42
1.0
 10
-5.547633595833446
 20
1.815851349115847
 42
1.0
 10
-5.399398884916104
 20
1.130701970100344
 42
1.0
 72
     4
 94
        3
 73
     1
 74
     0
 95
        8
 96
        4
 40
3.0
 40
3.0
 40
3.0
 40
3.0
 40
4.0
 40
4.0
 40
4.0
 40
4.0
 10
-5.399398884916104
 20
1.130701970100344
 42
1.0
 10
-5.107009087764085
 20
-0.2207405274728672
 42
1.0
 10
-4.711497421058354
 20
-2.048334586467611
 42
1.0
 10
-4.449160707297047
 20
-3.260870000165379
 42
1.0
 72
     4
 94
        3
 73
     1
 74
     0
 95
        8
 96
        4
 40
4.0
 40
4.0
 40
4.0
 40
4.0
 40
5.0
 40
5.0
 40
5.0
 40
5.0
 10
-4.449160707297047
 20
-3.260870000165379
 42
1.0
 10
-4.300905507193207
 20
-3.946114081381999
 42
1.0
 10
-4.741570606399121
 20
-4.622385452066122
 42
1.0
 10
-5.433383135791953
 20
-4.771973641166296
 42
1.0
 72
     1
 10
-5.433383135791953
 20
-4.771973641166296
 11
-6.809537646582547
 21
-5.069709977697404
 72
     4
 94
        3
 73
     1
 74
     0
 95
        8
 96
        4
 40
0.0
 40
0.0
 40
0.0
 40
0.0
 40
1.0
 40
1.0
 40
1.0
 40
1.0
 10
-6.809537646582547
 20
-5.069709977697404
 42
1.0
 10
-7.284290309572815
 20
-2.875375801708635
 42
1.0
 10
-7.897830097865885
 20
-0.0390758678013329
 42
1.0
 10
-8.296070930952649
 20
1.80204897196991
 42
1.0
 72
     1
 10
-8.296070930952649
 20
1.80204897196991
 11
-6.919811195494074
 21
2.099808074263809
 97
        0
 75
     0
 76
     1
 98
        1
 10
0.0
 20
0.0
  0
ENDBLK
  5
66
330
64
100
AcDbEntity
  8
0
100
AcDbBlockEnd
  0
BLOCK
  5
1C3
330
1C2
100
AcDbEntity
  8
0
100
AcDbBlockBegin
  2
SW_CENTERMARKSYMBOL_0
 70
     0
 10
0.0
 20
0.0
 30
0.0
  3
SW_CENTERMARKSYMBOL_0
  1

  0
LINE
  5
1C5
330
1C2
100
AcDbEntity
  8
0
  6
Continuous
 62
     0
370
    18
100
AcDbLine
 10
0.0
 20
0.0
 30
0.0
 11
0.0
 21
2.5
 31
0.0
  0
LINE
  5
1C6
330
1C2
100
AcDbEntity
  8
0
  6
Continuous
 62
     0
370
    18
100
AcDbLine
 10
0.0
 20
0.0
 30
0.0
 11
-2.5
 21
0.0
 31
0.0
  0
LINE
  5
1C7
330
1C2
100
AcDbEntity
  8
0
  6
Continuous
 62
     0
370
    18
100
AcDbLine
 10
0.0
 20
0.0
 30
0.0
 11
0.0
 21
-2.5
 31
0.0
  0
LINE
  5
1C8
330
1C2
100
AcDbEntity
  8
0
  6
Continuous
 62
     0
370
    18
100
AcDbLine
 10
0.0
 20
0.0
 30
0.0
 11
2.5
 21
0.0
 31
0.0
  0
LINE
  5
1C9
330
1C2
100
AcDbEntity
  8
0
  6
Continuous
 62
     0
370
    18
100
AcDbLine
 10
0.0
 20
5.0
 30
0.0
 11
0.0
 21
267.4600004878
 31
0.0
  0
LINE
  5
1CA
330
1C2
100
AcDbEntity
  8
0
  6
Continuous
 62
     0
370
    18
100
AcDbLine
 10
-5.0
 20
0.0
 30
0.0
 11
-266.5825290765
 21
0.0
 31
0.0
  0
LINE
  5
1CB
330
1C2
100
AcDbEntity
  8
0
  6
Continuous
 62
     0
370
    18
100
AcDbLine
 10
0.0
 20
-5.0
 30
0.0
 11
0.0
 21
-268.7999025064
 31
0.0
  0
LINE
  5
1CC
330
1C2
100
AcDbEntity
  8
0
  6
Continuous
 62
     0
370
    18
100
AcDbLine
 10
5.0
 20
0.0
 30
0.0
 11
261.752496948
 21
0.0
 31
0.0
  0
ENDBLK
  5
1C4
330
1C2
100
AcDbEntity
  8
0
100
AcDbBlockEnd
  0
ENDSEC
  0
SECTION
  2
ENTITIES
  0
ARC
  5
CA
330
1F
100
AcDbEntity
  8
0
100
AcDbCircle
 10
-126.2817449833
 20
383.9591971854
 30
0.0
 40
3.999999999998818
100
AcDbArc
 50
44.177326162
 51
135.8226738382
  0
LINE
  5
CB
330
1F
100
AcDbEntity
  8
0
100
AcDbLine
 10
-120.9989314261
 20
384.2623158424
 30
0.0
 11
-123.412999212
 21
386.7467225573
 31
0.0
  0
LINE
  5
CC
330
1F
100
AcDbEntity
  8
0
100
AcDbLine
 10
-129.1504907546
 20
386.7467225573
 30
0.0
 11
-131.5645585405
 21
384.2623158424
 31
0.0
  0
ARC
  5
CD
330
1F
100
AcDbEntity
  8
0
100
AcDbCircle
 10
-100.6885108493
 20
385.4591971854
 30
0.0
 40
0.999999999997958
100
AcDbArc
 50
90.0
 51
152.9811143725
  0
ARC
  5
CE
330
1F
100
AcDbEntity
  8
0
100
AcDbCircle
 10
-87.6885108493
 20
385.4591971854
 30
0.0
 40
0.9999999999979376
100
AcDbArc
 50
27.0188856277
 51
90.0
  0
LINE
  5
CF
330
1F
100
AcDbEntity
  8
0
100
AcDbLine
 10
-87.6885108493
 20
386.4591971854
 30
0.0
 11
-100.6885108493
 21
386.4591971854
 31
0.0
  0
LINE
  5
D0
330
1F
100
AcDbEntity
  8
0
100
AcDbLine
 10
-86.0793676824
 20
384.50491302
 30
0.0
 11
-86.7976540162
 21
385.9134813508
 31
0.0
  0
LINE
  5
D1
330
1F
100
AcDbEntity
  8
0
100
AcDbLine
 10
-101.5793676824
 20
385.9134813508
 30
0.0
 11
-102.2976540162
 21
384.5049130199
 31
0.0
  0
ARC
  5
D2
330
1F
100
AcDbEntity
  8
0
100
AcDbCircle
 10
-103.1885108493
 20
384.9591971854
 30
0.0
 40
1.000000000000539
100
AcDbArc
 50
269.9999999996
 51
332.9811143723
  0
ARC
  5
D3
330
1F
100
AcDbEntity
  8
0
100
AcDbCircle
 10
-85.1885108493
 20
384.9591971854
 30
0.0
 40
1.000000000000568
100
AcDbArc
 50
207.0188856274
 51
270.0
  0
ARC
  5
D4
330
1F
100
AcDbEntity
  8
0
100
AcDbCircle
 10
-120.2817449833
 20
384.9591971854
 30
0.0
 40
0.9999999999980833
100
AcDbArc
 50
224.1773261613
 51
270.0
  0
ARC
  5
D5
330
1F
100
AcDbEntity
  8
0
100
AcDbCircle
 10
-132.2817449833
 20
384.9591971854
 30
0.0
 40
0.9999999999980729
100
AcDbArc
 50
270.0000000001
 51
315.822673838
  0
LINE
  5
D6
330
1F
100
AcDbEntity
  8
0
100
AcDbLine
 10
-103.1885108493
 20
383.9591971854
 30
0.0
 11
-120.2817449833
 21
383.9591971854
 31
0.0
  0
LINE
  5
D7
330
1F
100
AcDbEntity
  8
0
100
AcDbLine
 10
-27.4417449793
 20
383.9591971854
 30
0.0
 11
-85.1885108493
 21
383.9591971854
 31
0.0
  0
ARC
  5
D8
330
1F
100
AcDbEntity
  8
0
100
AcDbCircle
 10
-27.4417449793
 20
382.7591971854
 30
0.0
 40
1.200000000003463
100
AcDbArc
 50
55.1985914546
 51
90.0
  0
LINE
  5
D9
330
1F
100
AcDbEntity
  8
0
100
AcDbLine
 10
-197.0317449833
 20
383.9591971854
 30
0.0
 11
-203.0317449833
 21
383.9591971854
 31
0.0
  0
ARC
  5
DA
330
1F
100
AcDbEntity
  8
0
100
AcDbCircle
 10
-19.4417449793
 20
382.7591971854
 30
0.0
 40
1.20000000000465
100
AcDbArc
 50
90.0
 51
124.8014085456
  0
LINE
  5
DB
330
1F
100
AcDbEntity
  8
0
100
AcDbLine
 10
-13.4417449793
 20
383.9591971854
 30
0.0
 11
-19.4417449793
 21
383.9591971854
 31
0.0
  0
ARC
  5
DC
330
1F
100
AcDbEntity
  8
0
100
AcDbCircle
 10
-197.0317449833
 20
382.7591971854
 30
0.0
 40
1.200000000004999
100
AcDbArc
 50
55.1985914547
 51
90.0
  0
LINE
  5
DD
330
1F
100
AcDbEntity
  8
0
100
AcDbLine
 10
-132.2817449833
 20
383.9591971854
 30
0.0
 11
-189.0317449833
 21
383.9591971854
 31
0.0
  0
ARC
  5
DE
330
1F
100
AcDbEntity
  8
0
100
AcDbCircle
 10
-189.0317449833
 20
382.7591971854
 30
0.0
 40
1.200000000005038
100
AcDbArc
 50
90.0
 51
124.801408547
  0
LINE
  5
DF
330
1F
100
AcDbEntity
  8
0
100
AcDbLine
 10
-25.3251663689
 20
382.749451096
 30
0.0
 11
-26.7568644739
 21
383.7445593997
 31
0.0
  0
LINE
  5
E0
330
1F
100
AcDbEntity
  8
0
100
AcDbLine
 10
-194.915166373
 20
382.749451096
 30
0.0
 11
-196.346864478
 21
383.7445593997
 31
0.0
  0
LINE
  5
E1
330
1F
100
AcDbEntity
  8
0
100
AcDbLine
 10
-20.1266254846
 20
383.7445593997
 30
0.0
 11
-21.5583235896
 21
382.749451096
 31
0.0
  0
LINE
  5
E2
330
1F
100
AcDbEntity
  8
0
100
AcDbLine
 10
-189.7166254887
 20
383.7445593997
 30
0.0
 11
-191.1483235937
 21
382.749451096
 31
0.0
  0
ARC
  5
E3
330
1F
100
AcDbEntity
  8
0
100
AcDbCircle
 10
-193.0317449833
 20
385.4591971854
 30
0.0
 40
3.300000000001158
100
AcDbArc
 50
235.1985914546
 51
304.8014085448
  0
ARC
  5
E4
330
1F
100
AcDbEntity
  8
0
100
AcDbCircle
 10
-23.4417449793
 20
385.4591971854
 30
0.0
 40
3.2999999999994
100
AcDbArc
 50
235.1985914546
 51
304.8014085453
  0
CIRCLE
  5
E5
330
1F
100
AcDbEntity
  8
0
100
AcDbCircle
 10
-102.0317449833
 20
134.4591971854
 30
0.0
 40
1.499999999999989
  0
ARC
  5
E6
330
1F
100
AcDbEntity
  8
0
100
AcDbCircle
 10
-126.2817449833
 20
-115.0408028146
 30
0.0
 40
3.999999999998856
100
AcDbArc
 50
224.1773261618
 51
315.822673838
  0
LINE
  5
E7
330
1F
100
AcDbEntity
  8
0
100
AcDbLine
 10
-120.9989314261
 20
-115.3439214716
 30
0.0
 11
-123.412999212
 21
-117.8283281866
 31
0.0
  0
LINE
  5
E8
330
1F
100
AcDbEntity
  8
0
100
AcDbLine
 10
-129.1504907546
 20
-117.8283281866
 30
0.0
 11
-131.5645585405
 21
-115.3439214716
 31
0.0
  0
ARC
  5
E9
330
1F
100
AcDbEntity
  8
0
100
AcDbCircle
 10
-100.6885108493
 20
-116.5408028146
 30
0.0
 40
0.9999999999979587
100
AcDbArc
 50
207.0188856275
 51
270.0
  0
SPLINE
  5
EA
330
1F
100
AcDbEntity
  8
0
100
AcDbSpline
210
0.0
220
0.0
230
1.0
 70
     8
 71
     3
 72
    11
 73
     7
 74
     0
 42
0.00000001
 43
0.00000001
 40
0.0
 40
0.0
 40
0.0
 40
0.0
 40
0.3150105765246302
 40
0.6321326680954533
 40
0.909107511407504
 40
1.0
 40
1.0
 40
1.0
 40
1.0
 10
-100.6885108492708
 20
132.8449722750279
 30
0.0
 10
-100.7900832287295
 20
132.7692506387888
 30
0.0
 10
-100.9939088270328
 20
132.6172998043869
 30
0.0
 10
-101.3034183653566
 20
132.4830269366223
 30
0.0
 10
-101.4913144197881
 20
132.4285254989509
 30
0.0
 10
-101.5619219955117
 20
132.4124683974912
 30
0.0
 10
-101.5793676823515
 20
132.4085010163603
 30
0.0
  0
SPLINE
  5
EB
330
1F
100
AcDbEntity
  8
0
100
AcDbSpline
210
0.0
220
0.0
230
1.0
 70
     8
 71
     3
 72
    11
 73
     7
 74
     0
 42
0.00000001
 43
0.00000001
 40
0.0
 40
0.0
 40
0.0
 40
0.0
 40
0.268178196989317
 40
0.536799048329052
 40
0.8048262598277013
 40
0.9999999999999999
 40
0.9999999999999999
 40
0.9999999999999999
 40
0.9999999999999999
 10
-101.5793676823515
 20
136.5098933543745
 30
0.0
 10
-101.5218764546525
 20
136.4962522737423
 30
0.0
 10
-101.4067991043587
 20
136.4689475965398
 30
0.0
 10
-101.1468250356722
 20
136.3710428990767
 30
0.0
 10
-100.8966891402851
 20
136.235256615613
 30
0.0
 10
-100.7502248491911
 20
136.1213975858501
 30
0.0
 10
-100.6885108492708
 20
136.0734220957069
 30
0.0
  0
ARC
  5
EC
330
1F
100
AcDbEntity
  8
0
100
AcDbCircle
 10
-87.6885108493
 20
-116.5408028146
 30
0.0
 40
0.9999999999979575
100
AcDbArc
 50
270.0
 51
332.9811143723
  0
LINE
  5
ED
330
1F
100
AcDbEntity
  8
0
100
AcDbLine
 10
-87.6885108493
 20
-117.5408028146
 30
0.0
 11
-100.6885108493
 21
-117.5408028146
 31
0.0
  0
SPLINE
  5
EE
330
1F
100
AcDbEntity
  8
0
100
AcDbSpline
210
0.0
220
0.0
230
1.0
 70
     8
 71
     3
 72
    13
 73
     9
 74
     0
 42
0.00000001
 43
0.00000001
 40
0.0
 40
0.0
 40
0.0
 40
0.0
 40
0.1923599457906335
 40
0.3847200149824871
 40
0.577076303429026
 40
0.7694281501875154
 40
0.9617828900136006
 40
1.0
 40
1.0
 40
1.0
 40
1.0
 10
-100.6885108492708
 20
136.0734220957069
 30
0.0
 10
-100.5218436051942
 20
135.9045244525297
 30
0.0
 10
-100.1885090101221
 20
135.5667290578255
 30
0.0
 10
-99.936930634392
 20
134.886511229101
 30
0.0
 10
-99.91051837565021
 20
134.1707692923062
 30
0.0
 10
-100.1266715136664
 20
133.485631116041
 30
0.0
 10
-100.4405227997496
 20
133.0603122637079
 30
0.0
 10
-100.6532512665448
 20
132.8755898719635
 30
0.0
 10
-100.6885108492708
 20
132.8449722750279
 30
0.0
  0
LINE
  5
EF
330
1F
100
AcDbEntity
  8
0
100
AcDbLine
 10
-86.0793676824
 20
-115.5865186492
 30
0.0
 11
-86.7976540162
 21
-116.9950869801
 31
0.0
  0
LINE
  5
F0
330
1F
100
AcDbEntity
  8
0
100
AcDbLine
 10
-101.5793676824
 20
-116.99508698
 30
0.0
 11
-102.2976540162
 21
-115.5865186492
 31
0.0
  0
LINE
  5
F1
330
1F
100
AcDbEntity
  8
0
100
AcDbLine
 10
-101.5793676824
 20
132.4085010164
 30
0.0
 11
-101.9559162628
 21
132.3915155597
 31
0.0
  0
LINE
  5
F2
330
1F
100
AcDbEntity
  8
0
100
AcDbLine
 10
-101.7261111539
 20
136.5165126991
 30
0.0
 11
-101.5793676824
 21
136.5098933544
 31
0.0
  0
ARC
  5
F3
330
1F
100
AcDbEntity
  8
0
100
AcDbCircle
 10
-103.1885108493
 20
-116.0408028146
 30
0.0
 40
1.000000000000513
100
AcDbArc
 50
27.0188856277
 51
90.0000000004
  0
SPLINE
  5
F4
330
1F
100
AcDbEntity
  8
0
100
AcDbSpline
210
0.0
220
0.0
230
1.0
 70
     8
 71
     3
 72
    10
 73
     6
 74
     0
 42
0.00000001
 43
0.00000001
 40
0.0
 40
0.0
 40
0.0
 40
0.0
 40
0.2981977463882342
 40
0.7279102906007381
 40
1.0
 40
1.0
 40
1.0
 40
1.0
 10
-102.5675092871915
 20
132.432455290918
 30
0.0
 10
-102.6238297086613
 20
132.4471607841541
 30
0.0
 10
-102.7613096690413
 20
132.4830573661523
 30
0.0
 10
-102.9864072035178
 20
132.5813706101172
 30
0.0
 10
-103.1320463497869
 20
132.6715521096404
 30
0.0
 10
-103.1885108492689
 20
132.7065156023795
 30
0.0
  0
ARC
  5
F5
330
1F
100
AcDbEntity
  8
0
100
AcDbCircle
 10
-85.1885108493
 20
-116.0408028146
 30
0.0
 40
1.000000000000534
100
AcDbArc
 50
90.0
 51
152.9811143726
  0
ARC
  5
F6
330
1F
100
AcDbEntity
  8
0
100
AcDbCircle
 10
-120.2817449833
 20
-116.0408028146
 30
0.0
 40
0.9999999999980537
100
AcDbArc
 50
90.0
 51
135.8226738387
  0
ARC
  5
F7
330
1F
100
AcDbEntity
  8
0
100
AcDbCircle
 10
-132.2817449833
 20
-116.0408028146
 30
0.0
 40
0.9999999999980531
100
AcDbArc
 50
44.177326162
 51
89.9999999999
  0
LINE
  5
F8
330
1F
100
AcDbEntity
  8
0
100
AcDbLine
 10
-103.1885108493
 20
-115.0408028146
 30
0.0
 11
-120.2817449833
 21
-115.0408028146
 31
0.0
  0
LINE
  5
F9
330
1F
100
AcDbEntity
  8
0
100
AcDbLine
 10
-103.1885108493
 20
132.7065156024
 30
0.0
 11
-103.3893949421
 21
132.8944317708
 31
0.0
  0
SPLINE
  5
FA
330
1F
100
AcDbEntity
  8
0
100
AcDbSpline
210
0.0
220
0.0
230
1.0
 70
     8
 71
     3
 72
    10
 73
     6
 74
     0
 42
0.00000001
 43
0.00000001
 40
0.0
 40
0.0
 40
0.0
 40
0.0
 40
0.2725558479121284
 40
0.798250232789177
 40
1.0
 40
1.0
 40
1.0
 40
1.0
 10
-104.0658605165627
 20
134.8442331181834
 30
0.0
 10
-104.0478041406815
 20
134.9649422675443
 30
0.0
 10
-103.9949213778976
 20
135.3184702043515
 30
0.0
 10
-103.7558802755834
 20
135.7251494094112
 30
0.0
 10
-103.5059274018964
 20
135.9332944164858
 30
0.0
 10
-103.4366053323805
 20
135.9910214689376
 30
0.0
  0
LINE
  5
FB
330
1F
100
AcDbEntity
  8
0
100
AcDbLine
 10
-27.4417449793
 20
-115.0408028146
 30
0.0
 11
-85.1885108493
 21
-115.0408028146
 31
0.0
  0
ARC
  5
FC
330
1F
100
AcDbEntity
  8
0
100
AcDbCircle
 10
-27.4417449793
 20
-113.8408028146
 30
0.0
 40
1.200000000003403
100
AcDbArc
 50
270.0
 51
304.8014085454
  0
LINE
  5
FD
330
1F
100
AcDbEntity
  8
0
100
AcDbLine
 10
-197.0317449833
 20
-115.0408028146
 30
0.0
 11
-203.0317449833
 21
-115.0408028146
 31
0.0
  0
LINE
  5
FE
330
1F
100
AcDbEntity
  8
0
100
AcDbLine
 10
-203.0317449833
 20
-115.0408028146
 30
0.0
 11
-203.0317449833
 21
383.9591971854
 31
0.0
  0
ARC
  5
FF
330
1F
100
AcDbEntity
  8
0
100
AcDbCircle
 10
-19.4417449793
 20
-113.8408028146
 30
0.0
 40
1.200000000004593
100
AcDbArc
 50
235.1985914544
 51
270.0
  0
LINE
  5
100
330
1F
100
AcDbEntity
  8
0
100
AcDbLine
 10
-13.4417449793
 20
-115.0408028146
 30
0.0
 11
-13.4417449793
 21
383.9591971854
 31
0.0
  0
LINE
  5
101
330
1F
100
AcDbEntity
  8
0
100
AcDbLine
 10
-13.4417449793
 20
-115.0408028146
 30
0.0
 11
-19.4417449793
 21
-115.0408028146
 31
0.0
  0
ARC
  5
102
330
1F
100
AcDbEntity
  8
0
100
AcDbCircle
 10
-197.0317449833
 20
-113.8408028146
 30
0.0
 40
1.200000000004952
100
AcDbArc
 50
270.0
 51
304.8014085453
  0
LINE
  5
103
330
1F
100
AcDbEntity
  8
0
100
AcDbLine
 10
-132.2817449833
 20
-115.0408028146
 30
0.0
 11
-189.0317449833
 21
-115.0408028146
 31
0.0
  0
ARC
  5
104
330
1F
100
AcDbEntity
  8
0
100
AcDbCircle
 10
-189.0317449833
 20
-113.8408028146
 30
0.0
 40
1.200000000004968
100
AcDbArc
 50
235.198591453
 51
270.0
  0
LINE
  5
105
330
1F
100
AcDbEntity
  8
0
100
AcDbLine
 10
-25.3251663689
 20
-113.8310567252
 30
0.0
 11
-26.7568644739
 21
-114.826165029
 31
0.0
  0
LINE
  5
106
330
1F
100
AcDbEntity
  8
0
100
AcDbLine
 10
-194.915166373
 20
-113.8310567252
 30
0.0
 11
-196.346864478
 21
-114.826165029
 31
0.0
  0
LINE
  5
107
330
1F
100
AcDbEntity
  8
0
100
AcDbLine
 10
-20.1266254846
 20
-114.826165029
 30
0.0
 11
-21.5583235896
 21
-113.8310567252
 31
0.0
  0
LINE
  5
108
330
1F
100
AcDbEntity
  8
0
100
AcDbLine
 10
-189.7166254887
 20
-114.8261650289
 30
0.0
 11
-191.1483235937
 21
-113.8310567252
 31
0.0
  0
ARC
  5
109
330
1F
100
AcDbEntity
  8
0
100
AcDbCircle
 10
-193.0317449833
 20
-116.5408028146
 30
0.0
 40
3.30000000000111
100
AcDbArc
 50
55.1985914552
 51
124.8014085454
  0
ARC
  5
10A
330
1F
100
AcDbEntity
  8
0
100
AcDbCircle
 10
-23.4417449793
 20
-116.5408028146
 30
0.0
 40
3.299999999999462
100
AcDbArc
 50
55.1985914547
 51
124.8014085454
  0
LINE
  5
10B
330
1F
100
AcDbEntity
  8
0
100
AcDbLine
 10
-102.7853887956
 20
132.0754981683
 30
0.0
 11
-102.5861604468
 21
132.4337037902
 31
0.0
  0
ARC
  5
10C
330
1F
100
AcDbEntity
  8
0
100
AcDbCircle
 10
-102.0317449833
 20
134.4591971854
 30
0.0
 40
2.100000000000011
100
AcDbArc
 50
254.6920214701
 51
299.3725966762
  0
ARC
  5
10D
330
1F
100
AcDbEntity
  8
0
100
AcDbCircle
 10
-102.0317449833
 20
134.4591971854
 30
0.0
 40
2.499999999999994
100
AcDbArc
 50
252.4548335049
 51
279.0489110532
  0
ARC
  5
10E
330
1F
100
AcDbEntity
  8
0
100
AcDbCircle
 10
-102.0317449833
 20
134.4591971854
 30
0.0
 40
2.100000000000017
100
AcDbArc
 50
74.6920214701
 51
132.3137233663
  0
ARC
  5
10F
330
1F
100
AcDbEntity
  8
0
100
AcDbCircle
 10
-102.0317449833
 20
134.4591971854
 30
0.0
 40
2.500000000000088
100
AcDbArc
 50
80.9510889468
 51
135.373566026
  0
LINE
  5
110
330
1F
100
AcDbEntity
  8
0
100
AcDbLine
 10
-103.4454432464
 20
136.0120839233
 30
0.0
 11
-103.8110000457
 21
136.2154008816
 31
0.0
  0
SPLINE
  5
111
330
1F
100
AcDbEntity
  8
0
100
AcDbSpline
210
0.0
220
0.0
230
1.0
 70
     8
 71
     3
 72
    12
 73
     8
 74
     0
 42
0.00000001
 43
0.00000001
 40
0.0
 40
0.0
 40
0.0
 40
0.0
 40
0.4595439764163055
 40
0.6401259688654828
 40
0.8223507923617263
 40
0.9288940890834642
 40
1.0
 40
1.0
 40
1.0
 40
1.0
 10
-103.0529713347638
 20
131.594394096307
 30
0.0
 10
-103.1108583455216
 20
131.5177020222677
 30
0.0
 10
-103.1914925845667
 20
131.4108730989911
 30
0.0
 10
-103.390294240245
 20
131.3400527016587
 30
0.0
 10
-103.5312213476652
 20
131.3325100138217
 30
0.0
 10
-103.6527810441779
 20
131.3605958228016
 30
0.0
 10
-103.710044418556
 20
131.3890674638391
 30
0.0
 10
-103.7329646693775
 20
131.4004635291421
 30
0.0
  0
LINE
  5
112
330
1F
100
AcDbEntity
  8
0
100
AcDbLine
 10
-102.7853887956
 20
132.0754981683
 30
0.0
 11
-103.0529713348
 21
131.5943940963
 31
0.0
  0
LWPOLYLINE
  5
113
330
1F
100
AcDbEntity
  8
0
100
AcDbPolyline
 90
        3
 70
   128
 43
0.0
 10
-102.4514571204
 20
130.9844537816
 10
-102.5842200451
 20
131.0030763388
 10
-103.7329646694
 20
131.4004635291
  0
LINE
  5
114
330
1F
100
AcDbEntity
  8
0
100
AcDbLine
 10
-103.9268952365
 20
132.0804568638
 30
0.0
 11
-103.6593126974
 21
132.5615609357
 31
0.0
  0
SPLINE
  5
115
330
1F
100
AcDbEntity
  8
0
100
AcDbSpline
210
0.0
220
0.0
230
1.0
 70
     8
 71
     3
 72
    13
 73
     9
 74
     0
 42
0.00000001
 43
0.00000001
 40
0.0
 40
0.0
 40
0.0
 40
0.0
 40
0.0363671126657815
 40
0.1331731543298873
 40
0.2624475194352168
 40
0.4523499584661604
 40
0.759562245181128
 40
1.0
 40
1.0
 40
1.0
 40
1.0
 10
-103.7329646693775
 20
131.4004635291421
 30
0.0
 10
-103.7442381919297
 20
131.4070936062583
 30
0.0
 10
-103.785520835743
 20
131.4313723630332
 30
0.0
 10
-103.857136000891
 20
131.4916402995501
 30
0.0
 10
-103.937684761433
 20
131.5991995603482
 30
0.0
 10
-103.9961290338747
 20
131.761616751586
 30
0.0
 10
-103.9930404952266
 20
131.9339600316127
 30
0.0
 10
-103.9470754976295
 20
132.0357621361232
 30
0.0
 10
-103.9268952365424
 20
132.0804568637558
 30
0.0
  0
ARC
  5
116
330
1F
100
AcDbEntity
  8
0
100
AcDbCircle
 10
-102.0317449833
 20
134.4591971854
 30
0.0
 40
3.500000000000093
100
AcDbArc
 50
96.8873559236
 51
240.917874472
  0
SPLINE
  5
117
330
1F
100
AcDbEntity
  8
0
100
AcDbSpline
210
0.0
220
0.0
230
1.0
 70
     8
 71
     3
 72
    17
 73
    13
 74
     0
 42
0.00000001
 43
0.00000001
 40
0.0
 40
0.0
 40
0.0
 40
0.0
 40
0.2211519097081724
 40
0.3155743366785419
 40
0.4109288304003753
 40
0.4670676664966481
 40
0.5234494239412019
 40
0.5753595994833344
 40
0.6447894863381879
 40
0.7444540872153927
 40
0.900447728167178
 40
1.0
 40
1.0
 40
1.0
 40
1.0
 10
-104.5421967403551
 20
135.0888611418552
 30
0.0
 10
-104.6414176245296
 20
135.1629700234553
 30
0.0
 10
-104.7830015916287
 20
135.2687202346281
 30
0.0
 10
-104.8826285435432
 20
135.5344303825878
 30
0.0
 10
-104.8941164930701
 20
135.733566931855
 30
0.0
 10
-104.8473624442178
 20
135.918228306148
 30
0.0
 10
-104.7730057550063
 20
136.0580170136818
 30
0.0
 10
-104.6641857888284
 20
136.1817087354882
 30
0.0
 10
-104.5102248549324
 20
136.2878735746591
 30
0.0
 10
-104.2847572734645
 20
136.3572163772696
 30
0.0
 10
-104.065151367259
 20
136.3414400703126
 30
0.0
 10
-103.9397607789287
 20
136.2827217787651
 30
0.0
 10
-103.8909127351518
 20
136.2598470661234
 30
0.0
  0
ARC
  5
118
330
1F
100
AcDbEntity
  8
0
100
AcDbCircle
 10
-102.0317449833
 20
134.4591971854
 30
0.0
 40
2.500000000000002
100
AcDbArc
 50
166.4621829181
 51
229.3809154392
  0
LINE
  5
119
330
1F
100
AcDbEntity
  8
0
100
AcDbLine
 10
-104.4622840509
 20
135.0444149574
 30
0.0
 11
-104.5421967404
 21
135.0888611419
 31
0.0
  0
LINE
  5
11A
330
1F
100
AcDbEntity
  8
0
100
AcDbLine
 10
-103.8909127352
 20
136.2598470661
 30
0.0
 11
-103.8110000457
 21
136.2154008816
 31
0.0
  0
LINE
  5
11B
330
1F
100
AcDbEntity
  8
0
100
AcDbLine
 10
-103.4600843486
 20
132.9197665577
 30
0.0
 11
-103.6593126974
 21
132.5615609357
 31
0.0
  0
LINE
  5
11C
330
1F
100
AcDbEntity
  8
0
100
AcDbLine
 10
-104.4622840509
 20
135.0444149574
 30
0.0
 11
-104.0967272516
 21
134.841097999
 31
0.0
  0
ARC
  5
11D
330
1F
100
AcDbEntity
  8
0
100
AcDbCircle
 10
-102.0317449833
 20
134.4591971854
 30
0.0
 40
2.100000000000013
100
AcDbArc
 50
169.5220255778
 51
227.143727474
  0
ARC
  5
11E
330
1F
100
AcDbEntity
  8
0
100
AcDbCircle
 10
-102.0317449833
 20
134.4591971854
 30
0.0
 40
4.500000000000076
100
AcDbArc
 50
95.1677530607
 51
240.917874472
  0
LWPOLYLINE
  5
11F
330
1F
100
AcDbEntity
  8
0
100
AcDbPolyline
 90
        3
 70
   128
 43
0.0
 10
-102.4370692845
 20
129.9774885591
 10
-103.0224694598
 20
130.0696112127
 10
-104.2190274368
 20
130.5265396274
  0
LINE
  5
120
330
1F
100
AcDbEntity
  8
0
  6
PHANTOM
 62
     8
370
    18
100
AcDbLine
 10
-123.412999212
 20
-117.8283281866
 30
0.0
 11
-123.412999212
 21
386.7467225573
 31
0.0
  0
LINE
  5
121
330
1F
100
AcDbEntity
  8
0
  6
PHANTOM
 62
     8
370
    18
100
AcDbLine
 10
-129.1504907546
 20
-117.8283281866
 30
0.0
 11
-129.1504907546
 21
386.7467225573
 31
0.0
  0
LINE
  5
122
330
1F
100
AcDbEntity
  8
0
  6
PHANTOM
 62
     8
370
    18
100
AcDbLine
 10
-120.9989314261
 20
-115.3439214716
 30
0.0
 11
-120.9989314261
 21
384.2623158424
 31
0.0
  0
LINE
  5
123
330
1F
100
AcDbEntity
  8
0
  6
PHANTOM
 62
     8
370
    18
100
AcDbLine
 10
-131.5645585405
 20
-115.3439214716
 30
0.0
 11
-131.5645585405
 21
384.2623158424
 31
0.0
  0
LINE
  5
124
330
1F
100
AcDbEntity
  8
0
  6
PHANTOM
 62
     8
370
    18
100
AcDbLine
 10
-101.5793676824
 20
-116.99508698
 30
0.0
 11
-101.5793676824
 21
132.4085010164
 31
0.0
  0
LINE
  5
125
330
1F
100
AcDbEntity
  8
0
  6
PHANTOM
 62
     8
370
    18
100
AcDbLine
 10
-100.6885108493
 20
-117.5408028146
 30
0.0
 11
-100.6885108493
 21
132.844972275
 31
0.0
  0
LINE
  5
126
330
1F
100
AcDbEntity
  8
0
  6
PHANTOM
 62
     8
370
    18
100
AcDbLine
 10
-101.5793676824
 20
136.5098933544
 30
0.0
 11
-101.5793676824
 21
385.9134813508
 31
0.0
  0
LINE
  5
127
330
1F
100
AcDbEntity
  8
0
  6
PHANTOM
 62
     8
370
    18
100
AcDbLine
 10
-100.6885108493
 20
136.0734220957
 30
0.0
 11
-100.6885108493
 21
386.4591971854
 31
0.0
  0
LINE
  5
128
330
1F
100
AcDbEntity
  8
0
  6
PHANTOM
 62
     8
370
    18
100
AcDbLine
 10
-86.7976540162
 20
-116.9950869801
 30
0.0
 11
-86.7976540162
 21
385.9134813508
 31
0.0
  0
LINE
  5
129
330
1F
100
AcDbEntity
  8
0
  6
PHANTOM
 62
     8
370
    18
100
AcDbLine
 10
-87.6885108493
 20
-117.5408028146
 30
0.0
 11
-87.6885108493
 21
386.4591971854
 31
0.0
  0
LINE
  5
12A
330
1F
100
AcDbEntity
  8
0
  6
PHANTOM
 62
     8
370
    18
100
AcDbLine
 10
-86.0793676824
 20
-115.5865186492
 30
0.0
 11
-86.0793676824
 21
384.50491302
 31
0.0
  0
LINE
  5
12B
330
1F
100
AcDbEntity
  8
0
  6
PHANTOM
 62
     8
370
    18
100
AcDbLine
 10
-102.2976540162
 20
-115.5865186492
 30
0.0
 11
-102.2976540162
 21
131.1186978953
 31
0.0
  0
LINE
  5
12C
330
1F
100
AcDbEntity
  8
0
  6
PHANTOM
 62
     8
370
    18
100
AcDbLine
 10
-102.2976540162
 20
137.7996964755
 30
0.0
 11
-102.2976540162
 21
384.5049130199
 31
0.0
  0
LINE
  5
12D
330
1F
100
AcDbEntity
  8
0
  6
PHANTOM
 62
     8
370
    18
100
AcDbLine
 10
-103.1885108493
 20
138.8079777882
 30
0.0
 11
-103.1885108493
 21
383.9591971854
 31
0.0
  0
LINE
  5
12E
330
1F
100
AcDbEntity
  8
0
  6
PHANTOM
 62
     8
370
    18
100
AcDbLine
 10
-103.1885108493
 20
-115.0408028146
 30
0.0
 11
-103.1885108493
 21
130.1104165826
 31
0.0
  0
LINE
  5
12F
330
1F
100
AcDbEntity
  8
0
  6
PHANTOM
 62
     8
370
    18
100
AcDbLine
 10
-103.1885108493
 20
131.4630975351
 30
0.0
 11
-103.1885108493
 21
132.7065156024
 31
0.0
  0
LINE
  5
130
330
1F
100
AcDbEntity
  8
0
  6
PHANTOM
 62
     8
370
    18
100
AcDbLine
 10
-85.1885108493
 20
-115.0408028146
 30
0.0
 11
-85.1885108493
 21
383.9591971854
 31
0.0
  0
LINE
  5
131
330
1F
100
AcDbEntity
  8
0
  6
PHANTOM
 62
     8
370
    18
100
AcDbLine
 10
-120.2817449833
 20
-115.0408028146
 30
0.0
 11
-120.2817449833
 21
383.9591971854
 31
0.0
  0
LINE
  5
132
330
1F
100
AcDbEntity
  8
0
  6
PHANTOM
 62
     8
370
    18
100
AcDbLine
 10
-132.2817449833
 20
-115.0408028146
 30
0.0
 11
-132.2817449833
 21
383.9591971854
 31
0.0
  0
LINE
  5
133
330
1F
100
AcDbEntity
  8
0
  6
PHANTOM
 62
     8
370
    18
100
AcDbLine
 10
-27.4417449793
 20
-115.0408028146
 30
0.0
 11
-27.4417449793
 21
383.9591971854
 31
0.0
  0
LINE
  5
134
330
1F
100
AcDbEntity
  8
0
  6
PHANTOM
 62
     8
370
    18
100
AcDbLine
 10
-26.7568644739
 20
-114.826165029
 30
0.0
 11
-26.7568644739
 21
383.7445593997
 31
0.0
  0
LINE
  5
135
330
1F
100
AcDbEntity
  8
0
  6
PHANTOM
 62
     8
370
    18
100
AcDbLine
 10
-197.0317449833
 20
-115.0408028146
 30
0.0
 11
-197.0317449833
 21
383.9591971854
 31
0.0
  0
LINE
  5
136
330
1F
100
AcDbEntity
  8
0
  6
PHANTOM
 62
     8
370
    18
100
AcDbLine
 10
-19.4417449793
 20
-115.0408028146
 30
0.0
 11
-19.4417449793
 21
383.9591971854
 31
0.0
  0
LINE
  5
137
330
1F
100
AcDbEntity
  8
0
  6
PHANTOM
 62
     8
370
    18
100
AcDbLine
 10
-20.1266254846
 20
-114.826165029
 30
0.0
 11
-20.1266254846
 21
383.7445593997
 31
0.0
  0
LINE
  5
138
330
1F
100
AcDbEntity
  8
0
  6
PHANTOM
 62
     8
370
    18
100
AcDbLine
 10
-196.346864478
 20
-114.826165029
 30
0.0
 11
-196.346864478
 21
383.7445593997
 31
0.0
  0
LINE
  5
139
330
1F
100
AcDbEntity
  8
0
  6
PHANTOM
 62
     8
370
    18
100
AcDbLine
 10
-189.0317449833
 20
-115.0408028146
 30
0.0
 11
-189.0317449833
 21
383.9591971854
 31
0.0
  0
LINE
  5
13A
330
1F
100
AcDbEntity
  8
0
  6
PHANTOM
 62
     8
370
    18
100
AcDbLine
 10
-189.7166254887
 20
-114.8261650289
 30
0.0
 11
-189.7166254887
 21
383.7445593997
 31
0.0
  0
LINE
  5
13B
330
1F
100
AcDbEntity
  8
0
  6
PHANTOM
 62
     8
370
    18
100
AcDbLine
 10
-25.3251663689
 20
-113.8310567252
 30
0.0
 11
-25.3251663689
 21
382.749451096
 31
0.0
  0
LINE
  5
13C
330
1F
100
AcDbEntity
  8
0
  6
PHANTOM
 62
     8
370
    18
100
AcDbLine
 10
-194.915166373
 20
-113.8310567252
 30
0.0
 11
-194.915166373
 21
382.749451096
 31
0.0
  0
LINE
  5
13D
330
1F
100
AcDbEntity
  8
0
  6
PHANTOM
 62
     8
370
    18
100
AcDbLine
 10
-21.5583235896
 20
-113.8310567252
 30
0.0
 11
-21.5583235896
 21
382.749451096
 31
0.0
  0
LINE
  5
13E
330
1F
100
AcDbEntity
  8
0
  6
PHANTOM
 62
     8
370
    18
100
AcDbLine
 10
-191.1483235937
 20
-113.8310567252
 30
0.0
 11
-191.1483235937
 21
382.749451096
 31
0.0
  0
LINE
  5
13F
330
1F
100
AcDbEntity
  8
0
  6
CENTERX2
 62
     7
370
    18
100
AcDbLine
 10
9.463441532
 20
134.4591971854
 30
0.0
 11
-196.536558468
 21
134.4591971854
 31
0.0
  0
LINE
  5
140
330
1F
100
AcDbEntity
  8
0
  6
CENTERX2
 62
     7
370
    18
100
AcDbLine
 10
-93.536558468
 20
-120.0408028146
 30
0.0
 11
-93.536558468
 21
388.9591971854
 31
0.0
  0
LINE
  5
141
330
1F
100
AcDbEntity
  8
0
100
AcDbLine
 10
37.0346204977
 20
132.9591971854
 30
0.0
 11
37.5390584063
 21
132.9591971854
 31
0.0
  0
LINE
  5
142
330
1F
100
AcDbEntity
  8
0
100
AcDbLine
 10
44.3391807344
 20
132.9591971854
 30
0.0
 11
45.0401348867
 21
132.9591971854
 31
0.0
  0
LINE
  5
143
330
1F
100
AcDbEntity
  8
0
100
AcDbLine
 10
73.0346204977
 20
132.9591971854
 30
0.0
 11
91.0346204977
 21
132.9591971854
 31
0.0
  0
LINE
  5
144
330
1F
100
AcDbEntity
  8
0
100
AcDbLine
 10
106.0346204977
 20
132.9591971854
 30
0.0
 11
126.0346204977
 21
132.9591971854
 31
0.0
  0
LINE
  5
145
330
1F
100
AcDbEntity
  8
0
100
AcDbLine
 10
141.0346204977
 20
132.9591971854
 30
0.0
 11
161.0346204977
 21
132.9591971854
 31
0.0
  0
LINE
  5
146
330
1F
100
AcDbEntity
  8
0
100
AcDbLine
 10
176.0346204977
 20
132.9591971854
 30
0.0
 11
196.0346204977
 21
132.9591971854
 31
0.0
  0
LINE
  5
147
330
1F
100
AcDbEntity
  8
0
100
AcDbLine
 10
211.0346204977
 20
132.9591971854
 30
0.0
 11
231.0346204977
 21
132.9591971854
 31
0.0
  0
LINE
  5
148
330
1F
100
AcDbEntity
  8
0
100
AcDbLine
 10
246.0346204977
 20
132.9591971854
 30
0.0
 11
266.0346204977
 21
132.9591971854
 31
0.0
  0
LINE
  5
149
330
1F
100
AcDbEntity
  8
0
100
AcDbLine
 10
281.0346204977
 20
132.9591971854
 30
0.0
 11
301.0346204977
 21
132.9591971854
 31
0.0
  0
LINE
  5
14A
330
1F
100
AcDbEntity
  8
0
100
AcDbLine
 10
316.0346204977
 20
132.9591971854
 30
0.0
 11
336.0346204977
 21
132.9591971854
 31
0.0
  0
LINE
  5
14B
330
1F
100
AcDbEntity
  8
0
100
AcDbLine
 10
351.0346204977
 20
132.9591971854
 30
0.0
 11
371.0346204977
 21
132.9591971854
 31
0.0
  0
LINE
  5
14C
330
1F
100
AcDbEntity
  8
0
100
AcDbLine
 10
386.0346204977
 20
132.9591971854
 30
0.0
 11
406.0346204977
 21
132.9591971854
 31
0.0
  0
LINE
  5
14D
330
1F
100
AcDbEntity
  8
0
100
AcDbLine
 10
421.0346204977
 20
132.9591971854
 30
0.0
 11
441.0346204977
 21
132.9591971854
 31
0.0
  0
LINE
  5
14E
330
1F
100
AcDbEntity
  8
0
100
AcDbLine
 10
456.0346204977
 20
132.9591971854
 30
0.0
 11
476.0346204977
 21
132.9591971854
 31
0.0
  0
LINE
  5
14F
330
1F
100
AcDbEntity
  8
0
100
AcDbLine
 10
491.0346204977
 20
132.9591971854
 30
0.0
 11
509.0346204977
 21
132.9591971854
 31
0.0
  0
LINE
  5
150
330
1F
100
AcDbEntity
  8
0
100
AcDbLine
 10
537.0346204977
 20
132.9591971854
 30
0.0
 11
537.7300602609
 21
132.9591971854
 31
0.0
  0
LINE
  5
151
330
1F
100
AcDbEntity
  8
0
100
AcDbLine
 10
544.530182589
 20
132.9591971854
 30
0.0
 11
545.0346204977
 21
132.9591971854
 31
0.0
  0
LINE
  5
152
330
1F
100
AcDbEntity
  8
0
100
AcDbLine
 10
545.0346204977
 20
135.9591971854
 30
0.0
 11
544.530182589
 21
135.9591971854
 31
0.0
  0
LINE
  5
153
330
1F
100
AcDbEntity
  8
0
100
AcDbLine
 10
537.7300602609
 20
135.9591971854
 30
0.0
 11
537.0291061086
 21
135.9591971854
 31
0.0
  0
LINE
  5
154
330
1F
100
AcDbEntity
  8
0
100
AcDbLine
 10
509.0346204977
 20
135.9591971854
 30
0.0
 11
491.0346204977
 21
135.9591971854
 31
0.0
  0
LINE
  5
155
330
1F
100
AcDbEntity
  8
0
100
AcDbLine
 10
476.0346204977
 20
135.9591971854
 30
0.0
 11
456.0346204977
 21
135.9591971854
 31
0.0
  0
LINE
  5
156
330
1F
100
AcDbEntity
  8
0
100
AcDbLine
 10
441.0346204977
 20
135.9591971854
 30
0.0
 11
421.0346204977
 21
135.9591971854
 31
0.0
  0
LINE
  5
157
330
1F
100
AcDbEntity
  8
0
100
AcDbLine
 10
406.0346204977
 20
135.9591971854
 30
0.0
 11
386.0346204977
 21
135.9591971854
 31
0.0
  0
LINE
  5
158
330
1F
100
AcDbEntity
  8
0
100
AcDbLine
 10
371.0346204977
 20
135.9591971854
 30
0.0
 11
351.0346204977
 21
135.9591971854
 31
0.0
  0
LINE
  5
159
330
1F
100
AcDbEntity
  8
0
100
AcDbLine
 10
336.0346204977
 20
135.9591971854
 30
0.0
 11
316.0346204977
 21
135.9591971854
 31
0.0
  0
LINE
  5
15A
330
1F
100
AcDbEntity
  8
0
100
AcDbLine
 10
301.0346204977
 20
135.9591971854
 30
0.0
 11
281.0346204977
 21
135.9591971854
 31
0.0
  0
LINE
  5
15B
330
1F
100
AcDbEntity
  8
0
100
AcDbLine
 10
266.0346204977
 20
135.9591971854
 30
0.0
 11
246.0346204977
 21
135.9591971854
 31
0.0
  0
LINE
  5
15C
330
1F
100
AcDbEntity
  8
0
100
AcDbLine
 10
231.0346204977
 20
135.9591971854
 30
0.0
 11
211.0346204977
 21
135.9591971854
 31
0.0
  0
LINE
  5
15D
330
1F
100
AcDbEntity
  8
0
100
AcDbLine
 10
196.0346204977
 20
135.9591971854
 30
0.0
 11
176.0346204977
 21
135.9591971854
 31
0.0
  0
LINE
  5
15E
330
1F
100
AcDbEntity
  8
0
100
AcDbLine
 10
161.0346204977
 20
135.9591971854
 30
0.0
 11
141.0346204977
 21
135.9591971854
 31
0.0
  0
LINE
  5
15F
330
1F
100
AcDbEntity
  8
0
100
AcDbLine
 10
126.0346204977
 20
135.9591971854
 30
0.0
 11
106.0346204977
 21
135.9591971854
 31
0.0
  0
LINE
  5
160
330
1F
100
AcDbEntity
  8
0
100
AcDbLine
 10
91.0346204977
 20
135.9591971854
 30
0.0
 11
73.0346204977
 21
135.9591971854
 31
0.0
  0
LINE
  5
161
330
1F
100
AcDbEntity
  8
0
100
AcDbLine
 10
45.0346204977
 20
135.9591971854
 30
0.0
 11
44.3391807344
 21
135.9591971854
 31
0.0
  0
LINE
  5
162
330
1F
100
AcDbEntity
  8
0
100
AcDbLine
 10
37.5390584063
 20
135.9591971854
 30
0.0
 11
37.0346204977
 21
135.9591971854
 31
0.0
  0
LINE
  5
163
330
1F
100
AcDbEntity
  8
0
100
AcDbLine
 10
524.0346204977
 20
131.4591971854
 30
0.0
 11
537.0346204977
 21
131.4591971854
 31
0.0
  0
LINE
  5
164
330
1F
100
AcDbEntity
  8
0
100
AcDbLine
 10
537.0371454977
 20
137.4591971854
 30
0.0
 11
524.0346204977
 21
137.4591971854
 31
0.0
  0
LINE
  5
165
330
1F
100
AcDbEntity
  8
0
100
AcDbLine
 10
537.0320881019
 20
135.1026914505
 30
0.0
 11
537.0320881019
 21
135.1043809625
 31
0.0
  0
LINE
  5
166
330
1F
100
AcDbEntity
  8
0
100
AcDbLine
 10
58.0346204977
 20
131.4591971854
 30
0.0
 11
73.0346204977
 21
131.4591971854
 31
0.0
  0
LINE
  5
167
330
1F
100
AcDbEntity
  8
0
100
AcDbLine
 10
73.0346204977
 20
137.4591971854
 30
0.0
 11
58.0346204977
 21
137.4591971854
 31
0.0
  0
LINE
  5
168
330
1F
100
AcDbEntity
  8
0
100
AcDbLine
 10
91.0346204977
 20
131.4591971854
 30
0.0
 11
106.0346204977
 21
131.4591971854
 31
0.0
  0
LINE
  5
169
330
1F
100
AcDbEntity
  8
0
100
AcDbLine
 10
106.0346204977
 20
137.4591971854
 30
0.0
 11
91.0346204977
 21
137.4591971854
 31
0.0
  0
LINE
  5
16A
330
1F
100
AcDbEntity
  8
0
100
AcDbLine
 10
161.0346204977
 20
131.4591971854
 30
0.0
 11
176.0346204977
 21
131.4591971854
 31
0.0
  0
LINE
  5
16B
330
1F
100
AcDbEntity
  8
0
100
AcDbLine
 10
176.0346204977
 20
137.4591971854
 30
0.0
 11
161.0346204977
 21
137.4591971854
 31
0.0
  0
LINE
  5
16C
330
1F
100
AcDbEntity
  8
0
100
AcDbLine
 10
231.0346204977
 20
131.4591971854
 30
0.0
 11
246.0346204977
 21
131.4591971854
 31
0.0
  0
LINE
  5
16D
330
1F
100
AcDbEntity
  8
0
100
AcDbLine
 10
246.0346204977
 20
137.4591971854
 30
0.0
 11
231.0346204977
 21
137.4591971854
 31
0.0
  0
LINE
  5
16E
330
1F
100
AcDbEntity
  8
0
100
AcDbLine
 10
301.0346204977
 20
131.4591971854
 30
0.0
 11
316.0346204977
 21
131.4591971854
 31
0.0
  0
LINE
  5
16F
330
1F
100
AcDbEntity
  8
0
100
AcDbLine
 10
316.0346204977
 20
137.4591971854
 30
0.0
 11
301.0346204977
 21
137.4591971854
 31
0.0
  0
LINE
  5
170
330
1F
100
AcDbEntity
  8
0
100
AcDbLine
 10
371.0346204977
 20
131.4591971854
 30
0.0
 11
386.0346204977
 21
131.4591971854
 31
0.0
  0
LINE
  5
171
330
1F
100
AcDbEntity
  8
0
100
AcDbLine
 10
386.0346204977
 20
137.4591971854
 30
0.0
 11
371.0346204977
 21
137.4591971854
 31
0.0
  0
LINE
  5
172
330
1F
100
AcDbEntity
  8
0
100
AcDbLine
 10
441.0346204977
 20
131.4591971854
 30
0.0
 11
456.0346204977
 21
131.4591971854
 31
0.0
  0
LINE
  5
173
330
1F
100
AcDbEntity
  8
0
100
AcDbLine
 10
456.0346204977
 20
137.4591971854
 30
0.0
 11
441.0346204977
 21
137.4591971854
 31
0.0
  0
LINE
  5
174
330
1F
100
AcDbEntity
  8
0
100
AcDbLine
 10
58.0346204977
 20
137.4591971854
 30
0.0
 11
45.0346204977
 21
137.4591971854
 31
0.0
  0
LINE
  5
175
330
1F
100
AcDbEntity
  8
0
100
AcDbLine
 10
45.0320954977
 20
131.4591971854
 30
0.0
 11
58.0346204977
 21
131.4591971854
 31
0.0
  0
LINE
  5
176
330
1F
100
AcDbEntity
  8
0
100
AcDbLine
 10
45.0371528935
 20
133.8157029202
 30
0.0
 11
45.0371528935
 21
133.8140134083
 31
0.0
  0
LINE
  5
177
330
1F
100
AcDbEntity
  8
0
100
AcDbLine
 10
141.0346204977
 20
137.4591971854
 30
0.0
 11
126.0346204977
 21
137.4591971854
 31
0.0
  0
LINE
  5
178
330
1F
100
AcDbEntity
  8
0
100
AcDbLine
 10
126.0346204977
 20
131.4591971854
 30
0.0
 11
141.0346204977
 21
131.4591971854
 31
0.0
  0
LINE
  5
179
330
1F
100
AcDbEntity
  8
0
100
AcDbLine
 10
211.0346204977
 20
137.4591971854
 30
0.0
 11
196.0346204977
 21
137.4591971854
 31
0.0
  0
LINE
  5
17A
330
1F
100
AcDbEntity
  8
0
100
AcDbLine
 10
196.0346204977
 20
131.4591971854
 30
0.0
 11
211.0346204977
 21
131.4591971854
 31
0.0
  0
LINE
  5
17B
330
1F
100
AcDbEntity
  8
0
100
AcDbLine
 10
281.0346204977
 20
137.4591971854
 30
0.0
 11
266.0346204977
 21
137.4591971854
 31
0.0
  0
LINE
  5
17C
330
1F
100
AcDbEntity
  8
0
100
AcDbLine
 10
266.0346204977
 20
131.4591971854
 30
0.0
 11
281.0346204977
 21
131.4591971854
 31
0.0
  0
LINE
  5
17D
330
1F
100
AcDbEntity
  8
0
100
AcDbLine
 10
351.0346204977
 20
137.4591971854
 30
0.0
 11
336.0346204977
 21
137.4591971854
 31
0.0
  0
LINE
  5
17E
330
1F
100
AcDbEntity
  8
0
100
AcDbLine
 10
336.0346204977
 20
131.4591971854
 30
0.0
 11
351.0346204977
 21
131.4591971854
 31
0.0
  0
LINE
  5
17F
330
1F
100
AcDbEntity
  8
0
100
AcDbLine
 10
421.0346204977
 20
137.4591971854
 30
0.0
 11
406.0346204977
 21
137.4591971854
 31
0.0
  0
LINE
  5
180
330
1F
100
AcDbEntity
  8
0
100
AcDbLine
 10
406.0346204977
 20
131.4591971854
 30
0.0
 11
421.0346204977
 21
131.4591971854
 31
0.0
  0
LINE
  5
181
330
1F
100
AcDbEntity
  8
0
100
AcDbLine
 10
491.0346204977
 20
137.4591971854
 30
0.0
 11
476.0346204977
 21
137.4591971854
 31
0.0
  0
LINE
  5
182
330
1F
100
AcDbEntity
  8
0
100
AcDbLine
 10
476.0346204977
 20
131.4591971854
 30
0.0
 11
491.0346204977
 21
131.4591971854
 31
0.0
  0
LINE
  5
183
330
1F
100
AcDbEntity
  8
0
100
AcDbLine
 10
524.0346204977
 20
137.4591971854
 30
0.0
 11
509.0346204977
 21
137.4591971854
 31
0.0
  0
LINE
  5
184
330
1F
100
AcDbEntity
  8
0
100
AcDbLine
 10
509.0346204977
 20
131.4591971854
 30
0.0
 11
524.0346204977
 21
131.4591971854
 31
0.0
  0
ARC
  5
185
330
1F
100
AcDbEntity
  8
0
100
AcDbCircle
 10
291.0346204977
 20
134.4591971854
 30
0.0
 40
246.6999999999979
100
AcDbArc
 50
270.0
 51
269.8851787217
  0
ARC
  5
186
330
1F
100
AcDbEntity
  8
0
100
AcDbCircle
 10
291.0346204977
 20
134.4591971854
 30
0.0
 40
253.4999999999989
100
AcDbArc
 50
270.0
 51
90.0
  0
ARC
  5
187
330
1F
100
AcDbEntity
  8
0
100
AcDbCircle
 10
291.0346204977
 20
134.4591971854
 30
0.0
 40
253.4999999999989
100
AcDbArc
 50
90.0
 51
269.8851787217
  0
LINE
  5
188
330
1F
100
AcDbEntity
  8
0
100
AcDbLine
 10
545.0346204977
 20
135.9591971854
 30
0.0
 11
545.0346204977
 21
132.9591971854
 31
0.0
  0
LINE
  5
189
330
1F
100
AcDbEntity
  8
0
100
AcDbLine
 10
37.0346204977
 20
135.9591971854
 30
0.0
 11
37.0346204977
 21
132.9591971854
 31
0.0
  0
LINE
  5
18A
330
1F
100
AcDbEntity
  8
0
100
AcDbLine
 10
537.0346204977
 20
131.4591971854
 30
0.0
 11
537.0346204977
 21
134.3205221363
 31
0.0
  0
LINE
  5
18B
330
1F
100
AcDbEntity
  8
0
100
AcDbLine
 10
524.0346204977
 20
137.4591971854
 30
0.0
 11
524.0346204977
 21
131.4591971854
 31
0.0
  0
SPLINE
  5
18C
330
1F
100
AcDbEntity
  8
0
100
AcDbSpline
210
0.0
220
0.0
230
1.0
 70
     8
 71
     3
 72
    14
 73
    10
 74
     0
 42
0.00000001
 43
0.00000001
 40
0.0
 40
0.0
 40
0.0
 40
0.0
 40
0.1511322326170736
 40
0.3022644652341464
 40
0.4533966978512118
 40
0.6045289304682788
 40
0.7556611630853515
 40
0.9067933957024245
 40
1.0
 40
1.0
 40
1.0
 40
1.0
 10
537.0346107259352
 20
134.3205221335563
 30
0.0
 10
537.0338294064716
 20
134.5654461155114
 30
0.0
 10
537.0322667675442
 20
135.0552940794216
 30
0.0
 10
537.0299228091532
 20
135.756981752783
 30
0.0
 10
537.0275788507626
 20
136.380405769449
 30
0.0
 10
537.0252348923714
 20
136.8918325652912
 30
0.0
 10
537.0228909339805
 20
137.2510688225096
 30
0.0
 10
537.020846437988
 20
137.4443290384058
 30
0.0
 10
537.0195832614592
 20
137.4397836789984
 30
0.0
 10
537.019101404394
 20
137.4380497855207
 30
0.0
  0
LINE
  5
18D
330
1F
100
AcDbEntity
  8
0
100
AcDbLine
 10
537.0346204977
 20
134.3436346445
 30
0.0
 11
537.0346204977
 21
134.3205221363
 31
0.0
  0
LINE
  5
18E
330
1F
100
AcDbEntity
  8
0
100
AcDbLine
 10
73.0346204977
 20
131.4591971854
 30
0.0
 11
73.0346204977
 21
137.4591971854
 31
0.0
  0
LINE
  5
18F
330
1F
100
AcDbEntity
  8
0
100
AcDbLine
 10
58.0346204977
 20
137.4591971854
 30
0.0
 11
58.0346204977
 21
131.4591971854
 31
0.0
  0
LINE
  5
190
330
1F
100
AcDbEntity
  8
0
100
AcDbLine
 10
106.0346204977
 20
131.4591971854
 30
0.0
 11
106.0346204977
 21
137.4591971854
 31
0.0
  0
LINE
  5
191
330
1F
100
AcDbEntity
  8
0
100
AcDbLine
 10
91.0346204977
 20
137.4591971854
 30
0.0
 11
91.0346204977
 21
131.4591971854
 31
0.0
  0
LINE
  5
192
330
1F
100
AcDbEntity
  8
0
100
AcDbLine
 10
176.0346204977
 20
131.4591971854
 30
0.0
 11
176.0346204977
 21
137.4591971854
 31
0.0
  0
LINE
  5
193
330
1F
100
AcDbEntity
  8
0
100
AcDbLine
 10
161.0346204977
 20
137.4591971854
 30
0.0
 11
161.0346204977
 21
131.4591971854
 31
0.0
  0
LINE
  5
194
330
1F
100
AcDbEntity
  8
0
100
AcDbLine
 10
246.0346204977
 20
131.4591971854
 30
0.0
 11
246.0346204977
 21
137.4591971854
 31
0.0
  0
LINE
  5
195
330
1F
100
AcDbEntity
  8
0
100
AcDbLine
 10
231.0346204977
 20
137.4591971854
 30
0.0
 11
231.0346204977
 21
131.4591971854
 31
0.0
  0
LINE
  5
196
330
1F
100
AcDbEntity
  8
0
100
AcDbLine
 10
301.0346204977
 20
137.4591971854
 30
0.0
 11
301.0346204977
 21
131.4591971854
 31
0.0
  0
LINE
  5
197
330
1F
100
AcDbEntity
  8
0
100
AcDbLine
 10
316.0346204977
 20
131.4591971854
 30
0.0
 11
316.0346204977
 21
137.4591971854
 31
0.0
  0
LINE
  5
198
330
1F
100
AcDbEntity
  8
0
100
AcDbLine
 10
371.0346204977
 20
137.4591971854
 30
0.0
 11
371.0346204977
 21
131.4591971854
 31
0.0
  0
LINE
  5
199
330
1F
100
AcDbEntity
  8
0
100
AcDbLine
 10
386.0346204977
 20
131.4591971854
 30
0.0
 11
386.0346204977
 21
137.4591971854
 31
0.0
  0
LINE
  5
19A
330
1F
100
AcDbEntity
  8
0
100
AcDbLine
 10
441.0346204977
 20
137.4591971854
 30
0.0
 11
441.0346204977
 21
131.4591971854
 31
0.0
  0
LINE
  5
19B
330
1F
100
AcDbEntity
  8
0
100
AcDbLine
 10
456.0346204977
 20
131.4591971854
 30
0.0
 11
456.0346204977
 21
137.4591971854
 31
0.0
  0
ARC
  5
19C
330
1F
100
AcDbEntity
  8
0
100
AcDbCircle
 10
291.0346204977
 20
134.2511846118
 30
0.0
 40
246.0000000000001
100
AcDbArc
 50
0.747198338
 51
179.252801662
  0
LINE
  5
19D
330
1F
100
AcDbEntity
  8
0
100
AcDbLine
 10
45.0346204977
 20
137.4591971854
 30
0.0
 11
45.0346204977
 21
134.5978722344
 31
0.0
  0
SPLINE
  5
19E
330
1F
100
AcDbEntity
  8
0
100
AcDbSpline
210
0.0
220
0.0
230
1.0
 70
     8
 71
     3
 72
    14
 73
    10
 74
     0
 42
0.00000001
 43
0.00000001
 40
0.0
 40
0.0
 40
0.0
 40
0.0
 40
0.151132232617074
 40
0.3022644652341472
 40
0.4533966978512132
 40
0.6045289304682828
 40
0.7556611630853561
 40
0.9067933957024268
 40
1.0
 40
1.0
 40
1.0
 40
1.0
 10
45.03463026939844
 20
134.5978722371807
 30
0.0
 10
45.0354115888621
 20
134.3529482552256
 30
0.0
 10
45.03697422778938
 20
133.8631002913154
 30
0.0
 10
45.03931818618032
 20
133.161412617954
 30
0.0
 10
45.04166214457123
 20
132.537988601288
 30
0.0
 10
45.04400610296208
 20
132.0265618054458
 30
0.0
 10
45.04635006135313
 20
131.6673255482274
 30
0.0
 10
45.04839455734558
 20
131.4740653323313
 30
0.0
 10
45.04965773387451
 20
131.4786106917386
 30
0.0
 10
45.05013959093981
 20
131.4803445852163
 30
0.0
  0
LINE
  5
19F
330
1F
100
AcDbEntity
  8
0
100
AcDbLine
 10
45.0346204977
 20
134.5747597263
 30
0.0
 11
45.0346204977
 21
134.5978722344
 31
0.0
  0
LINE
  5
1A0
330
1F
100
AcDbEntity
  8
0
100
AcDbLine
 10
141.0346204977
 20
131.4591971854
 30
0.0
 11
141.0346204977
 21
137.4591971854
 31
0.0
  0
LINE
  5
1A1
330
1F
100
AcDbEntity
  8
0
100
AcDbLine
 10
126.0346204977
 20
137.4591971854
 30
0.0
 11
126.0346204977
 21
131.4591971854
 31
0.0
  0
LINE
  5
1A2
330
1F
100
AcDbEntity
  8
0
100
AcDbLine
 10
211.0346204977
 20
131.4591971854
 30
0.0
 11
211.0346204977
 21
137.4591971854
 31
0.0
  0
LINE
  5
1A3
330
1F
100
AcDbEntity
  8
0
100
AcDbLine
 10
196.0346204977
 20
137.4591971854
 30
0.0
 11
196.0346204977
 21
131.4591971854
 31
0.0
  0
LINE
  5
1A4
330
1F
100
AcDbEntity
  8
0
100
AcDbLine
 10
281.0346204977
 20
131.4591971854
 30
0.0
 11
281.0346204977
 21
137.4591971854
 31
0.0
  0
LINE
  5
1A5
330
1F
100
AcDbEntity
  8
0
100
AcDbLine
 10
266.0346204977
 20
137.4591971854
 30
0.0
 11
266.0346204977
 21
131.4591971854
 31
0.0
  0
LINE
  5
1A6
330
1F
100
AcDbEntity
  8
0
100
AcDbLine
 10
351.0346204977
 20
131.4591971854
 30
0.0
 11
351.0346204977
 21
137.4591971854
 31
0.0
  0
LINE
  5
1A7
330
1F
100
AcDbEntity
  8
0
100
AcDbLine
 10
336.0346204977
 20
137.4591971854
 30
0.0
 11
336.0346204977
 21
131.4591971854
 31
0.0
  0
LINE
  5
1A8
330
1F
100
AcDbEntity
  8
0
100
AcDbLine
 10
406.0346204977
 20
137.4591971854
 30
0.0
 11
406.0346204977
 21
131.4591971854
 31
0.0
  0
LINE
  5
1A9
330
1F
100
AcDbEntity
  8
0
100
AcDbLine
 10
421.0346204977
 20
131.4591971854
 30
0.0
 11
421.0346204977
 21
137.4591971854
 31
0.0
  0
LINE
  5
1AA
330
1F
100
AcDbEntity
  8
0
100
AcDbLine
 10
476.0346204977
 20
137.4591971854
 30
0.0
 11
476.0346204977
 21
131.4591971854
 31
0.0
  0
LINE
  5
1AB
330
1F
100
AcDbEntity
  8
0
100
AcDbLine
 10
491.0346204977
 20
131.4591971854
 30
0.0
 11
491.0346204977
 21
137.4591971854
 31
0.0
  0
LINE
  5
1AC
330
1F
100
AcDbEntity
  8
0
100
AcDbLine
 10
509.0346204977
 20
137.4591971854
 30
0.0
 11
509.0346204977
 21
131.4591971854
 31
0.0
  0
ARC
  5
1AD
330
1F
100
AcDbEntity
  8
0
100
AcDbCircle
 10
291.0346204977
 20
134.667209759
 30
0.0
 40
246.0000000000001
100
AcDbArc
 50
180.747198338
 51
359.252801662
  0
ARC
  5
1AE
330
1F
100
AcDbEntity
  8
0
100
AcDbCircle
 10
291.0346204977
 20
134.4591971854
 30
0.0
 40
248.5000000000001
100
AcDbArc
 50
270.0
 51
269.8851787217
  0
LINE
  5
1AF
330
1F
100
AcDbEntity
  8
0
100
AcDbLine
 10
290.5346204977
 20
-115.0403018121
 30
0.0
 11
290.5366245057
 21
-114.0403038202
 31
0.0
  0
ARC
  5
1B0
330
1F
100
AcDbEntity
  8
0
100
AcDbCircle
 10
291.0346204977
 20
134.4591971854
 30
0.0
 40
249.5000000000001
100
AcDbArc
 50
270.0
 51
269.8851787217
  0
LINE
  5
1B1
330
1F
100
AcDbEntity
  8
0
100
AcDbLine
 10
291.0346204977
 20
-115.0408028146
 30
0.0
 11
291.0346204977
 21
-114.0408028146
 31
0.0
  0
LINE
  5
1B2
330
1F
100
AcDbEntity
  8
0
100
AcDbLine
 10
291.0346204977
 20
-114.0050298504
 30
0.0
 11
291.0346204977
 21
-114.0408028146
 31
0.0
  0
LINE
  5
1B3
330
1F
100
AcDbEntity
  8
0
100
AcDbLine
 10
290.536696195
 20
-114.0045309277
 30
0.0
 11
290.5366245057
 21
-114.0403038202
 31
0.0
  0
LINE
  5
1B4
330
1F
100
AcDbEntity
  8
0
100
AcDbLine
 10
291.0346204977
 20
-113.0099215466
 30
0.0
 11
291.0346204977
 21
-114.0050298504
 31
0.0
  0
LINE
  5
1B5
330
1F
100
AcDbEntity
  8
0
100
AcDbLine
 10
290.5386904
 20
-113.0094246222
 30
0.0
 11
290.536696195
 21
-114.0045309277
 31
0.0
  0
LINE
  5
1B6
330
1F
100
AcDbEntity
  8
0
100
AcDbLine
 10
291.0346204977
 20
-112.2408028146
 30
0.0
 11
291.0346204977
 21
-113.0099215466
 31
0.0
  0
LINE
  5
1B7
330
1F
100
AcDbEntity
  8
0
100
AcDbLine
 10
290.5402317201
 20
-112.2403074346
 30
0.0
 11
290.5386904
 21
-113.0094246222
 31
0.0
  0
LINE
  5
1B8
330
1F
100
AcDbEntity
  8
0
100
AcDbLine
 10
290.5340130454
 20
-115.3434198605
 30
0.0
 11
290.5346204977
 21
-115.0403018121
 31
0.0
  0
LINE
  5
1B9
330
1F
100
AcDbEntity
  8
0
100
AcDbLine
 10
291.0346204977
 20
-115.3439214716
 30
0.0
 11
291.0346204977
 21
-115.0408028146
 31
0.0
  0
LINE
  5
1BA
330
1F
100
AcDbEntity
  8
0
100
AcDbLine
 10
290.5290342745
 20
-117.8278215867
 30
0.0
 11
290.5340130454
 21
-115.3434198605
 31
0.0
  0
LINE
  5
1BB
330
1F
100
AcDbEntity
  8
0
100
AcDbLine
 10
291.0346204977
 20
-117.8283281866
 30
0.0
 11
291.0346204977
 21
-115.3439214716
 31
0.0
  0
LINE
  5
1BC
330
1F
100
AcDbEntity
  8
0
100
AcDbLine
 10
290.5266044656
 20
-119.04029378
 30
0.0
 11
290.5290342745
 21
-117.8278215867
 31
0.0
  0
LINE
  5
1BD
330
1F
100
AcDbEntity
  8
0
100
AcDbLine
 10
291.0346204977
 20
-119.0408028146
 30
0.0
 11
291.0346204977
 21
-117.8283281866
 31
0.0
  0
ARC
  5
1BE
330
1F
100
AcDbEntity
  8
0
  6
PHANTOM
 62
     8
370
    18
100
AcDbCircle
 10
291.0346204977
 20
134.4591971854
 30
0.0
 40
248.4642270357199
100
AcDbArc
 50
270.0
 51
269.8851787217
  0
ARC
  5
1BF
330
1F
100
AcDbEntity
  8
0
  6
PHANTOM
 62
     8
370
    18
100
AcDbCircle
 10
291.0346204977
 20
134.4591971854
 30
0.0
 40
247.4691187320046
100
AcDbArc
 50
270.0
 51
269.8851787217
  0
ARC
  5
1C0
330
1F
100
AcDbEntity
  8
0
  6
PHANTOM
 62
     8
370
    18
100
AcDbCircle
 10
291.0346204977
 20
134.4591971854
 30
0.0
 40
249.8031186570037
100
AcDbArc
 50
270.0
 51
269.8851787217
  0
ARC
  5
1C1
330
1F
100
AcDbEntity
  8
0
  6
PHANTOM
 62
     8
370
    18
100
AcDbCircle
 10
291.0346204977
 20
134.4591971854
 30
0.0
 40
252.2875253719712
100
AcDbArc
 50
270.0
 51
269.8851787217
  0
INSERT
  5
1CD
330
1F
100
AcDbEntity
  8
0
  6
Continuous
 62
     7
370
     0
100
AcDbBlockReference
  2
SW_CENTERMARKSYMBOL_0
 10
291.0346204977
 20
134.4591971854
 30
0.0
  0
ENDSEC
  0
SECTION
  2
OBJECTS
  0
DICTIONARY
  5
C
330
0
100
AcDbDictionary
281
     1
  3
ACAD_GROUP
350
D
  3
ACAD_LAYOUT
350
1A
  3
ACAD_MLINESTYLE
350
17
  3
ACAD_PLOTSETTINGS
350
19
  3
ACAD_PLOTSTYLENAME
350
E
  3
ACAD_SCALELIST
350
47
  3
DWGPROPS
350
1CE
  0
DICTIONARY
  5
D
102
{ACAD_REACTORS
330
C
102
}
330
C
100
AcDbDictionary
281
     1
  0
DICTIONARY
  5
1A
102
{ACAD_REACTORS
330
C
102
}
330
C
100
AcDbDictionary
281
     1
  3
Layout1
350
1E
  3
Layout2
350
26
  3
Model
350
22
  0
DICTIONARY
  5
17
102
{ACAD_REACTORS
330
C
102
}
330
C
100
AcDbDictionary
281
     1
  3
Standard
350
18
  0
DICTIONARY
  5
19
102
{ACAD_REACTORS
330
C
102
}
330
C
100
AcDbDictionary
281
     1
  0
ACDBDICTIONARYWDFLT
  5
E
102
{ACAD_REACTORS
330
C
102
}
330
C
100
AcDbDictionary
281
     1
  3
Normal
350
F
100
AcDbDictionaryWithDefault
340
F
  0
DICTIONARY
  5
47
102
{ACAD_REACTORS
330
C
102
}
330
C
100
AcDbDictionary
281
     1
  3
A0
350
48
  3
A1
350
49
  3
A2
350
4A
  3
A3
350
4B
  3
A4
350
4C
  3
A5
350
4D
  3
A6
350
4E
  3
A7
350
4F
  3
A8
350
50
  3
A9
350
51
  3
B0
350
52
  3
B1
350
53
  3
B2
350
54
  3
B3
350
55
  3
B4
350
56
  3
B5
350
57
  3
B6
350
58
  0
XRECORD
  5
1CE
102
{ACAD_REACTORS
330
C
102
}
330
C
100
AcDbXrecord
280
     1
  1
DWGPROPS COOKIE
  2

  3

  4

  6

  7

  8
Simonas.Andriulis
  9

300
=
301
=
302
=
303
=
304
=
305
=
306
=
307
=
308
=
309
=
 40
0.0
 41
2460243.451444201
 42
2460243.451444329
  1

 90
        0
  0
LAYOUT
  5
1E
102
{ACAD_REACTORS
330
1A
102
}
330
1A
100
AcDbPlotSettings
  1

  2
none_device
  4

  6

 40
0.0
 41
0.0
 42
0.0
 43
0.0
 44
0.0
 45
0.0
 46
0.0
 47
0.0
 48
0.0
 49
0.0
140
0.0
141
0.0
142
1.0
143
1.0
 70
   688
 72
     1
 73
     0
 74
     5
  7

 75
    16
147
1.0
148
0.0
149
0.0
100
AcDbLayout
  1
Layout1
 70
     1
 71
     1
 10
0.0
 20
0.0
 11
420.0
 21
297.0
 12
0.0
 22
0.0
 32
0.0
 14
1.0000000000E+20
 24
1.0000000000E+20
 34
1.0000000000E+20
 15
-1.0000000000E+20
 25
-1.0000000000E+20
 35
-1.0000000000E+20
146
0.0
 13
0.0
 23
0.0
 33
0.0
 16
1.0
 26
0.0
 36
0.0
 17
0.0
 27
1.0
 37
0.0
 76
     0
330
1B
  0
LAYOUT
  5
26
102
{ACAD_REACTORS
330
1A
102
}
330
1A
100
AcDbPlotSettings
  1

  2
none_device
  4

  6

 40
0.0
 41
0.0
 42
0.0
 43
0.0
 44
0.0
 45
0.0
 46
0.0
 47
0.0
 48
0.0
 49
0.0
140
0.0
141
0.0
142
1.0
143
1.0
 70
   688
 72
     1
 73
     0
 74
     5
  7

 75
    16
147
1.0
148
0.0
149
0.0
100
AcDbLayout
  1
Layout2
 70
     1
 71
     2
 10
0.0
 20
0.0
 11
0.0
 21
0.0
 12
0.0
 22
0.0
 32
0.0
 14
0.0
 24
0.0
 34
0.0
 15
0.0
 25
0.0
 35
0.0
146
0.0
 13
0.0
 23
0.0
 33
0.0
 16
1.0
 26
0.0
 36
0.0
 17
0.0
 27
1.0
 37
0.0
 76
     0
330
23
  0
LAYOUT
  5
22
102
{ACAD_REACTORS
330
1A
102
}
330
1A
100
AcDbPlotSettings
  1

  2
none_device
  4
Letter_(8.50_x_11.00_Inches)
  6

 40
6.35
 41
6.35
 42
6.35000508
 43
6.35000508
 44
215.9
 45
279.4
 46
0.0
 47
0.0
 48
0.0
 49
0.0
140
0.0
141
0.0
142
1.0
143
1.0
 70
  1712
 72
     1
 73
     0
 74
     0
  7

 75
     0
147
1.0
148
0.0
149
0.0
100
AcDbLayout
  1
Model
 70
     1
 71
     0
 10
0.0
 20
0.0
 11
420.0
 21
297.0
 12
0.0
 22
0.0
 32
0.0
 14
0.0
 24
0.0
 34
0.0
 15
420.0
 25
297.0
 35
0.0
146
0.0
 13
0.0
 23
0.0
 33
0.0
 16
1.0
 26
0.0
 36
0.0
 17
0.0
 27
1.0
 37
0.0
 76
     0
330
1F
331
29
  0
MLINESTYLE
  5
18
102
{ACAD_REACTORS
330
17
102
}
330
17
100
AcDbMlineStyle
  2
Standard
 70
     0
  3

 62
   256
 51
90.0
 52
90.0
 71
     2
 49
0.5
 62
   256
  6
BYLAYER
 49
-0.5
 62
   256
  6
BYLAYER
  0
ACDBPLACEHOLDER
  5
F
102
{ACAD_REACTORS
330
E
102
}
330
E
  0
SCALE
  5
48
102
{ACAD_REACTORS
330
47
102
}
330
47
100
AcDbScale
 70
     0
300
1:1
140
1.0
141
1.0
290
     1
  0
SCALE
  5
49
102
{ACAD_REACTORS
330
47
102
}
330
47
100
AcDbScale
 70
     0
300
1:2
140
1.0
141
2.0
290
     0
  0
SCALE
  5
4A
102
{ACAD_REACTORS
330
47
102
}
330
47
100
AcDbScale
 70
     0
300
1:4
140
1.0
141
4.0
290
     0
  0
SCALE
  5
4B
102
{ACAD_REACTORS
330
47
102
}
330
47
100
AcDbScale
 70
     0
300
1:5
140
1.0
141
5.0
290
     0
  0
SCALE
  5
4C
102
{ACAD_REACTORS
330
47
102
}
330
47
100
AcDbScale
 70
     0
300
1:8
140
1.0
141
8.0
290
     0
  0
SCALE
  5
4D
102
{ACAD_REACTORS
330
47
102
}
330
47
100
AcDbScale
 70
     0
300
1:10
140
1.0
141
10.0
290
     0
  0
SCALE
  5
4E
102
{ACAD_REACTORS
330
47
102
}
330
47
100
AcDbScale
 70
     0
300
1:16
140
1.0
141
16.0
290
     0
  0
SCALE
  5
4F
102
{ACAD_REACTORS
330
47
102
}
330
47
100
AcDbScale
 70
     0
300
1:20
140
1.0
141
20.0
290
     0
  0
SCALE
  5
50
102
{ACAD_REACTORS
330
47
102
}
330
47
100
AcDbScale
 70
     0
300
1:30
140
1.0
141
30.0
290
     0
  0
SCALE
  5
51
102
{ACAD_REACTORS
330
47
102
}
330
47
100
AcDbScale
 70
     0
300
1:40
140
1.0
141
40.0
290
     0
  0
SCALE
  5
52
102
{ACAD_REACTORS
330
47
102
}
330
47
100
AcDbScale
 70
     0
300
1:50
140
1.0
141
50.0
290
     0
  0
SCALE
  5
53
102
{ACAD_REACTORS
330
47
102
}
330
47
100
AcDbScale
 70
     0
300
1:100
140
1.0
141
100.0
290
     0
  0
SCALE
  5
54
102
{ACAD_REACTORS
330
47
102
}
330
47
100
AcDbScale
 70
     0
300
2:1
140
2.0
141
1.0
290
     0
  0
SCALE
  5
55
102
{ACAD_REACTORS
330
47
102
}
330
47
100
AcDbScale
 70
     0
300
4:1
140
4.0
141
1.0
290
     0
  0
SCALE
  5
56
102
{ACAD_REACTORS
330
47
102
}
330
47
100
AcDbScale
 70
     0
300
8:1
140
8.0
141
1.0
290
     0
  0
SCALE
  5
57
102
{ACAD_REACTORS
330
47
102
}
330
47
100
AcDbScale
 70
     0
300
10:1
140
10.0
141
1.0
290
     0
  0
SCALE
  5
58
102
{ACAD_REACTORS
330
47
102
}
330
47
100
AcDbScale
 70
     0
300
100:1
140
100.0
141
1.0
290
     0
  0
ENDSEC
  0
EOF
